  0
SECTION
  2
HEADER
  9
$ACADVER
  1
AC1015
  9
$ACADMAINTVER
 70
     6
  9
$DWGCODEPAGE
  3
ANSI_1252
  9
$INSBASE
 10
0.0
 20
0.0
 30
0.0
  9
$EXTMIN
 10
0.0
 20
0.0
 30
0.0
  9
$EXTMAX
 10
1682.0
 20
2378.0
 30
0.0
  9
$LIMMIN
 10
0.0
 20
0.0
  9
$LIMMAX
 10
1682.0
 20
2378.0
  9
$ORTHOMODE
 70
     0
  9
$REGENMODE
 70
     1
  9
$FILLMODE
 70
     1
  9
$QTEXTMODE
 70
     0
  9
$MIRRTEXT
 70
     1
  9
$LTSCALE
 40
1.0
  9
$ATTMODE
 70
     1
  9
$TEXTSIZE
 40
2.5
  9
$TRACEWID
 40
1.0
  9
$TEXTSTYLE
  7
Standard
  9
$CLAYER
  8
0
  9
$CELTYPE
  6
ByLayer
  9
$CECOLOR
 62
   256
  9
$CELTSCALE
 40
1.0
  9
$DISPSILH
 70
     0
  9
$DIMSCALE
 40
1.0
  9
$DIMASZ
 40
2.5
  9
$DIMEXO
 40
0.625
  9
$DIMDLI
 40
3.75
  9
$DIMRND
 40
0.0
  9
$DIMDLE
 40
0.0
  9
$DIMEXE
 40
1.25
  9
$DIMTP
 40
0.0
  9
$DIMTM
 40
0.0
  9
$DIMTXT
 40
2.5
  9
$DIMCEN
 40
2.5
  9
$DIMTSZ
 40
0.0
  9
$DIMTOL
 70
     0
  9
$DIMLIM
 70
     0
  9
$DIMTIH
 70
     0
  9
$DIMTOH
 70
     0
  9
$DIMSE1
 70
     0
  9
$DIMSE2
 70
     0
  9
$DIMTAD
 70
     1
  9
$DIMZIN
 70
     8
  9
$DIMBLK
  1

  9
$DIMASO
 70
     1
  9
$DIMSHO
 70
     1
  9
$DIMPOST
  1

  9
$DIMAPOST
  1

  9
$DIMALT
 70
     0
  9
$DIMALTD
 70
     3
  9
$DIMALTF
 40
0.0393700787
  9
$DIMLFAC
 40
1.0
  9
$DIMTOFL
 70
     1
  9
$DIMTVP
 40
0.0
  9
$DIMTIX
 70
     0
  9
$DIMSOXD
 70
     0
  9
$DIMSAH
 70
     0
  9
$DIMBLK1
  1

  9
$DIMBLK2
  1

  9
$DIMSTYLE
  2
ISO-25
  9
$DIMCLRD
 70
     0
  9
$DIMCLRE
 70
     0
  9
$DIMCLRT
 70
     0
  9
$DIMTFAC
 40
1.0
  9
$DIMGAP
 40
0.625
  9
$DIMJUST
 70
     0
  9
$DIMSD1
 70
     0
  9
$DIMSD2
 70
     0
  9
$DIMTOLJ
 70
     0
  9
$DIMTZIN
 70
     8
  9
$DIMALTZ
 70
     0
  9
$DIMALTTZ
 70
     0
  9
$DIMUPT
 70
     0
  9
$DIMDEC
 70
     2
  9
$DIMTDEC
 70
     2
  9
$DIMALTU
 70
     2
  9
$DIMALTTD
 70
     3
  9
$DIMTXSTY
  7
Standard
  9
$DIMAUNIT
 70
     0
  9
$DIMADEC
 70
     0
  9
$DIMALTRND
 40
0.0
  9
$DIMAZIN
 70
     0
  9
$DIMDSEP
 70
    44
  9
$DIMATFIT
 70
     3
  9
$DIMFRAC
 70
     0
  9
$DIMLDRBLK
  1

  9
$DIMLUNIT
 70
     2
  9
$DIMLWD
 70
    -2
  9
$DIMLWE
 70
    -2
  9
$DIMTMOVE
 70
     0
  9
$LUNITS
 70
     2
  9
$LUPREC
 70
     4
  9
$SKETCHINC
 40
1.0
  9
$FILLETRAD
 40
10.0
  9
$AUNITS
 70
     0
  9
$AUPREC
 70
     0
  9
$MENU
  1
.
  9
$ELEVATION
 40
0.0
  9
$PELEVATION
 40
0.0
  9
$THICKNESS
 40
0.0
  9
$LIMCHECK
 70
     0
  9
$CHAMFERA
 40
10.0
  9
$CHAMFERB
 40
10.0
  9
$CHAMFERC
 40
20.0
  9
$CHAMFERD
 40
0.0
  9
$SKPOLY
 70
     0
  9
$TDCREATE
 40
2455519.399870822
  9
$TDUCREATE
 40
2455519.358204155
  9
$TDUPDATE
 40
2455519.399870833
  9
$TDUUPDATE
 40
2455519.358204167
  9
$TDINDWG
 40
0.0000000116
  9
$TDUSRTIMER
 40
0.0000000116
  9
$USRTIMER
 70
     1
  9
$ANGBASE
 50
0.0
  9
$ANGDIR
 70
     0
  9
$PDMODE
 70
     0
  9
$PDSIZE
 40
0.0
  9
$PLINEWID
 40
0.0
  9
$SPLFRAME
 70
     0
  9
$SPLINETYPE
 70
     6
  9
$SPLINESEGS
 70
     8
  9
$HANDSEED
  5
2A3
  9
$SURFTAB1
 70
     6
  9
$SURFTAB2
 70
     6
  9
$SURFTYPE
 70
     6
  9
$SURFU
 70
     6
  9
$SURFV
 70
     6
  9
$UCSBASE
  2

  9
$UCSNAME
  2

  9
$UCSORG
 10
0.0
 20
0.0
 30
0.0
  9
$UCSXDIR
 10
1.0
 20
0.0
 30
0.0
  9
$UCSYDIR
 10
0.0
 20
1.0
 30
0.0
  9
$UCSORTHOREF
  2

  9
$UCSORTHOVIEW
 70
     0
  9
$UCSORGTOP
 10
0.0
 20
0.0
 30
0.0
  9
$UCSORGBOTTOM
 10
0.0
 20
0.0
 30
0.0
  9
$UCSORGLEFT
 10
0.0
 20
0.0
 30
0.0
  9
$UCSORGRIGHT
 10
0.0
 20
0.0
 30
0.0
  9
$UCSORGFRONT
 10
0.0
 20
0.0
 30
0.0
  9
$UCSORGBACK
 10
0.0
 20
0.0
 30
0.0
  9
$PUCSBASE
  2

  9
$PUCSNAME
  2

  9
$PUCSORG
 10
0.0
 20
0.0
 30
0.0
  9
$PUCSXDIR
 10
1.0
 20
0.0
 30
0.0
  9
$PUCSYDIR
 10
0.0
 20
1.0
 30
0.0
  9
$PUCSORTHOREF
  2

  9
$PUCSORTHOVIEW
 70
     0
  9
$PUCSORGTOP
 10
0.0
 20
0.0
 30
0.0
  9
$PUCSORGBOTTOM
 10
0.0
 20
0.0
 30
0.0
  9
$PUCSORGLEFT
 10
0.0
 20
0.0
 30
0.0
  9
$PUCSORGRIGHT
 10
0.0
 20
0.0
 30
0.0
  9
$PUCSORGFRONT
 10
0.0
 20
0.0
 30
0.0
  9
$PUCSORGBACK
 10
0.0
 20
0.0
 30
0.0
  9
$USERI1
 70
     0
  9
$USERI2
 70
     0
  9
$USERI3
 70
     0
  9
$USERI4
 70
     0
  9
$USERI5
 70
     0
  9
$USERR1
 40
0.0
  9
$USERR2
 40
0.0
  9
$USERR3
 40
0.0
  9
$USERR4
 40
0.0
  9
$USERR5
 40
0.0
  9
$WORLDVIEW
 70
     1
  9
$SHADEDGE
 70
     3
  9
$SHADEDIF
 70
    70
  9
$TILEMODE
 70
     1
  9
$MAXACTVP
 70
    64
  9
$PINSBASE
 10
0.0
 20
0.0
 30
0.0
  9
$PLIMCHECK
 70
     0
  9
$PEXTMIN
 10
0.0
 20
0.0
 30
0.0
  9
$PEXTMAX
 10
1682.0
 20
2378.0
 30
0.0
  9
$PLIMMIN
 10
0.0
 20
0.0
  9
$PLIMMAX
 10
1682.0
 20
2378.0
  9
$UNITMODE
 70
     0
  9
$VISRETAIN
 70
     1
  9
$PLINEGEN
 70
     0
  9
$PSLTSCALE
 70
     1
  9
$TREEDEPTH
 70
  3020
  9
$CMLSTYLE
  2
Standard
  9
$CMLJUST
 70
     0
  9
$CMLSCALE
 40
20.0
  9
$PROXYGRAPHICS
 70
     1
  9
$MEASUREMENT
 70
     1
  9
$CELWEIGHT
370
    -1
  9
$ENDCAPS
280
     0
  9
$JOINSTYLE
280
     0
  9
$LWDISPLAY
290
     0
  9
$INSUNITS
 70
     4
  9
$HYPERLINKBASE
  1

  9
$STYLESHEET
  1

  9
$XEDIT
290
     1
  9
$CEPSNTYPE
380
     0
  9
$PSTYLEMODE
290
     1
  9
$FINGERPRINTGUID
  2
{8EBD2107-B26A-4847-B403-434CD35CA858}
  9
$VERSIONGUID
  2
{FAEB1C32-E019-11D5-929B-00C0DF256EC4}
  9
$EXTNAMES
290
     1
  9
$PSVPSCALE
 40
0.0
  9
$OLESTARTUP
290
     0
  0
ENDSEC
  0
SECTION
  2
CLASSES
  0
CLASS
  1
ACDBDICTIONARYWDFLT
  2
AcDbDictionaryWithDefault
  3
ObjectDBX Classes
 90
        0
280
     0
281
     0
  0
CLASS
  1
VISUALSTYLE
  2
AcDbVisualStyle
  3
ObjectDBX Classes
 90
     4095
280
     0
281
     0
  0
CLASS
  1
SCALE
  2
AcDbScale
  3
ObjectDBX Classes
 90
     1153
280
     0
281
     0
  0
CLASS
  1
DICTIONARYVAR
  2
AcDbDictionaryVar
  3
ObjectDBX Classes
 90
        0
280
     0
281
     0
  0
CLASS
  1
ACDBPLACEHOLDER
  2
AcDbPlaceHolder
  3
ObjectDBX Classes
 90
        0
280
     0
281
     0
  0
CLASS
  1
LAYOUT
  2
AcDbLayout
  3
ObjectDBX Classes
 90
        0
280
     0
281
     0
  0
ENDSEC
  0
SECTION
  2
TABLES
  0
TABLE
  2
VPORT
  5
8
330
0
100
AcDbSymbolTable
 70
     1
  0
VPORT
  5
29
330
8
100
AcDbSymbolTableRecord
100
AcDbViewportTableRecord
  2
*Active
 70
     0
 10
0.0
 20
0.0
 11
1.0
 21
1.0
 12
344.1869158879
 22
148.5
 13
0.0
 23
0.0
 14
10.0
 24
10.0
 15
10.0
 25
10.0
 16
0.0
 26
0.0
 36
1.0
 17
0.0
 27
0.0
 37
0.0
 40
297.0
 41
1.9729729729
 42
50.0
 43
0.0
 44
0.0
 50
0.0
 51
0.0
 71
     0
 72
   100
 73
     1
 74
     3
 75
     0
 76
     0
 77
     0
 78
     0
281
     0
 65
     1
110
0.0
120
0.0
130
0.0
111
1.0
121
0.0
131
0.0
112
0.0
122
1.0
132
0.0
 79
     0
146
0.0
  0
ENDTAB
  0
TABLE
  2
LTYPE
  5
5
330
0
100
AcDbSymbolTable
 70
     2
  0
LTYPE
  5
14
330
5
100
AcDbSymbolTableRecord
100
AcDbLinetypeTableRecord
  2
ByBlock
 70
     0
  3

 72
    65
 73
     0
 40
0.0
  0
LTYPE
  5
15
330
5
100
AcDbSymbolTableRecord
100
AcDbLinetypeTableRecord
  2
ByLayer
 70
     0
  3

 72
    65
 73
     0
 40
0.0
  0
LTYPE
  5
16
330
5
100
AcDbSymbolTableRecord
100
AcDbLinetypeTableRecord
  2
Continuous
 70
     0
  3
Solid line
 72
    65
 73
     0
 40
0.0
  0
LTYPE
  5
60
330
5
100
AcDbSymbolTableRecord
100
AcDbLinetypeTableRecord
  2
CENTER2
 70
     0
  3
Center (.5x) ___ _ ___ _ ___ _ ___ _ ___ _ ___
 72
    65
 73
     4
 40
28.575
 49
19.05
 74
     4
 75
     0
340
0
 46
0.0
 50
0.0
 44
0.0
 45
0.0
 49
-3.175
 74
     4
 75
     0
340
0
 46
0.0
 50
0.0
 44
0.0
 45
0.0
 49
3.175
 74
     4
 75
     0
340
0
 46
0.0
 50
0.0
 44
0.0
 45
0.0
 49
-3.175
 74
     4
 75
     0
340
0
 46
0.0
 50
0.0
 44
0.0
 45
0.0
  0
ENDTAB
  0
TABLE
  2
LAYER
  5
2
330
0
100
AcDbSymbolTable
 70
    11
  0
LAYER
  5
10
330
2
100
AcDbSymbolTableRecord
100
AcDbLayerTableRecord
  2
0
 70
     0
 62
     7
  6
Continuous
370
    -3
390
F
  0
LAYER
  5
5D
330
2
100
AcDbSymbolTableRecord
100
AcDbLayerTableRecord
  2
Default
 70
     0
 62
     7
  6
Continuous
370
    -3
390
F
  0
LAYER
  5
77
330
2
100
AcDbSymbolTableRecord
100
AcDbLayerTableRecord
  2
$DDT_AUDIT_GENERATED_(77)
 70
     0
 62
     7
  6
Continuous
370
    -3
390
F
  0
LAYER
  5
7F
330
2
100
AcDbSymbolTableRecord
100
AcDbLayerTableRecord
  2
$DDT_AUDIT_GENERATED_(7F)
 70
     0
 62
     7
  6
Continuous
370
    -3
390
F
  0
LAYER
  5
8A
330
2
100
AcDbSymbolTableRecord
100
AcDbLayerTableRecord
  2
$DDT_AUDIT_GENERATED_(8A)
 70
     0
 62
     7
  6
Continuous
370
    -3
390
F
  0
LAYER
  5
8F
330
2
100
AcDbSymbolTableRecord
100
AcDbLayerTableRecord
  2
$DDT_AUDIT_GENERATED_(8F)
 70
     0
 62
     7
  6
Continuous
370
    -3
390
F
  0
LAYER
  5
96
330
2
100
AcDbSymbolTableRecord
100
AcDbLayerTableRecord
  2
$DDT_AUDIT_GENERATED_(96)
 70
     0
 62
     7
  6
Continuous
370
    -3
390
F
  0
LAYER
  5
9A
330
2
100
AcDbSymbolTableRecord
100
AcDbLayerTableRecord
  2
$DDT_AUDIT_GENERATED_(9A)
 70
     0
 62
     7
  6
Continuous
370
    -3
390
F
  0
LAYER
  5
A4
330
2
100
AcDbSymbolTableRecord
100
AcDbLayerTableRecord
  2
$DDT_AUDIT_GENERATED_(A4)
 70
     0
 62
     7
  6
Continuous
370
    -3
390
F
  0
LAYER
  5
BB
330
2
100
AcDbSymbolTableRecord
100
AcDbLayerTableRecord
  2
$DDT_AUDIT_GENERATED_(BB)
 70
     0
 62
     7
  6
Continuous
370
    -3
390
F
  0
LAYER
  5
26B
330
2
100
AcDbSymbolTableRecord
100
AcDbLayerTableRecord
  2
$DDT_AUDIT_GENERATED_(26B)
 70
     0
 62
     7
  6
Continuous
370
    -3
390
F
  0
ENDTAB
  0
TABLE
  2
STYLE
  5
3
330
0
100
AcDbSymbolTable
 70
     2
  0
STYLE
  5
11
330
3
100
AcDbSymbolTableRecord
100
AcDbTextStyleTableRecord
  2
Standard
 70
     0
 40
0.0
 41
1.0
 50
0.0
 71
     0
 42
2.5
  3
txt
  4

  0
STYLE
  5
292
330
3
100
AcDbSymbolTableRecord
100
AcDbTextStyleTableRecord
  2
SEACAD_seiso_ttf
 70
     0
 40
0.0
 41
1.0
 50
0.0
 71
     0
 42
0.2
  3
seiso.ttf
  4

  0
ENDTAB
  0
TABLE
  2
VIEW
  5
6
330
0
100
AcDbSymbolTable
 70
     0
  0
ENDTAB
  0
TABLE
  2
UCS
  5
7
330
0
100
AcDbSymbolTable
 70
     0
  0
ENDTAB
  0
TABLE
  2
APPID
  5
9
330
0
100
AcDbSymbolTable
 70
     1
  0
APPID
  5
12
330
9
100
AcDbSymbolTableRecord
100
AcDbRegAppTableRecord
  2
ACAD
 70
     0
  0
ENDTAB
  0
TABLE
  2
DIMSTYLE
  5
A
330
0
100
AcDbSymbolTable
 70
     1
100
AcDbDimStyleTable
  0
DIMSTYLE
105
27
330
A
100
AcDbSymbolTableRecord
100
AcDbDimStyleTableRecord
  2
ISO-25
 70
     0
 41
2.5
 42
0.625
 43
3.75
 44
1.25
 73
     0
 74
     0
 77
     1
 78
     8
140
2.5
141
2.5
143
0.0393700787
147
0.625
171
     3
172
     1
271
     2
272
     2
274
     3
278
    44
283
     0
284
     8
340
11
  0
ENDTAB
  0
TABLE
  2
BLOCK_RECORD
  5
1
330
0
100
AcDbSymbolTable
 70
     7
  0
BLOCK_RECORD
  5
1F
330
1
100
AcDbSymbolTableRecord
100
AcDbBlockTableRecord
  2
*Model_Space
340
22
  0
BLOCK_RECORD
  5
1B
330
1
100
AcDbSymbolTableRecord
100
AcDbBlockTableRecord
  2
*Paper_Space
340
1E
  0
BLOCK_RECORD
  5
5E
330
1
100
AcDbSymbolTableRecord
100
AcDbBlockTableRecord
  2
SEANNOT_GROUP
340
0
102
{BLKREFS
331
5F
102
}
  0
BLOCK_RECORD
  5
65
330
1
100
AcDbSymbolTableRecord
100
AcDbBlockTableRecord
  2
SEANNOT_GROUP1
340
0
102
{BLKREFS
331
66
102
}
  0
BLOCK_RECORD
  5
6B
330
1
100
AcDbSymbolTableRecord
100
AcDbBlockTableRecord
  2
SEANNOT_GROUP2
340
0
102
{BLKREFS
331
6C
102
}
  0
BLOCK_RECORD
  5
75
330
1
100
AcDbSymbolTableRecord
100
AcDbBlockTableRecord
  2
SE
340
0
102
{BLKREFS
331
76
102
}
  0
BLOCK_RECORD
  5
242
330
1
100
AcDbSymbolTableRecord
100
AcDbBlockTableRecord
  2
SE1
340
0
102
{BLKREFS
331
243
102
}
  0
BLOCK_RECORD
  5
273
330
1
100
AcDbSymbolTableRecord
100
AcDbBlockTableRecord
  2
SE2
340
0
102
{BLKREFS
331
274
102
}
  0
ENDTAB
  0
ENDSEC
  0
SECTION
  2
BLOCKS
  0
BLOCK
  5
20
330
1F
100
AcDbEntity
  8
0
100
AcDbBlockBegin
  2
*Model_Space
 70
     0
 10
0.0
 20
0.0
 30
0.0
  3
*Model_Space
  1

  0
ENDBLK
  5
21
330
1F
100
AcDbEntity
  8
0
100
AcDbBlockEnd
  0
BLOCK
  5
1C
330
1B
100
AcDbEntity
 67
     1
  8
0
100
AcDbBlockBegin
  2
*Paper_Space
 70
     0
 10
0.0
 20
0.0
 30
0.0
  3
*Paper_Space
  1

  0
ENDBLK
  5
1D
330
1B
100
AcDbEntity
 67
     1
  8
0
100
AcDbBlockEnd
  0
BLOCK
  5
63
330
5E
100
AcDbEntity
  8
0
100
AcDbBlockBegin
  2
SEANNOT_GROUP
 70
     0
 10
0.0
 20
0.0
 30
0.0
  3
SEANNOT_GROUP
  1

  0
LINE
  5
61
330
5E
100
AcDbEntity
  8
Default
  6
CENTER2
 62
     7
100
AcDbLine
 10
244.8408470473
 20
430.7877546463
 30
0.0
 11
204.8408479414
 21
430.7877546463
 31
0.0
  0
LINE
  5
62
330
5E
100
AcDbEntity
  8
Default
  6
CENTER2
 62
     7
100
AcDbLine
 10
224.8408474944
 20
450.7877541992
 30
0.0
 11
224.8408474944
 21
410.7877550933
 31
0.0
  0
ENDBLK
  5
64
330
5E
100
AcDbEntity
  8
0
100
AcDbBlockEnd
  0
BLOCK
  5
69
330
65
100
AcDbEntity
  8
0
100
AcDbBlockBegin
  2
SEANNOT_GROUP1
 70
     0
 10
0.0
 20
0.0
 30
0.0
  3
SEANNOT_GROUP1
  1

  0
LINE
  5
67
330
65
100
AcDbEntity
  8
Default
  6
CENTER2
 62
     7
100
AcDbLine
 10
473.9304491961
 20
430.7877546463
 30
0.0
 11
433.9304500902
 21
430.7877546463
 31
0.0
  0
LINE
  5
68
330
65
100
AcDbEntity
  8
Default
  6
CENTER2
 62
     7
100
AcDbLine
 10
453.9304496432
 20
450.7877541992
 30
0.0
 11
453.9304496432
 21
410.7877550933
 31
0.0
  0
ENDBLK
  5
6A
330
65
100
AcDbEntity
  8
0
100
AcDbBlockEnd
  0
BLOCK
  5
73
330
6B
100
AcDbEntity
  8
0
100
AcDbBlockBegin
  2
SEANNOT_GROUP2
 70
     0
 10
0.0
 20
0.0
 30
0.0
  3
SEANNOT_GROUP2
  1

  0
LINE
  5
6D
330
6B
100
AcDbEntity
  8
Default
  6
CENTER2
 62
     7
100
AcDbLine
 10
244.8408470473
 20
277.417430974
 30
0.0
 11
204.8408479414
 21
277.417430974
 31
0.0
  0
LINE
  5
6E
330
6B
100
AcDbEntity
  8
Default
  6
CENTER2
 62
     7
100
AcDbLine
 10
224.8408474944
 20
297.417430527
 30
0.0
 11
224.8408474944
 21
257.417431421
 31
0.0
  0
LINE
  5
6F
330
6B
100
AcDbEntity
  8
Default
  6
CENTER2
 62
     7
100
AcDbLine
 10
249.8408469356
 20
277.417430974
 30
0.0
 11
247.8908474944
 21
277.417430974
 31
0.0
  0
LINE
  5
70
330
6B
100
AcDbEntity
  8
Default
  6
CENTER2
 62
     7
100
AcDbLine
 10
224.8408474944
 20
302.4174304152
 30
0.0
 11
224.8408474944
 21
300.467430974
 31
0.0
  0
LINE
  5
71
330
6B
100
AcDbEntity
  8
Default
  6
CENTER2
 62
     7
100
AcDbLine
 10
199.8408480531
 20
277.417430974
 30
0.0
 11
201.7908474944
 21
277.417430974
 31
0.0
  0
LINE
  5
72
330
6B
100
AcDbEntity
  8
Default
  6
CENTER2
 62
     7
100
AcDbLine
 10
224.8408474944
 20
252.4174315328
 30
0.0
 11
224.8408474944
 21
254.367430974
 31
0.0
  0
ENDBLK
  5
74
330
6B
100
AcDbEntity
  8
0
100
AcDbBlockEnd
  0
BLOCK
  5
240
330
75
100
AcDbEntity
  8
0
100
AcDbBlockBegin
  2
SE
 70
     0
 10
0.0
 20
0.0
 30
0.0
  3
SE
  1

  0
LINE
  5
78
330
75
100
AcDbEntity
  8
$DDT_AUDIT_GENERATED_(77)
  6
Continuous
 62
     7
100
AcDbLine
 10
157.3408474944
 20
430.7877546463
 30
0.0
 11
124.5973184238
 21
430.7877546463
 31
0.0
  0
LINE
  5
79
330
75
100
AcDbEntity
  8
$DDT_AUDIT_GENERATED_(77)
  6
Continuous
 62
     7
100
AcDbLine
 10
292.3408474944
 20
430.7877546463
 30
0.0
 11
325.0843765649
 21
430.7877546463
 31
0.0
  0
LINE
  5
7A
330
75
100
AcDbEntity
  8
$DDT_AUDIT_GENERATED_(77)
  6
Continuous
 62
     7
100
AcDbLine
 10
157.3408474944
 20
430.7877546463
 30
0.0
 11
292.3408474944
 21
430.7877546463
 31
0.0
  0
LINE
  5
7B
330
75
100
AcDbEntity
  8
$DDT_AUDIT_GENERATED_(77)
  6
Continuous
 62
     7
100
AcDbLine
 10
124.8331973584
 20
439.7956077414
 30
0.0
 11
124.5973184238
 21
430.7877546463
 31
0.0
  0
ARC
  5
7C
330
75
100
AcDbEntity
  8
$DDT_AUDIT_GENERATED_(77)
  6
Continuous
 62
     7
100
AcDbCircle
 10
125.1330945556
 20
439.7877546463
 30
0.0
 40
0.3000000000000663
100
AcDbArc
 50
89.9999618783
 51
178.4999979625
  0
ARC
  5
7D
330
75
100
AcDbEntity
  8
$DDT_AUDIT_GENERATED_(77)
  6
Continuous
 62
     7
100
AcDbCircle
 10
324.5486004331
 20
439.7877546463
 30
0.0
 40
0.3000000000033038
100
AcDbArc
 50
1.5000020375
 51
90.0000381218
  0
LINE
  5
7E
330
75
100
AcDbEntity
  8
$DDT_AUDIT_GENERATED_(77)
  6
Continuous
 62
     7
100
AcDbLine
 10
325.0843765649
 20
430.7877546463
 30
0.0
 11
324.8484976303
 21
439.7956077414
 31
0.0
  0
LINE
  5
80
330
75
100
AcDbEntity
  8
$DDT_AUDIT_GENERATED_(7F)
  6
Continuous
 62
     7
100
AcDbLine
 10
157.3408474944
 20
440.0877546463
 30
0.0
 11
124.8408474944
 21
440.0877546463
 31
0.0
  0
LINE
  5
81
330
75
100
AcDbEntity
  8
$DDT_AUDIT_GENERATED_(7F)
  6
Continuous
 62
     7
100
AcDbLine
 10
292.3408474944
 20
440.0877546463
 30
0.0
 11
324.8408474944
 21
440.0877546463
 31
0.0
  0
LINE
  5
82
330
75
100
AcDbEntity
  8
$DDT_AUDIT_GENERATED_(7F)
  6
Continuous
 62
     7
100
AcDbLine
 10
292.3408474944
 20
440.0877546463
 30
0.0
 11
157.3408474944
 21
440.0877546463
 31
0.0
  0
LINE
  5
83
330
75
100
AcDbEntity
  8
$DDT_AUDIT_GENERATED_(7F)
  6
Continuous
 62
     7
100
AcDbLine
 10
292.3408474944
 20
444.0877546463
 30
0.0
 11
323.8408474944
 21
444.0877546463
 31
0.0
  0
LINE
  5
84
330
75
100
AcDbEntity
  8
$DDT_AUDIT_GENERATED_(7F)
  6
Continuous
 62
     7
100
AcDbLine
 10
157.3408474944
 20
444.0877546463
 30
0.0
 11
125.8408474944
 21
444.0877546463
 31
0.0
  0
LINE
  5
85
330
75
100
AcDbEntity
  8
$DDT_AUDIT_GENERATED_(7F)
  6
Continuous
 62
     7
100
AcDbLine
 10
157.3408474944
 20
444.0877546463
 30
0.0
 11
292.3408474944
 21
444.0877546463
 31
0.0
  0
LINE
  5
86
330
75
100
AcDbEntity
  8
$DDT_AUDIT_GENERATED_(7F)
  6
Continuous
 62
     7
100
AcDbLine
 10
124.8408474944
 20
443.0877546463
 30
0.0
 11
124.8408474944
 21
440.0877546463
 31
0.0
  0
LINE
  5
87
330
75
100
AcDbEntity
  8
$DDT_AUDIT_GENERATED_(7F)
  6
Continuous
 62
     7
100
AcDbLine
 10
324.8408474944
 20
440.0877546463
 30
0.0
 11
324.8408474944
 21
443.0877546463
 31
0.0
  0
ARC
  5
88
330
75
100
AcDbEntity
  8
$DDT_AUDIT_GENERATED_(7F)
  6
Continuous
 62
     7
100
AcDbCircle
 10
125.8408474944
 20
443.0877546463
 30
0.0
 40
0.9999999999999991
100
AcDbArc
 50
90.0
 51
180.0
  0
ARC
  5
89
330
75
100
AcDbEntity
  8
$DDT_AUDIT_GENERATED_(7F)
  6
Continuous
 62
     7
100
AcDbCircle
 10
323.8408474944
 20
443.0877546463
 30
0.0
 40
1.000000000000001
100
AcDbArc
 50
0.0
 51
90.0
  0
LINE
  5
8B
330
75
100
AcDbEntity
  8
$DDT_AUDIT_GENERATED_(8A)
  6
Continuous
 62
     7
100
AcDbLine
 10
177.9908474944
 20
445.3877546463
 30
0.0
 11
136.6908474944
 21
445.3877546463
 31
0.0
  0
LINE
  5
8C
330
75
100
AcDbEntity
  8
$DDT_AUDIT_GENERATED_(8A)
  6
Continuous
 62
     7
100
AcDbLine
 10
136.6908474944
 20
445.3877546463
 30
0.0
 11
136.6908474944
 21
445.2877546463
 31
0.0
  0
LINE
  5
8D
330
75
100
AcDbEntity
  8
$DDT_AUDIT_GENERATED_(8A)
  6
Continuous
 62
     7
100
AcDbLine
 10
177.9908474944
 20
445.2877546463
 30
0.0
 11
177.9908474944
 21
445.3877546463
 31
0.0
  0
ARC
  5
8E
330
75
100
AcDbEntity
  8
$DDT_AUDIT_GENERATED_(8A)
  6
Continuous
 62
     7
100
AcDbCircle
 10
157.3408474944
 20
347.5430945978
 30
0.0
 40
100.0
100
AcDbArc
 50
78.08267827
 51
101.91732173
  0
LINE
  5
90
330
75
100
AcDbEntity
  8
$DDT_AUDIT_GENERATED_(8F)
  6
Continuous
 62
     7
100
AcDbLine
 10
181.9908474944
 20
444.1877546463
 30
0.0
 11
132.6908474944
 21
444.1877546463
 31
0.0
  0
LINE
  5
91
330
75
100
AcDbEntity
  8
$DDT_AUDIT_GENERATED_(8F)
  6
Continuous
 62
     7
100
AcDbLine
 10
178.0908474944
 20
445.2877546463
 30
0.0
 11
136.5908474944
 21
445.2877546463
 31
0.0
  0
ARC
  5
92
330
75
100
AcDbEntity
  8
$DDT_AUDIT_GENERATED_(8F)
  6
Continuous
 62
     7
100
AcDbCircle
 10
161.7812917047
 20
348.5125433549
 30
0.0
 40
100.0
100
AcDbArc
 50
104.5902359207
 51
106.9121114062
  0
ARC
  5
93
330
75
100
AcDbEntity
  8
$DDT_AUDIT_GENERATED_(8F)
  6
Continuous
 62
     7
100
AcDbCircle
 10
152.900403284
 20
348.5125433549
 30
0.0
 40
100.0
100
AcDbArc
 50
73.0878885938
 51
75.4097640793
  0
LINE
  5
94
330
75
100
AcDbEntity
  8
$DDT_AUDIT_GENERATED_(8F)
  6
Continuous
 62
     7
100
AcDbLine
 10
181.9908474944
 20
444.0877546463
 30
0.0
 11
181.9908474944
 21
444.1877546463
 31
0.0
  0
LINE
  5
95
330
75
100
AcDbEntity
  8
$DDT_AUDIT_GENERATED_(8F)
  6
Continuous
 62
     7
100
AcDbLine
 10
132.6908474944
 20
444.1877546463
 30
0.0
 11
132.6908474944
 21
444.0877546463
 31
0.0
  0
SPLINE
  5
97
330
75
100
AcDbEntity
  8
$DDT_AUDIT_GENERATED_(96)
  6
Continuous
 62
     7
100
AcDbSpline
210
0.0
220
0.0
230
1.0
 70
     8
 71
     3
 72
    38
 73
    34
 74
     0
 42
0.0000000001196339
 43
0.0000000001
 40
0.2500863520127531
 40
0.2500863520127531
 40
0.2500863520127531
 40
0.2500863520127531
 40
0.2812500000000005
 40
0.2812500000000005
 40
0.3125000000000006
 40
0.3125000000000006
 40
0.3437500000000006
 40
0.3437500000000006
 40
0.3750000000000007
 40
0.3750000000000007
 40
0.4062500000000007
 40
0.4062500000000007
 40
0.4375000000000007
 40
0.4375000000000007
 40
0.4687500000000007
 40
0.4687500000000007
 40
0.5000000000000007
 40
0.5000000000000007
 40
0.5312500000000008
 40
0.5312500000000008
 40
0.5625000000000007
 40
0.5625000000000007
 40
0.6250000000000007
 40
0.6250000000000007
 40
0.6562500000000007
 40
0.6562500000000007
 40
0.6875000000000006
 40
0.6875000000000006
 40
0.7187500000000006
 40
0.7187500000000006
 40
0.7500000000000004
 40
0.7500000000000004
 40
0.7501562399889192
 40
0.7501562399889192
 40
0.7501562399889192
 40
0.7501562399889192
 10
203.9408475638824
 20
444.8415543213966
 30
0.0
 10
203.940877143947
 20
444.8415543201199
 30
0.0
 10
204.076471664532
 20
444.8414516291274
 30
0.0
 10
204.6088082719771
 20
444.8412554689335
 30
0.0
 10
205.003238023233
 20
444.8411626083444
 30
0.0
 10
206.0493081863336
 20
444.8410869970808
 30
0.0
 10
206.7036711129001
 20
444.8411048672738
 30
0.0
 10
208.2163387571779
 20
444.8412474134365
 30
0.0
 10
209.0798542396443
 20
444.8413708923069
 30
0.0
 10
211.0296094752992
 20
444.8416517742882
 30
0.0
 10
212.0874333277934
 20
444.8418051046095
 30
0.0
 10
214.35058032951
 20
444.8419961373667
 30
0.0
 10
215.5715174279454
 20
444.8420063520823
 30
0.0
 10
218.1042569123428
 20
444.84189196623
 30
0.0
 10
219.4070237865429
 20
444.8417845492678
 30
0.0
 10
222.0844512948253
 20
444.8416140926931
 30
0.0
 10
223.4695295986237
 20
444.8415541660451
 30
0.0
 10
226.1973895595326
 20
444.8415537806581
 30
0.0
 10
227.5529228817705
 20
444.8416116899151
 30
0.0
 10
230.2468548048381
 20
444.8417823705086
 30
0.0
 10
231.5684713012758
 20
444.8418911055999
 30
0.0
 10
235.3422662410475
 20
444.842062898701
 30
0.0
 10
237.6761299126228
 20
444.8417923080829
 30
0.0
 10
240.5694804396289
 20
444.8413755848687
 30
0.0
 10
241.4526345101991
 20
444.841248925324
 30
0.0
 10
242.972947055821
 20
444.8411050362778
 30
0.0
 10
243.6156683757275
 20
444.8410869334692
 30
0.0
 10
244.6657456210613
 20
444.8411605764277
 30
0.0
 10
245.0696824058332
 20
444.8412546580488
 30
0.0
 10
245.6030725848299
 20
444.8414504709385
 30
0.0
 10
245.7394297471223
 20
444.8415532060114
 30
0.0
 10
245.7408436372462
 20
444.8415543183189
 30
0.0
 10
245.7408472718686
 20
444.841554321265
 30
0.0
 10
245.7408475080777
 20
444.8415543216373
 30
0.0
  0
LINE
  5
98
330
75
100
AcDbEntity
  8
$DDT_AUDIT_GENERATED_(96)
  6
Continuous
 62
     7
100
AcDbLine
 10
204.0141450473
 20
444.8123216559
 30
0.0
 11
200.7820106294
 21
444.0877546463
 31
0.0
  0
LINE
  5
99
330
75
100
AcDbEntity
  8
$DDT_AUDIT_GENERATED_(96)
  6
Continuous
 62
     7
100
AcDbLine
 10
248.8996843593
 20
444.0877546463
 30
0.0
 11
245.713833265
 21
444.801946045
 31
0.0
  0
SPLINE
  5
9B
330
75
100
AcDbEntity
  8
$DDT_AUDIT_GENERATED_(9A)
  6
Continuous
 62
     7
100
AcDbSpline
210
0.0
220
0.0
230
1.0
 70
     8
 71
     3
 72
    36
 73
    32
 74
     0
 42
0.0000000000857291
 43
0.0000000001
 40
0.1900303543163074
 40
0.1900303543163074
 40
0.1900303543163074
 40
0.1900303543163074
 40
0.2030912349071488
 40
0.2156251583087376
 40
0.2286316351559472
 40
0.2424657514815174
 40
0.2548544935226115
 40
0.2658993155750953
 40
0.276583626325148
 40
0.2887099305055265
 40
0.3002013944130199
 40
0.3195014269562936
 40
0.3508334690389905
 40
0.3794712865362818
 40
0.4397123262388032
 40
0.4990380625412504
 40
0.5286262526168557
 40
0.5588546579672643
 40
0.5731870803980335
 40
0.588843503130275
 40
0.6080552930080074
 40
0.6194907674992582
 40
0.6321155522740586
 40
0.6428220661666995
 40
0.6535923043142712
 40
0.6694475992507957
 40
0.6880613342987325
 40
0.6963451657267886
 40
0.7047422632755485
 40
0.7212746765074773
 40
0.7375425452538487
 40
0.7375425452538487
 40
0.7375425452538487
 40
0.7375425452538487
 10
251.2624441322746
 20
665.7823950124265
 30
0.0
 10
251.3623953578699
 20
665.3507066991081
 30
0.0
 10
251.4551845591202
 20
664.5002183495787
 30
0.0
 10
251.3546493693096
 20
663.2415299627037
 30
0.0
 10
250.9616375858036
 20
662.004978394446
 30
0.0
 10
250.1373185056358
 20
660.940141278022
 30
0.0
 10
249.0605084838408
 20
660.1612932719987
 30
0.0
 10
247.9461039979229
 20
659.5709861839159
 30
0.0
 10
246.7183840873306
 20
659.1364563079637
 30
0.0
 10
245.3484379586199
 20
658.9627848500064
 30
0.0
 10
243.6017063938648
 20
658.92962118992
 30
0.0
 10
241.0628465379327
 20
658.9883488252904
 30
0.0
 10
237.8144822553693
 20
659.028297944292
 30
0.0
 10
232.8786284748963
 20
659.0975355427636
 30
0.0
 10
226.777609891082
 20
659.1243897279134
 30
0.0
 10
220.6340902077988
 20
659.120514442294
 30
0.0
 10
215.7340343093929
 20
659.0806745466523
 30
0.0
 10
212.6887217186376
 20
659.0424645065639
 30
0.0
 10
210.2198579876382
 20
659.006018894962
 30
0.0
 10
208.2052355334465
 20
658.9777911151903
 30
0.0
 10
206.3121941766424
 20
658.9338327717811
 30
0.0
 10
204.5500952347985
 20
658.9531191100778
 30
0.0
 10
203.1525789306808
 20
659.0950943966225
 30
0.0
 10
201.8943745742314
 20
659.5016024315681
 30
0.0
 10
200.6608723632444
 20
660.1301150526713
 30
0.0
 10
199.3359020121588
 20
661.0679157135585
 30
0.0
 10
198.5800852492191
 20
662.3229448102468
 30
0.0
 10
198.3188655323332
 20
663.4475741818267
 30
0.0
 10
198.227683582434
 20
664.5249577420793
 30
0.0
 10
198.3589261520531
 20
665.8943665405457
 30
0.0
 10
198.8119842443145
 20
666.9802334738793
 30
0.0
 10
199.150054458481
 20
667.4726161662594
 30
0.0
  0
SPLINE
  5
9C
330
75
100
AcDbEntity
  8
$DDT_AUDIT_GENERATED_(9A)
  6
Continuous
 62
     7
100
AcDbSpline
210
0.0
220
0.0
230
1.0
 70
     8
 71
     3
 72
    36
 73
    32
 74
     0
 42
0.0000000001545416
 43
0.0000000001
 40
0.2058712003719408
 40
0.2058712003719408
 40
0.2058712003719408
 40
0.2058712003719408
 40
0.2187499999999943
 40
0.2187499999999943
 40
0.2499999999999938
 40
0.2499999999999938
 40
0.2812499999999933
 40
0.2812499999999933
 40
0.3124999999999928
 40
0.3124999999999928
 40
0.3749999999999928
 40
0.3749999999999928
 40
0.4062499999999931
 40
0.4062499999999931
 40
0.4374999999999934
 40
0.4374999999999934
 40
0.4999999999999938
 40
0.4999999999999938
 40
0.5624999999999941
 40
0.5624999999999941
 40
0.5937499999999943
 40
0.5937499999999943
 40
0.6249999999999944
 40
0.6249999999999944
 40
0.6562499999999946
 40
0.6562499999999946
 40
0.6874999999999947
 40
0.6874999999999947
 40
0.7499999999999942
 40
0.7499999999999942
 40
0.7601563211375719
 40
0.7601563211375719
 40
0.7601563211375719
 40
0.7601563211375719
 10
210.0771769066858
 20
648.3821637206429
 30
0.0
 10
210.0052337630402
 20
648.5463317503148
 30
0.0
 10
209.9494172019555
 20
648.7090642466791
 30
0.0
 10
209.8158922826057
 20
649.257121986097
 30
0.0
 10
209.8174548948148
 20
649.6296918854924
 30
0.0
 10
210.0126483790326
 20
650.349500750157
 30
0.0
 10
210.2092841656463
 20
650.6968566854116
 30
0.0
 10
210.7805516367352
 20
651.345424787398
 30
0.0
 10
211.155571850949
 20
651.6509251703842
 30
0.0
 10
212.5581847161005
 20
652.5227029318285
 30
0.0
 10
213.8210682036047
 20
653.0183160425971
 30
0.0
 10
216.1064511637959
 20
653.6220781014795
 30
0.0
 10
216.9199964151641
 20
653.7962165670772
 30
0.0
 10
218.6492702196591
 20
654.0918803446885
 30
0.0
 10
219.5733440829018
 20
654.2137168875704
 30
0.0
 10
222.3877064552236
 20
654.4845722163466
 30
0.0
 10
224.3919207196817
 20
654.546142620261
 30
0.0
 10
228.2841111754539
 20
654.4214780179187
 30
0.0
 10
230.2112451065697
 20
654.234331434592
 30
0.0
 10
232.797135588918
 20
653.7890906572234
 30
0.0
 10
233.625874070115
 20
653.6102363630542
 30
0.0
 10
235.1401143242342
 20
653.2072409001626
 30
0.0
 10
235.8293903559202
 20
652.9835041449923
 30
0.0
 10
237.0722629021874
 20
652.4894709749346
 30
0.0
 10
237.6240095644027
 20
652.2184432787702
 30
0.0
 10
238.5419336904613
 20
651.646755142057
 30
0.0
 10
238.915743547636
 20
651.3433373384846
 30
0.0
 10
239.7726923711283
 20
650.3629995774065
 30
0.0
 10
239.9627817374268
 20
649.6435742077771
 30
0.0
 10
239.7336699414923
 20
648.7370189183612
 30
0.0
 10
239.6916634151463
 20
648.6095148221649
 30
0.0
 10
239.6397367355508
 20
648.481254510306
 30
0.0
  0
ELLIPSE
  5
9D
330
75
100
AcDbEntity
  8
$DDT_AUDIT_GENERATED_(9A)
  6
Continuous
 62
     7
100
AcDbEllipse
 10
224.8408474944
 20
649.7310918829
 30
0.0
 11
15.0
 21
0.0
 31
0.0
210
0.0
220
0.0
230
1.0
 40
0.3907311285
 41
6.100356588468142
 42
6.247746400231682
  0
ELLIPSE
  5
9E
330
75
100
AcDbEntity
  8
$DDT_AUDIT_GENERATED_(9A)
  6
Continuous
 62
     7
100
AcDbEllipse
 10
224.8408474944
 20
649.7310918829
 30
0.0
 11
15.0
 21
0.0
 31
0.0
210
0.0
220
0.0
230
1.0
 40
0.3907311285
 41
3.198596803915585
 42
3.32442136836654
  0
ARC
  5
9F
330
75
100
AcDbEntity
  8
$DDT_AUDIT_GENERATED_(9A)
  6
Continuous
 62
     7
100
AcDbCircle
 10
206.9060931194
 20
664.2417766531
 30
0.0
 40
8.632901192363796
100
AcDbArc
 50
172.033426852
 51
181.4365596873
  0
SPLINE
  5
A0
330
75
100
AcDbEntity
  8
$DDT_AUDIT_GENERATED_(9A)
  6
Continuous
 62
     7
100
AcDbSpline
210
0.0
220
0.0
230
1.0
 70
     8
 71
     3
 72
    40
 73
    36
 74
     0
 42
0.0000000001732082
 43
0.0000000001
 40
0.0
 40
0.0
 40
0.0
 40
0.0
 40
0.0246562180797203
 40
0.0486203473247469
 40
0.0690183418856903
 40
0.0863805748539527
 40
0.1016294052346739
 40
0.1149318963489617
 40
0.1266915533734442
 40
0.1532616835001021
 40
0.1853413161347346
 40
0.2180214052641384
 40
0.2473060867729088
 40
0.2734243619911262
 40
0.3001026028587125
 40
0.3289356236626151
 40
0.386937272345425
 40
0.4448177541158735
 40
0.5003321445339363
 40
0.5508195206770369
 40
0.6032874717787573
 40
0.6567823315149804
 40
0.7052737633673252
 40
0.748900744394281
 40
0.779092036388991
 40
0.8129235017702926
 40
0.8464593168793441
 40
0.8741197324709896
 40
0.8859042436796716
 40
0.8992770102547416
 40
0.9145785746156182
 40
0.932059479326638
 40
0.9524641081780811
 40
0.9759442597221937
 40
1.0
 40
1.0
 40
1.0
 40
1.0
 10
251.3110268601687
 20
665.5131623164567
 30
0.0
 10
251.216101369094
 20
665.9515602328139
 30
0.0
 10
251.039471235117
 20
666.6830738929073
 30
0.0
 10
250.4053795714571
 20
667.7549408778158
 30
0.0
 10
249.605572143901
 20
668.5547103703952
 30
0.0
 10
248.8025898195695
 20
669.1484173724859
 30
0.0
 10
248.0480864596302
 20
669.5969096600094
 30
0.0
 10
247.3392982182463
 20
669.9256899846548
 30
0.0
 10
246.3837867355548
 20
670.252213829337
 30
0.0
 10
245.0186209939096
 20
670.5019678112272
 30
0.0
 10
243.2411466679743
 20
670.6567774344708
 30
0.0
 10
241.4081334145154
 20
670.751068933499
 30
0.0
 10
239.6897194120222
 20
670.8460605144937
 30
0.0
 10
238.0870514175952
 20
670.9209963652705
 30
0.0
 10
236.4921125748307
 20
670.9879537458661
 30
0.0
 10
234.2727953150666
 20
671.0685950933927
 30
0.0
 10
231.4409227765303
 20
671.1476046884126
 30
0.0
 10
228.0844022368206
 20
671.2044533906947
 30
0.0
 10
224.8738766989132
 20
671.2209065291402
 30
0.0
 10
221.7694239977037
 20
671.204100069048
 30
0.0
 10
218.7054709109364
 20
671.1563640169147
 30
0.0
 10
215.6825484510384
 20
671.0782419027948
 30
0.0
 10
212.8353657357735
 20
670.9761177511695
 30
0.0
 10
210.4464452996398
 20
670.8703189084255
 30
0.0
 10
208.3461854445015
 20
670.7553916759042
 30
0.0
 10
206.4446579831503
 20
670.6577466859045
 30
0.0
 10
204.5951931356753
 20
670.4975832267181
 30
0.0
 10
203.1809272406254
 20
670.2245473853778
 30
0.0
 10
202.2116915375857
 20
669.8713992555771
 30
0.0
 10
201.5077573349197
 20
669.5296403183587
 30
0.0
 10
200.7587130980885
 20
669.0673965524618
 30
0.0
 10
199.9663740688773
 20
668.4590254362301
 30
0.0
 10
199.1951680911349
 20
667.6474313901406
 30
0.0
 10
198.605367875767
 20
666.582034138265
 30
0.0
 10
198.4430831823566
 20
665.8664667458762
 30
0.0
 10
198.3565072363196
 20
665.4382565840363
 30
0.0
  0
ARC
  5
A1
330
75
100
AcDbEntity
  8
$DDT_AUDIT_GENERATED_(9A)
  6
Continuous
 62
     7
100
AcDbCircle
 10
243.2602054493
 20
664.2506486916
 30
0.0
 40
8.149212602640066
100
AcDbArc
 50
358.5049085848
 51
8.9124241964
  0
SPLINE
  5
A2
330
75
100
AcDbEntity
  8
$DDT_AUDIT_GENERATED_(9A)
  6
Continuous
 62
     7
100
AcDbSpline
210
0.0
220
0.0
230
1.0
 70
     8
 71
     3
 72
    63
 73
    59
 74
     0
 42
0.0000000000454278
 43
0.0000000001
 40
0.0037387486827593
 40
0.0037387486827593
 40
0.0037387486827593
 40
0.0037387486827593
 40
0.0064049423686812
 40
0.0153446326181811
 40
0.0257459086690415
 40
0.0378703007661892
 40
0.0517785616777566
 40
0.0670881192792822
 40
0.0838443879716096
 40
0.1017921748250738
 40
0.120635911851781
 40
0.1438022100424577
 40
0.1672679068682915
 40
0.1905393030001048
 40
0.2131875892166157
 40
0.2348844611536035
 40
0.2553933362306026
 40
0.2737082247558089
 40
0.2906883850004342
 40
0.3062768230738022
 40
0.3210448225850378
 40
0.3353213831076112
 40
0.3490907087823201
 40
0.3623417870320214
 40
0.375067347555728
 40
0.3939924586699193
 40
0.4116021965605345
 40
0.4278965421982505
 40
0.4428789749728551
 40
0.4545659005839521
 40
0.4653138102647235
 40
0.4751291973144965
 40
0.4855173817991867
 40
0.497678623674876
 40
0.5116258553496212
 40
0.5264302363694129
 40
0.5428658259259341
 40
0.5609682468416125
 40
0.5807854882835289
 40
0.6023800564587827
 40
0.6188401095747897
 40
0.6362718964287225
 40
0.6547172053307807
 40
0.6742256536485981
 40
0.6948562114736972
 40
0.7166790479402991
 40
0.739777748752679
 40
0.7642519552320387
 40
0.787446324261607
 40
0.8119409336766858
 40
0.8378537482906495
 40
0.8653225602029665
 40
0.8945080583873338
 40
0.9187649329579876
 40
0.944300044339694
 40
0.9712296731340082
 40
0.9996841462686888
 40
1.0
 40
1.0
 40
1.0
 40
1.0
 10
245.6221150939683
 20
444.8414959399062
 30
0.0
 10
245.6229305497139
 20
445.1019337548612
 30
0.0
 10
245.6270809955072
 20
446.2122551200321
 30
0.0
 10
245.6439908085684
 20
448.4697358971087
 30
0.0
 10
245.678726189599
 20
451.6073748086259
 30
0.0
 10
245.729634488388
 20
455.2697666602232
 30
0.0
 10
245.7954073994466
 20
459.4145248543867
 30
0.0
 10
245.8748289386258
 20
464.0248093644053
 30
0.0
 10
245.9658850236666
 20
469.0362535501342
 30
0.0
 10
246.0668154745644
 20
474.3978287417892
 30
0.0
 10
246.1824052934937
 20
480.394801047243
 30
0.0
 10
246.3105797525204
 20
486.9339803269324
 30
0.0
 10
246.4484762844722
 20
493.9003314322613
 30
0.0
 10
246.5854760111988
 20
500.7955812252471
 30
0.0
 10
246.7183685255126
 20
507.4905904170117
 30
0.0
 10
246.8448034198451
 20
513.8832404656735
 30
0.0
 10
246.9616008371937
 20
519.8171150762664
 30
0.0
 10
247.06812193404
 20
525.256099049019
 30
0.0
 10
247.1641887658372
 20
530.1840318154862
 30
0.0
 10
247.2525907551966
 20
534.7371815986565
 30
0.0
 10
247.3350741790698
 20
538.999537307133
 30
0.0
 10
247.4133909720946
 20
543.0568275991336
 30
0.0
 10
247.4881818715663
 20
546.9379545779112
 30
0.0
 10
247.5594770152348
 20
550.6402930285689
 30
0.0
 10
247.6392930856322
 20
554.7836865494471
 30
0.0
 10
247.7259275969246
 20
559.2728229560302
 30
0.0
 10
247.8177825304596
 20
564.008641020824
 30
0.0
 10
247.9019919045643
 20
568.316938339407
 30
0.0
 10
247.975468774786
 20
572.0382308286053
 30
0.0
 10
248.0391553289333
 20
575.2273995709143
 30
0.0
 10
248.0938901244716
 20
577.9370729535141
 30
0.0
 10
248.1463222857842
 20
580.5012622198316
 30
0.0
 10
248.2011511729391
 20
583.146143927428
 30
0.0
 10
248.2630826159521
 20
586.0823091827752
 30
0.0
 10
248.3327488831282
 20
589.310559913088
 30
0.0
 10
248.4101882723761
 20
592.7970113507739
 30
0.0
 10
248.4956178392506
 20
596.5084111027916
 30
0.0
 10
248.5912039684422
 20
600.4794372234485
 30
0.0
 10
248.6982559598985
 20
604.6872955051065
 30
0.0
 10
248.805524257112
 20
608.6329342694519
 30
0.0
 10
248.9115566947803
 20
612.2896267861906
 30
0.0
 10
249.0144012945946
 20
615.6346213455693
 30
0.0
 10
249.12648145888
 20
619.0598116042291
 30
0.0
 10
249.2486290949146
 20
622.5570173292804
 30
0.0
 10
249.3816503501023
 20
626.1179542183166
 30
0.0
 10
249.5262814631432
 20
629.7341902803054
 30
0.0
 10
249.6831341877275
 20
633.3970385450863
 30
0.0
 10
249.8462380488428
 20
636.9578653848374
 30
0.0
 10
250.0146670767205
 20
640.415232159944
 30
0.0
 10
250.1874414478402
 20
643.7687890889973
 30
0.0
 10
250.3699324745027
 20
647.1293929692935
 30
0.0
 10
250.5613424042446
 20
650.487998208927
 30
0.0
 10
250.7450302853427
 20
653.5754981810404
 30
0.0
 10
250.9188488989026
 20
656.4053143416528
 30
0.0
 10
251.0825787356013
 20
659.0083915409568
 30
0.0
 10
251.2444834933139
 20
661.5389019113654
 30
0.0
 10
251.3577334995987
 20
663.2890675169878
 30
0.0
 10
251.4063936203775
 20
664.0419264314731
 30
0.0
 10
251.4070124671062
 20
664.0515009127616
 30
0.0
  0
SPLINE
  5
A3
330
75
100
AcDbEntity
  8
$DDT_AUDIT_GENERATED_(9A)
  6
Continuous
 62
     7
100
AcDbSpline
210
0.0
220
0.0
230
1.0
 70
     8
 71
     3
 72
    58
 73
    54
 74
     0
 42
0.0000000000454307
 43
0.0000000001
 40
0.0
 40
0.0
 40
0.0
 40
0.0
 40
0.022035580303418
 40
0.0457194206008308
 40
0.0680679098517232
 40
0.0891796844038184
 40
0.1091423384678995
 40
0.131299558606829
 40
0.1520798146948555
 40
0.171579864440343
 40
0.1898835013079698
 40
0.2102133754855127
 40
0.2290544744957993
 40
0.2464946989772791
 40
0.2626079590489731
 40
0.2774563811864205
 40
0.2910921642429349
 40
0.3152574653316816
 40
0.33926451718652
 40
0.3634147367141569
 40
0.3877374277500505
 40
0.4122640571217603
 40
0.437028493910375
 40
0.4617140682556818
 40
0.4934804482386936
 40
0.5247986980601552
 40
0.5557610606270967
 40
0.5648272299443564
 40
0.5738691285536139
 40
0.5830593237590302
 40
0.5934514709710152
 40
0.6052258959766613
 40
0.6183830618609587
 40
0.632921405663831
 40
0.6488352712358982
 40
0.6686444556551637
 40
0.690187259530962
 40
0.7133941718711088
 40
0.7381482242193258
 40
0.7642640459669071
 40
0.7909682805446339
 40
0.8183304685583513
 40
0.8458141937983811
 40
0.8727611193239441
 40
0.8934636792787692
 40
0.9130249175117069
 40
0.9311222419378812
 40
0.9474876797394143
 40
0.9619388373435187
 40
0.9742095036590482
 40
0.9846715115088197
 40
0.993618725584951
 40
0.9962593537099499
 40
0.9962593537099499
 40
0.9962593537099499
 40
0.9962593537099499
 10
198.2755066741019
 20
664.0368565123455
 30
0.0
 10
198.3209263000822
 20
663.3349909580558
 30
0.0
 10
198.4006553474322
 20
662.1015502308974
 30
0.0
 10
198.5401505407266
 20
659.9295750664128
 30
0.0
 10
198.6797377502086
 20
657.7273522392719
 30
0.0
 10
198.8171655960906
 20
655.5213922172999
 30
0.0
 10
198.9576623903722
 20
653.2177374403095
 30
0.0
 10
199.1006378595251
 20
650.8114133044379
 30
0.0
 10
199.2449359149486
 20
648.3042696055437
 30
0.0
 10
199.3817425539476
 20
645.8442440459354
 30
0.0
 10
199.5181794152428
 20
643.3004689214645
 30
0.0
 10
199.6531556458793
 20
640.6794156917905
 30
0.0
 10
199.7855184648698
 20
637.9892958667963
 30
0.0
 10
199.9070039928854
 20
635.4046361053447
 30
0.0
 10
200.017973429486
 20
632.934355660278
 30
0.0
 10
200.1188667369524
 20
630.5868735037225
 30
0.0
 10
200.2362484494893
 20
627.7369276883344
 30
0.0
 10
200.3710201283676
 20
624.267126915278
 30
0.0
 10
200.5234475471168
 20
620.0193295196449
 30
0.0
 10
200.6705664635599
 20
615.568358565336
 30
0.0
 10
200.8129254448689
 20
610.8835057071391
 30
0.0
 10
200.9508361653471
 20
605.948139935735
 30
0.0
 10
201.0843436000587
 20
600.7689823692865
 30
0.0
 10
201.2265730078782
 20
594.8339695915321
 30
0.0
 10
201.3768116868732
 20
588.1067296651382
 30
0.0
 10
201.5360223070611
 20
580.535020307094
 30
0.0
 10
201.6569601396846
 20
574.5362650507768
 30
0.0
 10
201.7406680494764
 20
570.3107073580119
 30
0.0
 10
201.7874026475085
 20
567.9355221349239
 30
0.0
 10
201.8366086326983
 20
565.4203144531127
 30
0.0
 10
201.8908142197531
 20
562.6357089941886
 30
0.0
 10
201.9522821783791
 20
559.4640909353164
 30
0.0
 10
202.0215128926056
 20
555.8794385016248
 30
0.0
 10
202.0987191061889
 20
551.8727031996114
 30
0.0
 10
202.1886535004925
 20
547.2014885734117
 30
0.0
 10
202.2924389108429
 20
541.8150844908278
 30
0.0
 10
202.4111857128728
 20
535.669932911446
 30
0.0
 10
202.541034539262
 20
528.9818525833355
 30
0.0
 10
202.6816117184595
 20
521.7850697387254
 30
0.0
 10
202.8310311461003
 20
514.1866019857082
 30
0.0
 10
202.987455841302
 20
506.280213746518
 30
0.0
 10
203.1480209446297
 20
498.1968578447816
 30
0.0
 10
203.309580564942
 20
490.0577747708124
 30
0.0
 10
203.4572138478729
 20
482.5603605338309
 30
0.0
 10
203.5874161630272
 20
475.8414434944769
 30
0.0
 10
203.6980486722046
 20
470.000014202762
 30
0.0
 10
203.7969950072708
 20
464.5881352943936
 30
0.0
 10
203.8819432092494
 20
459.6840060457681
 30
0.0
 10
203.9507275773626
 20
455.3650762565413
 30
0.0
 10
204.00275627801
 20
451.6278895212093
 30
0.0
 10
204.0377305456921
 20
448.4694120444124
 30
0.0
 10
204.0546405247902
 20
446.2078526308583
 30
0.0
 10
204.0587792769725
 20
445.0993272260314
 30
0.0
 10
204.0595865120987
 20
444.8414858111726
 30
0.0
  0
ELLIPSE
  5
A5
330
75
100
AcDbEntity
  8
$DDT_AUDIT_GENERATED_(A4)
  6
Continuous
 62
     7
100
AcDbEllipse
 10
224.840847489
 20
649.7310918824
 30
0.0
 11
-14.75000000000001
 21
2.775557561562891E-14
 31
0.0
210
0.0
220
0.0
230
1.0
 40
0.3907311285
 41
3.141592653589798
 42
3.378243883028372
  0
ELLIPSE
  5
A6
330
75
100
AcDbEntity
  8
$DDT_AUDIT_GENERATED_(A4)
  6
Continuous
 62
     7
100
AcDbEllipse
 10
224.840847489
 20
649.7310918824
 30
0.0
 11
-14.75000000000001
 21
2.775557561562891E-14
 31
0.0
210
0.0
220
0.0
230
1.0
 40
0.3907311285
 41
6.047033306628953
 42
6.283185307179586
  0
ELLIPSE
  5
A7
330
75
100
AcDbEntity
  8
$DDT_AUDIT_GENERATED_(A4)
  6
Continuous
 62
     7
100
AcDbEllipse
 10
224.840847489
 20
647.6142070267
 30
0.0
 11
14.52145943734558
 21
2.775557561562891E-14
 31
0.0
210
0.0
220
0.0
230
1.0
 40
0.3907311285
 41
0.8112796971175671
 42
1.559191971700186
  0
ELLIPSE
  5
A8
330
75
100
AcDbEntity
  8
$DDT_AUDIT_GENERATED_(A4)
  6
Continuous
 62
     7
100
AcDbEllipse
 10
224.840847489
 20
647.6142070267
 30
0.0
 11
14.52145943734558
 21
2.775557561562891E-14
 31
0.0
210
0.0
220
0.0
230
1.0
 40
0.3907311285
 41
1.618876495302152
 42
2.168605159723346
  0
ELLIPSE
  5
A9
330
75
100
AcDbEntity
  8
$DDT_AUDIT_GENERATED_(A4)
  6
Continuous
 62
     7
100
AcDbEllipse
 10
224.840847489
 20
647.6142070267
 30
0.0
 11
14.52145943734558
 21
2.775557561562891E-14
 31
0.0
210
0.0
220
0.0
230
1.0
 40
0.3907311285
 41
3.656155209760928
 42
4.031340892995615
  0
ELLIPSE
  5
AA
330
75
100
AcDbEntity
  8
$DDT_AUDIT_GENERATED_(A4)
  6
Continuous
 62
     7
100
AcDbEllipse
 10
224.840847489
 20
647.6142070267
 30
0.0
 11
14.52145943734558
 21
2.775557561562891E-14
 31
0.0
210
0.0
220
0.0
230
1.0
 40
0.3907311285
 41
-0.8897482394058205
 42
-0.4981414251027925
  0
ELLIPSE
  5
AB
330
75
100
AcDbEntity
  8
$DDT_AUDIT_GENERATED_(A4)
  6
Continuous
 62
     7
100
AcDbEllipse
 10
224.840847489
 20
647.8824099005
 30
0.0
 11
14.75000000000001
 21
0.0
 31
0.0
210
0.0
220
0.0
230
1.0
 40
0.3907311285
 41
6.011090192589852
 42
6.283185307179586
  0
ELLIPSE
  5
AC
330
75
100
AcDbEntity
  8
$DDT_AUDIT_GENERATED_(A4)
  6
Continuous
 62
     7
100
AcDbEllipse
 10
224.840847489
 20
647.8824099005
 30
0.0
 11
14.75000000000001
 21
0.0
 31
0.0
210
0.0
220
0.0
230
1.0
 40
0.3907311285
 41
2.872394413218387
 42
3.413331221187722
  0
ELLIPSE
  5
AD
330
75
100
AcDbEntity
  8
$DDT_AUDIT_GENERATED_(A4)
  6
Continuous
 62
     7
100
AcDbEllipse
 10
224.840847489
 20
647.8824099005
 30
0.0
 11
14.75000000000001
 21
0.0
 31
0.0
210
0.0
220
0.0
230
1.0
 40
0.3907311285
 41
0.0
 42
0.2744765100263946
  0
ELLIPSE
  5
AE
330
75
100
AcDbEntity
  8
$DDT_AUDIT_GENERATED_(A4)
  6
Continuous
 62
     7
100
AcDbEllipse
 10
224.840847489
 20
647.0968662308
 30
0.0
 11
-12.10000000000001
 21
-2.775557561562892E-14
 31
0.0
210
0.0
220
0.0
230
1.0
 40
0.3907311285
 41
2.450674352375417
 42
6.283185307179586
  0
ELLIPSE
  5
AF
330
75
100
AcDbEntity
  8
$DDT_AUDIT_GENERATED_(A4)
  6
Continuous
 62
     7
100
AcDbEllipse
 10
224.840847489
 20
647.0968662308
 30
0.0
 11
-12.10000000000001
 21
-2.775557561562892E-14
 31
0.0
210
0.0
220
0.0
230
1.0
 40
0.3907311285
 41
0.0
 42
0.6909183012143785
  0
ELLIPSE
  5
B0
330
75
100
AcDbEntity
  8
$DDT_AUDIT_GENERATED_(A4)
  6
Continuous
 62
     7
100
AcDbEllipse
 10
224.840847489
 20
648.018952855
 30
0.0
 11
12.1
 21
0.0
 31
0.0
210
0.0
220
0.0
230
1.0
 40
0.3907311285
 41
3.239264427680414
 42
3.832510954804172
  0
ELLIPSE
  5
B1
330
75
100
AcDbEntity
  8
$DDT_AUDIT_GENERATED_(A4)
  6
Continuous
 62
     7
100
AcDbEllipse
 10
224.840847489
 20
648.018952855
 30
0.0
 11
12.1
 21
0.0
 31
0.0
210
0.0
220
0.0
230
1.0
 40
0.3907311285
 41
5.592267005965211
 42
6.185513533089013
  0
ELLIPSE
  5
B2
330
75
100
AcDbEntity
  8
$DDT_AUDIT_GENERATED_(A4)
  6
Continuous
 62
     7
100
AcDbEllipse
 10
224.840847489
 20
648.018952855
 30
0.0
 11
-11.4585
 21
0.0
 31
0.0
210
0.0
220
0.0
230
1.0
 40
0.3907311285
 41
6.105789601851546
 42
6.283185307179586
  0
ELLIPSE
  5
B3
330
75
100
AcDbEntity
  8
$DDT_AUDIT_GENERATED_(A4)
  6
Continuous
 62
     7
100
AcDbEllipse
 10
224.840847489
 20
648.018952855
 30
0.0
 11
-11.4585
 21
0.0
 31
0.0
210
0.0
220
0.0
230
1.0
 40
0.3907311285
 41
2.900813986601578
 42
3.318988358917848
  0
ELLIPSE
  5
B4
330
75
100
AcDbEntity
  8
$DDT_AUDIT_GENERATED_(A4)
  6
Continuous
 62
     7
100
AcDbEllipse
 10
224.840847489
 20
648.018952855
 30
0.0
 11
-11.4585
 21
0.0
 31
0.0
210
0.0
220
0.0
230
1.0
 40
0.3907311285
 41
-3.761716752380294
 42
-3.441935403665205
  0
ELLIPSE
  5
B5
330
75
100
AcDbEntity
  8
$DDT_AUDIT_GENERATED_(A4)
  6
Continuous
 62
     7
100
AcDbEllipse
 10
224.840847489
 20
648.018952855
 30
0.0
 11
-11.4585
 21
0.0
 31
0.0
210
0.0
220
0.0
230
1.0
 40
0.3907311285
 41
0.3003427500919378
 42
0.6201240987904967
  0
ELLIPSE
  5
B6
330
75
100
AcDbEntity
  8
$DDT_AUDIT_GENERATED_(A4)
  6
Continuous
 62
     7
100
AcDbEllipse
 10
224.840847489
 20
648.018952855
 30
0.0
 11
-11.4585
 21
0.0
 31
0.0
210
0.0
220
0.0
230
1.0
 40
0.3907311285
 41
0.0
 42
0.2407786669882154
  0
LINE
  5
B7
330
75
100
AcDbEntity
  8
$DDT_AUDIT_GENERATED_(A4)
  6
Continuous
 62
     7
100
AcDbLine
 10
239.590847489
 20
647.8824099005
 30
0.0
 11
239.590847489
 21
649.7310918824
 31
0.0
  0
LINE
  5
B8
330
75
100
AcDbEntity
  8
$DDT_AUDIT_GENERATED_(A4)
  6
Continuous
 62
     7
100
AcDbLine
 10
210.090847489
 20
649.7310918824
 30
0.0
 11
210.090847489
 21
647.8824099005
 31
0.0
  0
ARC
  5
B9
330
75
100
AcDbEntity
  8
$DDT_AUDIT_GENERATED_(A4)
  6
Continuous
 62
     7
100
AcDbCircle
 10
234.8297842712
 20
649.2442492213
 30
0.0
 40
5.16958783419683
100
AcDbArc
 50
303.7832614477
 51
323.7874021483
  0
ARC
  5
BA
330
75
100
AcDbEntity
  8
$DDT_AUDIT_GENERATED_(A4)
  6
Continuous
 62
     7
100
AcDbCircle
 10
214.7947952312
 20
649.1629795769
 30
0.0
 40
5.072341943056784
100
AcDbArc
 50
215.8360884271
 51
237.9409316588
  0
ELLIPSE
  5
BC
330
75
100
AcDbEntity
  8
$DDT_AUDIT_GENERATED_(BB)
  6
Continuous
 62
     7
100
AcDbEllipse
 10
224.840847489
 20
647.3745994576
 30
0.0
 11
8.750000000000004
 21
0.0
 31
0.0
210
0.0
220
0.0
230
1.0
 40
0.3907311285
 41
3.66351134075769
 42
5.763150840531379
  0
ELLIPSE
  5
BD
330
75
100
AcDbEntity
  8
$DDT_AUDIT_GENERATED_(BB)
  6
Continuous
 62
     7
100
AcDbEllipse
 10
224.840847489
 20
647.6047256709
 30
0.0
 11
-9.325000000000005
 21
2.775557561562891E-14
 31
0.0
210
0.0
220
0.0
230
1.0
 40
0.3907311285
 41
3.141592653589801
 42
6.283185307179586
  0
ELLIPSE
  5
BE
330
75
100
AcDbEntity
  8
$DDT_AUDIT_GENERATED_(BB)
  6
Continuous
 62
     7
100
AcDbEllipse
 10
234.5863371923
 20
649.20839604
 30
0.0
 11
0.2000000000000074
 21
0.0
 31
0.0
210
0.0
220
0.0
230
1.0
 40
0.3907311285
 41
3.388387267628164
 42
4.939281783143955
  0
ELLIPSE
  5
BF
330
75
100
AcDbEntity
  8
$DDT_AUDIT_GENERATED_(BB)
  6
Continuous
 62
     7
100
AcDbEllipse
 10
215.0953577857
 20
649.20839604
 30
0.0
 11
0.2000000000000023
 21
2.775557561562891E-14
 31
0.0
210
0.0
220
0.0
230
1.0
 40
0.3907311285
 41
4.485496177625364
 42
6.036390693142427
  0
ELLIPSE
  5
C0
330
75
100
AcDbEntity
  8
$DDT_AUDIT_GENERATED_(BB)
  6
Continuous
 62
     7
100
AcDbEllipse
 10
224.840847489
 20
648.5252305244
 30
0.0
 11
11.33250000000884
 21
-2.414735078559715E-12
 31
0.0
210
0.0
220
0.0
230
1.0
 40
0.3907311285
 41
-0.6043799126244203
 42
-0.5268412300845391
  0
ELLIPSE
  5
C1
330
75
100
AcDbEntity
  8
$DDT_AUDIT_GENERATED_(BB)
  6
Continuous
 62
     7
100
AcDbEllipse
 10
224.840847489
 20
648.5252305244
 30
0.0
 11
-11.33249999999955
 21
1.110223024625157E-13
 31
0.0
210
0.0
220
0.0
230
1.0
 40
0.3907311285
 41
0.416614362249377
 42
0.6043799126247184
  0
ELLIPSE
  5
C2
330
75
100
AcDbEntity
  8
$DDT_AUDIT_GENERATED_(BB)
  6
Continuous
 62
     7
100
AcDbEllipse
 10
224.840847489
 20
648.5252305244
 30
0.0
 11
11.33250000000051
 21
-2.775557561562891E-14
 31
0.0
210
0.0
220
0.0
230
1.0
 40
0.3907311285
 41
3.100965827212642
 42
3.141592653589799
  0
ARC
  5
C3
330
75
100
AcDbEntity
  8
$DDT_AUDIT_GENERATED_(BB)
  6
Continuous
 62
     7
100
AcDbCircle
 10
224.840847489
 20
667.5474015556
 30
0.0
 40
22.77582954636037
100
AcDbArc
 50
269.6791417337
 51
270.3208582663
  0
LINE
  5
C4
330
75
100
AcDbEntity
  8
$DDT_AUDIT_GENERATED_(BB)
  6
Continuous
 62
     7
100
AcDbLine
 10
224.7133027545
 20
644.2656514682
 30
0.0
 11
224.7133027545
 21
644.7719291376
 31
0.0
  0
SPLINE
  5
C5
330
75
100
AcDbEntity
  8
$DDT_AUDIT_GENERATED_(BB)
  6
Continuous
 62
     7
100
AcDbSpline
210
0.0
220
0.0
230
1.0
 70
     8
 71
     3
 72
    26
 73
    22
 74
     0
 42
0.0000000199128194
 43
0.0000000001
 40
0.0
 40
0.0
 40
0.0
 40
0.0
 40
0.0881272114723225
 40
0.0881272114723225
 40
0.0881272114723225
 40
0.1759273542161199
 40
0.1759273542161199
 40
0.1759273542161199
 40
0.268353539779301
 40
0.268353539779301
 40
0.268353539779301
 40
0.3733002012166751
 40
0.3733002012166751
 40
0.3733002012166751
 40
0.4979894151601938
 40
0.4979894151601938
 40
0.4979894151601938
 40
0.6478721472334293
 40
0.6478721472334293
 40
0.6478721472334293
 40
0.7358388367923626
 40
0.7358388367923626
 40
0.7358388367923626
 40
0.7358388367923626
 10
224.7133027544979
 20
644.2656514681638
 30
0.0
 10
224.713302754498
 20
644.2518026348014
 30
0.0
 10
224.7105709203008
 20
644.237776598389
 30
0.0
 10
224.7054572552285
 20
644.2247828749584
 30
0.0
 10
224.7003542576623
 20
644.2118162574528
 30
0.0
 10
224.6927726002656
 20
644.1995299235044
 30
0.0
 10
224.6834996932358
 20
644.1887261968931
 30
0.0
 10
224.6737303308211
 20
644.177344057467
 30
0.0
 10
224.6618737053936
 20
644.167322511491
 30
0.0
 10
224.6489027547502
 20
644.1591033829403
 30
0.0
 10
224.6341863215487
 20
644.1497782178375
 30
0.0
 10
224.6177080097086
 20
644.1425451104768
 30
0.0
 10
224.6006527177185
 20
644.137603641842
 30
0.0
 10
224.5804371424315
 20
644.1317465371221
 30
0.0
 10
224.5589012592891
 20
644.1289541090412
 30
0.0
 10
224.537642592096
 20
644.1292372563396
 30
0.0
 10
224.5122198158198
 20
644.1295758660161
 30
0.0
 10
224.486341182845
 20
644.1343495349737
 30
0.0
 10
224.4626968942695
 20
644.1433285743731
 30
0.0
 10
224.4488131754627
 20
644.1486009875301
 30
0.0
 10
224.4353845860232
 20
644.1554594553753
 30
0.0
 10
224.4231258785483
 20
644.1637128106987
 30
0.0
  0
SPLINE
  5
C6
330
75
100
AcDbEntity
  8
$DDT_AUDIT_GENERATED_(BB)
  6
Continuous
 62
     7
100
AcDbSpline
210
0.0
220
0.0
230
1.0
 70
     8
 71
     3
 72
    29
 73
    25
 74
     0
 42
0.0000000214921195
 43
0.0000000001
 40
0.2737075129808688
 40
0.2737075129808688
 40
0.2737075129808688
 40
0.2737075129808688
 40
0.3087296237675934
 40
0.3087296237675934
 40
0.3087296237675934
 40
0.4168398131536725
 40
0.4168398131536725
 40
0.4168398131536725
 40
0.5003844465246114
 40
0.5003844465246114
 40
0.5003844465246114
 40
0.6125675398560726
 40
0.6125675398560726
 40
0.6125675398560726
 40
0.7248847230703914
 40
0.7248847230703914
 40
0.7248847230703914
 40
0.8350242373719042
 40
0.8350242373719042
 40
0.8350242373719042
 40
0.9414831950211138
 40
0.9414831950211138
 40
0.9414831950211138
 40
1.0
 40
1.0
 40
1.0
 40
1.0
 10
222.686508130517
 20
644.2633639135536
 30
0.0
 10
222.6822884485527
 20
644.2605111740152
 30
0.0
 10
222.6778902131357
 20
644.25789729002
 30
0.0
 10
222.6733519009098
 20
644.2555470335636
 30
0.0
 10
222.6593483343693
 20
644.2482950043868
 30
0.0
 10
222.6436444243085
 20
644.2433580291138
 30
0.0
 10
222.6274888351482
 20
644.2410660715012
 30
0.0
 10
222.6149362064423
 20
644.2392852578995
 30
0.0
 10
222.6018901396142
 20
644.23905271654
 30
0.0
 10
222.5889513208415
 20
644.240374918352
 30
0.0
 10
222.5716858915673
 20
644.242139251115
 30
0.0
 10
222.5541950227167
 20
644.246748058415
 30
0.0
 10
222.537918520386
 20
644.2538622910686
 30
0.0
 10
222.5216310259334
 20
644.2609813282257
 30
0.0
 10
222.5061020132899
 20
644.2708181232679
 30
0.0
 10
222.4927089917778
 20
644.2825871362659
 30
0.0
 10
222.4795768576646
 20
644.2941268965006
 30
0.0
 10
222.4681245247201
 20
644.307862962572
 30
0.0
 10
222.4594297720771
 20
644.3226195718294
 30
0.0
 10
222.4510216703819
 20
644.3368896812167
 30
0.0
 10
222.4449544744499
 20
644.3525242851947
 30
0.0
 10
222.4418065483016
 20
644.3681623129346
 30
0.0
 10
222.4400579375953
 20
644.3768489280087
 30
0.0
 10
222.4391699134565
 20
644.3856447588759
 30
0.0
 10
222.4391699134566
 20
644.3943029960116
 30
0.0
  0
LINE
  5
C7
330
75
100
AcDbEntity
  8
$DDT_AUDIT_GENERATED_(BB)
  6
Continuous
 62
     7
100
AcDbLine
 10
222.4391699135
 20
644.394302996
 30
0.0
 11
222.4391699135
 21
644.8322859762
 31
0.0
  0
SPLINE
  5
C8
330
75
100
AcDbEntity
  8
$DDT_AUDIT_GENERATED_(BB)
  6
Continuous
 62
     7
100
AcDbSpline
210
0.0
220
0.0
230
1.0
 70
     8
 71
     3
 72
    29
 73
    25
 74
     0
 42
0.000000022417311
 43
0.0000000001
 40
0.2760233147439197
 40
0.2760233147439197
 40
0.2760233147439197
 40
0.2760233147439197
 40
0.320750285166184
 40
0.320750285166184
 40
0.320750285166184
 40
0.4284015684081796
 40
0.4284015684081796
 40
0.4284015684081796
 40
0.5001431576955043
 40
0.5001431576955043
 40
0.5001431576955043
 40
0.6080276783883192
 40
0.6080276783883192
 40
0.6080276783883192
 40
0.7159281147532133
 40
0.7159281147532133
 40
0.7159281147532133
 40
0.823589314184803
 40
0.823589314184803
 40
0.823589314184803
 40
0.9309144766821711
 40
0.9309144766821711
 40
0.9309144766821711
 40
1.0
 40
1.0
 40
1.0
 40
1.0
 10
221.1766051270689
 20
644.4684128742737
 30
0.0
 10
221.1716972426989
 20
644.4650918643597
 30
0.0
 10
221.1665088288064
 20
644.4621700559286
 30
0.0
 10
221.1611111493534
 20
644.4596980393858
 30
0.0
 10
221.1481207201474
 20
644.4537487131662
 30
0.0
 10
221.133562209479
 20
644.4502412837888
 30
0.0
 10
221.1186416555059
 20
644.4494646982793
 30
0.0
 10
221.1086199671255
 20
644.4489430890956
 30
0.0
 10
221.0982837511418
 20
644.4496269764503
 30
0.0
 10
221.0880209193382
 20
644.4514917475902
 30
0.0
 10
221.072709430295
 20
644.4542738669336
 30
0.0
 10
221.0572079401691
 20
644.4597901766024
 30
0.0
 10
221.042795951971
 20
644.4675879342778
 30
0.0
 10
221.0283827280849
 20
644.4753863605351
 30
0.0
 10
221.0146609282306
 20
644.4856828191043
 30
0.0
 10
221.0027674712174
 20
644.4976204090435
 30
0.0
 10
220.9909003323593
 20
644.5095315831692
 30
0.0
 10
220.9805247416664
 20
644.5234064628619
 30
0.0
 10
220.9725002214082
 20
644.5380844105679
 30
0.0
 10
220.9645003642828
 20
644.5527172460226
 30
0.0
 10
220.9586154697162
 20
644.5685527397491
 30
0.0
 10
220.9553313430628
 20
644.5842689210984
 30
0.0
 10
220.9531996000101
 20
644.5944703730954
 30
0.0
 10
220.9521146168158
 20
644.6047729186577
 30
0.0
 10
220.9521146168165
 20
644.6148100267758
 30
0.0
  0
LINE
  5
C9
330
75
100
AcDbEntity
  8
$DDT_AUDIT_GENERATED_(BB)
  6
Continuous
 62
     7
100
AcDbLine
 10
220.9521146168
 20
644.6148100268
 30
0.0
 11
220.9521146168
 21
645.1210876962
 31
0.0
  0
ELLIPSE
  5
CA
330
75
100
AcDbEntity
  8
$DDT_AUDIT_GENERATED_(BB)
  6
Continuous
 62
     7
100
AcDbEllipse
 10
224.8408474889
 20
648.2490790683
 30
0.0
 11
-8.899999999922541
 21
2.528532938583794E-11
 31
0.0
210
0.0
220
0.0
230
1.0
 40
0.3907311285
 41
1.106950902872813
 42
1.118606538973188
  0
SPLINE
  5
CB
330
75
100
AcDbEntity
  8
$DDT_AUDIT_GENERATED_(BB)
  6
Continuous
 62
     7
100
AcDbSpline
210
0.0
220
0.0
230
1.0
 70
     8
 71
     3
 72
    29
 73
    25
 74
     0
 42
0.0000000233548102
 43
0.0000000001
 40
0.2758768722670726
 40
0.2758768722670726
 40
0.2758768722670726
 40
0.2758768722670726
 40
0.3212025739630174
 40
0.3212025739630174
 40
0.3212025739630174
 40
0.4286035476186742
 40
0.4286035476186742
 40
0.4286035476186742
 40
0.4998231205274188
 40
0.4998231205274188
 40
0.4998231205274188
 40
0.6079134268315806
 40
0.6079134268315806
 40
0.6079134268315806
 40
0.7160102322582644
 40
0.7160102322582644
 40
0.7160102322582644
 40
0.8239865221026783
 40
0.8239865221026783
 40
0.8239865221026783
 40
0.9315010261035115
 40
0.9315010261035115
 40
0.9315010261035115
 40
1.0
 40
1.0
 40
1.0
 40
1.0
 10
219.8083566994515
 20
644.7693247480903
 30
0.0
 10
219.8038589759035
 20
644.7662812247596
 30
0.0
 10
219.7991002819465
 20
644.7636672193455
 30
0.0
 10
219.7941482406421
 20
644.7615309265518
 30
0.0
 10
219.7824143050276
 20
644.7564689489648
 30
0.0
 10
219.7692734989065
 20
644.7539498685419
 30
0.0
 10
219.7558192204361
 20
644.7541779402817
 30
0.0
 10
219.7468265169164
 20
644.7543303811236
 30
0.0
 10
219.7375591070858
 20
644.7556935255565
 30
0.0
 10
219.7283610353965
 20
644.7582156834544
 30
0.0
 10
219.7145126711414
 20
644.7620129751541
 30
0.0
 10
219.7005026800355
 20
644.7685665734932
 30
0.0
 10
219.6874861045988
 20
644.7773314646279
 30
0.0
 10
219.6744691433078
 20
644.7860966155829
 30
0.0
 10
219.6620853919754
 20
644.797315716929
 30
0.0
 10
219.6513547703942
 20
644.8100571321664
 30
0.0
 10
219.6406366613239
 20
644.8227836901939
 30
0.0
 10
219.6312704856249
 20
644.8373826107647
 30
0.0
 10
219.6240335453476
 20
644.8526333260098
 30
0.0
 10
219.616827366197
 20
644.8678192170107
 30
0.0
 10
219.6115325161236
 20
644.8840730584426
 30
0.0
 10
219.6085909214344
 20
644.9000318148039
 30
0.0
 10
219.6067007496607
 20
644.9102863855401
 30
0.0
 10
219.6057387523359
 20
644.9205711252728
 30
0.0
 10
219.6057387523364
 20
644.9305241375685
 30
0.0
  0
LINE
  5
CC
330
75
100
AcDbEntity
  8
$DDT_AUDIT_GENERATED_(BB)
  6
Continuous
 62
     7
100
AcDbLine
 10
219.6057387523
 20
644.9305241376
 30
0.0
 11
219.6057387523
 21
645.436801807
 31
0.0
  0
SPLINE
  5
CD
330
75
100
AcDbEntity
  8
$DDT_AUDIT_GENERATED_(BB)
  6
Continuous
 62
     7
100
AcDbSpline
210
0.0
220
0.0
230
1.0
 70
     8
 71
     3
 72
    29
 73
    25
 74
     0
 42
0.0000000243719763
 43
0.0000000001
 40
0.2732300296123603
 40
0.2732300296123603
 40
0.2732300296123603
 40
0.2732300296123603
 40
0.3101299030736052
 40
0.3101299030736052
 40
0.3101299030736052
 40
0.4175043392655927
 40
0.4175043392655927
 40
0.4175043392655927
 40
0.4993216370964755
 40
0.4993216370964755
 40
0.4993216370964755
 40
0.612187038418086
 40
0.612187038418086
 40
0.612187038418086
 40
0.7251555094726714
 40
0.7251555094726714
 40
0.7251555094726714
 40
0.8363341539073847
 40
0.8363341539073847
 40
0.8363341539073847
 40
0.9433347098011029
 40
0.9433347098011029
 40
0.9433347098011029
 40
1.0
 40
1.0
 40
1.0
 40
1.0
 10
218.5809293345887
 20
645.165535549482
 30
0.0
 10
218.5776799738682
 20
645.1633394596467
 30
0.0
 10
218.5742850400265
 20
645.161446731173
 30
0.0
 10
218.5707782090773
 20
645.159878685418
 30
0.0
 10
218.5605761178906
 20
645.1553169183958
 30
0.0
 10
218.5491601956019
 20
645.153377784737
 30
0.0
 10
218.5374518547765
 20
645.1541460146736
 30
0.0
 10
218.5284791741022
 20
645.1547347472712
 30
0.0
 10
218.5191804113806
 20
645.1569051686926
 30
0.0
 10
218.5099716690162
 20
645.1605467259458
 30
0.0
 10
218.4973524621927
 20
645.1655369365868
 30
0.0
 10
218.4845997510384
 20
645.1734432804535
 30
0.0
 10
218.4727589108242
 20
645.1836331768457
 30
0.0
 10
218.4609122140882
 20
645.193828113197
 30
0.0
 10
218.4496439135215
 20
645.2066029255669
 30
0.0
 10
218.4399348862631
 20
645.2209198851504
 30
0.0
 10
218.4303824957881
 20
645.2350058676813
 30
0.0
 10
218.4220659519037
 20
645.2510006902829
 30
0.0
 10
218.4157741253821
 20
645.2675156722694
 30
0.0
 10
218.4097162779741
 20
645.2834164985998
 30
0.0
 10
218.4053636977166
 20
645.3002622886337
 30
0.0
 10
218.403145706946
 20
645.3165519246045
 30
0.0
 10
218.401958022697
 20
645.3252746588566
 30
0.0
 10
218.4013550538835
 20
645.3339463469949
 30
0.0
 10
218.4013550538835
 20
645.3423337422565
 30
0.0
  0
LINE
  5
CE
330
75
100
AcDbEntity
  8
$DDT_AUDIT_GENERATED_(BB)
  6
Continuous
 62
     7
100
AcDbLine
 10
218.4013550539
 20
645.3423337423
 30
0.0
 11
218.4013550539
 21
645.7524577838
 31
0.0
  0
LINE
  5
CF
330
75
100
AcDbEntity
  8
$DDT_AUDIT_GENERATED_(BB)
  6
Continuous
 62
     7
100
AcDbLine
 10
231.2803399241
 20
645.3423337423
 30
0.0
 11
231.2803399241
 21
645.7524577838
 31
0.0
  0
SPLINE
  5
D0
330
75
100
AcDbEntity
  8
$DDT_AUDIT_GENERATED_(BB)
  6
Continuous
 62
     7
100
AcDbSpline
210
0.0
220
0.0
230
1.0
 70
     8
 71
     3
 72
    29
 73
    25
 74
     0
 42
0.0000000243661994
 43
0.0000000001
 40
0.0
 40
0.0
 40
0.0
 40
0.0
 40
0.1023746315841314
 40
0.1023746315841314
 40
0.1023746315841314
 40
0.2046305204545174
 40
0.2046305204545174
 40
0.2046305204545174
 40
0.3087296237676051
 40
0.3087296237676051
 40
0.3087296237676051
 40
0.4168398131536808
 40
0.4168398131536808
 40
0.4168398131536808
 40
0.5003844465246418
 40
0.5003844465246418
 40
0.5003844465246418
 40
0.6125675398560969
 40
0.6125675398560969
 40
0.6125675398560969
 40
0.7248847230704131
 40
0.7248847230704131
 40
0.7248847230704131
 40
0.7271965615852982
 40
0.7271965615852982
 40
0.7271965615852982
 40
0.7271965615852982
 10
231.2803399240891
 20
645.3423337422565
 30
0.0
 10
231.2803399240891
 20
645.3273344059623
 30
0.0
 10
231.2783718009235
 20
645.311321805694
 30
0.0
 10
231.2746207904541
 20
645.2956459862535
 30
0.0
 10
231.270872212414
 20
645.2799803321592
 30
0.0
 10
231.2652474621419
 20
645.2642282018434
 30
0.0
 10
231.2582359173278
 20
645.2496332658499
 30
0.0
 10
231.2510965561144
 20
645.2347722726299
 30
0.0
 10
231.2423362362372
 20
645.2207171023887
 30
0.0
 10
231.2326580123415
 20
645.2085048420428
 30
0.0
 10
231.2226110382569
 20
645.1958272821378
 30
0.0
 10
231.2113110036727
 20
645.1847985214976
 30
0.0
 10
231.1996408599015
 20
645.1762293923483
 30
0.0
 10
231.190573348946
 20
645.1695713190663
 30
0.0
 10
231.1811232766613
 20
645.1642639024295
 30
0.0
 10
231.1717233089579
 20
645.1605467259446
 30
0.0
 10
231.159180086859
 20
645.1555865631334
 30
0.0
 10
231.146422404704
 20
645.1533716384635
 30
0.0
 10
231.1345081630824
 20
645.1541263572104
 30
0.0
 10
231.1225858753344
 20
645.154881585647
 30
0.0
 10
231.1111738084884
 20
645.158640776992
 30
0.0
 10
231.1013047349508
 20
645.1651621236917
 30
0.0
 10
231.1011016173931
 20
645.1652963409523
 30
0.0
 10
231.1008990325601
 20
645.1654318130034
 30
0.0
 10
231.100696988036
 20
645.1655685329309
 30
0.0
  0
LINE
  5
D1
330
75
100
AcDbEntity
  8
$DDT_AUDIT_GENERATED_(BB)
  6
Continuous
 62
     7
100
AcDbLine
 10
230.0759562256
 20
644.9305241376
 30
0.0
 11
230.0759562256
 21
645.436801807
 31
0.0
  0
SPLINE
  5
D2
330
75
100
AcDbEntity
  8
$DDT_AUDIT_GENERATED_(BB)
  6
Continuous
 62
     7
100
AcDbSpline
210
0.0
220
0.0
230
1.0
 70
     8
 71
     3
 72
    29
 73
    25
 74
     0
 42
0.0000000233549781
 43
0.0000000001
 40
0.0
 40
0.0
 40
0.0
 40
0.0
 40
0.1068330611839315
 40
0.1068330611839315
 40
0.1068330611839315
 40
0.2136478540472358
 40
0.2136478540472358
 40
0.2136478540472358
 40
0.3207502851661658
 40
0.3207502851661658
 40
0.3207502851661658
 40
0.428401568408166
 40
0.428401568408166
 40
0.428401568408166
 40
0.5001431576955019
 40
0.5001431576955019
 40
0.5001431576955019
 40
0.6080276783883337
 40
0.6080276783883337
 40
0.6080276783883337
 40
0.7159281147532264
 40
0.7159281147532264
 40
0.7159281147532264
 40
0.7244347842939617
 40
0.7244347842939617
 40
0.7244347842939617
 40
0.7244347842939617
 10
230.0759562256363
 20
644.9305241375685
 30
0.0
 10
230.0759562256363
 20
644.9151309925793
 30
0.0
 10
230.07361751694
 20
644.8988603835918
 30
0.0
 10
230.0691341346407
 20
644.8830648946437
 30
0.0
 10
230.0646511807312
 20
644.8672709149636
 30
0.0
 10
230.0579014276945
 20
644.8515179157196
 30
0.0
 10
230.0494386810955
 20
644.8371060340238
 30
0.0
 10
230.0409529730045
 20
644.8226550493838
 30
0.0
 10
230.0305126902009
 20
644.8091561871372
 30
0.0
 10
230.0189673038481
 20
644.7977164529492
 30
0.0
 10
230.0073636427941
 20
644.7862189773339
 30
0.0
 10
229.9943247465421
 20
644.7764858841929
 30
0.0
 10
229.9809150315266
 20
644.7693183095022
 30
0.0
 10
229.971908128338
 20
644.764504064661
 30
0.0
 10
229.9625984798544
 20
644.7607560665537
 30
0.0
 10
229.9533339425765
 20
644.7582156834544
 30
0.0
 10
229.9395118451539
 20
644.7544255942533
 30
0.0
 10
229.9254698084241
 20
644.7532772174492
 30
0.0
 10
229.9123743091642
 20
644.7548695961775
 30
0.0
 10
229.8992776870924
 20
644.756462111437
 30
0.0
 10
229.8867665401015
 20
644.7608407130475
 30
0.0
 10
229.8758966607854
 20
644.7676431510309
 30
0.0
 10
229.8750396959779
 20
644.7681794449296
 30
0.0
 10
229.8741910635419
 20
644.7687319787971
 30
0.0
 10
229.8733511632108
 20
644.7693003659273
 30
0.0
  0
ELLIPSE
  5
D3
330
75
100
AcDbEntity
  8
$DDT_AUDIT_GENERATED_(BB)
  6
Continuous
 62
     7
100
AcDbEllipse
 10
224.8408474889
 20
648.2490790684
 30
0.0
 11
8.900000000055908
 21
-1.773581281838688E-11
 31
0.0
210
0.0
220
0.0
230
1.0
 40
0.3907311285
 41
-1.118606538965158
 42
-1.106950902864923
  0
LINE
  5
D4
330
75
100
AcDbEntity
  8
$DDT_AUDIT_GENERATED_(BB)
  6
Continuous
 62
     7
100
AcDbLine
 10
228.7295803612
 20
644.6148100268
 30
0.0
 11
228.7295803612
 21
645.1210876962
 31
0.0
  0
SPLINE
  5
D5
330
75
100
AcDbEntity
  8
$DDT_AUDIT_GENERATED_(BB)
  6
Continuous
 62
     7
100
AcDbSpline
210
0.0
220
0.0
230
1.0
 70
     8
 71
     3
 72
    29
 73
    25
 74
     0
 42
0.0000000224177985
 43
0.0000000001
 40
0.0
 40
0.0
 40
0.0
 40
0.0
 40
0.1070376976067069
 40
0.1070376976067069
 40
0.1070376976067069
 40
0.2140690208576991
 40
0.2140690208576991
 40
0.2140690208576991
 40
0.3212025739630127
 40
0.3212025739630127
 40
0.3212025739630127
 40
0.4286035476186613
 40
0.4286035476186613
 40
0.4286035476186613
 40
0.4998231205273775
 40
0.4998231205273775
 40
0.4998231205273775
 40
0.607913426831543
 40
0.607913426831543
 40
0.607913426831543
 40
0.7160102322582279
 40
0.7160102322582279
 40
0.7160102322582279
 40
0.7242925122043399
 40
0.7242925122043399
 40
0.7242925122043399
 40
0.7242925122043399
 10
228.7295803611562
 20
644.6148100267758
 30
0.0
 10
228.7295803611562
 20
644.5993873202075
 30
0.0
 10
228.7269772636578
 20
644.5832573261041
 30
0.0
 10
228.7219850142362
 20
644.5677593000257
 30
0.0
 10
228.7169929293853
 20
644.552261784844
 30
0.0
 10
228.7094743536926
 20
644.5369695508192
 30
0.0
 10
228.7000463396128
 20
644.5231516678642
 30
0.0
 10
228.6906091259124
 20
644.5093203017644
 30
0.0
 10
228.6789993339949
 20
644.4965861634034
 30
0.0
 10
228.6661685936023
 20
644.4860017917681
 30
0.0
 10
228.6533059514354
 20
644.4753911036283
 30
0.0
 10
228.6388630255057
 20
644.4666494443381
 30
0.0
 10
228.6240242759492
 20
644.460494928038
 30
0.0
 10
228.6141062059718
 20
644.4563813116506
 30
0.0
 10
228.6038632628911
 20
644.4533431405002
 30
0.0
 10
228.5936740586349
 20
644.4514917475905
 30
0.0
 10
228.5783334723927
 20
644.4487043412446
 30
0.0
 10
228.5627600013517
 20
644.4485842441594
 30
0.0
 10
228.5482458726339
 20
644.4511385189222
 30
0.0
 10
228.5337313136693
 20
644.4536928694023
 30
0.0
 10
228.5198751862077
 20
644.4589925500201
 30
0.0
 10
228.5078400249779
 20
644.4665982614029
 30
0.0
 10
228.5069179489944
 20
644.4671809743112
 30
0.0
 10
228.5060046066424
 20
644.4677784680428
 30
0.0
 10
228.5051004038861
 20
644.4683903624724
 30
0.0
  0
LINE
  5
D6
330
75
100
AcDbEntity
  8
$DDT_AUDIT_GENERATED_(BB)
  6
Continuous
 62
     7
100
AcDbLine
 10
227.2425250645
 20
644.394302996
 30
0.0
 11
227.2425250645
 21
644.8322859762
 31
0.0
  0
SPLINE
  5
D7
330
75
100
AcDbEntity
  8
$DDT_AUDIT_GENERATED_(BB)
  6
Continuous
 62
     7
100
AcDbSpline
210
0.0
220
0.0
230
1.0
 70
     8
 71
     3
 72
    29
 73
    25
 74
     0
 42
0.0000000214892641
 43
0.0000000001
 40
0.0
 40
0.0
 40
0.0
 40
0.0
 40
0.102991093896926
 40
0.102991093896926
 40
0.102991093896926
 40
0.2058975568816425
 40
0.2058975568816425
 40
0.2058975568816425
 40
0.3101299030736191
 40
0.3101299030736191
 40
0.3101299030736191
 40
0.417504339265587
 40
0.417504339265587
 40
0.417504339265587
 40
0.4993216370965182
 40
0.4993216370965182
 40
0.4993216370965182
 40
0.6121870384181163
 40
0.6121870384181163
 40
0.6121870384181163
 40
0.7251555094726966
 40
0.7251555094726966
 40
0.7251555094726966
 40
0.7267317397785031
 40
0.7267317397785031
 40
0.7267317397785031
 40
0.7267317397785031
 10
227.2425250645161
 20
644.3943029960116
 30
0.0
 10
227.2425250645161
 20
644.3792128936785
 30
0.0
 10
227.2397740016627
 20
644.3636131579528
 30
0.0
 10
227.2345242276245
 20
644.3488087876615
 30
0.0
 10
227.2292768565189
 20
644.3340111936434
 30
0.0
 10
227.2213960361978
 20
644.319605966256
 30
0.0
 10
227.2115681092527
 20
644.3067375188026
 30
0.0
 10
227.2016116160522
 20
644.293700729835
 30
0.0
 10
227.1893980606665
 20
644.2818922556052
 30
0.0
 10
227.1759292480543
 20
644.2721898786633
 30
0.0
 10
227.162057664431
 20
644.2621973621017
 30
0.0
 10
227.1464907536999
 20
644.2541712056202
 30
0.0
 10
227.1304640911158
 20
644.2486827315772
 30
0.0
 10
227.1181820668916
 20
644.2444766424555
 30
0.0
 10
227.1054192590432
 20
644.241670222362
 30
0.0
 10
227.092743657133
 20
644.2403749183538
 30
0.0
 10
227.0753736367994
 20
644.2385998975602
 30
0.0
 10
227.0577492440098
 20
644.2396535093637
 30
0.0
 10
227.0413260102859
 20
644.2434673494317
 30
0.0
 10
227.0248946535719
 20
644.2472830758385
 30
0.0
 10
227.0092026449907
 20
644.2539759465174
 30
0.0
 10
226.995644532633
 20
644.2630441018051
 30
0.0
 10
226.9954554141943
 20
644.2631705910482
 30
0.0
 10
226.9952666344695
 20
644.2632975964162
 30
0.0
 10
226.9950781967032
 20
644.2634251151909
 30
0.0
  0
SPLINE
  5
D8
330
75
100
AcDbEntity
  8
$DDT_AUDIT_GENERATED_(BB)
  6
Continuous
 62
     7
100
AcDbSpline
210
0.0
220
0.0
230
1.0
 70
     8
 71
     3
 72
    26
 73
    22
 74
     0
 42
0.0000000199045445
 43
0.0000000001
 40
0.2695762179668015
 40
0.2695762179668015
 40
0.2695762179668015
 40
0.2695762179668015
 40
0.3714640149377607
 40
0.3714640149377607
 40
0.3714640149377607
 40
0.5010540393861107
 40
0.5010540393861107
 40
0.5010540393861107
 40
0.6510470224292606
 40
0.6510470224292606
 40
0.6510470224292606
 40
0.7843960688349252
 40
0.7843960688349252
 40
0.7843960688349252
 40
0.8804885337501169
 40
0.8804885337501169
 40
0.8804885337501169
 40
0.9771928945339131
 40
0.9771928945339131
 40
0.9771928945339131
 40
1.0
 40
1.0
 40
1.0
 40
1.0
 10
225.2562330240278
 20
644.1621437199003
 30
0.0
 10
225.2418789288475
 20
644.1527908496012
 30
0.0
 10
225.2259302792868
 20
644.1453263521126
 30
0.0
 10
225.2094257453381
 20
644.139957207023
 30
0.0
 10
225.188500228696
 20
644.1331498572802
 30
0.0
 10
225.1661304941021
 20
644.1295313178931
 30
0.0
 10
225.1440523858766
 20
644.1292372563396
 30
0.0
 10
225.1186199194376
 20
644.1288985175985
 30
0.0
 10
225.0926974670634
 20
644.1329969221039
 30
0.0
 10
225.0690851559478
 20
644.1414761076753
 30
0.0
 10
225.0480769060728
 20
644.1490201743426
 30
0.0
 10
225.0281653812496
 20
644.1603426146949
 30
0.0
 10
225.01194761742
 20
644.1747604729287
 30
0.0
 10
225.0001777696413
 20
644.1852240607877
 30
0.0
 10
224.9900513214058
 20
644.1975951848221
 30
0.0
 10
224.9826734544698
 20
644.2110634573601
 30
0.0
 10
224.975267445061
 20
644.2245831038923
 30
0.0
 10
224.9704551304931
 20
644.2396302493327
 30
0.0
 10
224.9689387203868
 20
644.2547401900595
 30
0.0
 10
224.968574970743
 20
644.25836469476
 30
0.0
 10
224.9683922234747
 20
644.2620094900163
 30
0.0
 10
224.9683922234747
 20
644.2656514681638
 30
0.0
  0
LINE
  5
D9
330
75
100
AcDbEntity
  8
$DDT_AUDIT_GENERATED_(BB)
  6
Continuous
 62
     7
100
AcDbLine
 10
224.9683922235
 20
644.2656514682
 30
0.0
 11
224.9683922235
 21
644.7719291376
 31
0.0
  0
LINE
  5
DA
330
75
100
AcDbEntity
  8
$DDT_AUDIT_GENERATED_(BB)
  6
Continuous
 62
     7
100
AcDbLine
 10
226.5671247939
 20
647.1879631965
 30
0.0
 11
226.5671247939
 21
647.2744065926
 31
0.0
  0
LINE
  5
DB
330
75
100
AcDbEntity
  8
$DDT_AUDIT_GENERATED_(BB)
  6
Continuous
 62
     7
100
AcDbLine
 10
225.833889952
 20
647.1879631965
 30
0.0
 11
225.833889952
 21
647.3195143878
 31
0.0
  0
LINE
  5
DC
330
75
100
AcDbEntity
  8
$DDT_AUDIT_GENERATED_(BB)
  6
Continuous
 62
     7
100
AcDbLine
 10
225.2074649099
 20
646.8812392606
 30
0.0
 11
225.2074649099
 21
647.2860774631
 31
0.0
  0
LINE
  5
DD
330
75
100
AcDbEntity
  8
$DDT_AUDIT_GENERATED_(BB)
  6
Continuous
 62
     7
100
AcDbLine
 10
224.4742300681
 20
646.8812392606
 30
0.0
 11
224.4742300681
 21
647.2860774631
 31
0.0
  0
LINE
  5
DE
330
75
100
AcDbEntity
  8
$DDT_AUDIT_GENERATED_(BB)
  6
Continuous
 62
     7
100
AcDbLine
 10
226.5671247939
 20
646.5745153248
 30
0.0
 11
226.5671247939
 21
646.9793535272
 31
0.0
  0
LINE
  5
DF
330
75
100
AcDbEntity
  8
$DDT_AUDIT_GENERATED_(BB)
  6
Continuous
 62
     7
100
AcDbLine
 10
225.833889952
 20
646.5745153248
 30
0.0
 11
225.833889952
 21
646.9793535272
 31
0.0
  0
LINE
  5
E0
330
75
100
AcDbEntity
  8
$DDT_AUDIT_GENERATED_(BB)
  6
Continuous
 62
     7
100
AcDbLine
 10
227.9267846778
 20
646.8812392606
 30
0.0
 11
227.9267846778
 21
647.1219208193
 31
0.0
  0
LINE
  5
E1
330
75
100
AcDbEntity
  8
$DDT_AUDIT_GENERATED_(BB)
  6
Continuous
 62
     7
100
AcDbLine
 10
227.1935498359
 20
646.8812392606
 30
0.0
 11
227.1935498359
 21
647.2156979804
 31
0.0
  0
LINE
  5
E2
330
75
100
AcDbEntity
  8
$DDT_AUDIT_GENERATED_(BB)
  6
Continuous
 62
     7
100
AcDbLine
 10
229.2864445617
 20
646.5745153248
 30
0.0
 11
229.2864445617
 21
646.8674600759
 31
0.0
  0
LINE
  5
E3
330
75
100
AcDbEntity
  8
$DDT_AUDIT_GENERATED_(BB)
  6
Continuous
 62
     7
100
AcDbLine
 10
228.5532097199
 20
646.5745153248
 30
0.0
 11
228.5532097199
 21
646.9793535272
 31
0.0
  0
LINE
  5
E4
330
75
100
AcDbEntity
  8
$DDT_AUDIT_GENERATED_(BB)
  6
Continuous
 62
     7
100
AcDbLine
 10
225.2074649099
 20
646.2677913889
 30
0.0
 11
225.2074649099
 21
646.6726295914
 31
0.0
  0
LINE
  5
E5
330
75
100
AcDbEntity
  8
$DDT_AUDIT_GENERATED_(BB)
  6
Continuous
 62
     7
100
AcDbLine
 10
224.4742300681
 20
646.2677913889
 30
0.0
 11
224.4742300681
 21
646.6726295914
 31
0.0
  0
LINE
  5
E6
330
75
100
AcDbEntity
  8
$DDT_AUDIT_GENERATED_(BB)
  6
Continuous
 62
     7
100
AcDbLine
 10
226.5671247939
 20
645.961067453
 30
0.0
 11
226.5671247939
 21
646.3659056555
 31
0.0
  0
LINE
  5
E7
330
75
100
AcDbEntity
  8
$DDT_AUDIT_GENERATED_(BB)
  6
Continuous
 62
     7
100
AcDbLine
 10
225.833889952
 20
645.961067453
 30
0.0
 11
225.833889952
 21
646.3659056555
 31
0.0
  0
LINE
  5
E8
330
75
100
AcDbEntity
  8
$DDT_AUDIT_GENERATED_(BB)
  6
Continuous
 62
     7
100
AcDbLine
 10
227.9267846778
 20
646.2677913889
 30
0.0
 11
227.9267846778
 21
646.6726295914
 31
0.0
  0
LINE
  5
E9
330
75
100
AcDbEntity
  8
$DDT_AUDIT_GENERATED_(BB)
  6
Continuous
 62
     7
100
AcDbLine
 10
227.1935498359
 20
646.2677913889
 30
0.0
 11
227.1935498359
 21
646.6726295914
 31
0.0
  0
LINE
  5
EA
330
75
100
AcDbEntity
  8
$DDT_AUDIT_GENERATED_(BB)
  6
Continuous
 62
     7
100
AcDbLine
 10
229.2864445617
 20
645.961067453
 30
0.0
 11
229.2864445617
 21
646.3659056555
 31
0.0
  0
LINE
  5
EB
330
75
100
AcDbEntity
  8
$DDT_AUDIT_GENERATED_(BB)
  6
Continuous
 62
     7
100
AcDbLine
 10
228.5532097199
 20
645.961067453
 30
0.0
 11
228.5532097199
 21
646.3659056555
 31
0.0
  0
LINE
  5
EC
330
75
100
AcDbEntity
  8
$DDT_AUDIT_GENERATED_(BB)
  6
Continuous
 62
     7
100
AcDbLine
 10
230.6461044457
 20
646.2677913889
 30
0.0
 11
230.6461044457
 21
646.4807717088
 31
0.0
  0
LINE
  5
ED
330
75
100
AcDbEntity
  8
$DDT_AUDIT_GENERATED_(BB)
  6
Continuous
 62
     7
100
AcDbLine
 10
229.9128696038
 20
646.2677913889
 30
0.0
 11
229.9128696038
 21
646.6726295914
 31
0.0
  0
LINE
  5
EE
330
75
100
AcDbEntity
  8
$DDT_AUDIT_GENERATED_(BB)
  6
Continuous
 62
     7
100
AcDbLine
 10
231.2725294878
 20
645.961067453
 30
0.0
 11
231.2725294878
 21
646.2407651234
 31
0.0
  0
LINE
  5
EF
330
75
100
AcDbEntity
  8
$DDT_AUDIT_GENERATED_(BB)
  6
Continuous
 62
     7
100
AcDbLine
 10
225.2074649099
 20
645.6543435172
 30
0.0
 11
225.2074649099
 21
646.0591817196
 31
0.0
  0
LINE
  5
F0
330
75
100
AcDbEntity
  8
$DDT_AUDIT_GENERATED_(BB)
  6
Continuous
 62
     7
100
AcDbLine
 10
224.4742300681
 20
645.6543435172
 30
0.0
 11
224.4742300681
 21
646.0591817196
 31
0.0
  0
LINE
  5
F1
330
75
100
AcDbEntity
  8
$DDT_AUDIT_GENERATED_(BB)
  6
Continuous
 62
     7
100
AcDbLine
 10
226.5671247939
 20
645.3476195813
 30
0.0
 11
226.5671247939
 21
645.7524577838
 31
0.0
  0
LINE
  5
F2
330
75
100
AcDbEntity
  8
$DDT_AUDIT_GENERATED_(BB)
  6
Continuous
 62
     7
100
AcDbLine
 10
225.833889952
 20
645.3476195813
 30
0.0
 11
225.833889952
 21
645.7524577838
 31
0.0
  0
LINE
  5
F3
330
75
100
AcDbEntity
  8
$DDT_AUDIT_GENERATED_(BB)
  6
Continuous
 62
     7
100
AcDbLine
 10
229.2864445617
 20
645.3476195813
 30
0.0
 11
229.2864445617
 21
645.7524577838
 31
0.0
  0
LINE
  5
F4
330
75
100
AcDbEntity
  8
$DDT_AUDIT_GENERATED_(BB)
  6
Continuous
 62
     7
100
AcDbLine
 10
228.5532097199
 20
645.3476195813
 30
0.0
 11
228.5532097199
 21
645.7524577838
 31
0.0
  0
LINE
  5
F5
330
75
100
AcDbEntity
  8
$DDT_AUDIT_GENERATED_(BB)
  6
Continuous
 62
     7
100
AcDbLine
 10
230.6461044457
 20
645.6543435172
 30
0.0
 11
230.6461044457
 21
646.0591817196
 31
0.0
  0
LINE
  5
F6
330
75
100
AcDbEntity
  8
$DDT_AUDIT_GENERATED_(BB)
  6
Continuous
 62
     7
100
AcDbLine
 10
229.9128696038
 20
645.6543435172
 30
0.0
 11
229.9128696038
 21
646.0591817196
 31
0.0
  0
LINE
  5
F7
330
75
100
AcDbEntity
  8
$DDT_AUDIT_GENERATED_(BB)
  6
Continuous
 62
     7
100
AcDbLine
 10
225.2074649099
 20
645.0408956454
 30
0.0
 11
225.2074649099
 21
645.4457338479
 31
0.0
  0
LINE
  5
F8
330
75
100
AcDbEntity
  8
$DDT_AUDIT_GENERATED_(BB)
  6
Continuous
 62
     7
100
AcDbLine
 10
224.4742300681
 20
645.0408956454
 30
0.0
 11
224.4742300681
 21
645.4457338479
 31
0.0
  0
LINE
  5
F9
330
75
100
AcDbEntity
  8
$DDT_AUDIT_GENERATED_(BB)
  6
Continuous
 62
     7
100
AcDbLine
 10
226.5671247939
 20
644.7341717096
 30
0.0
 11
226.5671247939
 21
645.139009912
 31
0.0
  0
LINE
  5
FA
330
75
100
AcDbEntity
  8
$DDT_AUDIT_GENERATED_(BB)
  6
Continuous
 62
     7
100
AcDbLine
 10
225.833889952
 20
644.7341717096
 30
0.0
 11
225.833889952
 21
645.139009912
 31
0.0
  0
LINE
  5
FB
330
75
100
AcDbEntity
  8
$DDT_AUDIT_GENERATED_(BB)
  6
Continuous
 62
     7
100
AcDbLine
 10
227.9267846778
 20
645.0408956454
 30
0.0
 11
227.9267846778
 21
645.4457338479
 31
0.0
  0
LINE
  5
FC
330
75
100
AcDbEntity
  8
$DDT_AUDIT_GENERATED_(BB)
  6
Continuous
 62
     7
100
AcDbLine
 10
227.1935498359
 20
645.0408956454
 30
0.0
 11
227.1935498359
 21
645.4457338479
 31
0.0
  0
LINE
  5
FD
330
75
100
AcDbEntity
  8
$DDT_AUDIT_GENERATED_(BB)
  6
Continuous
 62
     7
100
AcDbLine
 10
228.7295803612
 20
645.1210876962
 30
0.0
 11
228.7030982219
 21
645.139009912
 31
0.0
  0
LINE
  5
FE
330
75
100
AcDbEntity
  8
$DDT_AUDIT_GENERATED_(BB)
  6
Continuous
 62
     7
100
AcDbLine
 10
230.0759562256
 20
645.436801807
 30
0.0
 11
230.0627581058
 21
645.4457338479
 31
0.0
  0
LINE
  5
FF
330
75
100
AcDbEntity
  8
$DDT_AUDIT_GENERATED_(BB)
  6
Continuous
 62
     7
100
AcDbLine
 10
225.0575764079
 20
644.8322859762
 30
0.0
 11
224.9683922235
 21
644.7719291376
 31
0.0
  0
LINE
  5
100
330
75
100
AcDbEntity
  8
$DDT_AUDIT_GENERATED_(BB)
  6
Continuous
 62
     7
100
AcDbLine
 10
224.7133027545
 20
644.7719291376
 30
0.0
 11
224.6241185701
 21
644.8322859762
 31
0.0
  0
LINE
  5
101
330
75
100
AcDbEntity
  8
$DDT_AUDIT_GENERATED_(BB)
  6
Continuous
 62
     7
100
AcDbLine
 10
218.4091654902
 20
645.961067453
 30
0.0
 11
218.4091654902
 21
646.2407651234
 31
0.0
  0
LINE
  5
102
330
75
100
AcDbEntity
  8
$DDT_AUDIT_GENERATED_(BB)
  6
Continuous
 62
     7
100
AcDbLine
 10
219.6189368721
 20
645.4457338479
 30
0.0
 11
219.6057387523
 21
645.436801807
 31
0.0
  0
LINE
  5
103
330
75
100
AcDbEntity
  8
$DDT_AUDIT_GENERATED_(BB)
  6
Continuous
 62
     7
100
AcDbLine
 10
220.9785967561
 20
645.139009912
 30
0.0
 11
220.9521146168
 21
645.1210876962
 31
0.0
  0
LINE
  5
104
330
75
100
AcDbEntity
  8
$DDT_AUDIT_GENERATED_(BB)
  6
Continuous
 62
     7
100
AcDbLine
 10
221.7549103002
 20
645.0408956454
 30
0.0
 11
221.7549103002
 21
645.4457338479
 31
0.0
  0
LINE
  5
105
330
75
100
AcDbEntity
  8
$DDT_AUDIT_GENERATED_(BB)
  6
Continuous
 62
     7
100
AcDbLine
 10
222.488145142
 20
645.0408956454
 30
0.0
 11
222.488145142
 21
645.4457338479
 31
0.0
  0
LINE
  5
106
330
75
100
AcDbEntity
  8
$DDT_AUDIT_GENERATED_(BB)
  6
Continuous
 62
     7
100
AcDbLine
 10
223.847805026
 20
644.7341717096
 30
0.0
 11
223.847805026
 21
645.139009912
 31
0.0
  0
LINE
  5
107
330
75
100
AcDbEntity
  8
$DDT_AUDIT_GENERATED_(BB)
  6
Continuous
 62
     7
100
AcDbLine
 10
223.1145701841
 20
644.7341717096
 30
0.0
 11
223.1145701841
 21
645.139009912
 31
0.0
  0
LINE
  5
108
330
75
100
AcDbEntity
  8
$DDT_AUDIT_GENERATED_(BB)
  6
Continuous
 62
     7
100
AcDbLine
 10
219.0355905323
 20
645.6543435172
 30
0.0
 11
219.0355905323
 21
646.0591817196
 31
0.0
  0
LINE
  5
109
330
75
100
AcDbEntity
  8
$DDT_AUDIT_GENERATED_(BB)
  6
Continuous
 62
     7
100
AcDbLine
 10
219.7688253742
 20
645.6543435172
 30
0.0
 11
219.7688253742
 21
646.0591817196
 31
0.0
  0
LINE
  5
10A
330
75
100
AcDbEntity
  8
$DDT_AUDIT_GENERATED_(BB)
  6
Continuous
 62
     7
100
AcDbLine
 10
221.7549103002
 20
645.6543435172
 30
0.0
 11
221.7549103002
 21
646.0591817196
 31
0.0
  0
LINE
  5
10B
330
75
100
AcDbEntity
  8
$DDT_AUDIT_GENERATED_(BB)
  6
Continuous
 62
     7
100
AcDbLine
 10
222.488145142
 20
645.6543435172
 30
0.0
 11
222.488145142
 21
646.0591817196
 31
0.0
  0
LINE
  5
10C
330
75
100
AcDbEntity
  8
$DDT_AUDIT_GENERATED_(BB)
  6
Continuous
 62
     7
100
AcDbLine
 10
221.1284852581
 20
645.3476195813
 30
0.0
 11
221.1284852581
 21
645.7524577838
 31
0.0
  0
LINE
  5
10D
330
75
100
AcDbEntity
  8
$DDT_AUDIT_GENERATED_(BB)
  6
Continuous
 62
     7
100
AcDbLine
 10
220.3952504162
 20
645.3476195813
 30
0.0
 11
220.3952504162
 21
645.7524577838
 31
0.0
  0
LINE
  5
10E
330
75
100
AcDbEntity
  8
$DDT_AUDIT_GENERATED_(BB)
  6
Continuous
 62
     7
100
AcDbLine
 10
223.847805026
 20
645.3476195813
 30
0.0
 11
223.847805026
 21
645.7524577838
 31
0.0
  0
LINE
  5
10F
330
75
100
AcDbEntity
  8
$DDT_AUDIT_GENERATED_(BB)
  6
Continuous
 62
     7
100
AcDbLine
 10
223.1145701841
 20
645.3476195813
 30
0.0
 11
223.1145701841
 21
645.7524577838
 31
0.0
  0
LINE
  5
110
330
75
100
AcDbEntity
  8
$DDT_AUDIT_GENERATED_(BB)
  6
Continuous
 62
     7
100
AcDbLine
 10
219.0355905323
 20
646.2677913889
 30
0.0
 11
219.0355905323
 21
646.4807717088
 31
0.0
  0
LINE
  5
111
330
75
100
AcDbEntity
  8
$DDT_AUDIT_GENERATED_(BB)
  6
Continuous
 62
     7
100
AcDbLine
 10
219.7688253742
 20
646.2677913889
 30
0.0
 11
219.7688253742
 21
646.6726295914
 31
0.0
  0
LINE
  5
112
330
75
100
AcDbEntity
  8
$DDT_AUDIT_GENERATED_(BB)
  6
Continuous
 62
     7
100
AcDbLine
 10
221.7549103002
 20
646.2677913889
 30
0.0
 11
221.7549103002
 21
646.6726295914
 31
0.0
  0
LINE
  5
113
330
75
100
AcDbEntity
  8
$DDT_AUDIT_GENERATED_(BB)
  6
Continuous
 62
     7
100
AcDbLine
 10
222.488145142
 20
646.2677913889
 30
0.0
 11
222.488145142
 21
646.6726295914
 31
0.0
  0
LINE
  5
114
330
75
100
AcDbEntity
  8
$DDT_AUDIT_GENERATED_(BB)
  6
Continuous
 62
     7
100
AcDbLine
 10
221.1284852581
 20
645.961067453
 30
0.0
 11
221.1284852581
 21
646.3659056555
 31
0.0
  0
LINE
  5
115
330
75
100
AcDbEntity
  8
$DDT_AUDIT_GENERATED_(BB)
  6
Continuous
 62
     7
100
AcDbLine
 10
220.3952504162
 20
645.961067453
 30
0.0
 11
220.3952504162
 21
646.3659056555
 31
0.0
  0
LINE
  5
116
330
75
100
AcDbEntity
  8
$DDT_AUDIT_GENERATED_(BB)
  6
Continuous
 62
     7
100
AcDbLine
 10
223.847805026
 20
645.961067453
 30
0.0
 11
223.847805026
 21
646.3659056555
 31
0.0
  0
LINE
  5
117
330
75
100
AcDbEntity
  8
$DDT_AUDIT_GENERATED_(BB)
  6
Continuous
 62
     7
100
AcDbLine
 10
223.1145701841
 20
645.961067453
 30
0.0
 11
223.1145701841
 21
646.3659056555
 31
0.0
  0
LINE
  5
118
330
75
100
AcDbEntity
  8
$DDT_AUDIT_GENERATED_(BB)
  6
Continuous
 62
     7
100
AcDbLine
 10
221.7549103002
 20
646.8812392606
 30
0.0
 11
221.7549103002
 21
647.1219208193
 31
0.0
  0
LINE
  5
119
330
75
100
AcDbEntity
  8
$DDT_AUDIT_GENERATED_(BB)
  6
Continuous
 62
     7
100
AcDbLine
 10
222.488145142
 20
646.8812392606
 30
0.0
 11
222.488145142
 21
647.2156979804
 31
0.0
  0
LINE
  5
11A
330
75
100
AcDbEntity
  8
$DDT_AUDIT_GENERATED_(BB)
  6
Continuous
 62
     7
100
AcDbLine
 10
221.1284852581
 20
646.5745153248
 30
0.0
 11
221.1284852581
 21
646.9793535272
 31
0.0
  0
LINE
  5
11B
330
75
100
AcDbEntity
  8
$DDT_AUDIT_GENERATED_(BB)
  6
Continuous
 62
     7
100
AcDbLine
 10
220.3952504162
 20
646.5745153248
 30
0.0
 11
220.3952504162
 21
646.8674600759
 31
0.0
  0
LINE
  5
11C
330
75
100
AcDbEntity
  8
$DDT_AUDIT_GENERATED_(BB)
  6
Continuous
 62
     7
100
AcDbLine
 10
223.847805026
 20
646.5745153248
 30
0.0
 11
223.847805026
 21
646.9793535272
 31
0.0
  0
LINE
  5
11D
330
75
100
AcDbEntity
  8
$DDT_AUDIT_GENERATED_(BB)
  6
Continuous
 62
     7
100
AcDbLine
 10
223.1145701841
 20
646.5745153248
 30
0.0
 11
223.1145701841
 21
646.9793535272
 31
0.0
  0
LINE
  5
11E
330
75
100
AcDbEntity
  8
$DDT_AUDIT_GENERATED_(BB)
  6
Continuous
 62
     7
100
AcDbLine
 10
223.847805026
 20
647.1879631965
 30
0.0
 11
223.847805026
 21
647.3195143878
 31
0.0
  0
LINE
  5
11F
330
75
100
AcDbEntity
  8
$DDT_AUDIT_GENERATED_(BB)
  6
Continuous
 62
     7
100
AcDbLine
 10
223.1145701841
 20
647.1879631965
 30
0.0
 11
223.1145701841
 21
647.2744065926
 31
0.0
  0
SPLINE
  5
120
330
75
100
AcDbEntity
  8
$DDT_AUDIT_GENERATED_(BB)
  6
Continuous
 62
     7
100
AcDbSpline
210
0.0
220
0.0
230
1.0
 70
    12
 71
     3
 72
     8
 73
     4
 74
     0
 42
0.0000000375058467
 43
0.0000000001
 40
0.5600000000000133
 40
0.5600000000000133
 40
0.5600000000000133
 40
0.5600000000000133
 40
1.0
 40
1.0
 40
1.0
 40
1.0
 10
218.8392625318963
 20
645.4888987897004
 30
0.0
 41
0.8556622217687323
 10
218.8713621314507
 20
645.4679476977605
 30
0.0
 41
0.8659720630709677
 10
218.9096854510176
 20
645.4576581198844
 30
0.0
 41
0.9140846558147236
 10
218.9489879919063
 20
645.4576581198845
 30
0.0
 41
1.0
  0
ARC
  5
121
330
75
100
AcDbEntity
  8
$DDT_AUDIT_GENERATED_(BB)
  6
Continuous
 62
     7
100
AcDbCircle
 10
218.6649233032
 20
645.9562714873
 30
0.0
 40
0.2558027759609002
100
AcDbArc
 50
178.9257165174
 51
228.6030272461
  0
SPLINE
  5
122
330
75
100
AcDbEntity
  8
$DDT_AUDIT_GENERATED_(BB)
  6
Continuous
 62
     7
100
AcDbSpline
210
0.0
220
0.0
230
1.0
 70
    12
 71
     3
 72
     8
 73
     4
 74
     0
 42
0.0000000375058467
 43
0.0000000001
 40
0.5599999999999717
 40
0.5599999999999717
 40
0.5599999999999717
 40
0.5599999999999717
 40
1.0
 40
1.0
 40
1.0
 40
1.0
 10
220.1989224158379
 20
645.1821748538363
 30
0.0
 41
0.8556622217687448
 10
220.2310220153922
 20
645.1612237618963
 30
0.0
 41
0.8659720630709731
 10
220.2693453349592
 20
645.1509341840202
 30
0.0
 41
0.9140846558147248
 10
220.3086478758478
 20
645.1509341840203
 30
0.0
 41
1.0
  0
SPLINE
  5
123
330
75
100
AcDbEntity
  8
$DDT_AUDIT_GENERATED_(BB)
  6
Continuous
 62
     7
100
AcDbSpline
210
0.0
220
0.0
230
1.0
 70
    12
 71
     3
 72
     8
 73
     4
 74
     0
 42
0.0000000372994116
 43
0.0000000001
 40
0.0
 40
0.0
 40
0.0
 40
0.0
 40
0.5110395609510421
 40
0.5110395609510421
 40
0.5110395609510421
 40
0.5110395609510421
 10
218.4957680305924
 20
645.7643820557486
 30
0.0
 41
1.0
 10
218.5421194948028
 20
645.7643820557486
 30
0.0
 41
0.9002133187013577
 10
218.5864479398047
 20
645.778499642873
 30
0.0
 41
0.8514215792023351
 10
218.6204620185673
 20
645.8066255048064
 30
0.0
 41
0.8536247815029322
  0
ARC
  5
124
330
75
100
AcDbEntity
  8
$DDT_AUDIT_GENERATED_(BB)
  6
Continuous
 62
     7
100
AcDbCircle
 10
218.7798327193
 20
645.6495475514
 30
0.0
 40
0.255802775961019
100
AcDbArc
 50
311.3969727539
 51
1.0742834827
  0
SPLINE
  5
125
330
75
100
AcDbEntity
  8
$DDT_AUDIT_GENERATED_(BB)
  6
Continuous
 62
     7
100
AcDbSpline
210
0.0
220
0.0
230
1.0
 70
    12
 71
     3
 72
     8
 73
     4
 74
     0
 42
0.0000000375058467
 43
0.0000000001
 40
0.5599999999999291
 40
0.5599999999999291
 40
0.5599999999999291
 40
0.5599999999999291
 40
1.0
 40
1.0
 40
1.0
 40
1.0
 10
218.8392625318963
 20
646.1023466614287
 30
0.0
 41
0.8556622217687249
 10
218.8713621314506
 20
646.0813955694887
 30
0.0
 41
0.8659720630709479
 10
218.9096854510176
 20
646.0711059916126
 30
0.0
 41
0.9140846558147063
 10
218.9489879919063
 20
646.0711059916126
 30
0.0
 41
1.0
  0
ARC
  5
126
330
75
100
AcDbEntity
  8
$DDT_AUDIT_GENERATED_(BB)
  6
Continuous
 62
     7
100
AcDbCircle
 10
220.0245831871
 20
645.6495475514
 30
0.0
 40
0.255802775960992
100
AcDbArc
 50
178.9257165173
 51
228.6030272461
  0
SPLINE
  5
127
330
75
100
AcDbEntity
  8
$DDT_AUDIT_GENERATED_(BB)
  6
Continuous
 62
     7
100
AcDbSpline
210
0.0
220
0.0
230
1.0
 70
    12
 71
     3
 72
     8
 73
     4
 74
     0
 42
0.0000000375058467
 43
0.0000000001
 40
0.5600000000000144
 40
0.5600000000000144
 40
0.5600000000000144
 40
0.5600000000000144
 40
1.0
 40
1.0
 40
1.0
 40
1.0
 10
221.5585822997795
 20
644.8754509179721
 30
0.0
 41
0.8556622217687316
 10
221.5906818993338
 20
644.8544998260322
 30
0.0
 41
0.8659720630709673
 10
221.6290052189008
 20
644.8442102481563
 30
0.0
 41
0.9140846558147234
 10
221.6683077597894
 20
644.8442102481563
 30
0.0
 41
1.0
  0
SPLINE
  5
128
330
75
100
AcDbEntity
  8
$DDT_AUDIT_GENERATED_(BB)
  6
Continuous
 62
     7
100
AcDbSpline
210
0.0
220
0.0
230
1.0
 70
    12
 71
     3
 72
     8
 73
     4
 74
     0
 42
0.0000000372994116
 43
0.0000000001
 40
0.0
 40
0.0
 40
0.0
 40
0.0
 40
0.511039560951185
 40
0.511039560951185
 40
0.511039560951185
 40
0.511039560951185
 10
219.855427914534
 20
645.4576581198845
 30
0.0
 41
1.0
 10
219.9017793787444
 20
645.4576581198845
 30
0.0
 41
0.9002133187013297
 10
219.9461078237463
 20
645.4717757070089
 30
0.0
 41
0.8514215792023078
 10
219.9801219025089
 20
645.4999015689423
 30
0.0
 41
0.853624781502934
  0
ARC
  5
129
330
75
100
AcDbEntity
  8
$DDT_AUDIT_GENERATED_(BB)
  6
Continuous
 62
     7
100
AcDbCircle
 10
220.1394926032
 20
645.3428236156
 30
0.0
 40
0.2558027759610026
100
AcDbArc
 50
311.3969727539
 51
1.0742834827
  0
SPLINE
  5
12A
330
75
100
AcDbEntity
  8
$DDT_AUDIT_GENERATED_(BB)
  6
Continuous
 62
     7
100
AcDbSpline
210
0.0
220
0.0
230
1.0
 70
    12
 71
     3
 72
     8
 73
     4
 74
     0
 42
0.0000000375058467
 43
0.0000000001
 40
0.5599999999999197
 40
0.5599999999999197
 40
0.5599999999999197
 40
0.5599999999999197
 40
1.0
 40
1.0
 40
1.0
 40
1.0
 10
220.1989224158378
 20
645.7956227255646
 30
0.0
 41
0.8556622217687427
 10
220.2310220153922
 20
645.7746716336246
 30
0.0
 41
0.8659720630709631
 10
220.2693453349592
 20
645.7643820557486
 30
0.0
 41
0.9140846558147155
 10
220.3086478758478
 20
645.7643820557486
 30
0.0
 41
1.0
  0
ARC
  5
12B
330
75
100
AcDbEntity
  8
$DDT_AUDIT_GENERATED_(BB)
  6
Continuous
 62
     7
100
AcDbCircle
 10
218.7798327193
 20
646.2629954232
 30
0.0
 40
0.2558027759610245
100
AcDbArc
 50
311.3969727539
 51
1.0742834826
  0
ARC
  5
12C
330
75
100
AcDbEntity
  8
$DDT_AUDIT_GENERATED_(BB)
  6
Continuous
 62
     7
100
AcDbCircle
 10
221.3842430711
 20
645.3428236156
 30
0.0
 40
0.2558027759609765
100
AcDbArc
 50
178.9257165173
 51
228.6030272461
  0
ARC
  5
12D
330
75
100
AcDbEntity
  8
$DDT_AUDIT_GENERATED_(BB)
  6
Continuous
 62
     7
100
AcDbCircle
 10
220.0245831871
 20
646.2629954232
 30
0.0
 40
0.2558027759609843
100
AcDbArc
 50
178.9257165174
 51
228.6030272461
  0
SPLINE
  5
12E
330
75
100
AcDbEntity
  8
$DDT_AUDIT_GENERATED_(BB)
  6
Continuous
 62
     7
100
AcDbSpline
210
0.0
220
0.0
230
1.0
 70
    12
 71
     3
 72
     8
 73
     4
 74
     0
 42
0.0000000372994116
 43
0.0000000001
 40
0.0
 40
0.0
 40
0.0
 40
0.0
 40
0.5110395609511155
 40
0.5110395609511155
 40
0.5110395609511155
 40
0.5110395609511155
 10
226.6537273342417
 20
644.5374863122922
 30
0.0
 41
1.0
 10
226.7000787984521
 20
644.5374863122922
 30
0.0
 41
0.900213318701354
 10
226.744407243454
 20
644.5516038994166
 30
0.0
 41
0.851421579202337
 10
226.7784213222166
 20
644.57972976135
 30
0.0
 41
0.8536247815029488
  0
SPLINE
  5
12F
330
75
100
AcDbEntity
  8
$DDT_AUDIT_GENERATED_(BB)
  6
Continuous
 62
     7
100
AcDbSpline
210
0.0
220
0.0
230
1.0
 70
    12
 71
     3
 72
     8
 73
     4
 74
     0
 42
0.0000000375058467
 43
0.0000000001
 40
0.5600000000001177
 40
0.5600000000001177
 40
0.5600000000001177
 40
0.5600000000001177
 40
1.0
 40
1.0
 40
1.0
 40
1.0
 10
225.6375619516041
 20
644.568726982108
 30
0.0
 41
0.8556622217687255
 10
225.6696615511584
 20
644.5477758901682
 30
0.0
 41
0.8659720630709775
 10
225.7079848707254
 20
644.5374863122922
 30
0.0
 41
0.9140846558147356
 10
225.747287411614
 20
644.5374863122922
 30
0.0
 41
1.0
  0
SPLINE
  5
130
330
75
100
AcDbEntity
  8
$DDT_AUDIT_GENERATED_(BB)
  6
Continuous
 62
     7
100
AcDbSpline
210
0.0
220
0.0
230
1.0
 70
    12
 71
     3
 72
     8
 73
     4
 74
     0
 42
0.0000000372994116
 43
0.0000000001
 40
0.0
 40
0.0
 40
0.0
 40
0.0
 40
0.5110395609510553
 40
0.5110395609510553
 40
0.5110395609510553
 40
0.5110395609510553
 10
223.9344075663587
 20
644.5374863122922
 30
0.0
 41
1.0
 10
223.9807590305691
 20
644.5374863122923
 30
0.0
 41
0.9002133187014583
 10
224.025087475571
 20
644.5516038994167
 30
0.0
 41
0.8514215792024862
 10
224.0591015543335
 20
644.5797297613501
 30
0.0
 41
0.8536247815030837
  0
SPLINE
  5
131
330
75
100
AcDbEntity
  8
$DDT_AUDIT_GENERATED_(BB)
  6
Continuous
 62
     7
100
AcDbSpline
210
0.0
220
0.0
230
1.0
 70
    12
 71
     3
 72
     8
 73
     4
 74
     0
 42
0.0000000375058467
 43
0.0000000001
 40
0.560000000000034
 40
0.560000000000034
 40
0.560000000000034
 40
0.560000000000034
 40
1.0
 40
1.0
 40
1.0
 40
1.0
 10
222.918242183721
 20
644.5687269821082
 30
0.0
 41
0.8556622217687485
 10
222.9503417832754
 20
644.5477758901682
 30
0.0
 41
0.865972063070986
 10
222.9886651028424
 20
644.5374863122922
 30
0.0
 41
0.9140846558147364
 10
223.027967643731
 20
644.5374863122922
 30
0.0
 41
1.0
  0
SPLINE
  5
132
330
75
100
AcDbEntity
  8
$DDT_AUDIT_GENERATED_(BB)
  6
Continuous
 62
     7
100
AcDbSpline
210
0.0
220
0.0
230
1.0
 70
    12
 71
     3
 72
     8
 73
     4
 74
     0
 42
0.0000000372994116
 43
0.0000000001
 40
0.0
 40
0.0
 40
0.0
 40
0.0
 40
0.511039560951004
 40
0.511039560951004
 40
0.511039560951004
 40
0.511039560951004
 10
221.2150877984756
 20
645.1509341840203
 30
0.0
 41
1.0
 10
221.261439262686
 20
645.1509341840203
 30
0.0
 41
0.900213318701364
 10
221.3057677076879
 20
645.1650517711447
 30
0.0
 41
0.8514215792023407
 10
221.3397817864505
 20
645.1931776330781
 30
0.0
 41
0.8536247815029302
  0
ARC
  5
133
330
75
100
AcDbEntity
  8
$DDT_AUDIT_GENERATED_(BB)
  6
Continuous
 62
     7
100
AcDbCircle
 10
221.4991524872
 20
645.0360996797
 30
0.0
 40
0.2558027759609449
100
AcDbArc
 50
311.3969727539
 51
1.0742834827
  0
SPLINE
  5
134
330
75
100
AcDbEntity
  8
$DDT_AUDIT_GENERATED_(BB)
  6
Continuous
 62
     7
100
AcDbSpline
210
0.0
220
0.0
230
1.0
 70
    12
 71
     3
 72
     8
 73
     4
 74
     0
 42
0.0000000375058467
 43
0.0000000001
 40
0.5599999999999514
 40
0.5599999999999514
 40
0.5599999999999514
 40
0.5599999999999514
 40
1.0
 40
1.0
 40
1.0
 40
1.0
 10
221.5585822997795
 20
645.4888987897004
 30
0.0
 41
0.8556622217687272
 10
221.5906818993338
 20
645.4679476977605
 30
0.0
 41
0.8659720630709535
 10
221.6290052189008
 20
645.4576581198845
 30
0.0
 41
0.9140846558147111
 10
221.6683077597894
 20
645.4576581198845
 30
0.0
 41
1.0
  0
SPLINE
  5
135
330
75
100
AcDbEntity
  8
$DDT_AUDIT_GENERATED_(BB)
  6
Continuous
 62
     7
100
AcDbSpline
210
0.0
220
0.0
230
1.0
 70
    12
 71
     3
 72
     8
 73
     4
 74
     0
 42
0.0000000372994116
 43
0.0000000001
 40
0.0
 40
0.0
 40
0.0
 40
0.0
 40
0.5110395609511593
 40
0.5110395609511593
 40
0.5110395609511593
 40
0.5110395609511593
 10
219.855427914534
 20
646.0711059916126
 30
0.0
 41
1.0
 10
219.9017793787444
 20
646.0711059916126
 30
0.0
 41
0.9002133187013347
 10
219.9461078237463
 20
646.0852235787371
 30
0.0
 41
0.8514215792023127
 10
219.9801219025089
 20
646.1133494406705
 30
0.0
 41
0.8536247815029336
  0
ARC
  5
136
330
75
100
AcDbEntity
  8
$DDT_AUDIT_GENERATED_(BB)
  6
Continuous
 62
     7
100
AcDbCircle
 10
220.1394926032
 20
645.9562714873
 30
0.0
 40
0.2558027759609619
100
AcDbArc
 50
311.3969727539
 51
1.0742834826
  0
SPLINE
  5
137
330
75
100
AcDbEntity
  8
$DDT_AUDIT_GENERATED_(BB)
  6
Continuous
 62
     7
100
AcDbSpline
210
0.0
220
0.0
230
1.0
 70
    12
 71
     3
 72
     8
 73
     4
 74
     0
 42
0.0000000375058467
 43
0.0000000001
 40
0.5600000000000188
 40
0.5600000000000188
 40
0.5600000000000188
 40
0.5600000000000188
 40
1.0
 40
1.0
 40
1.0
 40
1.0
 10
220.1989224158378
 20
646.4090705972927
 30
0.0
 41
0.8556622217687482
 10
220.2310220153922
 20
646.3881195053527
 30
0.0
 41
0.8659720630709833
 10
220.2693453349592
 20
646.3778299274767
 30
0.0
 41
0.914084655814734
 10
220.3086478758478
 20
646.3778299274767
 30
0.0
 41
1.0
  0
ARC
  5
138
330
75
100
AcDbEntity
  8
$DDT_AUDIT_GENERATED_(BB)
  6
Continuous
 62
     7
100
AcDbCircle
 10
225.578132139
 20
644.7293757438
 30
0.0
 40
0.2558027759609658
100
AcDbArc
 50
311.3969727539
 51
1.0742834827
  0
ARC
  5
139
330
75
100
AcDbEntity
  8
$DDT_AUDIT_GENERATED_(BB)
  6
Continuous
 62
     7
100
AcDbCircle
 10
226.8228826068
 20
644.7293757438
 30
0.0
 40
0.2558027759609479
100
AcDbArc
 50
178.9257165173
 51
228.6030272461
  0
ARC
  5
13A
330
75
100
AcDbEntity
  8
$DDT_AUDIT_GENERATED_(BB)
  6
Continuous
 62
     7
100
AcDbCircle
 10
222.8588123711
 20
644.7293757438
 30
0.0
 40
0.2558027759609616
100
AcDbArc
 50
311.3969727539
 51
1.0742834827
  0
ARC
  5
13B
330
75
100
AcDbEntity
  8
$DDT_AUDIT_GENERATED_(BB)
  6
Continuous
 62
     7
100
AcDbCircle
 10
224.103562839
 20
644.7293757438
 30
0.0
 40
0.2558027759609661
100
AcDbArc
 50
178.9257165173
 51
228.6030272461
  0
ARC
  5
13C
330
75
100
AcDbEntity
  8
$DDT_AUDIT_GENERATED_(BB)
  6
Continuous
 62
     7
100
AcDbCircle
 10
222.743902955
 20
645.0360996797
 30
0.0
 40
0.2558027759609389
100
AcDbArc
 50
178.9257165173
 51
228.6030272461
  0
ARC
  5
13D
330
75
100
AcDbEntity
  8
$DDT_AUDIT_GENERATED_(BB)
  6
Continuous
 62
     7
100
AcDbCircle
 10
221.3842430711
 20
645.9562714873
 30
0.0
 40
0.2558027759609329
100
AcDbArc
 50
178.9257165174
 51
228.6030272461
  0
SPLINE
  5
13E
330
75
100
AcDbEntity
  8
$DDT_AUDIT_GENERATED_(BB)
  6
Continuous
 62
     7
100
AcDbSpline
210
0.0
220
0.0
230
1.0
 70
    12
 71
     3
 72
     8
 73
     4
 74
     0
 42
0.0000000372994116
 43
0.0000000001
 40
0.0
 40
0.0
 40
0.0
 40
0.0
 40
0.5110395609510618
 40
0.5110395609510618
 40
0.5110395609510618
 40
0.5110395609510618
 10
230.7327069860664
 20
645.4576581198845
 30
0.0
 41
1.0
 10
230.7790584502769
 20
645.4576581198845
 30
0.0
 41
0.9002133187013538
 10
230.8233868952788
 20
645.4717757070089
 30
0.0
 41
0.8514215792023313
 10
230.8574009740413
 20
645.4999015689423
 30
0.0
 41
0.8536247815029324
  0
SPLINE
  5
13F
330
75
100
AcDbEntity
  8
$DDT_AUDIT_GENERATED_(BB)
  6
Continuous
 62
     7
100
AcDbSpline
210
0.0
220
0.0
230
1.0
 70
    12
 71
     3
 72
     8
 73
     4
 74
     0
 42
0.0000000372994116
 43
0.0000000001
 40
0.0
 40
0.0
 40
0.0
 40
0.0
 40
0.5110395609511447
 40
0.5110395609511447
 40
0.5110395609511447
 40
0.5110395609511447
 10
228.0133872181833
 20
644.8442102481563
 30
0.0
 41
1.0
 10
228.0597386823937
 20
644.8442102481563
 30
0.0
 41
0.900213318701336
 10
228.1040671273956
 20
644.8583278352808
 30
0.0
 41
0.8514215792023131
 10
228.1380812061582
 20
644.8864536972143
 30
0.0
 41
0.8536247815029312
  0
SPLINE
  5
140
330
75
100
AcDbEntity
  8
$DDT_AUDIT_GENERATED_(BB)
  6
Continuous
 62
     7
100
AcDbSpline
210
0.0
220
0.0
230
1.0
 70
    12
 71
     3
 72
     8
 73
     4
 74
     0
 42
0.0000000375058467
 43
0.0000000001
 40
0.5599999999999251
 40
0.5599999999999251
 40
0.5599999999999251
 40
0.5599999999999251
 40
1.0
 40
1.0
 40
1.0
 40
1.0
 10
226.9972218355456
 20
644.8754509179722
 30
0.0
 41
0.855662221768726
 10
227.0293214351
 20
644.8544998260323
 30
0.0
 41
0.8659720630709484
 10
227.0676447546669
 20
644.8442102481563
 30
0.0
 41
0.9140846558147064
 10
227.1069472955556
 20
644.8442102481563
 30
0.0
 41
1.0
  0
SPLINE
  5
141
330
75
100
AcDbEntity
  8
$DDT_AUDIT_GENERATED_(BB)
  6
Continuous
 62
     7
100
AcDbSpline
210
0.0
220
0.0
230
1.0
 70
    12
 71
     3
 72
     8
 73
     4
 74
     0
 42
0.0000000372994116
 43
0.0000000001
 40
0.0
 40
0.0
 40
0.0
 40
0.0
 40
0.5110395609510874
 40
0.5110395609510874
 40
0.5110395609510874
 40
0.5110395609510874
 10
225.2940674503001
 20
644.8442102481563
 30
0.0
 41
1.0
 10
225.3404189145106
 20
644.8442102481564
 30
0.0
 41
0.9002133187013488
 10
225.3847473595125
 20
644.8583278352806
 30
0.0
 41
0.8514215792023264
 10
225.4187614382751
 20
644.886453697214
 30
0.0
 41
0.8536247815029328
  0
SPLINE
  5
142
330
75
100
AcDbEntity
  8
$DDT_AUDIT_GENERATED_(BB)
  6
Continuous
 62
     7
100
AcDbSpline
210
0.0
220
0.0
230
1.0
 70
    12
 71
     3
 72
     8
 73
     4
 74
     0
 42
0.0000000375058467
 43
0.0000000001
 40
0.560000000000078
 40
0.560000000000078
 40
0.560000000000078
 40
0.560000000000078
 40
1.0
 40
1.0
 40
1.0
 40
1.0
 10
224.2779020676626
 20
644.8754509179722
 30
0.0
 41
0.8556622217688706
 10
224.3100016672169
 20
644.8544998260323
 30
0.0
 41
0.8659720630711061
 10
224.3483249867838
 20
644.8442102481564
 30
0.0
 41
0.9140846558148159
 10
224.3876275276724
 20
644.8442102481563
 30
0.0
 41
1.0
  0
SPLINE
  5
143
330
75
100
AcDbEntity
  8
$DDT_AUDIT_GENERATED_(BB)
  6
Continuous
 62
     7
100
AcDbSpline
210
0.0
220
0.0
230
1.0
 70
    12
 71
     3
 72
     8
 73
     4
 74
     0
 42
0.0000000372994116
 43
0.0000000001
 40
0.0
 40
0.0
 40
0.0
 40
0.0
 40
0.5110395609511177
 40
0.5110395609511177
 40
0.5110395609511177
 40
0.5110395609511177
 10
222.5747476824171
 20
644.8442102481563
 30
0.0
 41
1.0
 10
222.6210991466276
 20
644.8442102481562
 30
0.0
 41
0.9002133187013419
 10
222.6654275916295
 20
644.8583278352806
 30
0.0
 41
0.8514215792023191
 10
222.699441670392
 20
644.8864536972142
 30
0.0
 41
0.8536247815029316
  0
SPLINE
  5
144
330
75
100
AcDbEntity
  8
$DDT_AUDIT_GENERATED_(BB)
  6
Continuous
 62
     7
100
AcDbSpline
210
0.0
220
0.0
230
1.0
 70
    12
 71
     3
 72
     8
 73
     4
 74
     0
 42
0.0000000375058467
 43
0.0000000001
 40
0.5600000000000542
 40
0.5600000000000542
 40
0.5600000000000542
 40
0.5600000000000542
 40
1.0
 40
1.0
 40
1.0
 40
1.0
 10
222.918242183721
 20
645.1821748538363
 30
0.0
 41
0.8556622217687492
 10
222.9503417832754
 20
645.1612237618963
 30
0.0
 41
0.8659720630709897
 10
222.9886651028424
 20
645.1509341840202
 30
0.0
 41
0.91408465581474
 10
223.027967643731
 20
645.1509341840203
 30
0.0
 41
1.0
  0
SPLINE
  5
145
330
75
100
AcDbEntity
  8
$DDT_AUDIT_GENERATED_(BB)
  6
Continuous
 62
     7
100
AcDbSpline
210
0.0
220
0.0
230
1.0
 70
    12
 71
     3
 72
     8
 73
     4
 74
     0
 42
0.0000000372994116
 43
0.0000000001
 40
0.0
 40
0.0
 40
0.0
 40
0.0
 40
0.5110395609509698
 40
0.5110395609509698
 40
0.5110395609509698
 40
0.5110395609509698
 10
221.2150877984755
 20
645.7643820557486
 30
0.0
 41
1.0
 10
221.261439262686
 20
645.7643820557486
 30
0.0
 41
0.9002133187013718
 10
221.3057677076878
 20
645.778499642873
 30
0.0
 41
0.8514215792023488
 10
221.3397817864504
 20
645.8066255048063
 30
0.0
 41
0.8536247815029312
  0
ARC
  5
146
330
75
100
AcDbEntity
  8
$DDT_AUDIT_GENERATED_(BB)
  6
Continuous
 62
     7
100
AcDbCircle
 10
221.4991524872
 20
645.6495475514
 30
0.0
 40
0.255802775960971
100
AcDbArc
 50
311.3969727539
 51
1.0742834827
  0
SPLINE
  5
147
330
75
100
AcDbEntity
  8
$DDT_AUDIT_GENERATED_(BB)
  6
Continuous
 62
     7
100
AcDbSpline
210
0.0
220
0.0
230
1.0
 70
    12
 71
     3
 72
     8
 73
     4
 74
     0
 42
0.0000000375058467
 43
0.0000000001
 40
0.5600000000000196
 40
0.5600000000000196
 40
0.5600000000000196
 40
0.5600000000000196
 40
1.0
 40
1.0
 40
1.0
 40
1.0
 10
221.5585822997794
 20
646.1023466614287
 30
0.0
 41
0.8556622217687312
 10
221.5906818993338
 20
646.0813955694887
 30
0.0
 41
0.8659720630709677
 10
221.6290052189008
 20
646.0711059916126
 30
0.0
 41
0.914084655814724
 10
221.6683077597894
 20
646.0711059916126
 30
0.0
 41
1.0
  0
SPLINE
  5
148
330
75
100
AcDbEntity
  8
$DDT_AUDIT_GENERATED_(BB)
  6
Continuous
 62
     7
100
AcDbSpline
210
0.0
220
0.0
230
1.0
 70
    12
 71
     3
 72
     8
 73
     4
 74
     0
 42
0.0000000372994116
 43
0.0000000001
 40
0.0
 40
0.0
 40
0.0
 40
0.0
 40
0.5110395609509841
 40
0.5110395609509841
 40
0.5110395609509841
 40
0.5110395609509841
 10
219.8554279145339
 20
646.6845538633407
 30
0.0
 41
1.0
 10
219.9017793787444
 20
646.6845538633407
 30
0.0
 41
0.900213318701369
 10
219.9461078237462
 20
646.6986714504652
 30
0.0
 41
0.8514215792023461
 10
219.9801219025088
 20
646.7267973123986
 30
0.0
 41
0.8536247815029314
  0
ARC
  5
149
330
75
100
AcDbEntity
  8
$DDT_AUDIT_GENERATED_(BB)
  6
Continuous
 62
     7
100
AcDbCircle
 10
220.1394926032
 20
646.569719359
 30
0.0
 40
0.2558027759610005
100
AcDbArc
 50
311.3969727539
 51
1.0742834826
  0
ARC
  5
14A
330
75
100
AcDbEntity
  8
$DDT_AUDIT_GENERATED_(BB)
  6
Continuous
 62
     7
100
AcDbCircle
 10
231.0167716748
 20
645.9562714873
 30
0.0
 40
0.2558027759609221
100
AcDbArc
 50
311.3969727539
 51
1.0742834826
  0
ARC
  5
14B
330
75
100
AcDbEntity
  8
$DDT_AUDIT_GENERATED_(BB)
  6
Continuous
 62
     7
100
AcDbCircle
 10
226.937792023
 20
645.0360996797
 30
0.0
 40
0.2558027759609552
100
AcDbArc
 50
311.3969727539
 51
1.0742834827
  0
ARC
  5
14C
330
75
100
AcDbEntity
  8
$DDT_AUDIT_GENERATED_(BB)
  6
Continuous
 62
     7
100
AcDbCircle
 10
228.1825424908
 20
645.0360996797
 30
0.0
 40
0.2558027759609604
100
AcDbArc
 50
178.9257165173
 51
228.6030272461
  0
ARC
  5
14D
330
75
100
AcDbEntity
  8
$DDT_AUDIT_GENERATED_(BB)
  6
Continuous
 62
     7
100
AcDbCircle
 10
224.2184722551
 20
645.0360996797
 30
0.0
 40
0.2558027759609735
100
AcDbArc
 50
311.3969727539
 51
1.0742834827
  0
ARC
  5
14E
330
75
100
AcDbEntity
  8
$DDT_AUDIT_GENERATED_(BB)
  6
Continuous
 62
     7
100
AcDbCircle
 10
225.4632227229
 20
645.0360996797
 30
0.0
 40
0.2558027759609682
100
AcDbArc
 50
178.9257165173
 51
228.6030272461
  0
ARC
  5
14F
330
75
100
AcDbEntity
  8
$DDT_AUDIT_GENERATED_(BB)
  6
Continuous
 62
     7
100
AcDbCircle
 10
222.743902955
 20
645.6495475514
 30
0.0
 40
0.2558027759609385
100
AcDbArc
 50
178.9257165173
 51
228.6030272461
  0
ARC
  5
150
330
75
100
AcDbEntity
  8
$DDT_AUDIT_GENERATED_(BB)
  6
Continuous
 62
     7
100
AcDbCircle
 10
221.3842430711
 20
646.569719359
 30
0.0
 40
0.2558027759609109
100
AcDbArc
 50
178.9257165174
 51
228.6030272461
  0
SPLINE
  5
151
330
75
100
AcDbEntity
  8
$DDT_AUDIT_GENERATED_(BB)
  6
Continuous
 62
     7
100
AcDbSpline
210
0.0
220
0.0
230
1.0
 70
    12
 71
     3
 72
     8
 73
     4
 74
     0
 42
0.0000000372994116
 43
0.0000000001
 40
0.0
 40
0.0
 40
0.0
 40
0.0
 40
0.5110395609509372
 40
0.5110395609509372
 40
0.5110395609509372
 40
0.5110395609509372
 10
230.7327069860665
 20
646.0711059916126
 30
0.0
 41
1.0
 10
230.7790584502769
 20
646.0711059916126
 30
0.0
 41
0.9002133187013781
 10
230.8233868952787
 20
646.0852235787371
 30
0.0
 41
0.8514215792023551
 10
230.8574009740413
 20
646.1133494406705
 30
0.0
 41
0.8536247815029309
  0
ARC
  5
152
330
75
100
AcDbEntity
  8
$DDT_AUDIT_GENERATED_(BB)
  6
Continuous
 62
     7
100
AcDbCircle
 10
230.9018622587
 20
645.6495475514
 30
0.0
 40
0.2558027759609879
100
AcDbArc
 50
178.9257165173
 51
228.6030272461
  0
SPLINE
  5
153
330
75
100
AcDbEntity
  8
$DDT_AUDIT_GENERATED_(BB)
  6
Continuous
 62
     7
100
AcDbSpline
210
0.0
220
0.0
230
1.0
 70
    12
 71
     3
 72
     8
 73
     4
 74
     0
 42
0.0000000375058467
 43
0.0000000001
 40
0.5600000000000736
 40
0.5600000000000736
 40
0.5600000000000736
 40
0.5600000000000736
 40
1.0
 40
1.0
 40
1.0
 40
1.0
 10
231.0762014873704
 20
645.7956227255646
 30
0.0
 41
0.855662221768738
 10
231.1083010869247
 20
645.7746716336246
 30
0.0
 41
0.8659720630709822
 10
231.1466244064917
 20
645.7643820557486
 30
0.0
 41
0.9140846558147362
 10
231.1859269473803
 20
645.7643820557486
 30
0.0
 41
1.0
  0
SPLINE
  5
154
330
75
100
AcDbEntity
  8
$DDT_AUDIT_GENERATED_(BB)
  6
Continuous
 62
     7
100
AcDbSpline
210
0.0
220
0.0
230
1.0
 70
    12
 71
     3
 72
     8
 73
     4
 74
     0
 42
0.0000000372994116
 43
0.0000000001
 40
0.0
 40
0.0
 40
0.0
 40
0.0
 40
0.5110395609511904
 40
0.5110395609511904
 40
0.5110395609511904
 40
0.5110395609511904
 10
229.3730471021249
 20
645.1509341840203
 30
0.0
 41
1.0
 10
229.4193985663353
 20
645.1509341840203
 30
0.0
 41
0.900213318701341
 10
229.4637270113372
 20
645.1650517711448
 30
0.0
 41
0.8514215792023251
 10
229.4977410900998
 20
645.1931776330782
 30
0.0
 41
0.8536247815029522
  0
SPLINE
  5
155
330
75
100
AcDbEntity
  8
$DDT_AUDIT_GENERATED_(BB)
  6
Continuous
 62
     7
100
AcDbSpline
210
0.0
220
0.0
230
1.0
 70
    12
 71
     3
 72
     8
 73
     4
 74
     0
 42
0.0000000375058467
 43
0.0000000001
 40
0.5600000000000008
 40
0.5600000000000008
 40
0.5600000000000008
 40
0.5600000000000008
 40
1.0
 40
1.0
 40
1.0
 40
1.0
 10
228.3568817194872
 20
645.1821748538364
 30
0.0
 41
0.8556622217687159
 10
228.3889813190416
 20
645.1612237618964
 30
0.0
 41
0.8659720630709505
 10
228.4273046386085
 20
645.1509341840203
 30
0.0
 41
0.914084655814712
 10
228.4666071794971
 20
645.1509341840203
 30
0.0
 41
1.0
  0
SPLINE
  5
156
330
75
100
AcDbEntity
  8
$DDT_AUDIT_GENERATED_(BB)
  6
Continuous
 62
     7
100
AcDbSpline
210
0.0
220
0.0
230
1.0
 70
    12
 71
     3
 72
     8
 73
     4
 74
     0
 42
0.0000000372994116
 43
0.0000000001
 40
0.0
 40
0.0
 40
0.0
 40
0.0
 40
0.5110395609509718
 40
0.5110395609509718
 40
0.5110395609509718
 40
0.5110395609509718
 10
226.6537273342417
 20
645.1509341840203
 30
0.0
 41
1.0
 10
226.7000787984521
 20
645.1509341840205
 30
0.0
 41
0.9002133187013815
 10
226.744407243454
 20
645.1650517711447
 30
0.0
 41
0.8514215792023636
 10
226.7784213222166
 20
645.1931776330781
 30
0.0
 41
0.8536247815029462
  0
SPLINE
  5
157
330
75
100
AcDbEntity
  8
$DDT_AUDIT_GENERATED_(BB)
  6
Continuous
 62
     7
100
AcDbSpline
210
0.0
220
0.0
230
1.0
 70
    12
 71
     3
 72
     8
 73
     4
 74
     0
 42
0.0000000375058467
 43
0.0000000001
 40
0.5600000000000138
 40
0.5600000000000138
 40
0.5600000000000138
 40
0.5600000000000138
 40
1.0
 40
1.0
 40
1.0
 40
1.0
 10
225.6375619516041
 20
645.1821748538364
 30
0.0
 41
0.855662221768719
 10
225.6696615511584
 20
645.1612237618964
 30
0.0
 41
0.8659720630709554
 10
225.7079848707254
 20
645.1509341840203
 30
0.0
 41
0.9140846558147158
 10
225.747287411614
 20
645.1509341840203
 30
0.0
 41
1.0
  0
SPLINE
  5
158
330
75
100
AcDbEntity
  8
$DDT_AUDIT_GENERATED_(BB)
  6
Continuous
 62
     7
100
AcDbSpline
210
0.0
220
0.0
230
1.0
 70
    12
 71
     3
 72
     8
 73
     4
 74
     0
 42
0.0000000372994116
 43
0.0000000001
 40
0.0
 40
0.0
 40
0.0
 40
0.0
 40
0.5110395609510495
 40
0.5110395609510495
 40
0.5110395609510495
 40
0.5110395609510495
 10
223.9344075663587
 20
645.1509341840203
 30
0.0
 41
1.0
 10
223.9807590305691
 20
645.1509341840205
 30
0.0
 41
0.900213318701437
 10
224.025087475571
 20
645.1650517711448
 30
0.0
 41
0.8514215792024539
 10
224.0591015543335
 20
645.1931776330782
 30
0.0
 41
0.8536247815030508
  0
SPLINE
  5
159
330
75
100
AcDbEntity
  8
$DDT_AUDIT_GENERATED_(BB)
  6
Continuous
 62
     7
100
AcDbSpline
210
0.0
220
0.0
230
1.0
 70
    12
 71
     3
 72
     8
 73
     4
 74
     0
 42
0.0000000372994116
 43
0.0000000001
 40
0.0
 40
0.0
 40
0.0
 40
0.0
 40
0.5110395609511775
 40
0.5110395609511775
 40
0.5110395609511775
 40
0.5110395609511775
 10
222.5747476824171
 20
645.4576581198845
 30
0.0
 41
1.0
 10
222.6210991466276
 20
645.4576581198845
 30
0.0
 41
0.9002133187013307
 10
222.6654275916295
 20
645.4717757070089
 30
0.0
 41
0.8514215792023084
 10
222.699441670392
 20
645.4999015689423
 30
0.0
 41
0.8536247815029332
  0
ARC
  5
15A
330
75
100
AcDbEntity
  8
$DDT_AUDIT_GENERATED_(BB)
  6
Continuous
 62
     7
100
AcDbCircle
 10
222.8588123711
 20
645.3428236156
 30
0.0
 40
0.2558027759610172
100
AcDbArc
 50
311.3969727539
 51
1.0742834827
  0
SPLINE
  5
15B
330
75
100
AcDbEntity
  8
$DDT_AUDIT_GENERATED_(BB)
  6
Continuous
 62
     7
100
AcDbSpline
210
0.0
220
0.0
230
1.0
 70
    12
 71
     3
 72
     8
 73
     4
 74
     0
 42
0.0000000375058467
 43
0.0000000001
 40
0.5600000000000181
 40
0.5600000000000181
 40
0.5600000000000181
 40
0.5600000000000181
 40
1.0
 40
1.0
 40
1.0
 40
1.0
 10
222.918242183721
 20
645.7956227255646
 30
0.0
 41
0.8556622217687458
 10
222.9503417832753
 20
645.7746716336246
 30
0.0
 41
0.8659720630709811
 10
222.9886651028424
 20
645.7643820557486
 30
0.0
 41
0.9140846558147324
 10
223.027967643731
 20
645.7643820557486
 30
0.0
 41
1.0
  0
SPLINE
  5
15C
330
75
100
AcDbEntity
  8
$DDT_AUDIT_GENERATED_(BB)
  6
Continuous
 62
     7
100
AcDbSpline
210
0.0
220
0.0
230
1.0
 70
    12
 71
     3
 72
     8
 73
     4
 74
     0
 42
0.0000000372994116
 43
0.0000000001
 40
0.0
 40
0.0
 40
0.0
 40
0.0
 40
0.511039560951062
 40
0.511039560951062
 40
0.511039560951062
 40
0.511039560951062
 10
221.2150877984755
 20
646.3778299274767
 30
0.0
 41
1.0
 10
221.261439262686
 20
646.3778299274767
 30
0.0
 41
0.9002133187013532
 10
221.3057677076878
 20
646.3919475146012
 30
0.0
 41
0.8514215792023305
 10
221.3397817864504
 20
646.4200733765347
 30
0.0
 41
0.8536247815029316
  0
ARC
  5
15D
330
75
100
AcDbEntity
  8
$DDT_AUDIT_GENERATED_(BB)
  6
Continuous
 62
     7
100
AcDbCircle
 10
221.4991524872
 20
646.2629954232
 30
0.0
 40
0.2558027759609927
100
AcDbArc
 50
311.3969727539
 51
1.0742834826
  0
SPLINE
  5
15E
330
75
100
AcDbEntity
  8
$DDT_AUDIT_GENERATED_(BB)
  6
Continuous
 62
     7
100
AcDbSpline
210
0.0
220
0.0
230
1.0
 70
    12
 71
     3
 72
     8
 73
     4
 74
     0
 42
0.0000000375058467
 43
0.0000000001
 40
0.5599999999999968
 40
0.5599999999999968
 40
0.5599999999999968
 40
0.5599999999999968
 40
1.0
 40
1.0
 40
1.0
 40
1.0
 10
221.5585822997794
 20
646.7157945331568
 30
0.0
 41
0.8556622217687303
 10
221.5906818993338
 20
646.6948434412168
 30
0.0
 41
0.8659720630709634
 10
221.6290052189007
 20
646.6845538633407
 30
0.0
 41
0.91408465581472
 10
221.6683077597894
 20
646.6845538633407
 30
0.0
 41
1.0
  0
ARC
  5
15F
330
75
100
AcDbEntity
  8
$DDT_AUDIT_GENERATED_(BB)
  6
Continuous
 62
     7
100
AcDbCircle
 10
229.6571117908
 20
645.6495475514
 30
0.0
 40
0.2558027759609725
100
AcDbArc
 50
311.3969727539
 51
1.0742834827
  0
ARC
  5
160
330
75
100
AcDbEntity
  8
$DDT_AUDIT_GENERATED_(BB)
  6
Continuous
 62
     7
100
AcDbCircle
 10
228.2974519069
 20
645.3428236156
 30
0.0
 40
0.2558027759610539
100
AcDbArc
 50
311.3969727539
 51
1.0742834827
  0
ARC
  5
161
330
75
100
AcDbEntity
  8
$DDT_AUDIT_GENERATED_(BB)
  6
Continuous
 62
     7
100
AcDbCircle
 10
229.5422023747
 20
645.3428236156
 30
0.0
 40
0.255802775961024
100
AcDbArc
 50
178.9257165173
 51
228.6030272461
  0
ARC
  5
162
330
75
100
AcDbEntity
  8
$DDT_AUDIT_GENERATED_(BB)
  6
Continuous
 62
     7
100
AcDbCircle
 10
225.578132139
 20
645.3428236156
 30
0.0
 40
0.2558027759609976
100
AcDbArc
 50
311.3969727539
 51
1.0742834827
  0
ARC
  5
163
330
75
100
AcDbEntity
  8
$DDT_AUDIT_GENERATED_(BB)
  6
Continuous
 62
     7
100
AcDbCircle
 10
226.8228826068
 20
645.3428236156
 30
0.0
 40
0.2558027759610098
100
AcDbArc
 50
178.9257165173
 51
228.6030272461
  0
ARC
  5
164
330
75
100
AcDbEntity
  8
$DDT_AUDIT_GENERATED_(BB)
  6
Continuous
 62
     7
100
AcDbCircle
 10
224.103562839
 20
645.3428236156
 30
0.0
 40
0.2558027759610018
100
AcDbArc
 50
178.9257165173
 51
228.6030272461
  0
ARC
  5
165
330
75
100
AcDbEntity
  8
$DDT_AUDIT_GENERATED_(BB)
  6
Continuous
 62
     7
100
AcDbCircle
 10
222.743902955
 20
646.2629954232
 30
0.0
 40
0.2558027759609927
100
AcDbArc
 50
178.9257165174
 51
228.6030272461
  0
ARC
  5
166
330
75
100
AcDbEntity
  8
$DDT_AUDIT_GENERATED_(BB)
  6
Continuous
 62
     7
100
AcDbCircle
 10
230.9018622587
 20
646.2629954232
 30
0.0
 40
0.2558027759610139
100
AcDbArc
 50
178.9257165174
 51
228.6030272461
  0
SPLINE
  5
167
330
75
100
AcDbEntity
  8
$DDT_AUDIT_GENERATED_(BB)
  6
Continuous
 62
     7
100
AcDbSpline
210
0.0
220
0.0
230
1.0
 70
    12
 71
     3
 72
     8
 73
     4
 74
     0
 42
0.0000000372994116
 43
0.0000000001
 40
0.0
 40
0.0
 40
0.0
 40
0.0
 40
0.511039560951075
 40
0.511039560951075
 40
0.511039560951075
 40
0.511039560951075
 10
229.3730471021249
 20
645.7643820557486
 30
0.0
 41
1.0
 10
229.4193985663353
 20
645.7643820557486
 30
0.0
 41
0.9002133187013636
 10
229.4637270113372
 20
645.778499642873
 30
0.0
 41
0.8514215792023471
 10
229.4977410900998
 20
645.8066255048064
 30
0.0
 41
0.8536247815029506
  0
SPLINE
  5
168
330
75
100
AcDbEntity
  8
$DDT_AUDIT_GENERATED_(BB)
  6
Continuous
 62
     7
100
AcDbSpline
210
0.0
220
0.0
230
1.0
 70
    12
 71
     3
 72
     8
 73
     4
 74
     0
 42
0.0000000375058467
 43
0.0000000001
 40
0.5600000000000058
 40
0.5600000000000058
 40
0.5600000000000058
 40
0.5600000000000058
 40
1.0
 40
1.0
 40
1.0
 40
1.0
 10
229.7165416034288
 20
645.4888987897006
 30
0.0
 41
0.855662221768734
 10
229.7486412029831
 20
645.4679476977605
 30
0.0
 41
0.8659720630709681
 10
229.7869645225501
 20
645.4576581198845
 30
0.0
 41
0.9140846558147234
 10
229.8262670634387
 20
645.4576581198845
 30
0.0
 41
1.0
  0
SPLINE
  5
169
330
75
100
AcDbEntity
  8
$DDT_AUDIT_GENERATED_(BB)
  6
Continuous
 62
     7
100
AcDbSpline
210
0.0
220
0.0
230
1.0
 70
    12
 71
     3
 72
     8
 73
     4
 74
     0
 42
0.0000000372994116
 43
0.0000000001
 40
0.0
 40
0.0
 40
0.0
 40
0.0
 40
0.5110395609511943
 40
0.5110395609511943
 40
0.5110395609511943
 40
0.5110395609511943
 10
228.0133872181833
 20
645.4576581198845
 30
0.0
 41
1.0
 10
228.0597386823937
 20
645.4576581198845
 30
0.0
 41
0.9002133187013162
 10
228.1040671273956
 20
645.471775707009
 30
0.0
 41
0.8514215792022884
 10
228.1380812061582
 20
645.4999015689424
 30
0.0
 41
0.8536247815029169
  0
SPLINE
  5
16A
330
75
100
AcDbEntity
  8
$DDT_AUDIT_GENERATED_(BB)
  6
Continuous
 62
     7
100
AcDbSpline
210
0.0
220
0.0
230
1.0
 70
    12
 71
     3
 72
     8
 73
     4
 74
     0
 42
0.0000000375058467
 43
0.0000000001
 40
0.5600000000000714
 40
0.5600000000000714
 40
0.5600000000000714
 40
0.5600000000000714
 40
1.0
 40
1.0
 40
1.0
 40
1.0
 10
226.9972218355456
 20
645.4888987897006
 30
0.0
 41
0.8556622217687526
 10
227.0293214351
 20
645.4679476977605
 30
0.0
 41
0.8659720630709955
 10
227.067644754667
 20
645.4576581198845
 30
0.0
 41
0.9140846558147446
 10
227.1069472955556
 20
645.4576581198845
 30
0.0
 41
1.0
  0
SPLINE
  5
16B
330
75
100
AcDbEntity
  8
$DDT_AUDIT_GENERATED_(BB)
  6
Continuous
 62
     7
100
AcDbSpline
210
0.0
220
0.0
230
1.0
 70
    12
 71
     3
 72
     8
 73
     4
 74
     0
 42
0.0000000372994116
 43
0.0000000001
 40
0.0
 40
0.0
 40
0.0
 40
0.0
 40
0.5110395609511379
 40
0.5110395609511379
 40
0.5110395609511379
 40
0.5110395609511379
 10
225.2940674503002
 20
645.4576581198845
 30
0.0
 41
1.0
 10
225.3404189145106
 20
645.4576581198845
 30
0.0
 41
0.9002133187013389
 10
225.3847473595125
 20
645.4717757070089
 30
0.0
 41
0.8514215792023168
 10
225.4187614382751
 20
645.4999015689423
 30
0.0
 41
0.8536247815029334
  0
SPLINE
  5
16C
330
75
100
AcDbEntity
  8
$DDT_AUDIT_GENERATED_(BB)
  6
Continuous
 62
     7
100
AcDbSpline
210
0.0
220
0.0
230
1.0
 70
    12
 71
     3
 72
     8
 73
     4
 74
     0
 42
0.0000000375058467
 43
0.0000000001
 40
0.5600000000000734
 40
0.5600000000000734
 40
0.5600000000000734
 40
0.5600000000000734
 40
1.0
 40
1.0
 40
1.0
 40
1.0
 10
224.2779020676626
 20
645.4888987897006
 30
0.0
 41
0.8556622217688362
 10
224.3100016672169
 20
645.4679476977605
 30
0.0
 41
0.8659720630710736
 10
224.3483249867838
 20
645.4576581198845
 30
0.0
 41
0.9140846558147948
 10
224.3876275276724
 20
645.4576581198845
 30
0.0
 41
1.0
  0
SPLINE
  5
16D
330
75
100
AcDbEntity
  8
$DDT_AUDIT_GENERATED_(BB)
  6
Continuous
 62
     7
100
AcDbSpline
210
0.0
220
0.0
230
1.0
 70
    12
 71
     3
 72
     8
 73
     4
 74
     0
 42
0.0000000372994116
 43
0.0000000001
 40
0.0
 40
0.0
 40
0.0
 40
0.0
 40
0.5110395609510431
 40
0.5110395609510431
 40
0.5110395609510431
 40
0.5110395609510431
 10
222.5747476824171
 20
646.0711059916126
 30
0.0
 41
1.0
 10
222.6210991466275
 20
646.0711059916126
 30
0.0
 41
0.9002133187013565
 10
222.6654275916294
 20
646.0852235787371
 30
0.0
 41
0.8514215792023333
 10
222.699441670392
 20
646.1133494406705
 30
0.0
 41
0.8536247815029306
  0
ARC
  5
16E
330
75
100
AcDbEntity
  8
$DDT_AUDIT_GENERATED_(BB)
  6
Continuous
 62
     7
100
AcDbCircle
 10
222.8588123711
 20
645.9562714873
 30
0.0
 40
0.255802775960954
100
AcDbArc
 50
311.3969727539
 51
1.0742834826
  0
SPLINE
  5
16F
330
75
100
AcDbEntity
  8
$DDT_AUDIT_GENERATED_(BB)
  6
Continuous
 62
     7
100
AcDbSpline
210
0.0
220
0.0
230
1.0
 70
    12
 71
     3
 72
     8
 73
     4
 74
     0
 42
0.0000000375058467
 43
0.0000000001
 40
0.5600000000000399
 40
0.5600000000000399
 40
0.5600000000000399
 40
0.5600000000000399
 40
1.0
 40
1.0
 40
1.0
 40
1.0
 10
222.918242183721
 20
646.4090705972927
 30
0.0
 41
0.8556622217687482
 10
222.9503417832753
 20
646.3881195053528
 30
0.0
 41
0.8659720630709865
 10
222.9886651028423
 20
646.3778299274767
 30
0.0
 41
0.9140846558147372
 10
223.027967643731
 20
646.3778299274767
 30
0.0
 41
1.0
  0
ARC
  5
170
330
75
100
AcDbEntity
  8
$DDT_AUDIT_GENERATED_(BB)
  6
Continuous
 62
     7
100
AcDbCircle
 10
221.4991524872
 20
646.8764432949
 30
0.0
 40
0.2558027759609793
100
AcDbArc
 50
311.3969727539
 51
1.0742834826
  0
ARC
  5
171
330
75
100
AcDbEntity
  8
$DDT_AUDIT_GENERATED_(BB)
  6
Continuous
 62
     7
100
AcDbCircle
 10
229.6571117908
 20
646.2629954232
 30
0.0
 40
0.2558027759610079
100
AcDbArc
 50
311.3969727539
 51
1.0742834826
  0
ARC
  5
172
330
75
100
AcDbEntity
  8
$DDT_AUDIT_GENERATED_(BB)
  6
Continuous
 62
     7
100
AcDbCircle
 10
224.2184722551
 20
645.6495475514
 30
0.0
 40
0.255802775960971
100
AcDbArc
 50
311.3969727539
 51
1.0742834827
  0
ARC
  5
173
330
75
100
AcDbEntity
  8
$DDT_AUDIT_GENERATED_(BB)
  6
Continuous
 62
     7
100
AcDbCircle
 10
225.4632227229
 20
645.6495475514
 30
0.0
 40
0.2558027759609634
100
AcDbArc
 50
178.9257165173
 51
228.6030272461
  0
ARC
  5
174
330
75
100
AcDbEntity
  8
$DDT_AUDIT_GENERATED_(BB)
  6
Continuous
 62
     7
100
AcDbCircle
 10
224.103562839
 20
645.9562714873
 30
0.0
 40
0.255802775961239
100
AcDbArc
 50
178.9257165174
 51
228.6030272461
  0
ARC
  5
175
330
75
100
AcDbEntity
  8
$DDT_AUDIT_GENERATED_(BB)
  6
Continuous
 62
     7
100
AcDbCircle
 10
222.743902955
 20
646.8764432949
 30
0.0
 40
0.2558027759609441
100
AcDbArc
 50
178.9257165174
 51
228.6030272461
  0
SPLINE
  5
176
330
75
100
AcDbEntity
  8
$DDT_AUDIT_GENERATED_(BB)
  6
Continuous
 62
     7
100
AcDbSpline
210
0.0
220
0.0
230
1.0
 70
    12
 71
     3
 72
     8
 73
     4
 74
     0
 42
0.0000000372994116
 43
0.0000000001
 40
0.0
 40
0.0
 40
0.0
 40
0.0
 40
0.5110395609511632
 40
0.5110395609511632
 40
0.5110395609511632
 40
0.5110395609511632
 10
229.3730471021249
 20
646.3778299274767
 30
0.0
 41
1.0
 10
229.4193985663353
 20
646.3778299274767
 30
0.0
 41
0.9002133187013447
 10
229.4637270113372
 20
646.3919475146012
 30
0.0
 41
0.8514215792023279
 10
229.4977410900998
 20
646.4200733765346
 30
0.0
 41
0.8536247815029495
  0
ARC
  5
177
330
75
100
AcDbEntity
  8
$DDT_AUDIT_GENERATED_(BB)
  6
Continuous
 62
     7
100
AcDbCircle
 10
229.5422023747
 20
645.9562714873
 30
0.0
 40
0.2558027759609618
100
AcDbArc
 50
178.9257165174
 51
228.6030272461
  0
SPLINE
  5
178
330
75
100
AcDbEntity
  8
$DDT_AUDIT_GENERATED_(BB)
  6
Continuous
 62
     7
100
AcDbSpline
210
0.0
220
0.0
230
1.0
 70
    12
 71
     3
 72
     8
 73
     4
 74
     0
 42
0.0000000375058467
 43
0.0000000001
 40
0.5599999999999686
 40
0.5599999999999686
 40
0.5599999999999686
 40
0.5599999999999686
 40
1.0
 40
1.0
 40
1.0
 40
1.0
 10
229.7165416034288
 20
646.1023466614286
 30
0.0
 41
0.8556622217687306
 10
229.7486412029831
 20
646.0813955694887
 30
0.0
 41
0.8659720630709593
 10
229.7869645225501
 20
646.0711059916126
 30
0.0
 41
0.9140846558147158
 10
229.8262670634387
 20
646.0711059916126
 30
0.0
 41
1.0
  0
SPLINE
  5
179
330
75
100
AcDbEntity
  8
$DDT_AUDIT_GENERATED_(BB)
  6
Continuous
 62
     7
100
AcDbSpline
210
0.0
220
0.0
230
1.0
 70
    12
 71
     3
 72
     8
 73
     4
 74
     0
 42
0.0000000375058467
 43
0.0000000001
 40
0.559999999999936
 40
0.559999999999936
 40
0.559999999999936
 40
0.559999999999936
 40
1.0
 40
1.0
 40
1.0
 40
1.0
 10
225.6375619516041
 20
645.7956227255646
 30
0.0
 41
0.855662221768712
 10
225.6696615511584
 20
645.7746716336246
 30
0.0
 41
0.8659720630709371
 10
225.7079848707254
 20
645.7643820557486
 30
0.0
 41
0.9140846558146998
 10
225.7472874116141
 20
645.7643820557486
 30
0.0
 41
1.0
  0
SPLINE
  5
17A
330
75
100
AcDbEntity
  8
$DDT_AUDIT_GENERATED_(BB)
  6
Continuous
 62
     7
100
AcDbSpline
210
0.0
220
0.0
230
1.0
 70
    12
 71
     3
 72
     8
 73
     4
 74
     0
 42
0.0000000372994116
 43
0.0000000001
 40
0.0
 40
0.0
 40
0.0
 40
0.0
 40
0.5110395609512254
 40
0.5110395609512254
 40
0.5110395609512254
 40
0.5110395609512254
 10
223.9344075663586
 20
645.7643820557486
 30
0.0
 41
1.0
 10
223.980759030569
 20
645.7643820557486
 30
0.0
 41
0.9002133187013214
 10
224.0250874755709
 20
645.778499642873
 30
0.0
 41
0.8514215792022993
 10
224.0591015543335
 20
645.8066255048064
 30
0.0
 41
0.8536247815029339
  0
SPLINE
  5
17B
330
75
100
AcDbEntity
  8
$DDT_AUDIT_GENERATED_(BB)
  6
Continuous
 62
     7
100
AcDbSpline
210
0.0
220
0.0
230
1.0
 70
    12
 71
     3
 72
     8
 73
     4
 74
     0
 42
0.0000000375058467
 43
0.0000000001
 40
0.5599999999999427
 40
0.5599999999999427
 40
0.5599999999999427
 40
0.5599999999999427
 40
1.0
 40
1.0
 40
1.0
 40
1.0
 10
224.2779020676626
 20
646.1023466614287
 30
0.0
 41
0.8556622217687924
 10
224.3100016672169
 20
646.0813955694888
 30
0.0
 41
0.8659720630710126
 10
224.3483249867838
 20
646.0711059916126
 30
0.0
 41
0.9140846558147485
 10
224.3876275276725
 20
646.0711059916126
 30
0.0
 41
1.0
  0
SPLINE
  5
17C
330
75
100
AcDbEntity
  8
$DDT_AUDIT_GENERATED_(BB)
  6
Continuous
 62
     7
100
AcDbSpline
210
0.0
220
0.0
230
1.0
 70
    12
 71
     3
 72
     8
 73
     4
 74
     0
 42
0.0000000372994116
 43
0.0000000001
 40
0.0
 40
0.0
 40
0.0
 40
0.0
 40
0.5110395609510533
 40
0.5110395609510533
 40
0.5110395609510533
 40
0.5110395609510533
 10
222.5747476824171
 20
646.6845538633407
 30
0.0
 41
1.0
 10
222.6210991466275
 20
646.6845538633407
 30
0.0
 41
0.9002133187013555
 10
222.6654275916294
 20
646.6986714504652
 30
0.0
 41
0.8514215792023329
 10
222.699441670392
 20
646.7267973123987
 30
0.0
 41
0.8536247815029323
  0
ARC
  5
17D
330
75
100
AcDbEntity
  8
$DDT_AUDIT_GENERATED_(BB)
  6
Continuous
 62
     7
100
AcDbCircle
 10
222.8588123711
 20
646.569719359
 30
0.0
 40
0.2558027759609604
100
AcDbArc
 50
311.3969727539
 51
1.0742834826
  0
SPLINE
  5
17E
330
75
100
AcDbEntity
  8
$DDT_AUDIT_GENERATED_(BB)
  6
Continuous
 62
     7
100
AcDbSpline
210
0.0
220
0.0
230
1.0
 70
    12
 71
     3
 72
     8
 73
     4
 74
     0
 42
0.0000000375058467
 43
0.0000000001
 40
0.559999999999884
 40
0.559999999999884
 40
0.559999999999884
 40
0.559999999999884
 40
1.0
 40
1.0
 40
1.0
 40
1.0
 10
222.9182421837209
 20
647.0225184690208
 30
0.0
 41
0.8556622217687372
 10
222.9503417832753
 20
647.0015673770808
 30
0.0
 41
0.8659720630709524
 10
222.9886651028423
 20
646.9912777992048
 30
0.0
 41
0.9140846558147068
 10
223.0279676437309
 20
646.9912777992048
 30
0.0
 41
1.0
  0
ARC
  5
17F
330
75
100
AcDbEntity
  8
$DDT_AUDIT_GENERATED_(BB)
  6
Continuous
 62
     7
100
AcDbCircle
 10
228.2974519069
 20
645.9562714873
 30
0.0
 40
0.2558027759609269
100
AcDbArc
 50
311.3969727539
 51
1.0742834826
  0
ARC
  5
180
330
75
100
AcDbEntity
  8
$DDT_AUDIT_GENERATED_(BB)
  6
Continuous
 62
     7
100
AcDbCircle
 10
225.578132139
 20
645.9562714873
 30
0.0
 40
0.2558027759609706
100
AcDbArc
 50
311.3969727539
 51
1.0742834826
  0
ARC
  5
181
330
75
100
AcDbEntity
  8
$DDT_AUDIT_GENERATED_(BB)
  6
Continuous
 62
     7
100
AcDbCircle
 10
226.8228826068
 20
645.9562714873
 30
0.0
 40
0.2558027759609691
100
AcDbArc
 50
178.9257165174
 51
228.6030272461
  0
ARC
  5
182
330
75
100
AcDbEntity
  8
$DDT_AUDIT_GENERATED_(BB)
  6
Continuous
 62
     7
100
AcDbCircle
 10
224.103562839
 20
646.569719359
 30
0.0
 40
0.2558027759611559
100
AcDbArc
 50
178.9257165174
 51
228.6030272461
  0
ARC
  5
183
330
75
100
AcDbEntity
  8
$DDT_AUDIT_GENERATED_(BB)
  6
Continuous
 62
     7
100
AcDbCircle
 10
229.5422023747
 20
646.569719359
 30
0.0
 40
0.2558027759609843
100
AcDbArc
 50
178.9257165174
 51
228.6030272461
  0
SPLINE
  5
184
330
75
100
AcDbEntity
  8
$DDT_AUDIT_GENERATED_(BB)
  6
Continuous
 62
     7
100
AcDbSpline
210
0.0
220
0.0
230
1.0
 70
    12
 71
     3
 72
     8
 73
     4
 74
     0
 42
0.0000000375058467
 43
0.0000000001
 40
0.5600000000000174
 40
0.5600000000000174
 40
0.5600000000000174
 40
0.5600000000000174
 40
1.0
 40
1.0
 40
1.0
 40
1.0
 10
229.7165416034288
 20
646.7157945331568
 30
0.0
 41
0.8556622217687325
 10
229.7486412029832
 20
646.6948434412168
 30
0.0
 41
0.8659720630709686
 10
229.7869645225502
 20
646.6845538633407
 30
0.0
 41
0.9140846558147244
 10
229.8262670634388
 20
646.6845538633407
 30
0.0
 41
1.0
  0
SPLINE
  5
185
330
75
100
AcDbEntity
  8
$DDT_AUDIT_GENERATED_(BB)
  6
Continuous
 62
     7
100
AcDbSpline
210
0.0
220
0.0
230
1.0
 70
    12
 71
     3
 72
     8
 73
     4
 74
     0
 42
0.0000000372994116
 43
0.0000000001
 40
0.0
 40
0.0
 40
0.0
 40
0.0
 40
0.5110395609510552
 40
0.5110395609510552
 40
0.5110395609510552
 40
0.5110395609510552
 10
228.0133872181833
 20
646.0711059916126
 30
0.0
 41
1.0
 10
228.0597386823937
 20
646.0711059916126
 30
0.0
 41
0.9002133187013546
 10
228.1040671273956
 20
646.0852235787371
 30
0.0
 41
0.8514215792023317
 10
228.1380812061582
 20
646.1133494406705
 30
0.0
 41
0.8536247815029315
  0
SPLINE
  5
186
330
75
100
AcDbEntity
  8
$DDT_AUDIT_GENERATED_(BB)
  6
Continuous
 62
     7
100
AcDbSpline
210
0.0
220
0.0
230
1.0
 70
    12
 71
     3
 72
     8
 73
     4
 74
     0
 42
0.0000000375058467
 43
0.0000000001
 40
0.5599999999999038
 40
0.5599999999999038
 40
0.5599999999999038
 40
0.5599999999999038
 40
1.0
 40
1.0
 40
1.0
 40
1.0
 10
226.9972218355456
 20
646.1023466614287
 30
0.0
 41
0.8556622217687231
 10
227.0293214351
 20
646.0813955694887
 30
0.0
 41
0.8659720630709423
 10
227.067644754667
 20
646.0711059916126
 30
0.0
 41
0.9140846558147013
 10
227.1069472955556
 20
646.0711059916126
 30
0.0
 41
1.0
  0
SPLINE
  5
187
330
75
100
AcDbEntity
  8
$DDT_AUDIT_GENERATED_(BB)
  6
Continuous
 62
     7
100
AcDbSpline
210
0.0
220
0.0
230
1.0
 70
    12
 71
     3
 72
     8
 73
     4
 74
     0
 42
0.0000000372994116
 43
0.0000000001
 40
0.0
 40
0.0
 40
0.0
 40
0.0
 40
0.5110395609510793
 40
0.5110395609510793
 40
0.5110395609510793
 40
0.5110395609510793
 10
225.2940674503002
 20
646.0711059916126
 30
0.0
 41
1.0
 10
225.3404189145106
 20
646.0711059916126
 30
0.0
 41
0.9002133187013504
 10
225.3847473595125
 20
646.0852235787371
 30
0.0
 41
0.8514215792023279
 10
225.4187614382751
 20
646.1133494406705
 30
0.0
 41
0.8536247815029326
  0
SPLINE
  5
188
330
75
100
AcDbEntity
  8
$DDT_AUDIT_GENERATED_(BB)
  6
Continuous
 62
     7
100
AcDbSpline
210
0.0
220
0.0
230
1.0
 70
    12
 71
     3
 72
     8
 73
     4
 74
     0
 42
0.0000000372994116
 43
0.0000000001
 40
0.0
 40
0.0
 40
0.0
 40
0.0
 40
0.511039560951139
 40
0.511039560951139
 40
0.511039560951139
 40
0.511039560951139
 10
223.9344075663586
 20
646.3778299274767
 30
0.0
 41
1.0
 10
223.9807590305691
 20
646.3778299274767
 30
0.0
 41
0.9002133187013381
 10
224.0250874755709
 20
646.3919475146012
 30
0.0
 41
0.8514215792023158
 10
224.0591015543335
 20
646.4200733765347
 30
0.0
 41
0.8536247815029326
  0
ARC
  5
189
330
75
100
AcDbEntity
  8
$DDT_AUDIT_GENERATED_(BB)
  6
Continuous
 62
     7
100
AcDbCircle
 10
224.2184722551
 20
646.2629954232
 30
0.0
 40
0.2558027759610005
100
AcDbArc
 50
311.3969727539
 51
1.0742834826
  0
SPLINE
  5
18A
330
75
100
AcDbEntity
  8
$DDT_AUDIT_GENERATED_(BB)
  6
Continuous
 62
     7
100
AcDbSpline
210
0.0
220
0.0
230
1.0
 70
    12
 71
     3
 72
     8
 73
     4
 74
     0
 42
0.0000000375058467
 43
0.0000000001
 40
0.5600000000001311
 40
0.5600000000001311
 40
0.5600000000001311
 40
0.5600000000001311
 40
1.0
 40
1.0
 40
1.0
 40
1.0
 10
224.2779020676626
 20
646.7157945331568
 30
0.0
 41
0.8556622217687738
 10
224.3100016672169
 20
646.6948434412168
 30
0.0
 41
0.8659720630710244
 10
224.3483249867839
 20
646.6845538633407
 30
0.0
 41
0.9140846558147664
 10
224.3876275276725
 20
646.6845538633407
 30
0.0
 41
1.0
  0
ARC
  5
18B
330
75
100
AcDbEntity
  8
$DDT_AUDIT_GENERATED_(BB)
  6
Continuous
 62
     7
100
AcDbCircle
 10
222.8588123711
 20
647.1831672308
 30
0.0
 40
0.2558027759610078
100
AcDbArc
 50
311.3969727539
 51
1.0742834826
  0
ARC
  5
18C
330
75
100
AcDbEntity
  8
$DDT_AUDIT_GENERATED_(BB)
  6
Continuous
 62
     7
100
AcDbCircle
 10
228.2974519069
 20
646.569719359
 30
0.0
 40
0.2558027759609048
100
AcDbArc
 50
311.3969727539
 51
1.0742834826
  0
ARC
  5
18D
330
75
100
AcDbEntity
  8
$DDT_AUDIT_GENERATED_(BB)
  6
Continuous
 62
     7
100
AcDbCircle
 10
226.937792023
 20
646.2629954232
 30
0.0
 40
0.2558027759609927
100
AcDbArc
 50
311.3969727539
 51
1.0742834826
  0
ARC
  5
18E
330
75
100
AcDbEntity
  8
$DDT_AUDIT_GENERATED_(BB)
  6
Continuous
 62
     7
100
AcDbCircle
 10
228.1825424908
 20
646.2629954232
 30
0.0
 40
0.2558027759609926
100
AcDbArc
 50
178.9257165174
 51
228.6030272461
  0
ARC
  5
18F
330
75
100
AcDbEntity
  8
$DDT_AUDIT_GENERATED_(BB)
  6
Continuous
 62
     7
100
AcDbCircle
 10
225.4632227229
 20
646.2629954232
 30
0.0
 40
0.25580277596105
100
AcDbArc
 50
178.9257165174
 51
228.6030272461
  0
ARC
  5
190
330
75
100
AcDbEntity
  8
$DDT_AUDIT_GENERATED_(BB)
  6
Continuous
 62
     7
100
AcDbCircle
 10
224.103562839
 20
647.1831672308
 30
0.0
 40
0.2558027759610819
100
AcDbArc
 50
178.9257165174
 51
228.6030272461
  0
SPLINE
  5
191
330
75
100
AcDbEntity
  8
$DDT_AUDIT_GENERATED_(BB)
  6
Continuous
 62
     7
100
AcDbSpline
210
0.0
220
0.0
230
1.0
 70
    12
 71
     3
 72
     8
 73
     4
 74
     0
 42
0.0000000372994116
 43
0.0000000001
 40
0.0
 40
0.0
 40
0.0
 40
0.0
 40
0.5110395609511069
 40
0.5110395609511069
 40
0.5110395609511069
 40
0.5110395609511069
 10
228.0133872181833
 20
646.6845538633407
 30
0.0
 41
1.0
 10
228.0597386823938
 20
646.6845538633407
 30
0.0
 41
0.9002133187013439
 10
228.1040671273956
 20
646.6986714504652
 30
0.0
 41
0.8514215792023211
 10
228.1380812061583
 20
646.7267973123987
 30
0.0
 41
0.8536247815029315
  0
SPLINE
  5
192
330
75
100
AcDbEntity
  8
$DDT_AUDIT_GENERATED_(BB)
  6
Continuous
 62
     7
100
AcDbSpline
210
0.0
220
0.0
230
1.0
 70
    12
 71
     3
 72
     8
 73
     4
 74
     0
 42
0.0000000375058467
 43
0.0000000001
 40
0.559999999999954
 40
0.559999999999954
 40
0.559999999999954
 40
0.559999999999954
 40
1.0
 40
1.0
 40
1.0
 40
1.0
 10
228.3568817194872
 20
646.4090705972927
 30
0.0
 41
0.8556622217687295
 10
228.3889813190416
 20
646.3881195053527
 30
0.0
 41
0.8659720630709561
 10
228.4273046386085
 20
646.3778299274767
 30
0.0
 41
0.9140846558147129
 10
228.4666071794972
 20
646.3778299274767
 30
0.0
 41
1.0
  0
SPLINE
  5
193
330
75
100
AcDbEntity
  8
$DDT_AUDIT_GENERATED_(BB)
  6
Continuous
 62
     7
100
AcDbSpline
210
0.0
220
0.0
230
1.0
 70
    12
 71
     3
 72
     8
 73
     4
 74
     0
 42
0.0000000372994116
 43
0.0000000001
 40
0.0
 40
0.0
 40
0.0
 40
0.0
 40
0.5110395609511083
 40
0.5110395609511083
 40
0.5110395609511083
 40
0.5110395609511083
 10
226.6537273342418
 20
646.3778299274767
 30
0.0
 41
1.0
 10
226.7000787984522
 20
646.3778299274767
 30
0.0
 41
0.9002133187013545
 10
226.7444072434541
 20
646.3919475146012
 30
0.0
 41
0.8514215792023369
 10
226.7784213222166
 20
646.4200733765347
 30
0.0
 41
0.8536247815029472
  0
SPLINE
  5
194
330
75
100
AcDbEntity
  8
$DDT_AUDIT_GENERATED_(BB)
  6
Continuous
 62
     7
100
AcDbSpline
210
0.0
220
0.0
230
1.0
 70
    12
 71
     3
 72
     8
 73
     4
 74
     0
 42
0.0000000375058467
 43
0.0000000001
 40
0.5600000000000763
 40
0.5600000000000763
 40
0.5600000000000763
 40
0.5600000000000763
 40
1.0
 40
1.0
 40
1.0
 40
1.0
 10
225.6375619516041
 20
646.4090705972927
 30
0.0
 41
0.8556622217687233
 10
225.6696615511584
 20
646.3881195053527
 30
0.0
 41
0.8659720630709691
 10
225.7079848707254
 20
646.3778299274767
 30
0.0
 41
0.914084655814728
 10
225.7472874116141
 20
646.3778299274767
 30
0.0
 41
1.0
  0
SPLINE
  5
195
330
75
100
AcDbEntity
  8
$DDT_AUDIT_GENERATED_(BB)
  6
Continuous
 62
     7
100
AcDbSpline
210
0.0
220
0.0
230
1.0
 70
    12
 71
     3
 72
     8
 73
     4
 74
     0
 42
0.0000000372994116
 43
0.0000000001
 40
0.0
 40
0.0
 40
0.0
 40
0.0
 40
0.5110395609510944
 40
0.5110395609510944
 40
0.5110395609510944
 40
0.5110395609510944
 10
223.9344075663586
 20
646.9912777992048
 30
0.0
 41
1.0
 10
223.9807590305691
 20
646.9912777992048
 30
0.0
 41
0.9002133187013469
 10
224.0250874755709
 20
647.0053953863293
 30
0.0
 41
0.8514215792023243
 10
224.0591015543335
 20
647.0335212482628
 30
0.0
 41
0.8536247815029321
  0
ARC
  5
196
330
75
100
AcDbEntity
  8
$DDT_AUDIT_GENERATED_(BB)
  6
Continuous
 62
     7
100
AcDbCircle
 10
224.2184722551
 20
646.8764432949
 30
0.0
 40
0.2558027759609675
100
AcDbArc
 50
311.3969727539
 51
1.0742834826
  0
ARC
  5
197
330
75
100
AcDbEntity
  8
$DDT_AUDIT_GENERATED_(BB)
  6
Continuous
 62
     7
100
AcDbCircle
 10
225.578132139
 20
646.569719359
 30
0.0
 40
0.2558027759609625
100
AcDbArc
 50
311.3969727539
 51
1.0742834826
  0
ARC
  5
198
330
75
100
AcDbEntity
  8
$DDT_AUDIT_GENERATED_(BB)
  6
Continuous
 62
     7
100
AcDbCircle
 10
226.8228826068
 20
646.569719359
 30
0.0
 40
0.2558027759609604
100
AcDbArc
 50
178.9257165174
 51
228.6030272461
  0
ARC
  5
199
330
75
100
AcDbEntity
  8
$DDT_AUDIT_GENERATED_(BB)
  6
Continuous
 62
     7
100
AcDbCircle
 10
225.4632227229
 20
646.8764432949
 30
0.0
 40
0.2558027759609695
100
AcDbArc
 50
178.9257165174
 51
228.6030272461
  0
ARC
  5
19A
330
75
100
AcDbEntity
  8
$DDT_AUDIT_GENERATED_(BB)
  6
Continuous
 62
     7
100
AcDbCircle
 10
228.1825424908
 20
646.8764432949
 30
0.0
 40
0.2558027759609566
100
AcDbArc
 50
178.9257165174
 51
228.6030272461
  0
SPLINE
  5
19B
330
75
100
AcDbEntity
  8
$DDT_AUDIT_GENERATED_(BB)
  6
Continuous
 62
     7
100
AcDbSpline
210
0.0
220
0.0
230
1.0
 70
    12
 71
     3
 72
     8
 73
     4
 74
     0
 42
0.0000000375058467
 43
0.0000000001
 40
0.5599999999998999
 40
0.5599999999998999
 40
0.5599999999998999
 40
0.5599999999998999
 40
1.0
 40
1.0
 40
1.0
 40
1.0
 10
228.3568817194872
 20
647.0225184690208
 30
0.0
 41
0.8556622217687258
 10
228.3889813190416
 20
647.001567377081
 30
0.0
 41
0.8659720630709442
 10
228.4273046386085
 20
646.9912777992048
 30
0.0
 41
0.9140846558147023
 10
228.4666071794972
 20
646.9912777992048
 30
0.0
 41
1.0
  0
SPLINE
  5
19C
330
75
100
AcDbEntity
  8
$DDT_AUDIT_GENERATED_(BB)
  6
Continuous
 62
     7
100
AcDbSpline
210
0.0
220
0.0
230
1.0
 70
    12
 71
     3
 72
     8
 73
     4
 74
     0
 42
0.0000000375058467
 43
0.0000000001
 40
0.5600000000000314
 40
0.5600000000000314
 40
0.5600000000000314
 40
0.5600000000000314
 40
1.0
 40
1.0
 40
1.0
 40
1.0
 10
226.9972218355457
 20
646.7157945331568
 30
0.0
 41
0.8556622217687335
 10
227.0293214351
 20
646.6948434412168
 30
0.0
 41
0.8659720630709716
 10
227.067644754667
 20
646.6845538633407
 30
0.0
 41
0.9140846558147271
 10
227.1069472955556
 20
646.6845538633407
 30
0.0
 41
1.0
  0
SPLINE
  5
19D
330
75
100
AcDbEntity
  8
$DDT_AUDIT_GENERATED_(BB)
  6
Continuous
 62
     7
100
AcDbSpline
210
0.0
220
0.0
230
1.0
 70
    12
 71
     3
 72
     8
 73
     4
 74
     0
 42
0.0000000372994116
 43
0.0000000001
 40
0.0
 40
0.0
 40
0.0
 40
0.0
 40
0.5110395609510534
 40
0.5110395609510534
 40
0.5110395609510534
 40
0.5110395609510534
 10
225.2940674503002
 20
646.6845538633407
 30
0.0
 41
1.0
 10
225.3404189145106
 20
646.6845538633407
 30
0.0
 41
0.9002133187013549
 10
225.3847473595125
 20
646.6986714504652
 30
0.0
 41
0.8514215792023321
 10
225.4187614382751
 20
646.7267973123987
 30
0.0
 41
0.8536247815029315
  0
SPLINE
  5
19E
330
75
100
AcDbEntity
  8
$DDT_AUDIT_GENERATED_(BB)
  6
Continuous
 62
     7
100
AcDbSpline
210
0.0
220
0.0
230
1.0
 70
    12
 71
     3
 72
     8
 73
     4
 74
     0
 42
0.0000000375058467
 43
0.0000000001
 40
0.5600000000001146
 40
0.5600000000001146
 40
0.5600000000001146
 40
0.5600000000001146
 40
1.0
 40
1.0
 40
1.0
 40
1.0
 10
225.6375619516041
 20
647.0225184690208
 30
0.0
 41
0.8556622217687253
 10
225.6696615511585
 20
647.0015673770808
 30
0.0
 41
0.8659720630709768
 10
225.7079848707254
 20
646.9912777992048
 30
0.0
 41
0.9140846558147351
 10
225.7472874116141
 20
646.9912777992048
 30
0.0
 41
1.0
  0
ARC
  5
19F
330
75
100
AcDbEntity
  8
$DDT_AUDIT_GENERATED_(BB)
  6
Continuous
 62
     7
100
AcDbCircle
 10
226.937792023
 20
646.8764432949
 30
0.0
 40
0.2558027759609717
100
AcDbArc
 50
311.3969727539
 51
1.0742834826
  0
SPLINE
  5
1A0
330
75
100
AcDbEntity
  8
$DDT_AUDIT_GENERATED_(BB)
  6
Continuous
 62
     7
100
AcDbSpline
210
0.0
220
0.0
230
1.0
 70
    12
 71
     3
 72
     8
 73
     4
 74
     0
 42
0.0000000372994116
 43
0.0000000001
 40
0.0
 40
0.0
 40
0.0
 40
0.0
 40
0.5110395609511275
 40
0.5110395609511275
 40
0.5110395609511275
 40
0.5110395609511275
 10
226.6537273342418
 20
646.9912777992048
 30
0.0
 41
1.0
 10
226.7000787984522
 20
646.9912777992048
 30
0.0
 41
0.9002133187013507
 10
226.7444072434541
 20
647.0053953863293
 30
0.0
 41
0.8514215792023332
 10
226.7784213222167
 20
647.0335212482628
 30
0.0
 41
0.8536247815029475
  0
ARC
  5
1A1
330
75
100
AcDbEntity
  8
$DDT_AUDIT_GENERATED_(BB)
  6
Continuous
 62
     7
100
AcDbCircle
 10
225.578132139
 20
647.1831672308
 30
0.0
 40
0.2558027759610039
100
AcDbArc
 50
311.3969727539
 51
1.0742834826
  0
ARC
  5
1A2
330
75
100
AcDbEntity
  8
$DDT_AUDIT_GENERATED_(BB)
  6
Continuous
 62
     7
100
AcDbCircle
 10
226.8228826068
 20
647.1831672308
 30
0.0
 40
0.2558027759610078
100
AcDbArc
 50
178.9257165174
 51
228.6030272461
  0
ELLIPSE
  5
1A3
330
75
100
AcDbEntity
  8
$DDT_AUDIT_GENERATED_(BB)
  6
Continuous
 62
     7
100
AcDbEllipse
 10
224.8408475281
 20
648.5252305159
 30
0.0
 11
11.3324999605252
 21
8.737816026282985E-9
 31
0.0
210
0.0
220
0.0
230
1.0
 40
0.3907311289
 41
-0.5268412312624591
 42
-0.4926472194026346
  0
ARC
  5
1A4
330
75
100
AcDbEntity
  8
$DDT_AUDIT_GENERATED_(BB)
  6
Continuous
 62
     7
100
AcDbCircle
 10
233.2274327108
 20
649.0297714804
 30
0.0
 40
3.050944394751185
100
AcDbArc
 50
301.5922044271
 51
310.6946190902
  0
ELLIPSE
  5
1A5
330
75
100
AcDbEntity
  8
$DDT_AUDIT_GENERATED_(BB)
  6
Continuous
 62
     7
100
AcDbEllipse
 10
224.840847489
 20
648.2490790683
 30
0.0
 11
-10.89999999999951
 21
1.387778780781446E-13
 31
0.0
210
0.0
220
0.0
230
1.0
 40
0.3907311285
 41
0.3601772721226829
 42
0.5442717785983183
  0
LINE
  5
1A6
330
75
100
AcDbEntity
  8
$DDT_AUDIT_GENERATED_(BB)
  6
Continuous
 62
     7
100
AcDbLine
 10
215.0503675748
 20
649.132252697
 30
0.0
 11
214.2202137828
 21
649.2071387029
 31
0.0
  0
ELLIPSE
  5
1A7
330
75
100
AcDbEntity
  8
$DDT_AUDIT_GENERATED_(BB)
  6
Continuous
 62
     7
100
AcDbEllipse
 10
224.840847489
 20
648.2490790683
 30
0.0
 11
-9.850000000000094
 21
-1.110223024625157E-13
 31
0.0
210
0.0
220
0.0
230
1.0
 40
0.3907311285
 41
5.562725334663194
 42
6.036390693142059
  0
ELLIPSE
  5
1A8
330
75
100
AcDbEntity
  8
$DDT_AUDIT_GENERATED_(BB)
  6
Continuous
 62
     7
100
AcDbEllipse
 10
224.840847489
 20
648.2490790683
 30
0.0
 11
-10.89999999999857
 21
1.110223024625157E-13
 31
0.0
210
0.0
220
0.0
230
1.0
 40
0.3907311285
 41
-0.2984798399093673
 42
-0.2268928027592727
  0
LINE
  5
1A9
330
75
100
AcDbEntity
  8
$DDT_AUDIT_GENERATED_(BB)
  6
Continuous
 62
     7
100
AcDbLine
 10
214.2202137828
 20
649.2071387029
 30
0.0
 11
214.2202137828
 21
649.3621681425
 31
0.0
  0
ELLIPSE
  5
1AA
330
75
100
AcDbEntity
  8
$DDT_AUDIT_GENERATED_(BB)
  6
Continuous
 62
     7
100
AcDbEllipse
 10
224.840847489
 20
648.2490790683
 30
0.0
 11
9.850000000001087
 21
1.110223024625157E-13
 31
0.0
210
0.0
220
0.0
230
1.0
 40
0.3907311285
 41
0.2467946140375058
 42
0.7204599725163358
  0
LINE
  5
1AB
330
75
100
AcDbEntity
  8
$DDT_AUDIT_GENERATED_(BB)
  6
Continuous
 62
     7
100
AcDbLine
 10
235.4614811951
 20
649.2071387029
 30
0.0
 11
234.6313274032
 21
649.132252697
 31
0.0
  0
ELLIPSE
  5
1AC
330
75
100
AcDbEntity
  8
$DDT_AUDIT_GENERATED_(BB)
  6
Continuous
 62
     7
100
AcDbEllipse
 10
224.840847489
 20
648.2490790683
 30
0.0
 11
10.90000000000023
 21
1.665334536937735E-13
 31
0.0
210
0.0
220
0.0
230
1.0
 40
0.3907311285
 41
0.2268928027592484
 42
0.2984798399093295
  0
LINE
  5
1AD
330
75
100
AcDbEntity
  8
$DDT_AUDIT_GENERATED_(BB)
  6
Continuous
 62
     7
100
AcDbLine
 10
235.4614811951
 20
649.3621681425
 30
0.0
 11
235.4614811951
 21
649.2071387029
 31
0.0
  0
ELLIPSE
  5
1AE
330
75
100
AcDbEntity
  8
$DDT_AUDIT_GENERATED_(BB)
  6
Continuous
 62
     7
100
AcDbEllipse
 10
224.840847489
 20
648.2490790683
 30
0.0
 11
10.90000000000016
 21
-1.387778780781446E-13
 31
0.0
210
0.0
220
0.0
230
1.0
 40
0.3907311285
 41
-0.5470189862747192
 42
-0.3601772721226464
  0
ELLIPSE
  5
1AF
330
75
100
AcDbEntity
  8
$DDT_AUDIT_GENERATED_(BB)
  6
Continuous
 62
     7
100
AcDbEllipse
 10
224.840847489
 20
648.5252305244
 30
0.0
 11
11.33249999997736
 21
3.136380044566067E-12
 31
0.0
210
0.0
220
0.0
230
1.0
 40
0.3907311285
 41
-0.4926472182931514
 42
-0.4166143622498737
  0
ELLIPSE
  5
1B0
330
75
100
AcDbEntity
  8
$DDT_AUDIT_GENERATED_(BB)
  6
Continuous
 62
     7
100
AcDbEllipse
 10
224.840847489
 20
648.5252305244
 30
0.0
 11
-11.33249999999766
 21
-3.885780586188048E-13
 31
0.0
210
0.0
220
0.0
230
1.0
 40
0.3907311285
 41
3.141592653589782
 42
3.182219479966928
  0
ELLIPSE
  5
1B1
330
75
100
AcDbEntity
  8
$DDT_AUDIT_GENERATED_(BB)
  6
Continuous
 62
     7
100
AcDbEllipse
 10
213.9504331696
 20
646.8866325948
 30
0.0
 11
0.1757878186445273
 21
0.09538680630044594
 31
0.0
210
0.0
220
0.0
230
0.9999999999999999
 40
0.9004876925
 41
2.687084904496047
 42
3.141592653589793
  0
ELLIPSE
  5
1B2
330
75
100
AcDbEntity
  8
$DDT_AUDIT_GENERATED_(BB)
  6
Continuous
 62
     7
100
AcDbEllipse
 10
213.9504331696
 20
646.8866325948
 30
0.0
 11
-0.01796851763028254
 21
0.1991911955237236
 31
0.0
210
0.0
220
0.0
230
0.9999999999999999
 40
0.2070685373
 41
2.730744250043789
 42
3.141592653589793
  0
ELLIPSE
  5
1B3
330
75
100
AcDbEntity
  8
$DDT_AUDIT_GENERATED_(BB)
  6
Continuous
 62
     7
100
AcDbEllipse
 10
224.840847489
 20
647.7888266416
 30
0.0
 11
11.33249999999775
 21
-3.885780586188048E-13
 31
0.0
210
0.0
220
0.0
230
1.0
 40
0.3907311285
 41
2.932666233952232
 42
3.350519073227368
  0
ELLIPSE
  5
1B4
330
75
100
AcDbEntity
  8
$DDT_AUDIT_GENERATED_(BB)
  6
Continuous
 62
     7
100
AcDbEllipse
 10
224.840847489
 20
647.7888266416
 30
0.0
 11
-11.33249999999805
 21
-2.775557561562891E-14
 31
0.0
210
0.0
220
0.0
230
1.0
 40
0.3907311285
 41
2.932666233952224
 42
3.350519073227324
  0
ELLIPSE
  5
1B5
330
75
100
AcDbEntity
  8
$DDT_AUDIT_GENERATED_(BB)
  6
Continuous
 62
     7
100
AcDbEllipse
 10
235.7312618084
 20
646.8866325948
 30
0.0
 11
-0.1757878186444475
 21
0.09538680630061247
 31
0.0
210
0.0
220
0.0
230
1.0
 40
0.9004876925
 41
3.141592653589793
 42
3.596100402684465
  0
ELLIPSE
  5
1B6
330
75
100
AcDbEntity
  8
$DDT_AUDIT_GENERATED_(BB)
  6
Continuous
 62
     7
100
AcDbEllipse
 10
224.840847489
 20
647.6047256709
 30
0.0
 11
9.649999999999569
 21
2.775557561562891E-14
 31
0.0
210
0.0
220
0.0
230
1.0
 40
0.3907311285
 41
1.293992165234106
 42
1.847600488355678
  0
ELLIPSE
  5
1B7
330
75
100
AcDbEntity
  8
$DDT_AUDIT_GENERATED_(BB)
  6
Continuous
 62
     7
100
AcDbEllipse
 10
224.840847489
 20
643.9227062571
 30
0.0
 11
8.750000000000002
 21
0.0
 31
0.0
210
0.0
220
0.0
230
1.0
 40
0.3907311285
 41
0.0
 42
6.283185307179586
  0
ELLIPSE
  5
1B8
330
75
100
AcDbEntity
  8
$DDT_AUDIT_GENERATED_(BB)
  6
Continuous
 62
     7
100
AcDbEllipse
 10
224.840847489
 20
643.9227062571
 30
0.0
 11
-9.325000000000005
 21
2.775557561562891E-14
 31
0.0
210
0.0
220
0.0
230
1.0
 40
0.3907311285
 41
0.0
 42
6.283185307179586
  0
LINE
  5
1B9
330
75
100
AcDbEntity
  8
$DDT_AUDIT_GENERATED_(BB)
  6
Continuous
 62
     7
100
AcDbLine
 10
234.165847489
 20
643.9227062571
 30
0.0
 11
234.165847489
 21
647.6047256709
 31
0.0
  0
LINE
  5
1BA
330
75
100
AcDbEntity
  8
$DDT_AUDIT_GENERATED_(BB)
  6
Continuous
 62
     7
100
AcDbLine
 10
215.515847489
 20
647.6047256709
 30
0.0
 11
215.515847489
 21
643.9227062571
 31
0.0
  0
LINE
  5
1BB
330
75
100
AcDbEntity
  8
$DDT_AUDIT_GENERATED_(BB)
  6
Continuous
 62
     7
100
AcDbLine
 10
218.5811928853
 20
645.1657002844
 30
0.0
 11
218.9949747458
 21
645.4457338479
 31
0.0
  0
LINE
  5
1BC
330
75
100
AcDbEntity
  8
$DDT_AUDIT_GENERATED_(BB)
  6
Continuous
 62
     7
100
AcDbLine
 10
217.4494317863
 20
645.7524577838
 30
0.0
 11
218.4957680306
 21
645.7524577838
 31
0.0
  0
LINE
  5
1BD
330
75
100
AcDbEntity
  8
$DDT_AUDIT_GENERATED_(BB)
  6
Continuous
 62
     7
100
AcDbLine
 10
218.4497812767
 20
645.7524577838
 30
0.0
 11
218.836892533
 21
645.4904739828
 31
0.0
  0
LINE
  5
1BE
330
75
100
AcDbEntity
  8
$DDT_AUDIT_GENERATED_(BB)
  6
Continuous
 62
     7
100
AcDbLine
 10
219.8084654287
 20
644.7693810756
 30
0.0
 11
220.3546346297
 21
645.139009912
 31
0.0
  0
LINE
  5
1BF
330
75
100
AcDbEntity
  8
$DDT_AUDIT_GENERATED_(BB)
  6
Continuous
 62
     7
100
AcDbLine
 10
218.9489879919
 20
645.4457338479
 30
0.0
 11
219.8554279145
 21
645.4457338479
 31
0.0
  0
LINE
  5
1C0
330
75
100
AcDbEntity
  8
$DDT_AUDIT_GENERATED_(BB)
  6
Continuous
 62
     7
100
AcDbLine
 10
218.6078634895
 20
645.7971979187
 30
0.0
 11
218.9949747458
 21
646.0591817196
 31
0.0
  0
LINE
  5
1C1
330
75
100
AcDbEntity
  8
$DDT_AUDIT_GENERATED_(BB)
  6
Continuous
 62
     7
100
AcDbLine
 10
219.8094411607
 20
645.4457338479
 30
0.0
 11
220.1965524169
 21
645.1837500469
 31
0.0
  0
LINE
  5
1C2
330
75
100
AcDbEntity
  8
$DDT_AUDIT_GENERATED_(BB)
  6
Continuous
 62
     7
100
AcDbLine
 10
218.5491155844
 20
646.2986795569
 30
0.0
 11
218.836892533
 21
646.1039218545
 31
0.0
  0
LINE
  5
1C3
330
75
100
AcDbEntity
  8
$DDT_AUDIT_GENERATED_(BB)
  6
Continuous
 62
     7
100
AcDbLine
 10
221.1765999665
 20
644.4683924987
 30
0.0
 11
221.7142945137
 21
644.8322859762
 31
0.0
  0
LINE
  5
1C4
330
75
100
AcDbEntity
  8
$DDT_AUDIT_GENERATED_(BB)
  6
Continuous
 62
     7
100
AcDbLine
 10
220.3086478758
 20
645.139009912
 30
0.0
 11
221.2150877985
 21
645.139009912
 31
0.0
  0
LINE
  5
1C5
330
75
100
AcDbEntity
  8
$DDT_AUDIT_GENERATED_(BB)
  6
Continuous
 62
     7
100
AcDbLine
 10
219.9675233735
 20
645.4904739828
 30
0.0
 11
220.3546346297
 21
645.7524577838
 31
0.0
  0
LINE
  5
1C6
330
75
100
AcDbEntity
  8
$DDT_AUDIT_GENERATED_(BB)
  6
Continuous
 62
     7
100
AcDbLine
 10
218.9489879919
 20
646.0591817196
 30
0.0
 11
219.8554279145
 21
646.0591817196
 31
0.0
  0
LINE
  5
1C7
330
75
100
AcDbEntity
  8
$DDT_AUDIT_GENERATED_(BB)
  6
Continuous
 62
     7
100
AcDbLine
 10
226.6077405804
 20
644.5255620403
 30
0.0
 11
226.9950713828
 21
644.263429658
 31
0.0
  0
LINE
  5
1C8
330
75
100
AcDbEntity
  8
$DDT_AUDIT_GENERATED_(BB)
  6
Continuous
 62
     7
100
AcDbLine
 10
225.2531650879
 20
644.1600344903
 30
0.0
 11
225.7932741655
 21
644.5255620403
 31
0.0
  0
LINE
  5
1C9
330
75
100
AcDbEntity
  8
$DDT_AUDIT_GENERATED_(BB)
  6
Continuous
 62
     7
100
AcDbLine
 10
223.8884208125
 20
644.5255620403
 30
0.0
 11
224.4285298901
 21
644.1600344903
 31
0.0
  0
LINE
  5
1CA
330
75
100
AcDbEntity
  8
$DDT_AUDIT_GENERATED_(BB)
  6
Continuous
 62
     7
100
AcDbLine
 10
222.6864712146
 20
644.2633265319
 30
0.0
 11
223.0739543976
 21
644.5255620403
 31
0.0
  0
LINE
  5
1CB
330
75
100
AcDbEntity
  8
$DDT_AUDIT_GENERATED_(BB)
  6
Continuous
 62
     7
100
AcDbLine
 10
221.1691010446
 20
645.139009912
 30
0.0
 11
221.5562123009
 21
644.8770261111
 31
0.0
  0
LINE
  5
1CC
330
75
100
AcDbEntity
  8
$DDT_AUDIT_GENERATED_(BB)
  6
Continuous
 62
     7
100
AcDbLine
 10
219.8094411607
 20
646.0591817196
 30
0.0
 11
220.1965524169
 21
645.7971979187
 31
0.0
  0
LINE
  5
1CD
330
75
100
AcDbEntity
  8
$DDT_AUDIT_GENERATED_(BB)
  6
Continuous
 62
     7
100
AcDbLine
 10
225.7472874116
 20
644.5255620403
 30
0.0
 11
226.6537273342
 21
644.5255620403
 31
0.0
  0
LINE
  5
1CE
330
75
100
AcDbEntity
  8
$DDT_AUDIT_GENERATED_(BB)
  6
Continuous
 62
     7
100
AcDbLine
 10
223.0279676437
 20
644.5255620403
 30
0.0
 11
223.9344075664
 21
644.5255620403
 31
0.0
  0
LINE
  5
1CF
330
75
100
AcDbEntity
  8
$DDT_AUDIT_GENERATED_(BB)
  6
Continuous
 62
     7
100
AcDbLine
 10
221.6683077598
 20
644.8322859762
 30
0.0
 11
222.5747476824
 21
644.8322859762
 31
0.0
  0
LINE
  5
1D0
330
75
100
AcDbEntity
  8
$DDT_AUDIT_GENERATED_(BB)
  6
Continuous
 62
     7
100
AcDbLine
 10
221.3271832574
 20
645.1837500469
 30
0.0
 11
221.7142945137
 21
645.4457338479
 31
0.0
  0
LINE
  5
1D1
330
75
100
AcDbEntity
  8
$DDT_AUDIT_GENERATED_(BB)
  6
Continuous
 62
     7
100
AcDbLine
 10
220.3086478758
 20
645.7524577838
 30
0.0
 11
221.2150877985
 21
645.7524577838
 31
0.0
  0
LINE
  5
1D2
330
75
100
AcDbEntity
  8
$DDT_AUDIT_GENERATED_(BB)
  6
Continuous
 62
     7
100
AcDbLine
 10
219.9675233735
 20
646.1039218545
 30
0.0
 11
220.3546346297
 21
646.3659056555
 31
0.0
  0
LINE
  5
1D3
330
75
100
AcDbEntity
  8
$DDT_AUDIT_GENERATED_(BB)
  6
Continuous
 62
     7
100
AcDbLine
 10
219.6417531863
 20
646.6726295914
 30
0.0
 11
219.8554279145
 21
646.6726295914
 31
0.0
  0
LINE
  5
1D4
330
75
100
AcDbEntity
  8
$DDT_AUDIT_GENERATED_(BB)
  6
Continuous
 62
     7
100
AcDbLine
 10
227.9674004643
 20
644.8322859762
 30
0.0
 11
228.5050571314
 21
644.4684181346
 31
0.0
  0
LINE
  5
1D5
330
75
100
AcDbEntity
  8
$DDT_AUDIT_GENERATED_(BB)
  6
Continuous
 62
     7
100
AcDbLine
 10
226.7658227932
 20
644.5703021752
 30
0.0
 11
227.1529340494
 21
644.8322859762
 31
0.0
  0
LINE
  5
1D6
330
75
100
AcDbEntity
  8
$DDT_AUDIT_GENERATED_(BB)
  6
Continuous
 62
     7
100
AcDbLine
 10
225.2480806964
 20
644.8322859762
 30
0.0
 11
225.6351919527
 21
644.5703021752
 31
0.0
  0
LINE
  5
1D7
330
75
100
AcDbEntity
  8
$DDT_AUDIT_GENERATED_(BB)
  6
Continuous
 62
     7
100
AcDbLine
 10
224.0465030253
 20
644.5703021752
 30
0.0
 11
224.4336142815
 21
644.8322859762
 31
0.0
  0
LINE
  5
1D8
330
75
100
AcDbEntity
  8
$DDT_AUDIT_GENERATED_(BB)
  6
Continuous
 62
     7
100
AcDbLine
 10
222.5287609286
 20
644.8322859762
 30
0.0
 11
222.9158721848
 21
644.5703021752
 31
0.0
  0
LINE
  5
1D9
330
75
100
AcDbEntity
  8
$DDT_AUDIT_GENERATED_(BB)
  6
Continuous
 62
     7
100
AcDbLine
 10
221.1691010446
 20
645.7524577838
 30
0.0
 11
221.5562123009
 21
645.4904739828
 31
0.0
  0
LINE
  5
1DA
330
75
100
AcDbEntity
  8
$DDT_AUDIT_GENERATED_(BB)
  6
Continuous
 62
     7
100
AcDbLine
 10
219.8094411607
 20
646.6726295914
 30
0.0
 11
220.1965524169
 21
646.4106457904
 31
0.0
  0
LINE
  5
1DB
330
75
100
AcDbEntity
  8
$DDT_AUDIT_GENERATED_(BB)
  6
Continuous
 62
     7
100
AcDbLine
 10
231.1859269474
 20
645.7524577838
 30
0.0
 11
232.2322631917
 21
645.7524577838
 31
0.0
  0
LINE
  5
1DC
330
75
100
AcDbEntity
  8
$DDT_AUDIT_GENERATED_(BB)
  6
Continuous
 62
     7
100
AcDbLine
 10
230.6867202322
 20
645.4457338479
 30
0.0
 11
231.1006561652
 21
645.1655960133
 31
0.0
  0
LINE
  5
1DD
330
75
100
AcDbEntity
  8
$DDT_AUDIT_GENERATED_(BB)
  6
Continuous
 62
     7
100
AcDbLine
 10
227.1069472956
 20
644.8322859762
 30
0.0
 11
228.0133872182
 21
644.8322859762
 31
0.0
  0
LINE
  5
1DE
330
75
100
AcDbEntity
  8
$DDT_AUDIT_GENERATED_(BB)
  6
Continuous
 62
     7
100
AcDbLine
 10
224.3876275277
 20
644.8322859762
 30
0.0
 11
225.2940674503
 21
644.8322859762
 31
0.0
  0
LINE
  5
1DF
330
75
100
AcDbEntity
  8
$DDT_AUDIT_GENERATED_(BB)
  6
Continuous
 62
     7
100
AcDbLine
 10
222.6868431413
 20
644.8770261111
 30
0.0
 11
223.0739543976
 21
645.139009912
 31
0.0
  0
LINE
  5
1E0
330
75
100
AcDbEntity
  8
$DDT_AUDIT_GENERATED_(BB)
  6
Continuous
 62
     7
100
AcDbLine
 10
221.6683077598
 20
645.4457338479
 30
0.0
 11
222.5747476824
 21
645.4457338479
 31
0.0
  0
LINE
  5
1E1
330
75
100
AcDbEntity
  8
$DDT_AUDIT_GENERATED_(BB)
  6
Continuous
 62
     7
100
AcDbLine
 10
221.3271832574
 20
645.7971979187
 30
0.0
 11
221.7142945137
 21
646.0591817196
 31
0.0
  0
LINE
  5
1E2
330
75
100
AcDbEntity
  8
$DDT_AUDIT_GENERATED_(BB)
  6
Continuous
 62
     7
100
AcDbLine
 10
220.3086478758
 20
646.3659056555
 30
0.0
 11
221.2150877985
 21
646.3659056555
 31
0.0
  0
LINE
  5
1E3
330
75
100
AcDbEntity
  8
$DDT_AUDIT_GENERATED_(BB)
  6
Continuous
 62
     7
100
AcDbLine
 10
219.9675233735
 20
646.7173697263
 30
0.0
 11
220.0746776412
 21
646.7898881093
 31
0.0
  0
LINE
  5
1E4
330
75
100
AcDbEntity
  8
$DDT_AUDIT_GENERATED_(BB)
  6
Continuous
 62
     7
100
AcDbLine
 10
230.844802445
 20
645.4904739828
 30
0.0
 11
231.2319137012
 21
645.7524577838
 31
0.0
  0
LINE
  5
1E5
330
75
100
AcDbEntity
  8
$DDT_AUDIT_GENERATED_(BB)
  6
Continuous
 62
     7
100
AcDbLine
 10
229.3270603483
 20
645.139009912
 30
0.0
 11
229.8732720542
 21
644.7693523096
 31
0.0
  0
LINE
  5
1E6
330
75
100
AcDbEntity
  8
$DDT_AUDIT_GENERATED_(BB)
  6
Continuous
 62
     7
100
AcDbLine
 10
228.1254826771
 20
644.8770261111
 30
0.0
 11
228.5125939334
 21
645.139009912
 31
0.0
  0
LINE
  5
1E7
330
75
100
AcDbEntity
  8
$DDT_AUDIT_GENERATED_(BB)
  6
Continuous
 62
     7
100
AcDbLine
 10
226.6077405804
 20
645.139009912
 30
0.0
 11
226.9948518366
 21
644.8770261111
 31
0.0
  0
LINE
  5
1E8
330
75
100
AcDbEntity
  8
$DDT_AUDIT_GENERATED_(BB)
  6
Continuous
 62
     7
100
AcDbLine
 10
225.4061629092
 20
644.8770261111
 30
0.0
 11
225.7932741655
 21
645.139009912
 31
0.0
  0
LINE
  5
1E9
330
75
100
AcDbEntity
  8
$DDT_AUDIT_GENERATED_(BB)
  6
Continuous
 62
     7
100
AcDbLine
 10
223.8884208125
 20
645.139009912
 30
0.0
 11
224.2755320688
 21
644.8770261111
 31
0.0
  0
LINE
  5
1EA
330
75
100
AcDbEntity
  8
$DDT_AUDIT_GENERATED_(BB)
  6
Continuous
 62
     7
100
AcDbLine
 10
222.5287609286
 20
645.4457338479
 30
0.0
 11
222.9158721848
 21
645.1837500469
 31
0.0
  0
LINE
  5
1EB
330
75
100
AcDbEntity
  8
$DDT_AUDIT_GENERATED_(BB)
  6
Continuous
 62
     7
100
AcDbLine
 10
221.1691010446
 20
646.3659056555
 30
0.0
 11
221.5562123009
 21
646.1039218545
 31
0.0
  0
LINE
  5
1EC
330
75
100
AcDbEntity
  8
$DDT_AUDIT_GENERATED_(BB)
  6
Continuous
 62
     7
100
AcDbLine
 10
230.6867202322
 20
646.0591817196
 30
0.0
 11
231.0738314885
 21
645.7971979187
 31
0.0
  0
LINE
  5
1ED
330
75
100
AcDbEntity
  8
$DDT_AUDIT_GENERATED_(BB)
  6
Continuous
 62
     7
100
AcDbLine
 10
229.8262670634
 20
645.4457338479
 30
0.0
 11
230.7327069861
 21
645.4457338479
 31
0.0
  0
LINE
  5
1EE
330
75
100
AcDbEntity
  8
$DDT_AUDIT_GENERATED_(BB)
  6
Continuous
 62
     7
100
AcDbLine
 10
228.4666071795
 20
645.139009912
 30
0.0
 11
229.3730471021
 21
645.139009912
 31
0.0
  0
LINE
  5
1EF
330
75
100
AcDbEntity
  8
$DDT_AUDIT_GENERATED_(BB)
  6
Continuous
 62
     7
100
AcDbLine
 10
227.1069472956
 20
645.4457338479
 30
0.0
 11
228.0133872182
 21
645.4457338479
 31
0.0
  0
LINE
  5
1F0
330
75
100
AcDbEntity
  8
$DDT_AUDIT_GENERATED_(BB)
  6
Continuous
 62
     7
100
AcDbLine
 10
225.7472874116
 20
645.139009912
 30
0.0
 11
226.6537273342
 21
645.139009912
 31
0.0
  0
LINE
  5
1F1
330
75
100
AcDbEntity
  8
$DDT_AUDIT_GENERATED_(BB)
  6
Continuous
 62
     7
100
AcDbLine
 10
223.0279676437
 20
645.139009912
 30
0.0
 11
223.9344075664
 21
645.139009912
 31
0.0
  0
LINE
  5
1F2
330
75
100
AcDbEntity
  8
$DDT_AUDIT_GENERATED_(BB)
  6
Continuous
 62
     7
100
AcDbLine
 10
222.6868431413
 20
645.4904739828
 30
0.0
 11
223.0739543976
 21
645.7524577838
 31
0.0
  0
LINE
  5
1F3
330
75
100
AcDbEntity
  8
$DDT_AUDIT_GENERATED_(BB)
  6
Continuous
 62
     7
100
AcDbLine
 10
221.6683077598
 20
646.0591817196
 30
0.0
 11
222.5747476824
 21
646.0591817196
 31
0.0
  0
LINE
  5
1F4
330
75
100
AcDbEntity
  8
$DDT_AUDIT_GENERATED_(BB)
  6
Continuous
 62
     7
100
AcDbLine
 10
221.3271832574
 20
646.4106457904
 30
0.0
 11
221.7142945137
 21
646.6726295914
 31
0.0
  0
LINE
  5
1F5
330
75
100
AcDbEntity
  8
$DDT_AUDIT_GENERATED_(BB)
  6
Continuous
 62
     7
100
AcDbLine
 10
220.9210430644
 20
646.9793535272
 30
0.0
 11
221.2150877985
 21
646.9793535272
 31
0.0
  0
LINE
  5
1F6
330
75
100
AcDbEntity
  8
$DDT_AUDIT_GENERATED_(BB)
  6
Continuous
 62
     7
100
AcDbLine
 10
230.844802445
 20
646.1039218545
 30
0.0
 11
231.1325793936
 21
646.2986795569
 31
0.0
  0
LINE
  5
1F7
330
75
100
AcDbEntity
  8
$DDT_AUDIT_GENERATED_(BB)
  6
Continuous
 62
     7
100
AcDbLine
 10
229.485142561
 20
645.1837500469
 30
0.0
 11
229.8722538173
 21
645.4457338479
 31
0.0
  0
LINE
  5
1F8
330
75
100
AcDbEntity
  8
$DDT_AUDIT_GENERATED_(BB)
  6
Continuous
 62
     7
100
AcDbLine
 10
227.9674004643
 20
645.4457338479
 30
0.0
 11
228.3545117206
 21
645.1837500469
 31
0.0
  0
LINE
  5
1F9
330
75
100
AcDbEntity
  8
$DDT_AUDIT_GENERATED_(BB)
  6
Continuous
 62
     7
100
AcDbLine
 10
226.7658227932
 20
645.1837500469
 30
0.0
 11
227.1529340494
 21
645.4457338479
 31
0.0
  0
LINE
  5
1FA
330
75
100
AcDbEntity
  8
$DDT_AUDIT_GENERATED_(BB)
  6
Continuous
 62
     7
100
AcDbLine
 10
225.2480806964
 20
645.4457338479
 30
0.0
 11
225.6351919527
 21
645.1837500469
 31
0.0
  0
LINE
  5
1FB
330
75
100
AcDbEntity
  8
$DDT_AUDIT_GENERATED_(BB)
  6
Continuous
 62
     7
100
AcDbLine
 10
224.0465030253
 20
645.1837500469
 30
0.0
 11
224.4336142815
 21
645.4457338479
 31
0.0
  0
LINE
  5
1FC
330
75
100
AcDbEntity
  8
$DDT_AUDIT_GENERATED_(BB)
  6
Continuous
 62
     7
100
AcDbLine
 10
222.5287609286
 20
646.0591817196
 30
0.0
 11
222.9158721848
 21
645.7971979187
 31
0.0
  0
LINE
  5
1FD
330
75
100
AcDbEntity
  8
$DDT_AUDIT_GENERATED_(BB)
  6
Continuous
 62
     7
100
AcDbLine
 10
221.1691010446
 20
646.9793535272
 30
0.0
 11
221.5562123009
 21
646.7173697263
 31
0.0
  0
LINE
  5
1FE
330
75
100
AcDbEntity
  8
$DDT_AUDIT_GENERATED_(BB)
  6
Continuous
 62
     7
100
AcDbLine
 10
229.8262670634
 20
646.0591817196
 30
0.0
 11
230.7327069861
 21
646.0591817196
 31
0.0
  0
LINE
  5
1FF
330
75
100
AcDbEntity
  8
$DDT_AUDIT_GENERATED_(BB)
  6
Continuous
 62
     7
100
AcDbLine
 10
229.3270603483
 20
645.7524577838
 30
0.0
 11
229.7141716045
 21
645.4904739828
 31
0.0
  0
LINE
  5
200
330
75
100
AcDbEntity
  8
$DDT_AUDIT_GENERATED_(BB)
  6
Continuous
 62
     7
100
AcDbLine
 10
224.3876275277
 20
645.4457338479
 30
0.0
 11
225.2940674503
 21
645.4457338479
 31
0.0
  0
LINE
  5
201
330
75
100
AcDbEntity
  8
$DDT_AUDIT_GENERATED_(BB)
  6
Continuous
 62
     7
100
AcDbLine
 10
223.0279676437
 20
645.7524577838
 30
0.0
 11
223.9344075664
 21
645.7524577838
 31
0.0
  0
LINE
  5
202
330
75
100
AcDbEntity
  8
$DDT_AUDIT_GENERATED_(BB)
  6
Continuous
 62
     7
100
AcDbLine
 10
222.6868431413
 20
646.1039218545
 30
0.0
 11
223.0739543976
 21
646.3659056555
 31
0.0
  0
LINE
  5
203
330
75
100
AcDbEntity
  8
$DDT_AUDIT_GENERATED_(BB)
  6
Continuous
 62
     7
100
AcDbLine
 10
221.6683077598
 20
646.6726295914
 30
0.0
 11
222.5747476824
 21
646.6726295914
 31
0.0
  0
LINE
  5
204
330
75
100
AcDbEntity
  8
$DDT_AUDIT_GENERATED_(BB)
  6
Continuous
 62
     7
100
AcDbLine
 10
221.3271832574
 20
647.0240936621
 30
0.0
 11
221.3858416952
 21
647.0637917082
 31
0.0
  0
LINE
  5
205
330
75
100
AcDbEntity
  8
$DDT_AUDIT_GENERATED_(BB)
  6
Continuous
 62
     7
100
AcDbLine
 10
229.485142561
 20
645.7971979187
 30
0.0
 11
229.8722538173
 21
646.0591817196
 31
0.0
  0
LINE
  5
206
330
75
100
AcDbEntity
  8
$DDT_AUDIT_GENERATED_(BB)
  6
Continuous
 62
     7
100
AcDbLine
 10
228.1254826771
 20
645.4904739828
 30
0.0
 11
228.5125939334
 21
645.7524577838
 31
0.0
  0
LINE
  5
207
330
75
100
AcDbEntity
  8
$DDT_AUDIT_GENERATED_(BB)
  6
Continuous
 62
     7
100
AcDbLine
 10
226.6077405804
 20
645.7524577838
 30
0.0
 11
226.9948518366
 21
645.4904739828
 31
0.0
  0
LINE
  5
208
330
75
100
AcDbEntity
  8
$DDT_AUDIT_GENERATED_(BB)
  6
Continuous
 62
     7
100
AcDbLine
 10
225.4061629092
 20
645.4904739828
 30
0.0
 11
225.7932741655
 21
645.7524577838
 31
0.0
  0
LINE
  5
209
330
75
100
AcDbEntity
  8
$DDT_AUDIT_GENERATED_(BB)
  6
Continuous
 62
     7
100
AcDbLine
 10
223.8884208125
 20
645.7524577838
 30
0.0
 11
224.2755320688
 21
645.4904739828
 31
0.0
  0
LINE
  5
20A
330
75
100
AcDbEntity
  8
$DDT_AUDIT_GENERATED_(BB)
  6
Continuous
 62
     7
100
AcDbLine
 10
222.5287609286
 20
646.6726295914
 30
0.0
 11
222.9158721848
 21
646.4106457904
 31
0.0
  0
LINE
  5
20B
330
75
100
AcDbEntity
  8
$DDT_AUDIT_GENERATED_(BB)
  6
Continuous
 62
     7
100
AcDbLine
 10
229.8262670634
 20
646.6726295914
 30
0.0
 11
230.0399417916
 21
646.6726295914
 31
0.0
  0
LINE
  5
20C
330
75
100
AcDbEntity
  8
$DDT_AUDIT_GENERATED_(BB)
  6
Continuous
 62
     7
100
AcDbLine
 10
229.3270603483
 20
646.3659056555
 30
0.0
 11
229.7141716045
 21
646.1039218545
 31
0.0
  0
LINE
  5
20D
330
75
100
AcDbEntity
  8
$DDT_AUDIT_GENERATED_(BB)
  6
Continuous
 62
     7
100
AcDbLine
 10
228.4666071795
 20
645.7524577838
 30
0.0
 11
229.3730471021
 21
645.7524577838
 31
0.0
  0
LINE
  5
20E
330
75
100
AcDbEntity
  8
$DDT_AUDIT_GENERATED_(BB)
  6
Continuous
 62
     7
100
AcDbLine
 10
225.7472874116
 20
645.7524577838
 30
0.0
 11
226.6537273342
 21
645.7524577838
 31
0.0
  0
LINE
  5
20F
330
75
100
AcDbEntity
  8
$DDT_AUDIT_GENERATED_(BB)
  6
Continuous
 62
     7
100
AcDbLine
 10
224.0465030253
 20
645.7971979187
 30
0.0
 11
224.4336142815
 21
646.0591817196
 31
0.0
  0
LINE
  5
210
330
75
100
AcDbEntity
  8
$DDT_AUDIT_GENERATED_(BB)
  6
Continuous
 62
     7
100
AcDbLine
 10
223.0279676437
 20
646.3659056555
 30
0.0
 11
223.9344075664
 21
646.3659056555
 31
0.0
  0
LINE
  5
211
330
75
100
AcDbEntity
  8
$DDT_AUDIT_GENERATED_(BB)
  6
Continuous
 62
     7
100
AcDbLine
 10
222.6868431413
 20
646.7173697263
 30
0.0
 11
223.0739543976
 21
646.9793535272
 31
0.0
  0
LINE
  5
212
330
75
100
AcDbEntity
  8
$DDT_AUDIT_GENERATED_(BB)
  6
Continuous
 62
     7
100
AcDbLine
 10
229.485142561
 20
646.4106457904
 30
0.0
 11
229.8722538173
 21
646.6726295914
 31
0.0
  0
LINE
  5
213
330
75
100
AcDbEntity
  8
$DDT_AUDIT_GENERATED_(BB)
  6
Continuous
 62
     7
100
AcDbLine
 10
225.2480806964
 20
646.0591817196
 30
0.0
 11
225.6351919527
 21
645.7971979187
 31
0.0
  0
LINE
  5
214
330
75
100
AcDbEntity
  8
$DDT_AUDIT_GENERATED_(BB)
  6
Continuous
 62
     7
100
AcDbLine
 10
223.8884208125
 20
646.3659056555
 30
0.0
 11
224.2755320688
 21
646.1039218545
 31
0.0
  0
LINE
  5
215
330
75
100
AcDbEntity
  8
$DDT_AUDIT_GENERATED_(BB)
  6
Continuous
 62
     7
100
AcDbLine
 10
222.6131776551
 20
647.2289470786
 30
0.0
 11
222.9158721848
 21
647.0240936621
 31
0.0
  0
LINE
  5
216
330
75
100
AcDbEntity
  8
$DDT_AUDIT_GENERATED_(BB)
  6
Continuous
 62
     7
100
AcDbLine
 10
229.6070173368
 20
646.7898881093
 30
0.0
 11
229.7141716045
 21
646.7173697263
 31
0.0
  0
LINE
  5
217
330
75
100
AcDbEntity
  8
$DDT_AUDIT_GENERATED_(BB)
  6
Continuous
 62
     7
100
AcDbLine
 10
228.4666071795
 20
646.3659056555
 30
0.0
 11
229.3730471021
 21
646.3659056555
 31
0.0
  0
LINE
  5
218
330
75
100
AcDbEntity
  8
$DDT_AUDIT_GENERATED_(BB)
  6
Continuous
 62
     7
100
AcDbLine
 10
224.3876275277
 20
646.0591817196
 30
0.0
 11
225.2940674503
 21
646.0591817196
 31
0.0
  0
LINE
  5
219
330
75
100
AcDbEntity
  8
$DDT_AUDIT_GENERATED_(BB)
  6
Continuous
 62
     7
100
AcDbLine
 10
224.0465030253
 20
646.4106457904
 30
0.0
 11
224.4336142815
 21
646.6726295914
 31
0.0
  0
LINE
  5
21A
330
75
100
AcDbEntity
  8
$DDT_AUDIT_GENERATED_(BB)
  6
Continuous
 62
     7
100
AcDbLine
 10
223.0279676437
 20
646.9793535272
 30
0.0
 11
223.9344075664
 21
646.9793535272
 31
0.0
  0
LINE
  5
21B
330
75
100
AcDbEntity
  8
$DDT_AUDIT_GENERATED_(BB)
  6
Continuous
 62
     7
100
AcDbLine
 10
228.1254826771
 20
646.1039218545
 30
0.0
 11
228.5125939334
 21
646.3659056555
 31
0.0
  0
LINE
  5
21C
330
75
100
AcDbEntity
  8
$DDT_AUDIT_GENERATED_(BB)
  6
Continuous
 62
     7
100
AcDbLine
 10
226.6077405804
 20
646.3659056555
 30
0.0
 11
226.9948518366
 21
646.1039218545
 31
0.0
  0
LINE
  5
21D
330
75
100
AcDbEntity
  8
$DDT_AUDIT_GENERATED_(BB)
  6
Continuous
 62
     7
100
AcDbLine
 10
225.4061629092
 20
646.1039218545
 30
0.0
 11
225.7932741655
 21
646.3659056555
 31
0.0
  0
LINE
  5
21E
330
75
100
AcDbEntity
  8
$DDT_AUDIT_GENERATED_(BB)
  6
Continuous
 62
     7
100
AcDbLine
 10
223.8884208125
 20
646.9793535272
 30
0.0
 11
224.2755320688
 21
646.7173697263
 31
0.0
  0
LINE
  5
21F
330
75
100
AcDbEntity
  8
$DDT_AUDIT_GENERATED_(BB)
  6
Continuous
 62
     7
100
AcDbLine
 10
224.2703437711
 20
647.3343288623
 30
0.0
 11
224.2755320688
 21
647.330817598
 31
0.0
  0
LINE
  5
220
330
75
100
AcDbEntity
  8
$DDT_AUDIT_GENERATED_(BB)
  6
Continuous
 62
     7
100
AcDbLine
 10
228.4666071795
 20
646.9793535272
 30
0.0
 11
228.7606519136
 21
646.9793535272
 31
0.0
  0
LINE
  5
221
330
75
100
AcDbEntity
  8
$DDT_AUDIT_GENERATED_(BB)
  6
Continuous
 62
     7
100
AcDbLine
 10
227.9674004643
 20
646.6726295914
 30
0.0
 11
228.3545117206
 21
646.4106457904
 31
0.0
  0
LINE
  5
222
330
75
100
AcDbEntity
  8
$DDT_AUDIT_GENERATED_(BB)
  6
Continuous
 62
     7
100
AcDbLine
 10
225.7472874116
 20
646.3659056555
 30
0.0
 11
226.6537273342
 21
646.3659056555
 31
0.0
  0
LINE
  5
223
330
75
100
AcDbEntity
  8
$DDT_AUDIT_GENERATED_(BB)
  6
Continuous
 62
     7
100
AcDbLine
 10
224.3876275277
 20
646.6726295914
 30
0.0
 11
225.2940674503
 21
646.6726295914
 31
0.0
  0
LINE
  5
224
330
75
100
AcDbEntity
  8
$DDT_AUDIT_GENERATED_(BB)
  6
Continuous
 62
     7
100
AcDbLine
 10
224.0465030253
 20
647.0240936621
 30
0.0
 11
224.4336142815
 21
647.2860774631
 31
0.0
  0
LINE
  5
225
330
75
100
AcDbEntity
  8
$DDT_AUDIT_GENERATED_(BB)
  6
Continuous
 62
     7
100
AcDbLine
 10
228.1254826771
 20
646.7173697263
 30
0.0
 11
228.5125939334
 21
646.9793535272
 31
0.0
  0
LINE
  5
226
330
75
100
AcDbEntity
  8
$DDT_AUDIT_GENERATED_(BB)
  6
Continuous
 62
     7
100
AcDbLine
 10
226.7658227932
 20
646.4106457904
 30
0.0
 11
227.1529340494
 21
646.6726295914
 31
0.0
  0
LINE
  5
227
330
75
100
AcDbEntity
  8
$DDT_AUDIT_GENERATED_(BB)
  6
Continuous
 62
     7
100
AcDbLine
 10
225.2480806964
 20
646.6726295914
 30
0.0
 11
225.6351919527
 21
646.4106457904
 31
0.0
  0
LINE
  5
228
330
75
100
AcDbEntity
  8
$DDT_AUDIT_GENERATED_(BB)
  6
Continuous
 62
     7
100
AcDbLine
 10
228.2958532828
 20
647.0637917082
 30
0.0
 11
228.3545117206
 21
647.0240936621
 31
0.0
  0
LINE
  5
229
330
75
100
AcDbEntity
  8
$DDT_AUDIT_GENERATED_(BB)
  6
Continuous
 62
     7
100
AcDbLine
 10
227.1069472956
 20
646.6726295914
 30
0.0
 11
228.0133872182
 21
646.6726295914
 31
0.0
  0
LINE
  5
22A
330
75
100
AcDbEntity
  8
$DDT_AUDIT_GENERATED_(BB)
  6
Continuous
 62
     7
100
AcDbLine
 10
225.4061629092
 20
646.7173697263
 30
0.0
 11
225.7932741655
 21
646.9793535272
 31
0.0
  0
LINE
  5
22B
330
75
100
AcDbEntity
  8
$DDT_AUDIT_GENERATED_(BB)
  6
Continuous
 62
     7
100
AcDbLine
 10
224.3876275277
 20
647.2860774631
 30
0.0
 11
225.2940674503
 21
647.2860774631
 31
0.0
  0
LINE
  5
22C
330
75
100
AcDbEntity
  8
$DDT_AUDIT_GENERATED_(BB)
  6
Continuous
 62
     7
100
AcDbLine
 10
226.6077405804
 20
646.9793535272
 30
0.0
 11
226.9948518366
 21
646.7173697263
 31
0.0
  0
LINE
  5
22D
330
75
100
AcDbEntity
  8
$DDT_AUDIT_GENERATED_(BB)
  6
Continuous
 62
     7
100
AcDbLine
 10
225.2480806964
 20
647.2860774631
 30
0.0
 11
225.6351919527
 21
647.0240936621
 31
0.0
  0
LINE
  5
22E
330
75
100
AcDbEntity
  8
$DDT_AUDIT_GENERATED_(BB)
  6
Continuous
 62
     7
100
AcDbLine
 10
225.7472874116
 20
646.9793535272
 30
0.0
 11
226.6537273342
 21
646.9793535272
 31
0.0
  0
LINE
  5
22F
330
75
100
AcDbEntity
  8
$DDT_AUDIT_GENERATED_(BB)
  6
Continuous
 62
     7
100
AcDbLine
 10
225.4061629092
 20
647.330817598
 30
0.0
 11
225.4113512068
 21
647.3343288623
 31
0.0
  0
LINE
  5
230
330
75
100
AcDbEntity
  8
$DDT_AUDIT_GENERATED_(BB)
  6
Continuous
 62
     7
100
AcDbLine
 10
226.7658227932
 20
647.0240936621
 30
0.0
 11
227.0685173228
 21
647.2289470786
 31
0.0
  0
ARC
  5
231
330
75
100
AcDbEntity
  8
$DDT_AUDIT_GENERATED_(BB)
  6
Continuous
 62
     7
100
AcDbCircle
 10
213.9504331696
 20
646.8866325948
 30
0.0
 40
0.2000000000000036
100
AcDbArc
 50
208.4853494936
 51
270.0
  0
LINE
  5
232
330
75
100
AcDbEntity
  8
$DDT_AUDIT_GENERATED_(BB)
  6
Continuous
 62
     7
100
AcDbLine
 10
213.508347489
 20
648.5252305244
 30
0.0
 11
213.508347489
 21
647.7888266416
 31
0.0
  0
LINE
  5
233
330
75
100
AcDbEntity
  8
$DDT_AUDIT_GENERATED_(BB)
  6
Continuous
 62
     7
100
AcDbLine
 10
236.173347489
 20
647.7888266416
 30
0.0
 11
236.173347489
 21
648.5252305244
 31
0.0
  0
ARC
  5
234
330
75
100
AcDbEntity
  8
$DDT_AUDIT_GENERATED_(BB)
  6
Continuous
 62
     7
100
AcDbCircle
 10
235.7312618084
 20
646.8866325948
 30
0.0
 40
0.1999999999999979
100
AcDbArc
 50
264.8454486296
 51
270.0
  0
ARC
  5
235
330
75
100
AcDbEntity
  8
$DDT_AUDIT_GENERATED_(BB)
  6
Continuous
 62
     7
100
AcDbCircle
 10
235.7312618084
 20
646.8866325948
 30
0.0
 40
0.2000000000000057
100
AcDbArc
 50
270.0
 51
331.5146505064
  0
ARC
  5
236
330
75
100
AcDbEntity
  8
$DDT_AUDIT_GENERATED_(BB)
  6
Continuous
 62
     7
100
AcDbCircle
 10
219.6900300338
 20
650.2411736188
 30
0.0
 40
5.591327481867078
100
AcDbArc
 50
218.5154194018
 51
221.9222322814
  0
SPLINE
  5
237
330
75
100
AcDbEntity
  8
$DDT_AUDIT_GENERATED_(BB)
  6
Continuous
 62
     7
100
AcDbSpline
210
0.0
220
0.0
230
1.0
 70
     8
 71
     3
 72
    13
 73
     9
 74
     0
 42
0.0000000264268702
 43
0.0000000001
 40
0.0
 40
0.0
 40
0.0
 40
0.0
 40
0.1922504303698721
 40
0.390709428983063
 40
0.5553191295192751
 40
0.6912133531629969
 40
0.8041070679191846
 40
0.8293313849623584
 40
0.8293313849623584
 40
0.8293313849623584
 40
0.8293313849623584
 10
215.0233458815792
 20
646.7826051604426
 30
0.0
 10
215.0579576950855
 20
646.7846650651079
 30
0.0
 10
215.118735169449
 20
646.7877652600505
 30
0.0
 10
215.2120944815519
 20
646.7789487139406
 30
0.0
 10
215.2796888878367
 20
646.7637613957144
 30
0.0
 10
215.3184521427575
 20
646.7489793162908
 30
0.0
 10
215.3294589336572
 20
646.7422874686453
 30
0.0
 10
215.3300680357966
 20
646.7417131802865
 30
0.0
 10
215.330035334174
 20
646.7417154662942
 30
0.0
  0
LINE
  5
238
330
75
100
AcDbEntity
  8
$DDT_AUDIT_GENERATED_(BB)
  6
Continuous
 62
     7
100
AcDbLine
 10
213.9684016872
 20
646.6874413993
 30
0.0
 11
215.0233458816
 21
646.7826051604
 31
0.0
  0
SPLINE
  5
239
330
75
100
AcDbEntity
  8
$DDT_AUDIT_GENERATED_(BB)
  6
Continuous
 62
     7
100
AcDbSpline
210
0.0
220
0.0
230
1.0
 70
     8
 71
     3
 72
     9
 73
     5
 74
     0
 42
0.0000001338337465
 43
0.0000000001
 40
0.0
 40
0.0
 40
0.0
 40
0.0
 40
0.2049490323395264
 40
0.2947278240107168
 40
0.2947278240107168
 40
0.2947278240107168
 40
0.2947278240107168
 10
218.0571011595574
 20
650.5290065094151
 30
0.0
 10
218.0652546723764
 20
650.5249233687681
 30
0.0
 10
218.0749296333525
 20
650.5204458304812
 30
0.0
 10
218.07666028178
 20
650.5191302460454
 30
0.0
 10
218.0765962569259
 20
650.5191544115356
 30
0.0
  0
LINE
  5
23A
330
75
100
AcDbEntity
  8
$DDT_AUDIT_GENERATED_(BB)
  6
Continuous
 62
     7
100
AcDbLine
 10
217.371347388
 20
650.8163427134
 30
0.0
 11
218.0571011596
 21
650.5290065094
 31
0.0
  0
LINE
  5
23B
330
75
100
AcDbEntity
  8
$DDT_AUDIT_GENERATED_(BB)
  6
Continuous
 62
     7
100
AcDbLine
 10
231.6245938184
 20
650.5290065094
 30
0.0
 11
232.31034759
 21
650.8163427134
 31
0.0
  0
SPLINE
  5
23C
330
75
100
AcDbEntity
  8
$DDT_AUDIT_GENERATED_(BB)
  6
Continuous
 62
     7
100
AcDbSpline
210
0.0
220
0.0
230
1.0
 70
     8
 71
     3
 72
     9
 73
     5
 74
     0
 42
0.0000001335533143
 43
0.0000000001
 40
0.7068357173212947
 40
0.7068357173212947
 40
0.7068357173212947
 40
0.7068357173212947
 40
0.8614889176882101
 40
1.0
 40
1.0
 40
1.0
 40
1.0
 10
231.6051166868247
 20
650.5191016196424
 30
0.0
 10
231.6051115991113
 20
650.5191050462904
 30
0.0
 10
231.6084224970059
 20
650.5216628252524
 30
0.0
 10
231.6186919258148
 20
650.5262564360406
 30
0.0
 10
231.6245938184153
 20
650.5290065094151
 30
0.0
  0
LINE
  5
23D
330
75
100
AcDbEntity
  8
$DDT_AUDIT_GENERATED_(BB)
  6
Continuous
 62
     7
100
AcDbLine
 10
234.6583490964
 20
646.7826051604
 30
0.0
 11
235.7132932908
 21
646.6874413993
 31
0.0
  0
SPLINE
  5
23E
330
75
100
AcDbEntity
  8
$DDT_AUDIT_GENERATED_(BB)
  6
Continuous
 62
     7
100
AcDbSpline
210
0.0
220
0.0
230
1.0
 70
     8
 71
     3
 72
    13
 73
     9
 74
     0
 42
0.0000000264505155
 43
0.0000000001
 40
0.170169594448359
 40
0.170169594448359
 40
0.170169594448359
 40
0.170169594448359
 40
0.2385279924309968
 40
0.3468386990578493
 40
0.4742927099824209
 40
0.6290559557164197
 40
0.8093785073992674
 40
1.0
 40
1.0
 40
1.0
 40
1.0
 10
234.3517209616148
 20
646.74158251189
 30
0.0
 10
234.3517171477952
 20
646.7415741493895
 30
0.0
 10
234.3542379470361
 20
646.743853508358
 30
0.0
 10
234.372276682985
 20
646.7528738649698
 30
0.0
 10
234.4131966581388
 20
646.766720405871
 30
0.0
 10
234.4780276021139
 20
646.779906997252
 30
0.0
 10
234.5663801096323
 20
646.7876256882904
 30
0.0
 10
234.6240267634104
 20
646.7846581072374
 30
0.0
 10
234.6583490963935
 20
646.7826051604426
 30
0.0
  0
ARC
  5
23F
330
75
100
AcDbEntity
  8
$DDT_AUDIT_GENERATED_(BB)
  6
Continuous
 62
     7
100
AcDbCircle
 10
230.0633338315
 20
650.1360054803
 30
0.0
 40
5.46988961191945
100
AcDbArc
 50
318.6047248376
 51
321.879040089
  0
ENDBLK
  5
241
330
75
100
AcDbEntity
  8
0
100
AcDbBlockEnd
  0
BLOCK
  5
271
330
242
100
AcDbEntity
  8
0
100
AcDbBlockBegin
  2
SE1
 70
     0
 10
0.0
 20
0.0
 30
0.0
  3
SE1
  1

  0
LINE
  5
244
330
242
100
AcDbEntity
  8
$DDT_AUDIT_GENERATED_(77)
  6
Continuous
 62
     7
100
AcDbLine
 10
421.1869205726
 20
430.7877546463
 30
0.0
 11
421.4227995071
 21
439.7956077361
 31
0.0
  0
LINE
  5
245
330
242
100
AcDbEntity
  8
$DDT_AUDIT_GENERATED_(77)
  6
Continuous
 62
     7
100
AcDbLine
 10
421.1869205726
 20
430.7877546463
 30
0.0
 11
486.6739787138
 21
430.7877546463
 31
0.0
  0
LINE
  5
246
330
242
100
AcDbEntity
  8
$DDT_AUDIT_GENERATED_(77)
  6
Continuous
 62
     7
100
AcDbLine
 10
486.6739787138
 20
430.7877546463
 30
0.0
 11
486.4380997792
 21
439.7956077361
 31
0.0
  0
ARC
  5
247
330
242
100
AcDbEntity
  8
$DDT_AUDIT_GENERATED_(77)
  6
Continuous
 62
     7
100
AcDbCircle
 10
421.7226967044
 20
439.7877546463
 30
0.0
 40
0.3000000000000165
100
AcDbArc
 50
89.9999809391
 51
178.4999989813
  0
ARC
  5
248
330
242
100
AcDbEntity
  8
$DDT_AUDIT_GENERATED_(77)
  6
Continuous
 62
     7
100
AcDbCircle
 10
486.1382025819
 20
439.7877546463
 30
0.0
 40
0.3000000000000165
100
AcDbArc
 50
1.5000010187
 51
90.0000190609
  0
LINE
  5
249
330
242
100
AcDbEntity
  8
$DDT_AUDIT_GENERATED_(7F)
  6
Continuous
 62
     7
100
AcDbLine
 10
486.4304496432
 20
440.0877546463
 30
0.0
 11
421.4304496432
 21
440.0877546463
 31
0.0
  0
LINE
  5
24A
330
242
100
AcDbEntity
  8
$DDT_AUDIT_GENERATED_(7F)
  6
Continuous
 62
     7
100
AcDbLine
 10
422.4304496432
 20
444.0877546463
 30
0.0
 11
485.4304496432
 21
444.0877546463
 31
0.0
  0
LINE
  5
24B
330
242
100
AcDbEntity
  8
$DDT_AUDIT_GENERATED_(7F)
  6
Continuous
 62
     7
100
AcDbLine
 10
486.4304496432
 20
443.0877546463
 30
0.0
 11
486.4304496432
 21
440.0877546463
 31
0.0
  0
LINE
  5
24C
330
242
100
AcDbEntity
  8
$DDT_AUDIT_GENERATED_(7F)
  6
Continuous
 62
     7
100
AcDbLine
 10
421.4304496432
 20
443.0877546463
 30
0.0
 11
421.4304496432
 21
440.0877546463
 31
0.0
  0
ARC
  5
24D
330
242
100
AcDbEntity
  8
$DDT_AUDIT_GENERATED_(7F)
  6
Continuous
 62
     7
100
AcDbCircle
 10
422.4304496432
 20
443.0877546463
 30
0.0
 40
1.000000000000001
100
AcDbArc
 50
90.0
 51
180.0
  0
ARC
  5
24E
330
242
100
AcDbEntity
  8
$DDT_AUDIT_GENERATED_(7F)
  6
Continuous
 62
     7
100
AcDbCircle
 10
485.4304496432
 20
443.0877546463
 30
0.0
 40
1.000000000000001
100
AcDbArc
 50
0.0
 51
90.0
  0
LINE
  5
24F
330
242
100
AcDbEntity
  8
$DDT_AUDIT_GENERATED_(8A)
  6
Continuous
 62
     7
100
AcDbLine
 10
474.5804496432
 20
445.3877546463
 30
0.0
 11
433.2804496432
 21
445.3877546463
 31
0.0
  0
LINE
  5
250
330
242
100
AcDbEntity
  8
$DDT_AUDIT_GENERATED_(8A)
  6
Continuous
 62
     7
100
AcDbLine
 10
433.2804496432
 20
445.3877546463
 30
0.0
 11
433.2804496432
 21
445.2877546463
 31
0.0
  0
LINE
  5
251
330
242
100
AcDbEntity
  8
$DDT_AUDIT_GENERATED_(8A)
  6
Continuous
 62
     7
100
AcDbLine
 10
474.5804496432
 20
445.2877546463
 30
0.0
 11
474.5804496432
 21
445.3877546463
 31
0.0
  0
ARC
  5
252
330
242
100
AcDbEntity
  8
$DDT_AUDIT_GENERATED_(8A)
  6
Continuous
 62
     7
100
AcDbCircle
 10
453.9304496432
 20
347.5430945978
 30
0.0
 40
100.0
100
AcDbArc
 50
78.08267827
 51
90.0
  0
ARC
  5
253
330
242
100
AcDbEntity
  8
$DDT_AUDIT_GENERATED_(8A)
  6
Continuous
 62
     7
100
AcDbCircle
 10
453.9304496432
 20
347.5430945978
 30
0.0
 40
100.0
100
AcDbArc
 50
90.0
 51
101.91732173
  0
LINE
  5
254
330
242
100
AcDbEntity
  8
$DDT_AUDIT_GENERATED_(8F)
  6
Continuous
 62
     7
100
AcDbLine
 10
429.2804496432
 20
444.1877546463
 30
0.0
 11
478.5804496432
 21
444.1877546463
 31
0.0
  0
LINE
  5
255
330
242
100
AcDbEntity
  8
$DDT_AUDIT_GENERATED_(8F)
  6
Continuous
 62
     7
100
AcDbLine
 10
433.1804496432
 20
445.2877546463
 30
0.0
 11
474.6804496432
 21
445.2877546463
 31
0.0
  0
ARC
  5
256
330
242
100
AcDbEntity
  8
$DDT_AUDIT_GENERATED_(8F)
  6
Continuous
 62
     7
100
AcDbCircle
 10
458.3708938535
 20
348.5125433549
 30
0.0
 40
100.0
100
AcDbArc
 50
104.5902359207
 51
106.9121114062
  0
ARC
  5
257
330
242
100
AcDbEntity
  8
$DDT_AUDIT_GENERATED_(8F)
  6
Continuous
 62
     7
100
AcDbCircle
 10
449.4900054328
 20
348.5125433549
 30
0.0
 40
100.0
100
AcDbArc
 50
73.0878885938
 51
75.4097640793
  0
LINE
  5
258
330
242
100
AcDbEntity
  8
$DDT_AUDIT_GENERATED_(8F)
  6
Continuous
 62
     7
100
AcDbLine
 10
478.5804496432
 20
444.0877546463
 30
0.0
 11
478.5804496432
 21
444.1877546463
 31
0.0
  0
LINE
  5
259
330
242
100
AcDbEntity
  8
$DDT_AUDIT_GENERATED_(8F)
  6
Continuous
 62
     7
100
AcDbLine
 10
429.2804496432
 20
444.1877546463
 30
0.0
 11
429.2804496432
 21
444.0877546463
 31
0.0
  0
SPLINE
  5
25A
330
242
100
AcDbEntity
  8
$DDT_AUDIT_GENERATED_(9A)
  6
Continuous
 62
     7
100
AcDbSpline
210
0.0
220
0.0
230
1.0
 70
     8
 71
     3
 72
    32
 73
    28
 74
     0
 42
0.0000000002901131
 43
0.0000000001
 40
0.4550796752366787
 40
0.4550796752366787
 40
0.4550796752366787
 40
0.4550796752366787
 40
0.4990380625412504
 40
0.5286262526168557
 40
0.5588546579672643
 40
0.5731870803980335
 40
0.588843503130275
 40
0.6080552930080074
 40
0.6194907674992582
 40
0.6321155522740586
 40
0.6428220661666995
 40
0.6535923043142712
 40
0.6694475992507957
 40
0.6880613342987325
 40
0.6963451657267886
 40
0.7047422632755485
 40
0.7212746765074773
 40
0.7386506738294978
 40
0.7472301100241773
 40
0.7559998245185997
 40
0.7726521466385667
 40
0.7897977339158904
 40
0.7967939403913425
 40
0.8053209119367378
 40
0.8203492306408362
 40
0.8802432716708751
 40
0.9550034860715233
 40
0.9550034860715233
 40
0.9550034860715233
 40
0.9550034860715233
 10
624.554332679812
 20
659.1204750215235
 30
0.0
 10
624.5557126273687
 20
659.121206901742
 30
0.0
 10
624.5059643200457
 20
659.1153757684785
 30
0.0
 10
624.2979599203213
 20
659.0806745466523
 30
0.0
 10
624.0799311531331
 20
659.0424645065639
 30
0.0
 10
623.8536646125124
 20
659.006018894962
 30
0.0
 10
623.6437838505703
 20
658.9777911151903
 30
0.0
 10
623.4161755822398
 20
658.9338327717811
 30
0.0
 10
623.1545969987168
 20
658.9531191100778
 30
0.0
 10
622.826948628754
 20
659.0950943966225
 30
0.0
 10
622.3220004612831
 20
659.5016024315681
 30
0.0
 10
621.6486409707583
 20
660.1301150526713
 30
0.0
 10
620.6931852552251
 20
661.0679157135585
 30
0.0
 10
619.6315230416205
 20
662.3229448102468
 30
0.0
 10
618.7449441583108
 20
663.4475741818267
 30
0.0
 10
617.9036861418928
 20
664.5249577420793
 30
0.0
 10
616.865625628279
 20
665.931200946975
 30
0.0
 10
615.9321890282891
 20
667.3375852671264
 30
0.0
 10
615.3598721466196
 20
668.3193092529194
 30
0.0
 10
614.9109790562246
 20
669.1527860270904
 30
0.0
 10
614.5095227082697
 20
670.0089846959731
 30
0.0
 10
614.4831403321929
 20
670.3723251654478
 30
0.0
 10
614.5591861294727
 20
670.521236937002
 30
0.0
 10
614.6541957643512
 20
670.6195166788577
 30
0.0
 10
614.9540991670762
 20
670.8216565945589
 30
0.0
 10
615.3247831101704
 20
671.0921989975103
 30
0.0
 10
615.4485621987637
 20
671.1786424258352
 30
0.0
 10
615.4493101566346
 20
671.1787228862971
 30
0.0
  0
ARC
  5
25B
330
242
100
AcDbEntity
  8
$DDT_AUDIT_GENERATED_(9A)
  6
Continuous
 62
     7
100
AcDbCircle
 10
410.1666995829
 20
455.1474522462
 30
0.0
 40
23.64521697376626
100
AcDbArc
 50
348.5122200447
 51
4.34110545
  0
ARC
  5
25C
330
242
100
AcDbEntity
  8
$DDT_AUDIT_GENERATED_(9A)
  6
Continuous
 62
     7
100
AcDbCircle
 10
641.4455900159
 20
551.4038245977
 30
0.0
 40
107.0384089344369
100
AcDbArc
 50
105.5836816265
 51
121.6951010941
  0
LINE
  5
25D
330
242
100
AcDbEntity
  8
$DDT_AUDIT_GENERATED_(9A)
  6
Continuous
 62
     7
100
AcDbLine
 10
624.8904097168
 20
660.008292553
 30
0.0
 11
616.318122717
 21
670.9803182944
 31
0.0
  0
ARC
  5
25E
330
242
100
AcDbEntity
  8
$DDT_AUDIT_GENERATED_(9A)
  6
Continuous
 62
     7
100
AcDbCircle
 10
615.6997023721
 20
670.3249757214
 30
0.0
 40
0.8904604357759881
100
AcDbArc
 50
37.9983861318
 51
106.3207199922
  0
ARC
  5
25F
330
242
100
AcDbEntity
  8
$DDT_AUDIT_GENERATED_(9A)
  6
Continuous
 62
     7
100
AcDbCircle
 10
624.3405299866
 20
659.7042497607
 30
0.0
 40
0.6204918308412097
100
AcDbArc
 50
290.6309820281
 51
38.0144897992
  0
ARC
  5
260
330
242
100
AcDbEntity
  8
$DDT_AUDIT_GENERATED_(9A)
  6
Continuous
 62
     7
100
AcDbCircle
 10
748.5431300345
 20
323.2653129766
 30
0.0
 40
357.9935659093196
100
AcDbArc
 50
110.2674624924
 51
112.3073866929
  0
SPLINE
  5
261
330
242
100
AcDbEntity
  8
$DDT_AUDIT_GENERATED_(9A)
  6
Continuous
 62
     7
100
AcDbSpline
210
0.0
220
0.0
230
1.0
 70
     8
 71
     3
 72
    50
 73
    46
 74
     0
 42
0.000000000040581
 43
0.0000000001
 40
0.006424213637107
 40
0.006424213637107
 40
0.006424213637107
 40
0.006424213637107
 40
0.0109537668874593
 40
0.024151651681222
 40
0.0371988237423788
 40
0.0487666576729231
 40
0.055866604880224
 40
0.0605866499409836
 40
0.0630996020530452
 40
0.0654997390090865
 40
0.0751255380125484
 40
0.0865781844769136
 40
0.1029413278886443
 40
0.1223720668525737
 40
0.1439797382474554
 40
0.1760892055296057
 40
0.2115422237256918
 40
0.2498170097177219
 40
0.2903011577413894
 40
0.3285460391396387
 40
0.3673389556680118
 40
0.4045425972567878
 40
0.4397956561368796
 40
0.4730532337849441
 40
0.5118575576826939
 40
0.547705431517414
 40
0.5807430138573718
 40
0.6124927363060202
 40
0.6283491770558913
 40
0.6441733083787156
 40
0.6599783187799895
 40
0.6755115834133373
 40
0.6886840089643973
 40
0.6988528260525937
 40
0.7079995492222458
 40
0.7192030939689388
 40
0.7325623721676146
 40
0.7549897481072819
 40
0.7789225817947686
 40
0.8040785856496269
 40
0.8305660126647094
 40
0.8585128808912237
 40
0.9072623306089119
 40
0.9565646336250705
 40
1.0
 40
1.0
 40
1.0
 40
1.0
 10
474.6840362161739
 20
445.3089451310069
 30
0.0
 10
474.6802144383302
 20
445.6707820764914
 30
0.0
 10
474.6629982648498
 20
447.0591061634581
 30
0.0
 10
474.6030672799094
 20
449.6399831627821
 30
0.0
 10
474.5285449880005
 20
452.7266557185884
 30
0.0
 10
474.4706024884138
 20
455.3347464911664
 30
0.0
 10
474.4339914011002
 20
457.2546559299384
 30
0.0
 10
474.4141975467722
 20
458.4317362895541
 30
0.0
 10
474.402082197513
 20
459.2228057370381
 30
0.0
 10
474.3850480461541
 20
460.4167689314373
 30
0.0
 10
474.3626399713534
 20
462.3449436184463
 30
0.0
 10
474.3424114200736
 20
465.4199782960305
 30
0.0
 10
474.3445435341608
 20
469.3003922627632
 30
0.0
 10
474.3935795408079
 20
474.0146370444742
 30
0.0
 10
474.5288436001096
 20
480.0209214133947
 30
0.0
 10
474.8189005049063
 20
487.3393142828746
 30
0.0
 10
475.3734037068535
 20
496.0151234726337
 30
0.0
 10
476.2619829375308
 20
505.3550752966234
 30
0.0
 10
477.5431422372397
 20
514.8818606337759
 30
0.0
 10
479.2549673235444
 20
524.3843505357422
 30
0.0
 10
481.3714114921613
 20
533.5296688800166
 30
0.0
 10
483.9133787222528
 20
542.3108676535855
 30
0.0
 10
486.8024381698662
 20
550.5037115795491
 30
0.0
 10
490.2183096706606
 20
558.6339491879407
 30
0.0
 10
494.1846856144691
 20
566.5685969994753
 30
0.0
 10
498.6988114294637
 20
574.1827604949738
 30
0.0
 10
503.383950320892
 20
580.9985194303181
 30
0.0
 10
507.4698921627742
 20
586.2166574697197
 30
0.0
 10
510.8573780650162
 20
590.1752022678396
 30
0.0
 10
513.4750702517479
 20
593.0668607590643
 30
0.0
 10
516.1504932100474
 20
595.8684852364072
 30
0.0
 10
518.7412493149357
 20
598.4481412239179
 30
0.0
 10
521.0529578068802
 20
600.6506657736969
 30
0.0
 10
523.016257077521
 20
602.4577306635689
 30
0.0
 10
524.883871346049
 20
604.129581325952
 30
0.0
 10
526.9727554651095
 20
605.9467717311678
 30
0.0
 10
529.9262077017208
 20
608.431288963042
 30
0.0
 10
533.7524200200573
 20
611.5011384649531
 30
0.0
 10
538.4360597762803
 20
615.0466694255239
 30
0.0
 10
543.4885768253793
 20
618.6543763676023
 30
0.0
 10
548.9091710438994
 20
622.3057844342493
 30
0.0
 10
556.0705829569947
 20
626.8558982734503
 30
0.0
 10
564.9427839883583
 20
632.0679876452042
 30
0.0
 10
575.3950430490844
 20
637.6859926094069
 30
0.0
 10
581.7510082854934
 20
640.7859078534012
 30
0.0
 10
585.2824898711544
 20
642.4967913205726
 30
0.0
  0
ARC
  5
262
330
242
100
AcDbEntity
  8
$DDT_AUDIT_GENERATED_(9A)
  6
Continuous
 62
     7
100
AcDbCircle
 10
579.5276036706
 20
443.1823963524
 30
0.0
 40
146.3652863059544
100
AcDbArc
 50
177.142638028
 51
179.175457691
  0
SPLINE
  5
263
330
242
100
AcDbEntity
  8
$DDT_AUDIT_GENERATED_(9A)
  6
Continuous
 62
     7
100
AcDbSpline
210
0.0
220
0.0
230
1.0
 70
     8
 71
     3
 72
    38
 73
    34
 74
     0
 42
0.0000000000330348
 43
0.0000000001
 40
0.0
 40
0.0
 40
0.0
 40
0.0
 40
0.0054020652418693
 40
0.0146710105564866
 40
0.0245256799566369
 40
0.0499616038963879
 40
0.0782940277347987
 40
0.1058399748431354
 40
0.134944534491334
 40
0.1641039694213764
 40
0.193215742807395
 40
0.2373085283326035
 40
0.2814972402863867
 40
0.325911859545011
 40
0.3706802912004203
 40
0.415877791913893
 40
0.460840685144509
 40
0.5054561399412377
 40
0.549894814965416
 40
0.5942970106544492
 40
0.6387345520831625
 40
0.6831728472342968
 40
0.7274372982294554
 40
0.7534225227823242
 40
0.7831175348716223
 40
0.816146683080704
 40
0.8517620508177983
 40
0.8887566744819285
 40
0.9254478411102286
 40
0.949023272175861
 40
0.9709967879802544
 40
0.9908413818976273
 40
1.0
 40
1.0
 40
1.0
 40
1.0
 10
615.4227434338076
 20
671.1709517212001
 30
0.0
 10
614.8474924079962
 20
671.0027302204236
 30
0.0
 10
613.5220593116348
 20
670.6146382338239
 30
0.0
 10
611.0974331726419
 20
669.8823523158446
 30
0.0
 10
606.8293384127346
 20
668.5614787547062
 30
0.0
 10
600.7106330290461
 20
666.5723057885613
 30
0.0
 10
592.9744119673668
 20
663.8651115268028
 30
0.0
 10
584.9522751166807
 20
660.8389691460995
 30
0.0
 10
576.9339948863848
 20
657.5795758016095
 30
0.0
 10
568.8614413027924
 20
654.040967787434
 30
0.0
 10
559.5239990146039
 20
649.6326944891213
 30
0.0
 10
549.0034465371068
 20
644.1910151308573
 30
0.0
 10
537.4058020965072
 20
637.5012941375262
 30
0.0
 10
526.0874873957778
 20
630.221008511767
 30
0.0
 10
515.0770457483166
 20
622.3058031384902
 30
0.0
 10
504.4837350255562
 20
613.7500571038527
 30
0.0
 10
494.4464611274341
 20
604.5686452525745
 30
0.0
 10
485.1106837386779
 20
594.7775263840289
 30
0.0
 10
476.5578335163797
 20
584.3670075536934
 30
0.0
 10
468.8308093674892
 20
573.3513049353942
 30
0.0
 10
461.9566297451458
 20
561.7848948073585
 30
0.0
 10
455.9447157561118
 20
549.7649515029068
 30
0.0
 10
451.4781731457519
 20
539.085218560709
 30
0.0
 10
448.0500222575935
 20
529.6036790580341
 30
0.0
 10
445.3188229045497
 20
521.0810689686658
 30
0.0
 10
442.6583027840716
 20
511.5232025435739
 30
0.0
 10
440.2009795073712
 20
501.1534081029758
 30
0.0
 10
438.0528664796075
 20
490.3361984408428
 30
0.0
 10
436.4619204312364
 20
480.6610836570657
 30
0.0
 10
435.3245489043746
 20
472.427952028795
 30
0.0
 10
434.5621494826898
 20
465.9243851123888
 30
0.0
 10
434.0355687225431
 20
460.6762957022111
 30
0.0
 10
433.8319131561275
 20
457.9462854138447
 30
0.0
 10
433.7570134537874
 20
456.9329280753112
 30
0.0
  0
LINE
  5
264
330
242
100
AcDbEntity
  8
$DDT_AUDIT_GENERATED_(A4)
  6
Continuous
 62
     7
100
AcDbLine
 10
588.403409978
 20
642.3690195761
 30
0.0
 11
610.6796274316
 21
651.8247128855
 31
0.0
  0
LINE
  5
265
330
242
100
AcDbEntity
  8
$DDT_AUDIT_GENERATED_(A4)
  6
Continuous
 62
     7
100
AcDbLine
 10
612.7855217884
 20
653.6456940457
 30
0.0
 11
612.4534803898
 21
654.4279345602
 31
0.0
  0
LINE
  5
266
330
242
100
AcDbEntity
  8
$DDT_AUDIT_GENERATED_(A4)
  6
Continuous
 62
     7
100
AcDbLine
 10
585.4203058851
 20
642.614615048
 30
0.0
 11
585.6306286116
 21
642.1191257553
 31
0.0
  0
LINE
  5
267
330
242
100
AcDbEntity
  8
$DDT_AUDIT_GENERATED_(A4)
  6
Continuous
 62
     7
100
AcDbLine
 10
610.5406344393
 20
651.7957068747
 30
0.0
 11
612.5496280559
 21
653.2604928312
 31
0.0
  0
LINE
  5
268
330
242
100
AcDbEntity
  8
$DDT_AUDIT_GENERATED_(A4)
  6
Continuous
 62
     7
100
AcDbLine
 10
585.9398471092
 20
642.0231778351
 30
0.0
 11
588.3843066359
 21
642.475160662
 31
0.0
  0
ARC
  5
269
330
242
100
AcDbEntity
  8
$DDT_AUDIT_GENERATED_(A4)
  6
Continuous
 62
     7
100
AcDbCircle
 10
585.9067800676
 20
642.2363450938
 30
0.0
 40
0.2999999999999785
100
AcDbArc
 50
203.0
 51
279.2197834193
  0
ARC
  5
26A
330
242
100
AcDbEntity
  8
$DDT_AUDIT_GENERATED_(A4)
  6
Continuous
 62
     7
100
AcDbCircle
 10
612.5093703324
 20
653.5284747072
 30
0.0
 40
0.2999999999999501
100
AcDbArc
 50
306.7802165807
 51
23.0
  0
LINE
  5
26C
330
242
100
AcDbEntity
  8
$DDT_AUDIT_GENERATED_(26B)
  6
Continuous
 62
     7
100
AcDbLine
 10
433.8165023253
 20
453.0120908003
 30
0.0
 11
433.8165023253
 21
457.0377546545
 31
0.0
  0
LINE
  5
26D
330
242
100
AcDbEntity
  8
$DDT_AUDIT_GENERATED_(26B)
  6
Continuous
 62
     7
100
AcDbLine
 10
433.8559987115
 20
457.0377546545
 30
0.0
 11
433.8165023253
 21
457.0377546545
 31
0.0
  0
LINE
  5
26E
330
242
100
AcDbEntity
  8
$DDT_AUDIT_GENERATED_(BB)
  6
Continuous
 62
     7
100
AcDbLine
 10
609.4725774347
 20
647.5662740303
 30
0.0
 11
592.3051619178
 21
640.279138484
 31
0.0
  0
LINE
  5
26F
330
242
100
AcDbEntity
  8
$DDT_AUDIT_GENERATED_(BB)
  6
Continuous
 62
     7
100
AcDbLine
 10
609.4725774347
 20
647.5662740303
 30
0.0
 11
608.1252264633
 21
650.7404340039
 31
0.0
  0
LINE
  5
270
330
242
100
AcDbEntity
  8
$DDT_AUDIT_GENERATED_(BB)
  6
Continuous
 62
     7
100
AcDbLine
 10
590.9578109464
 20
643.4532984576
 30
0.0
 11
592.3051619178
 21
640.279138484
 31
0.0
  0
ENDBLK
  5
272
330
242
100
AcDbEntity
  8
0
100
AcDbBlockEnd
  0
BLOCK
  5
290
330
273
100
AcDbEntity
  8
0
100
AcDbBlockBegin
  2
SE2
 70
     0
 10
0.0
 20
0.0
 30
0.0
  3
SE2
  1

  0
ARC
  5
275
330
273
100
AcDbEntity
  8
$DDT_AUDIT_GENERATED_(77)
  6
Continuous
 62
     7
100
AcDbCircle
 10
157.3408474944
 20
277.417430974
 30
0.0
 40
32.74352907059
100
AcDbArc
 50
90.0
 51
270.0
  0
ARC
  5
276
330
273
100
AcDbEntity
  8
$DDT_AUDIT_GENERATED_(77)
  6
Continuous
 62
     7
100
AcDbCircle
 10
292.3408474944
 20
277.417430974
 30
0.0
 40
32.74352907059
100
AcDbArc
 50
270.0
 51
90.0
  0
LINE
  5
277
330
273
100
AcDbEntity
  8
$DDT_AUDIT_GENERATED_(77)
  6
Continuous
 62
     7
100
AcDbLine
 10
157.3408474944
 20
244.6739019034
 30
0.0
 11
201.5455804604
 21
244.6739019034
 31
0.0
  0
LINE
  5
278
330
273
100
AcDbEntity
  8
$DDT_AUDIT_GENERATED_(77)
  6
Continuous
 62
     7
100
AcDbLine
 10
248.1361049049
 20
244.6739019034
 30
0.0
 11
292.3408474944
 21
244.6739019034
 31
0.0
  0
LINE
  5
279
330
273
100
AcDbEntity
  8
$DDT_AUDIT_GENERATED_(77)
  6
Continuous
 62
     7
100
AcDbLine
 10
292.3408474944
 20
310.1609600446
 30
0.0
 11
157.3408474944
 21
310.1609600446
 31
0.0
  0
ARC
  5
27A
330
273
100
AcDbEntity
  8
$DDT_AUDIT_GENERATED_(7F)
  6
Continuous
 62
     7
100
AcDbCircle
 10
224.8408474944
 20
277.417430974
 30
0.0
 40
24.75
100
AcDbArc
 50
0.0
 51
204.905916086
  0
ARC
  5
27B
330
273
100
AcDbEntity
  8
$DDT_AUDIT_GENERATED_(7F)
  6
Continuous
 62
     7
100
AcDbCircle
 10
224.8408474944
 20
277.417430974
 30
0.0
 40
24.75
100
AcDbArc
 50
335.0185007515
 51
0.0
  0
LINE
  5
27C
330
273
100
AcDbEntity
  8
$DDT_AUDIT_GENERATED_(7F)
  6
Continuous
 62
     7
100
AcDbLine
 10
292.3408474944
 20
244.917430974
 30
0.0
 11
248.1288069352
 21
244.917430974
 31
0.0
  0
LINE
  5
27D
330
273
100
AcDbEntity
  8
$DDT_AUDIT_GENERATED_(7F)
  6
Continuous
 62
     7
100
AcDbLine
 10
201.5528152231
 20
244.917430974
 30
0.0
 11
157.3408474944
 21
244.917430974
 31
0.0
  0
ARC
  5
27E
330
273
100
AcDbEntity
  8
$DDT_AUDIT_GENERATED_(7F)
  6
Continuous
 62
     7
100
AcDbCircle
 10
157.3408474944
 20
277.417430974
 30
0.0
 40
32.5
100
AcDbArc
 50
90.0
 51
270.0
  0
ARC
  5
27F
330
273
100
AcDbEntity
  8
$DDT_AUDIT_GENERATED_(7F)
  6
Continuous
 62
     7
100
AcDbCircle
 10
292.3408474944
 20
277.417430974
 30
0.0
 40
32.5
100
AcDbArc
 50
270.0
 51
90.0
  0
LINE
  5
280
330
273
100
AcDbEntity
  8
$DDT_AUDIT_GENERATED_(7F)
  6
Continuous
 62
     7
100
AcDbLine
 10
157.3408474944
 20
309.917430974
 30
0.0
 11
292.3408474944
 21
309.917430974
 31
0.0
  0
CIRCLE
  5
281
330
273
100
AcDbEntity
  8
$DDT_AUDIT_GENERATED_(8A)
  6
Continuous
 62
     7
100
AcDbCircle
 10
157.3408474944
 20
277.417430974
 30
0.0
 40
20.65000000000003
  0
CIRCLE
  5
282
330
273
100
AcDbEntity
  8
$DDT_AUDIT_GENERATED_(8F)
  6
Continuous
 62
     7
100
AcDbCircle
 10
157.3408474944
 20
277.417430974
 30
0.0
 40
24.64999999999988
  0
CIRCLE
  5
283
330
273
100
AcDbEntity
  8
$DDT_AUDIT_GENERATED_(8F)
  6
Continuous
 62
     7
100
AcDbCircle
 10
157.3408474944
 20
277.417430974
 30
0.0
 40
20.74999999999999
  0
SPLINE
  5
284
330
273
100
AcDbEntity
  8
$DDT_AUDIT_GENERATED_(96)
  6
Continuous
 62
     7
100
AcDbSpline
210
0.0
220
0.0
230
1.0
 70
     8
 71
     3
 72
    30
 73
    26
 74
     0
 42
0.0000000000641629
 43
0.0000000001
 40
0.1817071745263189
 40
0.1817071745263189
 40
0.1817071745263189
 40
0.1817071745263189
 40
0.1875
 40
0.1875
 40
0.25
 40
0.25
 40
0.3125
 40
0.3125
 40
0.375
 40
0.375
 40
0.4375
 40
0.4375
 40
0.5
 40
0.5
 40
0.5625
 40
0.5625
 40
0.625
 40
0.625
 40
0.6875
 40
0.6875
 40
0.75
 40
0.75
 40
0.8125
 40
0.8125
 40
0.8182902052800128
 40
0.8182902052800128
 40
0.8182902052800128
 40
0.8182902052800128
 10
202.4257126332556
 20
267.1619052690718
 30
0.0
 10
202.3011994245332
 20
267.4338030266132
 30
0.0
 10
202.1816643418465
 20
267.7079840846554
 30
0.0
 10
200.8324210144763
 20
270.9653456245337
 30
0.0
 10
200.1908474943502
 20
274.1907535193655
 30
0.0
 10
200.19084749435
 20
280.6441084286147
 30
0.0
 10
200.8324210144759
 20
283.8695163234466
 30
0.0
 10
203.3020130214174
 20
289.8316388401334
 30
0.0
 10
205.1290598292347
 20
292.5660076213725
 30
0.0
 10
209.6922708469682
 20
297.1292186391063
 30
0.0
 10
212.4266396282073
 20
298.9562654469238
 30
0.0
 10
218.3887621448938
 20
301.4258574538656
 30
0.0
 10
221.6141700397257
 20
302.0674309739917
 30
0.0
 10
228.0675249489749
 20
302.0674309739919
 30
0.0
 10
231.2929328438068
 20
301.4258574538659
 30
0.0
 10
237.2550553604935
 20
298.9562654469245
 30
0.0
 10
239.9894241417327
 20
297.1292186391072
 30
0.0
 10
244.5526351594665
 20
292.5660076213736
 30
0.0
 10
246.3796819672839
 20
289.8316388401346
 30
0.0
 10
248.8492739742257
 20
283.869516323448
 30
0.0
 10
249.4908474943519
 20
280.6441084286162
 30
0.0
 10
249.4908474943521
 20
274.1907535193669
 30
0.0
 10
248.8492739742261
 20
270.965345624535
 30
0.0
 10
247.5000824133308
 20
267.7081090599821
 30
0.0
 10
247.3806036986379
 20
267.434051060577
 30
0.0
 10
247.2561513107293
 20
267.1622742224407
 30
0.0
  0
ARC
  5
285
330
273
100
AcDbEntity
  8
$DDT_AUDIT_GENERATED_(96)
  6
Continuous
 62
     7
100
AcDbCircle
 10
224.8408474944
 20
277.417430974
 30
0.0
 40
20.9
100
AcDbArc
 50
19.1782494136
 51
159.2361597695
  0
SPLINE
  5
286
330
273
100
AcDbEntity
  8
$DDT_AUDIT_GENERATED_(9A)
  6
Continuous
 62
     7
100
AcDbSpline
210
0.0
220
0.0
230
1.0
 70
     8
 71
     3
 72
    20
 73
    16
 74
     0
 42
0.0000000000889934
 43
0.0000000001
 40
0.0
 40
0.0
 40
0.0
 40
0.0
 40
0.0594918487413505
 40
0.0892530842471434
 40
0.1041753315460105
 40
0.1121174072960212
 40
0.1195654377790966
 40
0.1366842727613145
 40
0.1530805315066926
 40
0.1617492087086913
 40
0.1702495635237255
 40
0.1785187266927737
 40
0.1876327136266633
 40
0.2030912349071488
 40
0.2031473549489915
 40
0.2031473549489915
 40
0.2031473549489915
 40
0.2031473549489915
 10
230.3991047965216
 20
115.9718203471309
 30
0.0
 10
232.8477009936672
 20
116.0373009165199
 30
0.0
 10
236.5180383451763
 20
116.2020255702101
 30
0.0
 10
240.7921845836637
 20
116.4987074788075
 30
0.0
 10
242.9470759538001
 20
116.6847256594331
 30
0.0
 10
244.1879873706901
 20
116.7851452781791
 30
0.0
 10
245.515402356139
 20
116.8603150297951
 30
0.0
 10
247.1933824723739
 20
116.8485465483194
 30
0.0
 10
248.7067181352803
 20
116.4653214299903
 30
0.0
 10
249.7430574385188
 20
116.0335553591444
 30
0.0
 10
250.4089931180873
 20
115.6247831886443
 30
0.0
 10
250.9085575093649
 20
115.1184232338949
 30
0.0
 10
251.3052518807813
 20
114.3905636889444
 30
0.0
 10
251.408911286915
 20
113.7882380027802
 30
0.0
 10
251.4156235524885
 20
113.4024466887776
 30
0.0
 10
251.4156470650858
 20
113.4010511095444
 30
0.0
  0
SPLINE
  5
287
330
273
100
AcDbEntity
  8
$DDT_AUDIT_GENERATED_(9A)
  6
Continuous
 62
     7
100
AcDbSpline
210
0.0
220
0.0
230
1.0
 70
     8
 71
     3
 72
    18
 73
    14
 74
     0
 42
0.0000000000863437
 43
0.0000000001
 40
0.7059760279578081
 40
0.7059760279578081
 40
0.7059760279578081
 40
0.7059760279578081
 40
0.7212746765074773
 40
0.7386506738294978
 40
0.7472301100241773
 40
0.7559998245185997
 40
0.7726521466385667
 40
0.7897977339158904
 40
0.7967939403913425
 40
0.8053209119367378
 40
0.8203492306408362
 40
0.8802432716708751
 40
1.0
 40
1.0
 40
1.0
 40
1.0
 10
198.2651225558731
 20
113.3285093019009
 30
0.0
 10
198.262788212715
 20
113.7106671929301
 30
0.0
 10
198.3799407997257
 20
114.5093601777342
 30
0.0
 10
198.9645791824472
 20
115.4156915888683
 30
0.0
 10
199.8492031496495
 20
115.9880084705377
 30
0.0
 10
200.8834328407598
 20
116.4369015609329
 30
0.0
 10
202.397878796378
 20
116.8383579088877
 30
0.0
 10
204.0658990183522
 20
116.8647402849645
 30
0.0
 10
205.3991177704218
 20
116.7886944876848
 30
0.0
 10
206.6502493514373
 20
116.6936848528062
 30
0.0
 10
210.0668188211877
 20
116.3937814500813
 30
0.0
 10
218.0630229549288
 20
115.9116651288033
 30
0.0
 10
225.4700955999143
 20
115.8400083606981
 30
0.0
 10
230.3991047965216
 20
115.9718203471309
 30
0.0
  0
SPLINE
  5
288
330
273
100
AcDbEntity
  8
$DDT_AUDIT_GENERATED_(9A)
  6
Continuous
 62
     7
100
AcDbSpline
210
0.0
220
0.0
230
1.0
 70
     8
 71
     3
 72
    22
 73
    18
 74
     0
 42
0.0000000007414634
 43
0.0000000001
 40
0.0158450867529207
 40
0.0158450867529207
 40
0.0158450867529207
 40
0.0158450867529207
 40
0.125
 40
0.125
 40
0.25
 40
0.25
 40
0.375
 40
0.375
 40
0.5
 40
0.5
 40
0.625
 40
0.625
 40
0.75
 40
0.75
 40
0.875
 40
0.875
 40
1.0
 40
1.0
 40
1.0
 40
1.0
 10
221.5913568290807
 20
297.5818608565897
 30
0.0
 10
221.5927511448731
 20
297.5366175056529
 30
0.0
 10
221.8554919533926
 20
297.5297672763248
 30
0.0
 10
222.8629968468836
 20
297.5612380754532
 30
0.0
 10
223.6737855241954
 20
297.5967089669729
 30
0.0
 10
225.3656083441915
 20
297.6090256276467
 30
0.0
 10
226.2412309549096
 20
297.5843608046931
 30
0.0
 10
227.5685519943349
 20
297.5360699226105
 30
0.0
 10
227.9947196514686
 20
297.523114430015
 30
0.0
 10
228.1571812527255
 20
297.6052713346992
 30
0.0
 10
227.889350288267
 20
297.702304112965
 30
0.0
 10
226.8165698194258
 20
297.8994530629189
 30
0.0
 10
226.0168145518174
 20
297.9897254283467
 30
0.0
 10
224.3084862212902
 20
298.0237563743025
 30
0.0
 10
223.4346768580648
 20
297.9644585591094
 30
0.0
 10
222.1283782585589
 20
297.7825064099172
 30
0.0
 10
221.6940428024106
 20
297.6690247942448
 30
0.0
 10
221.6074372599868
 20
297.6040422810614
 30
0.0
  0
SPLINE
  5
289
330
273
100
AcDbEntity
  8
$DDT_AUDIT_GENERATED_(9A)
  6
Continuous
 62
     7
100
AcDbSpline
210
0.0
220
0.0
230
1.0
 70
     8
 71
     3
 72
    14
 73
    10
 74
     0
 42
0.0000000000819373
 43
0.0000000001
 40
0.0
 40
0.0
 40
0.0
 40
0.0
 40
0.03125
 40
0.03125
 40
0.0625
 40
0.0625
 40
0.125
 40
0.125
 40
0.1264713111506589
 40
0.1264713111506589
 40
0.1264713111506589
 40
0.1264713111506589
 10
220.4561058225154
 20
297.7201686724914
 30
0.0
 10
219.2198714401117
 20
297.4533822462739
 30
0.0
 10
218.0158450384581
 20
297.076503475335
 30
0.0
 10
215.672978969559
 20
296.0999266113965
 30
0.0
 10
214.5364130467595
 20
295.4981701616393
 30
0.0
 10
211.3648406435556
 20
293.4274865374853
 30
0.0
 10
209.4858739448083
 20
291.6369921649865
 30
0.0
 10
207.9715984161642
 20
289.5450037256425
 30
0.0
 10
207.9369731672725
 20
289.496721338423
 30
0.0
 10
207.902551617595
 20
289.4482740995162
 30
0.0
  0
SPLINE
  5
28A
330
273
100
AcDbEntity
  8
$DDT_AUDIT_GENERATED_(9A)
  6
Continuous
 62
     7
100
AcDbSpline
210
0.0
220
0.0
230
1.0
 70
     8
 71
     3
 72
    12
 73
     8
 74
     0
 42
0.00000000008186
 43
0.0000000001
 40
0.8751261399842023
 40
0.8751261399842023
 40
0.8751261399842023
 40
0.8751261399842023
 40
0.90625
 40
0.90625
 40
0.9375
 40
0.9375
 40
1.0
 40
1.0
 40
1.0
 40
1.0
 10
241.6751001520954
 20
289.5933516080932
 30
0.0
 10
240.9331322533573
 20
290.6183372527985
 30
0.0
 10
240.0912188345804
 20
291.5809410702172
 30
0.0
 10
238.2678092497048
 20
293.3194037199644
 30
0.0
 10
237.2781960300018
 20
294.1049076497783
 30
0.0
 10
234.0751762305865
 20
296.1982361385485
 30
0.0
 10
231.7264141122685
 20
297.1800945068147
 30
0.0
 10
229.2285606864208
 20
297.7195266916008
 30
0.0
  0
ARC
  5
28B
330
273
100
AcDbEntity
  8
$DDT_AUDIT_GENERATED_(9A)
  6
Continuous
 62
     7
100
AcDbCircle
 10
224.8408465691
 20
277.4047875398
 30
0.0
 40
20.78318219091472
100
AcDbArc
 50
77.812093123
 51
102.1795209016
  0
SPLINE
  5
28C
330
273
100
AcDbEntity
  8
$DDT_AUDIT_GENERATED_(9A)
  6
Continuous
 62
     7
100
AcDbSpline
210
0.0
220
0.0
230
1.0
 70
     8
 71
     3
 72
    43
 73
    39
 74
     0
 42
0.0000000001693912
 43
0.0000000001
 40
0.0
 40
0.0
 40
0.0
 40
0.0
 40
0.0170223297341697
 40
0.0320195411654627
 40
0.045128803794001
 40
0.0560946890448494
 40
0.0671323809100167
 40
0.0752515540862743
 40
0.0830559584472202
 40
0.1053184007908784
 40
0.1294947685350131
 40
0.1441360544568588
 40
0.1602846702736737
 40
0.2025815162737671
 40
0.2439790266903734
 40
0.2834283707578429
 40
0.3209797870225912
 40
0.3574712231200043
 40
0.5010345661370079
 40
0.5603626017192205
 40
0.6197059770561049
 40
0.6790750661823762
 40
0.7407771624220134
 40
0.7735350787207625
 40
0.8077709239945251
 40
0.8253427767851493
 40
0.8423435788110664
 40
0.8585379471257494
 40
0.8731205476902755
 40
0.8972655925775609
 40
0.9191157714192787
 40
0.926534216144768
 40
0.9340757142476307
 40
0.9445240087191517
 40
0.9551926806620606
 40
0.9680600739796358
 40
0.9829350040362181
 40
1.0
 40
1.0
 40
1.0
 40
1.0
 10
198.265631612738
 20
113.3863996105028
 30
0.0
 10
198.2715972627798
 20
113.1165644730033
 30
0.0
 10
198.2871476518087
 20
112.6883981563457
 30
0.0
 10
198.4435976770489
 20
112.0186180241202
 30
0.0
 10
198.666824102194
 20
111.4611855770707
 30
0.0
 10
198.9489460971003
 20
110.9716803584624
 30
0.0
 10
199.252914706162
 20
110.5688151725945
 30
0.0
 10
199.5740360650267
 20
110.2316517638626
 30
0.0
 10
200.0757406140437
 20
109.7734446437449
 30
0.0
 10
200.9004278216265
 20
109.1859343010435
 30
0.0
 10
201.9225729368009
 20
108.6093216495311
 30
0.0
 10
202.9363880606069
 20
108.1885748106734
 30
0.0
 10
204.3784364773136
 20
107.7730180036078
 30
0.0
 10
206.4348073316364
 20
107.4849285805534
 30
0.0
 10
208.9604543569491
 20
107.2035994898204
 30
0.0
 10
211.3974285009038
 20
106.9683790019487
 30
0.0
 10
213.7357781514125
 20
106.7822479533795
 30
0.0
 10
218.2246177172329
 20
106.4925803905571
 30
0.0
 10
223.1745493915917
 20
106.35
 30
0.0
 10
228.5953071800079
 20
106.4186720208272
 30
0.0
 10
232.2736058601039
 20
106.5529062331599
 30
0.0
 10
235.9964957361485
 20
106.7767162538693
 30
0.0
 10
239.1652210148999
 20
107.0447860309006
 30
0.0
 10
241.8104431662343
 20
107.3242686615764
 30
0.0
 10
243.5467963683663
 20
107.5257600936755
 30
0.0
 10
244.9533466485911
 20
107.7411431715202
 30
0.0
 10
245.9796913417534
 20
107.958877986713
 30
0.0
 10
246.9125805516977
 20
108.2494868610253
 30
0.0
 10
247.9104969225927
 20
108.687025901914
 30
0.0
 10
248.91326765487
 20
109.2692573687662
 30
0.0
 10
249.7088627813426
 20
109.8578206931949
 30
0.0
 10
250.1802159404048
 20
110.3045103766695
 30
0.0
 10
250.475398311203
 20
110.6248376849488
 30
0.0
 10
250.7580226758446
 20
111.0101027566325
 30
0.0
 10
251.0251256624211
 20
111.4852199680238
 30
0.0
 10
251.2423190341991
 20
112.0340940260189
 30
0.0
 10
251.3961125508792
 20
112.6999761156869
 30
0.0
 10
251.4104825684548
 20
113.127125750227
 30
0.0
 10
251.4157428492497
 20
113.3976999093086
 30
0.0
  0
SPLINE
  5
28D
330
273
100
AcDbEntity
  8
$DDT_AUDIT_GENERATED_(9A)
  6
Continuous
 62
     7
100
AcDbSpline
210
0.0
220
0.0
230
1.0
 70
     8
 71
     3
 72
    68
 73
    64
 74
     0
 42
0.0000000000564103
 43
0.0000000001
 40
0.0
 40
0.0
 40
0.0
 40
0.0
 40
0.0109391404345107
 40
0.0233092178429426
 40
0.034646108856923
 40
0.0447786714567432
 40
0.0539047703902328
 40
0.0613550960974106
 40
0.0684756887421496
 40
0.0764348030258741
 40
0.0853205905003985
 40
0.0954343221188443
 40
0.1066807751417545
 40
0.1178513032754349
 40
0.1279712065952085
 40
0.1368399388171397
 40
0.1442958422364502
 40
0.1502499961798661
 40
0.1603489367466417
 40
0.1710841281063425
 40
0.1824605795000894
 40
0.1944808714112156
 40
0.207853275760657
 40
0.2231456077969643
 40
0.240402585923892
 40
0.252171294358984
 40
0.2645223728744189
 40
0.2761285045671105
 40
0.2867111911245955
 40
0.2962453913804646
 40
0.3047131168193191
 40
0.3121020608840953
 40
0.3191430054461066
 40
0.3349346017211106
 40
0.3521270026766816
 40
0.3707091872304497
 40
0.3884644314527458
 40
0.407308781250818
 40
0.4271791189116018
 40
0.4472338538401651
 40
0.4672031441637859
 40
0.4871006417668869
 40
0.5141496993467226
 40
0.5411543423330901
 40
0.5681751243057093
 40
0.5952731907534446
 40
0.6225054476984092
 40
0.6562815080676674
 40
0.6894840670323326
 40
0.7221697714411631
 40
0.7543850444380891
 40
0.7899500787453514
 40
0.8248430388139868
 40
0.8587681727334817
 40
0.8916444681551403
 40
0.9029483739002215
 40
0.9141362339632455
 40
0.9262359236242971
 40
0.9397851830730051
 40
0.9548565530476724
 40
0.9712226667338296
 40
0.9892332340569692
 40
1.0
 40
1.0
 40
1.0
 40
1.0
 10
208.0080763210196
 20
289.5882778216092
 30
0.0
 10
207.7678450275416
 20
289.2489335141999
 30
0.0
 10
207.337625648484
 20
288.6382020393079
 30
0.0
 10
206.7674231319363
 20
287.6995227983473
 30
0.0
 10
206.2667414686651
 20
286.7991924297793
 30
0.0
 10
205.8477856702303
 20
285.9666376322101
 30
0.0
 10
205.5260277901235
 20
285.2666339933364
 30
0.0
 10
205.2497062552382
 20
284.6101163188015
 30
0.0
 10
205.0163827092505
 20
284.0067754432146
 30
0.0
 10
204.8111117707804
 20
283.4315652746386
 30
0.0
 10
204.6137817663927
 20
282.8306922369385
 30
0.0
 10
204.4251319253847
 20
282.2018744258504
 30
0.0
 10
204.2512221409781
 20
281.5645358916142
 30
0.0
 10
204.0957886071512
 20
280.937666873268
 30
0.0
 10
203.964700717571
 20
280.3596286307418
 30
0.0
 10
203.8597952072973
 20
279.8607338090658
 30
0.0
 10
203.7780773615144
 20
279.4470602266504
 30
0.0
 10
203.7019022211217
 20
279.0437179012763
 30
0.0
 10
203.6185231994791
 20
278.5776876666924
 30
0.0
 10
203.5183060164851
 20
277.9749657987546
 30
0.0
 10
203.4146205579982
 20
277.3004811190153
 30
0.0
 10
203.3046933153291
 20
276.522148074158
 30
0.0
 10
203.1902458681223
 20
275.6325323388056
 30
0.0
 10
203.0696649550996
 20
274.5952910313597
 30
0.0
 10
202.9596361210172
 20
273.5373048183725
 30
0.0
 10
202.8611227696202
 20
272.4938561390466
 30
0.0
 10
202.7786537491865
 20
271.5489866486083
 30
0.0
 10
202.7010471981433
 20
270.5892598280931
 30
0.0
 10
202.6315499040249
 20
269.6681351325748
 30
0.0
 10
202.5703684767015
 20
268.8058692074986
 30
0.0
 10
202.5171618334597
 20
268.0145713653197
 30
0.0
 10
202.4702329323903
 20
267.283605164284
 30
0.0
 10
202.4093100315084
 20
266.2948957018283
 30
0.0
 10
202.3299286614782
 20
264.9220362784509
 30
0.0
 10
202.2300117535839
 20
263.0323617965668
 30
0.0
 10
202.1285849790534
 20
260.9266361098401
 30
0.0
 10
202.0261888071873
 20
258.5992350137248
 30
0.0
 10
201.9233741556428
 20
256.0509737416457
 30
0.0
 10
201.8182731928656
 20
253.2122605385133
 30
0.0
 10
201.712698540016
 20
250.1177066912134
 30
0.0
 10
201.6082484606633
 20
246.8201817763134
 30
0.0
 10
201.4924184733702
 20
242.9170525198674
 30
0.0
 10
201.3647037191975
 20
238.3233423290452
 30
0.0
 10
201.223560787199
 20
232.9540358007643
 30
0.0
 10
201.0794520426421
 20
227.275044828954
 30
0.0
 10
200.9300554561057
 20
221.3051427673034
 30
0.0
 10
200.7612158063201
 20
214.5731823679572
 30
0.0
 10
200.5711753274793
 20
207.0919845618253
 30
0.0
 10
200.3589167382931
 20
198.8935196125083
 30
0.0
 10
200.1401577798892
 20
190.580970079377
 30
0.0
 10
199.9082402373616
 20
181.8524823032812
 30
0.0
 10
199.6656512832702
 20
172.7286246225481
 30
0.0
 10
199.4169401409415
 20
163.2640506774283
 30
0.0
 10
199.1763500513763
 20
153.8827811583255
 30
0.0
 10
198.9955708839132
 20
146.5736769011473
 30
0.0
 10
198.8704339403814
 20
141.3500276540854
 30
0.0
 10
198.7933263651057
 20
138.0737318713522
 30
0.0
 10
198.7125006561955
 20
134.5706873021023
 30
0.0
 10
198.6249306595003
 20
130.6844367764386
 30
0.0
 10
198.530293474587
 20
126.3639371076913
 30
0.0
 10
198.4302341705383
 20
121.6308328888008
 30
0.0
 10
198.3388715971728
 20
117.1588311742936
 30
0.0
 10
198.2887534088382
 20
114.548589678224
 30
0.0
 10
198.2666825761121
 20
113.3968220580505
 30
0.0
  0
SPLINE
  5
28E
330
273
100
AcDbEntity
  8
$DDT_AUDIT_GENERATED_(9A)
  6
Continuous
 62
     7
100
AcDbSpline
210
0.0
220
0.0
230
1.0
 70
     8
 71
     3
 72
    69
 73
    65
 74
     0
 42
0.0000000000564109
 43
0.0000000001
 40
0.0
 40
0.0
 40
0.0
 40
0.0
 40
0.0079311568072314
 40
0.0248953976267017
 40
0.0404311304416722
 40
0.0546160201754558
 40
0.0675174713558505
 40
0.0791938448513423
 40
0.0935135994612449
 40
0.1076086394816708
 40
0.121927986626182
 40
0.1364615457930588
 40
0.1718760748614538
 40
0.2083624990450393
 40
0.2456092954516068
 40
0.2778271227579973
 40
0.3105164980747627
 40
0.3437237829702151
 40
0.3775055866085574
 40
0.4047422584462264
 40
0.4318432428119194
 40
0.4588655044642615
 40
0.4858702377006829
 40
0.5129180206637471
 40
0.5382504788269041
 40
0.5637044645221515
 40
0.5891534813825253
 40
0.6131950552559241
 40
0.635472298450361
 40
0.6559672190747945
 40
0.6644157519852328
 40
0.6725142724176985
 40
0.680261730367279
 40
0.6876573739017118
 40
0.6953882262448537
 40
0.7043001104835058
 40
0.7163021348952889
 40
0.7298909362631185
 40
0.7449365524716602
 40
0.7595765040239079
 40
0.7767965641368032
 40
0.7920633587482089
 40
0.805421081763843
 40
0.8174255213836655
 40
0.8287862860663314
 40
0.8348815037968499
 40
0.8407755784846525
 40
0.8464697561906958
 40
0.8520055251693225
 40
0.8585649375906775
 40
0.8666159110149749
 40
0.8760187136729507
 40
0.8865959290476096
 40
0.8980487737773961
 40
0.9088309270384184
 40
0.9185017738937904
 40
0.9271537326259324
 40
0.934880723907601
 40
0.9419905478070859
 40
0.9513219073702552
 40
0.9621642602201892
 40
0.9742345650081722
 40
0.9877777791751918
 40
1.0
 40
1.0
 40
1.0
 40
1.0
 10
251.4150355210458
 20
113.400014291434
 30
0.0
 10
251.3988403811588
 20
114.2487115690682
 30
0.0
 10
251.3555470404568
 20
116.5140908481552
 30
0.0
 10
251.2741066940646
 20
120.5297695574179
 30
0.0
 10
251.1805465622359
 20
125.0011349886338
 30
0.0
 10
251.0917217197743
 20
129.1009998720604
 30
0.0
 10
251.0091883304382
 20
132.8069347872444
 30
0.0
 10
250.9246692270826
 20
136.5136371355399
 30
0.0
 10
250.8359125574511
 20
140.3173798356696
 30
0.0
 10
250.7395762617322
 20
144.3522292426726
 30
0.0
 10
250.6412488605755
 20
148.3860766330352
 30
0.0
 10
250.4921834087889
 20
154.3881049506451
 30
0.0
 10
250.2880769800769
 20
162.3766941879078
 30
0.0
 10
250.0280159905533
 20
172.2866043839823
 30
0.0
 10
249.7775898610473
 20
181.7068522026186
 30
0.0
 10
249.5418209620885
 20
190.5818929653447
 30
0.0
 10
249.3230746298184
 20
198.8952586465361
 30
0.0
 10
249.1108162067995
 20
207.0947408584403
 30
0.0
 10
248.9207661564502
 20
214.5769338456371
 30
0.0
 10
248.7519128145953
 20
221.3096616712687
 30
0.0
 10
248.6025033148792
 20
227.2799508179446
 30
0.0
 10
248.4583824781857
 20
232.9589490508749
 30
0.0
 10
248.3172271452453
 20
238.3279573711272
 30
0.0
 10
248.1801140026911
 20
243.2588252332212
 30
0.0
 10
248.0453196595551
 20
247.7645226381894
 30
0.0
 10
247.9118908544417
 20
251.855519993629
 30
0.0
 10
247.7785458354744
 20
255.5546631450323
 30
0.0
 10
247.6480035635686
 20
258.8037600264279
 30
0.0
 10
247.5234762864993
 20
261.5798820240184
 30
0.0
 10
247.4255664161507
 20
263.5388086937708
 30
0.0
 10
247.3533975833676
 20
264.8765975768249
 30
0.0
 10
247.3055248761609
 20
265.7251411659637
 30
0.0
 10
247.2591814736394
 20
266.511469273896
 30
0.0
 10
247.2130950205975
 20
267.2610171837272
 30
0.0
 10
247.1638344014259
 20
268.0284651218665
 30
0.0
 10
247.1037473972868
 20
268.9202227283542
 30
0.0
 10
247.0295822216365
 20
269.9541289941211
 30
0.0
 10
246.9396141555706
 20
271.1134079863139
 30
0.0
 10
246.840692315226
 20
272.2778348087836
 30
0.0
 10
246.7294818363344
 20
273.4669434851096
 30
0.0
 10
246.61247289894
 20
274.5921711724392
 30
0.0
 10
246.4921024996443
 20
275.6279342350549
 30
0.0
 10
246.3778539926018
 20
276.5164351803252
 30
0.0
 10
246.2680927745621
 20
277.2941074061589
 30
0.0
 10
246.1785672021204
 20
277.8768463407138
 30
0.0
 10
246.1063872729783
 20
278.3186719723773
 30
0.0
 10
246.0513559592578
 20
278.6415900558011
 30
0.0
 10
245.9973862445069
 20
278.9455681600656
 30
0.0
 10
245.9422624204023
 20
279.2441618518159
 30
0.0
 10
245.8728726418865
 20
279.6056940889471
 30
0.0
 10
245.782076186353
 20
280.054396330107
 30
0.0
 10
245.6667218603094
 20
280.5872607157671
 30
0.0
 10
245.5246216462156
 20
281.1921453246629
 30
0.0
 10
245.3616653604341
 20
281.8242396019032
 30
0.0
 10
245.1799826698074
 20
282.4643662877902
 30
0.0
 10
244.9865017521758
 20
283.0853848805109
 30
0.0
 10
244.782091233969
 20
283.6854832267687
 30
0.0
 10
244.5655436632001
 20
284.2712478379036
 30
0.0
 10
244.2926057609665
 20
284.9500556564259
 30
0.0
 10
243.9733204233428
 20
285.6729460089797
 30
0.0
 10
243.5540669101792
 20
286.5346083712868
 30
0.0
 10
243.0188308276352
 20
287.5212093005537
 30
0.0
 10
242.4131568479031
 20
288.5349941802621
 30
0.0
 10
241.9396405603963
 20
289.2103266311529
 30
0.0
 10
241.6726158312497
 20
289.5889322953456
 30
0.0
  0
LINE
  5
28F
330
273
100
AcDbEntity
  8
$DDT_AUDIT_GENERATED_(26B)
  6
Continuous
 62
     7
100
AcDbLine
 10
228.1908474944
 20
297.5313782919
 30
0.0
 11
221.4908474944
 21
297.5313782919
 31
0.0
  0
ENDBLK
  5
291
330
273
100
AcDbEntity
  8
0
100
AcDbBlockEnd
  0
ENDSEC
  0
SECTION
  2
ENTITIES
  0
INSERT
  5
5F
330
1F
100
AcDbEntity
  8
Default
100
AcDbBlockReference
  2
SEANNOT_GROUP
 10
0.0
 20
0.0
 30
0.0
  0
INSERT
  5
66
330
1F
100
AcDbEntity
  8
Default
100
AcDbBlockReference
  2
SEANNOT_GROUP1
 10
0.0
 20
0.0
 30
0.0
  0
INSERT
  5
6C
330
1F
100
AcDbEntity
  8
Default
100
AcDbBlockReference
  2
SEANNOT_GROUP2
 10
0.0
 20
0.0
 30
0.0
  0
INSERT
  5
76
330
1F
100
AcDbEntity
  8
Default
100
AcDbBlockReference
  2
SE
 10
0.0
 20
0.0
 30
0.0
  0
INSERT
  5
243
330
1F
100
AcDbEntity
  8
Default
100
AcDbBlockReference
  2
SE1
 10
0.0
 20
0.0
 30
0.0
  0
INSERT
  5
274
330
1F
100
AcDbEntity
  8
Default
100
AcDbBlockReference
  2
SE2
 10
0.0
 20
0.0
 30
0.0
  0
TEXT
  5
293
330
1F
100
AcDbEntity
  8
Default
  6
Continuous
 62
     7
100
AcDbText
 10
5.9362635081
 20
53.4225120485
 30
0.0
 40
10.0
  1
Grohe AG^J
  7
SEACAD_seiso_ttf
 11
5.9362635081
 21
63.4225120485
 31
0.0
100
AcDbText
 73
     3
  0
TEXT
  5
294
330
1F
100
AcDbEntity
  8
Default
  6
Continuous
 62
     7
100
AcDbText
 10
5.9362635081
 20
37.0588756849
 30
0.0
 40
10.0
  1
 
  7
SEACAD_seiso_ttf
 11
5.9362635081
 21
47.0588756849
 31
0.0
100
AcDbText
 73
     3
  0
TEXT
  5
295
330
1F
100
AcDbEntity
  8
Default
  6
Continuous
 62
     7
100
AcDbText
 10
5.9362635081
 20
20.6952393213
 30
0.0
 40
10.0
  1
ecn: 
  7
SEACAD_seiso_ttf
 11
5.9362635081
 21
30.6952393213
 31
0.0
100
AcDbText
 73
     3
  0
TEXT
  5
296
330
1F
100
AcDbEntity
  8
Default
  6
Continuous
 62
     7
100
AcDbText
 10
5.9362635081
 20
4.3316029576
 30
0.0
 40
10.0
  1
unit: mm
  7
SEACAD_seiso_ttf
 11
5.9362635081
 21
14.3316029576
 31
0.0
100
AcDbText
 73
     3
  0
LINE
  5
297
330
1F
100
AcDbEntity
  8
Default
  6
Continuous
 62
     7
100
AcDbLine
 10
0.0
 20
0.0
 30
0.0
 11
100.0
 21
0.0
 31
0.0
  0
LINE
  5
298
330
1F
100
AcDbEntity
  8
Default
  6
Continuous
 62
     7
100
AcDbLine
 10
0.0
 20
0.0
 30
0.0
 11
0.0
 21
100.0
 31
0.0
  0
TEXT
  5
299
330
1F
100
AcDbEntity
  8
Default
  6
Continuous
 62
     7
100
AcDbText
 10
24.3923665681
 20
-18.2375342018
 30
0.0
 40
10.0
  1
100 mm
  7
SEACAD_seiso_ttf
 11
24.3923665681
 21
-8.2375342018
 31
0.0
100
AcDbText
 73
     3
  0
TEXT
  5
29A
330
1F
100
AcDbEntity
  8
Default
  6
Continuous
 62
     7
100
AcDbText
 10
-7.6150308803
 20
24.6231930421
 30
0.0
 40
10.0
  1
100 mm
 50
90.0
  7
SEACAD_seiso_ttf
 11
-17.6150308803
 21
24.6231930421
 31
0.0
100
AcDbText
 73
     3
  0
TEXT
  5
29B
330
1F
100
AcDbEntity
  8
Default
  6
Continuous
 62
     7
100
AcDbText
 10
28.4878128572
 20
20.0907663715
 30
0.0
 40
10.0
  1
214619
  7
SEACAD_seiso_ttf
 11
28.4878128572
 21
30.0907663715
 31
0.0
100
AcDbText
 73
     3
  0
TEXT
  5
29C
330
1F
100
AcDbEntity
  8
Default
  6
Continuous
 62
     7
100
AcDbText
 10
5.9012241913
 20
36.7242780188
 30
0.0
 40
10.0
  1
36080000
  7
SEACAD_seiso_ttf
 11
5.9012241913
 21
46.7242780188
 31
0.0
100
AcDbText
 73
     3
  0
ENDSEC
  0
SECTION
  2
OBJECTS
  0
DICTIONARY
  5
C
330
0
100
AcDbDictionary
281
     1
  3
ACAD_GROUP
350
D
  3
ACAD_LAYOUT
350
1A
  3
ACAD_MLEADERSTYLE
350
2A0
  3
ACAD_MLINESTYLE
350
17
  3
ACAD_PLOTSETTINGS
350
19
  3
ACAD_PLOTSTYLENAME
350
E
  3
ACAD_SCALELIST
350
3B
  3
ACAD_TABLESTYLE
350
29F
  3
ACAD_VISUALSTYLE
350
2A
  3
AcDbVariableDictionary
350
29D
  0
DICTIONARY
  5
D
102
{ACAD_REACTORS
330
C
102
}
330
C
100
AcDbDictionary
281
     1
  0
DICTIONARY
  5
1A
102
{ACAD_REACTORS
330
C
102
}
330
C
100
AcDbDictionary
281
     1
  3
Layout1
350
1E
  3
Model
350
22
  0
DICTIONARY
  5
2A0
102
{ACAD_REACTORS
330
C
102
}
330
C
100
AcDbDictionary
281
     1
  0
DICTIONARY
  5
17
102
{ACAD_REACTORS
330
C
102
}
330
C
100
AcDbDictionary
281
     1
  3
Standard
350
18
  0
DICTIONARY
  5
19
102
{ACAD_REACTORS
330
C
102
}
330
C
100
AcDbDictionary
281
     1
  0
ACDBDICTIONARYWDFLT
  5
E
102
{ACAD_REACTORS
330
C
102
}
330
C
100
AcDbDictionary
281
     1
  3
Normal
350
F
100
AcDbDictionaryWithDefault
340
F
  0
DICTIONARY
  5
3B
102
{ACAD_REACTORS
330
C
102
}
330
C
100
AcDbDictionary
281
     1
  3
A0
350
3C
  3
A1
350
3D
  3
A2
350
3E
  3
A3
350
3F
  3
A4
350
40
  3
A5
350
41
  3
A6
350
42
  3
A7
350
43
  3
A8
350
44
  3
A9
350
45
  3
B0
350
46
  3
B1
350
47
  3
B2
350
48
  3
B3
350
49
  3
B4
350
4A
  3
B5
350
4B
  3
B6
350
4C
  3
B7
350
4D
  3
B8
350
4E
  3
B9
350
4F
  3
C0
350
50
  3
C1
350
51
  3
C2
350
52
  3
C3
350
53
  3
C4
350
54
  3
C5
350
55
  3
C6
350
56
  3
C7
350
57
  3
C8
350
58
  3
C9
350
59
  3
D0
350
5A
  3
D1
350
5B
  3
D2
350
5C
  0
DICTIONARY
  5
29F
102
{ACAD_REACTORS
330
C
102
}
330
C
100
AcDbDictionary
281
     1
  0
DICTIONARY
  5
2A
102
{ACAD_REACTORS
330
C
102
}
330
C
100
AcDbDictionary
281
     1
  3
2dWireframe
350
2F
  3
3D Hidden
350
31
  3
3dWireframe
350
30
  3
Basic
350
32
  3
Brighten
350
36
  3
ColorChange
350
3A
  3
Conceptual
350
34
  3
Dim
350
35
  3
Facepattern
350
39
  3
Flat
350
2B
  3
FlatWithEdges
350
2C
  3
Gouraud
350
2D
  3
GouraudWithEdges
350
2E
  3
Linepattern
350
38
  3
Realistic
350
33
  3
Thicken
350
37
  0
DICTIONARY
  5
29D
102
{ACAD_REACTORS
330
C
102
}
330
C
100
AcDbDictionary
281
     1
  3
CANNOSCALE
350
29E
  3
PSOLHEIGHT
350
2A2
  3
PSOLWIDTH
350
2A1
  0
LAYOUT
  5
1E
102
{ACAD_REACTORS
330
1A
102
}
330
1A
100
AcDbPlotSettings
  1

  2
none_device
  4

  6

 40
0.0
 41
0.0
 42
0.0
 43
0.0
 44
0.0
 45
0.0
 46
0.0
 47
0.0
 48
0.0
 49
0.0
140
0.0
141
0.0
142
1.0
143
1.0
 70
   688
 72
     0
 73
     0
 74
     5
  7

 75
    16
147
1.0
148
0.0
149
0.0
100
AcDbLayout
  1
Layout1
 70
     1
 71
     1
 10
0.0
 20
0.0
 11
1682.0
 21
2378.0
 12
0.0
 22
0.0
 32
0.0
 14
0.0
 24
0.0
 34
0.0
 15
1682.0
 25
2378.0
 35
0.0
146
0.0
 13
0.0
 23
0.0
 33
0.0
 16
1.0
 26
0.0
 36
0.0
 17
0.0
 27
1.0
 37
0.0
 76
     0
330
1B
  0
LAYOUT
  5
22
102
{ACAD_REACTORS
330
1A
102
}
330
1A
100
AcDbPlotSettings
  1

  2
none_device
  4

  6

 40
0.0
 41
0.0
 42
0.0
 43
0.0
 44
0.0
 45
0.0
 46
0.0
 47
0.0
 48
0.0
 49
0.0
140
0.0
141
0.0
142
1.0
143
1.0
 70
  1712
 72
     0
 73
     0
 74
     0
  7

 75
     0
147
1.0
148
0.0
149
0.0
100
AcDbLayout
  1
Model
 70
     1
 71
     0
 10
0.0
 20
0.0
 11
1682.0
 21
2378.0
 12
0.0
 22
0.0
 32
0.0
 14
0.0
 24
0.0
 34
0.0
 15
1682.0
 25
2378.0
 35
0.0
146
0.0
 13
0.0
 23
0.0
 33
0.0
 16
1.0
 26
0.0
 36
0.0
 17
0.0
 27
1.0
 37
0.0
 76
     0
330
1F
331
29
  0
MLINESTYLE
  5
18
102
{ACAD_REACTORS
330
17
102
}
330
17
100
AcDbMlineStyle
  2
Standard
 70
     0
  3

 62
   256
 51
90.0
 52
90.0
 71
     2
 49
0.5
 62
   256
  6
BYLAYER
 49
-0.5
 62
   256
  6
BYLAYER
  0
ACDBPLACEHOLDER
  5
F
102
{ACAD_REACTORS
330
E
102
}
330
E
  0
SCALE
  5
3C
102
{ACAD_REACTORS
330
3B
102
}
330
3B
100
AcDbScale
 70
     0
300
1:1
140
1.0
141
1.0
290
     1
  0
SCALE
  5
3D
102
{ACAD_REACTORS
330
3B
102
}
330
3B
100
AcDbScale
 70
     0
300
1:2
140
1.0
141
2.0
290
     0
  0
SCALE
  5
3E
102
{ACAD_REACTORS
330
3B
102
}
330
3B
100
AcDbScale
 70
     0
300
1:4
140
1.0
141
4.0
290
     0
  0
SCALE
  5
3F
102
{ACAD_REACTORS
330
3B
102
}
330
3B
100
AcDbScale
 70
     0
300
1:5
140
1.0
141
5.0
290
     0
  0
SCALE
  5
40
102
{ACAD_REACTORS
330
3B
102
}
330
3B
100
AcDbScale
 70
     0
300
1:8
140
1.0
141
8.0
290
     0
  0
SCALE
  5
41
102
{ACAD_REACTORS
330
3B
102
}
330
3B
100
AcDbScale
 70
     0
300
1:10
140
1.0
141
10.0
290
     0
  0
SCALE
  5
42
102
{ACAD_REACTORS
330
3B
102
}
330
3B
100
AcDbScale
 70
     0
300
1:16
140
1.0
141
16.0
290
     0
  0
SCALE
  5
43
102
{ACAD_REACTORS
330
3B
102
}
330
3B
100
AcDbScale
 70
     0
300
1:20
140
1.0
141
20.0
290
     0
  0
SCALE
  5
44
102
{ACAD_REACTORS
330
3B
102
}
330
3B
100
AcDbScale
 70
     0
300
1:30
140
1.0
141
30.0
290
     0
  0
SCALE
  5
45
102
{ACAD_REACTORS
330
3B
102
}
330
3B
100
AcDbScale
 70
     0
300
1:40
140
1.0
141
40.0
290
     0
  0
SCALE
  5
46
102
{ACAD_REACTORS
330
3B
102
}
330
3B
100
AcDbScale
 70
     0
300
1:50
140
1.0
141
50.0
290
     0
  0
SCALE
  5
47
102
{ACAD_REACTORS
330
3B
102
}
330
3B
100
AcDbScale
 70
     0
300
1:100
140
1.0
141
100.0
290
     0
  0
SCALE
  5
48
102
{ACAD_REACTORS
330
3B
102
}
330
3B
100
AcDbScale
 70
     0
300
2:1
140
2.0
141
1.0
290
     0
  0
SCALE
  5
49
102
{ACAD_REACTORS
330
3B
102
}
330
3B
100
AcDbScale
 70
     0
300
4:1
140
4.0
141
1.0
290
     0
  0
SCALE
  5
4A
102
{ACAD_REACTORS
330
3B
102
}
330
3B
100
AcDbScale
 70
     0
300
8:1
140
8.0
141
1.0
290
     0
  0
SCALE
  5
4B
102
{ACAD_REACTORS
330
3B
102
}
330
3B
100
AcDbScale
 70
     0
300
10:1
140
10.0
141
1.0
290
     0
  0
SCALE
  5
4C
102
{ACAD_REACTORS
330
3B
102
}
330
3B
100
AcDbScale
 70
     0
300
100:1
140
100.0
141
1.0
290
     0
  0
SCALE
  5
4D
102
{ACAD_REACTORS
330
3B
102
}
330
3B
100
AcDbScale
 70
     0
300
1/128" = 1'-0"
140
0.0078125
141
12.0
290
     0
  0
SCALE
  5
4E
102
{ACAD_REACTORS
330
3B
102
}
330
3B
100
AcDbScale
 70
     0
300
1/64" = 1'-0"
140
0.015625
141
12.0
290
     0
  0
SCALE
  5
4F
102
{ACAD_REACTORS
330
3B
102
}
330
3B
100
AcDbScale
 70
     0
300
1/32" = 1'-0"
140
0.03125
141
12.0
290
     0
  0
SCALE
  5
50
102
{ACAD_REACTORS
330
3B
102
}
330
3B
100
AcDbScale
 70
     0
300
1/16" = 1'-0"
140
0.0625
141
12.0
290
     0
  0
SCALE
  5
51
102
{ACAD_REACTORS
330
3B
102
}
330
3B
100
AcDbScale
 70
     0
300
3/32" = 1'-0"
140
0.09375
141
12.0
290
     0
  0
SCALE
  5
52
102
{ACAD_REACTORS
330
3B
102
}
330
3B
100
AcDbScale
 70
     0
300
1/8" = 1'-0"
140
0.125
141
12.0
290
     0
  0
SCALE
  5
53
102
{ACAD_REACTORS
330
3B
102
}
330
3B
100
AcDbScale
 70
     0
300
3/16" = 1'-0"
140
0.1875
141
12.0
290
     0
  0
SCALE
  5
54
102
{ACAD_REACTORS
330
3B
102
}
330
3B
100
AcDbScale
 70
     0
300
1/4" = 1'-0"
140
0.25
141
12.0
290
     0
  0
SCALE
  5
55
102
{ACAD_REACTORS
330
3B
102
}
330
3B
100
AcDbScale
 70
     0
300
3/8" = 1'-0"
140
0.375
141
12.0
290
     0
  0
SCALE
  5
56
102
{ACAD_REACTORS
330
3B
102
}
330
3B
100
AcDbScale
 70
     0
300
1/2" = 1'-0"
140
0.5
141
12.0
290
     0
  0
SCALE
  5
57
102
{ACAD_REACTORS
330
3B
102
}
330
3B
100
AcDbScale
 70
     0
300
3/4" = 1'-0"
140
0.75
141
12.0
290
     0
  0
SCALE
  5
58
102
{ACAD_REACTORS
330
3B
102
}
330
3B
100
AcDbScale
 70
     0
300
1" = 1'-0"
140
1.0
141
12.0
290
     0
  0
SCALE
  5
59
102
{ACAD_REACTORS
330
3B
102
}
330
3B
100
AcDbScale
 70
     0
300
1-1/2" = 1'-0"
140
1.5
141
12.0
290
     0
  0
SCALE
  5
5A
102
{ACAD_REACTORS
330
3B
102
}
330
3B
100
AcDbScale
 70
     0
300
3" = 1'-0"
140
3.0
141
12.0
290
     0
  0
SCALE
  5
5B
102
{ACAD_REACTORS
330
3B
102
}
330
3B
100
AcDbScale
 70
     0
300
6" = 1'-0"
140
6.0
141
12.0
290
     0
  0
SCALE
  5
5C
102
{ACAD_REACTORS
330
3B
102
}
330
3B
100
AcDbScale
 70
     0
300
1'-0" = 1'-0"
140
12.0
141
12.0
290
     0
  0
VISUALSTYLE
  5
2F
102
{ACAD_REACTORS
330
2A
102
}
330
2A
100
AcDbVisualStyle
  2
2dWireframe
 70
     4
 71
     0
 72
     2
 73
     0
 90
        0
 40
-0.6
 41
-30.0
 62
     5
 63
     7
 74
     1
 91
        4
 64
     7
 65
   257
 75
     1
175
     1
 42
1.0
 92
        0
 66
   257
 43
1.0
 76
     1
 77
     6
 78
     2
 67
     7
 79
     5
170
     0
171
     0
290
     0
174
     0
 93
        1
 44
0.0
173
     0
291
     0
 45
0.0
1001
ACAD
1000
AcDbSavedByObjectVersion
1070
     0
  0
VISUALSTYLE
  5
31
102
{ACAD_REACTORS
330
2A
102
}
330
2A
100
AcDbVisualStyle
  2
3D Hidden
 70
     6
 71
     1
 72
     2
 73
     2
 90
        0
 40
-0.6
 41
-30.0
 62
     5
 63
     7
 74
     2
 91
        2
 64
     7
 65
   257
 75
     2
175
     1
 42
40.0
 92
        0
 66
   257
 43
1.0
 76
     1
 77
     6
 78
     2
 67
     7
 79
     3
170
     0
171
     0
290
     0
174
     0
 93
        1
 44
0.0
173
     0
291
     0
 45
0.0
1001
ACAD
1000
AcDbSavedByObjectVersion
1070
     0
  0
VISUALSTYLE
  5
30
102
{ACAD_REACTORS
330
2A
102
}
330
2A
100
AcDbVisualStyle
  2
3dWireframe
 70
     5
 71
     0
 72
     2
 73
     0
 90
        0
 40
-0.6
 41
-30.0
 62
     5
 63
     7
 74
     1
 91
        4
 64
     7
 65
   257
 75
     1
175
     1
 42
1.0
 92
        0
 66
   257
 43
1.0
 76
     1
 77
     6
 78
     2
 67
     7
 79
     5
170
     0
171
     0
290
     0
174
     0
 93
        1
 44
0.0
173
     0
291
     0
 45
0.0
1001
ACAD
1000
AcDbSavedByObjectVersion
1070
     0
  0
VISUALSTYLE
  5
32
102
{ACAD_REACTORS
330
2A
102
}
330
2A
100
AcDbVisualStyle
  2
Basic
 70
     7
 71
     1
 72
     0
 73
     1
 90
        0
 40
-0.6
 41
-30.0
 62
     5
 63
     7
 74
     0
 91
        4
 64
     7
 65
   257
 75
     1
175
     1
 42
1.0
 92
        8
 66
     7
 43
1.0
 76
     1
 77
     6
 78
     2
 67
     7
 79
     5
170
     0
171
     0
290
     0
174
     0
 93
        1
 44
0.0
173
     0
291
     1
 45
0.0
1001
ACAD
1000
AcDbSavedByObjectVersion
1070
     0
  0
VISUALSTYLE
  5
36
102
{ACAD_REACTORS
330
2A
102
}
330
2A
100
AcDbVisualStyle
  2
Brighten
 70
    12
 71
     2
 72
     2
 73
     0
 90
        0
 40
-0.6
 41
-30.0
 62
     5
 63
     7
 74
     1
 91
        4
 64
     7
 65
   257
 75
     1
175
     1
 42
1.0
 92
        8
 66
     7
 43
1.0
 76
     1
 77
     6
 78
     2
 67
     7
 79
     5
170
     0
171
     0
290
     0
174
     0
 93
        1
 44
50.0
173
     0
291
     1
 45
0.0
1001
ACAD
1000
AcDbSavedByObjectVersion
1070
     0
  0
VISUALSTYLE
  5
3A
102
{ACAD_REACTORS
330
2A
102
}
330
2A
100
AcDbVisualStyle
  2
ColorChange
 70
    16
 71
     2
 72
     2
 73
     3
 90
        0
 40
-0.6
 41
-30.0
 62
     5
 63
     8
 74
     1
 91
        4
 64
     7
 65
   257
 75
     1
175
     1
 42
1.0
 92
        8
 66
     8
 43
1.0
 76
     1
 77
     6
 78
     2
 67
     7
 79
     5
170
     0
171
     0
290
     0
174
     0
 93
        1
 44
0.0
173
     0
291
     1
 45
0.0
1001
ACAD
1000
AcDbSavedByObjectVersion
1070
     0
  0
VISUALSTYLE
  5
34
102
{ACAD_REACTORS
330
2A
102
}
330
2A
100
AcDbVisualStyle
  2
Conceptual
 70
     9
 71
     3
 72
     2
 73
     0
 90
        0
 40
-0.6
 41
-30.0
 62
     5
 63
     7
 74
     2
 91
        2
 64
     7
 65
   257
 75
     1
175
     1
 42
40.0
 92
        8
 66
     7
 43
1.0
 76
     1
 77
     6
 78
     2
 67
     7
 79
     3
170
     0
171
     0
290
     0
174
     0
 93
        1
 44
0.0
173
     0
291
     0
 45
0.0
1001
ACAD
1000
AcDbSavedByObjectVersion
1070
     0
  0
VISUALSTYLE
  5
35
102
{ACAD_REACTORS
330
2A
102
}
330
2A
100
AcDbVisualStyle
  2
Dim
 70
    11
 71
     2
 72
     2
 73
     0
 90
        0
 40
-0.6
 41
-30.0
 62
     5
 63
     7
 74
     1
 91
        4
 64
     7
 65
   257
 75
     1
175
     1
 42
1.0
 92
        8
 66
     7
 43
1.0
 76
     1
 77
     6
 78
     2
 67
     7
 79
     5
170
     0
171
     0
290
     0
174
     0
 93
        1
 44
-50.0
173
     0
291
     1
 45
0.0
1001
ACAD
1000
AcDbSavedByObjectVersion
1070
     0
  0
VISUALSTYLE
  5
39
102
{ACAD_REACTORS
330
2A
102
}
330
2A
100
AcDbVisualStyle
  2
Facepattern
 70
    15
 71
     2
 72
     2
 73
     0
 90
        0
 40
-0.6
 41
-30.0
 62
     5
 63
     7
 74
     1
 91
        4
 64
     7
 65
   257
 75
     1
175
     1
 42
1.0
 92
        8
 66
     7
 43
1.0
 76
     1
 77
     6
 78
     2
 67
     7
 79
     5
170
     0
171
     0
290
     0
174
     0
 93
        1
 44
0.0
173
     0
291
     1
 45
0.0
1001
ACAD
1000
AcDbSavedByObjectVersion
1070
     0
  0
VISUALSTYLE
  5
2B
102
{ACAD_REACTORS
330
2A
102
}
330
2A
100
AcDbVisualStyle
  2
Flat
 70
     0
 71
     2
 72
     1
 73
     1
 90
        2
 40
-0.6
 41
30.0
 62
     5
 63
     7
 74
     0
 91
        4
 64
     7
 65
   257
 75
     1
175
     1
 42
1.0
 92
        8
 66
     7
 43
1.0
 76
     1
 77
     6
 78
     2
 67
     7
 79
     5
170
     0
171
     0
290
     0
174
     0
 93
       13
 44
0.0
173
     0
291
     1
 45
0.0
1001
ACAD
1000
AcDbSavedByObjectVersion
1070
     0
  0
VISUALSTYLE
  5
2C
102
{ACAD_REACTORS
330
2A
102
}
330
2A
100
AcDbVisualStyle
  2
FlatWithEdges
 70
     1
 71
     2
 72
     1
 73
     1
 90
        2
 40
-0.6
 41
30.0
 62
     5
 63
     7
 74
     1
 91
        4
 64
     7
 65
   257
 75
     1
175
     1
 42
1.0
 92
        0
 66
   257
 43
1.0
 76
     1
 77
     6
 78
     2
 67
     7
 79
     5
170
     0
171
     0
290
     0
174
     0
 93
       13
 44
0.0
173
     0
291
     1
 45
0.0
1001
ACAD
1000
AcDbSavedByObjectVersion
1070
     0
  0
VISUALSTYLE
  5
2D
102
{ACAD_REACTORS
330
2A
102
}
330
2A
100
AcDbVisualStyle
  2
Gouraud
 70
     2
 71
     2
 72
     2
 73
     1
 90
        2
 40
-0.6
 41
30.0
 62
     5
 63
     7
 74
     0
 91
        4
 64
     7
 65
   257
 75
     1
175
     1
 42
1.0
 92
        0
 66
     7
 43
1.0
 76
     1
 77
     6
 78
     2
 67
     7
 79
     5
170
     0
171
     0
290
     0
174
     0
 93
       13
 44
0.0
173
     0
291
     1
 45
0.0
1001
ACAD
1000
AcDbSavedByObjectVersion
1070
     0
  0
VISUALSTYLE
  5
2E
102
{ACAD_REACTORS
330
2A
102
}
330
2A
100
AcDbVisualStyle
  2
GouraudWithEdges
 70
     3
 71
     2
 72
     2
 73
     1
 90
        2
 40
-0.6
 41
30.0
 62
     5
 63
     7
 74
     1
 91
        4
 64
     7
 65
   257
 75
     1
175
     1
 42
1.0
 92
        0
 66
   257
 43
1.0
 76
     1
 77
     6
 78
     2
 67
     7
 79
     5
170
     0
171
     0
290
     0
174
     0
 93
       13
 44
0.0
173
     0
291
     1
 45
0.0
1001
ACAD
1000
AcDbSavedByObjectVersion
1070
     0
  0
VISUALSTYLE
  5
38
102
{ACAD_REACTORS
330
2A
102
}
330
2A
100
AcDbVisualStyle
  2
Linepattern
 70
    14
 71
     2
 72
     2
 73
     0
 90
        0
 40
-0.6
 41
-30.0
 62
     5
 63
     7
 74
     1
 91
        4
 64
     7
 65
   257
 75
     7
175
     7
 42
1.0
 92
        8
 66
     7
 43
1.0
 76
     1
 77
     6
 78
     2
 67
     7
 79
     5
170
     0
171
     0
290
     0
174
     0
 93
        1
 44
0.0
173
     0
291
     1
 45
0.0
1001
ACAD
1000
AcDbSavedByObjectVersion
1070
     0
  0
VISUALSTYLE
  5
33
102
{ACAD_REACTORS
330
2A
102
}
330
2A
100
AcDbVisualStyle
  2
Realistic
 70
     8
 71
     2
 72
     2
 73
     0
 90
        0
 40
-0.6
 41
-30.0
 62
     5
 63
     7
 74
     1
 91
        0
 64
     7
 65
   257
 75
     1
175
     1
 42
1.0
 92
        8
 66
     8
 43
1.0
 76
     1
 77
     6
 78
     2
 67
     7
 79
     5
170
     0
171
     0
290
     0
174
     0
 93
       13
 44
0.0
173
     0
291
     0
 45
0.0
1001
ACAD
1000
AcDbSavedByObjectVersion
1070
     0
  0
VISUALSTYLE
  5
37
102
{ACAD_REACTORS
330
2A
102
}
330
2A
100
AcDbVisualStyle
  2
Thicken
 70
    13
 71
     2
 72
     2
 73
     0
 90
        0
 40
-0.6
 41
-30.0
 62
     5
 63
     7
 74
     1
 91
        4
 64
     7
 65
   257
 75
     1
175
     1
 42
1.0
 92
       12
 66
     7
 43
1.0
 76
     1
 77
     6
 78
     2
 67
     7
 79
     5
170
     0
171
     0
290
     0
174
     0
 93
        1
 44
0.0
173
     0
291
     1
 45
0.0
1001
ACAD
1000
AcDbSavedByObjectVersion
1070
     0
  0
DICTIONARYVAR
  5
29E
102
{ACAD_REACTORS
330
29D
102
}
330
29D
100
DictionaryVariables
280
     0
  1
1:1
  0
DICTIONARYVAR
  5
2A2
102
{ACAD_REACTORS
330
29D
102
}
330
29D
100
DictionaryVariables
280
     0
  1
80.000000
  0
DICTIONARYVAR
  5
2A1
102
{ACAD_REACTORS
330
29D
102
}
330
29D
100
DictionaryVariables
280
     0
  1
5.000000
  0
ENDSEC
  0
EOF
