  0
SECTION
  2
HEADER
  9
$ACADVER
  1
AC1015
  9
$ACADMAINTVER
 70
     6
  9
$DWGCODEPAGE
  3
ANSI_1252
  9
$INSBASE
 10
0.0
 20
0.0
 30
0.0
  9
$EXTMIN
 10
0.0
 20
0.0
 30
0.0
  9
$EXTMAX
 10
1682.0
 20
2378.0
 30
0.0
  9
$LIMMIN
 10
0.0
 20
0.0
  9
$LIMMAX
 10
1682.0
 20
2378.0
  9
$ORTHOMODE
 70
     0
  9
$REGENMODE
 70
     1
  9
$FILLMODE
 70
     1
  9
$QTEXTMODE
 70
     0
  9
$MIRRTEXT
 70
     1
  9
$LTSCALE
 40
1.0
  9
$ATTMODE
 70
     1
  9
$TEXTSIZE
 40
2.5
  9
$TRACEWID
 40
1.0
  9
$TEXTSTYLE
  7
Standard
  9
$CLAYER
  8
0
  9
$CELTYPE
  6
ByLayer
  9
$CECOLOR
 62
   256
  9
$CELTSCALE
 40
1.0
  9
$DISPSILH
 70
     0
  9
$DIMSCALE
 40
1.0
  9
$DIMASZ
 40
2.5
  9
$DIMEXO
 40
0.625
  9
$DIMDLI
 40
3.75
  9
$DIMRND
 40
0.0
  9
$DIMDLE
 40
0.0
  9
$DIMEXE
 40
1.25
  9
$DIMTP
 40
0.0
  9
$DIMTM
 40
0.0
  9
$DIMTXT
 40
2.5
  9
$DIMCEN
 40
2.5
  9
$DIMTSZ
 40
0.0
  9
$DIMTOL
 70
     0
  9
$DIMLIM
 70
     0
  9
$DIMTIH
 70
     0
  9
$DIMTOH
 70
     0
  9
$DIMSE1
 70
     0
  9
$DIMSE2
 70
     0
  9
$DIMTAD
 70
     1
  9
$DIMZIN
 70
     8
  9
$DIMBLK
  1

  9
$DIMASO
 70
     1
  9
$DIMSHO
 70
     1
  9
$DIMPOST
  1

  9
$DIMAPOST
  1

  9
$DIMALT
 70
     0
  9
$DIMALTD
 70
     3
  9
$DIMALTF
 40
0.0393700787
  9
$DIMLFAC
 40
1.0
  9
$DIMTOFL
 70
     1
  9
$DIMTVP
 40
0.0
  9
$DIMTIX
 70
     0
  9
$DIMSOXD
 70
     0
  9
$DIMSAH
 70
     0
  9
$DIMBLK1
  1

  9
$DIMBLK2
  1

  9
$DIMSTYLE
  2
ISO-25
  9
$DIMCLRD
 70
     0
  9
$DIMCLRE
 70
     0
  9
$DIMCLRT
 70
     0
  9
$DIMTFAC
 40
1.0
  9
$DIMGAP
 40
0.625
  9
$DIMJUST
 70
     0
  9
$DIMSD1
 70
     0
  9
$DIMSD2
 70
     0
  9
$DIMTOLJ
 70
     0
  9
$DIMTZIN
 70
     8
  9
$DIMALTZ
 70
     0
  9
$DIMALTTZ
 70
     0
  9
$DIMUPT
 70
     0
  9
$DIMDEC
 70
     2
  9
$DIMTDEC
 70
     2
  9
$DIMALTU
 70
     2
  9
$DIMALTTD
 70
     3
  9
$DIMTXSTY
  7
Standard
  9
$DIMAUNIT
 70
     0
  9
$DIMADEC
 70
     0
  9
$DIMALTRND
 40
0.0
  9
$DIMAZIN
 70
     0
  9
$DIMDSEP
 70
    44
  9
$DIMATFIT
 70
     3
  9
$DIMFRAC
 70
     0
  9
$DIMLDRBLK
  1

  9
$DIMLUNIT
 70
     2
  9
$DIMLWD
 70
    -2
  9
$DIMLWE
 70
    -2
  9
$DIMTMOVE
 70
     0
  9
$LUNITS
 70
     2
  9
$LUPREC
 70
     4
  9
$SKETCHINC
 40
1.0
  9
$FILLETRAD
 40
10.0
  9
$AUNITS
 70
     0
  9
$AUPREC
 70
     0
  9
$MENU
  1
.
  9
$ELEVATION
 40
0.0
  9
$PELEVATION
 40
0.0
  9
$THICKNESS
 40
0.0
  9
$LIMCHECK
 70
     0
  9
$CHAMFERA
 40
10.0
  9
$CHAMFERB
 40
10.0
  9
$CHAMFERC
 40
20.0
  9
$CHAMFERD
 40
0.0
  9
$SKPOLY
 70
     0
  9
$TDCREATE
 40
2455518.347843241
  9
$TDUCREATE
 40
2455518.306176574
  9
$TDUPDATE
 40
2455518.347843252
  9
$TDUUPDATE
 40
2455518.306176586
  9
$TDINDWG
 40
0.0000000116
  9
$TDUSRTIMER
 40
0.0000000116
  9
$USRTIMER
 70
     1
  9
$ANGBASE
 50
0.0
  9
$ANGDIR
 70
     0
  9
$PDMODE
 70
     0
  9
$PDSIZE
 40
0.0
  9
$PLINEWID
 40
0.0
  9
$SPLFRAME
 70
     0
  9
$SPLINETYPE
 70
     6
  9
$SPLINESEGS
 70
     8
  9
$HANDSEED
  5
2C8
  9
$SURFTAB1
 70
     6
  9
$SURFTAB2
 70
     6
  9
$SURFTYPE
 70
     6
  9
$SURFU
 70
     6
  9
$SURFV
 70
     6
  9
$UCSBASE
  2

  9
$UCSNAME
  2

  9
$UCSORG
 10
0.0
 20
0.0
 30
0.0
  9
$UCSXDIR
 10
1.0
 20
0.0
 30
0.0
  9
$UCSYDIR
 10
0.0
 20
1.0
 30
0.0
  9
$UCSORTHOREF
  2

  9
$UCSORTHOVIEW
 70
     0
  9
$UCSORGTOP
 10
0.0
 20
0.0
 30
0.0
  9
$UCSORGBOTTOM
 10
0.0
 20
0.0
 30
0.0
  9
$UCSORGLEFT
 10
0.0
 20
0.0
 30
0.0
  9
$UCSORGRIGHT
 10
0.0
 20
0.0
 30
0.0
  9
$UCSORGFRONT
 10
0.0
 20
0.0
 30
0.0
  9
$UCSORGBACK
 10
0.0
 20
0.0
 30
0.0
  9
$PUCSBASE
  2

  9
$PUCSNAME
  2

  9
$PUCSORG
 10
0.0
 20
0.0
 30
0.0
  9
$PUCSXDIR
 10
1.0
 20
0.0
 30
0.0
  9
$PUCSYDIR
 10
0.0
 20
1.0
 30
0.0
  9
$PUCSORTHOREF
  2

  9
$PUCSORTHOVIEW
 70
     0
  9
$PUCSORGTOP
 10
0.0
 20
0.0
 30
0.0
  9
$PUCSORGBOTTOM
 10
0.0
 20
0.0
 30
0.0
  9
$PUCSORGLEFT
 10
0.0
 20
0.0
 30
0.0
  9
$PUCSORGRIGHT
 10
0.0
 20
0.0
 30
0.0
  9
$PUCSORGFRONT
 10
0.0
 20
0.0
 30
0.0
  9
$PUCSORGBACK
 10
0.0
 20
0.0
 30
0.0
  9
$USERI1
 70
     0
  9
$USERI2
 70
     0
  9
$USERI3
 70
     0
  9
$USERI4
 70
     0
  9
$USERI5
 70
     0
  9
$USERR1
 40
0.0
  9
$USERR2
 40
0.0
  9
$USERR3
 40
0.0
  9
$USERR4
 40
0.0
  9
$USERR5
 40
0.0
  9
$WORLDVIEW
 70
     1
  9
$SHADEDGE
 70
     3
  9
$SHADEDIF
 70
    70
  9
$TILEMODE
 70
     1
  9
$MAXACTVP
 70
    64
  9
$PINSBASE
 10
0.0
 20
0.0
 30
0.0
  9
$PLIMCHECK
 70
     0
  9
$PEXTMIN
 10
0.0
 20
0.0
 30
0.0
  9
$PEXTMAX
 10
1682.0
 20
2378.0
 30
0.0
  9
$PLIMMIN
 10
0.0
 20
0.0
  9
$PLIMMAX
 10
1682.0
 20
2378.0
  9
$UNITMODE
 70
     0
  9
$VISRETAIN
 70
     1
  9
$PLINEGEN
 70
     0
  9
$PSLTSCALE
 70
     1
  9
$TREEDEPTH
 70
  3020
  9
$CMLSTYLE
  2
Standard
  9
$CMLJUST
 70
     0
  9
$CMLSCALE
 40
20.0
  9
$PROXYGRAPHICS
 70
     1
  9
$MEASUREMENT
 70
     1
  9
$CELWEIGHT
370
    -1
  9
$ENDCAPS
280
     0
  9
$JOINSTYLE
280
     0
  9
$LWDISPLAY
290
     0
  9
$INSUNITS
 70
     4
  9
$HYPERLINKBASE
  1

  9
$STYLESHEET
  1

  9
$XEDIT
290
     1
  9
$CEPSNTYPE
380
     0
  9
$PSTYLEMODE
290
     1
  9
$FINGERPRINTGUID
  2
{BFA6D817-735F-4244-8299-5AE62C007E7C}
  9
$VERSIONGUID
  2
{FAEB1C32-E019-11D5-929B-00C0DF256EC4}
  9
$EXTNAMES
290
     1
  9
$PSVPSCALE
 40
0.0
  9
$OLESTARTUP
290
     0
  0
ENDSEC
  0
SECTION
  2
CLASSES
  0
CLASS
  1
ACDBDICTIONARYWDFLT
  2
AcDbDictionaryWithDefault
  3
ObjectDBX Classes
 90
        0
280
     0
281
     0
  0
CLASS
  1
VISUALSTYLE
  2
AcDbVisualStyle
  3
ObjectDBX Classes
 90
     4095
280
     0
281
     0
  0
CLASS
  1
SCALE
  2
AcDbScale
  3
ObjectDBX Classes
 90
     1153
280
     0
281
     0
  0
CLASS
  1
DICTIONARYVAR
  2
AcDbDictionaryVar
  3
ObjectDBX Classes
 90
        0
280
     0
281
     0
  0
CLASS
  1
ACDBPLACEHOLDER
  2
AcDbPlaceHolder
  3
ObjectDBX Classes
 90
        0
280
     0
281
     0
  0
CLASS
  1
LAYOUT
  2
AcDbLayout
  3
ObjectDBX Classes
 90
        0
280
     0
281
     0
  0
ENDSEC
  0
SECTION
  2
TABLES
  0
TABLE
  2
VPORT
  5
8
330
0
100
AcDbSymbolTable
 70
     1
  0
VPORT
  5
29
330
8
100
AcDbSymbolTableRecord
100
AcDbViewportTableRecord
  2
*Active
 70
     0
 10
0.0
 20
0.0
 11
1.0
 21
1.0
 12
344.1869158879
 22
148.5
 13
0.0
 23
0.0
 14
10.0
 24
10.0
 15
10.0
 25
10.0
 16
0.0
 26
0.0
 36
1.0
 17
0.0
 27
0.0
 37
0.0
 40
297.0
 41
1.9729729729
 42
50.0
 43
0.0
 44
0.0
 50
0.0
 51
0.0
 71
     0
 72
   100
 73
     1
 74
     3
 75
     0
 76
     0
 77
     0
 78
     0
281
     0
 65
     1
110
0.0
120
0.0
130
0.0
111
1.0
121
0.0
131
0.0
112
0.0
122
1.0
132
0.0
 79
     0
146
0.0
  0
ENDTAB
  0
TABLE
  2
LTYPE
  5
5
330
0
100
AcDbSymbolTable
 70
     2
  0
LTYPE
  5
14
330
5
100
AcDbSymbolTableRecord
100
AcDbLinetypeTableRecord
  2
ByBlock
 70
     0
  3

 72
    65
 73
     0
 40
0.0
  0
LTYPE
  5
15
330
5
100
AcDbSymbolTableRecord
100
AcDbLinetypeTableRecord
  2
ByLayer
 70
     0
  3

 72
    65
 73
     0
 40
0.0
  0
LTYPE
  5
16
330
5
100
AcDbSymbolTableRecord
100
AcDbLinetypeTableRecord
  2
Continuous
 70
     0
  3
Solid line
 72
    65
 73
     0
 40
0.0
  0
LTYPE
  5
60
330
5
100
AcDbSymbolTableRecord
100
AcDbLinetypeTableRecord
  2
CENTER2
 70
     0
  3
Center (.5x) ___ _ ___ _ ___ _ ___ _ ___ _ ___
 72
    65
 73
     4
 40
28.575
 49
19.05
 74
     4
 75
     0
340
0
 46
0.0
 50
0.0
 44
0.0
 45
0.0
 49
-3.175
 74
     4
 75
     0
340
0
 46
0.0
 50
0.0
 44
0.0
 45
0.0
 49
3.175
 74
     4
 75
     0
340
0
 46
0.0
 50
0.0
 44
0.0
 45
0.0
 49
-3.175
 74
     4
 75
     0
340
0
 46
0.0
 50
0.0
 44
0.0
 45
0.0
  0
ENDTAB
  0
TABLE
  2
LAYER
  5
2
330
0
100
AcDbSymbolTable
 70
    13
  0
LAYER
  5
10
330
2
100
AcDbSymbolTableRecord
100
AcDbLayerTableRecord
  2
0
 70
     0
 62
     7
  6
Continuous
370
    -3
390
F
  0
LAYER
  5
5D
330
2
100
AcDbSymbolTableRecord
100
AcDbLayerTableRecord
  2
Default
 70
     0
 62
     7
  6
Continuous
370
    -3
390
F
  0
LAYER
  5
87
330
2
100
AcDbSymbolTableRecord
100
AcDbLayerTableRecord
  2
$DDT_AUDIT_GENERATED_(87)
 70
     0
 62
     7
  6
Continuous
370
    -3
390
F
  0
LAYER
  5
98
330
2
100
AcDbSymbolTableRecord
100
AcDbLayerTableRecord
  2
$DDT_AUDIT_GENERATED_(98)
 70
     0
 62
     7
  6
Continuous
370
    -3
390
F
  0
LAYER
  5
9D
330
2
100
AcDbSymbolTableRecord
100
AcDbLayerTableRecord
  2
$DDT_AUDIT_GENERATED_(9D)
 70
     0
 62
     7
  6
Continuous
370
    -3
390
F
  0
LAYER
  5
A2
330
2
100
AcDbSymbolTableRecord
100
AcDbLayerTableRecord
  2
$DDT_AUDIT_GENERATED_(A2)
 70
     0
 62
     7
  6
Continuous
370
    -3
390
F
  0
LAYER
  5
DE
330
2
100
AcDbSymbolTableRecord
100
AcDbLayerTableRecord
  2
$DDT_AUDIT_GENERATED_(DE)
 70
     0
 62
     7
  6
Continuous
370
    -3
390
F
  0
LAYER
  5
E8
330
2
100
AcDbSymbolTableRecord
100
AcDbLayerTableRecord
  2
$DDT_AUDIT_GENERATED_(E8)
 70
     0
 62
     7
  6
Continuous
370
    -3
390
F
  0
LAYER
  5
ED
330
2
100
AcDbSymbolTableRecord
100
AcDbLayerTableRecord
  2
$DDT_AUDIT_GENERATED_(ED)
 70
     0
 62
     7
  6
Continuous
370
    -3
390
F
  0
LAYER
  5
125
330
2
100
AcDbSymbolTableRecord
100
AcDbLayerTableRecord
  2
$DDT_AUDIT_GENERATED_(125)
 70
     0
 62
     7
  6
Continuous
370
    -3
390
F
  0
LAYER
  5
12B
330
2
100
AcDbSymbolTableRecord
100
AcDbLayerTableRecord
  2
$DDT_AUDIT_GENERATED_(12B)
 70
     0
 62
     7
  6
Continuous
370
    -3
390
F
  0
LAYER
  5
137
330
2
100
AcDbSymbolTableRecord
100
AcDbLayerTableRecord
  2
$DDT_AUDIT_GENERATED_(137)
 70
     0
 62
     7
  6
Continuous
370
    -3
390
F
  0
LAYER
  5
21E
330
2
100
AcDbSymbolTableRecord
100
AcDbLayerTableRecord
  2
DV2_Default
 70
     0
 62
     7
  6
Continuous
370
    -3
390
F
  0
ENDTAB
  0
TABLE
  2
STYLE
  5
3
330
0
100
AcDbSymbolTable
 70
     2
  0
STYLE
  5
11
330
3
100
AcDbSymbolTableRecord
100
AcDbTextStyleTableRecord
  2
Standard
 70
     0
 40
0.0
 41
1.0
 50
0.0
 71
     0
 42
2.5
  3
txt
  4

  0
STYLE
  5
2B7
330
3
100
AcDbSymbolTableRecord
100
AcDbTextStyleTableRecord
  2
SEACAD_seiso_ttf
 70
     0
 40
0.0
 41
1.0
 50
0.0
 71
     0
 42
0.2
  3
seiso.ttf
  4

  0
ENDTAB
  0
TABLE
  2
VIEW
  5
6
330
0
100
AcDbSymbolTable
 70
     0
  0
ENDTAB
  0
TABLE
  2
UCS
  5
7
330
0
100
AcDbSymbolTable
 70
     0
  0
ENDTAB
  0
TABLE
  2
APPID
  5
9
330
0
100
AcDbSymbolTable
 70
     1
  0
APPID
  5
12
330
9
100
AcDbSymbolTableRecord
100
AcDbRegAppTableRecord
  2
ACAD
 70
     0
  0
ENDTAB
  0
TABLE
  2
DIMSTYLE
  5
A
330
0
100
AcDbSymbolTable
 70
     1
100
AcDbDimStyleTable
  0
DIMSTYLE
105
27
330
A
100
AcDbSymbolTableRecord
100
AcDbDimStyleTableRecord
  2
ISO-25
 70
     0
 41
2.5
 42
0.625
 43
3.75
 44
1.25
 73
     0
 74
     0
 77
     1
 78
     8
140
2.5
141
2.5
143
0.0393700787
147
0.625
171
     3
172
     1
271
     2
272
     2
274
     3
278
    44
283
     0
284
     8
340
11
  0
ENDTAB
  0
TABLE
  2
BLOCK_RECORD
  5
1
330
0
100
AcDbSymbolTable
 70
     9
  0
BLOCK_RECORD
  5
1F
330
1
100
AcDbSymbolTableRecord
100
AcDbBlockTableRecord
  2
*Model_Space
340
22
  0
BLOCK_RECORD
  5
1B
330
1
100
AcDbSymbolTableRecord
100
AcDbBlockTableRecord
  2
*Paper_Space
340
1E
  0
BLOCK_RECORD
  5
5E
330
1
100
AcDbSymbolTableRecord
100
AcDbBlockTableRecord
  2
SEANNOT_GROUP
340
0
102
{BLKREFS
331
5F
102
}
  0
BLOCK_RECORD
  5
69
330
1
100
AcDbSymbolTableRecord
100
AcDbBlockTableRecord
  2
SEANNOT_GROUP1
340
0
102
{BLKREFS
331
6A
102
}
  0
BLOCK_RECORD
  5
73
330
1
100
AcDbSymbolTableRecord
100
AcDbBlockTableRecord
  2
SEANNOT_GROUP2
340
0
102
{BLKREFS
331
74
102
}
  0
BLOCK_RECORD
  5
79
330
1
100
AcDbSymbolTableRecord
100
AcDbBlockTableRecord
  2
SEANNOT_GROUP3
340
0
102
{BLKREFS
331
7A
102
}
  0
BLOCK_RECORD
  5
7F
330
1
100
AcDbSymbolTableRecord
100
AcDbBlockTableRecord
  2
SEANNOT_GROUP4
340
0
102
{BLKREFS
331
80
102
}
  0
BLOCK_RECORD
  5
85
330
1
100
AcDbSymbolTableRecord
100
AcDbBlockTableRecord
  2
SE
340
0
102
{BLKREFS
331
86
102
}
  0
BLOCK_RECORD
  5
15E
330
1
100
AcDbSymbolTableRecord
100
AcDbBlockTableRecord
  2
SE1
340
0
102
{BLKREFS
331
15F
102
}
  0
BLOCK_RECORD
  5
223
330
1
100
AcDbSymbolTableRecord
100
AcDbBlockTableRecord
  2
SE2
340
0
102
{BLKREFS
331
224
102
}
  0
ENDTAB
  0
ENDSEC
  0
SECTION
  2
BLOCKS
  0
BLOCK
  5
20
330
1F
100
AcDbEntity
  8
0
100
AcDbBlockBegin
  2
*Model_Space
 70
     0
 10
0.0
 20
0.0
 30
0.0
  3
*Model_Space
  1

  0
ENDBLK
  5
21
330
1F
100
AcDbEntity
  8
0
100
AcDbBlockEnd
  0
BLOCK
  5
1C
330
1B
100
AcDbEntity
 67
     1
  8
0
100
AcDbBlockBegin
  2
*Paper_Space
 70
     0
 10
0.0
 20
0.0
 30
0.0
  3
*Paper_Space
  1

  0
ENDBLK
  5
1D
330
1B
100
AcDbEntity
 67
     1
  8
0
100
AcDbBlockEnd
  0
BLOCK
  5
67
330
5E
100
AcDbEntity
  8
0
100
AcDbBlockBegin
  2
SEANNOT_GROUP
 70
     0
 10
0.0
 20
0.0
 30
0.0
  3
SEANNOT_GROUP
  1

  0
LINE
  5
61
330
5E
100
AcDbEntity
  8
Default
  6
CENTER2
 62
     7
100
AcDbLine
 10
182.9288274513
 20
404.8142262685
 30
0.0
 11
142.9288283454
 21
404.8142262685
 31
0.0
  0
LINE
  5
62
330
5E
100
AcDbEntity
  8
Default
  6
CENTER2
 62
     7
100
AcDbLine
 10
162.9288278984
 20
424.8142258215
 30
0.0
 11
162.9288278984
 21
384.8142267156
 31
0.0
  0
LINE
  5
63
330
5E
100
AcDbEntity
  8
Default
  6
CENTER2
 62
     7
100
AcDbLine
 10
187.9288273396
 20
404.8142262685
 30
0.0
 11
193.1788278984
 21
404.8142262685
 31
0.0
  0
LINE
  5
64
330
5E
100
AcDbEntity
  8
Default
  6
CENTER2
 62
     7
100
AcDbLine
 10
162.9288278984
 20
429.8142257098
 30
0.0
 11
162.9288278984
 21
435.0642262685
 31
0.0
  0
LINE
  5
65
330
5E
100
AcDbEntity
  8
Default
  6
CENTER2
 62
     7
100
AcDbLine
 10
137.9288284572
 20
404.8142262685
 30
0.0
 11
132.6788278984
 21
404.8142262685
 31
0.0
  0
LINE
  5
66
330
5E
100
AcDbEntity
  8
Default
  6
CENTER2
 62
     7
100
AcDbLine
 10
162.9288278984
 20
379.8142268273
 30
0.0
 11
162.9288278984
 21
374.5642262685
 31
0.0
  0
ENDBLK
  5
68
330
5E
100
AcDbEntity
  8
0
100
AcDbBlockEnd
  0
BLOCK
  5
71
330
69
100
AcDbEntity
  8
0
100
AcDbBlockBegin
  2
SEANNOT_GROUP1
 70
     0
 10
0.0
 20
0.0
 30
0.0
  3
SEANNOT_GROUP1
  1

  0
LINE
  5
6B
330
69
100
AcDbEntity
  8
Default
  6
CENTER2
 62
     7
100
AcDbLine
 10
182.9288274513
 20
489.8142262685
 30
0.0
 11
142.9288283454
 21
489.8142262685
 31
0.0
  0
LINE
  5
6C
330
69
100
AcDbEntity
  8
Default
  6
CENTER2
 62
     7
100
AcDbLine
 10
162.9288278984
 20
509.8142258215
 30
0.0
 11
162.9288278984
 21
469.8142267156
 31
0.0
  0
LINE
  5
6D
330
69
100
AcDbEntity
  8
Default
  6
CENTER2
 62
     7
100
AcDbLine
 10
187.9288273396
 20
489.8142262685
 30
0.0
 11
193.1788278984
 21
489.8142262685
 31
0.0
  0
LINE
  5
6E
330
69
100
AcDbEntity
  8
Default
  6
CENTER2
 62
     7
100
AcDbLine
 10
162.9288278984
 20
514.8142257098
 30
0.0
 11
162.9288278984
 21
520.0642262685
 31
0.0
  0
LINE
  5
6F
330
69
100
AcDbEntity
  8
Default
  6
CENTER2
 62
     7
100
AcDbLine
 10
137.9288284572
 20
489.8142262685
 30
0.0
 11
132.6788278984
 21
489.8142262685
 31
0.0
  0
LINE
  5
70
330
69
100
AcDbEntity
  8
Default
  6
CENTER2
 62
     7
100
AcDbLine
 10
162.9288278984
 20
464.8142268273
 30
0.0
 11
162.9288278984
 21
459.5642262685
 31
0.0
  0
ENDBLK
  5
72
330
69
100
AcDbEntity
  8
0
100
AcDbBlockEnd
  0
BLOCK
  5
77
330
73
100
AcDbEntity
  8
0
100
AcDbBlockBegin
  2
SEANNOT_GROUP2
 70
     0
 10
0.0
 20
0.0
 30
0.0
  3
SEANNOT_GROUP2
  1

  0
LINE
  5
75
330
73
100
AcDbEntity
  8
Default
  6
CENTER2
 62
     7
100
AcDbLine
 10
380.6993775654
 20
404.8142262685
 30
0.0
 11
340.6993784595
 21
404.8142262685
 31
0.0
  0
LINE
  5
76
330
73
100
AcDbEntity
  8
Default
  6
CENTER2
 62
     7
100
AcDbLine
 10
360.6993780125
 20
424.8142258215
 30
0.0
 11
360.6993780125
 21
384.8142267156
 31
0.0
  0
ENDBLK
  5
78
330
73
100
AcDbEntity
  8
0
100
AcDbBlockEnd
  0
BLOCK
  5
7D
330
79
100
AcDbEntity
  8
0
100
AcDbBlockBegin
  2
SEANNOT_GROUP3
 70
     0
 10
0.0
 20
0.0
 30
0.0
  3
SEANNOT_GROUP3
  1

  0
LINE
  5
7B
330
79
100
AcDbEntity
  8
Default
  6
CENTER2
 62
     7
100
AcDbLine
 10
380.6993775654
 20
489.8142262685
 30
0.0
 11
340.6993784595
 21
489.8142262685
 31
0.0
  0
LINE
  5
7C
330
79
100
AcDbEntity
  8
Default
  6
CENTER2
 62
     7
100
AcDbLine
 10
360.6993780125
 20
509.8142258215
 30
0.0
 11
360.6993780125
 21
469.8142267156
 31
0.0
  0
ENDBLK
  5
7E
330
79
100
AcDbEntity
  8
0
100
AcDbBlockEnd
  0
BLOCK
  5
83
330
7F
100
AcDbEntity
  8
0
100
AcDbBlockBegin
  2
SEANNOT_GROUP4
 70
     0
 10
0.0
 20
0.0
 30
0.0
  3
SEANNOT_GROUP4
  1

  0
LINE
  5
81
330
7F
100
AcDbEntity
  8
Default
  6
CENTER2
 62
     7
100
AcDbLine
 10
182.9288274513
 20
224.9091260186
 30
0.0
 11
142.9288283454
 21
224.9091260186
 31
0.0
  0
LINE
  5
82
330
7F
100
AcDbEntity
  8
Default
  6
CENTER2
 62
     7
100
AcDbLine
 10
162.9288278984
 20
244.9091255716
 30
0.0
 11
162.9288278984
 21
204.9091264657
 31
0.0
  0
ENDBLK
  5
84
330
7F
100
AcDbEntity
  8
0
100
AcDbBlockEnd
  0
BLOCK
  5
15C
330
85
100
AcDbEntity
  8
0
100
AcDbBlockBegin
  2
SE
 70
     0
 10
0.0
 20
0.0
 30
0.0
  3
SE
  1

  0
LINE
  5
88
330
85
100
AcDbEntity
  8
$DDT_AUDIT_GENERATED_(87)
  6
Continuous
 62
     7
100
AcDbLine
 10
246.6288278984
 20
345.3142262685
 30
0.0
 11
79.2288278984
 21
345.3142262685
 31
0.0
  0
LINE
  5
89
330
85
100
AcDbEntity
  8
$DDT_AUDIT_GENERATED_(87)
  6
Continuous
 62
     7
100
AcDbLine
 10
77.4288278984
 20
347.1142262685
 30
0.0
 11
77.4288278984
 21
540.0142262685
 31
0.0
  0
LINE
  5
8A
330
85
100
AcDbEntity
  8
$DDT_AUDIT_GENERATED_(87)
  6
Continuous
 62
     7
100
AcDbLine
 10
79.2288278984
 20
541.8142262685
 30
0.0
 11
246.6288278984
 21
541.8142262685
 31
0.0
  0
LINE
  5
8B
330
85
100
AcDbEntity
  8
$DDT_AUDIT_GENERATED_(87)
  6
Continuous
 62
     7
100
AcDbLine
 10
248.4288278984
 20
540.0142262685
 30
0.0
 11
248.4288278984
 21
347.1142262685
 31
0.0
  0
ARC
  5
8C
330
85
100
AcDbEntity
  8
$DDT_AUDIT_GENERATED_(87)
  6
Continuous
 62
     7
100
AcDbCircle
 10
246.6288278984
 20
540.0142262685
 30
0.0
 40
1.799999999999996
100
AcDbArc
 50
0.0
 51
90.0
  0
ARC
  5
8D
330
85
100
AcDbEntity
  8
$DDT_AUDIT_GENERATED_(87)
  6
Continuous
 62
     7
100
AcDbCircle
 10
79.2288278984
 20
540.0142262685
 30
0.0
 40
1.799999999999996
100
AcDbArc
 50
90.0
 51
180.0
  0
ARC
  5
8E
330
85
100
AcDbEntity
  8
$DDT_AUDIT_GENERATED_(87)
  6
Continuous
 62
     7
100
AcDbCircle
 10
246.6288278984
 20
347.1142262685
 30
0.0
 40
1.799999999999996
100
AcDbArc
 50
270.0
 51
0.0
  0
ARC
  5
8F
330
85
100
AcDbEntity
  8
$DDT_AUDIT_GENERATED_(87)
  6
Continuous
 62
     7
100
AcDbCircle
 10
79.2288278984
 20
347.1142262685
 30
0.0
 40
1.799999999999996
100
AcDbArc
 50
180.0
 51
270.0
  0
ARC
  5
90
330
85
100
AcDbEntity
  8
$DDT_AUDIT_GENERATED_(87)
  6
Continuous
 62
     7
100
AcDbCircle
 10
162.9288278984
 20
404.8142262685
 30
0.0
 40
26.75
100
AcDbArc
 50
0.0
 51
72.4984750718
  0
ARC
  5
91
330
85
100
AcDbEntity
  8
$DDT_AUDIT_GENERATED_(87)
  6
Continuous
 62
     7
100
AcDbCircle
 10
162.9288278984
 20
404.8142262685
 30
0.0
 40
26.75
100
AcDbArc
 50
107.4979580534
 51
192.5029621921
  0
ARC
  5
92
330
85
100
AcDbEntity
  8
$DDT_AUDIT_GENERATED_(87)
  6
Continuous
 62
     7
100
AcDbCircle
 10
162.9288278984
 20
404.8142262685
 30
0.0
 40
26.75
100
AcDbArc
 50
227.5025025779
 51
312.4992269598
  0
ARC
  5
93
330
85
100
AcDbEntity
  8
$DDT_AUDIT_GENERATED_(87)
  6
Continuous
 62
     7
100
AcDbCircle
 10
162.9288278984
 20
404.8142262685
 30
0.0
 40
26.75
100
AcDbArc
 50
347.4988751449
 51
360.0
  0
ARC
  5
94
330
85
100
AcDbEntity
  8
$DDT_AUDIT_GENERATED_(87)
  6
Continuous
 62
     7
100
AcDbCircle
 10
162.9288278984
 20
489.8142262685
 30
0.0
 40
26.75
100
AcDbArc
 50
0.0
 51
72.5002214192
  0
ARC
  5
95
330
85
100
AcDbEntity
  8
$DDT_AUDIT_GENERATED_(87)
  6
Continuous
 62
     7
100
AcDbCircle
 10
162.9288278984
 20
489.8142262685
 30
0.0
 40
26.75
100
AcDbArc
 50
107.4997785808
 51
192.5002214192
  0
ARC
  5
96
330
85
100
AcDbEntity
  8
$DDT_AUDIT_GENERATED_(87)
  6
Continuous
 62
     7
100
AcDbCircle
 10
162.9288278984
 20
489.8142262685
 30
0.0
 40
26.75
100
AcDbArc
 50
227.4997785808
 51
312.5002214192
  0
ARC
  5
97
330
85
100
AcDbEntity
  8
$DDT_AUDIT_GENERATED_(87)
  6
Continuous
 62
     7
100
AcDbCircle
 10
162.9288278984
 20
489.8142262685
 30
0.0
 40
26.75
100
AcDbArc
 50
347.4997785808
 51
0.0
  0
ARC
  5
99
330
85
100
AcDbEntity
  8
$DDT_AUDIT_GENERATED_(98)
  6
Continuous
 62
     7
100
AcDbCircle
 10
162.9288278984
 20
404.8142262685
 30
0.0
 40
26.25
100
AcDbArc
 50
347.8644038975
 51
0.0
  0
ARC
  5
9A
330
85
100
AcDbEntity
  8
$DDT_AUDIT_GENERATED_(98)
  6
Continuous
 62
     7
100
AcDbCircle
 10
162.9288278984
 20
404.8142262685
 30
0.0
 40
26.25
100
AcDbArc
 50
227.8681084087
 51
312.1336578798
  0
ARC
  5
9B
330
85
100
AcDbEntity
  8
$DDT_AUDIT_GENERATED_(98)
  6
Continuous
 62
     7
100
AcDbCircle
 10
162.9288278984
 20
404.8142262685
 30
0.0
 40
26.25
100
AcDbArc
 50
107.8634673196
 51
192.1374724792
  0
ARC
  5
9C
330
85
100
AcDbEntity
  8
$DDT_AUDIT_GENERATED_(98)
  6
Continuous
 62
     7
100
AcDbCircle
 10
162.9288278984
 20
404.8142262685
 30
0.0
 40
26.25
100
AcDbArc
 50
0.0
 51
72.1328900151
  0
ARC
  5
9E
330
85
100
AcDbEntity
  8
$DDT_AUDIT_GENERATED_(9D)
  6
Continuous
 62
     7
100
AcDbCircle
 10
162.9288278984
 20
404.8142262685
 30
0.0
 40
25.71922359359559
100
AcDbArc
 50
0.0
 51
71.7283195564
  0
ARC
  5
9F
330
85
100
AcDbEntity
  8
$DDT_AUDIT_GENERATED_(9D)
  6
Continuous
 62
     7
100
AcDbCircle
 10
162.9288278984
 20
404.8142262685
 30
0.0
 40
25.71922359359559
100
AcDbArc
 50
108.2679535193
 51
191.7330080175
  0
ARC
  5
A0
330
85
100
AcDbEntity
  8
$DDT_AUDIT_GENERATED_(9D)
  6
Continuous
 62
     7
100
AcDbCircle
 10
162.9288278984
 20
404.8142262685
 30
0.0
 40
25.71922359359559
100
AcDbArc
 50
228.2727019628
 51
311.729105183
  0
ARC
  5
A1
330
85
100
AcDbEntity
  8
$DDT_AUDIT_GENERATED_(9D)
  6
Continuous
 62
     7
100
AcDbCircle
 10
162.9288278984
 20
404.8142262685
 30
0.0
 40
25.71922359359559
100
AcDbArc
 50
348.2689117609
 51
0.0
  0
ARC
  5
A3
330
85
100
AcDbEntity
  8
$DDT_AUDIT_GENERATED_(A2)
  6
Continuous
 62
     7
100
AcDbCircle
 10
142.929648515
 20
416.3602726521
 30
0.0
 40
12.5
100
AcDbArc
 50
300.0
 51
360.0
  0
LINE
  5
A4
330
85
100
AcDbEntity
  8
$DDT_AUDIT_GENERATED_(A2)
  6
Continuous
 62
     7
100
AcDbLine
 10
149.179648515
 20
405.5349551048
 30
0.0
 11
140.4227238778
 21
400.4791423083
 31
0.0
  0
ARC
  5
A5
330
85
100
AcDbEntity
  8
$DDT_AUDIT_GENERATED_(A2)
  6
Continuous
 62
     7
100
AcDbCircle
 10
162.9296176352
 20
381.7193099861
 30
0.0
 40
12.49999999999999
100
AcDbArc
 50
60.0
 51
120.0
  0
ARC
  5
A6
330
85
100
AcDbEntity
  8
$DDT_AUDIT_GENERATED_(A2)
  6
Continuous
 62
     7
100
AcDbCircle
 10
182.9295867554
 20
416.3602726521
 30
0.0
 40
12.5
100
AcDbArc
 50
180.0
 51
240.0
  0
LINE
  5
A7
330
85
100
AcDbEntity
  8
$DDT_AUDIT_GENERATED_(A2)
  6
Continuous
 62
     7
100
AcDbLine
 10
170.4295867554
 20
416.3602726521
 30
0.0
 11
170.4295867554
 21
426.4718982453
 31
0.0
  0
LINE
  5
A8
330
85
100
AcDbEntity
  8
$DDT_AUDIT_GENERATED_(A2)
  6
Continuous
 62
     7
100
AcDbLine
 10
169.1796176352
 20
392.5446275334
 30
0.0
 11
177.9365422725
 21
387.4888147368
 31
0.0
  0
ARC
  5
A9
330
85
100
AcDbEntity
  8
$DDT_AUDIT_GENERATED_(A2)
  6
Continuous
 62
     7
100
AcDbCircle
 10
162.9296176352
 20
404.8132850968
 30
0.0
 40
28.10217298590242
100
AcDbArc
 50
100.2601587312
 51
105.0384736948
  0
ELLIPSE
  5
AA
330
85
100
AcDbEntity
  8
$DDT_AUDIT_GENERATED_(A2)
  6
Continuous
 62
     7
100
AcDbEllipse
 10
193.1302842187
 20
352.5041887116
 30
0.0
 11
-1124.365653198353
 21
-649.1528128022219
 31
0.0
210
0.0
220
0.0
230
0.9999999999999999
 40
0.0523359493
 41
-1.561902322297419
 42
-1.554624908075238
  0
ELLIPSE
  5
AB
330
85
100
AcDbEntity
  8
$DDT_AUDIT_GENERATED_(A2)
  6
Continuous
 62
     7
100
AcDbEllipse
 10
193.1302903447
 20
457.1223767545
 30
0.0
 11
1124.365644881427
 21
-649.1528075134688
 31
0.0
210
0.0
220
0.0
230
1.0
 40
0.0523359489
 41
-1.561902322411381
 42
-1.554624908139145
  0
ELLIPSE
  5
AC
330
85
100
AcDbEntity
  8
$DDT_AUDIT_GENERATED_(A2)
  6
Continuous
 62
     7
100
AcDbEllipse
 10
102.5282790845
 20
404.8132890518
 30
0.0
 11
0.0
 21
68.9195616477048
 31
0.0
210
0.0
220
0.0
230
1.0
 40
1.0
 41
-1.402459512350568
 42
-1.271085444213059
  0
SPLINE
  5
AD
330
85
100
AcDbEntity
  8
$DDT_AUDIT_GENERATED_(A2)
  6
Continuous
 62
     7
100
AcDbSpline
210
0.0
220
0.0
230
1.0
 70
     8
 71
     3
 72
    10
 73
     6
 74
     0
 42
0.0000000164907823
 43
0.0000000001
 40
0.0
 40
0.0
 40
0.0
 40
0.0
 40
0.5
 40
0.5
 40
1.0
 40
1.0
 40
1.0
 40
1.0
 10
154.5162635218509
 20
427.2902838413721
 30
0.0
 10
154.6103312677167
 20
427.3254942920915
 30
0.0
 10
154.691633356593
 20
427.3885136858105
 30
0.0
 10
154.8065168793069
 20
427.550816446223
 30
0.0
 10
154.8391283970877
 20
427.6493627246147
 30
0.0
 10
154.8408813455547
 20
427.7497890750308
 30
0.0
  0
LINE
  5
AE
330
85
100
AcDbEntity
  8
$DDT_AUDIT_GENERATED_(A2)
  6
Continuous
 62
     7
100
AcDbLine
 10
139.0216543712
 20
400.3500842191
 30
0.0
 11
136.231147759
 21
398.6733786886
 31
0.0
  0
ARC
  5
AF
330
85
100
AcDbEntity
  8
$DDT_AUDIT_GENERATED_(A2)
  6
Continuous
 62
     7
100
AcDbCircle
 10
162.9296176352
 20
404.8132850968
 30
0.0
 40
24.0
100
AcDbArc
 50
110.521352102
 51
189.478647898
  0
SPLINE
  5
B0
330
85
100
AcDbEntity
  8
$DDT_AUDIT_GENERATED_(A2)
  6
Continuous
 62
     7
100
AcDbSpline
210
0.0
220
0.0
230
1.0
 70
     8
 71
     3
 72
    10
 73
     6
 74
     0
 42
0.0000000164907823
 43
0.0000000001
 40
0.0
 40
0.0
 40
0.0
 40
0.0
 40
0.5
 40
0.5
 40
1.0
 40
1.0
 40
1.0
 40
1.0
 10
139.0216543712424
 20
400.3500842190579
 30
0.0
 10
139.1077496333973
 20
400.4018154715716
 30
0.0
 10
139.1762345474692
 20
400.4785702120435
 30
0.0
 10
139.2596842740608
 20
400.6590599706461
 30
0.0
 10
139.2738293996282
 20
400.7618937953318
 30
0.0
 10
139.2572886649108
 20
400.8609641177359
 30
0.0
  0
SPLINE
  5
B1
330
85
100
AcDbEntity
  8
$DDT_AUDIT_GENERATED_(A2)
  6
Continuous
 62
     7
100
AcDbSpline
210
0.0
220
0.0
230
1.0
 70
     8
 71
     3
 72
    10
 73
     6
 74
     0
 42
0.0000000164907823
 43
0.0000000001
 40
0.0
 40
0.0
 40
0.0
 40
0.0
 40
0.5
 40
0.5
 40
1.0
 40
1.0
 40
1.0
 40
1.0
 10
147.6706427782766
 20
386.2886073313177
 30
0.0
 10
147.593115760542
 20
386.3524671635546
 30
0.0
 10
147.4978883202122
 20
386.3913671410427
 30
0.0
 10
147.2998882452337
 20
386.4097078099829
 30
0.0
 10
147.1982389058077
 20
386.3886770736412
 30
0.0
 10
147.1103906609044
 20
386.3399819963371
 30
0.0
  0
SPLINE
  5
B2
330
85
100
AcDbEntity
  8
$DDT_AUDIT_GENERATED_(A2)
  6
Continuous
 62
     7
100
AcDbSpline
210
0.0
220
0.0
230
1.0
 70
     8
 71
     3
 72
    10
 73
     6
 74
     0
 42
0.0000000164907823
 43
0.0000000001
 40
0.0
 40
0.0
 40
0.0
 40
0.0
 40
0.5
 40
0.5
 40
1.0
 40
1.0
 40
1.0
 40
1.0
 10
186.6019466055225
 20
400.8609641177358
 30
0.0
 10
186.5854058773913
 20
400.7618938347796
 30
0.0
 10
186.5993312288449
 20
400.6599744635725
 30
0.0
 10
186.6824477811095
 20
400.4793310342197
 30
0.0
 10
186.7514856027547
 20
400.4018154921698
 30
0.0
 10
186.837580899191
 20
400.3500842190577
 30
0.0
  0
LINE
  5
B3
330
85
100
AcDbEntity
  8
$DDT_AUDIT_GENERATED_(A2)
  6
Continuous
 62
     7
100
AcDbLine
 10
178.7488446095
 20
386.3399819963
 30
0.0
 11
181.5961674996
 21
384.7616851459
 31
0.0
  0
ARC
  5
B4
330
85
100
AcDbEntity
  8
$DDT_AUDIT_GENERATED_(A2)
  6
Continuous
 62
     7
100
AcDbCircle
 10
162.9296176352
 20
404.8132850968
 30
0.0
 40
24.0
100
AcDbArc
 50
230.521352102
 51
309.478647898
  0
SPLINE
  5
B5
330
85
100
AcDbEntity
  8
$DDT_AUDIT_GENERATED_(A2)
  6
Continuous
 62
     7
100
AcDbSpline
210
0.0
220
0.0
230
1.0
 70
     8
 71
     3
 72
    10
 73
     6
 74
     0
 42
0.0000000164907823
 43
0.0000000001
 40
0.0
 40
0.0
 40
0.0
 40
0.0
 40
0.5000000000000043
 40
0.5000000000000043
 40
1.0
 40
1.0
 40
1.0
 40
1.0
 10
178.7488446095289
 20
386.339981996337
 30
0.0
 10
178.660996399605
 20
386.3886770542518
 30
0.0
 10
178.5602823874594
 20
386.4096093593782
 30
0.0
 10
178.3622488080909
 20
386.391634063244
 30
0.0
 10
178.2661195407611
 20
386.3524671889823
 30
0.0
 10
178.1885924921567
 20
386.2886073313177
 30
0.0
  0
LINE
  5
B6
330
85
100
AcDbEntity
  8
$DDT_AUDIT_GENERATED_(A2)
  6
Continuous
 62
     7
100
AcDbLine
 10
171.0183539249
 20
427.749789075
 30
0.0
 11
170.961537647
 21
431.0047914558
 31
0.0
  0
ARC
  5
B7
330
85
100
AcDbEntity
  8
$DDT_AUDIT_GENERATED_(A2)
  6
Continuous
 62
     7
100
AcDbCircle
 10
162.9296176352
 20
404.8132850968
 30
0.0
 40
24.0
100
AcDbArc
 50
350.521352102
 51
69.478647898
  0
SPLINE
  5
B8
330
85
100
AcDbEntity
  8
$DDT_AUDIT_GENERATED_(A2)
  6
Continuous
 62
     7
100
AcDbSpline
210
0.0
220
0.0
230
1.0
 70
     8
 71
     3
 72
    10
 73
     6
 74
     0
 42
0.0000000164907823
 43
0.0000000001
 40
0.0
 40
0.0
 40
0.0
 40
0.0
 40
0.5
 40
0.5
 40
1.0
 40
1.0
 40
1.0
 40
1.0
 10
171.0183539248787
 20
427.7497890750308
 30
0.0
 10
171.0201068726477
 20
427.6493627646023
 30
0.0
 10
171.0523359707213
 20
427.551675719004
 30
0.0
 10
171.1669198234983
 20
427.3891612565356
 30
0.0
 10
171.2489039652607
 20
427.3254943061116
 30
0.0
 10
171.3429717485824
 20
427.2902838413721
 30
0.0
  0
ARC
  5
B9
330
85
100
AcDbEntity
  8
$DDT_AUDIT_GENERATED_(A2)
  6
Continuous
 62
     7
100
AcDbCircle
 10
162.9296176352
 20
404.8132850968
 30
0.0
 40
28.10217298590242
100
AcDbArc
 50
194.9615263052
 51
225.0384736948
  0
SPLINE
  5
BA
330
85
100
AcDbEntity
  8
$DDT_AUDIT_GENERATED_(A2)
  6
Continuous
 62
     7
100
AcDbSpline
210
0.0
220
0.0
230
1.0
 70
     8
 71
     3
 72
    10
 73
     6
 74
     0
 42
0.0000000076150316
 43
0.0000000001
 40
0.0
 40
0.0
 40
0.0
 40
0.0
 40
0.5
 40
0.5
 40
1.0
 40
1.0
 40
1.0
 40
1.0
 10
135.7801250738664
 20
397.5581365669182
 30
0.0
 10
135.7240895065241
 20
397.7678272731063
 30
0.0
 10
135.7380482345728
 20
397.9902449553875
 30
0.0
 10
135.8997906133213
 20
398.3909189970549
 30
0.0
 10
136.0451005796011
 20
398.5615902652436
 30
0.0
 10
136.2311477590312
 20
398.6733786886442
 30
0.0
  0
LINE
  5
BB
330
85
100
AcDbEntity
  8
$DDT_AUDIT_GENERATED_(A2)
  6
Continuous
 62
     7
100
AcDbLine
 10
144.2630677708
 20
384.7616851459
 30
0.0
 11
147.1103906609
 21
386.3399819963
 31
0.0
  0
SPLINE
  5
BC
330
85
100
AcDbEntity
  8
$DDT_AUDIT_GENERATED_(A2)
  6
Continuous
 62
     7
100
AcDbSpline
210
0.0
220
0.0
230
1.0
 70
     8
 71
     3
 72
    10
 73
     6
 74
     0
 42
0.0000000076150316
 43
0.0000000001
 40
0.0
 40
0.0
 40
0.0
 40
0.0
 40
0.5
 40
0.5
 40
1.0
 40
1.0
 40
1.0
 40
1.0
 10
144.2630677707946
 20
384.7616851459406
 30
0.0
 10
144.0732326219959
 20
384.6564578046776
 30
0.0
 10
143.8540718596162
 20
384.6160470175874
 30
0.0
 10
143.4261303293001
 20
384.6757657866735
 30
0.0
 10
143.225308159096
 20
384.7753354810564
 30
0.0
 10
143.071728419427
 20
384.9287091037679
 30
0.0
  0
LINE
  5
BD
330
85
100
AcDbEntity
  8
$DDT_AUDIT_GENERATED_(A2)
  6
Continuous
 62
     7
100
AcDbLine
 10
189.6280875114
 20
398.6733786886
 30
0.0
 11
186.8375808992
 21
400.3500842191
 31
0.0
  0
SPLINE
  5
BE
330
85
100
AcDbEntity
  8
$DDT_AUDIT_GENERATED_(A2)
  6
Continuous
 62
     7
100
AcDbSpline
210
0.0
220
0.0
230
1.0
 70
     8
 71
     3
 72
    10
 73
     6
 74
     0
 42
0.0000000076150316
 43
0.0000000001
 40
0.0
 40
0.0
 40
0.0
 40
0.0
 40
0.5
 40
0.5
 40
1.0
 40
1.0
 40
1.0
 40
1.0
 10
189.6280875114022
 20
398.673378688644
 30
0.0
 10
189.814134636508
 20
398.5615902978847
 30
0.0
 10
189.9587117859048
 20
398.3919969036962
 30
0.0
 10
190.1209645799516
 20
397.9915292825649
 30
0.0
 10
190.135145780271
 20
397.7678273343336
 30
0.0
 10
190.0791101965669
 20
397.558136566918
 30
0.0
  0
ARC
  5
BF
330
85
100
AcDbEntity
  8
$DDT_AUDIT_GENERATED_(A2)
  6
Continuous
 62
     7
100
AcDbCircle
 10
162.9296176352
 20
404.8132850968
 30
0.0
 40
28.10217298590241
100
AcDbArc
 50
314.9615263052
 51
345.0384736948
  0
SPLINE
  5
C0
330
85
100
AcDbEntity
  8
$DDT_AUDIT_GENERATED_(A2)
  6
Continuous
 62
     7
100
AcDbSpline
210
0.0
220
0.0
230
1.0
 70
     8
 71
     3
 72
    10
 73
     6
 74
     0
 42
0.0000000076150316
 43
0.0000000001
 40
0.0
 40
0.0
 40
0.0
 40
0.0
 40
0.5
 40
0.5
 40
1.0
 40
1.0
 40
1.0
 40
1.0
 10
182.7875068510062
 20
384.9287091037679
 30
0.0
 10
182.633927156181
 20
384.7753355258399
 30
0.0
 10
182.4343284290503
 20
384.6762152977939
 30
0.0
 10
182.006463340955
 20
384.6159512858249
 30
0.0
 10
181.7860027038677
 20
384.656457773952
 30
0.0
 10
181.5961674996386
 20
384.7616851459405
 30
0.0
  0
ARC
  5
C1
330
85
100
AcDbEntity
  8
$DDT_AUDIT_GENERATED_(A2)
  6
Continuous
 62
     7
100
AcDbCircle
 10
165.3141702773
 20
419.7642098232
 30
0.0
 40
12.88866085639017
100
AcDbArc
 50
77.3113930421
 51
78.249508065
  0
ARC
  5
C2
330
85
100
AcDbEntity
  8
$DDT_AUDIT_GENERATED_(A2)
  6
Continuous
 62
     7
100
AcDbCircle
 10
162.9296176352
 20
404.8132850968
 30
0.0
 40
28.10217298590241
100
AcDbArc
 50
74.9615263052
 51
79.7256973043
  0
SPLINE
  5
C3
330
85
100
AcDbEntity
  8
$DDT_AUDIT_GENERATED_(A2)
  6
Continuous
 62
     7
100
AcDbSpline
210
0.0
220
0.0
230
1.0
 70
     8
 71
     3
 72
    10
 73
     6
 74
     0
 42
0.0000000076150316
 43
0.0000000001
 40
0.0
 40
0.0
 40
0.0
 40
0.0
 40
0.5
 40
0.5
 40
1.0
 40
1.0
 40
1.0
 40
1.0
 10
170.2212209807773
 20
431.9530096197398
 30
0.0
 10
170.4308362429449
 20
431.8966924914797
 30
0.0
 10
170.6164762420269
 20
431.7733950372444
 30
0.0
 10
170.8825989513737
 20
431.4329850075459
 30
0.0
 10
170.9577496221812
 20
431.2218072512302
 30
0.0
 10
170.9615376469801
 20
431.004791455841
 30
0.0
  0
LINE
  5
C4
330
85
100
AcDbEntity
  8
$DDT_AUDIT_GENERATED_(A2)
  6
Continuous
 62
     7
100
AcDbLine
 10
157.714042039
 20
432.3381069003
 30
0.0
 11
157.7175854245
 21
431.9320751457
 31
0.0
  0
ARC
  5
C5
330
85
100
AcDbEntity
  8
$DDT_AUDIT_GENERATED_(A2)
  6
Continuous
 62
     7
100
AcDbCircle
 10
160.191259091
 20
421.6859654482
 30
0.0
 40
10.93639437103796
100
AcDbArc
 50
101.9357955127
 51
103.0917647476
  0
LINE
  5
C6
330
85
100
AcDbEntity
  8
$DDT_AUDIT_GENERATED_(A2)
  6
Continuous
 62
     7
100
AcDbLine
 10
154.8976976235
 20
431.0047914558
 30
0.0
 11
154.8408813456
 21
427.749789075
 31
0.0
  0
SPLINE
  5
C7
330
85
100
AcDbEntity
  8
$DDT_AUDIT_GENERATED_(A2)
  6
Continuous
 62
     7
100
AcDbSpline
210
0.0
220
0.0
230
1.0
 70
     8
 71
     3
 72
    10
 73
     6
 74
     0
 42
0.0000000076150316
 43
0.0000000001
 40
0.0
 40
0.0
 40
0.0
 40
0.0
 40
0.5000000000000007
 40
0.5000000000000007
 40
1.0
 40
1.0
 40
1.0
 40
1.0
 10
154.8976976234533
 20
431.004791455841
 30
0.0
 10
154.9014856471462
 20
431.2218071878634
 30
0.0
 10
154.976069260129
 20
431.4318113691421
 30
0.0
 10
155.2417579963984
 20
431.7725602211872
 30
0.0
 10
155.4283989662831
 20
431.8966924750356
 30
0.0
 10
155.6380142896561
 20
431.9530096197398
 30
0.0
  0
ELLIPSE
  5
C8
330
85
100
AcDbEntity
  8
$DDT_AUDIT_GENERATED_(A2)
  6
Continuous
 62
     7
100
AcDbEllipse
 10
132.7289435645
 20
457.1223770321
 30
0.0
 11
-1124.365652512899
 21
-649.1528118597328
 31
0.0
210
0.0
220
0.0
230
0.9999999999999999
 40
0.0523359492
 41
1.554624909063329
 42
1.561902323281102
  0
ELLIPSE
  5
C9
330
85
100
AcDbEntity
  8
$DDT_AUDIT_GENERATED_(A2)
  6
Continuous
 62
     7
100
AcDbEllipse
 10
223.3309570552
 20
404.8132901064
 30
0.0
 11
0.0
 21
71.10908068907079
 31
0.0
210
0.0
220
0.0
230
1.0
 40
1.0
 41
1.271085461991507
 42
1.402459529548943
  0
ELLIPSE
  5
CA
330
85
100
AcDbEntity
  8
$DDT_AUDIT_GENERATED_(A2)
  6
Continuous
 62
     7
100
AcDbEllipse
 10
132.7289531924
 20
352.5041891803
 30
0.0
 11
1124.365640897935
 21
-649.1528058420432
 31
0.0
210
0.0
220
0.0
230
1.0
 40
0.0523359487
 41
1.55462490916328
 42
1.561902323459345
  0
LINE
  5
CB
330
85
100
AcDbEntity
  8
$DDT_AUDIT_GENERATED_(A2)
  6
Continuous
 62
     7
100
AcDbLine
 10
147.922692998
 20
387.4888147368
 30
0.0
 11
156.6796176352
 21
392.5446275334
 31
0.0
  0
LINE
  5
CC
330
85
100
AcDbEntity
  8
$DDT_AUDIT_GENERATED_(A2)
  6
Continuous
 62
     7
100
AcDbLine
 10
147.922692998
 20
387.4888147368
 30
0.0
 11
147.850796494
 21
387.4476091807
 31
0.0
  0
ARC
  5
CD
330
85
100
AcDbEntity
  8
$DDT_AUDIT_GENERATED_(A2)
  6
Continuous
 62
     7
100
AcDbCircle
 10
147.9927790328
 20
387.1832809726
 30
0.0
 40
0.3000474011157811
100
AcDbArc
 50
118.2422403207
 51
221.4180807424
  0
ARC
  5
CE
330
85
100
AcDbEntity
  8
$DDT_AUDIT_GENERATED_(A2)
  6
Continuous
 62
     7
100
AcDbCircle
 10
140.1931678234
 20
400.6926080553
 30
0.0
 40
0.3000491040155903
100
AcDbArc
 50
198.5823293483
 51
301.7573495881
  0
LINE
  5
CF
330
85
100
AcDbEntity
  8
$DDT_AUDIT_GENERATED_(A2)
  6
Continuous
 62
     7
100
AcDbLine
 10
140.3510905674
 20
400.4374808874
 30
0.0
 11
140.4227238778
 21
400.4791423083
 31
0.0
  0
LINE
  5
D0
330
85
100
AcDbEntity
  8
$DDT_AUDIT_GENERATED_(A2)
  6
Continuous
 62
     7
100
AcDbLine
 10
155.429648515
 20
426.4718982453
 30
0.0
 11
155.429648515
 21
416.3602726521
 31
0.0
  0
LINE
  5
D1
330
85
100
AcDbEntity
  8
$DDT_AUDIT_GENERATED_(A2)
  6
Continuous
 62
     7
100
AcDbLine
 10
155.429648515
 20
426.4718982453
 30
0.0
 11
155.4299117086
 21
426.5547652223
 31
0.0
  0
ARC
  5
D2
330
85
100
AcDbEntity
  8
$DDT_AUDIT_GENERATED_(A2)
  6
Continuous
 62
     7
100
AcDbCircle
 10
155.1300054961
 20
426.5639688408
 30
0.0
 40
0.3000474011157885
100
AcDbArc
 50
358.2422403207
 51
101.4180807424
  0
ARC
  5
D3
330
85
100
AcDbEntity
  8
$DDT_AUDIT_GENERATED_(A2)
  6
Continuous
 62
     7
100
AcDbCircle
 10
170.7292315423
 20
426.5639667465
 30
0.0
 40
0.3000491040155909
100
AcDbArc
 50
78.5823293483
 51
181.7573495881
  0
LINE
  5
D4
330
85
100
AcDbEntity
  8
$DDT_AUDIT_GENERATED_(A2)
  6
Continuous
 62
     7
100
AcDbLine
 10
170.4293235618
 20
426.5547652223
 30
0.0
 11
170.4295867554
 21
426.4718982453
 31
0.0
  0
LINE
  5
D5
330
85
100
AcDbEntity
  8
$DDT_AUDIT_GENERATED_(A2)
  6
Continuous
 62
     7
100
AcDbLine
 10
185.4365113927
 20
400.4791423083
 30
0.0
 11
176.6795867554
 21
405.5349551048
 31
0.0
  0
LINE
  5
D6
330
85
100
AcDbEntity
  8
$DDT_AUDIT_GENERATED_(A2)
  6
Continuous
 62
     7
100
AcDbLine
 10
185.4365113927
 20
400.4791423083
 30
0.0
 11
185.5081447031
 21
400.4374808874
 31
0.0
  0
ARC
  5
D7
330
85
100
AcDbEntity
  8
$DDT_AUDIT_GENERATED_(A2)
  6
Continuous
 62
     7
100
AcDbCircle
 10
185.6660683768
 20
400.692605477
 30
0.0
 40
0.3000474011164355
100
AcDbArc
 50
238.2422403208
 51
341.4180807421
  0
ARC
  5
D8
330
85
100
AcDbEntity
  8
$DDT_AUDIT_GENERATED_(A2)
  6
Continuous
 62
     7
100
AcDbCircle
 10
177.8664535399
 20
387.1832804887
 30
0.0
 40
0.3000491040155824
100
AcDbArc
 50
318.5823293483
 51
61.7573495881
  0
LINE
  5
D9
330
85
100
AcDbEntity
  8
$DDT_AUDIT_GENERATED_(A2)
  6
Continuous
 62
     7
100
AcDbLine
 10
178.0084387765
 20
387.4476091807
 30
0.0
 11
177.9365422725
 21
387.4888147368
 31
0.0
  0
LINE
  5
DA
330
85
100
AcDbEntity
  8
$DDT_AUDIT_GENERATED_(A2)
  6
Continuous
 62
     7
100
AcDbLine
 10
168.141649846
 20
431.9320751457
 30
0.0
 11
168.1451932314
 21
432.3381069003
 31
0.0
  0
ARC
  5
DB
330
85
100
AcDbEntity
  8
$DDT_AUDIT_GENERATED_(A2)
  6
Continuous
 62
     7
100
AcDbCircle
 10
163.5998708231
 20
406.8505849935
 30
0.0
 40
25.48934416878111
100
AcDbArc
 50
79.7360414805
 51
83.0285813264
  0
ARC
  5
DC
330
85
100
AcDbEntity
  8
$DDT_AUDIT_GENERATED_(A2)
  6
Continuous
 62
     7
100
AcDbCircle
 10
162.9296176352
 20
404.810132492
 30
0.0
 40
27.59922279377747
100
AcDbArc
 50
82.1615315995
 51
97.8384684005
  0
ARC
  5
DD
330
85
100
AcDbEntity
  8
$DDT_AUDIT_GENERATED_(A2)
  6
Continuous
 62
     7
100
AcDbCircle
 10
163.8059162561
 20
396.6386247176
 30
0.0
 40
35.81473740572032
100
AcDbArc
 50
97.4443985043
 51
99.787535727
  0
LINE
  5
DF
330
85
100
AcDbEntity
  8
$DDT_AUDIT_GENERATED_(DE)
  6
Continuous
 62
     7
100
AcDbLine
 10
167.9296176352
 20
436.1247662345
 30
0.0
 11
167.9296176352
 21
431.9642514002
 31
0.0
  0
LINE
  5
E0
330
85
100
AcDbEntity
  8
$DDT_AUDIT_GENERATED_(DE)
  6
Continuous
 62
     7
100
AcDbLine
 10
157.9296176352
 20
431.9639258466
 30
0.0
 11
157.9296176352
 21
436.1247662345
 31
0.0
  0
ARC
  5
E1
330
85
100
AcDbEntity
  8
$DDT_AUDIT_GENERATED_(DE)
  6
Continuous
 62
     7
100
AcDbCircle
 10
158.9296176352
 20
436.1247662345
 30
0.0
 40
0.9999999999999983
100
AcDbArc
 50
97.208034015
 51
180.0
  0
ARC
  5
E2
330
85
100
AcDbEntity
  8
$DDT_AUDIT_GENERATED_(DE)
  6
Continuous
 62
     7
100
AcDbCircle
 10
162.9296176352
 20
404.4971552722
 30
0.0
 40
32.87955105051029
100
AcDbArc
 50
82.7919696403
 51
97.2080303597
  0
ARC
  5
E3
330
85
100
AcDbEntity
  8
$DDT_AUDIT_GENERATED_(DE)
  6
Continuous
 62
     7
100
AcDbCircle
 10
166.9296176352
 20
436.1247662345
 30
0.0
 40
1.0
100
AcDbArc
 50
0.0
 51
82.791965985
  0
ARC
  5
E4
330
85
100
AcDbEntity
  8
$DDT_AUDIT_GENERATED_(98)
  6
Continuous
 62
     7
100
AcDbCircle
 10
162.9288278984
 20
489.8142262685
 30
0.0
 40
26.25
100
AcDbArc
 50
347.86532653
 51
0.0
  0
ARC
  5
E5
330
85
100
AcDbEntity
  8
$DDT_AUDIT_GENERATED_(98)
  6
Continuous
 62
     7
100
AcDbCircle
 10
162.9288278984
 20
489.8142262685
 30
0.0
 40
26.25
100
AcDbArc
 50
227.86532653
 51
312.13467347
  0
ARC
  5
E6
330
85
100
AcDbEntity
  8
$DDT_AUDIT_GENERATED_(98)
  6
Continuous
 62
     7
100
AcDbCircle
 10
162.9288278984
 20
489.8142262685
 30
0.0
 40
26.25
100
AcDbArc
 50
107.86532653
 51
192.13467347
  0
ARC
  5
E7
330
85
100
AcDbEntity
  8
$DDT_AUDIT_GENERATED_(98)
  6
Continuous
 62
     7
100
AcDbCircle
 10
162.9288278984
 20
489.8142262685
 30
0.0
 40
26.25
100
AcDbArc
 50
0.0
 51
72.13467347
  0
ARC
  5
E9
330
85
100
AcDbEntity
  8
$DDT_AUDIT_GENERATED_(E8)
  6
Continuous
 62
     7
100
AcDbCircle
 10
162.9288278984
 20
489.8142262685
 30
0.0
 40
25.55
100
AcDbArc
 50
0.0
 51
71.5974213468
  0
ARC
  5
EA
330
85
100
AcDbEntity
  8
$DDT_AUDIT_GENERATED_(E8)
  6
Continuous
 62
     7
100
AcDbCircle
 10
162.9288278984
 20
489.8142262685
 30
0.0
 40
25.55
100
AcDbArc
 50
108.4025786532
 51
191.5974213468
  0
ARC
  5
EB
330
85
100
AcDbEntity
  8
$DDT_AUDIT_GENERATED_(E8)
  6
Continuous
 62
     7
100
AcDbCircle
 10
162.9288278984
 20
489.8142262685
 30
0.0
 40
25.55
100
AcDbArc
 50
228.4025786532
 51
311.5974213468
  0
ARC
  5
EC
330
85
100
AcDbEntity
  8
$DDT_AUDIT_GENERATED_(E8)
  6
Continuous
 62
     7
100
AcDbCircle
 10
162.9288278984
 20
489.8142262685
 30
0.0
 40
25.55
100
AcDbArc
 50
348.4025786532
 51
0.0
  0
ARC
  5
EE
330
85
100
AcDbEntity
  8
$DDT_AUDIT_GENERATED_(ED)
  6
Continuous
 62
     7
100
AcDbCircle
 10
142.9288587781
 20
501.3612138239
 30
0.0
 40
12.5
100
AcDbArc
 50
300.0
 51
0.0
  0
LINE
  5
EF
330
85
100
AcDbEntity
  8
$DDT_AUDIT_GENERATED_(ED)
  6
Continuous
 62
     7
100
AcDbLine
 10
149.1788587781
 20
490.5358962766
 30
0.0
 11
140.4219341409
 21
485.48008348
 31
0.0
  0
ARC
  5
F0
330
85
100
AcDbEntity
  8
$DDT_AUDIT_GENERATED_(ED)
  6
Continuous
 62
     7
100
AcDbCircle
 10
162.9288278984
 20
466.7202511579
 30
0.0
 40
12.5
100
AcDbArc
 50
60.0
 51
120.0
  0
ARC
  5
F1
330
85
100
AcDbEntity
  8
$DDT_AUDIT_GENERATED_(ED)
  6
Continuous
 62
     7
100
AcDbCircle
 10
182.9287970186
 20
501.3612138239
 30
0.0
 40
12.5
100
AcDbArc
 50
180.0
 51
240.0
  0
LINE
  5
F2
330
85
100
AcDbEntity
  8
$DDT_AUDIT_GENERATED_(ED)
  6
Continuous
 62
     7
100
AcDbLine
 10
170.4287970186
 20
501.3612138239
 30
0.0
 11
170.4287970186
 21
511.4728394171
 31
0.0
  0
LINE
  5
F3
330
85
100
AcDbEntity
  8
$DDT_AUDIT_GENERATED_(ED)
  6
Continuous
 62
     7
100
AcDbLine
 10
169.1788278984
 20
477.5455687052
 30
0.0
 11
177.9357525356
 21
472.4897559086
 31
0.0
  0
ARC
  5
F4
330
85
100
AcDbEntity
  8
$DDT_AUDIT_GENERATED_(ED)
  6
Continuous
 62
     7
100
AcDbCircle
 10
162.9288278984
 20
489.8142262685
 30
0.0
 40
28.10217298590242
100
AcDbArc
 50
93.5694057876
 51
105.0384736948
  0
LINE
  5
F5
330
85
100
AcDbEntity
  8
$DDT_AUDIT_GENERATED_(ED)
  6
Continuous
 62
     7
100
AcDbLine
 10
161.1792542072
 20
517.8618842533
 30
0.0
 11
161.1803163144
 21
517.8010361706
 31
0.0
  0
ARC
  5
F6
330
85
100
AcDbEntity
  8
$DDT_AUDIT_GENERATED_(ED)
  6
Continuous
 62
     7
100
AcDbCircle
 10
162.9288278984
 20
489.2249850499
 30
0.0
 40
28.62949511273142
100
AcDbArc
 50
86.4985509279
 51
93.5014490721
  0
LINE
  5
F7
330
85
100
AcDbEntity
  8
$DDT_AUDIT_GENERATED_(ED)
  6
Continuous
 62
     7
100
AcDbLine
 10
164.6784015896
 20
517.8618842533
 30
0.0
 11
164.6773394823
 21
517.8010361706
 31
0.0
  0
ELLIPSE
  5
F8
330
85
100
AcDbEntity
  8
$DDT_AUDIT_GENERATED_(ED)
  6
Continuous
 62
     7
100
AcDbEllipse
 10
193.1294945001
 20
437.505129864
 30
0.0
 11
-1124.365653425153
 21
-649.1528129149932
 31
0.0
210
0.0
220
0.0
230
1.0
 40
0.0523359492
 41
-1.561902322306435
 42
-1.554624908096016
  0
ELLIPSE
  5
F9
330
85
100
AcDbEntity
  8
$DDT_AUDIT_GENERATED_(ED)
  6
Continuous
 62
     7
100
AcDbEllipse
 10
193.1295006209
 20
542.1233179689
 30
0.0
 11
1124.365645234961
 21
-649.1528077324047
 31
0.0
210
0.0
220
0.0
230
1.0
 40
0.0523359488
 41
-1.561902322418738
 42
-1.554624908159241
  0
ELLIPSE
  5
FA
330
85
100
AcDbEntity
  8
$DDT_AUDIT_GENERATED_(ED)
  6
Continuous
 62
     7
100
AcDbEllipse
 10
102.5274893157
 20
489.8142302168
 30
0.0
 11
0.0
 21
68.91956163099653
 31
0.0
210
0.0
220
0.0
230
1.0
 40
1.0
 41
-1.402459512331017
 42
-1.271085444254315
  0
SPLINE
  5
FB
330
85
100
AcDbEntity
  8
$DDT_AUDIT_GENERATED_(ED)
  6
Continuous
 62
     7
100
AcDbSpline
210
0.0
220
0.0
230
1.0
 70
     8
 71
     3
 72
    10
 73
     6
 74
     0
 42
0.0000000164907823
 43
0.0000000001
 40
0.0
 40
0.0
 40
0.0
 40
0.0
 40
0.5
 40
0.5
 40
1.0
 40
1.0
 40
1.0
 40
1.0
 10
154.5154737849936
 20
512.291225013109
 30
0.0
 10
154.6095415308594
 20
512.3264354638285
 30
0.0
 10
154.6908436197357
 20
512.3894548575475
 30
0.0
 10
154.8057271424496
 20
512.55175761796
 30
0.0
 10
154.8383386602303
 20
512.6503038963517
 30
0.0
 10
154.8400916086973
 20
512.7507302467677
 30
0.0
  0
LINE
  5
FC
330
85
100
AcDbEntity
  8
$DDT_AUDIT_GENERATED_(ED)
  6
Continuous
 62
     7
100
AcDbLine
 10
139.0208646344
 20
485.3510253908
 30
0.0
 11
136.2303580222
 21
483.6743198604
 31
0.0
  0
ARC
  5
FD
330
85
100
AcDbEntity
  8
$DDT_AUDIT_GENERATED_(ED)
  6
Continuous
 62
     7
100
AcDbCircle
 10
162.9288278984
 20
489.8142262685
 30
0.0
 40
23.99999999999999
100
AcDbArc
 50
110.521352102
 51
189.478647898
  0
SPLINE
  5
FE
330
85
100
AcDbEntity
  8
$DDT_AUDIT_GENERATED_(ED)
  6
Continuous
 62
     7
100
AcDbSpline
210
0.0
220
0.0
230
1.0
 70
     8
 71
     3
 72
    10
 73
     6
 74
     0
 42
0.0000000164907823
 43
0.0000000001
 40
0.0
 40
0.0
 40
0.0
 40
0.0
 40
0.5
 40
0.5
 40
1.0
 40
1.0
 40
1.0
 40
1.0
 10
139.020864634385
 20
485.3510253907949
 30
0.0
 10
139.10695989654
 20
485.4027566433086
 30
0.0
 10
139.1754448106119
 20
485.4795113837806
 30
0.0
 10
139.2588945372034
 20
485.6600011423831
 30
0.0
 10
139.2730396627709
 20
485.7628349670688
 30
0.0
 10
139.2564989280535
 20
485.8619052894729
 30
0.0
  0
SPLINE
  5
FF
330
85
100
AcDbEntity
  8
$DDT_AUDIT_GENERATED_(ED)
  6
Continuous
 62
     7
100
AcDbSpline
210
0.0
220
0.0
230
1.0
 70
     8
 71
     3
 72
    10
 73
     6
 74
     0
 42
0.0000000164907823
 43
0.0000000001
 40
0.0
 40
0.0
 40
0.0
 40
0.0
 40
0.5
 40
0.5
 40
1.0
 40
1.0
 40
1.0
 40
1.0
 10
147.6698530414193
 20
471.2895485030547
 30
0.0
 10
147.5923260236846
 20
471.3534083352916
 30
0.0
 10
147.4970985833548
 20
471.3923083127797
 30
0.0
 10
147.2990985083763
 20
471.4106489817199
 30
0.0
 10
147.1974491689503
 20
471.3896182453782
 30
0.0
 10
147.109600924047
 20
471.3409231680741
 30
0.0
  0
SPLINE
  5
100
330
85
100
AcDbEntity
  8
$DDT_AUDIT_GENERATED_(ED)
  6
Continuous
 62
     7
100
AcDbSpline
210
0.0
220
0.0
230
1.0
 70
     8
 71
     3
 72
    10
 73
     6
 74
     0
 42
0.0000000164907823
 43
0.0000000001
 40
0.0
 40
0.0
 40
0.0
 40
0.0
 40
0.5
 40
0.5
 40
1.0
 40
1.0
 40
1.0
 40
1.0
 10
186.6011568686652
 20
485.8619052894728
 30
0.0
 10
186.584616140534
 20
485.7628350065166
 30
0.0
 10
186.5985414919875
 20
485.6609156353094
 30
0.0
 10
186.6816580442521
 20
485.4802722059567
 30
0.0
 10
186.7506958658973
 20
485.4027566639068
 30
0.0
 10
186.8367911623336
 20
485.3510253907948
 30
0.0
  0
LINE
  5
101
330
85
100
AcDbEntity
  8
$DDT_AUDIT_GENERATED_(ED)
  6
Continuous
 62
     7
100
AcDbLine
 10
178.7480548727
 20
471.3409231681
 30
0.0
 11
181.5953777628
 21
469.7626263177
 31
0.0
  0
ARC
  5
102
330
85
100
AcDbEntity
  8
$DDT_AUDIT_GENERATED_(ED)
  6
Continuous
 62
     7
100
AcDbCircle
 10
162.9288278984
 20
489.8142262685
 30
0.0
 40
24.0
100
AcDbArc
 50
230.521352102
 51
309.478647898
  0
SPLINE
  5
103
330
85
100
AcDbEntity
  8
$DDT_AUDIT_GENERATED_(ED)
  6
Continuous
 62
     7
100
AcDbSpline
210
0.0
220
0.0
230
1.0
 70
     8
 71
     3
 72
    10
 73
     6
 74
     0
 42
0.0000000164907823
 43
0.0000000001
 40
0.0
 40
0.0
 40
0.0
 40
0.0
 40
0.5000000000000043
 40
0.5000000000000043
 40
1.0
 40
1.0
 40
1.0
 40
1.0
 10
178.7480548726716
 20
471.340923168074
 30
0.0
 10
178.6602066627476
 20
471.3896182259888
 30
0.0
 10
178.5594926506021
 20
471.4105505311151
 30
0.0
 10
178.3614590712336
 20
471.392575234981
 30
0.0
 10
178.2653298039037
 20
471.3534083607192
 30
0.0
 10
178.1878027552993
 20
471.2895485030547
 30
0.0
  0
LINE
  5
104
330
85
100
AcDbEntity
  8
$DDT_AUDIT_GENERATED_(ED)
  6
Continuous
 62
     7
100
AcDbLine
 10
171.017564188
 20
512.7507302468
 30
0.0
 11
170.9607479101
 21
516.0057326276
 31
0.0
  0
ARC
  5
105
330
85
100
AcDbEntity
  8
$DDT_AUDIT_GENERATED_(ED)
  6
Continuous
 62
     7
100
AcDbCircle
 10
162.9288278984
 20
489.8142262685
 30
0.0
 40
24.0
100
AcDbArc
 50
350.521352102
 51
69.478647898
  0
SPLINE
  5
106
330
85
100
AcDbEntity
  8
$DDT_AUDIT_GENERATED_(ED)
  6
Continuous
 62
     7
100
AcDbSpline
210
0.0
220
0.0
230
1.0
 70
     8
 71
     3
 72
    10
 73
     6
 74
     0
 42
0.0000000164907823
 43
0.0000000001
 40
0.0
 40
0.0
 40
0.0
 40
0.0
 40
0.5
 40
0.5
 40
1.0
 40
1.0
 40
1.0
 40
1.0
 10
171.0175641880213
 20
512.7507302467677
 30
0.0
 10
171.0193171357904
 20
512.6503039363392
 30
0.0
 10
171.0515462338639
 20
512.5526168907411
 30
0.0
 10
171.1661300866409
 20
512.3901024282726
 30
0.0
 10
171.2481142284033
 20
512.3264354778486
 30
0.0
 10
171.3421820117251
 20
512.291225013109
 30
0.0
  0
ARC
  5
107
330
85
100
AcDbEntity
  8
$DDT_AUDIT_GENERATED_(ED)
  6
Continuous
 62
     7
100
AcDbCircle
 10
162.9288278984
 20
489.8142262685
 30
0.0
 40
28.10217298590242
100
AcDbArc
 50
194.9615263052
 51
225.0384736948
  0
SPLINE
  5
108
330
85
100
AcDbEntity
  8
$DDT_AUDIT_GENERATED_(ED)
  6
Continuous
 62
     7
100
AcDbSpline
210
0.0
220
0.0
230
1.0
 70
     8
 71
     3
 72
    10
 73
     6
 74
     0
 42
0.0000000076150316
 43
0.0000000001
 40
0.0
 40
0.0
 40
0.0
 40
0.0
 40
0.5
 40
0.5
 40
1.0
 40
1.0
 40
1.0
 40
1.0
 10
135.7793353370091
 20
482.5590777386552
 30
0.0
 10
135.7232997696667
 20
482.7687684448433
 30
0.0
 10
135.7372584977155
 20
482.9911861271245
 30
0.0
 10
135.8990008764639
 20
483.3918601687919
 30
0.0
 10
136.0443108427438
 20
483.5625314369806
 30
0.0
 10
136.2303580221738
 20
483.6743198603812
 30
0.0
  0
LINE
  5
109
330
85
100
AcDbEntity
  8
$DDT_AUDIT_GENERATED_(ED)
  6
Continuous
 62
     7
100
AcDbLine
 10
144.2622780339
 20
469.7626263177
 30
0.0
 11
147.109600924
 21
471.3409231681
 31
0.0
  0
SPLINE
  5
10A
330
85
100
AcDbEntity
  8
$DDT_AUDIT_GENERATED_(ED)
  6
Continuous
 62
     7
100
AcDbSpline
210
0.0
220
0.0
230
1.0
 70
     8
 71
     3
 72
    10
 73
     6
 74
     0
 42
0.0000000076150316
 43
0.0000000001
 40
0.0
 40
0.0
 40
0.0
 40
0.0
 40
0.5
 40
0.5
 40
1.0
 40
1.0
 40
1.0
 40
1.0
 10
144.2622780339373
 20
469.7626263176776
 30
0.0
 10
144.0724428851386
 20
469.6573989764146
 30
0.0
 10
143.8532821227589
 20
469.6169881893244
 30
0.0
 10
143.4253405924427
 20
469.6767069584106
 30
0.0
 10
143.2245184222386
 20
469.7762766527934
 30
0.0
 10
143.0709386825697
 20
469.9296502755049
 30
0.0
  0
LINE
  5
10B
330
85
100
AcDbEntity
  8
$DDT_AUDIT_GENERATED_(ED)
  6
Continuous
 62
     7
100
AcDbLine
 10
189.6272977745
 20
483.6743198604
 30
0.0
 11
186.8367911623
 21
485.3510253908
 31
0.0
  0
SPLINE
  5
10C
330
85
100
AcDbEntity
  8
$DDT_AUDIT_GENERATED_(ED)
  6
Continuous
 62
     7
100
AcDbSpline
210
0.0
220
0.0
230
1.0
 70
     8
 71
     3
 72
    10
 73
     6
 74
     0
 42
0.0000000076150316
 43
0.0000000001
 40
0.0
 40
0.0
 40
0.0
 40
0.0
 40
0.5
 40
0.5
 40
1.0
 40
1.0
 40
1.0
 40
1.0
 10
189.6272977745448
 20
483.674319860381
 30
0.0
 10
189.8133448996506
 20
483.5625314696217
 30
0.0
 10
189.9579220490475
 20
483.3929380754332
 30
0.0
 10
190.1201748430942
 20
482.9924704543019
 30
0.0
 10
190.1343560434137
 20
482.7687685060706
 30
0.0
 10
190.0783204597095
 20
482.559077738655
 30
0.0
  0
ARC
  5
10D
330
85
100
AcDbEntity
  8
$DDT_AUDIT_GENERATED_(ED)
  6
Continuous
 62
     7
100
AcDbCircle
 10
162.9288278984
 20
489.8142262685
 30
0.0
 40
28.10217298590242
100
AcDbArc
 50
314.9615263052
 51
345.0384736948
  0
SPLINE
  5
10E
330
85
100
AcDbEntity
  8
$DDT_AUDIT_GENERATED_(ED)
  6
Continuous
 62
     7
100
AcDbSpline
210
0.0
220
0.0
230
1.0
 70
     8
 71
     3
 72
    10
 73
     6
 74
     0
 42
0.0000000076150316
 43
0.0000000001
 40
0.0
 40
0.0
 40
0.0
 40
0.0
 40
0.5
 40
0.5
 40
1.0
 40
1.0
 40
1.0
 40
1.0
 10
182.7867171141489
 20
469.9296502755048
 30
0.0
 10
182.6331374193237
 20
469.7762766975768
 30
0.0
 10
182.4335386921929
 20
469.6771564695309
 30
0.0
 10
182.0056736040977
 20
469.6168924575619
 30
0.0
 10
181.7852129670103
 20
469.657398945689
 30
0.0
 10
181.5953777627813
 20
469.7626263176776
 30
0.0
  0
ARC
  5
10F
330
85
100
AcDbEntity
  8
$DDT_AUDIT_GENERATED_(ED)
  6
Continuous
 62
     7
100
AcDbCircle
 10
162.9288278984
 20
489.8142262685
 30
0.0
 40
28.10217298590241
100
AcDbArc
 50
74.9615263052
 51
86.4305942124
  0
SPLINE
  5
110
330
85
100
AcDbEntity
  8
$DDT_AUDIT_GENERATED_(ED)
  6
Continuous
 62
     7
100
AcDbSpline
210
0.0
220
0.0
230
1.0
 70
     8
 71
     3
 72
    10
 73
     6
 74
     0
 42
0.0000000076150316
 43
0.0000000001
 40
0.0
 40
0.0
 40
0.0
 40
0.0
 40
0.5
 40
0.5
 40
1.0
 40
1.0
 40
1.0
 40
1.0
 10
170.2204312439199
 20
516.9539507914768
 30
0.0
 10
170.4300465060875
 20
516.8976336632167
 30
0.0
 10
170.6156865051695
 20
516.7743362089814
 30
0.0
 10
170.8818092145163
 20
516.4339261792829
 30
0.0
 10
170.9569598853238
 20
516.2227484229672
 30
0.0
 10
170.9607479101228
 20
516.005732627578
 30
0.0
  0
LINE
  5
111
330
85
100
AcDbEntity
  8
$DDT_AUDIT_GENERATED_(ED)
  6
Continuous
 62
     7
100
AcDbLine
 10
154.8969078866
 20
516.0057326276
 30
0.0
 11
154.8400916087
 21
512.7507302468
 31
0.0
  0
SPLINE
  5
112
330
85
100
AcDbEntity
  8
$DDT_AUDIT_GENERATED_(ED)
  6
Continuous
 62
     7
100
AcDbSpline
210
0.0
220
0.0
230
1.0
 70
     8
 71
     3
 72
    10
 73
     6
 74
     0
 42
0.0000000076150316
 43
0.0000000001
 40
0.0
 40
0.0
 40
0.0
 40
0.0
 40
0.5000000000000007
 40
0.5000000000000007
 40
1.0
 40
1.0
 40
1.0
 40
1.0
 10
154.8969078865959
 20
516.005732627578
 30
0.0
 10
154.9006959102888
 20
516.2227483596005
 30
0.0
 10
154.9752795232716
 20
516.432752540879
 30
0.0
 10
155.2409682595411
 20
516.7735013929242
 30
0.0
 10
155.4276092294257
 20
516.8976336467726
 30
0.0
 10
155.6372245527988
 20
516.9539507914768
 30
0.0
  0
ELLIPSE
  5
113
330
85
100
AcDbEntity
  8
$DDT_AUDIT_GENERATED_(ED)
  6
Continuous
 62
     7
100
AcDbEllipse
 10
132.7281538177
 20
542.1233182408
 30
0.0
 11
-1124.365652818007
 21
-649.1528120250953
 31
0.0
210
0.0
220
0.0
230
1.0
 40
0.0523359492
 41
1.554624909060514
 42
1.56190232327627
  0
ELLIPSE
  5
114
330
85
100
AcDbEntity
  8
$DDT_AUDIT_GENERATED_(ED)
  6
Continuous
 62
     7
100
AcDbEllipse
 10
223.3301673093
 20
489.8142312809
 30
0.0
 11
0.0
 21
71.10908068022671
 31
0.0
210
0.0
220
0.0
230
1.0
 40
1.0
 41
1.271085461991148
 42
1.402459529566509
  0
ELLIPSE
  5
115
330
85
100
AcDbEntity
  8
$DDT_AUDIT_GENERATED_(ED)
  6
Continuous
 62
     7
100
AcDbEllipse
 10
132.7281635114
 20
437.5051304088
 30
0.0
 11
1124.365640304136
 21
-649.1528054130412
 31
0.0
210
0.0
220
0.0
230
1.0
 40
0.0523359487
 41
1.554624909166536
 42
1.561902323466782
  0
LINE
  5
116
330
85
100
AcDbEntity
  8
$DDT_AUDIT_GENERATED_(ED)
  6
Continuous
 62
     7
100
AcDbLine
 10
147.9219032611
 20
472.4897559086
 30
0.0
 11
156.6788278984
 21
477.5455687052
 31
0.0
  0
LINE
  5
117
330
85
100
AcDbEntity
  8
$DDT_AUDIT_GENERATED_(ED)
  6
Continuous
 62
     7
100
AcDbLine
 10
147.9219032611
 20
472.4897559086
 30
0.0
 11
147.8500067571
 21
472.4485503524
 31
0.0
  0
ARC
  5
118
330
85
100
AcDbEntity
  8
$DDT_AUDIT_GENERATED_(ED)
  6
Continuous
 62
     7
100
AcDbCircle
 10
147.991989296
 20
472.1842221444
 30
0.0
 40
0.3000474011157824
100
AcDbArc
 50
118.2422403207
 51
221.4180807424
  0
ARC
  5
119
330
85
100
AcDbEntity
  8
$DDT_AUDIT_GENERATED_(ED)
  6
Continuous
 62
     7
100
AcDbCircle
 10
140.1923780866
 20
485.693549227
 30
0.0
 40
0.3000491040155914
100
AcDbArc
 50
198.5823293483
 51
301.7573495881
  0
LINE
  5
11A
330
85
100
AcDbEntity
  8
$DDT_AUDIT_GENERATED_(ED)
  6
Continuous
 62
     7
100
AcDbLine
 10
140.3503008305
 20
485.4384220592
 30
0.0
 11
140.4219341409
 21
485.48008348
 31
0.0
  0
LINE
  5
11B
330
85
100
AcDbEntity
  8
$DDT_AUDIT_GENERATED_(ED)
  6
Continuous
 62
     7
100
AcDbLine
 10
155.4288587781
 20
511.4728394171
 30
0.0
 11
155.4288587781
 21
501.3612138239
 31
0.0
  0
LINE
  5
11C
330
85
100
AcDbEntity
  8
$DDT_AUDIT_GENERATED_(ED)
  6
Continuous
 62
     7
100
AcDbLine
 10
155.4288587781
 20
511.4728394171
 30
0.0
 11
155.4291219717
 21
511.555706394
 31
0.0
  0
ARC
  5
11D
330
85
100
AcDbEntity
  8
$DDT_AUDIT_GENERATED_(ED)
  6
Continuous
 62
     7
100
AcDbCircle
 10
155.1292157592
 20
511.5649100125
 30
0.0
 40
0.3000474011157853
100
AcDbArc
 50
358.2422403207
 51
101.4180807424
  0
ARC
  5
11E
330
85
100
AcDbEntity
  8
$DDT_AUDIT_GENERATED_(ED)
  6
Continuous
 62
     7
100
AcDbCircle
 10
170.7284418055
 20
511.5649079182
 30
0.0
 40
0.3000491040155849
100
AcDbArc
 50
78.5823293483
 51
181.7573495881
  0
LINE
  5
11F
330
85
100
AcDbEntity
  8
$DDT_AUDIT_GENERATED_(ED)
  6
Continuous
 62
     7
100
AcDbLine
 10
170.428533825
 20
511.555706394
 30
0.0
 11
170.4287970186
 21
511.4728394171
 31
0.0
  0
LINE
  5
120
330
85
100
AcDbEntity
  8
$DDT_AUDIT_GENERATED_(ED)
  6
Continuous
 62
     7
100
AcDbLine
 10
185.4357216558
 20
485.48008348
 30
0.0
 11
176.6787970186
 21
490.5358962766
 31
0.0
  0
LINE
  5
121
330
85
100
AcDbEntity
  8
$DDT_AUDIT_GENERATED_(ED)
  6
Continuous
 62
     7
100
AcDbLine
 10
185.4357216558
 20
485.48008348
 30
0.0
 11
185.5073549662
 21
485.4384220592
 31
0.0
  0
ARC
  5
122
330
85
100
AcDbEntity
  8
$DDT_AUDIT_GENERATED_(ED)
  6
Continuous
 62
     7
100
AcDbCircle
 10
185.6652786399
 20
485.6935466487
 30
0.0
 40
0.3000474011164359
100
AcDbArc
 50
238.2422403208
 51
341.4180807421
  0
ARC
  5
123
330
85
100
AcDbEntity
  8
$DDT_AUDIT_GENERATED_(ED)
  6
Continuous
 62
     7
100
AcDbCircle
 10
177.865663803
 20
472.1842216604
 30
0.0
 40
0.3000491040155834
100
AcDbArc
 50
318.5823293483
 51
61.7573495881
  0
LINE
  5
124
330
85
100
AcDbEntity
  8
$DDT_AUDIT_GENERATED_(ED)
  6
Continuous
 62
     7
100
AcDbLine
 10
178.0076490396
 20
472.4485503524
 30
0.0
 11
177.9357525356
 21
472.4897559086
 31
0.0
  0
ARC
  5
126
330
85
100
AcDbEntity
  8
$DDT_AUDIT_GENERATED_(125)
  6
Continuous
 62
     7
100
AcDbCircle
 10
162.9288278984
 20
489.8142262685
 30
0.0
 40
11.0
100
AcDbArc
 50
39.999656272
 51
40.0003437278
  0
ARC
  5
127
330
85
100
AcDbEntity
  8
$DDT_AUDIT_GENERATED_(125)
  6
Continuous
 62
     7
100
AcDbCircle
 10
162.9288278984
 20
489.8142262685
 30
0.0
 40
11.0
100
AcDbArc
 50
159.999656272
 51
160.0003437278
  0
LINE
  5
128
330
85
100
AcDbEntity
  8
$DDT_AUDIT_GENERATED_(125)
  6
Continuous
 62
     7
100
AcDbLine
 10
162.9287619073
 20
478.8142262687
 30
0.0
 11
162.5608180004
 21
479.2527247417
 31
0.0
  0
LINE
  5
129
330
85
100
AcDbEntity
  8
$DDT_AUDIT_GENERATED_(125)
  6
Continuous
 62
     7
100
AcDbLine
 10
163.2953741101
 20
479.2509803884
 30
0.0
 11
162.9288938894
 21
478.8142262687
 31
0.0
  0
ARC
  5
12A
330
85
100
AcDbEntity
  8
$DDT_AUDIT_GENERATED_(125)
  6
Continuous
 62
     7
100
AcDbCircle
 10
162.9288278984
 20
489.8142262685
 30
0.0
 40
11.0
100
AcDbArc
 50
279.999656272
 51
280.0003437278
  0
ARC
  5
12C
330
85
100
AcDbEntity
  8
$DDT_AUDIT_GENERATED_(12B)
  6
Continuous
 62
     7
100
AcDbCircle
 10
162.9288278984
 20
489.8142262685
 30
0.0
 40
26.55
100
AcDbArc
 50
0.0
 51
72.3557486197
  0
ARC
  5
12D
330
85
100
AcDbEntity
  8
$DDT_AUDIT_GENERATED_(12B)
  6
Continuous
 62
     7
100
AcDbCircle
 10
162.9288278984
 20
489.8142262685
 30
0.0
 40
26.55
100
AcDbArc
 50
107.6442513803
 51
192.3557486197
  0
ARC
  5
12E
330
85
100
AcDbEntity
  8
$DDT_AUDIT_GENERATED_(12B)
  6
Continuous
 62
     7
100
AcDbCircle
 10
162.9288278984
 20
489.8142262685
 30
0.0
 40
26.55
100
AcDbArc
 50
227.6442513803
 51
312.3557486197
  0
ARC
  5
12F
330
85
100
AcDbEntity
  8
$DDT_AUDIT_GENERATED_(12B)
  6
Continuous
 62
     7
100
AcDbCircle
 10
162.9288278984
 20
489.8142262685
 30
0.0
 40
26.55
100
AcDbArc
 50
347.6442513803
 51
0.0
  0
ARC
  5
130
330
85
100
AcDbEntity
  8
$DDT_AUDIT_GENERATED_(12B)
  6
Continuous
 62
     7
100
AcDbCircle
 10
162.9288278984
 20
404.8141968686
 30
0.0
 40
26.25
100
AcDbArc
 50
0.0
 51
3.1236880174
  0
ARC
  5
131
330
85
100
AcDbEntity
  8
$DDT_AUDIT_GENERATED_(12B)
  6
Continuous
 62
     7
100
AcDbCircle
 10
162.9288278984
 20
404.8141968686
 30
0.0
 40
26.25
100
AcDbArc
 50
263.75436698
 51
270.0
  0
ARC
  5
132
330
85
100
AcDbEntity
  8
$DDT_AUDIT_GENERATED_(12B)
  6
Continuous
 62
     7
100
AcDbCircle
 10
162.9288278984
 20
404.8141968686
 30
0.0
 40
26.25
100
AcDbArc
 50
358.9812323363
 51
360.0
  0
ARC
  5
133
330
85
100
AcDbEntity
  8
$DDT_AUDIT_GENERATED_(12B)
  6
Continuous
 62
     7
100
AcDbCircle
 10
162.9288278984
 20
404.8141968686
 30
0.0
 40
26.55
100
AcDbArc
 50
0.0
 51
72.3539864571
  0
ARC
  5
134
330
85
100
AcDbEntity
  8
$DDT_AUDIT_GENERATED_(12B)
  6
Continuous
 62
     7
100
AcDbCircle
 10
162.9288278984
 20
404.8141968686
 30
0.0
 40
26.55
100
AcDbArc
 50
107.6424167531
 51
192.358454984
  0
ARC
  5
135
330
85
100
AcDbEntity
  8
$DDT_AUDIT_GENERATED_(12B)
  6
Continuous
 62
     7
100
AcDbCircle
 10
162.9288278984
 20
404.8141968686
 30
0.0
 40
26.55
100
AcDbArc
 50
227.6469396584
 51
312.3548043846
  0
ARC
  5
136
330
85
100
AcDbEntity
  8
$DDT_AUDIT_GENERATED_(12B)
  6
Continuous
 62
     7
100
AcDbCircle
 10
162.9288278984
 20
404.8141968686
 30
0.0
 40
26.55
100
AcDbArc
 50
347.6433977629
 51
360.0
  0
ARC
  5
138
330
85
100
AcDbEntity
  8
$DDT_AUDIT_GENERATED_(137)
  6
Continuous
 62
     7
100
AcDbCircle
 10
162.9288278984
 20
466.720215501
 30
0.0
 40
12.6
100
AcDbArc
 50
60.0000000001
 51
120.0
  0
LINE
  5
139
330
85
100
AcDbEntity
  8
$DDT_AUDIT_GENERATED_(137)
  6
Continuous
 62
     7
100
AcDbLine
 10
181.2313277563
 20
470.7024890647
 30
0.0
 11
169.2288278983
 21
477.6321355887
 31
0.0
  0
LINE
  5
13A
330
85
100
AcDbEntity
  8
$DDT_AUDIT_GENERATED_(137)
  6
Continuous
 62
     7
100
AcDbLine
 10
156.6288278984
 20
477.6321355886
 30
0.0
 11
144.6263280404
 21
470.7024890647
 31
0.0
  0
ARC
  5
13B
330
85
100
AcDbEntity
  8
$DDT_AUDIT_GENERATED_(137)
  6
Continuous
 62
     7
100
AcDbCircle
 10
181.7313277563
 20
471.5685144685
 30
0.0
 40
0.9999999999999966
100
AcDbArc
 50
240.0000000001
 51
315.8610187348
  0
ARC
  5
13C
330
85
100
AcDbEntity
  8
$DDT_AUDIT_GENERATED_(137)
  6
Continuous
 62
     7
100
AcDbCircle
 10
144.1263280404
 20
471.5685144685
 30
0.0
 40
0.9999999999999961
100
AcDbArc
 50
224.1389812652
 51
300.0
  0
ARC
  5
13D
330
85
100
AcDbEntity
  8
$DDT_AUDIT_GENERATED_(137)
  6
Continuous
 62
     7
100
AcDbCircle
 10
162.9288278984
 20
489.8142262685
 30
0.0
 40
27.2
100
AcDbArc
 50
315.8610187348
 51
344.1389812652
  0
ARC
  5
13E
330
85
100
AcDbEntity
  8
$DDT_AUDIT_GENERATED_(137)
  6
Continuous
 62
     7
100
AcDbCircle
 10
162.9288278984
 20
489.8142262685
 30
0.0
 40
27.2
100
AcDbArc
 50
195.8610187348
 51
224.1389812652
  0
ARC
  5
13F
330
85
100
AcDbEntity
  8
$DDT_AUDIT_GENERATED_(137)
  6
Continuous
 62
     7
100
AcDbCircle
 10
188.1313277563
 20
482.6536396369
 30
0.0
 40
0.9999999999999993
100
AcDbArc
 50
344.1389812652
 51
60.0
  0
ARC
  5
140
330
85
100
AcDbEntity
  8
$DDT_AUDIT_GENERATED_(137)
  6
Continuous
 62
     7
100
AcDbCircle
 10
137.7263280404
 20
482.6536396369
 30
0.0
 40
1.000000000000006
100
AcDbArc
 50
120.0
 51
195.8610187348
  0
LINE
  5
141
330
85
100
AcDbEntity
  8
$DDT_AUDIT_GENERATED_(137)
  6
Continuous
 62
     7
100
AcDbLine
 10
176.6288278984
 20
490.4493115646
 30
0.0
 11
188.6313277563
 21
483.5196650407
 31
0.0
  0
LINE
  5
142
330
85
100
AcDbEntity
  8
$DDT_AUDIT_GENERATED_(137)
  6
Continuous
 62
     7
100
AcDbLine
 10
137.2263280404
 20
483.5196650407
 30
0.0
 11
149.2288278984
 21
490.4493115646
 31
0.0
  0
ARC
  5
143
330
85
100
AcDbEntity
  8
$DDT_AUDIT_GENERATED_(137)
  6
Continuous
 62
     7
100
AcDbCircle
 10
182.9288278984
 20
501.3612316523
 30
0.0
 40
12.6
100
AcDbArc
 50
180.0
 51
240.0
  0
ARC
  5
144
330
85
100
AcDbEntity
  8
$DDT_AUDIT_GENERATED_(137)
  6
Continuous
 62
     7
100
AcDbCircle
 10
142.9288278984
 20
501.3612316523
 30
0.0
 40
12.6
100
AcDbArc
 50
300.0
 51
0.0
  0
LINE
  5
145
330
85
100
AcDbEntity
  8
$DDT_AUDIT_GENERATED_(137)
  6
Continuous
 62
     7
100
AcDbLine
 10
170.3288278984
 20
515.2205247002
 30
0.0
 11
170.3288278984
 21
501.3612316523
 31
0.0
  0
LINE
  5
146
330
85
100
AcDbEntity
  8
$DDT_AUDIT_GENERATED_(137)
  6
Continuous
 62
     7
100
AcDbLine
 10
155.5288278984
 20
501.3612316523
 30
0.0
 11
155.5288278984
 21
515.2205247002
 31
0.0
  0
ARC
  5
147
330
85
100
AcDbEntity
  8
$DDT_AUDIT_GENERATED_(137)
  6
Continuous
 62
     7
100
AcDbCircle
 10
169.3288278984
 20
515.2205247002
 30
0.0
 40
0.9999999999999957
100
AcDbArc
 50
0.0
 51
75.8610187348
  0
ARC
  5
148
330
85
100
AcDbEntity
  8
$DDT_AUDIT_GENERATED_(137)
  6
Continuous
 62
     7
100
AcDbCircle
 10
156.5288278984
 20
515.2205247002
 30
0.0
 40
1.0
100
AcDbArc
 50
104.1389812652
 51
180.0
  0
ARC
  5
149
330
85
100
AcDbEntity
  8
$DDT_AUDIT_GENERATED_(137)
  6
Continuous
 62
     7
100
AcDbCircle
 10
162.9288278984
 20
489.8142262685
 30
0.0
 40
27.2
100
AcDbArc
 50
75.8610187348
 51
104.1389812652
  0
ARC
  5
14A
330
85
100
AcDbEntity
  8
$DDT_AUDIT_GENERATED_(137)
  6
Continuous
 62
     7
100
AcDbCircle
 10
162.9296176352
 20
381.7192743292
 30
0.0
 40
12.59999999999999
100
AcDbArc
 50
60.0000000001
 51
120.0
  0
LINE
  5
14B
330
85
100
AcDbEntity
  8
$DDT_AUDIT_GENERATED_(137)
  6
Continuous
 62
     7
100
AcDbLine
 10
181.2321174932
 20
385.701547893
 30
0.0
 11
169.2296176352
 21
392.6311944169
 31
0.0
  0
LINE
  5
14C
330
85
100
AcDbEntity
  8
$DDT_AUDIT_GENERATED_(137)
  6
Continuous
 62
     7
100
AcDbLine
 10
156.6296176352
 20
392.6311944169
 30
0.0
 11
144.6271177772
 21
385.701547893
 31
0.0
  0
ARC
  5
14D
330
85
100
AcDbEntity
  8
$DDT_AUDIT_GENERATED_(137)
  6
Continuous
 62
     7
100
AcDbCircle
 10
181.7321174932
 20
386.5675732968
 30
0.0
 40
1.000000000000001
100
AcDbArc
 50
240.0000000001
 51
315.8610187348
  0
ARC
  5
14E
330
85
100
AcDbEntity
  8
$DDT_AUDIT_GENERATED_(137)
  6
Continuous
 62
     7
100
AcDbCircle
 10
144.1271177772
 20
386.5675732967
 30
0.0
 40
0.9999999999999979
100
AcDbArc
 50
224.1389812652
 51
300.0
  0
ARC
  5
14F
330
85
100
AcDbEntity
  8
$DDT_AUDIT_GENERATED_(137)
  6
Continuous
 62
     7
100
AcDbCircle
 10
162.9296176352
 20
404.8132850968
 30
0.0
 40
27.2
100
AcDbArc
 50
315.8610187348
 51
344.1389812652
  0
ARC
  5
150
330
85
100
AcDbEntity
  8
$DDT_AUDIT_GENERATED_(137)
  6
Continuous
 62
     7
100
AcDbCircle
 10
162.9296176352
 20
404.8132850968
 30
0.0
 40
27.2
100
AcDbArc
 50
195.8610187348
 51
224.1389812652
  0
ARC
  5
151
330
85
100
AcDbEntity
  8
$DDT_AUDIT_GENERATED_(137)
  6
Continuous
 62
     7
100
AcDbCircle
 10
188.1321174932
 20
397.6526984652
 30
0.0
 40
0.9999999999999993
100
AcDbArc
 50
344.1389812652
 51
60.0
  0
ARC
  5
152
330
85
100
AcDbEntity
  8
$DDT_AUDIT_GENERATED_(137)
  6
Continuous
 62
     7
100
AcDbCircle
 10
137.7271177772
 20
397.6526984652
 30
0.0
 40
1.000000000000005
100
AcDbArc
 50
120.0
 51
195.8610187348
  0
LINE
  5
153
330
85
100
AcDbEntity
  8
$DDT_AUDIT_GENERATED_(137)
  6
Continuous
 62
     7
100
AcDbLine
 10
176.6296176352
 20
405.4483703929
 30
0.0
 11
188.6321174932
 21
398.518723869
 31
0.0
  0
LINE
  5
154
330
85
100
AcDbEntity
  8
$DDT_AUDIT_GENERATED_(137)
  6
Continuous
 62
     7
100
AcDbLine
 10
137.2271177772
 20
398.518723869
 30
0.0
 11
149.2296176352
 21
405.4483703929
 31
0.0
  0
ARC
  5
155
330
85
100
AcDbEntity
  8
$DDT_AUDIT_GENERATED_(137)
  6
Continuous
 62
     7
100
AcDbCircle
 10
182.9296176352
 20
416.3602904806
 30
0.0
 40
12.6
100
AcDbArc
 50
180.0
 51
240.0
  0
ARC
  5
156
330
85
100
AcDbEntity
  8
$DDT_AUDIT_GENERATED_(137)
  6
Continuous
 62
     7
100
AcDbCircle
 10
142.9296176352
 20
416.3602904806
 30
0.0
 40
12.6
100
AcDbArc
 50
300.0
 51
0.0
  0
LINE
  5
157
330
85
100
AcDbEntity
  8
$DDT_AUDIT_GENERATED_(137)
  6
Continuous
 62
     7
100
AcDbLine
 10
170.3296176352
 20
430.2195835285
 30
0.0
 11
170.3296176352
 21
416.3602904806
 31
0.0
  0
LINE
  5
158
330
85
100
AcDbEntity
  8
$DDT_AUDIT_GENERATED_(137)
  6
Continuous
 62
     7
100
AcDbLine
 10
155.5296176352
 20
416.3602904806
 30
0.0
 11
155.5296176352
 21
430.2195835285
 31
0.0
  0
ARC
  5
159
330
85
100
AcDbEntity
  8
$DDT_AUDIT_GENERATED_(137)
  6
Continuous
 62
     7
100
AcDbCircle
 10
169.3296176352
 20
430.2195835285
 30
0.0
 40
0.9999999999999989
100
AcDbArc
 50
0.0
 51
75.8610187348
  0
ARC
  5
15A
330
85
100
AcDbEntity
  8
$DDT_AUDIT_GENERATED_(137)
  6
Continuous
 62
     7
100
AcDbCircle
 10
156.5296176352
 20
430.2195835285
 30
0.0
 40
1.0
100
AcDbArc
 50
104.1389812652
 51
180.0
  0
ARC
  5
15B
330
85
100
AcDbEntity
  8
$DDT_AUDIT_GENERATED_(137)
  6
Continuous
 62
     7
100
AcDbCircle
 10
162.9296176352
 20
404.8132850968
 30
0.0
 40
27.2
100
AcDbArc
 50
75.8610187348
 51
104.1389812652
  0
ENDBLK
  5
15D
330
85
100
AcDbEntity
  8
0
100
AcDbBlockEnd
  0
BLOCK
  5
221
330
15E
100
AcDbEntity
  8
0
100
AcDbBlockBegin
  2
SE1
 70
     0
 10
0.0
 20
0.0
 30
0.0
  3
SE1
  1

  0
LINE
  5
160
330
15E
100
AcDbEntity
  8
$DDT_AUDIT_GENERATED_(87)
  6
Continuous
 62
     7
100
AcDbLine
 10
372.1993780125
 20
345.3142262685
 30
0.0
 11
360.6993780125
 21
345.3142262685
 31
0.0
  0
LINE
  5
161
330
15E
100
AcDbEntity
  8
$DDT_AUDIT_GENERATED_(87)
  6
Continuous
 62
     7
100
AcDbLine
 10
360.6993780125
 20
347.1142262685
 30
0.0
 11
360.6993780125
 21
540.0142262685
 31
0.0
  0
LINE
  5
162
330
15E
100
AcDbEntity
  8
$DDT_AUDIT_GENERATED_(87)
  6
Continuous
 62
     7
100
AcDbLine
 10
360.6993780125
 20
540.0142262685
 30
0.0
 11
360.6993780125
 21
541.8142262685
 31
0.0
  0
LINE
  5
163
330
15E
100
AcDbEntity
  8
$DDT_AUDIT_GENERATED_(87)
  6
Continuous
 62
     7
100
AcDbLine
 10
360.6993780125
 20
345.3142262685
 30
0.0
 11
360.6993780125
 21
347.1142262685
 31
0.0
  0
LINE
  5
164
330
15E
100
AcDbEntity
  8
$DDT_AUDIT_GENERATED_(87)
  6
Continuous
 62
     7
100
AcDbLine
 10
373.9993780125
 20
540.0142262685
 30
0.0
 11
373.9993780125
 21
347.1142262685
 31
0.0
  0
LINE
  5
165
330
15E
100
AcDbEntity
  8
$DDT_AUDIT_GENERATED_(87)
  6
Continuous
 62
     7
100
AcDbLine
 10
360.6993780125
 20
541.8142262685
 30
0.0
 11
372.1993780125
 21
541.8142262685
 31
0.0
  0
ARC
  5
166
330
15E
100
AcDbEntity
  8
$DDT_AUDIT_GENERATED_(87)
  6
Continuous
 62
     7
100
AcDbCircle
 10
372.1993780125
 20
540.0142262685
 30
0.0
 40
1.80000000000001
100
AcDbArc
 50
0.0
 51
90.0
  0
ARC
  5
167
330
15E
100
AcDbEntity
  8
$DDT_AUDIT_GENERATED_(87)
  6
Continuous
 62
     7
100
AcDbCircle
 10
372.1993780125
 20
347.1142262685
 30
0.0
 40
1.799999999999996
100
AcDbArc
 50
270.0
 51
0.0
  0
LINE
  5
168
330
15E
100
AcDbEntity
  8
$DDT_AUDIT_GENERATED_(98)
  6
Continuous
 62
     7
100
AcDbLine
 10
377.4993780125
 20
380.5642262685
 30
0.0
 11
377.4993780125
 21
429.0642262685
 31
0.0
  0
LINE
  5
169
330
15E
100
AcDbEntity
  8
$DDT_AUDIT_GENERATED_(98)
  6
Continuous
 62
     7
100
AcDbLine
 10
373.9993780125
 20
378.5642262685
 30
0.0
 11
375.4993780125
 21
378.5642262685
 31
0.0
  0
LINE
  5
16A
330
15E
100
AcDbEntity
  8
$DDT_AUDIT_GENERATED_(98)
  6
Continuous
 62
     7
100
AcDbLine
 10
375.4993780125
 20
431.0642262685
 30
0.0
 11
373.9993780125
 21
431.0642262685
 31
0.0
  0
ARC
  5
16B
330
15E
100
AcDbEntity
  8
$DDT_AUDIT_GENERATED_(98)
  6
Continuous
 62
     7
100
AcDbCircle
 10
375.4993780125
 20
380.5642262685
 30
0.0
 40
1.999999999999995
100
AcDbArc
 50
270.0
 51
0.0
  0
ARC
  5
16C
330
15E
100
AcDbEntity
  8
$DDT_AUDIT_GENERATED_(98)
  6
Continuous
 62
     7
100
AcDbCircle
 10
375.4993780125
 20
429.0642262685
 30
0.0
 40
2.000000000000002
100
AcDbArc
 50
0.0
 51
90.0
  0
LINE
  5
16D
330
15E
100
AcDbEntity
  8
$DDT_AUDIT_GENERATED_(9D)
  6
Continuous
 62
     7
100
AcDbLine
 10
385.4993780125
 20
428.4238380653
 30
0.0
 11
385.4993780125
 21
381.2046144717
 31
0.0
  0
LINE
  5
16E
330
15E
100
AcDbEntity
  8
$DDT_AUDIT_GENERATED_(9D)
  6
Continuous
 62
     7
100
AcDbLine
 10
378.7419136375
 20
379.1248601748
 30
0.0
 11
385.120645825
 21
380.7195432217
 31
0.0
  0
LINE
  5
16F
330
15E
100
AcDbEntity
  8
$DDT_AUDIT_GENERATED_(9D)
  6
Continuous
 62
     7
100
AcDbLine
 10
385.120645825
 20
428.9089093154
 30
0.0
 11
378.7419136375
 21
430.5035923623
 31
0.0
  0
LINE
  5
170
330
15E
100
AcDbEntity
  8
$DDT_AUDIT_GENERATED_(9D)
  6
Continuous
 62
     7
100
AcDbLine
 10
385.9993780125
 20
385.3142262685
 30
0.0
 11
386.3993780125
 21
385.3142262685
 31
0.0
  0
LINE
  5
171
330
15E
100
AcDbEntity
  8
$DDT_AUDIT_GENERATED_(9D)
  6
Continuous
 62
     7
100
AcDbLine
 10
386.3993780125
 20
424.3142262685
 30
0.0
 11
385.9993780125
 21
424.3142262685
 31
0.0
  0
ARC
  5
172
330
15E
100
AcDbEntity
  8
$DDT_AUDIT_GENERATED_(9D)
  6
Continuous
 62
     7
100
AcDbCircle
 10
385.9993780125
 20
424.8142262685
 30
0.0
 40
0.5000000000000004
100
AcDbArc
 50
180.0
 51
270.0
  0
ARC
  5
173
330
15E
100
AcDbEntity
  8
$DDT_AUDIT_GENERATED_(9D)
  6
Continuous
 62
     7
100
AcDbCircle
 10
385.9993780125
 20
384.8142262685
 30
0.0
 40
0.5000000000000004
100
AcDbArc
 50
90.0
 51
180.0
  0
ARC
  5
174
330
15E
100
AcDbEntity
  8
$DDT_AUDIT_GENERATED_(9D)
  6
Continuous
 62
     7
100
AcDbCircle
 10
384.9993780125
 20
428.4238380653
 30
0.0
 40
0.5000000000000004
100
AcDbArc
 50
0.0
 51
75.9637565321
  0
ARC
  5
175
330
15E
100
AcDbEntity
  8
$DDT_AUDIT_GENERATED_(9D)
  6
Continuous
 62
     7
100
AcDbCircle
 10
384.9993780125
 20
381.2046144717
 30
0.0
 40
0.4999999999999996
100
AcDbArc
 50
284.0362434679
 51
0.0
  0
ARC
  5
176
330
15E
100
AcDbEntity
  8
$DDT_AUDIT_GENERATED_(9D)
  6
Continuous
 62
     7
100
AcDbCircle
 10
378.4993780125
 20
380.0950026749
 30
0.0
 40
0.9999999999993746
100
AcDbArc
 50
194.0362434681
 51
284.0362434679
  0
ARC
  5
177
330
15E
100
AcDbEntity
  8
$DDT_AUDIT_GENERATED_(9D)
  6
Continuous
 62
     7
100
AcDbCircle
 10
378.4993780125
 20
429.5334498621
 30
0.0
 40
1.000000000000002
100
AcDbArc
 50
75.9637565321
 51
165.9637565319
  0
LINE
  5
178
330
15E
100
AcDbEntity
  8
$DDT_AUDIT_GENERATED_(9D)
  6
Continuous
 62
     7
100
AcDbLine
 10
377.5143067624
 20
426.9142262685
 30
0.0
 11
377.4993780125
 21
426.9142262685
 31
0.0
  0
LINE
  5
179
330
15E
100
AcDbEntity
  8
$DDT_AUDIT_GENERATED_(9D)
  6
Continuous
 62
     7
100
AcDbLine
 10
377.4993780125
 20
382.7142262685
 30
0.0
 11
377.5143067624
 21
382.7142262685
 31
0.0
  0
ARC
  5
17A
330
15E
100
AcDbEntity
  8
$DDT_AUDIT_GENERATED_(9D)
  6
Continuous
 62
     7
100
AcDbCircle
 10
378.0143067624
 20
379.9737348624
 30
0.0
 40
0.5000000000000004
100
AcDbArc
 50
180.0
 51
194.0362434682
  0
ARC
  5
17B
330
15E
100
AcDbEntity
  8
$DDT_AUDIT_GENERATED_(9D)
  6
Continuous
 62
     7
100
AcDbCircle
 10
378.0143067624
 20
429.6547176747
 30
0.0
 40
0.4999999999993727
100
AcDbArc
 50
165.9637565318
 51
180.0
  0
LINE
  5
17C
330
15E
100
AcDbEntity
  8
$DDT_AUDIT_GENERATED_(9D)
  6
Continuous
 62
     7
100
AcDbLine
 10
377.5143067624
 20
429.6547176747
 30
0.0
 11
377.5143067624
 21
379.9737348624
 31
0.0
  0
LINE
  5
17D
330
15E
100
AcDbEntity
  8
$DDT_AUDIT_GENERATED_(A2)
  6
Continuous
 62
     7
100
AcDbLine
 10
386.3993780125
 20
432.8609430815
 30
0.0
 11
386.3993780125
 21
431.9530096197
 31
0.0
  0
LINE
  5
17E
330
15E
100
AcDbEntity
  8
$DDT_AUDIT_GENERATED_(A2)
  6
Continuous
 62
     7
100
AcDbLine
 10
386.3993780125
 20
432.8609430815
 30
0.0
 11
391.0435877623
 21
432.8000949988
 31
0.0
  0
SPLINE
  5
17F
330
15E
100
AcDbEntity
  8
$DDT_AUDIT_GENERATED_(A2)
  6
Continuous
 62
     7
100
AcDbSpline
210
0.0
220
0.0
230
1.0
 70
     8
 71
     3
 72
     8
 73
     4
 74
     0
 42
0.000000049466351
 43
0.0000000001
 40
0.0
 40
0.0
 40
0.0
 40
0.0
 40
0.5
 40
0.5
 40
0.5
 40
0.5
 10
391.0435877622976
 20
432.8000949988291
 30
0.0
 10
391.1011619266946
 20
432.8354978345379
 30
0.0
 10
391.1293780124545
 20
432.8535389908997
 30
0.0
 10
391.1293780124545
 20
432.8535389908997
 30
0.0
  0
ARC
  5
180
330
15E
100
AcDbEntity
  8
$DDT_AUDIT_GENERATED_(A2)
  6
Continuous
 62
     7
100
AcDbCircle
 10
-40.7047779717
 20
411.0978689902
 30
0.0
 40
474.258401358553
100
AcDbArc
 50
359.3639070458
 51
0.6360929542
  0
ARC
  5
181
330
15E
100
AcDbEntity
  8
$DDT_AUDIT_GENERATED_(A2)
  6
Continuous
 62
     7
100
AcDbCircle
 10
-866.8110617186
 20
404.813291508
 30
0.0
 40
1300.386749892937
100
AcDbArc
 50
0.5088906796
 51
0.9252844924
  0
LINE
  5
182
330
15E
100
AcDbEntity
  8
$DDT_AUDIT_GENERATED_(A2)
  6
Continuous
 62
     7
100
AcDbLine
 10
386.3993780125
 20
427.749789075
 30
0.0
 11
431.2618892434
 21
427.3363270403
 31
0.0
  0
LINE
  5
183
330
15E
100
AcDbEntity
  8
$DDT_AUDIT_GENERATED_(A2)
  6
Continuous
 62
     7
100
AcDbLine
 10
386.3993780125
 20
427.2902838414
 30
0.0
 11
386.3993780125
 21
427.749789075
 31
0.0
  0
LINE
  5
184
330
15E
100
AcDbEntity
  8
$DDT_AUDIT_GENERATED_(A2)
  6
Continuous
 62
     7
100
AcDbLine
 10
386.3993780125
 20
400.3500842191
 30
0.0
 11
386.3993780125
 21
398.6733786886
 31
0.0
  0
LINE
  5
185
330
15E
100
AcDbEntity
  8
$DDT_AUDIT_GENERATED_(A2)
  6
Continuous
 62
     7
100
AcDbLine
 10
431.2618892433
 20
400.0543863591
 30
0.0
 11
386.3993780125
 21
400.3500842191
 31
0.0
  0
LINE
  5
186
330
15E
100
AcDbEntity
  8
$DDT_AUDIT_GENERATED_(A2)
  6
Continuous
 62
     7
100
AcDbLine
 10
386.3993780125
 20
400.8609641177
 30
0.0
 11
386.3993780125
 21
427.2902838414
 31
0.0
  0
LINE
  5
187
330
15E
100
AcDbEntity
  8
$DDT_AUDIT_GENERATED_(A2)
  6
Continuous
 62
     7
100
AcDbLine
 10
386.3993780125
 20
400.3500842191
 30
0.0
 11
386.3993780125
 21
400.8609641177
 31
0.0
  0
LINE
  5
188
330
15E
100
AcDbEntity
  8
$DDT_AUDIT_GENERATED_(A2)
  6
Continuous
 62
     7
100
AcDbLine
 10
386.3993780125
 20
380.8132850968
 30
0.0
 11
386.3993780125
 21
384.5018715462
 31
0.0
  0
LINE
  5
189
330
15E
100
AcDbEntity
  8
$DDT_AUDIT_GENERATED_(A2)
  6
Continuous
 62
     7
100
AcDbLine
 10
386.3993780125
 20
397.5581365669
 30
0.0
 11
386.3993780125
 21
384.9287091038
 31
0.0
  0
LINE
  5
18A
330
15E
100
AcDbEntity
  8
$DDT_AUDIT_GENERATED_(A2)
  6
Continuous
 62
     7
100
AcDbLine
 10
386.3993780125
 20
397.5581365669
 30
0.0
 11
386.3993780125
 21
398.6733786886
 31
0.0
  0
LINE
  5
18B
330
15E
100
AcDbEntity
  8
$DDT_AUDIT_GENERATED_(A2)
  6
Continuous
 62
     7
100
AcDbLine
 10
386.3993780125
 20
384.6363374961
 30
0.0
 11
386.3993780125
 21
384.9287091038
 31
0.0
  0
LINE
  5
18C
330
15E
100
AcDbEntity
  8
$DDT_AUDIT_GENERATED_(A2)
  6
Continuous
 62
     7
100
AcDbLine
 10
392.0871983897
 20
432.5219101434
 30
0.0
 11
392.0844134127
 21
432.8410368927
 31
0.0
  0
LINE
  5
18D
330
15E
100
AcDbEntity
  8
$DDT_AUDIT_GENERATED_(A2)
  6
Continuous
 62
     7
100
AcDbLine
 10
393.0887643393
 20
432.3381069003
 30
0.0
 11
423.6064654348
 21
431.9320751457
 31
0.0
  0
SPLINE
  5
18E
330
15E
100
AcDbEntity
  8
$DDT_AUDIT_GENERATED_(A2)
  6
Continuous
 62
     7
100
AcDbSpline
210
0.0
220
0.0
230
1.0
 70
     8
 71
     3
 72
    12
 73
     8
 74
     0
 42
0.000000009456238
 43
0.0000000001
 40
0.0
 40
0.0
 40
0.0
 40
0.0
 40
0.2499999999999979
 40
0.2499999999999979
 40
0.4999999999999958
 40
0.4999999999999958
 40
1.0
 40
1.0
 40
1.0
 40
1.0
 10
393.0887643393276
 20
432.3381069003055
 30
0.0
 10
392.9557072601855
 20
432.3398767803428
 30
0.0
 10
392.8252025070408
 20
432.3466462393875
 30
0.0
 10
392.5823994016867
 20
432.3687130859923
 30
0.0
 10
392.4714334750217
 20
432.3839706254451
 30
0.0
 10
392.1955398137301
 20
432.4369232366868
 30
0.0
 10
392.0875477720367
 20
432.4818748886325
 30
0.0
 10
392.0871983896618
 20
432.5219101433519
 30
0.0
  0
LINE
  5
18F
330
15E
100
AcDbEntity
  8
$DDT_AUDIT_GENERATED_(A2)
  6
Continuous
 62
     7
100
AcDbLine
 10
386.3993780125
 20
431.0047914558
 30
0.0
 11
386.3993780125
 21
427.749789075
 31
0.0
  0
LINE
  5
190
330
15E
100
AcDbEntity
  8
$DDT_AUDIT_GENERATED_(A2)
  6
Continuous
 62
     7
100
AcDbLine
 10
386.3993780125
 20
431.0047914558
 30
0.0
 11
386.3993780125
 21
431.9530096197
 31
0.0
  0
ELLIPSE
  5
191
330
15E
100
AcDbEntity
  8
$DDT_AUDIT_GENERATED_(A2)
  6
Continuous
 62
     7
100
AcDbEllipse
 10
432.4154336989
 20
426.5535621681
 30
0.0
 11
-0.009808915976794454
 21
-0.2998395990648341
 31
0.0
210
0.0
220
0.0
230
1.0
 40
0.0523080504
 41
3.141127840399758
 42
3.486579724591967
  0
ELLIPSE
  5
192
330
15E
100
AcDbEntity
  8
$DDT_AUDIT_GENERATED_(A2)
  6
Continuous
 62
     7
100
AcDbEllipse
 10
-863.251672628
 20
352.751550718
 30
0.0
 11
1296.235754308257
 21
78.4420385679845
 31
0.0
210
0.0
220
0.0
230
0.9999999999999999
 40
0.4993144647
 41
-0.0463783613637405
 42
-0.0391009525467254
  0
LINE
  5
193
330
15E
100
AcDbEntity
  8
$DDT_AUDIT_GENERATED_(A2)
  6
Continuous
 62
     7
100
AcDbLine
 10
433.4061223238
 20
425.8126636198
 30
0.0
 11
433.4061223238
 21
401.1025691266
 31
0.0
  0
ELLIPSE
  5
194
330
15E
100
AcDbEntity
  8
$DDT_AUDIT_GENERATED_(A2)
  6
Continuous
 62
     7
100
AcDbEllipse
 10
432.4154336989
 20
400.6992032248
 30
0.0
 11
-0.01848781557131641
 21
0.2994297925648058
 31
0.0
210
0.0
220
0.0
230
0.9999999999999998
 40
0.0021231117
 41
-3.170001469913195
 42
-3.142037963884138
  0
ARC
  5
195
330
15E
100
AcDbEntity
  8
$DDT_AUDIT_GENERATED_(A2)
  6
Continuous
 62
     7
100
AcDbCircle
 10
432.3758482581
 20
425.8065356308
 30
0.0
 40
1.030292289922855
100
AcDbArc
 50
0.3407867653
 51
87.5795082613
  0
LINE
  5
196
330
15E
100
AcDbEntity
  8
$DDT_AUDIT_GENERATED_(A2)
  6
Continuous
 62
     7
100
AcDbLine
 10
432.3993780125
 20
400.4006869769
 30
0.0
 11
432.3993780125
 21
399.6223090179
 31
0.0
  0
LINE
  5
197
330
15E
100
AcDbEntity
  8
$DDT_AUDIT_GENERATED_(A2)
  6
Continuous
 62
     7
100
AcDbLine
 10
432.3993780125
 20
397.9672705493
 30
0.0
 11
432.3993780125
 21
397.4015133889
 31
0.0
  0
LINE
  5
198
330
15E
100
AcDbEntity
  8
$DDT_AUDIT_GENERATED_(A2)
  6
Continuous
 62
     7
100
AcDbLine
 10
432.3993780125
 20
397.4015133889
 30
0.0
 11
432.3993780125
 21
386.0288927437
 31
0.0
  0
LINE
  5
199
330
15E
100
AcDbEntity
  8
$DDT_AUDIT_GENERATED_(A2)
  6
Continuous
 62
     7
100
AcDbLine
 10
432.3993780125
 20
386.0288927437
 30
0.0
 11
432.3993780125
 21
385.8806970006
 31
0.0
  0
SPLINE
  5
19A
330
15E
100
AcDbEntity
  8
$DDT_AUDIT_GENERATED_(A2)
  6
Continuous
 62
     7
100
AcDbSpline
210
0.0
220
0.0
230
1.0
 70
     8
 71
     3
 72
    17
 73
    13
 74
     0
 42
0.000000000219744
 43
0.0000000001
 40
0.0
 40
0.0
 40
0.0
 40
0.0
 40
0.0330999991097884
 40
0.0330999991097884
 40
0.0330999991097884
 40
0.2088744768769078
 40
0.2088744768769078
 40
0.2088744768769078
 40
0.9119723905078527
 40
0.9119723905078527
 40
0.9119723905078527
 40
1.0
 40
1.0
 40
1.0
 40
1.0
 10
431.9059228102403
 20
397.264303161176
 30
0.0
 10
431.4038344409626
 20
397.267525565191
 30
0.0
 10
430.9017460548888
 20
397.2707486280727
 30
0.0
 10
430.3996576520642
 20
397.2739723486542
 30
0.0
 10
427.7333637196634
 20
397.2910916180454
 30
0.0
 10
425.0670693144913
 20
397.3082294346258
 30
0.0
 10
422.4007744432466
 20
397.3253856253128
 30
0.0
 10
411.7355949388374
 20
397.394010388186
 30
0.0
 10
401.0704079535395
 20
397.4629290834271
 30
0.0
 10
390.4052138962869
 20
397.532131070088
 30
0.0
 10
389.0699353793342
 20
397.5407951342975
 30
0.0
 10
387.7346567511337
 20
397.5494636399566
 30
0.0
 10
386.3993780124546
 20
397.5581365669182
 30
0.0
  0
SPLINE
  5
19B
330
15E
100
AcDbEntity
  8
$DDT_AUDIT_GENERATED_(A2)
  6
Continuous
 62
     7
100
AcDbSpline
210
0.0
220
0.0
230
1.0
 70
     8
 71
     3
 72
    14
 73
    10
 74
     0
 42
0.0000000160009277
 43
0.0000000001
 40
0.0
 40
0.0
 40
0.0
 40
0.0
 40
0.25
 40
0.25
 40
0.5
 40
0.5
 40
0.75
 40
0.75
 40
0.7829357017844774
 40
0.7829357017844774
 40
0.7829357017844774
 40
0.7829357017844774
 10
431.9076317222288
 20
400.5969923098748
 30
0.0
 10
431.9631001518057
 20
400.5661897551312
 30
0.0
 10
432.0166484610437
 20
400.5376642036255
 30
0.0
 10
432.1217028276071
 20
400.4829702298083
 30
0.0
 10
432.1733957838206
 20
400.4565996220882
 30
0.0
 10
432.2657786117655
 20
400.4139934992068
 30
0.0
 10
432.3075751515474
 20
400.3971948381142
 30
0.0
 10
432.3420050101466
 20
400.3944295316138
 30
0.0
 10
432.3458027455928
 20
400.3943761275148
 30
0.0
 10
432.3493935764328
 20
400.3945995667139
 30
0.0
  0
LINE
  5
19C
330
15E
100
AcDbEntity
  8
$DDT_AUDIT_GENERATED_(A2)
  6
Continuous
 62
     7
100
AcDbLine
 10
432.3993780125
 20
431.0094491578
 30
0.0
 11
432.3993780125
 21
431.8197876155
 31
0.0
  0
LINE
  5
19D
330
15E
100
AcDbEntity
  8
$DDT_AUDIT_GENERATED_(A2)
  6
Continuous
 62
     7
100
AcDbLine
 10
432.3993780125
 20
431.0094491578
 30
0.0
 11
432.3993780125
 21
430.5332188189
 31
0.0
  0
LINE
  5
19E
330
15E
100
AcDbEntity
  8
$DDT_AUDIT_GENERATED_(A2)
  6
Continuous
 62
     7
100
AcDbLine
 10
432.3993780125
 20
427.3202788852
 30
0.0
 11
432.3993780125
 21
426.841946181
 31
0.0
  0
SPLINE
  5
19F
330
15E
100
AcDbEntity
  8
$DDT_AUDIT_GENERATED_(A2)
  6
Continuous
 62
     7
100
AcDbSpline
210
0.0
220
0.0
230
1.0
 70
     8
 71
     3
 72
     8
 73
     4
 74
     0
 42
0.0000000152656376
 43
0.0000000001
 40
0.803079485097287
 40
0.803079485097287
 40
0.803079485097287
 40
0.803079485097287
 40
1.0
 40
1.0
 40
1.0
 40
1.0
 10
432.0360577508746
 20
426.866119329312
 30
0.0
 10
431.9939546214763
 20
426.8672523552231
 30
0.0
 10
431.9507002476195
 20
426.8643896059181
 30
0.0
 10
431.9076317222397
 20
426.8580779291958
 30
0.0
  0
LINE
  5
1A0
330
15E
100
AcDbEntity
  8
$DDT_AUDIT_GENERATED_(A2)
  6
Continuous
 62
     7
100
AcDbLine
 10
425.0605753839
 20
432.4093552858
 30
0.0
 11
425.0583249568
 21
432.1514818843
 31
0.0
  0
SPLINE
  5
1A1
330
15E
100
AcDbEntity
  8
$DDT_AUDIT_GENERATED_(A2)
  6
Continuous
 62
     7
100
AcDbSpline
210
0.0
220
0.0
230
1.0
 70
     8
 71
     3
 72
    16
 73
    12
 74
     0
 42
0.0000000066474141
 43
0.0000000001
 40
0.0
 40
0.0
 40
0.0
 40
0.0
 40
0.2500000000000001
 40
0.2500000000000001
 40
0.3750000000000002
 40
0.3750000000000002
 40
0.5000000000000002
 40
0.5000000000000002
 40
0.7500000000000001
 40
0.7500000000000001
 40
1.0
 40
1.0
 40
1.0
 40
1.0
 10
425.0583249568042
 20
432.1514818842505
 30
0.0
 10
425.0580958049944
 20
432.1252236876903
 30
0.0
 10
425.0204777386192
 20
432.0979173983772
 30
0.0
 10
424.9117809491702
 20
432.0578312341058
 30
0.0
 10
424.8674655770124
 20
432.0448572224834
 30
0.0
 10
424.7628153813172
 20
432.0199121055564
 30
0.0
 10
424.7018226188681
 20
432.0078664922677
 30
0.0
 10
424.501665642623
 20
431.9752009744475
 30
0.0
 10
424.3400795510409
 20
431.9572494497657
 30
0.0
 10
423.9903306212158
 20
431.9345141330177
 30
0.0
 10
423.7990424683562
 20
431.9295123350619
 30
0.0
 10
423.6064654347616
 20
431.9320751457248
 30
0.0
  0
LINE
  5
1A2
330
15E
100
AcDbEntity
  8
$DDT_AUDIT_GENERATED_(A2)
  6
Continuous
 62
     7
100
AcDbLine
 10
392.0844134127
 20
432.8410368927
 30
0.0
 11
391.0854774781
 21
432.8541136804
 31
0.0
  0
LINE
  5
1A3
330
15E
100
AcDbEntity
  8
$DDT_AUDIT_GENERATED_(A2)
  6
Continuous
 62
     7
100
AcDbLine
 10
431.9059228102
 20
432.3197447793
 30
0.0
 11
425.0605753839
 21
432.4093552858
 31
0.0
  0
ARC
  5
1A4
330
15E
100
AcDbEntity
  8
$DDT_AUDIT_GENERATED_(A2)
  6
Continuous
 62
     7
100
AcDbCircle
 10
-866.4006219875
 20
404.8132850968
 30
0.0
 40
1300.0
100
AcDbArc
 50
359.0120442853
 51
359.1517397357
  0
LINE
  5
1A5
330
15E
100
AcDbEntity
  8
$DDT_AUDIT_GENERATED_(A2)
  6
Continuous
 62
     7
100
AcDbLine
 10
386.3993780125
 20
380.8132850968
 30
0.0
 11
432.4193605776
 21
381.4157196688
 31
0.0
  0
LINE
  5
1A6
330
15E
100
AcDbEntity
  8
$DDT_AUDIT_GENERATED_(A2)
  6
Continuous
 62
     7
100
AcDbLine
 10
432.3475342733
 20
400.3944427474
 30
0.0
 11
432.4339215145
 21
400.3997734323
 31
0.0
  0
LINE
  5
1A7
330
15E
100
AcDbEntity
  8
$DDT_AUDIT_GENERATED_(A2)
  6
Continuous
 62
     7
100
AcDbLine
 10
432.4252426149
 20
426.8534017672
 30
0.0
 11
432.0347806499
 21
426.8661560772
 31
0.0
  0
LINE
  5
1A8
330
15E
100
AcDbEntity
  8
$DDT_AUDIT_GENERATED_(A2)
  6
Continuous
 62
     7
100
AcDbLine
 10
386.3996038987
 20
384.6366433216
 30
0.0
 11
431.9076204478
 21
385.3782884308
 31
0.0
  0
ARC
  5
1A9
330
15E
100
AcDbEntity
  8
$DDT_AUDIT_GENERATED_(A2)
  6
Continuous
 62
     7
100
AcDbCircle
 10
432.406270982
 20
382.4156339964
 30
0.0
 40
1.000000000000008
100
AcDbArc
 50
270.75
 51
359.0120442853
  0
SPLINE
  5
1AA
330
15E
100
AcDbEntity
  8
$DDT_AUDIT_GENERATED_(A2)
  6
Continuous
 62
     7
100
AcDbSpline
210
0.0
220
0.0
230
1.0
 70
     8
 71
     3
 72
    13
 73
     9
 74
     0
 42
0.0000000075193587
 43
0.0000000001
 40
0.0
 40
0.0
 40
0.0
 40
0.0
 40
0.1353783406921746
 40
0.3399736691827338
 40
0.5546873622971987
 40
0.7490076330517775
 40
0.9238231130001032
 40
1.0
 40
1.0
 40
1.0
 40
1.0
 10
432.4334532450226
 20
400.4060220048551
 30
0.0
 10
432.5069010931467
 20
400.4101154236315
 30
0.0
 10
432.665009043658
 20
400.4205180106821
 30
0.0
 10
432.9249687305675
 20
400.500860658636
 30
0.0
 10
433.1585079093463
 20
400.6312407845743
 30
0.0
 10
433.3201352474154
 20
400.8024907381874
 30
0.0
 10
433.4042989271961
 20
400.9752665706102
 30
0.0
 10
433.3979403401937
 20
401.071565025337
 30
0.0
 10
433.3953347456783
 20
401.1056228227978
 30
0.0
  0
ARC
  5
1AB
330
15E
100
AcDbEntity
  8
$DDT_AUDIT_GENERATED_(A2)
  6
Continuous
 62
     7
100
AcDbCircle
 10
431.8993780125
 20
385.8766785517
 30
0.0
 40
0.4999999999999752
100
AcDbArc
 50
271.1713561984
 51
0.0057734005
  0
ARC
  5
1AC
330
15E
100
AcDbEntity
  8
$DDT_AUDIT_GENERATED_(A2)
  6
Continuous
 62
     7
100
AcDbCircle
 10
431.8993780125
 20
431.8197876155
 30
0.0
 40
0.5000000000000004
100
AcDbArc
 50
0.0
 51
89.25
  0
SPLINE
  5
1AD
330
15E
100
AcDbEntity
  8
$DDT_AUDIT_GENERATED_(DE)
  6
Continuous
 62
     7
100
AcDbSpline
210
0.0
220
0.0
230
1.0
 70
     8
 71
     3
 72
    10
 73
     6
 74
     0
 42
0.0000000003424997
 43
0.0000000001
 40
0.0
 40
0.0
 40
0.0
 40
0.0
 40
0.5
 40
0.5
 40
1.0
 40
1.0
 40
1.0
 40
1.0
 10
422.4205938274619
 20
436.1247662344737
 30
0.0
 10
417.6655972044126
 20
435.0102129804212
 30
0.0
 10
412.8782097606849
 20
434.1671103994087
 30
0.0
 10
403.2395540409043
 20
433.0162573700513
 30
0.0
 10
398.3882812985206
 20
432.708544351709
 30
0.0
 10
393.5043720039111
 20
432.674341355091
 30
0.0
  0
ARC
  5
1AE
330
15E
100
AcDbEntity
  8
$DDT_AUDIT_GENERATED_(DE)
  6
Continuous
 62
     7
100
AcDbCircle
 10
403.2909508226
 20
431.0513437205
 30
0.0
 40
20.7904058397716
100
AcDbArc
 50
2.458630469
 51
14.8537365793
  0
LINE
  5
1AF
330
15E
100
AcDbEntity
  8
$DDT_AUDIT_GENERATED_(DE)
  6
Continuous
 62
     7
100
AcDbLine
 10
392.5078363075
 20
432.9721588606
 30
0.0
 11
392.5044424306
 21
432.6862093154
 31
0.0
  0
LINE
  5
1B0
330
15E
100
AcDbEntity
  8
$DDT_AUDIT_GENERATED_(DE)
  6
Continuous
 62
     7
100
AcDbLine
 10
392.5008373813
 20
432.3824675329
 30
0.0
 11
392.5044424306
 21
432.6862093154
 31
0.0
  0
ARC
  5
1B1
330
15E
100
AcDbEntity
  8
$DDT_AUDIT_GENERATED_(DE)
  6
Continuous
 62
     7
100
AcDbCircle
 10
392.6109382457
 20
564.627745735
 30
0.0
 40
130.6705090840262
100
AcDbArc
 50
270.3902531866
 51
283.0863080597
  0
ARC
  5
1B2
330
15E
100
AcDbEntity
  8
$DDT_AUDIT_GENERATED_(DE)
  6
Continuous
 62
     7
100
AcDbCircle
 10
403.6107415699
 20
431.3449693012
 30
0.0
 40
20.47412179443755
100
AcDbArc
 50
1.6763756471
 51
14.97399965
  0
ARC
  5
1B3
330
15E
100
AcDbEntity
  8
$DDT_AUDIT_GENERATED_(DE)
  6
Continuous
 62
     7
100
AcDbCircle
 10
393.5077658808
 20
432.9602909003
 30
0.0
 40
1.000000000000006
100
AcDbArc
 50
90.3902531866
 51
179.32
  0
ARC
  5
1B4
330
15E
100
AcDbEntity
  8
$DDT_AUDIT_GENERATED_(DE)
  6
Continuous
 62
     7
100
AcDbCircle
 10
422.4235840529
 20
436.3767063146
 30
0.0
 40
0.9999999999999549
100
AcDbArc
 50
14.97399965
 51
103.0863080597
  0
LINE
  5
1B5
330
15E
100
AcDbEntity
  8
$DDT_AUDIT_GENERATED_(98)
  6
Continuous
 62
     7
100
AcDbLine
 10
377.5493780125
 20
465.5642262685
 30
0.0
 11
377.5493780125
 21
514.0642262685
 31
0.0
  0
LINE
  5
1B6
330
15E
100
AcDbEntity
  8
$DDT_AUDIT_GENERATED_(98)
  6
Continuous
 62
     7
100
AcDbLine
 10
373.9993780125
 20
463.5642262685
 30
0.0
 11
375.5493780125
 21
463.5642262685
 31
0.0
  0
LINE
  5
1B7
330
15E
100
AcDbEntity
  8
$DDT_AUDIT_GENERATED_(98)
  6
Continuous
 62
     7
100
AcDbLine
 10
375.5493780125
 20
516.0642262685
 30
0.0
 11
373.9993780125
 21
516.0642262685
 31
0.0
  0
ARC
  5
1B8
330
15E
100
AcDbEntity
  8
$DDT_AUDIT_GENERATED_(98)
  6
Continuous
 62
     7
100
AcDbCircle
 10
375.5493780125
 20
465.5642262685
 30
0.0
 40
2.000000000000002
100
AcDbArc
 50
270.0
 51
0.0
  0
ARC
  5
1B9
330
15E
100
AcDbEntity
  8
$DDT_AUDIT_GENERATED_(98)
  6
Continuous
 62
     7
100
AcDbCircle
 10
375.5493780125
 20
514.0642262685
 30
0.0
 40
2.000000000000002
100
AcDbArc
 50
0.0
 51
90.0
  0
LINE
  5
1BA
330
15E
100
AcDbEntity
  8
$DDT_AUDIT_GENERATED_(E8)
  6
Continuous
 62
     7
100
AcDbLine
 10
385.5493780125
 20
466.2142262685
 30
0.0
 11
385.5493780125
 21
513.4142262685
 31
0.0
  0
LINE
  5
1BB
330
15E
100
AcDbEntity
  8
$DDT_AUDIT_GENERATED_(E8)
  6
Continuous
 62
     7
100
AcDbLine
 10
378.7688902076
 20
464.2886165124
 30
0.0
 11
385.15913411
 21
465.7264213905
 31
0.0
  0
LINE
  5
1BC
330
15E
100
AcDbEntity
  8
$DDT_AUDIT_GENERATED_(E8)
  6
Continuous
 62
     7
100
AcDbLine
 10
385.15913411
 20
513.9020311466
 30
0.0
 11
378.7688902076
 21
515.3398360246
 31
0.0
  0
LINE
  5
1BD
330
15E
100
AcDbEntity
  8
$DDT_AUDIT_GENERATED_(E8)
  6
Continuous
 62
     7
100
AcDbLine
 10
386.0493780125
 20
470.3142262685
 30
0.0
 11
386.7993780125
 21
470.3142262685
 31
0.0
  0
LINE
  5
1BE
330
15E
100
AcDbEntity
  8
$DDT_AUDIT_GENERATED_(E8)
  6
Continuous
 62
     7
100
AcDbLine
 10
386.7993780125
 20
509.3142262685
 30
0.0
 11
386.0493780125
 21
509.3142262685
 31
0.0
  0
ARC
  5
1BF
330
15E
100
AcDbEntity
  8
$DDT_AUDIT_GENERATED_(E8)
  6
Continuous
 62
     7
100
AcDbCircle
 10
386.0493780125
 20
509.8142262685
 30
0.0
 40
0.5000000000000004
100
AcDbArc
 50
180.0
 51
270.0
  0
ARC
  5
1C0
330
15E
100
AcDbEntity
  8
$DDT_AUDIT_GENERATED_(E8)
  6
Continuous
 62
     7
100
AcDbCircle
 10
386.0493780125
 20
469.8142262685
 30
0.0
 40
0.5000000000000004
100
AcDbArc
 50
90.0
 51
180.0
  0
ARC
  5
1C1
330
15E
100
AcDbEntity
  8
$DDT_AUDIT_GENERATED_(E8)
  6
Continuous
 62
     7
100
AcDbCircle
 10
385.0493780125
 20
513.4142262685
 30
0.0
 40
0.5000000000000004
100
AcDbArc
 50
0.0
 51
77.3196165082
  0
ARC
  5
1C2
330
15E
100
AcDbEntity
  8
$DDT_AUDIT_GENERATED_(E8)
  6
Continuous
 62
     7
100
AcDbCircle
 10
385.0493780125
 20
466.2142262685
 30
0.0
 40
0.5000000000000004
100
AcDbArc
 50
282.6803834918
 51
0.0
  0
ARC
  5
1C3
330
15E
100
AcDbEntity
  8
$DDT_AUDIT_GENERATED_(E8)
  6
Continuous
 62
     7
100
AcDbCircle
 10
378.5493780125
 20
465.2642262685
 30
0.0
 40
0.9999999999992558
100
AcDbArc
 50
192.6803834916
 51
282.6803834918
  0
ARC
  5
1C4
330
15E
100
AcDbEntity
  8
$DDT_AUDIT_GENERATED_(E8)
  6
Continuous
 62
     7
100
AcDbCircle
 10
378.5493780125
 20
514.3642262685
 30
0.0
 40
1.000000000000001
100
AcDbArc
 50
77.3196165082
 51
167.3196165084
  0
LINE
  5
1C5
330
15E
100
AcDbEntity
  8
$DDT_AUDIT_GENERATED_(E8)
  6
Continuous
 62
     7
100
AcDbLine
 10
377.5615731344
 20
511.9142262685
 30
0.0
 11
377.5493780125
 21
511.9142262685
 31
0.0
  0
LINE
  5
1C6
330
15E
100
AcDbEntity
  8
$DDT_AUDIT_GENERATED_(E8)
  6
Continuous
 62
     7
100
AcDbLine
 10
377.5493780125
 20
467.7142262685
 30
0.0
 11
377.5615731344
 21
467.7142262685
 31
0.0
  0
ARC
  5
1C7
330
15E
100
AcDbEntity
  8
$DDT_AUDIT_GENERATED_(E8)
  6
Continuous
 62
     7
100
AcDbCircle
 10
378.0615731344
 20
465.154470171
 30
0.0
 40
0.5000000000000004
100
AcDbArc
 50
180.0
 51
192.6803834918
  0
ARC
  5
1C8
330
15E
100
AcDbEntity
  8
$DDT_AUDIT_GENERATED_(E8)
  6
Continuous
 62
     7
100
AcDbCircle
 10
378.0615731344
 20
514.4739823661
 30
0.0
 40
0.4999999999992432
100
AcDbArc
 50
167.3196165082
 51
180.0
  0
LINE
  5
1C9
330
15E
100
AcDbEntity
  8
$DDT_AUDIT_GENERATED_(E8)
  6
Continuous
 62
     7
100
AcDbLine
 10
377.5615731344
 20
514.4739823661
 30
0.0
 11
377.5615731344
 21
465.154470171
 31
0.0
  0
LINE
  5
1CA
330
15E
100
AcDbEntity
  8
$DDT_AUDIT_GENERATED_(ED)
  6
Continuous
 62
     7
100
AcDbLine
 10
386.7993780125
 20
517.8618842533
 30
0.0
 11
386.7993780125
 21
516.9539507915
 31
0.0
  0
LINE
  5
1CB
330
15E
100
AcDbEntity
  8
$DDT_AUDIT_GENERATED_(ED)
  6
Continuous
 62
     7
100
AcDbLine
 10
386.7993780125
 20
517.8618842533
 30
0.0
 11
391.4435877623
 21
517.8010361706
 31
0.0
  0
SPLINE
  5
1CC
330
15E
100
AcDbEntity
  8
$DDT_AUDIT_GENERATED_(ED)
  6
Continuous
 62
     7
100
AcDbSpline
210
0.0
220
0.0
230
1.0
 70
     8
 71
     3
 72
     8
 73
     4
 74
     0
 42
0.000000049466351
 43
0.0000000001
 40
0.0
 40
0.0
 40
0.0
 40
0.0
 40
0.5
 40
0.5
 40
0.5
 40
0.5
 10
391.4435877622976
 20
517.8010361705661
 30
0.0
 10
391.5011619266946
 20
517.836439006275
 30
0.0
 10
391.5293780124545
 20
517.8544801626367
 30
0.0
 10
391.5293780124545
 20
517.8544801626367
 30
0.0
  0
ARC
  5
1CD
330
15E
100
AcDbEntity
  8
$DDT_AUDIT_GENERATED_(ED)
  6
Continuous
 62
     7
100
AcDbCircle
 10
-40.3047779717
 20
496.098810162
 30
0.0
 40
474.2584013585549
100
AcDbArc
 50
359.3639070458
 51
0.6360929542
  0
ARC
  5
1CE
330
15E
100
AcDbEntity
  8
$DDT_AUDIT_GENERATED_(ED)
  6
Continuous
 62
     7
100
AcDbCircle
 10
-866.4110617186
 20
489.8142326797
 30
0.0
 40
1300.386749892933
100
AcDbArc
 50
0.5088906796
 51
0.9252844924
  0
LINE
  5
1CF
330
15E
100
AcDbEntity
  8
$DDT_AUDIT_GENERATED_(ED)
  6
Continuous
 62
     7
100
AcDbLine
 10
386.7993780125
 20
512.7507302468
 30
0.0
 11
431.6618892434
 21
512.337268212
 31
0.0
  0
LINE
  5
1D0
330
15E
100
AcDbEntity
  8
$DDT_AUDIT_GENERATED_(ED)
  6
Continuous
 62
     7
100
AcDbLine
 10
386.7993780125
 20
512.2912250131
 30
0.0
 11
386.7993780125
 21
512.7507302468
 31
0.0
  0
LINE
  5
1D1
330
15E
100
AcDbEntity
  8
$DDT_AUDIT_GENERATED_(ED)
  6
Continuous
 62
     7
100
AcDbLine
 10
386.7993780125
 20
485.3510253908
 30
0.0
 11
386.7993780125
 21
483.6743198604
 31
0.0
  0
LINE
  5
1D2
330
15E
100
AcDbEntity
  8
$DDT_AUDIT_GENERATED_(ED)
  6
Continuous
 62
     7
100
AcDbLine
 10
431.6618892433
 20
485.0553275308
 30
0.0
 11
386.7993780125
 21
485.3510253908
 31
0.0
  0
LINE
  5
1D3
330
15E
100
AcDbEntity
  8
$DDT_AUDIT_GENERATED_(ED)
  6
Continuous
 62
     7
100
AcDbLine
 10
386.7993780125
 20
485.8619052895
 30
0.0
 11
386.7993780125
 21
512.2912250131
 31
0.0
  0
LINE
  5
1D4
330
15E
100
AcDbEntity
  8
$DDT_AUDIT_GENERATED_(ED)
  6
Continuous
 62
     7
100
AcDbLine
 10
386.7993780125
 20
485.3510253908
 30
0.0
 11
386.7993780125
 21
485.8619052895
 31
0.0
  0
LINE
  5
1D5
330
15E
100
AcDbEntity
  8
$DDT_AUDIT_GENERATED_(ED)
  6
Continuous
 62
     7
100
AcDbLine
 10
386.7993780125
 20
465.8142262685
 30
0.0
 11
386.7993780125
 21
469.502812718
 31
0.0
  0
LINE
  5
1D6
330
15E
100
AcDbEntity
  8
$DDT_AUDIT_GENERATED_(ED)
  6
Continuous
 62
     7
100
AcDbLine
 10
386.7993780125
 20
483.6743198604
 30
0.0
 11
432.3059228102
 21
483.3967586535
 31
0.0
  0
LINE
  5
1D7
330
15E
100
AcDbEntity
  8
$DDT_AUDIT_GENERATED_(ED)
  6
Continuous
 62
     7
100
AcDbLine
 10
386.7993780125
 20
482.5590777387
 30
0.0
 11
386.7993780125
 21
469.9296502755
 31
0.0
  0
LINE
  5
1D8
330
15E
100
AcDbEntity
  8
$DDT_AUDIT_GENERATED_(ED)
  6
Continuous
 62
     7
100
AcDbLine
 10
386.7993780125
 20
482.5590777387
 30
0.0
 11
386.7993780125
 21
483.6743198604
 31
0.0
  0
LINE
  5
1D9
330
15E
100
AcDbEntity
  8
$DDT_AUDIT_GENERATED_(ED)
  6
Continuous
 62
     7
100
AcDbLine
 10
386.7993780125
 20
469.6372786678
 30
0.0
 11
386.7993780125
 21
469.9296502755
 31
0.0
  0
LINE
  5
1DA
330
15E
100
AcDbEntity
  8
$DDT_AUDIT_GENERATED_(ED)
  6
Continuous
 62
     7
100
AcDbLine
 10
386.7993780125
 20
516.0057326276
 30
0.0
 11
386.7993780125
 21
512.7507302468
 31
0.0
  0
LINE
  5
1DB
330
15E
100
AcDbEntity
  8
$DDT_AUDIT_GENERATED_(ED)
  6
Continuous
 62
     7
100
AcDbLine
 10
386.7993780125
 20
516.0057326276
 30
0.0
 11
386.7993780125
 21
516.9539507915
 31
0.0
  0
ELLIPSE
  5
1DC
330
15E
100
AcDbEntity
  8
$DDT_AUDIT_GENERATED_(ED)
  6
Continuous
 62
     7
100
AcDbEllipse
 10
432.8154336989
 20
511.5545033399
 30
0.0
 11
-0.009808915976794452
 21
-0.2998395990648495
 31
0.0
210
0.0
220
0.0
230
1.0
 40
0.0523080504
 41
3.141127839141479
 42
3.486579724592688
  0
ELLIPSE
  5
1DD
330
15E
100
AcDbEntity
  8
$DDT_AUDIT_GENERATED_(ED)
  6
Continuous
 62
     7
100
AcDbEllipse
 10
-862.851671171
 20
437.7524919462
 30
0.0
 11
1296.235752849972
 21
78.44203852194518
 31
0.0
210
0.0
220
0.0
230
0.9999999999999998
 40
0.499314465
 41
-0.0463783614059903
 42
-0.0391009525848789
  0
LINE
  5
1DE
330
15E
100
AcDbEntity
  8
$DDT_AUDIT_GENERATED_(ED)
  6
Continuous
 62
     7
100
AcDbLine
 10
433.8061223238
 20
510.8136047915
 30
0.0
 11
433.8061223238
 21
486.1035102983
 31
0.0
  0
ELLIPSE
  5
1DF
330
15E
100
AcDbEntity
  8
$DDT_AUDIT_GENERATED_(ED)
  6
Continuous
 62
     7
100
AcDbEllipse
 10
432.8154336989
 20
485.7001443966
 30
0.0
 11
-0.01848781557142742
 21
0.2994297925648093
 31
0.0
210
0.0
220
0.0
230
0.9999999999999998
 40
0.0021231117
 41
-3.170001469913985
 42
-3.142037964359331
  0
ARC
  5
1E0
330
15E
100
AcDbEntity
  8
$DDT_AUDIT_GENERATED_(ED)
  6
Continuous
 62
     7
100
AcDbCircle
 10
432.7758482581
 20
510.8074768025
 30
0.0
 40
1.030292289922875
100
AcDbArc
 50
0.3407867653
 51
87.5795082613
  0
LINE
  5
1E1
330
15E
100
AcDbEntity
  8
$DDT_AUDIT_GENERATED_(ED)
  6
Continuous
 62
     7
100
AcDbLine
 10
432.7993780125
 20
485.4016281487
 30
0.0
 11
432.7993780125
 21
484.6232501896
 31
0.0
  0
LINE
  5
1E2
330
15E
100
AcDbEntity
  8
$DDT_AUDIT_GENERATED_(ED)
  6
Continuous
 62
     7
100
AcDbLine
 10
432.7993780125
 20
482.968211721
 30
0.0
 11
432.7993780125
 21
482.4024545607
 31
0.0
  0
LINE
  5
1E3
330
15E
100
AcDbEntity
  8
$DDT_AUDIT_GENERATED_(ED)
  6
Continuous
 62
     7
100
AcDbLine
 10
432.7993780125
 20
482.4024545607
 30
0.0
 11
432.7993780125
 21
471.0298339154
 31
0.0
  0
LINE
  5
1E4
330
15E
100
AcDbEntity
  8
$DDT_AUDIT_GENERATED_(ED)
  6
Continuous
 62
     7
100
AcDbLine
 10
432.7993780125
 20
471.0298339154
 30
0.0
 11
432.7993780125
 21
470.8816381724
 31
0.0
  0
SPLINE
  5
1E5
330
15E
100
AcDbEntity
  8
$DDT_AUDIT_GENERATED_(ED)
  6
Continuous
 62
     7
100
AcDbSpline
210
0.0
220
0.0
230
1.0
 70
     8
 71
     3
 72
    14
 73
    10
 74
     0
 42
0.0000000160009277
 43
0.0000000001
 40
0.0
 40
0.0
 40
0.0
 40
0.0
 40
0.25
 40
0.25
 40
0.5
 40
0.5
 40
0.75
 40
0.75
 40
0.7829357017844858
 40
0.7829357017844858
 40
0.7829357017844858
 40
0.7829357017844858
 10
432.3076317222287
 20
485.5979334816121
 30
0.0
 10
432.3631001518077
 20
485.5671309268722
 30
0.0
 10
432.4166484610436
 20
485.5386053753629
 30
0.0
 10
432.5217028276071
 20
485.4839114015456
 30
0.0
 10
432.5733957838206
 20
485.4575407938255
 30
0.0
 10
432.6657786117655
 20
485.414934670944
 30
0.0
 10
432.7075751515475
 20
485.3981360098514
 30
0.0
 10
432.7420050101467
 20
485.3953707033511
 30
0.0
 10
432.7458027455928
 20
485.395317299252
 30
0.0
 10
432.7493935764329
 20
485.3955407384511
 30
0.0
  0
LINE
  5
1E6
330
15E
100
AcDbEntity
  8
$DDT_AUDIT_GENERATED_(ED)
  6
Continuous
 62
     7
100
AcDbLine
 10
432.7993780125
 20
516.0103903295
 30
0.0
 11
432.7993780125
 21
516.8207287872
 31
0.0
  0
LINE
  5
1E7
330
15E
100
AcDbEntity
  8
$DDT_AUDIT_GENERATED_(ED)
  6
Continuous
 62
     7
100
AcDbLine
 10
432.7993780125
 20
516.0103903295
 30
0.0
 11
432.7993780125
 21
515.5341599906
 31
0.0
  0
LINE
  5
1E8
330
15E
100
AcDbEntity
  8
$DDT_AUDIT_GENERATED_(ED)
  6
Continuous
 62
     7
100
AcDbLine
 10
432.7993780125
 20
512.3212200569
 30
0.0
 11
432.7993780125
 21
511.8428873527
 31
0.0
  0
SPLINE
  5
1E9
330
15E
100
AcDbEntity
  8
$DDT_AUDIT_GENERATED_(ED)
  6
Continuous
 62
     7
100
AcDbSpline
210
0.0
220
0.0
230
1.0
 70
     8
 71
     3
 72
     8
 73
     4
 74
     0
 42
0.0000000152656376
 43
0.0000000001
 40
0.8030794850973396
 40
0.8030794850973396
 40
0.8030794850973396
 40
0.8030794850973396
 40
1.0
 40
1.0
 40
1.0
 40
1.0
 10
432.4360577508746
 20
511.867060501049
 30
0.0
 10
432.3939546214763
 20
511.8681935269601
 30
0.0
 10
432.3507002476196
 20
511.8653307776551
 30
0.0
 10
432.3076317222397
 20
511.8590191009328
 30
0.0
  0
LINE
  5
1EA
330
15E
100
AcDbEntity
  8
$DDT_AUDIT_GENERATED_(ED)
  6
Continuous
 62
     7
100
AcDbLine
 10
432.3059228102
 20
517.320685951
 30
0.0
 11
391.4854774781
 21
517.8550548521
 31
0.0
  0
ARC
  5
1EB
330
15E
100
AcDbEntity
  8
$DDT_AUDIT_GENERATED_(ED)
  6
Continuous
 62
     7
100
AcDbCircle
 10
-866.0006219875
 20
489.8142262685
 30
0.0
 40
1300.0
100
AcDbArc
 50
359.0120442853
 51
359.1517397357
  0
LINE
  5
1EC
330
15E
100
AcDbEntity
  8
$DDT_AUDIT_GENERATED_(ED)
  6
Continuous
 62
     7
100
AcDbLine
 10
386.7993780125
 20
465.8142262685
 30
0.0
 11
432.8193605776
 21
466.4166608406
 31
0.0
  0
LINE
  5
1ED
330
15E
100
AcDbEntity
  8
$DDT_AUDIT_GENERATED_(ED)
  6
Continuous
 62
     7
100
AcDbLine
 10
432.7475342733
 20
485.3953839192
 30
0.0
 11
432.8339215145
 21
485.400714604
 31
0.0
  0
LINE
  5
1EE
330
15E
100
AcDbEntity
  8
$DDT_AUDIT_GENERATED_(ED)
  6
Continuous
 62
     7
100
AcDbLine
 10
432.8252426149
 20
511.8543429389
 30
0.0
 11
432.4347806499
 21
511.8670972489
 31
0.0
  0
LINE
  5
1EF
330
15E
100
AcDbEntity
  8
$DDT_AUDIT_GENERATED_(ED)
  6
Continuous
 62
     7
100
AcDbLine
 10
386.7996038987
 20
469.6375844933
 30
0.0
 11
432.3076204478
 21
470.3792296026
 31
0.0
  0
ARC
  5
1F0
330
15E
100
AcDbEntity
  8
$DDT_AUDIT_GENERATED_(ED)
  6
Continuous
 62
     7
100
AcDbCircle
 10
432.806270982
 20
467.4165751681
 30
0.0
 40
1.000000000000002
100
AcDbArc
 50
270.75
 51
359.0120442853
  0
SPLINE
  5
1F1
330
15E
100
AcDbEntity
  8
$DDT_AUDIT_GENERATED_(ED)
  6
Continuous
 62
     7
100
AcDbSpline
210
0.0
220
0.0
230
1.0
 70
     8
 71
     3
 72
    13
 73
     9
 74
     0
 42
0.0000000075193587
 43
0.0000000001
 40
0.0
 40
0.0
 40
0.0
 40
0.0
 40
0.1353783406920816
 40
0.3399736691827194
 40
0.5546873622971809
 40
0.7490076330517651
 40
0.9238231130000971
 40
1.0
 40
1.0
 40
1.0
 40
1.0
 10
432.8334532450227
 20
485.4069631765921
 30
0.0
 10
432.9069010931467
 20
485.4110565953686
 30
0.0
 10
433.0650090436581
 20
485.4214591824191
 30
0.0
 10
433.3249687305674
 20
485.501801830373
 30
0.0
 10
433.5585079093464
 20
485.6321819563112
 30
0.0
 10
433.7201352474153
 20
485.8034319099244
 30
0.0
 10
433.8042989271961
 20
485.9762077423472
 30
0.0
 10
433.7979403401936
 20
486.072506197074
 30
0.0
 10
433.7953347456783
 20
486.1065639945348
 30
0.0
  0
ARC
  5
1F2
330
15E
100
AcDbEntity
  8
$DDT_AUDIT_GENERATED_(ED)
  6
Continuous
 62
     7
100
AcDbCircle
 10
432.2993780125
 20
470.8776197234
 30
0.0
 40
0.4999999999999752
100
AcDbArc
 50
271.1713561984
 51
0.0057734005
  0
ARC
  5
1F3
330
15E
100
AcDbEntity
  8
$DDT_AUDIT_GENERATED_(ED)
  6
Continuous
 62
     7
100
AcDbCircle
 10
432.2993780125
 20
516.8207287872
 30
0.0
 40
0.5000000000000004
100
AcDbArc
 50
0.0
 51
89.25
  0
LINE
  5
1F4
330
15E
100
AcDbEntity
  8
$DDT_AUDIT_GENERATED_(137)
  6
Continuous
 62
     7
100
AcDbLine
 10
436.9993780125
 20
516.5142262685
 30
0.0
 11
436.9993780125
 21
515.7053777237
 31
0.0
  0
LINE
  5
1F5
330
15E
100
AcDbEntity
  8
$DDT_AUDIT_GENERATED_(137)
  6
Continuous
 62
     7
100
AcDbLine
 10
436.9993780125
 20
515.7053777237
 30
0.0
 11
436.9993780125
 21
515.2205247002
 31
0.0
  0
LINE
  5
1F6
330
15E
100
AcDbEntity
  8
$DDT_AUDIT_GENERATED_(137)
  6
Continuous
 62
     7
100
AcDbLine
 10
436.9993780125
 20
515.2205247002
 30
0.0
 11
436.9993780125
 21
501.3612316523
 31
0.0
  0
LINE
  5
1F7
330
15E
100
AcDbEntity
  8
$DDT_AUDIT_GENERATED_(137)
  6
Continuous
 62
     7
100
AcDbLine
 10
436.9993780125
 20
501.3612316523
 30
0.0
 11
436.9993780125
 21
490.0162988628
 31
0.0
  0
LINE
  5
1F8
330
15E
100
AcDbEntity
  8
$DDT_AUDIT_GENERATED_(137)
  6
Continuous
 62
     7
100
AcDbLine
 10
436.9993780125
 20
490.0162988628
 30
0.0
 11
436.9993780125
 21
483.0866523388
 31
0.0
  0
LINE
  5
1F9
330
15E
100
AcDbEntity
  8
$DDT_AUDIT_GENERATED_(137)
  6
Continuous
 62
     7
100
AcDbLine
 10
436.9993780125
 20
483.0866523388
 30
0.0
 11
436.9993780125
 21
482.5169872203
 31
0.0
  0
LINE
  5
1FA
330
15E
100
AcDbEntity
  8
$DDT_AUDIT_GENERATED_(137)
  6
Continuous
 62
     7
100
AcDbLine
 10
436.9993780125
 20
482.5169872203
 30
0.0
 11
436.9993780125
 21
471.2203138616
 31
0.0
  0
LINE
  5
1FB
330
15E
100
AcDbEntity
  8
$DDT_AUDIT_GENERATED_(137)
  6
Continuous
 62
     7
100
AcDbLine
 10
436.9993780125
 20
471.2203138616
 30
0.0
 11
436.9993780125
 21
471.0685144685
 31
0.0
  0
LINE
  5
1FC
330
15E
100
AcDbEntity
  8
$DDT_AUDIT_GENERATED_(137)
  6
Continuous
 62
     7
100
AcDbLine
 10
432.7993780125
 20
515.8993189331
 30
0.0
 11
432.7993780125
 21
516.0103903295
 31
0.0
  0
LINE
  5
1FD
330
15E
100
AcDbEntity
  8
$DDT_AUDIT_GENERATED_(137)
  6
Continuous
 62
     7
100
AcDbLine
 10
432.7993780125
 20
515.2205247002
 30
0.0
 11
432.7993780125
 21
515.8993189331
 31
0.0
  0
LINE
  5
1FE
330
15E
100
AcDbEntity
  8
$DDT_AUDIT_GENERATED_(137)
  6
Continuous
 62
     7
100
AcDbLine
 10
432.7993780125
 20
511.8551884398
 30
0.0
 11
432.7993780125
 21
515.2205247002
 31
0.0
  0
LINE
  5
1FF
330
15E
100
AcDbEntity
  8
$DDT_AUDIT_GENERATED_(137)
  6
Continuous
 62
     7
100
AcDbLine
 10
432.7993780125
 20
483.2598574196
 30
0.0
 11
432.7993780125
 21
485.3985830332
 31
0.0
  0
LINE
  5
200
330
15E
100
AcDbEntity
  8
$DDT_AUDIT_GENERATED_(137)
  6
Continuous
 62
     7
100
AcDbLine
 10
432.7993780125
 20
482.4623262536
 30
0.0
 11
432.7993780125
 21
483.2598574196
 31
0.0
  0
LINE
  5
201
330
15E
100
AcDbEntity
  8
$DDT_AUDIT_GENERATED_(137)
  6
Continuous
 62
     7
100
AcDbLine
 10
432.7993780125
 20
482.4024545607
 30
0.0
 11
432.7993780125
 21
482.4623262536
 31
0.0
  0
LINE
  5
202
330
15E
100
AcDbEntity
  8
$DDT_AUDIT_GENERATED_(137)
  6
Continuous
 62
     7
100
AcDbLine
 10
432.7993780125
 20
470.8685144685
 30
0.0
 11
432.7993780125
 21
471.0298339154
 31
0.0
  0
LINE
  5
203
330
15E
100
AcDbEntity
  8
$DDT_AUDIT_GENERATED_(137)
  6
Continuous
 62
     7
100
AcDbLine
 10
436.4993780125
 20
517.0142262685
 30
0.0
 11
433.0993780125
 21
517.0142262685
 31
0.0
  0
LINE
  5
204
330
15E
100
AcDbEntity
  8
$DDT_AUDIT_GENERATED_(137)
  6
Continuous
 62
     7
100
AcDbLine
 10
433.0993780125
 20
470.5685144685
 30
0.0
 11
436.4993780125
 21
470.5685144685
 31
0.0
  0
ARC
  5
205
330
15E
100
AcDbEntity
  8
$DDT_AUDIT_GENERATED_(137)
  6
Continuous
 62
     7
100
AcDbCircle
 10
436.4993780125
 20
516.5142262685
 30
0.0
 40
0.5000000000000004
100
AcDbArc
 50
0.0
 51
90.0
  0
ARC
  5
206
330
15E
100
AcDbEntity
  8
$DDT_AUDIT_GENERATED_(137)
  6
Continuous
 62
     7
100
AcDbCircle
 10
436.4993780125
 20
471.0685144685
 30
0.0
 40
0.5000000000000004
100
AcDbArc
 50
270.0
 51
0.0
  0
ARC
  5
207
330
15E
100
AcDbEntity
  8
$DDT_AUDIT_GENERATED_(137)
  6
Continuous
 62
     7
100
AcDbCircle
 10
433.0993780125
 20
516.7142262685
 30
0.0
 40
0.3000000000000086
100
AcDbArc
 50
90.0
 51
180.0
  0
ARC
  5
208
330
15E
100
AcDbEntity
  8
$DDT_AUDIT_GENERATED_(137)
  6
Continuous
 62
     7
100
AcDbCircle
 10
433.0993780125
 20
470.8685144685
 30
0.0
 40
0.2999999999999947
100
AcDbArc
 50
180.0
 51
270.0
  0
LINE
  5
209
330
15E
100
AcDbEntity
  8
$DDT_AUDIT_GENERATED_(137)
  6
Continuous
 62
     7
100
AcDbLine
 10
436.5993780125
 20
431.5132850968
 30
0.0
 11
436.5993780125
 21
430.704436552
 31
0.0
  0
LINE
  5
20A
330
15E
100
AcDbEntity
  8
$DDT_AUDIT_GENERATED_(137)
  6
Continuous
 62
     7
100
AcDbLine
 10
436.5993780125
 20
430.704436552
 30
0.0
 11
436.5993780125
 21
430.2195835285
 31
0.0
  0
LINE
  5
20B
330
15E
100
AcDbEntity
  8
$DDT_AUDIT_GENERATED_(137)
  6
Continuous
 62
     7
100
AcDbLine
 10
436.5993780125
 20
430.2195835285
 30
0.0
 11
436.5993780125
 21
416.3602904806
 31
0.0
  0
LINE
  5
20C
330
15E
100
AcDbEntity
  8
$DDT_AUDIT_GENERATED_(137)
  6
Continuous
 62
     7
100
AcDbLine
 10
436.5993780125
 20
416.3602904806
 30
0.0
 11
436.5993780125
 21
405.015357691
 31
0.0
  0
LINE
  5
20D
330
15E
100
AcDbEntity
  8
$DDT_AUDIT_GENERATED_(137)
  6
Continuous
 62
     7
100
AcDbLine
 10
436.5993780125
 20
405.015357691
 30
0.0
 11
436.5993780125
 21
398.0857111671
 31
0.0
  0
LINE
  5
20E
330
15E
100
AcDbEntity
  8
$DDT_AUDIT_GENERATED_(137)
  6
Continuous
 62
     7
100
AcDbLine
 10
436.5993780125
 20
398.0857111671
 30
0.0
 11
436.5993780125
 21
397.5160460485
 31
0.0
  0
LINE
  5
20F
330
15E
100
AcDbEntity
  8
$DDT_AUDIT_GENERATED_(137)
  6
Continuous
 62
     7
100
AcDbLine
 10
436.5993780125
 20
397.5160460485
 30
0.0
 11
436.5993780125
 21
386.2193726899
 31
0.0
  0
LINE
  5
210
330
15E
100
AcDbEntity
  8
$DDT_AUDIT_GENERATED_(137)
  6
Continuous
 62
     7
100
AcDbLine
 10
436.5993780125
 20
386.2193726899
 30
0.0
 11
436.5993780125
 21
386.0675732967
 31
0.0
  0
LINE
  5
211
330
15E
100
AcDbEntity
  8
$DDT_AUDIT_GENERATED_(137)
  6
Continuous
 62
     7
100
AcDbLine
 10
432.3993780125
 20
430.8983777614
 30
0.0
 11
432.3993780125
 21
431.0094491578
 31
0.0
  0
LINE
  5
212
330
15E
100
AcDbEntity
  8
$DDT_AUDIT_GENERATED_(137)
  6
Continuous
 62
     7
100
AcDbLine
 10
432.3993780125
 20
430.2195835285
 30
0.0
 11
432.3993780125
 21
430.8983777614
 31
0.0
  0
LINE
  5
213
330
15E
100
AcDbEntity
  8
$DDT_AUDIT_GENERATED_(137)
  6
Continuous
 62
     7
100
AcDbLine
 10
432.3993780125
 20
426.8542472681
 30
0.0
 11
432.3993780125
 21
430.2195835285
 31
0.0
  0
LINE
  5
214
330
15E
100
AcDbEntity
  8
$DDT_AUDIT_GENERATED_(137)
  6
Continuous
 62
     7
100
AcDbLine
 10
432.3993780125
 20
398.2589162478
 30
0.0
 11
432.3993780125
 21
400.3976418614
 31
0.0
  0
LINE
  5
215
330
15E
100
AcDbEntity
  8
$DDT_AUDIT_GENERATED_(137)
  6
Continuous
 62
     7
100
AcDbLine
 10
432.3993780125
 20
397.4613850819
 30
0.0
 11
432.3993780125
 21
398.2589162478
 31
0.0
  0
LINE
  5
216
330
15E
100
AcDbEntity
  8
$DDT_AUDIT_GENERATED_(137)
  6
Continuous
 62
     7
100
AcDbLine
 10
432.3993780125
 20
397.4015133889
 30
0.0
 11
432.3993780125
 21
397.4613850819
 31
0.0
  0
LINE
  5
217
330
15E
100
AcDbEntity
  8
$DDT_AUDIT_GENERATED_(137)
  6
Continuous
 62
     7
100
AcDbLine
 10
432.3993780125
 20
385.8675732967
 30
0.0
 11
432.3993780125
 21
386.0288927437
 31
0.0
  0
LINE
  5
218
330
15E
100
AcDbEntity
  8
$DDT_AUDIT_GENERATED_(137)
  6
Continuous
 62
     7
100
AcDbLine
 10
436.0993780125
 20
432.0132850968
 30
0.0
 11
432.6993780125
 21
432.0132850968
 31
0.0
  0
LINE
  5
219
330
15E
100
AcDbEntity
  8
$DDT_AUDIT_GENERATED_(137)
  6
Continuous
 62
     7
100
AcDbLine
 10
432.6993780125
 20
385.5675732967
 30
0.0
 11
436.0993780125
 21
385.5675732967
 31
0.0
  0
ARC
  5
21A
330
15E
100
AcDbEntity
  8
$DDT_AUDIT_GENERATED_(137)
  6
Continuous
 62
     7
100
AcDbCircle
 10
436.0993780125
 20
431.5132850968
 30
0.0
 40
0.5000000000000004
100
AcDbArc
 50
0.0
 51
90.0
  0
ARC
  5
21B
330
15E
100
AcDbEntity
  8
$DDT_AUDIT_GENERATED_(137)
  6
Continuous
 62
     7
100
AcDbCircle
 10
436.0993780125
 20
386.0675732967
 30
0.0
 40
0.5000000000000004
100
AcDbArc
 50
270.0
 51
0.0
  0
ARC
  5
21C
330
15E
100
AcDbEntity
  8
$DDT_AUDIT_GENERATED_(137)
  6
Continuous
 62
     7
100
AcDbCircle
 10
432.6993780125
 20
431.7132850968
 30
0.0
 40
0.3000000000000017
100
AcDbArc
 50
90.0
 51
180.0
  0
ARC
  5
21D
330
15E
100
AcDbEntity
  8
$DDT_AUDIT_GENERATED_(137)
  6
Continuous
 62
     7
100
AcDbCircle
 10
432.6993780125
 20
385.8675732967
 30
0.0
 40
0.2999999999999947
100
AcDbArc
 50
180.0
 51
270.0
  0
LINE
  5
21F
330
15E
100
AcDbEntity
  8
DV2_Default
  6
Continuous
 62
     7
100
AcDbLine
 10
360.6993780125
 20
516.0642262685
 30
0.0
 11
360.6993780125
 21
463.5642262685
 31
0.0
  0
LINE
  5
220
330
15E
100
AcDbEntity
  8
DV2_Default
  6
Continuous
 62
     7
100
AcDbLine
 10
360.6993780125
 20
431.0642262685
 30
0.0
 11
360.6993780125
 21
378.5642262685
 31
0.0
  0
ENDBLK
  5
222
330
15E
100
AcDbEntity
  8
0
100
AcDbBlockEnd
  0
BLOCK
  5
2B5
330
223
100
AcDbEntity
  8
0
100
AcDbBlockBegin
  2
SE2
 70
     0
 10
0.0
 20
0.0
 30
0.0
  3
SE2
  1

  0
LINE
  5
225
330
223
100
AcDbEntity
  8
$DDT_AUDIT_GENERATED_(87)
  6
Continuous
 62
     7
100
AcDbLine
 10
79.2288278984
 20
224.9091260186
 30
0.0
 11
246.6288278984
 21
224.9091260186
 31
0.0
  0
LINE
  5
226
330
223
100
AcDbEntity
  8
$DDT_AUDIT_GENERATED_(87)
  6
Continuous
 62
     7
100
AcDbLine
 10
246.6288278984
 20
224.9091260186
 30
0.0
 11
248.4288278984
 21
224.9091260186
 31
0.0
  0
LINE
  5
227
330
223
100
AcDbEntity
  8
$DDT_AUDIT_GENERATED_(87)
  6
Continuous
 62
     7
100
AcDbLine
 10
77.4288278984
 20
224.9091260186
 30
0.0
 11
79.2288278984
 21
224.9091260186
 31
0.0
  0
LINE
  5
228
330
223
100
AcDbEntity
  8
$DDT_AUDIT_GENERATED_(87)
  6
Continuous
 62
     7
100
AcDbLine
 10
77.4288278984
 20
213.4091260186
 30
0.0
 11
77.4288278984
 21
224.9091260186
 31
0.0
  0
LINE
  5
229
330
223
100
AcDbEntity
  8
$DDT_AUDIT_GENERATED_(87)
  6
Continuous
 62
     7
100
AcDbLine
 10
246.6288278984
 20
211.6091260186
 30
0.0
 11
79.2288278984
 21
211.6091260186
 31
0.0
  0
LINE
  5
22A
330
223
100
AcDbEntity
  8
$DDT_AUDIT_GENERATED_(87)
  6
Continuous
 62
     7
100
AcDbLine
 10
248.4288278984
 20
224.9091260186
 30
0.0
 11
248.4288278984
 21
213.4091260186
 31
0.0
  0
ARC
  5
22B
330
223
100
AcDbEntity
  8
$DDT_AUDIT_GENERATED_(87)
  6
Continuous
 62
     7
100
AcDbCircle
 10
246.6288278984
 20
213.4091260186
 30
0.0
 40
1.799999999999996
100
AcDbArc
 50
270.0
 51
0.0
  0
ARC
  5
22C
330
223
100
AcDbEntity
  8
$DDT_AUDIT_GENERATED_(87)
  6
Continuous
 62
     7
100
AcDbCircle
 10
79.2288278984
 20
213.4091260186
 30
0.0
 40
1.80000000000001
100
AcDbArc
 50
180.0
 51
270.0
  0
LINE
  5
22D
330
223
100
AcDbEntity
  8
$DDT_AUDIT_GENERATED_(9D)
  6
Continuous
 62
     7
100
AcDbLine
 10
137.2394618046
 20
206.8665903936
 30
0.0
 11
138.8163278984
 21
200.5591260186
 31
0.0
  0
LINE
  5
22E
330
223
100
AcDbEntity
  8
$DDT_AUDIT_GENERATED_(9D)
  6
Continuous
 62
     7
100
AcDbLine
 10
187.0413278984
 20
200.5591260186
 30
0.0
 11
188.6181939921
 21
206.8665903936
 31
0.0
  0
ARC
  5
22F
330
223
100
AcDbEntity
  8
$DDT_AUDIT_GENERATED_(9D)
  6
Continuous
 62
     7
100
AcDbCircle
 10
138.2096043048
 20
207.1091260186
 30
0.0
 40
0.9999999999993612
100
AcDbArc
 50
104.0362434681
 51
194.0362434679
  0
ARC
  5
230
330
223
100
AcDbEntity
  8
$DDT_AUDIT_GENERATED_(9D)
  6
Continuous
 62
     7
100
AcDbCircle
 10
187.648051492
 20
207.1091260186
 30
0.0
 40
1.000000000000002
100
AcDbArc
 50
345.9637565321
 51
75.9637565319
  0
ARC
  5
231
330
223
100
AcDbEntity
  8
$DDT_AUDIT_GENERATED_(9D)
  6
Continuous
 62
     7
100
AcDbCircle
 10
138.0883364922
 20
207.5941972687
 30
0.0
 40
0.5000000000000004
100
AcDbArc
 50
90.0
 51
104.0362434682
  0
ARC
  5
232
330
223
100
AcDbEntity
  8
$DDT_AUDIT_GENERATED_(9D)
  6
Continuous
 62
     7
100
AcDbCircle
 10
187.7693193045
 20
207.5941972687
 30
0.0
 40
0.4999999999993727
100
AcDbArc
 50
75.9637565318
 51
90.0
  0
LINE
  5
233
330
223
100
AcDbEntity
  8
$DDT_AUDIT_GENERATED_(9D)
  6
Continuous
 62
     7
100
AcDbLine
 10
187.7693193045
 20
208.0941972687
 30
0.0
 11
187.5517286998
 21
208.0941972687
 31
0.0
  0
LINE
  5
234
330
223
100
AcDbEntity
  8
$DDT_AUDIT_GENERATED_(9D)
  6
Continuous
 62
     7
100
AcDbLine
 10
138.3059270969
 20
208.0941972687
 30
0.0
 11
138.0883364922
 21
208.0941972687
 31
0.0
  0
LINE
  5
235
330
223
100
AcDbEntity
  8
$DDT_AUDIT_GENERATED_(A2)
  6
Continuous
 62
     7
100
AcDbLine
 10
138.9296176352
 20
199.2091260186
 30
0.0
 11
136.231147759
 21
199.2091260186
 31
0.0
  0
LINE
  5
236
330
223
100
AcDbEntity
  8
$DDT_AUDIT_GENERATED_(A2)
  6
Continuous
 62
     7
100
AcDbLine
 10
138.9296176352
 20
199.2091260186
 30
0.0
 11
143.4288278984
 21
199.2091260186
 31
0.0
  0
LINE
  5
237
330
223
100
AcDbEntity
  8
$DDT_AUDIT_GENERATED_(A2)
  6
Continuous
 62
     7
100
AcDbLine
 10
182.4288278984
 20
199.2091260186
 30
0.0
 11
186.9296176352
 21
199.2091260186
 31
0.0
  0
LINE
  5
238
330
223
100
AcDbEntity
  8
$DDT_AUDIT_GENERATED_(A2)
  6
Continuous
 62
     7
100
AcDbLine
 10
135.746279316
 20
199.2091260186
 30
0.0
 11
136.231147759
 21
199.2091260186
 31
0.0
  0
LINE
  5
239
330
223
100
AcDbEntity
  8
$DDT_AUDIT_GENERATED_(A2)
  6
Continuous
 62
     7
100
AcDbLine
 10
189.6280875114
 20
199.2091260186
 30
0.0
 11
186.9296176352
 21
199.2091260186
 31
0.0
  0
LINE
  5
23A
330
223
100
AcDbEntity
  8
$DDT_AUDIT_GENERATED_(A2)
  6
Continuous
 62
     7
100
AcDbLine
 10
189.6280875114
 20
199.2091260186
 30
0.0
 11
190.1128598407
 21
199.2091260186
 31
0.0
  0
LINE
  5
23B
330
223
100
AcDbEntity
  8
$DDT_AUDIT_GENERATED_(A2)
  6
Continuous
 62
     7
100
AcDbLine
 10
138.9296176352
 20
199.2091260186
 30
0.0
 11
138.9348539221
 21
198.8091260186
 31
0.0
  0
LINE
  5
23C
330
223
100
AcDbEntity
  8
$DDT_AUDIT_GENERATED_(A2)
  6
Continuous
 62
     7
100
AcDbLine
 10
186.9243813484
 20
198.8091260186
 30
0.0
 11
186.9296176352
 21
199.2091260186
 31
0.0
  0
LINE
  5
23D
330
223
100
AcDbEntity
  8
$DDT_AUDIT_GENERATED_(A2)
  6
Continuous
 62
     7
100
AcDbLine
 10
135.7468174888
 20
199.2089894335
 30
0.0
 11
135.752539902
 21
198.8352968153
 31
0.0
  0
LINE
  5
23E
330
223
100
AcDbEntity
  8
$DDT_AUDIT_GENERATED_(A2)
  6
Continuous
 62
     7
100
AcDbLine
 10
190.1046923964
 20
198.8349129204
 30
0.0
 11
190.1103889715
 21
199.2091331727
 31
0.0
  0
LINE
  5
23F
330
223
100
AcDbEntity
  8
$DDT_AUDIT_GENERATED_(98)
  6
Continuous
 62
     7
100
AcDbLine
 10
187.1788278984
 20
208.0591260186
 30
0.0
 11
138.6788278984
 21
208.0591260186
 31
0.0
  0
LINE
  5
240
330
223
100
AcDbEntity
  8
$DDT_AUDIT_GENERATED_(98)
  6
Continuous
 62
     7
100
AcDbLine
 10
136.6788278984
 20
211.6091260186
 30
0.0
 11
136.6788278984
 21
210.0591260186
 31
0.0
  0
LINE
  5
241
330
223
100
AcDbEntity
  8
$DDT_AUDIT_GENERATED_(98)
  6
Continuous
 62
     7
100
AcDbLine
 10
189.1788278984
 20
210.0591260186
 30
0.0
 11
189.1788278984
 21
211.6091260186
 31
0.0
  0
ARC
  5
242
330
223
100
AcDbEntity
  8
$DDT_AUDIT_GENERATED_(98)
  6
Continuous
 62
     7
100
AcDbCircle
 10
138.6788278984
 20
210.0591260186
 30
0.0
 40
1.999999999999998
100
AcDbArc
 50
180.0
 51
270.0
  0
ARC
  5
243
330
223
100
AcDbEntity
  8
$DDT_AUDIT_GENERATED_(98)
  6
Continuous
 62
     7
100
AcDbCircle
 10
187.1788278984
 20
210.0591260186
 30
0.0
 40
2.000000000000002
100
AcDbArc
 50
270.0
 51
0.0
  0
LINE
  5
244
330
223
100
AcDbEntity
  8
$DDT_AUDIT_GENERATED_(E8)
  6
Continuous
 62
     7
100
AcDbLine
 10
139.3288278984
 20
200.0591260186
 30
0.0
 11
186.5288278984
 21
200.0591260186
 31
0.0
  0
LINE
  5
245
330
223
100
AcDbEntity
  8
$DDT_AUDIT_GENERATED_(E8)
  6
Continuous
 62
     7
100
AcDbLine
 10
162.9288278984
 20
208.0591260186
 30
0.0
 11
185.0288278984
 21
208.0591260186
 31
0.0
  0
LINE
  5
246
330
223
100
AcDbEntity
  8
$DDT_AUDIT_GENERATED_(E8)
  6
Continuous
 62
     7
100
AcDbLine
 10
137.4032181423
 20
206.8396138235
 30
0.0
 11
138.8410230203
 21
200.4493699211
 31
0.0
  0
LINE
  5
247
330
223
100
AcDbEntity
  8
$DDT_AUDIT_GENERATED_(E8)
  6
Continuous
 62
     7
100
AcDbLine
 10
187.0166327764
 20
200.4493699211
 30
0.0
 11
188.4544376545
 21
206.8396138235
 31
0.0
  0
LINE
  5
248
330
223
100
AcDbEntity
  8
$DDT_AUDIT_GENERATED_(E8)
  6
Continuous
 62
     7
100
AcDbLine
 10
143.4288278984
 20
199.5591260186
 30
0.0
 11
143.4288278984
 21
198.8091260186
 31
0.0
  0
LINE
  5
249
330
223
100
AcDbEntity
  8
$DDT_AUDIT_GENERATED_(E8)
  6
Continuous
 62
     7
100
AcDbLine
 10
182.4288278984
 20
198.8091260186
 30
0.0
 11
182.4288278984
 21
199.5591260186
 31
0.0
  0
ARC
  5
24A
330
223
100
AcDbEntity
  8
$DDT_AUDIT_GENERATED_(E8)
  6
Continuous
 62
     7
100
AcDbCircle
 10
182.9288278984
 20
199.5591260186
 30
0.0
 40
0.5000000000000004
100
AcDbArc
 50
90.0
 51
180.0
  0
ARC
  5
24B
330
223
100
AcDbEntity
  8
$DDT_AUDIT_GENERATED_(E8)
  6
Continuous
 62
     7
100
AcDbCircle
 10
142.9288278984
 20
199.5591260186
 30
0.0
 40
0.5000000000000004
100
AcDbArc
 50
0.0
 51
90.0
  0
ARC
  5
24C
330
223
100
AcDbEntity
  8
$DDT_AUDIT_GENERATED_(E8)
  6
Continuous
 62
     7
100
AcDbCircle
 10
186.5288278984
 20
200.5591260186
 30
0.0
 40
0.5000000000000004
100
AcDbArc
 50
270.0
 51
347.3196165082
  0
ARC
  5
24D
330
223
100
AcDbEntity
  8
$DDT_AUDIT_GENERATED_(E8)
  6
Continuous
 62
     7
100
AcDbCircle
 10
139.3288278984
 20
200.5591260186
 30
0.0
 40
0.5000000000000004
100
AcDbArc
 50
192.6803834918
 51
270.0
  0
ARC
  5
24E
330
223
100
AcDbEntity
  8
$DDT_AUDIT_GENERATED_(E8)
  6
Continuous
 62
     7
100
AcDbCircle
 10
138.3788278984
 20
207.0591260186
 30
0.0
 40
0.9999999999992424
100
AcDbArc
 50
102.6803834916
 51
192.6803834918
  0
ARC
  5
24F
330
223
100
AcDbEntity
  8
$DDT_AUDIT_GENERATED_(E8)
  6
Continuous
 62
     7
100
AcDbCircle
 10
187.4788278984
 20
207.0591260186
 30
0.0
 40
1.000000000000004
100
AcDbArc
 50
347.3196165082
 51
77.3196165084
  0
LINE
  5
250
330
223
100
AcDbEntity
  8
$DDT_AUDIT_GENERATED_(E8)
  6
Continuous
 62
     7
100
AcDbLine
 10
185.0288278984
 20
208.0469308967
 30
0.0
 11
185.0288278984
 21
208.0591260186
 31
0.0
  0
LINE
  5
251
330
223
100
AcDbEntity
  8
$DDT_AUDIT_GENERATED_(E8)
  6
Continuous
 62
     7
100
AcDbLine
 10
140.8288278984
 20
208.0591260186
 30
0.0
 11
140.8288278984
 21
208.0469308967
 31
0.0
  0
ARC
  5
252
330
223
100
AcDbEntity
  8
$DDT_AUDIT_GENERATED_(E8)
  6
Continuous
 62
     7
100
AcDbCircle
 10
138.2690718008
 20
207.5469308967
 30
0.0
 40
0.5000000000000004
100
AcDbArc
 50
90.0
 51
102.6803834918
  0
ARC
  5
253
330
223
100
AcDbEntity
  8
$DDT_AUDIT_GENERATED_(E8)
  6
Continuous
 62
     7
100
AcDbCircle
 10
187.5885839959
 20
207.5469308967
 30
0.0
 40
0.499999999999256
100
AcDbArc
 50
77.3196165082
 51
90.0
  0
LINE
  5
254
330
223
100
AcDbEntity
  8
$DDT_AUDIT_GENERATED_(E8)
  6
Continuous
 62
     7
100
AcDbLine
 10
187.5885839959
 20
208.0469308967
 30
0.0
 11
138.2690718008
 21
208.0469308967
 31
0.0
  0
LINE
  5
255
330
223
100
AcDbEntity
  8
$DDT_AUDIT_GENERATED_(ED)
  6
Continuous
 62
     7
100
AcDbLine
 10
161.1792542072
 20
198.8091260186
 30
0.0
 11
155.6372245528
 21
198.8091260186
 31
0.0
  0
LINE
  5
256
330
223
100
AcDbEntity
  8
$DDT_AUDIT_GENERATED_(ED)
  6
Continuous
 62
     7
100
AcDbLine
 10
161.1792542072
 20
198.8091260186
 30
0.0
 11
161.1803163144
 21
194.1649162688
 31
0.0
  0
ARC
  5
257
330
223
100
AcDbEntity
  8
$DDT_AUDIT_GENERATED_(ED)
  6
Continuous
 62
     7
100
AcDbCircle
 10
162.9288278984
 20
211.9404373023
 30
0.0
 40
17.86131128366303
100
AcDbArc
 50
264.3821011936
 51
275.6178988064
  0
LINE
  5
258
330
223
100
AcDbEntity
  8
$DDT_AUDIT_GENERATED_(ED)
  6
Continuous
 62
     7
100
AcDbLine
 10
164.6784015896
 20
198.8091260186
 30
0.0
 11
164.6773394823
 21
194.1649162688
 31
0.0
  0
LINE
  5
259
330
223
100
AcDbEntity
  8
$DDT_AUDIT_GENERATED_(ED)
  6
Continuous
 62
     7
100
AcDbLine
 10
164.6549012445
 20
198.8091260186
 30
0.0
 11
161.2027545522
 21
198.8091260186
 31
0.0
  0
LINE
  5
25A
330
223
100
AcDbEntity
  8
$DDT_AUDIT_GENERATED_(ED)
  6
Continuous
 62
     7
100
AcDbLine
 10
161.2027545522
 20
198.8091260186
 30
0.0
 11
161.1792542072
 21
198.8091260186
 31
0.0
  0
ELLIPSE
  5
25B
330
223
100
AcDbEntity
  8
$DDT_AUDIT_GENERATED_(ED)
  6
Continuous
 62
     7
100
AcDbEllipse
 10
164.8064016302
 20
198.7115275573
 30
0.0
 11
0.0
 21
0.1802160550647519
 31
0.0
210
0.0
220
0.0
230
1.0
 40
1.0
 41
0.9985003236884067
 42
3.113213825770497
  0
LINE
  5
25C
330
223
100
AcDbEntity
  8
$DDT_AUDIT_GENERATED_(ED)
  6
Continuous
 62
     7
100
AcDbLine
 10
164.6549012445
 20
198.8091260186
 30
0.0
 11
164.6784015896
 21
198.8091260186
 31
0.0
  0
ELLIPSE
  5
25D
330
223
100
AcDbEntity
  8
$DDT_AUDIT_GENERATED_(ED)
  6
Continuous
 62
     7
100
AcDbEllipse
 10
161.0512541665
 20
198.7115275573
 30
0.0
 11
0.0
 21
4.548442727683412
 31
0.0
210
0.0
220
0.0
230
1.0
 40
1.0
 41
3.169971481409084
 42
5.284684983490516
  0
LINE
  5
25E
330
223
100
AcDbEntity
  8
$DDT_AUDIT_GENERATED_(ED)
  6
Continuous
 62
     7
100
AcDbLine
 10
155.4291219717
 20
152.8141480517
 30
0.0
 11
155.4271944919
 21
152.7773695453
 31
0.0
  0
ARC
  5
25F
330
223
100
AcDbEntity
  8
$DDT_AUDIT_GENERATED_(ED)
  6
Continuous
 62
     7
100
AcDbCircle
 10
152.0436092905
 20
270.369877732
 30
0.0
 40
118.7246918812669
100
AcDbArc
 50
268.5328568854
 51
271.4671431146
  0
ELLIPSE
  5
260
330
223
100
AcDbEntity
  8
$DDT_AUDIT_GENERATED_(ED)
  6
Continuous
 62
     7
100
AcDbEllipse
 10
155.0852087593
 20
151.9840898189
 30
0.0
 11
-0.2995888604240072
 21
0.01570078692042509
 31
0.0
210
0.0
220
0.0
230
1.0
 40
0.9999604486
 41
1.617119154238202
 42
3.141592653589793
  0
ELLIPSE
  5
261
330
223
100
AcDbEntity
  8
$DDT_AUDIT_GENERATED_(ED)
  6
Continuous
 62
     7
100
AcDbEllipse
 10
132.8709500478
 20
1448.4601459047
 30
0.0
 11
135.3722178443077
 21
-1291.531864995821
 31
0.0
210
0.0
220
0.0
230
1.0
 40
0.8648380364
 41
-0.0815071310611923
 42
-0.0799382658560495
  0
ARC
  5
262
330
223
100
AcDbEntity
  8
$DDT_AUDIT_GENERATED_(ED)
  6
Continuous
 62
     7
100
AcDbCircle
 10
173.8140465062
 20
287.2904477913
 30
0.0
 40
135.6404067626161
100
AcDbArc
 50
268.7158571272
 51
271.2841428728
  0
LINE
  5
263
330
223
100
AcDbEntity
  8
$DDT_AUDIT_GENERATED_(ED)
  6
Continuous
 62
     7
100
AcDbLine
 10
170.472858177
 20
151.968389032
 30
0.0
 11
170.4666610991
 21
152.086636323
 31
0.0
  0
ELLIPSE
  5
264
330
223
100
AcDbEntity
  8
$DDT_AUDIT_GENERATED_(ED)
  6
Continuous
 62
     7
100
AcDbEllipse
 10
170.7724470374
 20
151.9840898189
 30
0.0
 11
-0.2995888604183538
 21
-0.01570078701906841
 31
0.0
210
0.0
220
0.0
230
0.9999999999999996
 40
0.9999604486
 41
0.0
 42
1.524473499022009
  0
LINE
  5
265
330
223
100
AcDbEntity
  8
$DDT_AUDIT_GENERATED_(ED)
  6
Continuous
 62
     7
100
AcDbLine
 10
154.8400916087
 20
198.8091260186
 30
0.0
 11
155.4202465039
 21
153.9466147877
 31
0.0
  0
LINE
  5
266
330
223
100
AcDbEntity
  8
$DDT_AUDIT_GENERATED_(ED)
  6
Continuous
 62
     7
100
AcDbLine
 10
155.0878033908
 20
153.9466147877
 30
0.0
 11
154.515473785
 21
198.8091260186
 31
0.0
  0
LINE
  5
267
330
223
100
AcDbEntity
  8
$DDT_AUDIT_GENERATED_(ED)
  6
Continuous
 62
     7
100
AcDbLine
 10
154.515473785
 20
198.8091260186
 30
0.0
 11
154.8400916087
 21
198.8091260186
 31
0.0
  0
LINE
  5
268
330
223
100
AcDbEntity
  8
$DDT_AUDIT_GENERATED_(ED)
  6
Continuous
 62
     7
100
AcDbLine
 10
138.9288278984
 20
198.8091260186
 30
0.0
 11
136.2303580222
 21
198.8091260186
 31
0.0
  0
LINE
  5
269
330
223
100
AcDbEntity
  8
$DDT_AUDIT_GENERATED_(ED)
  6
Continuous
 62
     7
100
AcDbLine
 10
138.9288278984
 20
198.8091260186
 30
0.0
 11
154.515473785
 21
198.8091260186
 31
0.0
  0
LINE
  5
26A
330
223
100
AcDbEntity
  8
$DDT_AUDIT_GENERATED_(ED)
  6
Continuous
 62
     7
100
AcDbLine
 10
171.017564188
 20
198.8091260186
 30
0.0
 11
170.9607479101
 21
198.8091260186
 31
0.0
  0
LINE
  5
26B
330
223
100
AcDbEntity
  8
$DDT_AUDIT_GENERATED_(ED)
  6
Continuous
 62
     7
100
AcDbLine
 10
170.4374092929
 20
153.9466147878
 30
0.0
 11
171.017564188
 21
198.8091260186
 31
0.0
  0
LINE
  5
26C
330
223
100
AcDbEntity
  8
$DDT_AUDIT_GENERATED_(ED)
  6
Continuous
 62
     7
100
AcDbLine
 10
171.3421820117
 20
198.8091260186
 30
0.0
 11
186.9288278984
 21
198.8091260186
 31
0.0
  0
LINE
  5
26D
330
223
100
AcDbEntity
  8
$DDT_AUDIT_GENERATED_(ED)
  6
Continuous
 62
     7
100
AcDbLine
 10
171.3421820117
 20
198.8091260186
 30
0.0
 11
170.7698524059
 21
153.9466147878
 31
0.0
  0
LINE
  5
26E
330
223
100
AcDbEntity
  8
$DDT_AUDIT_GENERATED_(ED)
  6
Continuous
 62
     7
100
AcDbLine
 10
171.017564188
 20
198.8091260186
 30
0.0
 11
171.3421820117
 21
198.8091260186
 31
0.0
  0
LINE
  5
26F
330
223
100
AcDbEntity
  8
$DDT_AUDIT_GENERATED_(ED)
  6
Continuous
 62
     7
100
AcDbLine
 10
135.7454895792
 20
198.8091260186
 30
0.0
 11
136.2303580222
 21
198.8091260186
 31
0.0
  0
LINE
  5
270
330
223
100
AcDbEntity
  8
$DDT_AUDIT_GENERATED_(ED)
  6
Continuous
 62
     7
100
AcDbLine
 10
189.6272977745
 20
198.8091260186
 30
0.0
 11
186.9288278984
 21
198.8091260186
 31
0.0
  0
LINE
  5
271
330
223
100
AcDbEntity
  8
$DDT_AUDIT_GENERATED_(ED)
  6
Continuous
 62
     7
100
AcDbLine
 10
189.6272977745
 20
198.8091260186
 30
0.0
 11
190.1120701039
 21
198.8091260186
 31
0.0
  0
LINE
  5
272
330
223
100
AcDbEntity
  8
$DDT_AUDIT_GENERATED_(ED)
  6
Continuous
 62
     7
100
AcDbLine
 10
170.9607479101
 20
198.8091260186
 30
0.0
 11
170.3730228904
 21
153.3025812208
 31
0.0
  0
LINE
  5
273
330
223
100
AcDbEntity
  8
$DDT_AUDIT_GENERATED_(ED)
  6
Continuous
 62
     7
100
AcDbLine
 10
170.2204312439
 20
198.8091260186
 30
0.0
 11
164.6784015896
 21
198.8091260186
 31
0.0
  0
LINE
  5
274
330
223
100
AcDbEntity
  8
$DDT_AUDIT_GENERATED_(ED)
  6
Continuous
 62
     7
100
AcDbLine
 10
170.2204312439
 20
198.8091260186
 30
0.0
 11
170.9607479101
 21
198.8091260186
 31
0.0
  0
SPLINE
  5
275
330
223
100
AcDbEntity
  8
$DDT_AUDIT_GENERATED_(ED)
  6
Continuous
 62
     7
100
AcDbSpline
210
0.0
220
0.0
230
1.0
 70
     8
 71
     3
 72
    17
 73
    13
 74
     0
 42
0.0000000002197293
 43
0.0000000001
 40
0.0
 40
0.0
 40
0.0
 40
0.0
 40
0.0439436194327142
 40
0.0439436194327142
 40
0.0439436194327142
 40
0.2197180972017871
 40
0.2197180972017871
 40
0.2197180972017871
 40
0.9228160108238456
 40
0.9228160108238456
 40
0.9228160108238456
 40
1.0
 40
1.0
 40
1.0
 40
1.0
 10
155.6372245527988
 20
198.8091260186336
 30
0.0
 10
155.6460686116063
 20
198.1425512806629
 30
0.0
 10
155.6549128511917
 20
197.4759765702287
 30
0.0
 10
155.6637572721031
 20
196.8094018874266
 30
0.0
 10
155.6991349557525
 20
194.1431031559281
 30
0.0
 10
155.7345155405809
 20
191.4768048661475
 30
0.0
 10
155.7698990620149
 20
188.8105070242674
 30
0.0
 10
155.9114331480071
 20
178.1453156374347
 30
0.0
 10
156.0530142086125
 20
167.4801313890522
 30
0.0
 10
156.1946446010219
 20
156.8149546938718
 30
0.0
 10
156.2101923625559
 20
155.6441634452342
 30
0.0
 10
156.2257407187375
 20
154.4733722873688
 30
0.0
 10
156.241289672795
 20
153.3025812208479
 30
0.0
  0
LINE
  5
276
330
223
100
AcDbEntity
  8
$DDT_AUDIT_GENERATED_(ED)
  6
Continuous
 62
     7
100
AcDbLine
 10
154.8969078866
 20
198.8091260186
 30
0.0
 11
154.8400916087
 21
198.8091260186
 31
0.0
  0
LINE
  5
277
330
223
100
AcDbEntity
  8
$DDT_AUDIT_GENERATED_(ED)
  6
Continuous
 62
     7
100
AcDbLine
 10
154.8969078866
 20
198.8091260186
 30
0.0
 11
155.6372245528
 21
198.8091260186
 31
0.0
  0
LINE
  5
278
330
223
100
AcDbEntity
  8
$DDT_AUDIT_GENERATED_(ED)
  6
Continuous
 62
     7
100
AcDbLine
 10
155.3909946976
 20
152.086636323
 30
0.0
 11
155.3847976197
 21
151.968389032
 31
0.0
  0
LINE
  5
279
330
223
100
AcDbEntity
  8
$DDT_AUDIT_GENERATED_(ED)
  6
Continuous
 62
     7
100
AcDbLine
 10
155.3909946976
 20
152.086636323
 30
0.0
 11
155.4271944919
 21
152.7773695453
 31
0.0
  0
ELLIPSE
  5
27A
330
223
100
AcDbEntity
  8
$DDT_AUDIT_GENERATED_(ED)
  6
Continuous
 62
     7
100
AcDbEllipse
 10
155.0914058372
 20
152.1023371099
 30
0.0
 11
0.2995888604290396
 21
-0.01570078682533449
 31
0.0
210
0.0
220
0.0
230
1.0
 40
0.9998692454
 41
4.758711807510723
 42
6.283185307020567
  0
ELLIPSE
  5
27B
330
223
100
AcDbEntity
  8
$DDT_AUDIT_GENERATED_(ED)
  6
Continuous
 62
     7
100
AcDbEllipse
 10
192.9867075872
 20
1448.4601752021
 30
0.0
 11
-135.372216065936
 21
-1291.531894665518
 31
0.0
210
0.0
220
0.0
230
0.9999999999999997
 40
0.8648380267
 41
0.0799382616501209
 42
0.0815071269018943
  0
LINE
  5
27C
330
223
100
AcDbEntity
  8
$DDT_AUDIT_GENERATED_(ED)
  6
Continuous
 62
     7
100
AcDbLine
 10
170.4304613048
 20
152.7773695453
 30
0.0
 11
170.428533825
 21
152.8141480517
 31
0.0
  0
LINE
  5
27D
330
223
100
AcDbEntity
  8
$DDT_AUDIT_GENERATED_(ED)
  6
Continuous
 62
     7
100
AcDbLine
 10
170.4304613048
 20
152.7773695453
 30
0.0
 11
170.4666610991
 21
152.086636323
 31
0.0
  0
ELLIPSE
  5
27E
330
223
100
AcDbEntity
  8
$DDT_AUDIT_GENERATED_(ED)
  6
Continuous
 62
     7
100
AcDbEllipse
 10
170.7662499595
 20
152.1023371099
 30
0.0
 11
0.2995888604249257
 21
0.01570078690102395
 31
0.0
210
0.0
220
0.0
230
0.9999999999999998
 40
0.9998692454
 41
3.141592653589878
 42
4.666066153006111
  0
LINE
  5
27F
330
223
100
AcDbEntity
  8
$DDT_AUDIT_GENERATED_(ED)
  6
Continuous
 62
     7
100
AcDbLine
 10
137.1825549243
 20
152.8091260186
 30
0.0
 11
137.0003371477
 21
152.8091260186
 31
0.0
  0
LINE
  5
280
330
223
100
AcDbEntity
  8
$DDT_AUDIT_GENERATED_(ED)
  6
Continuous
 62
     7
100
AcDbLine
 10
170.4287970186
 20
152.8091260186
 30
0.0
 11
169.9292239477
 21
152.8091260186
 31
0.0
  0
LINE
  5
281
330
223
100
AcDbEntity
  8
$DDT_AUDIT_GENERATED_(ED)
  6
Continuous
 62
     7
100
AcDbLine
 10
169.8731418725
 20
152.8091260186
 30
0.0
 11
169.4948134893
 21
152.8091260186
 31
0.0
  0
LINE
  5
282
330
223
100
AcDbEntity
  8
$DDT_AUDIT_GENERATED_(ED)
  6
Continuous
 62
     7
100
AcDbLine
 10
169.4948134893
 20
152.8091260186
 30
0.0
 11
156.3628423074
 21
152.8091260186
 31
0.0
  0
LINE
  5
283
330
223
100
AcDbEntity
  8
$DDT_AUDIT_GENERATED_(ED)
  6
Continuous
 62
     7
100
AcDbLine
 10
156.3628423074
 20
152.8091260186
 30
0.0
 11
155.9845139242
 21
152.8091260186
 31
0.0
  0
LINE
  5
284
330
223
100
AcDbEntity
  8
$DDT_AUDIT_GENERATED_(ED)
  6
Continuous
 62
     7
100
AcDbLine
 10
155.928431849
 20
152.8091260186
 30
0.0
 11
155.4288587781
 21
152.8091260186
 31
0.0
  0
LINE
  5
285
330
223
100
AcDbEntity
  8
$DDT_AUDIT_GENERATED_(ED)
  6
Continuous
 62
     7
100
AcDbLine
 10
155.4846329063
 20
153.3025812208
 30
0.0
 11
154.8969078866
 21
198.8091260186
 31
0.0
  0
SPLINE
  5
286
330
223
100
AcDbEntity
  8
$DDT_AUDIT_GENERATED_(ED)
  6
Continuous
 62
     7
100
AcDbSpline
210
0.0
220
0.0
230
1.0
 70
     8
 71
     3
 72
    17
 73
    13
 74
     0
 42
0.0000000002197293
 43
0.0000000001
 40
0.0
 40
0.0
 40
0.0
 40
0.0
 40
0.0330999991097884
 40
0.0330999991097884
 40
0.0330999991097884
 40
0.2088744768769078
 40
0.2088744768769078
 40
0.2088744768769078
 40
0.9119723905078526
 40
0.9119723905078526
 40
0.9119723905078526
 40
1.0
 40
1.0
 40
1.0
 40
1.0
 10
169.6163661239237
 20
153.3025812208479
 30
0.0
 10
169.6230342214263
 20
153.8046695901256
 30
0.0
 10
169.6297022089742
 20
154.3067579761993
 30
0.0
 10
169.6363700868225
 20
154.8088463790239
 30
0.0
 10
169.6717792341934
 20
157.4751403114248
 30
0.0
 10
169.707185288042
 20
160.1414347165969
 30
0.0
 10
169.7425882862165
 20
162.8077295878416
 30
0.0
 10
169.8842002791723
 20
173.4729090922507
 30
0.0
 10
170.0257633930563
 20
184.1380960775486
 30
0.0
 10
170.1672799577474
 20
194.8032901348013
 30
0.0
 10
170.1849977815029
 20
196.1385686517539
 30
0.0
 10
170.202714875422
 20
197.4738472799545
 30
0.0
 10
170.2204312439199
 20
198.8091260186336
 30
0.0
  0
ARC
  5
287
330
223
100
AcDbEntity
  8
$DDT_AUDIT_GENERATED_(ED)
  6
Continuous
 62
     7
100
AcDbCircle
 10
156.8883768443
 20
154.2673711909
 30
0.0
 40
2.059437368680099
100
AcDbArc
 50
207.989022778
 51
224.8813407797
  0
ARC
  5
288
330
223
100
AcDbEntity
  8
$DDT_AUDIT_GENERATED_(ED)
  6
Continuous
 62
     7
100
AcDbCircle
 10
168.9689534464
 20
154.2676114833
 30
0.0
 40
2.059837573347299
100
AcDbArc
 50
315.1203122072
 51
332.0093242357
  0
ELLIPSE
  5
289
330
223
100
AcDbEntity
  8
$DDT_AUDIT_GENERATED_(ED)
  6
Continuous
 62
     7
100
AcDbEllipse
 10
169.9292239477
 20
153.3091260186
 30
0.0
 11
-1.864827736675068E-13
 21
-0.5000000000004445
 31
0.0
210
0.0
220
0.0
230
1.0
 40
0.9998476952
 41
0.0
 42
1.557706357405338
  0
ELLIPSE
  5
28A
330
223
100
AcDbEntity
  8
$DDT_AUDIT_GENERATED_(ED)
  6
Continuous
 62
     7
100
AcDbEllipse
 10
169.8731418725
 20
153.3091260186
 30
0.0
 11
-1.457167719820518E-13
 21
-0.4999999999999172
 31
0.0
210
0.0
220
0.0
230
1.0
 40
0.9998476952
 41
0.0
 42
1.557706357405243
  0
ELLIPSE
  5
28B
330
223
100
AcDbEntity
  8
$DDT_AUDIT_GENERATED_(ED)
  6
Continuous
 62
     7
100
AcDbEllipse
 10
155.928431849
 20
153.3091260186
 30
0.0
 11
6.063725910276929E-12
 21
-0.4999999999999172
 31
0.0
210
0.0
220
0.0
230
1.0
 40
0.9998476952
 41
4.725478949762509
 42
6.283185307179586
  0
LINE
  5
28C
330
223
100
AcDbEntity
  8
$DDT_AUDIT_GENERATED_(ED)
  6
Continuous
 62
     7
100
AcDbLine
 10
188.9175411551
 20
152.8091260186
 30
0.0
 11
188.6751008724
 21
152.8091260186
 31
0.0
  0
ARC
  5
28D
330
223
100
AcDbEntity
  8
$DDT_AUDIT_GENERATED_(ED)
  6
Continuous
 62
     7
100
AcDbCircle
 10
162.9288278984
 20
1451.6091260186
 30
0.0
 40
1300.0
100
AcDbArc
 50
270.6914796765
 51
270.9879557147
  0
ARC
  5
28E
330
223
100
AcDbEntity
  8
$DDT_AUDIT_GENERATED_(ED)
  6
Continuous
 62
     7
100
AcDbCircle
 10
162.9288278984
 20
1451.6091260186
 30
0.0
 40
1300.0
100
AcDbArc
 50
269.0120442853
 51
269.3085203235
  0
LINE
  5
28F
330
223
100
AcDbEntity
  8
$DDT_AUDIT_GENERATED_(ED)
  6
Continuous
 62
     7
100
AcDbLine
 10
138.9288278984
 20
198.8091260186
 30
0.0
 11
139.5312624704
 21
152.7891434535
 31
0.0
  0
LINE
  5
290
330
223
100
AcDbEntity
  8
$DDT_AUDIT_GENERATED_(ED)
  6
Continuous
 62
     7
100
AcDbLine
 10
186.3263933264
 20
152.7891434535
 30
0.0
 11
186.9288278984
 21
198.8091260186
 31
0.0
  0
LINE
  5
291
330
223
100
AcDbEntity
  8
$DDT_AUDIT_GENERATED_(ED)
  6
Continuous
 62
     7
100
AcDbLine
 10
135.746027752
 20
198.8089894335
 30
0.0
 11
136.4428920282
 21
153.3014336447
 31
0.0
  0
LINE
  5
292
330
223
100
AcDbEntity
  8
$DDT_AUDIT_GENERATED_(ED)
  6
Continuous
 62
     7
100
AcDbLine
 10
189.4168576088
 20
153.3014477295
 30
0.0
 11
190.1095992347
 21
198.8091331727
 31
0.0
  0
ARC
  5
293
330
223
100
AcDbEntity
  8
$DDT_AUDIT_GENERATED_(ED)
  6
Continuous
 62
     7
100
AcDbCircle
 10
140.5311767979
 20
152.8022330491
 30
0.0
 40
1.000000000000085
100
AcDbArc
 50
180.75
 51
269.0120442853
  0
ARC
  5
294
330
223
100
AcDbEntity
  8
$DDT_AUDIT_GENERATED_(ED)
  6
Continuous
 62
     7
100
AcDbCircle
 10
185.3264789988
 20
152.8022330491
 30
0.0
 40
1.000000000000111
100
AcDbArc
 50
270.9879557144
 51
359.25
  0
ARC
  5
295
330
223
100
AcDbEntity
  8
$DDT_AUDIT_GENERATED_(ED)
  6
Continuous
 62
     7
100
AcDbCircle
 10
136.9400936699
 20
153.3091260116
 30
0.0
 40
0.4999999929782218
100
AcDbArc
 50
181.0050614849
 51
270.0018967194
  0
ARC
  5
296
330
223
100
AcDbEntity
  8
$DDT_AUDIT_GENERATED_(ED)
  6
Continuous
 62
     7
100
AcDbCircle
 10
188.9175623023
 20
153.3091260179
 30
0.0
 40
0.4999999753875
100
AcDbArc
 50
269.9999598724
 51
359.1582107952
  0
LINE
  5
297
330
223
100
AcDbEntity
  8
$DDT_AUDIT_GENERATED_(137)
  6
Continuous
 62
     7
100
AcDbLine
 10
169.4509653029
 20
148.6091260186
 30
0.0
 11
156.4066904938
 21
148.6091260186
 31
0.0
  0
LINE
  5
298
330
223
100
AcDbEntity
  8
$DDT_AUDIT_GENERATED_(137)
  6
Continuous
 62
     7
100
AcDbLine
 10
156.4066904938
 20
148.6091260186
 30
0.0
 11
156.0288278984
 21
148.6091260186
 31
0.0
  0
LINE
  5
299
330
223
100
AcDbEntity
  8
$DDT_AUDIT_GENERATED_(137)
  6
Continuous
 62
     7
100
AcDbLine
 10
169.8288278984
 20
148.6091260186
 30
0.0
 11
169.4509653029
 21
148.6091260186
 31
0.0
  0
LINE
  5
29A
330
223
100
AcDbEntity
  8
$DDT_AUDIT_GENERATED_(137)
  6
Continuous
 62
     7
100
AcDbLine
 10
156.0288278984
 20
148.6091260186
 30
0.0
 11
149.4788278984
 21
148.6091260186
 31
0.0
  0
LINE
  5
29B
330
223
100
AcDbEntity
  8
$DDT_AUDIT_GENERATED_(137)
  6
Continuous
 62
     7
100
AcDbLine
 10
176.3788278984
 20
148.6091260186
 30
0.0
 11
169.8288278984
 21
148.6091260186
 31
0.0
  0
LINE
  5
29C
330
223
100
AcDbEntity
  8
$DDT_AUDIT_GENERATED_(137)
  6
Continuous
 62
     7
100
AcDbLine
 10
149.4788278984
 20
148.6091260186
 30
0.0
 11
137.4763280404
 21
148.6091260186
 31
0.0
  0
LINE
  5
29D
330
223
100
AcDbEntity
  8
$DDT_AUDIT_GENERATED_(137)
  6
Continuous
 62
     7
100
AcDbLine
 10
188.3813277563
 20
148.6091260186
 30
0.0
 11
176.3788278984
 21
148.6091260186
 31
0.0
  0
LINE
  5
29E
330
223
100
AcDbEntity
  8
$DDT_AUDIT_GENERATED_(137)
  6
Continuous
 62
     7
100
AcDbLine
 10
137.4763280404
 20
148.6091260186
 30
0.0
 11
137.2263280404
 21
148.6091260186
 31
0.0
  0
LINE
  5
29F
330
223
100
AcDbEntity
  8
$DDT_AUDIT_GENERATED_(137)
  6
Continuous
 62
     7
100
AcDbLine
 10
188.6313277563
 20
148.6091260186
 30
0.0
 11
188.3813277563
 21
148.6091260186
 31
0.0
  0
ARC
  5
2A0
330
223
100
AcDbEntity
  8
$DDT_AUDIT_GENERATED_(137)
  6
Continuous
 62
     7
100
AcDbCircle
 10
169.8288278984
 20
149.1091260186
 30
0.0
 40
0.5000000000000004
100
AcDbArc
 50
270.0
 51
0.0
  0
ARC
  5
2A1
330
223
100
AcDbEntity
  8
$DDT_AUDIT_GENERATED_(137)
  6
Continuous
 62
     7
100
AcDbCircle
 10
156.0288278984
 20
149.1091260186
 30
0.0
 40
0.5000000000000004
100
AcDbArc
 50
180.0
 51
270.0
  0
LINE
  5
2A2
330
223
100
AcDbEntity
  8
$DDT_AUDIT_GENERATED_(137)
  6
Continuous
 62
     7
100
AcDbLine
 10
155.8288278984
 20
152.8091260186
 30
0.0
 11
156.3578355319
 21
152.8091260186
 31
0.0
  0
LINE
  5
2A3
330
223
100
AcDbEntity
  8
$DDT_AUDIT_GENERATED_(137)
  6
Continuous
 62
     7
100
AcDbLine
 10
169.4998202648
 20
152.8091260186
 30
0.0
 11
170.0288278984
 21
152.8091260186
 31
0.0
  0
LINE
  5
2A4
330
223
100
AcDbEntity
  8
$DDT_AUDIT_GENERATED_(137)
  6
Continuous
 62
     7
100
AcDbLine
 10
137.3763280404
 20
152.8091260186
 30
0.0
 11
139.5310008843
 21
152.8091260186
 31
0.0
  0
LINE
  5
2A5
330
223
100
AcDbEntity
  8
$DDT_AUDIT_GENERATED_(137)
  6
Continuous
 62
     7
100
AcDbLine
 10
186.3266549125
 20
152.8091260186
 30
0.0
 11
188.4813277563
 21
152.8091260186
 31
0.0
  0
LINE
  5
2A6
330
223
100
AcDbEntity
  8
$DDT_AUDIT_GENERATED_(137)
  6
Continuous
 62
     7
100
AcDbLine
 10
137.0263280404
 20
152.8091260186
 30
0.0
 11
137.3763280404
 21
152.8091260186
 31
0.0
  0
LINE
  5
2A7
330
223
100
AcDbEntity
  8
$DDT_AUDIT_GENERATED_(137)
  6
Continuous
 62
     7
100
AcDbLine
 10
188.4813277563
 20
152.8091260186
 30
0.0
 11
188.8313277563
 21
152.8091260186
 31
0.0
  0
LINE
  5
2A8
330
223
100
AcDbEntity
  8
$DDT_AUDIT_GENERATED_(137)
  6
Continuous
 62
     7
100
AcDbLine
 10
170.3288278984
 20
152.5091260186
 30
0.0
 11
170.3288278984
 21
149.1091260186
 31
0.0
  0
LINE
  5
2A9
330
223
100
AcDbEntity
  8
$DDT_AUDIT_GENERATED_(137)
  6
Continuous
 62
     7
100
AcDbLine
 10
155.5288278984
 20
152.5091260186
 30
0.0
 11
155.5288278984
 21
149.1091260186
 31
0.0
  0
ARC
  5
2AA
330
223
100
AcDbEntity
  8
$DDT_AUDIT_GENERATED_(137)
  6
Continuous
 62
     7
100
AcDbCircle
 10
170.0288278984
 20
152.5091260186
 30
0.0
 40
0.2999999999999947
100
AcDbArc
 50
0.0
 51
90.0
  0
ARC
  5
2AB
330
223
100
AcDbEntity
  8
$DDT_AUDIT_GENERATED_(137)
  6
Continuous
 62
     7
100
AcDbCircle
 10
155.8288278984
 20
152.5091260186
 30
0.0
 40
0.2999999999999999
100
AcDbArc
 50
90.0
 51
180.0
  0
LINE
  5
2AC
330
223
100
AcDbEntity
  8
$DDT_AUDIT_GENERATED_(137)
  6
Continuous
 62
     7
100
AcDbLine
 10
136.7263280404
 20
152.5091260186
 30
0.0
 11
136.7263280404
 21
149.1091260186
 31
0.0
  0
LINE
  5
2AD
330
223
100
AcDbEntity
  8
$DDT_AUDIT_GENERATED_(137)
  6
Continuous
 62
     7
100
AcDbLine
 10
189.1313277563
 20
149.1091260186
 30
0.0
 11
189.1313277563
 21
152.5091260186
 31
0.0
  0
ARC
  5
2AE
330
223
100
AcDbEntity
  8
$DDT_AUDIT_GENERATED_(137)
  6
Continuous
 62
     7
100
AcDbCircle
 10
188.6313277563
 20
149.1091260186
 30
0.0
 40
0.5000000000000004
100
AcDbArc
 50
270.0
 51
0.0
  0
ARC
  5
2AF
330
223
100
AcDbEntity
  8
$DDT_AUDIT_GENERATED_(137)
  6
Continuous
 62
     7
100
AcDbCircle
 10
137.2263280404
 20
149.1091260186
 30
0.0
 40
0.5000000000000004
100
AcDbArc
 50
180.0
 51
270.0
  0
ARC
  5
2B0
330
223
100
AcDbEntity
  8
$DDT_AUDIT_GENERATED_(137)
  6
Continuous
 62
     7
100
AcDbCircle
 10
188.8313277563
 20
152.5091260186
 30
0.0
 40
0.3000000000000017
100
AcDbArc
 50
0.0
 51
90.0
  0
ARC
  5
2B1
330
223
100
AcDbEntity
  8
$DDT_AUDIT_GENERATED_(137)
  6
Continuous
 62
     7
100
AcDbCircle
 10
137.0263280404
 20
152.5091260186
 30
0.0
 40
0.2999999999999947
100
AcDbArc
 50
90.0
 51
180.0
  0
LINE
  5
2B2
330
223
100
AcDbEntity
  8
$DDT_AUDIT_GENERATED_(137)
  6
Continuous
 62
     7
100
AcDbLine
 10
136.7271177772
 20
152.8567531273
 30
0.0
 11
136.7271177772
 21
152.5308796029
 31
0.0
  0
LINE
  5
2B3
330
223
100
AcDbEntity
  8
$DDT_AUDIT_GENERATED_(137)
  6
Continuous
 62
     7
100
AcDbLine
 10
189.1321174932
 20
149.5091260186
 30
0.0
 11
189.1321174932
 21
152.8574999946
 31
0.0
  0
ARC
  5
2B4
330
223
100
AcDbEntity
  8
$DDT_AUDIT_GENERATED_(137)
  6
Continuous
 62
     7
100
AcDbCircle
 10
188.6321174932
 20
149.5091260186
 30
0.0
 40
0.5000000000000004
100
AcDbArc
 50
356.7792945269
 51
0.0
  0
ENDBLK
  5
2B6
330
223
100
AcDbEntity
  8
0
100
AcDbBlockEnd
  0
ENDSEC
  0
SECTION
  2
ENTITIES
  0
INSERT
  5
5F
330
1F
100
AcDbEntity
  8
Default
100
AcDbBlockReference
  2
SEANNOT_GROUP
 10
0.0
 20
0.0
 30
0.0
  0
INSERT
  5
6A
330
1F
100
AcDbEntity
  8
Default
100
AcDbBlockReference
  2
SEANNOT_GROUP1
 10
0.0
 20
0.0
 30
0.0
  0
INSERT
  5
74
330
1F
100
AcDbEntity
  8
Default
100
AcDbBlockReference
  2
SEANNOT_GROUP2
 10
0.0
 20
0.0
 30
0.0
  0
INSERT
  5
7A
330
1F
100
AcDbEntity
  8
Default
100
AcDbBlockReference
  2
SEANNOT_GROUP3
 10
0.0
 20
0.0
 30
0.0
  0
INSERT
  5
80
330
1F
100
AcDbEntity
  8
Default
100
AcDbBlockReference
  2
SEANNOT_GROUP4
 10
0.0
 20
0.0
 30
0.0
  0
INSERT
  5
86
330
1F
100
AcDbEntity
  8
Default
100
AcDbBlockReference
  2
SE
 10
0.0
 20
0.0
 30
0.0
  0
INSERT
  5
15F
330
1F
100
AcDbEntity
  8
Default
100
AcDbBlockReference
  2
SE1
 10
0.0
 20
0.0
 30
0.0
  0
INSERT
  5
224
330
1F
100
AcDbEntity
  8
Default
100
AcDbBlockReference
  2
SE2
 10
0.0
 20
0.0
 30
0.0
  0
TEXT
  5
2B8
330
1F
100
AcDbEntity
  8
Default
  6
Continuous
 62
     7
100
AcDbText
 10
5.9362635081
 20
53.4225120485
 30
0.0
 40
10.0
  1
Grohe AG^J
  7
SEACAD_seiso_ttf
 11
5.9362635081
 21
63.4225120485
 31
0.0
100
AcDbText
 73
     3
  0
TEXT
  5
2B9
330
1F
100
AcDbEntity
  8
Default
  6
Continuous
 62
     7
100
AcDbText
 10
5.9362635081
 20
37.0588756849
 30
0.0
 40
10.0
  1
 
  7
SEACAD_seiso_ttf
 11
5.9362635081
 21
47.0588756849
 31
0.0
100
AcDbText
 73
     3
  0
TEXT
  5
2BA
330
1F
100
AcDbEntity
  8
Default
  6
Continuous
 62
     7
100
AcDbText
 10
5.9362635081
 20
20.6952393213
 30
0.0
 40
10.0
  1
ecn: 
  7
SEACAD_seiso_ttf
 11
5.9362635081
 21
30.6952393213
 31
0.0
100
AcDbText
 73
     3
  0
TEXT
  5
2BB
330
1F
100
AcDbEntity
  8
Default
  6
Continuous
 62
     7
100
AcDbText
 10
5.9362635081
 20
4.3316029576
 30
0.0
 40
10.0
  1
unit: mm
  7
SEACAD_seiso_ttf
 11
5.9362635081
 21
14.3316029576
 31
0.0
100
AcDbText
 73
     3
  0
LINE
  5
2BC
330
1F
100
AcDbEntity
  8
Default
  6
Continuous
 62
     7
100
AcDbLine
 10
0.0
 20
0.0
 30
0.0
 11
100.0
 21
0.0
 31
0.0
  0
LINE
  5
2BD
330
1F
100
AcDbEntity
  8
Default
  6
Continuous
 62
     7
100
AcDbLine
 10
0.0
 20
0.0
 30
0.0
 11
0.0
 21
100.0
 31
0.0
  0
TEXT
  5
2BE
330
1F
100
AcDbEntity
  8
Default
  6
Continuous
 62
     7
100
AcDbText
 10
24.3923665681
 20
-18.2375342018
 30
0.0
 40
10.0
  1
100 mm
  7
SEACAD_seiso_ttf
 11
24.3923665681
 21
-8.2375342018
 31
0.0
100
AcDbText
 73
     3
  0
TEXT
  5
2BF
330
1F
100
AcDbEntity
  8
Default
  6
Continuous
 62
     7
100
AcDbText
 10
-7.6150308803
 20
24.6231930421
 30
0.0
 40
10.0
  1
100 mm
 50
90.0
  7
SEACAD_seiso_ttf
 11
-17.6150308803
 21
24.6231930421
 31
0.0
100
AcDbText
 73
     3
  0
TEXT
  5
2C0
330
1F
100
AcDbEntity
  8
Default
  6
Continuous
 62
     7
100
AcDbText
 10
28.4878128572
 20
20.0907663715
 30
0.0
 40
10.0
  1
214261
  7
SEACAD_seiso_ttf
 11
28.4878128572
 21
30.0907663715
 31
0.0
100
AcDbText
 73
     3
  0
TEXT
  5
2C1
330
1F
100
AcDbEntity
  8
Default
  6
Continuous
 62
     7
100
AcDbText
 10
5.9012241913
 20
36.7242780188
 30
0.0
 40
10.0
  1
19446000
  7
SEACAD_seiso_ttf
 11
5.9012241913
 21
46.7242780188
 31
0.0
100
AcDbText
 73
     3
  0
ENDSEC
  0
SECTION
  2
OBJECTS
  0
DICTIONARY
  5
C
330
0
100
AcDbDictionary
281
     1
  3
ACAD_GROUP
350
D
  3
ACAD_LAYOUT
350
1A
  3
ACAD_MLEADERSTYLE
350
2C5
  3
ACAD_MLINESTYLE
350
17
  3
ACAD_PLOTSETTINGS
350
19
  3
ACAD_PLOTSTYLENAME
350
E
  3
ACAD_SCALELIST
350
3B
  3
ACAD_TABLESTYLE
350
2C4
  3
ACAD_VISUALSTYLE
350
2A
  3
AcDbVariableDictionary
350
2C2
  0
DICTIONARY
  5
D
102
{ACAD_REACTORS
330
C
102
}
330
C
100
AcDbDictionary
281
     1
  0
DICTIONARY
  5
1A
102
{ACAD_REACTORS
330
C
102
}
330
C
100
AcDbDictionary
281
     1
  3
Layout1
350
1E
  3
Model
350
22
  0
DICTIONARY
  5
2C5
102
{ACAD_REACTORS
330
C
102
}
330
C
100
AcDbDictionary
281
     1
  0
DICTIONARY
  5
17
102
{ACAD_REACTORS
330
C
102
}
330
C
100
AcDbDictionary
281
     1
  3
Standard
350
18
  0
DICTIONARY
  5
19
102
{ACAD_REACTORS
330
C
102
}
330
C
100
AcDbDictionary
281
     1
  0
ACDBDICTIONARYWDFLT
  5
E
102
{ACAD_REACTORS
330
C
102
}
330
C
100
AcDbDictionary
281
     1
  3
Normal
350
F
100
AcDbDictionaryWithDefault
340
F
  0
DICTIONARY
  5
3B
102
{ACAD_REACTORS
330
C
102
}
330
C
100
AcDbDictionary
281
     1
  3
A0
350
3C
  3
A1
350
3D
  3
A2
350
3E
  3
A3
350
3F
  3
A4
350
40
  3
A5
350
41
  3
A6
350
42
  3
A7
350
43
  3
A8
350
44
  3
A9
350
45
  3
B0
350
46
  3
B1
350
47
  3
B2
350
48
  3
B3
350
49
  3
B4
350
4A
  3
B5
350
4B
  3
B6
350
4C
  3
B7
350
4D
  3
B8
350
4E
  3
B9
350
4F
  3
C0
350
50
  3
C1
350
51
  3
C2
350
52
  3
C3
350
53
  3
C4
350
54
  3
C5
350
55
  3
C6
350
56
  3
C7
350
57
  3
C8
350
58
  3
C9
350
59
  3
D0
350
5A
  3
D1
350
5B
  3
D2
350
5C
  0
DICTIONARY
  5
2C4
102
{ACAD_REACTORS
330
C
102
}
330
C
100
AcDbDictionary
281
     1
  0
DICTIONARY
  5
2A
102
{ACAD_REACTORS
330
C
102
}
330
C
100
AcDbDictionary
281
     1
  3
2dWireframe
350
2F
  3
3D Hidden
350
31
  3
3dWireframe
350
30
  3
Basic
350
32
  3
Brighten
350
36
  3
ColorChange
350
3A
  3
Conceptual
350
34
  3
Dim
350
35
  3
Facepattern
350
39
  3
Flat
350
2B
  3
FlatWithEdges
350
2C
  3
Gouraud
350
2D
  3
GouraudWithEdges
350
2E
  3
Linepattern
350
38
  3
Realistic
350
33
  3
Thicken
350
37
  0
DICTIONARY
  5
2C2
102
{ACAD_REACTORS
330
C
102
}
330
C
100
AcDbDictionary
281
     1
  3
CANNOSCALE
350
2C3
  3
PSOLHEIGHT
350
2C7
  3
PSOLWIDTH
350
2C6
  0
LAYOUT
  5
1E
102
{ACAD_REACTORS
330
1A
102
}
330
1A
100
AcDbPlotSettings
  1

  2
none_device
  4

  6

 40
0.0
 41
0.0
 42
0.0
 43
0.0
 44
0.0
 45
0.0
 46
0.0
 47
0.0
 48
0.0
 49
0.0
140
0.0
141
0.0
142
1.0
143
1.0
 70
   688
 72
     0
 73
     0
 74
     5
  7

 75
    16
147
1.0
148
0.0
149
0.0
100
AcDbLayout
  1
Layout1
 70
     1
 71
     1
 10
0.0
 20
0.0
 11
1682.0
 21
2378.0
 12
0.0
 22
0.0
 32
0.0
 14
0.0
 24
0.0
 34
0.0
 15
1682.0
 25
2378.0
 35
0.0
146
0.0
 13
0.0
 23
0.0
 33
0.0
 16
1.0
 26
0.0
 36
0.0
 17
0.0
 27
1.0
 37
0.0
 76
     0
330
1B
  0
LAYOUT
  5
22
102
{ACAD_REACTORS
330
1A
102
}
330
1A
100
AcDbPlotSettings
  1

  2
none_device
  4

  6

 40
0.0
 41
0.0
 42
0.0
 43
0.0
 44
0.0
 45
0.0
 46
0.0
 47
0.0
 48
0.0
 49
0.0
140
0.0
141
0.0
142
1.0
143
1.0
 70
  1712
 72
     0
 73
     0
 74
     0
  7

 75
     0
147
1.0
148
0.0
149
0.0
100
AcDbLayout
  1
Model
 70
     1
 71
     0
 10
0.0
 20
0.0
 11
1682.0
 21
2378.0
 12
0.0
 22
0.0
 32
0.0
 14
0.0
 24
0.0
 34
0.0
 15
1682.0
 25
2378.0
 35
0.0
146
0.0
 13
0.0
 23
0.0
 33
0.0
 16
1.0
 26
0.0
 36
0.0
 17
0.0
 27
1.0
 37
0.0
 76
     0
330
1F
331
29
  0
MLINESTYLE
  5
18
102
{ACAD_REACTORS
330
17
102
}
330
17
100
AcDbMlineStyle
  2
Standard
 70
     0
  3

 62
   256
 51
90.0
 52
90.0
 71
     2
 49
0.5
 62
   256
  6
BYLAYER
 49
-0.5
 62
   256
  6
BYLAYER
  0
ACDBPLACEHOLDER
  5
F
102
{ACAD_REACTORS
330
E
102
}
330
E
  0
SCALE
  5
3C
102
{ACAD_REACTORS
330
3B
102
}
330
3B
100
AcDbScale
 70
     0
300
1:1
140
1.0
141
1.0
290
     1
  0
SCALE
  5
3D
102
{ACAD_REACTORS
330
3B
102
}
330
3B
100
AcDbScale
 70
     0
300
1:2
140
1.0
141
2.0
290
     0
  0
SCALE
  5
3E
102
{ACAD_REACTORS
330
3B
102
}
330
3B
100
AcDbScale
 70
     0
300
1:4
140
1.0
141
4.0
290
     0
  0
SCALE
  5
3F
102
{ACAD_REACTORS
330
3B
102
}
330
3B
100
AcDbScale
 70
     0
300
1:5
140
1.0
141
5.0
290
     0
  0
SCALE
  5
40
102
{ACAD_REACTORS
330
3B
102
}
330
3B
100
AcDbScale
 70
     0
300
1:8
140
1.0
141
8.0
290
     0
  0
SCALE
  5
41
102
{ACAD_REACTORS
330
3B
102
}
330
3B
100
AcDbScale
 70
     0
300
1:10
140
1.0
141
10.0
290
     0
  0
SCALE
  5
42
102
{ACAD_REACTORS
330
3B
102
}
330
3B
100
AcDbScale
 70
     0
300
1:16
140
1.0
141
16.0
290
     0
  0
SCALE
  5
43
102
{ACAD_REACTORS
330
3B
102
}
330
3B
100
AcDbScale
 70
     0
300
1:20
140
1.0
141
20.0
290
     0
  0
SCALE
  5
44
102
{ACAD_REACTORS
330
3B
102
}
330
3B
100
AcDbScale
 70
     0
300
1:30
140
1.0
141
30.0
290
     0
  0
SCALE
  5
45
102
{ACAD_REACTORS
330
3B
102
}
330
3B
100
AcDbScale
 70
     0
300
1:40
140
1.0
141
40.0
290
     0
  0
SCALE
  5
46
102
{ACAD_REACTORS
330
3B
102
}
330
3B
100
AcDbScale
 70
     0
300
1:50
140
1.0
141
50.0
290
     0
  0
SCALE
  5
47
102
{ACAD_REACTORS
330
3B
102
}
330
3B
100
AcDbScale
 70
     0
300
1:100
140
1.0
141
100.0
290
     0
  0
SCALE
  5
48
102
{ACAD_REACTORS
330
3B
102
}
330
3B
100
AcDbScale
 70
     0
300
2:1
140
2.0
141
1.0
290
     0
  0
SCALE
  5
49
102
{ACAD_REACTORS
330
3B
102
}
330
3B
100
AcDbScale
 70
     0
300
4:1
140
4.0
141
1.0
290
     0
  0
SCALE
  5
4A
102
{ACAD_REACTORS
330
3B
102
}
330
3B
100
AcDbScale
 70
     0
300
8:1
140
8.0
141
1.0
290
     0
  0
SCALE
  5
4B
102
{ACAD_REACTORS
330
3B
102
}
330
3B
100
AcDbScale
 70
     0
300
10:1
140
10.0
141
1.0
290
     0
  0
SCALE
  5
4C
102
{ACAD_REACTORS
330
3B
102
}
330
3B
100
AcDbScale
 70
     0
300
100:1
140
100.0
141
1.0
290
     0
  0
SCALE
  5
4D
102
{ACAD_REACTORS
330
3B
102
}
330
3B
100
AcDbScale
 70
     0
300
1/128" = 1'-0"
140
0.0078125
141
12.0
290
     0
  0
SCALE
  5
4E
102
{ACAD_REACTORS
330
3B
102
}
330
3B
100
AcDbScale
 70
     0
300
1/64" = 1'-0"
140
0.015625
141
12.0
290
     0
  0
SCALE
  5
4F
102
{ACAD_REACTORS
330
3B
102
}
330
3B
100
AcDbScale
 70
     0
300
1/32" = 1'-0"
140
0.03125
141
12.0
290
     0
  0
SCALE
  5
50
102
{ACAD_REACTORS
330
3B
102
}
330
3B
100
AcDbScale
 70
     0
300
1/16" = 1'-0"
140
0.0625
141
12.0
290
     0
  0
SCALE
  5
51
102
{ACAD_REACTORS
330
3B
102
}
330
3B
100
AcDbScale
 70
     0
300
3/32" = 1'-0"
140
0.09375
141
12.0
290
     0
  0
SCALE
  5
52
102
{ACAD_REACTORS
330
3B
102
}
330
3B
100
AcDbScale
 70
     0
300
1/8" = 1'-0"
140
0.125
141
12.0
290
     0
  0
SCALE
  5
53
102
{ACAD_REACTORS
330
3B
102
}
330
3B
100
AcDbScale
 70
     0
300
3/16" = 1'-0"
140
0.1875
141
12.0
290
     0
  0
SCALE
  5
54
102
{ACAD_REACTORS
330
3B
102
}
330
3B
100
AcDbScale
 70
     0
300
1/4" = 1'-0"
140
0.25
141
12.0
290
     0
  0
SCALE
  5
55
102
{ACAD_REACTORS
330
3B
102
}
330
3B
100
AcDbScale
 70
     0
300
3/8" = 1'-0"
140
0.375
141
12.0
290
     0
  0
SCALE
  5
56
102
{ACAD_REACTORS
330
3B
102
}
330
3B
100
AcDbScale
 70
     0
300
1/2" = 1'-0"
140
0.5
141
12.0
290
     0
  0
SCALE
  5
57
102
{ACAD_REACTORS
330
3B
102
}
330
3B
100
AcDbScale
 70
     0
300
3/4" = 1'-0"
140
0.75
141
12.0
290
     0
  0
SCALE
  5
58
102
{ACAD_REACTORS
330
3B
102
}
330
3B
100
AcDbScale
 70
     0
300
1" = 1'-0"
140
1.0
141
12.0
290
     0
  0
SCALE
  5
59
102
{ACAD_REACTORS
330
3B
102
}
330
3B
100
AcDbScale
 70
     0
300
1-1/2" = 1'-0"
140
1.5
141
12.0
290
     0
  0
SCALE
  5
5A
102
{ACAD_REACTORS
330
3B
102
}
330
3B
100
AcDbScale
 70
     0
300
3" = 1'-0"
140
3.0
141
12.0
290
     0
  0
SCALE
  5
5B
102
{ACAD_REACTORS
330
3B
102
}
330
3B
100
AcDbScale
 70
     0
300
6" = 1'-0"
140
6.0
141
12.0
290
     0
  0
SCALE
  5
5C
102
{ACAD_REACTORS
330
3B
102
}
330
3B
100
AcDbScale
 70
     0
300
1'-0" = 1'-0"
140
12.0
141
12.0
290
     0
  0
VISUALSTYLE
  5
2F
102
{ACAD_REACTORS
330
2A
102
}
330
2A
100
AcDbVisualStyle
  2
2dWireframe
 70
     4
 71
     0
 72
     2
 73
     0
 90
        0
 40
-0.6
 41
-30.0
 62
     5
 63
     7
 74
     1
 91
        4
 64
     7
 65
   257
 75
     1
175
     1
 42
1.0
 92
        0
 66
   257
 43
1.0
 76
     1
 77
     6
 78
     2
 67
     7
 79
     5
170
     0
171
     0
290
     0
174
     0
 93
        1
 44
0.0
173
     0
291
     0
 45
0.0
1001
ACAD
1000
AcDbSavedByObjectVersion
1070
     0
  0
VISUALSTYLE
  5
31
102
{ACAD_REACTORS
330
2A
102
}
330
2A
100
AcDbVisualStyle
  2
3D Hidden
 70
     6
 71
     1
 72
     2
 73
     2
 90
        0
 40
-0.6
 41
-30.0
 62
     5
 63
     7
 74
     2
 91
        2
 64
     7
 65
   257
 75
     2
175
     1
 42
40.0
 92
        0
 66
   257
 43
1.0
 76
     1
 77
     6
 78
     2
 67
     7
 79
     3
170
     0
171
     0
290
     0
174
     0
 93
        1
 44
0.0
173
     0
291
     0
 45
0.0
1001
ACAD
1000
AcDbSavedByObjectVersion
1070
     0
  0
VISUALSTYLE
  5
30
102
{ACAD_REACTORS
330
2A
102
}
330
2A
100
AcDbVisualStyle
  2
3dWireframe
 70
     5
 71
     0
 72
     2
 73
     0
 90
        0
 40
-0.6
 41
-30.0
 62
     5
 63
     7
 74
     1
 91
        4
 64
     7
 65
   257
 75
     1
175
     1
 42
1.0
 92
        0
 66
   257
 43
1.0
 76
     1
 77
     6
 78
     2
 67
     7
 79
     5
170
     0
171
     0
290
     0
174
     0
 93
        1
 44
0.0
173
     0
291
     0
 45
0.0
1001
ACAD
1000
AcDbSavedByObjectVersion
1070
     0
  0
VISUALSTYLE
  5
32
102
{ACAD_REACTORS
330
2A
102
}
330
2A
100
AcDbVisualStyle
  2
Basic
 70
     7
 71
     1
 72
     0
 73
     1
 90
        0
 40
-0.6
 41
-30.0
 62
     5
 63
     7
 74
     0
 91
        4
 64
     7
 65
   257
 75
     1
175
     1
 42
1.0
 92
        8
 66
     7
 43
1.0
 76
     1
 77
     6
 78
     2
 67
     7
 79
     5
170
     0
171
     0
290
     0
174
     0
 93
        1
 44
0.0
173
     0
291
     1
 45
0.0
1001
ACAD
1000
AcDbSavedByObjectVersion
1070
     0
  0
VISUALSTYLE
  5
36
102
{ACAD_REACTORS
330
2A
102
}
330
2A
100
AcDbVisualStyle
  2
Brighten
 70
    12
 71
     2
 72
     2
 73
     0
 90
        0
 40
-0.6
 41
-30.0
 62
     5
 63
     7
 74
     1
 91
        4
 64
     7
 65
   257
 75
     1
175
     1
 42
1.0
 92
        8
 66
     7
 43
1.0
 76
     1
 77
     6
 78
     2
 67
     7
 79
     5
170
     0
171
     0
290
     0
174
     0
 93
        1
 44
50.0
173
     0
291
     1
 45
0.0
1001
ACAD
1000
AcDbSavedByObjectVersion
1070
     0
  0
VISUALSTYLE
  5
3A
102
{ACAD_REACTORS
330
2A
102
}
330
2A
100
AcDbVisualStyle
  2
ColorChange
 70
    16
 71
     2
 72
     2
 73
     3
 90
        0
 40
-0.6
 41
-30.0
 62
     5
 63
     8
 74
     1
 91
        4
 64
     7
 65
   257
 75
     1
175
     1
 42
1.0
 92
        8
 66
     8
 43
1.0
 76
     1
 77
     6
 78
     2
 67
     7
 79
     5
170
     0
171
     0
290
     0
174
     0
 93
        1
 44
0.0
173
     0
291
     1
 45
0.0
1001
ACAD
1000
AcDbSavedByObjectVersion
1070
     0
  0
VISUALSTYLE
  5
34
102
{ACAD_REACTORS
330
2A
102
}
330
2A
100
AcDbVisualStyle
  2
Conceptual
 70
     9
 71
     3
 72
     2
 73
     0
 90
        0
 40
-0.6
 41
-30.0
 62
     5
 63
     7
 74
     2
 91
        2
 64
     7
 65
   257
 75
     1
175
     1
 42
40.0
 92
        8
 66
     7
 43
1.0
 76
     1
 77
     6
 78
     2
 67
     7
 79
     3
170
     0
171
     0
290
     0
174
     0
 93
        1
 44
0.0
173
     0
291
     0
 45
0.0
1001
ACAD
1000
AcDbSavedByObjectVersion
1070
     0
  0
VISUALSTYLE
  5
35
102
{ACAD_REACTORS
330
2A
102
}
330
2A
100
AcDbVisualStyle
  2
Dim
 70
    11
 71
     2
 72
     2
 73
     0
 90
        0
 40
-0.6
 41
-30.0
 62
     5
 63
     7
 74
     1
 91
        4
 64
     7
 65
   257
 75
     1
175
     1
 42
1.0
 92
        8
 66
     7
 43
1.0
 76
     1
 77
     6
 78
     2
 67
     7
 79
     5
170
     0
171
     0
290
     0
174
     0
 93
        1
 44
-50.0
173
     0
291
     1
 45
0.0
1001
ACAD
1000
AcDbSavedByObjectVersion
1070
     0
  0
VISUALSTYLE
  5
39
102
{ACAD_REACTORS
330
2A
102
}
330
2A
100
AcDbVisualStyle
  2
Facepattern
 70
    15
 71
     2
 72
     2
 73
     0
 90
        0
 40
-0.6
 41
-30.0
 62
     5
 63
     7
 74
     1
 91
        4
 64
     7
 65
   257
 75
     1
175
     1
 42
1.0
 92
        8
 66
     7
 43
1.0
 76
     1
 77
     6
 78
     2
 67
     7
 79
     5
170
     0
171
     0
290
     0
174
     0
 93
        1
 44
0.0
173
     0
291
     1
 45
0.0
1001
ACAD
1000
AcDbSavedByObjectVersion
1070
     0
  0
VISUALSTYLE
  5
2B
102
{ACAD_REACTORS
330
2A
102
}
330
2A
100
AcDbVisualStyle
  2
Flat
 70
     0
 71
     2
 72
     1
 73
     1
 90
        2
 40
-0.6
 41
30.0
 62
     5
 63
     7
 74
     0
 91
        4
 64
     7
 65
   257
 75
     1
175
     1
 42
1.0
 92
        8
 66
     7
 43
1.0
 76
     1
 77
     6
 78
     2
 67
     7
 79
     5
170
     0
171
     0
290
     0
174
     0
 93
       13
 44
0.0
173
     0
291
     1
 45
0.0
1001
ACAD
1000
AcDbSavedByObjectVersion
1070
     0
  0
VISUALSTYLE
  5
2C
102
{ACAD_REACTORS
330
2A
102
}
330
2A
100
AcDbVisualStyle
  2
FlatWithEdges
 70
     1
 71
     2
 72
     1
 73
     1
 90
        2
 40
-0.6
 41
30.0
 62
     5
 63
     7
 74
     1
 91
        4
 64
     7
 65
   257
 75
     1
175
     1
 42
1.0
 92
        0
 66
   257
 43
1.0
 76
     1
 77
     6
 78
     2
 67
     7
 79
     5
170
     0
171
     0
290
     0
174
     0
 93
       13
 44
0.0
173
     0
291
     1
 45
0.0
1001
ACAD
1000
AcDbSavedByObjectVersion
1070
     0
  0
VISUALSTYLE
  5
2D
102
{ACAD_REACTORS
330
2A
102
}
330
2A
100
AcDbVisualStyle
  2
Gouraud
 70
     2
 71
     2
 72
     2
 73
     1
 90
        2
 40
-0.6
 41
30.0
 62
     5
 63
     7
 74
     0
 91
        4
 64
     7
 65
   257
 75
     1
175
     1
 42
1.0
 92
        0
 66
     7
 43
1.0
 76
     1
 77
     6
 78
     2
 67
     7
 79
     5
170
     0
171
     0
290
     0
174
     0
 93
       13
 44
0.0
173
     0
291
     1
 45
0.0
1001
ACAD
1000
AcDbSavedByObjectVersion
1070
     0
  0
VISUALSTYLE
  5
2E
102
{ACAD_REACTORS
330
2A
102
}
330
2A
100
AcDbVisualStyle
  2
GouraudWithEdges
 70
     3
 71
     2
 72
     2
 73
     1
 90
        2
 40
-0.6
 41
30.0
 62
     5
 63
     7
 74
     1
 91
        4
 64
     7
 65
   257
 75
     1
175
     1
 42
1.0
 92
        0
 66
   257
 43
1.0
 76
     1
 77
     6
 78
     2
 67
     7
 79
     5
170
     0
171
     0
290
     0
174
     0
 93
       13
 44
0.0
173
     0
291
     1
 45
0.0
1001
ACAD
1000
AcDbSavedByObjectVersion
1070
     0
  0
VISUALSTYLE
  5
38
102
{ACAD_REACTORS
330
2A
102
}
330
2A
100
AcDbVisualStyle
  2
Linepattern
 70
    14
 71
     2
 72
     2
 73
     0
 90
        0
 40
-0.6
 41
-30.0
 62
     5
 63
     7
 74
     1
 91
        4
 64
     7
 65
   257
 75
     7
175
     7
 42
1.0
 92
        8
 66
     7
 43
1.0
 76
     1
 77
     6
 78
     2
 67
     7
 79
     5
170
     0
171
     0
290
     0
174
     0
 93
        1
 44
0.0
173
     0
291
     1
 45
0.0
1001
ACAD
1000
AcDbSavedByObjectVersion
1070
     0
  0
VISUALSTYLE
  5
33
102
{ACAD_REACTORS
330
2A
102
}
330
2A
100
AcDbVisualStyle
  2
Realistic
 70
     8
 71
     2
 72
     2
 73
     0
 90
        0
 40
-0.6
 41
-30.0
 62
     5
 63
     7
 74
     1
 91
        0
 64
     7
 65
   257
 75
     1
175
     1
 42
1.0
 92
        8
 66
     8
 43
1.0
 76
     1
 77
     6
 78
     2
 67
     7
 79
     5
170
     0
171
     0
290
     0
174
     0
 93
       13
 44
0.0
173
     0
291
     0
 45
0.0
1001
ACAD
1000
AcDbSavedByObjectVersion
1070
     0
  0
VISUALSTYLE
  5
37
102
{ACAD_REACTORS
330
2A
102
}
330
2A
100
AcDbVisualStyle
  2
Thicken
 70
    13
 71
     2
 72
     2
 73
     0
 90
        0
 40
-0.6
 41
-30.0
 62
     5
 63
     7
 74
     1
 91
        4
 64
     7
 65
   257
 75
     1
175
     1
 42
1.0
 92
       12
 66
     7
 43
1.0
 76
     1
 77
     6
 78
     2
 67
     7
 79
     5
170
     0
171
     0
290
     0
174
     0
 93
        1
 44
0.0
173
     0
291
     1
 45
0.0
1001
ACAD
1000
AcDbSavedByObjectVersion
1070
     0
  0
DICTIONARYVAR
  5
2C3
102
{ACAD_REACTORS
330
2C2
102
}
330
2C2
100
DictionaryVariables
280
     0
  1
1:1
  0
DICTIONARYVAR
  5
2C7
102
{ACAD_REACTORS
330
2C2
102
}
330
2C2
100
DictionaryVariables
280
     0
  1
80.000000
  0
DICTIONARYVAR
  5
2C6
102
{ACAD_REACTORS
330
2C2
102
}
330
2C2
100
DictionaryVariables
280
     0
  1
5.000000
  0
ENDSEC
  0
EOF
