  0
SECTION
  2
HEADER
  9
$ACADVER
  1
AC1015
  9
$ACADMAINTVER
 70
     6
  9
$DWGCODEPAGE
  3
ANSI_1252
  9
$INSBASE
 10
0.0
 20
0.0
 30
0.0
  9
$EXTMIN
 10
0.0
 20
0.0
 30
0.0
  9
$EXTMAX
 10
1682.0
 20
2378.0
 30
0.0
  9
$LIMMIN
 10
0.0
 20
0.0
  9
$LIMMAX
 10
1682.0
 20
2378.0
  9
$ORTHOMODE
 70
     0
  9
$REGENMODE
 70
     1
  9
$FILLMODE
 70
     1
  9
$QTEXTMODE
 70
     0
  9
$MIRRTEXT
 70
     1
  9
$LTSCALE
 40
1.0
  9
$ATTMODE
 70
     1
  9
$TEXTSIZE
 40
2.5
  9
$TRACEWID
 40
1.0
  9
$TEXTSTYLE
  7
Standard
  9
$CLAYER
  8
0
  9
$CELTYPE
  6
ByLayer
  9
$CECOLOR
 62
   256
  9
$CELTSCALE
 40
1.0
  9
$DISPSILH
 70
     0
  9
$DIMSCALE
 40
1.0
  9
$DIMASZ
 40
2.5
  9
$DIMEXO
 40
0.625
  9
$DIMDLI
 40
3.75
  9
$DIMRND
 40
0.0
  9
$DIMDLE
 40
0.0
  9
$DIMEXE
 40
1.25
  9
$DIMTP
 40
0.0
  9
$DIMTM
 40
0.0
  9
$DIMTXT
 40
2.5
  9
$DIMCEN
 40
2.5
  9
$DIMTSZ
 40
0.0
  9
$DIMTOL
 70
     0
  9
$DIMLIM
 70
     0
  9
$DIMTIH
 70
     0
  9
$DIMTOH
 70
     0
  9
$DIMSE1
 70
     0
  9
$DIMSE2
 70
     0
  9
$DIMTAD
 70
     1
  9
$DIMZIN
 70
     8
  9
$DIMBLK
  1

  9
$DIMASO
 70
     1
  9
$DIMSHO
 70
     1
  9
$DIMPOST
  1

  9
$DIMAPOST
  1

  9
$DIMALT
 70
     0
  9
$DIMALTD
 70
     3
  9
$DIMALTF
 40
0.0393700787
  9
$DIMLFAC
 40
1.0
  9
$DIMTOFL
 70
     1
  9
$DIMTVP
 40
0.0
  9
$DIMTIX
 70
     0
  9
$DIMSOXD
 70
     0
  9
$DIMSAH
 70
     0
  9
$DIMBLK1
  1

  9
$DIMBLK2
  1

  9
$DIMSTYLE
  2
ISO-25
  9
$DIMCLRD
 70
     0
  9
$DIMCLRE
 70
     0
  9
$DIMCLRT
 70
     0
  9
$DIMTFAC
 40
1.0
  9
$DIMGAP
 40
0.625
  9
$DIMJUST
 70
     0
  9
$DIMSD1
 70
     0
  9
$DIMSD2
 70
     0
  9
$DIMTOLJ
 70
     0
  9
$DIMTZIN
 70
     8
  9
$DIMALTZ
 70
     0
  9
$DIMALTTZ
 70
     0
  9
$DIMUPT
 70
     0
  9
$DIMDEC
 70
     2
  9
$DIMTDEC
 70
     2
  9
$DIMALTU
 70
     2
  9
$DIMALTTD
 70
     3
  9
$DIMTXSTY
  7
Standard
  9
$DIMAUNIT
 70
     0
  9
$DIMADEC
 70
     0
  9
$DIMALTRND
 40
0.0
  9
$DIMAZIN
 70
     0
  9
$DIMDSEP
 70
    44
  9
$DIMATFIT
 70
     3
  9
$DIMFRAC
 70
     0
  9
$DIMLDRBLK
  1

  9
$DIMLUNIT
 70
     2
  9
$DIMLWD
 70
    -2
  9
$DIMLWE
 70
    -2
  9
$DIMTMOVE
 70
     0
  9
$LUNITS
 70
     2
  9
$LUPREC
 70
     4
  9
$SKETCHINC
 40
1.0
  9
$FILLETRAD
 40
10.0
  9
$AUNITS
 70
     0
  9
$AUPREC
 70
     0
  9
$MENU
  1
.
  9
$ELEVATION
 40
0.0
  9
$PELEVATION
 40
0.0
  9
$THICKNESS
 40
0.0
  9
$LIMCHECK
 70
     0
  9
$CHAMFERA
 40
10.0
  9
$CHAMFERB
 40
10.0
  9
$CHAMFERC
 40
20.0
  9
$CHAMFERD
 40
0.0
  9
$SKPOLY
 70
     0
  9
$TDCREATE
 40
2455513.436905949
  9
$TDUCREATE
 40
2455513.395239282
  9
$TDUPDATE
 40
2455513.436905961
  9
$TDUUPDATE
 40
2455513.395239294
  9
$TDINDWG
 40
0.0000000116
  9
$TDUSRTIMER
 40
0.0000000116
  9
$USRTIMER
 70
     1
  9
$ANGBASE
 50
0.0
  9
$ANGDIR
 70
     0
  9
$PDMODE
 70
     0
  9
$PDSIZE
 40
0.0
  9
$PLINEWID
 40
0.0
  9
$SPLFRAME
 70
     0
  9
$SPLINETYPE
 70
     6
  9
$SPLINESEGS
 70
     8
  9
$HANDSEED
  5
1CC
  9
$SURFTAB1
 70
     6
  9
$SURFTAB2
 70
     6
  9
$SURFTYPE
 70
     6
  9
$SURFU
 70
     6
  9
$SURFV
 70
     6
  9
$UCSBASE
  2

  9
$UCSNAME
  2

  9
$UCSORG
 10
0.0
 20
0.0
 30
0.0
  9
$UCSXDIR
 10
1.0
 20
0.0
 30
0.0
  9
$UCSYDIR
 10
0.0
 20
1.0
 30
0.0
  9
$UCSORTHOREF
  2

  9
$UCSORTHOVIEW
 70
     0
  9
$UCSORGTOP
 10
0.0
 20
0.0
 30
0.0
  9
$UCSORGBOTTOM
 10
0.0
 20
0.0
 30
0.0
  9
$UCSORGLEFT
 10
0.0
 20
0.0
 30
0.0
  9
$UCSORGRIGHT
 10
0.0
 20
0.0
 30
0.0
  9
$UCSORGFRONT
 10
0.0
 20
0.0
 30
0.0
  9
$UCSORGBACK
 10
0.0
 20
0.0
 30
0.0
  9
$PUCSBASE
  2

  9
$PUCSNAME
  2

  9
$PUCSORG
 10
0.0
 20
0.0
 30
0.0
  9
$PUCSXDIR
 10
1.0
 20
0.0
 30
0.0
  9
$PUCSYDIR
 10
0.0
 20
1.0
 30
0.0
  9
$PUCSORTHOREF
  2

  9
$PUCSORTHOVIEW
 70
     0
  9
$PUCSORGTOP
 10
0.0
 20
0.0
 30
0.0
  9
$PUCSORGBOTTOM
 10
0.0
 20
0.0
 30
0.0
  9
$PUCSORGLEFT
 10
0.0
 20
0.0
 30
0.0
  9
$PUCSORGRIGHT
 10
0.0
 20
0.0
 30
0.0
  9
$PUCSORGFRONT
 10
0.0
 20
0.0
 30
0.0
  9
$PUCSORGBACK
 10
0.0
 20
0.0
 30
0.0
  9
$USERI1
 70
     0
  9
$USERI2
 70
     0
  9
$USERI3
 70
     0
  9
$USERI4
 70
     0
  9
$USERI5
 70
     0
  9
$USERR1
 40
0.0
  9
$USERR2
 40
0.0
  9
$USERR3
 40
0.0
  9
$USERR4
 40
0.0
  9
$USERR5
 40
0.0
  9
$WORLDVIEW
 70
     1
  9
$SHADEDGE
 70
     3
  9
$SHADEDIF
 70
    70
  9
$TILEMODE
 70
     1
  9
$MAXACTVP
 70
    64
  9
$PINSBASE
 10
0.0
 20
0.0
 30
0.0
  9
$PLIMCHECK
 70
     0
  9
$PEXTMIN
 10
0.0
 20
0.0
 30
0.0
  9
$PEXTMAX
 10
1682.0
 20
2378.0
 30
0.0
  9
$PLIMMIN
 10
0.0
 20
0.0
  9
$PLIMMAX
 10
1682.0
 20
2378.0
  9
$UNITMODE
 70
     0
  9
$VISRETAIN
 70
     1
  9
$PLINEGEN
 70
     0
  9
$PSLTSCALE
 70
     1
  9
$TREEDEPTH
 70
  3020
  9
$CMLSTYLE
  2
Standard
  9
$CMLJUST
 70
     0
  9
$CMLSCALE
 40
20.0
  9
$PROXYGRAPHICS
 70
     1
  9
$MEASUREMENT
 70
     1
  9
$CELWEIGHT
370
    -1
  9
$ENDCAPS
280
     0
  9
$JOINSTYLE
280
     0
  9
$LWDISPLAY
290
     0
  9
$INSUNITS
 70
     4
  9
$HYPERLINKBASE
  1

  9
$STYLESHEET
  1

  9
$XEDIT
290
     1
  9
$CEPSNTYPE
380
     0
  9
$PSTYLEMODE
290
     1
  9
$FINGERPRINTGUID
  2
{3E6DC93A-5C01-4A6E-A97F-492A14790051}
  9
$VERSIONGUID
  2
{FAEB1C32-E019-11D5-929B-00C0DF256EC4}
  9
$EXTNAMES
290
     1
  9
$PSVPSCALE
 40
0.0
  9
$OLESTARTUP
290
     0
  0
ENDSEC
  0
SECTION
  2
CLASSES
  0
CLASS
  1
ACDBDICTIONARYWDFLT
  2
AcDbDictionaryWithDefault
  3
ObjectDBX Classes
 90
        0
280
     0
281
     0
  0
CLASS
  1
VISUALSTYLE
  2
AcDbVisualStyle
  3
ObjectDBX Classes
 90
     4095
280
     0
281
     0
  0
CLASS
  1
SCALE
  2
AcDbScale
  3
ObjectDBX Classes
 90
     1153
280
     0
281
     0
  0
CLASS
  1
DICTIONARYVAR
  2
AcDbDictionaryVar
  3
ObjectDBX Classes
 90
        0
280
     0
281
     0
  0
CLASS
  1
ACDBPLACEHOLDER
  2
AcDbPlaceHolder
  3
ObjectDBX Classes
 90
        0
280
     0
281
     0
  0
CLASS
  1
LAYOUT
  2
AcDbLayout
  3
ObjectDBX Classes
 90
        0
280
     0
281
     0
  0
ENDSEC
  0
SECTION
  2
TABLES
  0
TABLE
  2
VPORT
  5
8
330
0
100
AcDbSymbolTable
 70
     1
  0
VPORT
  5
29
330
8
100
AcDbSymbolTableRecord
100
AcDbViewportTableRecord
  2
*Active
 70
     0
 10
0.0
 20
0.0
 11
1.0
 21
1.0
 12
344.1869158879
 22
148.5
 13
0.0
 23
0.0
 14
10.0
 24
10.0
 15
10.0
 25
10.0
 16
0.0
 26
0.0
 36
1.0
 17
0.0
 27
0.0
 37
0.0
 40
297.0
 41
1.9729729729
 42
50.0
 43
0.0
 44
0.0
 50
0.0
 51
0.0
 71
     0
 72
   100
 73
     1
 74
     3
 75
     0
 76
     0
 77
     0
 78
     0
281
     0
 65
     1
110
0.0
120
0.0
130
0.0
111
1.0
121
0.0
131
0.0
112
0.0
122
1.0
132
0.0
 79
     0
146
0.0
  0
ENDTAB
  0
TABLE
  2
LTYPE
  5
5
330
0
100
AcDbSymbolTable
 70
     2
  0
LTYPE
  5
14
330
5
100
AcDbSymbolTableRecord
100
AcDbLinetypeTableRecord
  2
ByBlock
 70
     0
  3

 72
    65
 73
     0
 40
0.0
  0
LTYPE
  5
15
330
5
100
AcDbSymbolTableRecord
100
AcDbLinetypeTableRecord
  2
ByLayer
 70
     0
  3

 72
    65
 73
     0
 40
0.0
  0
LTYPE
  5
16
330
5
100
AcDbSymbolTableRecord
100
AcDbLinetypeTableRecord
  2
Continuous
 70
     0
  3
Solid line
 72
    65
 73
     0
 40
0.0
  0
LTYPE
  5
60
330
5
100
AcDbSymbolTableRecord
100
AcDbLinetypeTableRecord
  2
CENTER2
 70
     0
  3
Center (.5x) ___ _ ___ _ ___ _ ___ _ ___ _ ___
 72
    65
 73
     4
 40
28.575
 49
19.05
 74
     4
 75
     0
340
0
 46
0.0
 50
0.0
 44
0.0
 45
0.0
 49
-3.175
 74
     4
 75
     0
340
0
 46
0.0
 50
0.0
 44
0.0
 45
0.0
 49
3.175
 74
     4
 75
     0
340
0
 46
0.0
 50
0.0
 44
0.0
 45
0.0
 49
-3.175
 74
     4
 75
     0
340
0
 46
0.0
 50
0.0
 44
0.0
 45
0.0
  0
ENDTAB
  0
TABLE
  2
LAYER
  5
2
330
0
100
AcDbSymbolTable
 70
    13
  0
LAYER
  5
10
330
2
100
AcDbSymbolTableRecord
100
AcDbLayerTableRecord
  2
0
 70
     0
 62
     7
  6
Continuous
370
    -3
390
F
  0
LAYER
  5
5D
330
2
100
AcDbSymbolTableRecord
100
AcDbLayerTableRecord
  2
Default
 70
     0
 62
     7
  6
Continuous
370
    -3
390
F
  0
LAYER
  5
77
330
2
100
AcDbSymbolTableRecord
100
AcDbLayerTableRecord
  2
$DDT_AUDIT_GENERATED_(77)
 70
     0
 62
     7
  6
Continuous
370
    -3
390
F
  0
LAYER
  5
79
330
2
100
AcDbSymbolTableRecord
100
AcDbLayerTableRecord
  2
$DDT_AUDIT_GENERATED_(79)
 70
     0
 62
     7
  6
Continuous
370
    -3
390
F
  0
LAYER
  5
7D
330
2
100
AcDbSymbolTableRecord
100
AcDbLayerTableRecord
  2
4221333_GRIFF_OB
 70
     0
 62
     7
  6
Continuous
370
    -3
390
F
  0
LAYER
  5
9B
330
2
100
AcDbSymbolTableRecord
100
AcDbLayerTableRecord
  2
4221335_TASTE_00
 70
     0
 62
     7
  6
Continuous
370
    -3
390
F
  0
LAYER
  5
A6
330
2
100
AcDbSymbolTableRecord
100
AcDbLayerTableRecord
  2
$DDT_AUDIT_GENERATED_(A6)
 70
     0
 62
     7
  6
Continuous
370
    -3
390
F
  0
LAYER
  5
AD
330
2
100
AcDbSymbolTableRecord
100
AcDbLayerTableRecord
  2
$DDT_AUDIT_GENERATED_(AD)
 70
     0
 62
     7
  6
Continuous
370
    -3
390
F
  0
LAYER
  5
B0
330
2
100
AcDbSymbolTableRecord
100
AcDbLayerTableRecord
  2
$DDT_AUDIT_GENERATED_(B0)
 70
     0
 62
     7
  6
Continuous
370
    -3
390
F
  0
LAYER
  5
C0
330
2
100
AcDbSymbolTableRecord
100
AcDbLayerTableRecord
  2
$DDT_AUDIT_GENERATED_(C0)
 70
     0
 62
     7
  6
Continuous
370
    -3
390
F
  0
LAYER
  5
104
330
2
100
AcDbSymbolTableRecord
100
AcDbLayerTableRecord
  2
$DDT_AUDIT_GENERATED_(104)
 70
     0
 62
     7
  6
Continuous
370
    -3
390
F
  0
LAYER
  5
134
330
2
100
AcDbSymbolTableRecord
100
AcDbLayerTableRecord
  2
$DDT_AUDIT_GENERATED_(134)
 70
     0
 62
     7
  6
Continuous
370
    -3
390
F
  0
LAYER
  5
19D
330
2
100
AcDbSymbolTableRecord
100
AcDbLayerTableRecord
  2
$DDT_AUDIT_GENERATED_(19D)
 70
     0
 62
     7
  6
Continuous
370
    -3
390
F
  0
ENDTAB
  0
TABLE
  2
STYLE
  5
3
330
0
100
AcDbSymbolTable
 70
     2
  0
STYLE
  5
11
330
3
100
AcDbSymbolTableRecord
100
AcDbTextStyleTableRecord
  2
Standard
 70
     0
 40
0.0
 41
1.0
 50
0.0
 71
     0
 42
2.5
  3
txt
  4

  0
STYLE
  5
1BB
330
3
100
AcDbSymbolTableRecord
100
AcDbTextStyleTableRecord
  2
SEACAD_seiso_ttf
 70
     0
 40
0.0
 41
1.0
 50
0.0
 71
     0
 42
0.2
  3
seiso.ttf
  4

  0
ENDTAB
  0
TABLE
  2
VIEW
  5
6
330
0
100
AcDbSymbolTable
 70
     0
  0
ENDTAB
  0
TABLE
  2
UCS
  5
7
330
0
100
AcDbSymbolTable
 70
     0
  0
ENDTAB
  0
TABLE
  2
APPID
  5
9
330
0
100
AcDbSymbolTable
 70
     1
  0
APPID
  5
12
330
9
100
AcDbSymbolTableRecord
100
AcDbRegAppTableRecord
  2
ACAD
 70
     0
  0
ENDTAB
  0
TABLE
  2
DIMSTYLE
  5
A
330
0
100
AcDbSymbolTable
 70
     1
100
AcDbDimStyleTable
  0
DIMSTYLE
105
27
330
A
100
AcDbSymbolTableRecord
100
AcDbDimStyleTableRecord
  2
ISO-25
 70
     0
 41
2.5
 42
0.625
 43
3.75
 44
1.25
 73
     0
 74
     0
 77
     1
 78
     8
140
2.5
141
2.5
143
0.0393700787
147
0.625
171
     3
172
     1
271
     2
272
     2
274
     3
278
    44
283
     0
284
     8
340
11
  0
ENDTAB
  0
TABLE
  2
BLOCK_RECORD
  5
1
330
0
100
AcDbSymbolTable
 70
     7
  0
BLOCK_RECORD
  5
1F
330
1
100
AcDbSymbolTableRecord
100
AcDbBlockTableRecord
  2
*Model_Space
340
22
  0
BLOCK_RECORD
  5
1B
330
1
100
AcDbSymbolTableRecord
100
AcDbBlockTableRecord
  2
*Paper_Space
340
1E
  0
BLOCK_RECORD
  5
5E
330
1
100
AcDbSymbolTableRecord
100
AcDbBlockTableRecord
  2
SEANNOT_GROUP
340
0
102
{BLKREFS
331
5F
102
}
  0
BLOCK_RECORD
  5
65
330
1
100
AcDbSymbolTableRecord
100
AcDbBlockTableRecord
  2
SEANNOT_GROUP1
340
0
102
{BLKREFS
331
66
102
}
  0
BLOCK_RECORD
  5
6F
330
1
100
AcDbSymbolTableRecord
100
AcDbBlockTableRecord
  2
SEANNOT_GROUP2
340
0
102
{BLKREFS
331
70
102
}
  0
BLOCK_RECORD
  5
75
330
1
100
AcDbSymbolTableRecord
100
AcDbBlockTableRecord
  2
SE
340
0
102
{BLKREFS
331
76
102
}
  0
BLOCK_RECORD
  5
C5
330
1
100
AcDbSymbolTableRecord
100
AcDbBlockTableRecord
  2
SE1
340
0
102
{BLKREFS
331
C6
102
}
  0
BLOCK_RECORD
  5
11A
330
1
100
AcDbSymbolTableRecord
100
AcDbBlockTableRecord
  2
SE2
340
0
102
{BLKREFS
331
11B
102
}
  0
ENDTAB
  0
ENDSEC
  0
SECTION
  2
BLOCKS
  0
BLOCK
  5
20
330
1F
100
AcDbEntity
  8
0
100
AcDbBlockBegin
  2
*Model_Space
 70
     0
 10
0.0
 20
0.0
 30
0.0
  3
*Model_Space
  1

  0
ENDBLK
  5
21
330
1F
100
AcDbEntity
  8
0
100
AcDbBlockEnd
  0
BLOCK
  5
1C
330
1B
100
AcDbEntity
 67
     1
  8
0
100
AcDbBlockBegin
  2
*Paper_Space
 70
     0
 10
0.0
 20
0.0
 30
0.0
  3
*Paper_Space
  1

  0
ENDBLK
  5
1D
330
1B
100
AcDbEntity
 67
     1
  8
0
100
AcDbBlockEnd
  0
BLOCK
  5
63
330
5E
100
AcDbEntity
  8
0
100
AcDbBlockBegin
  2
SEANNOT_GROUP
 70
     0
 10
0.0
 20
0.0
 30
0.0
  3
SEANNOT_GROUP
  1

  0
LINE
  5
61
330
5E
100
AcDbEntity
  8
Default
  6
CENTER2
 62
     7
100
AcDbLine
 10
356.2495613943
 20
400.9114267679
 30
0.0
 11
316.2495622883
 21
400.9114267679
 31
0.0
  0
LINE
  5
62
330
5E
100
AcDbEntity
  8
Default
  6
CENTER2
 62
     7
100
AcDbLine
 10
336.2495618413
 20
420.9114263208
 30
0.0
 11
336.2495618413
 21
380.9114272149
 31
0.0
  0
ENDBLK
  5
64
330
5E
100
AcDbEntity
  8
0
100
AcDbBlockEnd
  0
BLOCK
  5
6D
330
65
100
AcDbEntity
  8
0
100
AcDbBlockBegin
  2
SEANNOT_GROUP1
 70
     0
 10
0.0
 20
0.0
 30
0.0
  3
SEANNOT_GROUP1
  1

  0
LINE
  5
67
330
65
100
AcDbEntity
  8
Default
  6
CENTER2
 62
     7
100
AcDbLine
 10
149.7370434335
 20
401.0122068696
 30
0.0
 11
109.7370443275
 21
401.0122068696
 31
0.0
  0
LINE
  5
68
330
65
100
AcDbEntity
  8
Default
  6
CENTER2
 62
     7
100
AcDbLine
 10
129.7370438805
 20
421.0122064225
 30
0.0
 11
129.7370438805
 21
381.0122073166
 31
0.0
  0
LINE
  5
69
330
65
100
AcDbEntity
  8
Default
  6
CENTER2
 62
     7
100
AcDbLine
 10
154.7370433217
 20
401.0122068696
 30
0.0
 11
151.2370438805
 21
401.0122068696
 31
0.0
  0
LINE
  5
6A
330
65
100
AcDbEntity
  8
Default
  6
CENTER2
 62
     7
100
AcDbLine
 10
129.7370438805
 20
426.0122063108
 30
0.0
 11
129.7370438805
 21
422.5122068696
 31
0.0
  0
LINE
  5
6B
330
65
100
AcDbEntity
  8
Default
  6
CENTER2
 62
     7
100
AcDbLine
 10
104.7370444393
 20
401.0122068696
 30
0.0
 11
108.2370438805
 21
401.0122068696
 31
0.0
  0
LINE
  5
6C
330
65
100
AcDbEntity
  8
Default
  6
CENTER2
 62
     7
100
AcDbLine
 10
129.7370438805
 20
376.0122074284
 30
0.0
 11
129.7370438805
 21
379.5122068696
 31
0.0
  0
ENDBLK
  5
6E
330
65
100
AcDbEntity
  8
0
100
AcDbBlockEnd
  0
BLOCK
  5
73
330
6F
100
AcDbEntity
  8
0
100
AcDbBlockBegin
  2
SEANNOT_GROUP2
 70
     0
 10
0.0
 20
0.0
 30
0.0
  3
SEANNOT_GROUP2
  1

  0
LINE
  5
71
330
6F
100
AcDbEntity
  8
Default
  6
CENTER2
 62
     7
100
AcDbLine
 10
149.7370434335
 20
177.7577695686
 30
0.0
 11
109.7370443275
 21
177.7577695686
 31
0.0
  0
LINE
  5
72
330
6F
100
AcDbEntity
  8
Default
  6
CENTER2
 62
     7
100
AcDbLine
 10
129.7370438805
 20
197.7577691216
 30
0.0
 11
129.7370438805
 21
157.7577700157
 31
0.0
  0
ENDBLK
  5
74
330
6F
100
AcDbEntity
  8
0
100
AcDbBlockEnd
  0
BLOCK
  5
C3
330
75
100
AcDbEntity
  8
0
100
AcDbBlockBegin
  2
SE
 70
     0
 10
0.0
 20
0.0
 30
0.0
  3
SE
  1

  0
CIRCLE
  5
78
330
75
100
AcDbEntity
  8
$DDT_AUDIT_GENERATED_(77)
  6
Continuous
 62
     7
100
AcDbCircle
 10
129.7370438805
 20
401.0122068696
 30
0.0
 40
26.25
  0
ARC
  5
7A
330
75
100
AcDbEntity
  8
$DDT_AUDIT_GENERATED_(79)
  6
Continuous
 62
     7
100
AcDbCircle
 10
129.7370438805
 20
401.0122068696
 30
0.0
 40
18.00000000000001
100
AcDbArc
 50
244.5624389353
 51
313.5300153554
  0
ARC
  5
7B
330
75
100
AcDbEntity
  8
$DDT_AUDIT_GENERATED_(79)
  6
Continuous
 62
     7
100
AcDbCircle
 10
130.5370438805
 20
413.5622068696
 30
0.0
 40
0.2999999999999999
100
AcDbArc
 50
180.0
 51
225.962906893
  0
ARC
  5
7C
330
75
100
AcDbEntity
  8
$DDT_AUDIT_GENERATED_(79)
  6
Continuous
 62
     7
100
AcDbCircle
 10
129.7370438805
 20
401.0122068696
 30
0.0
 40
13.5
100
AcDbArc
 50
106.1535995725
 51
106.8516329752
  0
ARC
  5
7E
330
75
100
AcDbEntity
  8
4221333_GRIFF_OB
  6
Continuous
 62
     7
100
AcDbCircle
 10
129.7394914552
 20
426.4817506627
 30
0.0
 40
12.06710988321711
100
AcDbArc
 50
228.3437572268
 51
311.6497399302
  0
ARC
  5
7F
330
75
100
AcDbEntity
  8
4221333_GRIFF_OB
  6
Continuous
 62
     7
100
AcDbCircle
 10
-1872.4450213144
 20
416.0350768133
 30
0.0
 40
2009.797623064973
100
AcDbArc
 50
0.1033248793
 51
0.2549557717
  0
ELLIPSE
  5
80
330
75
100
AcDbEntity
  8
4221333_GRIFF_OB
  6
Continuous
 62
     7
100
AcDbEllipse
 10
122.6516979858
 20
424.9781529295
 30
0.0
 11
0.4586288734551806
 21
-0.1991470723691907
 31
0.0
210
0.0
220
0.0
230
1.0
 40
0.9948955038
 41
3.134315207646036
 42
3.553121923131012
  0
ELLIPSE
  5
81
330
75
100
AcDbEntity
  8
4221333_GRIFF_OB
  6
Continuous
 62
     7
100
AcDbEllipse
 10
136.833111575
 20
424.9782802614
 30
0.0
 11
-0.458611510620939
 21
-0.1991870536103592
 31
0.0
210
0.0
220
0.0
230
1.0
 40
0.9948955106
 41
2.729975904827997
 42
3.139960172473349
  0
ARC
  5
82
330
75
100
AcDbEntity
  8
4221333_GRIFF_OB
  6
Continuous
 62
     7
100
AcDbCircle
 10
129.7422629604
 20
400.7488850125
 30
0.0
 40
25.98158490974119
100
AcDbArc
 50
74.2402263739
 51
105.7587864669
  0
LINE
  5
83
330
75
100
AcDbEntity
  8
4221333_GRIFF_OB
  6
Continuous
 62
     7
100
AcDbLine
 10
136.7989815455
 20
425.7537940752
 30
0.0
 11
136.8009931186
 21
425.7494817364
 31
0.0
  0
ELLIPSE
  5
84
330
75
100
AcDbEntity
  8
4221333_GRIFF_OB
  6
Continuous
 62
     7
100
AcDbEllipse
 10
136.662811912
 20
425.2737526547
 30
0.0
 11
-0.4012581406359089
 21
-0.2983151095291951
 31
0.0
210
0.0
220
0.0
230
1.0
 40
0.9945369691
 41
3.144199382935084
 42
3.799340383238082
  0
LINE
  5
85
330
75
100
AcDbEntity
  8
4221333_GRIFF_OB
  6
Continuous
 62
     7
100
AcDbLine
 10
122.6839684465
 20
425.7496076946
 30
0.0
 11
122.6859751905
 21
425.7539156529
 31
0.0
  0
ELLIPSE
  5
86
330
75
100
AcDbEntity
  8
4221333_GRIFF_OB
  6
Continuous
 62
     7
100
AcDbEllipse
 10
122.8221427478
 20
425.2738734375
 30
0.0
 11
0.4012273731610165
 21
-0.2983564898344296
 31
0.0
210
0.0
220
0.0
230
1.0
 40
0.9945366339
 41
2.483943591576458
 42
3.140537975461598
  0
ARC
  5
87
330
75
100
AcDbEntity
  8
4221333_GRIFF_OB
  6
Continuous
 62
     7
100
AcDbCircle
 10
133.3346755229
 20
399.8372203126
 30
0.0
 40
16.7877903036818
100
AcDbArc
 50
4.0134326773
 51
70.6556504712
  0
SPLINE
  5
88
330
75
100
AcDbEntity
  8
4221333_GRIFF_OB
  6
Continuous
 62
     7
100
AcDbSpline
210
0.0
220
0.0
230
1.0
 70
     8
 71
     3
 72
    32
 73
    28
 74
     0
 42
0.0000000001724734
 43
0.0000000001
 40
0.0
 40
0.0
 40
0.0
 40
0.0
 40
0.1250000000000001
 40
0.1250000000000001
 40
0.1875
 40
0.1875
 40
0.25
 40
0.25
 40
0.3124999999999999
 40
0.3124999999999999
 40
0.3749999999999999
 40
0.3749999999999999
 40
0.4999999999999999
 40
0.4999999999999999
 40
0.6249999999999999
 40
0.6249999999999999
 40
0.6875
 40
0.6875
 40
0.75
 40
0.75
 40
0.8125
 40
0.8125
 40
0.875
 40
0.875
 40
0.9375000000000001
 40
0.9375000000000001
 40
1.0
 40
1.0
 40
1.0
 40
1.0
 10
150.0812966050758
 20
401.0122035507097
 30
0.0
 10
150.0835185978588
 20
398.5745747585997
 30
0.0
 10
149.3029506827933
 20
396.2165670233554
 30
0.0
 10
147.4954570280976
 20
393.1051227947739
 30
0.0
 10
146.776715199328
 20
392.1203139940633
 30
0.0
 10
145.1725155544999
 20
390.3192782053646
 30
0.0
 10
144.2919777264099
 20
389.5039304000214
 30
0.0
 10
142.3604089982267
 20
388.0575107450743
 30
0.0
 10
141.3121496185563
 20
387.4339634040385
 30
0.0
 10
139.1426120256988
 20
386.4092065277389
 30
0.0
 10
138.0077133677451
 20
385.9990088015074
 30
0.0
 10
134.5018214861217
 20
385.0422843726949
 30
0.0
 10
132.1255511409715
 20
384.7763722393988
 30
0.0
 10
127.3197421587343
 20
384.7532995296963
 30
0.0
 10
124.9067340131728
 20
385.0124842391978
 30
0.0
 10
121.4387980153813
 20
385.9619359887852
 30
0.0
 10
120.2908211355319
 20
386.3794925967426
 30
0.0
 10
118.1215960858614
 20
387.4145840644878
 30
0.0
 10
117.0958310833303
 20
388.0309684126257
 30
0.0
 10
115.1737483219782
 20
389.4813906561225
 30
0.0
 10
114.2817727201515
 20
390.3145545504883
 30
0.0
 10
112.694073281119
 20
392.109270061842
 30
0.0
 10
111.9860795905549
 20
393.0798213704047
 30
0.0
 10
110.7640918865148
 20
395.1790947067608
 30
0.0
 10
110.2707724193029
 20
396.2755102172331
 30
0.0
 10
109.5702903789761
 20
398.5820157968843
 30
0.0
 10
109.3686421836275
 20
399.7941568637102
 30
0.0
 10
109.3686507276402
 20
401.0122124878423
 30
0.0
  0
ARC
  5
89
330
75
100
AcDbEntity
  8
4221333_GRIFF_OB
  6
Continuous
 62
     7
100
AcDbCircle
 10
126.3687013277
 20
399.6773028441
 30
0.0
 40
17.05238118746315
100
AcDbArc
 50
110.0204794914
 51
175.5101271172
  0
ARC
  5
8A
330
75
100
AcDbEntity
  8
4221333_GRIFF_OB
  6
Continuous
 62
     7
100
AcDbCircle
 10
121.2554804891
 20
413.8351546885
 30
0.0
 40
1.999999999999732
100
AcDbArc
 50
58.6217569329
 51
111.2465604782
  0
ARC
  5
8B
330
75
100
AcDbEntity
  8
4221333_GRIFF_OB
  6
Continuous
 62
     7
100
AcDbCircle
 10
129.7383084594
 20
426.9552031361
 30
0.0
 40
13.62430216642192
100
AcDbArc
 50
236.8939812815
 51
302.9290124531
  0
ARC
  5
8C
330
75
100
AcDbEntity
  8
4221333_GRIFF_OB
  6
Continuous
 62
     7
100
AcDbCircle
 10
138.1809769746
 20
413.8092613525
 30
0.0
 40
2.000000000000132
100
AcDbArc
 50
69.0665268289
 51
121.2150795471
  0
ARC
  5
8D
330
75
100
AcDbEntity
  8
4221333_GRIFF_OB
  6
Continuous
 62
     7
100
AcDbCircle
 10
129.7380463821
 20
401.0088132684
 30
0.0
 40
25.60189326850757
100
AcDbArc
 50
0.0
 51
73.1350804877
  0
ARC
  5
8E
330
75
100
AcDbEntity
  8
4221333_GRIFF_OB
  6
Continuous
 62
     7
100
AcDbCircle
 10
129.7380463821
 20
401.0088132684
 30
0.0
 40
25.60189326850757
100
AcDbArc
 50
106.8818529695
 51
0.0
  0
ARC
  5
8F
330
75
100
AcDbEntity
  8
4221333_GRIFF_OB
  6
Continuous
 62
     7
100
AcDbCircle
 10
129.7397721675
 20
426.2338041637
 30
0.0
 40
11.00578111752437
100
AcDbArc
 50
229.9184530761
 51
310.1206539834
  0
ARC
  5
90
330
75
100
AcDbEntity
  8
4221333_GRIFF_OB
  6
Continuous
 62
     7
100
AcDbCircle
 10
2132.4061464984
 20
416.0348689221
 30
0.0
 40
2010.273934494845
100
AcDbArc
 50
179.7451023415
 51
179.8967458126
  0
ELLIPSE
  5
91
330
75
100
AcDbEntity
  8
4221333_GRIFF_OB
  6
Continuous
 62
     7
100
AcDbEllipse
 10
137.8489741051
 20
419.6594621697
 30
0.0
 11
0.4944619568053882
 21
0.07421167881264262
 31
0.0
210
0.0
220
0.0
230
0.9999999999999999
 40
0.9688364281
 41
2.987900948129836
 42
3.14047855559599
  0
ELLIPSE
  5
92
330
75
100
AcDbEntity
  8
4221333_GRIFF_OB
  6
Continuous
 62
     7
100
AcDbEllipse
 10
121.6358357964
 20
419.6576329536
 30
0.0
 11
-0.4944654112637534
 21
0.07418865859257912
 31
0.0
210
0.0
220
0.0
230
0.9999999999999999
 40
0.9688308767
 41
3.142159439945007
 42
3.295237241275993
  0
ELLIPSE
  5
93
330
75
100
AcDbEntity
  8
4221333_GRIFF_OB
  6
Continuous
 62
     7
100
AcDbEllipse
 10
122.2874977707
 20
420.647995068
 30
0.0
 11
0.2801083895008364
 21
0.4141730195597569
 31
0.0
210
0.0
220
0.0
230
1.0
 40
0.6241952625
 41
2.845845549995021
 42
3.153599122646753
  0
ARC
  5
94
330
75
100
AcDbEntity
  8
4221333_GRIFF_OB
  6
Continuous
 62
     7
100
AcDbCircle
 10
136.6004221548
 20
424.8946721641
 30
0.0
 40
0.7458152944182957
100
AcDbArc
 50
22.2673652042
 51
36.6990812776
  0
SPLINE
  5
95
330
75
100
AcDbEntity
  8
4221333_GRIFF_OB
  6
Continuous
 62
     7
100
AcDbSpline
210
0.0
220
0.0
230
1.0
 70
     8
 71
     3
 72
    10
 73
     6
 74
     0
 42
0.0000000321802578
 43
0.0000000001
 40
0.0
 40
0.0
 40
0.0
 40
0.0
 40
0.4155157074029494
 40
0.9768225664960003
 40
1.0
 40
1.0
 40
1.0
 40
1.0
 10
137.0500036627423
 20
425.5855788077937
 30
0.0
 10
137.0198041551312
 20
425.6205745318591
 30
0.0
 10
136.958199169414
 20
425.6861024622409
 30
0.0
 10
136.8602366676109
 20
425.7473213966568
 30
0.0
 10
136.804120039898
 20
425.7536335776268
 30
0.0
 10
136.8015390366709
 20
425.7539222831084
 30
0.0
  0
ARC
  5
96
330
75
100
AcDbEntity
  8
4221333_GRIFF_OB
  6
Continuous
 62
     7
100
AcDbCircle
 10
135.1484210812
 20
424.1692474816
 30
0.0
 40
2.372552814860964
100
AcDbArc
 50
29.6671434748
 51
36.2444545525
  0
ARC
  5
97
330
75
100
AcDbEntity
  8
4221333_GRIFF_OB
  6
Continuous
 62
     7
100
AcDbCircle
 10
123.9074621109
 20
424.4765900282
 30
0.0
 40
1.84620674675256
100
AcDbArc
 50
143.5878259584
 51
152.0154132335
  0
LINE
  5
98
330
75
100
AcDbEntity
  8
4221333_GRIFF_OB
  6
Continuous
 62
     7
100
AcDbLine
 10
112.2778741965
 20
419.7452529924
 30
0.0
 11
111.7753601796
 21
419.2564751819
 31
0.0
  0
SPLINE
  5
99
330
75
100
AcDbEntity
  8
4221333_GRIFF_OB
  6
Continuous
 62
     7
100
AcDbSpline
210
0.0
220
0.0
230
1.0
 70
     8
 71
     3
 72
    11
 73
     7
 74
     0
 42
0.0000000285656319
 43
0.0000000001
 40
0.0
 40
0.0
 40
0.0
 40
0.0
 40
0.113621527776315
 40
0.3632922905598786
 40
0.5873749903418937
 40
0.6649403690950325
 40
0.6649403690950325
 40
0.6649403690950325
 40
0.6649403690950325
 10
137.4684846201237
 20
420.2315002907337
 30
0.0
 10
137.47608117879
 20
420.2358439519463
 30
0.0
 10
137.4954832788166
 20
420.2486771024093
 30
0.0
 10
137.4645503586399
 20
420.2337538378339
 30
0.0
 10
137.3883445406283
 20
420.2509680652599
 30
0.0
 10
137.3293063964776
 20
420.2876175906666
 30
0.0
 10
137.3141052494604
 20
420.2986865398171
 30
0.0
  0
SPLINE
  5
9A
330
75
100
AcDbEntity
  8
4221333_GRIFF_OB
  6
Continuous
 62
     7
100
AcDbSpline
210
0.0
220
0.0
230
1.0
 70
     8
 71
     3
 72
    11
 73
     7
 74
     0
 42
0.0000000257269909
 43
0.0000000001
 40
0.3169861287762006
 40
0.3169861287762006
 40
0.3169861287762006
 40
0.3169861287762006
 40
0.3711991903538778
 40
0.5450744281072721
 40
0.7288251825564799
 40
0.7894068102318079
 40
0.7894068102318079
 40
0.7894068102318079
 40
0.7894068102318079
 10
122.1642270214251
 20
420.2928420595716
 30
0.0
 10
122.1526889463182
 20
420.2847699996246
 30
0.0
 10
122.1044196708233
 20
420.2549747153412
 30
0.0
 10
122.0342773145111
 20
420.2357547527901
 30
0.0
 10
122.0019656365473
 20
420.2373264325679
 30
0.0
 10
121.9959389932383
 20
420.240850906881
 30
0.0
 10
121.995385091903
 20
420.2413756705591
 30
0.0
  0
SPLINE
  5
9C
330
75
100
AcDbEntity
  8
4221335_TASTE_00
  6
Continuous
 62
     7
100
AcDbSpline
210
0.0
220
0.0
230
1.0
 70
     8
 71
     3
 72
    10
 73
     6
 74
     0
 42
0.0000000022173213
 43
0.0000000001
 40
0.0956984625874278
 40
0.0956984625874278
 40
0.0956984625874278
 40
0.0956984625874278
 40
0.5
 40
0.5
 40
0.5215293159202175
 40
0.5215293159202175
 40
0.5215293159202175
 40
0.5215293159202175
 10
136.119797518696
 20
426.2351957215662
 30
0.0
 10
135.6561274532251
 20
426.4957279841328
 30
0.0
 10
135.1152908089233
 20
426.6563768920233
 30
0.0
 10
134.3693144265748
 20
426.7067747441034
 30
0.0
 10
134.331212070546
 20
426.708992377065
 30
0.0
 10
134.2926718787799
 20
426.7108801961916
 30
0.0
  0
ELLIPSE
  5
9D
330
75
100
AcDbEntity
  8
4221335_TASTE_00
  6
Continuous
 62
     7
100
AcDbEllipse
 10
136.3091871817
 20
425.5509148591
 30
0.0
 11
-0.2920412324332365
 21
-0.405847161575483
 31
0.0
210
0.0
220
0.0
230
1.0
 40
0.9901494877
 41
3.144955281372641
 42
3.50924522710425
  0
ELLIPSE
  5
9E
330
75
100
AcDbEntity
  8
4221335_TASTE_00
  6
Continuous
 62
     7
100
AcDbEllipse
 10
123.1649005793
 20
425.5509148591
 30
0.0
 11
0.2920412324332365
 21
-0.405847161575483
 31
0.0
210
0.0
220
0.0
230
1.0
 40
0.9901494877
 41
2.773940080075289
 42
3.138271091974703
  0
SPLINE
  5
9F
330
75
100
AcDbEntity
  8
4221335_TASTE_00
  6
Continuous
 62
     7
100
AcDbSpline
210
0.0
220
0.0
230
1.0
 70
     8
 71
     3
 72
    10
 73
     6
 74
     0
 42
0.0000000022181453
 43
0.0000000001
 40
0.0941126651463327
 40
0.0941126651463327
 40
0.0941126651463327
 40
0.0941126651463327
 40
0.5
 40
0.5
 40
0.5215293159207719
 40
0.5215293159207719
 40
0.5215293159207719
 40
0.5215293159207719
 10
123.3488378200703
 20
426.2321254446124
 30
0.0
 10
123.8137202215952
 20
426.4944660179599
 30
0.0
 10
124.356018930155
 20
426.6561892100265
 30
0.0
 10
125.1047733344091
 20
426.7067747441035
 30
0.0
 10
125.1428756904389
 20
426.7089923770652
 30
0.0
 10
125.1814158822061
 20
426.7108801961917
 30
0.0
  0
ARC
  5
A0
330
75
100
AcDbEntity
  8
4221335_TASTE_00
  6
Continuous
 62
     7
100
AcDbCircle
 10
130.1237415226
 20
406.2576144931
 30
0.0
 40
20.87145521547649
100
AcDbArc
 50
77.2451512315
 51
91.0616131173
  0
ARC
  5
A1
330
75
100
AcDbEntity
  8
4221335_TASTE_00
  6
Continuous
 62
     7
100
AcDbCircle
 10
134.8211053896
 20
423.7109124233
 30
0.0
 40
2.855177153431913
100
AcDbArc
 50
52.2752573354
 51
60.1103118148
  0
ARC
  5
A2
330
75
100
AcDbEntity
  8
4221335_TASTE_00
  6
Continuous
 62
     7
100
AcDbCircle
 10
136.3425147288
 20
425.5719756517
 30
0.0
 40
0.4627202831937469
100
AcDbArc
 50
21.3949576599
 51
55.6238279719
  0
ARC
  5
A3
330
75
100
AcDbEntity
  8
4221335_TASTE_00
  6
Continuous
 62
     7
100
AcDbCircle
 10
129.3503609991
 20
406.2569516849
 30
0.0
 40
20.87211763639271
100
AcDbArc
 50
88.9384611056
 51
102.7555191612
  0
ARC
  5
A4
330
75
100
AcDbEntity
  8
4221335_TASTE_00
  6
Continuous
 62
     7
100
AcDbCircle
 10
124.6694415758
 20
423.6864448234
 30
0.0
 40
2.884763145262796
100
AcDbArc
 50
120.0719765877
 51
128.3398755875
  0
ARC
  5
A5
330
75
100
AcDbEntity
  8
4221335_TASTE_00
  6
Continuous
 62
     7
100
AcDbCircle
 10
123.1630472865
 20
425.5488388577
 30
0.0
 40
0.5003690429279739
100
AcDbArc
 50
125.5222811567
 51
157.1955780254
  0
ARC
  5
A7
330
75
100
AcDbEntity
  8
$DDT_AUDIT_GENERATED_(A6)
  6
Continuous
 62
     7
100
AcDbCircle
 10
138.1809769745
 20
413.809258119
 30
0.0
 40
1.899999999999973
100
AcDbArc
 50
69.0665616665
 51
121.2150290138
  0
ARC
  5
A8
330
75
100
AcDbEntity
  8
$DDT_AUDIT_GENERATED_(A6)
  6
Continuous
 62
     7
100
AcDbCircle
 10
129.738421184
 20
427.0231149078
 30
0.0
 40
13.78125835880568
100
AcDbArc
 50
237.0603370945
 51
302.7627015176
  0
ARC
  5
A9
330
75
100
AcDbEntity
  8
$DDT_AUDIT_GENERATED_(A6)
  6
Continuous
 62
     7
100
AcDbCircle
 10
126.288879324
 20
399.7376810916
 30
0.0
 40
16.86844697747063
100
AcDbArc
 50
109.8286813871
 51
175.6667615448
  0
SPLINE
  5
AA
330
75
100
AcDbEntity
  8
$DDT_AUDIT_GENERATED_(A6)
  6
Continuous
 62
     7
100
AcDbSpline
210
0.0
220
0.0
230
1.0
 70
     8
 71
     3
 72
    34
 73
    30
 74
     0
 42
0.0000000001736102
 43
0.0000000001
 40
0.0
 40
0.0
 40
0.0
 40
0.0
 40
0.0624999999999999
 40
0.0624999999999999
 40
0.1249999999999998
 40
0.1249999999999998
 40
0.1874999999999997
 40
0.1874999999999997
 40
0.2499999999999996
 40
0.2499999999999996
 40
0.3124999999999996
 40
0.3124999999999996
 40
0.3749999999999995
 40
0.3749999999999995
 40
0.4999999999999996
 40
0.4999999999999996
 40
0.6249999999999996
 40
0.6249999999999996
 40
0.6874999999999996
 40
0.6874999999999996
 40
0.7499999999999996
 40
0.7499999999999996
 40
0.8124999999999997
 40
0.8124999999999997
 40
0.8749999999999998
 40
0.8749999999999998
 40
0.9374999999999999
 40
0.9374999999999999
 40
1.0
 40
1.0
 40
1.0
 40
1.0
 10
149.9812964361325
 20
401.0123904875612
 30
0.0
 10
149.9824311357373
 20
399.7983725142357
 30
0.0
 10
149.7917866578494
 20
398.6197435607775
 30
0.0
 10
149.1023431463501
 20
396.3193997283382
 30
0.0
 10
148.6043819398789
 20
395.2111503888179
 30
0.0
 10
147.4044291101656
 20
393.1495006937951
 30
0.0
 10
146.6899849217959
 20
392.1719763985769
 30
0.0
 10
145.0921029049689
 20
390.3806759282051
 30
0.0
 10
144.2157916613062
 20
389.570682141116
 30
0.0
 10
142.295791672427
 20
388.135196888212
 30
0.0
 10
141.2511772227301
 20
387.5147556160878
 30
0.0
 10
139.0919755016448
 20
386.4968970852266
 30
0.0
 10
137.9660190632029
 20
386.0906901809248
 30
0.0
 10
134.4748308120328
 20
385.1397782133075
 30
0.0
 10
132.111464215729
 20
384.8764234034464
 30
0.0
 10
127.3360213916839
 20
384.8532608623584
 30
0.0
 10
124.9318241664181
 20
385.1106818215466
 30
0.0
 10
121.483700639386
 20
386.0526344789347
 30
0.0
 10
120.3425932134317
 20
386.4666404312253
 30
0.0
 10
118.1826032638279
 20
387.4952360300038
 30
0.0
 10
117.1620552888941
 20
388.1075412579638
 30
0.0
 10
115.251149276266
 20
389.5470075931437
 30
0.0
 10
114.362205630373
 20
390.3758582022213
 30
0.0
 10
112.7813981101358
 20
392.1601961206442
 30
0.0
 10
112.0774698223616
 20
393.1237418693574
 30
0.0
 10
110.8610527348053
 20
395.2091856818659
 30
0.0
 10
110.368251729849
 20
396.301800288655
 30
0.0
 10
109.6702609556108
 20
398.5938513668426
 30
0.0
 10
109.4686431710887
 20
399.7997715944496
 30
0.0
 10
109.46865132455
 20
401.0122137421847
 30
0.0
  0
ARC
  5
AB
330
75
100
AcDbEntity
  8
$DDT_AUDIT_GENERATED_(A6)
  6
Continuous
 62
     7
100
AcDbCircle
 10
133.3373017336
 20
399.838968172
 30
0.0
 40
16.68530729678175
100
AcDbArc
 50
4.0327510134
 51
70.6716945406
  0
ARC
  5
AC
330
75
100
AcDbEntity
  8
$DDT_AUDIT_GENERATED_(A6)
  6
Continuous
 62
     7
100
AcDbCircle
 10
121.2554804891
 20
413.8351606265
 30
0.0
 40
1.900000000000003
100
AcDbArc
 50
58.6216636966
 51
111.2466253681
  0
ARC
  5
AE
330
75
100
AcDbEntity
  8
$DDT_AUDIT_GENERATED_(AD)
  6
Continuous
 62
     7
100
AcDbCircle
 10
129.7370438805
 20
401.0122068696
 30
0.0
 40
89.89652708020901
100
AcDbArc
 50
86.1729630179
 51
93.8294666263
  0
ARC
  5
AF
330
75
100
AcDbEntity
  8
$DDT_AUDIT_GENERATED_(AD)
  6
Continuous
 62
     7
100
AcDbCircle
 10
129.7370438805
 20
401.0122068696
 30
0.0
 40
89.90412320370288
100
AcDbArc
 50
86.1730526861
 51
93.827047697
  0
ARC
  5
B1
330
75
100
AcDbEntity
  8
$DDT_AUDIT_GENERATED_(B0)
  6
Continuous
 62
     7
100
AcDbCircle
 10
129.7370438805
 20
401.0122068696
 30
0.0
 40
25.96826565097061
100
AcDbArc
 50
0.0
 51
75.177540262
  0
ARC
  5
B2
330
75
100
AcDbEntity
  8
$DDT_AUDIT_GENERATED_(B0)
  6
Continuous
 62
     7
100
AcDbCircle
 10
129.7370438805
 20
401.0122068696
 30
0.0
 40
25.96826565097061
100
AcDbArc
 50
104.9707202757
 51
0.0
  0
CIRCLE
  5
B3
330
75
100
AcDbEntity
  8
$DDT_AUDIT_GENERATED_(AD)
  6
Continuous
 62
     7
100
AcDbCircle
 10
129.7370438805
 20
401.0122068696
 30
0.0
 40
26.75
  0
ARC
  5
B4
330
75
100
AcDbEntity
  8
$DDT_AUDIT_GENERATED_(AD)
  6
Continuous
 62
     7
100
AcDbCircle
 10
129.7370438805
 20
385.6717121091
 30
0.0
 40
70.46602893340427
100
AcDbArc
 50
250.0288993256
 51
289.9711006744
  0
SPLINE
  5
B5
330
75
100
AcDbEntity
  8
$DDT_AUDIT_GENERATED_(AD)
  6
Continuous
 62
     7
100
AcDbSpline
210
0.0
220
0.0
230
1.0
 70
     8
 71
     3
 72
    20
 73
    16
 74
     0
 42
0.0000000000604379
 43
0.0000000001
 40
0.0
 40
0.0
 40
0.0
 40
0.0
 40
0.125
 40
0.125
 40
0.25
 40
0.25
 40
0.375
 40
0.375
 40
0.5
 40
0.5
 40
0.7500000000000001
 40
0.7500000000000001
 40
0.8750000000000001
 40
0.8750000000000001
 40
1.0
 40
1.0
 40
1.0
 40
1.0
 10
153.8044433448998
 20
319.4431569636155
 30
0.0
 10
156.0924393499496
 20
326.0283445439478
 30
0.0
 10
157.8220591123806
 20
332.7074826772429
 30
0.0
 10
160.6595753202469
 20
346.174080581379
 30
0.0
 10
161.7533177114727
 20
352.9638227807895
 30
0.0
 10
163.4637716731199
 20
366.6285302442598
 30
0.0
 10
164.0775968883159
 20
373.5039602767909
 30
0.0
 10
164.8900387419327
 20
387.3303065639599
 30
0.0
 10
165.0862858319031
 20
394.2802838762718
 30
0.0
 10
165.0764061452459
 20
414.9875680546378
 30
0.0
 10
164.3053042333317
 20
428.6926485724034
 30
0.0
 10
161.750589879165
 20
449.0724704005506
 30
0.0
 10
160.6618139481293
 20
455.8356282860402
 30
0.0
 10
157.8304385552422
 20
469.2812282495728
 30
0.0
 10
156.1030877564138
 20
475.965421521921
 30
0.0
 10
153.8044433448998
 20
482.5812567755203
 30
0.0
  0
ARC
  5
B6
330
75
100
AcDbEntity
  8
$DDT_AUDIT_GENERATED_(AD)
  6
Continuous
 62
     7
100
AcDbCircle
 10
129.7370438805
 20
416.35270163
 30
0.0
 40
70.46602893340595
100
AcDbArc
 50
70.0288993256
 51
109.9711006744
  0
SPLINE
  5
B7
330
75
100
AcDbEntity
  8
$DDT_AUDIT_GENERATED_(AD)
  6
Continuous
 62
     7
100
AcDbSpline
210
0.0
220
0.0
230
1.0
 70
     8
 71
     3
 72
    20
 73
    16
 74
     0
 42
0.0000000000604379
 43
0.0000000001
 40
0.0
 40
0.0
 40
0.0
 40
0.0
 40
0.1250000000000002
 40
0.1250000000000002
 40
0.2500000000000002
 40
0.2500000000000002
 40
0.3750000000000003
 40
0.3750000000000003
 40
0.5000000000000003
 40
0.5000000000000003
 40
0.7500000000000003
 40
0.7500000000000003
 40
0.8750000000000002
 40
0.8750000000000002
 40
1.0
 40
1.0
 40
1.0
 40
1.0
 10
105.6696444160831
 20
482.5812567755202
 30
0.0
 10
103.3816484110332
 20
475.9960691951879
 30
0.0
 10
101.6520286486019
 20
469.3169310618929
 30
0.0
 10
98.81451244073561
 20
455.8503331577568
 30
0.0
 10
97.72077004951004
 20
449.0605909583463
 30
0.0
 10
96.01031608786278
 20
435.395883494876
 30
0.0
 10
95.39649087266689
 20
428.5204534623449
 30
0.0
 10
94.58404901905007
 20
414.6941071751759
 30
0.0
 10
94.3878019290797
 20
407.744129862864
 30
0.0
 10
94.39768161573684
 20
387.036845684498
 30
0.0
 10
95.16878352765092
 20
373.3317651667324
 30
0.0
 10
97.72349788181751
 20
352.9519433385851
 30
0.0
 10
98.81227381285355
 20
346.1887854530955
 30
0.0
 10
101.6436492057406
 20
332.743185489563
 30
0.0
 10
103.3710000045686
 20
326.0589922172148
 30
0.0
 10
105.669644416083
 20
319.4431569636155
 30
0.0
  0
ARC
  5
B8
330
75
100
AcDbEntity
  8
$DDT_AUDIT_GENERATED_(AD)
  6
Continuous
 62
     7
100
AcDbCircle
 10
128.3160177142
 20
401.0122068696
 30
0.0
 40
85.23454870054411
100
AcDbArc
 50
106.0584569199
 51
253.9415430801
  0
ARC
  5
B9
330
75
100
AcDbEntity
  8
$DDT_AUDIT_GENERATED_(AD)
  6
Continuous
 62
     7
100
AcDbCircle
 10
131.1580700467
 20
401.0122068696
 30
0.0
 40
85.23454870054412
100
AcDbArc
 50
286.0584569199
 51
73.9415430801
  0
LINE
  5
BA
330
75
100
AcDbEntity
  8
$DDT_AUDIT_GENERATED_(AD)
  6
Continuous
 62
     7
100
AcDbLine
 10
135.7370438805
 20
490.1934541663
 30
0.0
 11
135.7370438805
 21
490.7082802568
 31
0.0
  0
SPLINE
  5
BB
330
75
100
AcDbEntity
  8
$DDT_AUDIT_GENERATED_(AD)
  6
Continuous
 62
     7
100
AcDbSpline
210
0.0
220
0.0
230
1.0
 70
     8
 71
     3
 72
    14
 73
    10
 74
     0
 42
0.0000000096144338
 43
0.0000000001
 40
0.0
 40
0.0
 40
0.0
 40
0.0
 40
0.2500000000000006
 40
0.2500000000000006
 40
0.5000000000000004
 40
0.5000000000000004
 40
0.7500000000000002
 40
0.7500000000000002
 40
1.0
 40
1.0
 40
1.0
 40
1.0
 10
135.7370438804914
 20
490.1934541663185
 30
0.0
 10
135.7370438804914
 20
490.1703584505767
 30
0.0
 10
135.7116345332624
 20
490.1493594671087
 30
0.0
 10
135.6124572925327
 20
490.1132862987748
 30
0.0
 10
135.5388691090441
 20
490.0985277236406
 30
0.0
 10
135.3547209528063
 20
490.077549941248
 30
0.0
 10
135.2430333819508
 20
490.0712755552088
 30
0.0
 10
135.0015203051356
 20
490.0680698688021
 30
0.0
 10
134.8696010083121
 20
490.071059470571
 30
0.0
 10
134.7370438804914
 20
490.0785009572286
 30
0.0
  0
ARC
  5
BC
330
75
100
AcDbEntity
  8
$DDT_AUDIT_GENERATED_(AD)
  6
Continuous
 62
     7
100
AcDbCircle
 10
129.7370438805
 20
401.0122068696
 30
0.0
 40
89.20652858681187
100
AcDbArc
 50
86.7869043502
 51
93.2130956498
  0
LINE
  5
BD
330
75
100
AcDbEntity
  8
$DDT_AUDIT_GENERATED_(AD)
  6
Continuous
 62
     7
100
AcDbLine
 10
123.7370438805
 20
490.1934541663
 30
0.0
 11
123.7370438805
 21
490.7082802568
 31
0.0
  0
SPLINE
  5
BE
330
75
100
AcDbEntity
  8
$DDT_AUDIT_GENERATED_(AD)
  6
Continuous
 62
     7
100
AcDbSpline
210
0.0
220
0.0
230
1.0
 70
     8
 71
     3
 72
    14
 73
    10
 74
     0
 42
0.0000000096146623
 43
0.0000000001
 40
0.0
 40
0.0
 40
0.0
 40
0.0
 40
0.25
 40
0.25
 40
0.5
 40
0.5
 40
0.75
 40
0.75
 40
1.0
 40
1.0
 40
1.0
 40
1.0
 10
124.7370438804914
 20
490.0785009572286
 30
0.0
 10
124.604518604555
 20
490.0710612586707
 30
0.0
 10
124.4741143280728
 20
490.0680710257025
 30
0.0
 10
124.2311745521614
 20
490.0712524193902
 30
0.0
 10
124.1198867902877
 20
490.0775152137753
 30
0.0
 10
123.9357737562127
 20
490.0984401222121
 30
0.0
 10
123.8617594932033
 20
490.1132932524076
 30
0.0
 10
123.7630038101754
 20
490.1491056937851
 30
0.0
 10
123.7370438804914
 20
490.1703619935053
 30
0.0
 10
123.7370438804914
 20
490.1934541663185
 30
0.0
  0
ARC
  5
BF
330
75
100
AcDbEntity
  8
$DDT_AUDIT_GENERATED_(AD)
  6
Continuous
 62
     7
100
AcDbCircle
 10
129.7370438805
 20
401.0122068696
 30
0.0
 40
89.9041232037029
100
AcDbArc
 50
93.827047697
 51
86.1730526861
  0
ARC
  5
C1
330
75
100
AcDbEntity
  8
$DDT_AUDIT_GENERATED_(C0)
  6
Continuous
 62
     7
100
AcDbCircle
 10
129.7370438805
 20
401.0122068696
 30
0.0
 40
26.25
100
AcDbArc
 50
90.0
 51
0.0
  0
CIRCLE
  5
C2
330
75
100
AcDbEntity
  8
$DDT_AUDIT_GENERATED_(C0)
  6
Continuous
 62
     7
100
AcDbCircle
 10
129.7370438805
 20
401.0122068696
 30
0.0
 40
26.55
  0
ENDBLK
  5
C4
330
75
100
AcDbEntity
  8
0
100
AcDbBlockEnd
  0
BLOCK
  5
118
330
C5
100
AcDbEntity
  8
0
100
AcDbBlockBegin
  2
SE1
 70
     0
 10
0.0
 20
0.0
 30
0.0
  3
SE1
  1

  0
ARC
  5
C7
330
C5
100
AcDbEntity
  8
4221333_GRIFF_OB
  6
Continuous
 62
     7
100
AcDbCircle
 10
302.0028201862
 20
37.7263212773
 30
0.0
 40
393.3045832736516
100
AcDbArc
 50
77.1124879847
 51
81.2236851527
  0
ARC
  5
C8
330
C5
100
AcDbEntity
  8
4221333_GRIFF_OB
  6
Continuous
 62
     7
100
AcDbCircle
 10
54.2090973471
 20
397.6623432636
 30
0.0
 40
350.3456680671941
100
AcDbArc
 50
357.6530356364
 51
357.6530687786
  0
ARC
  5
C9
330
C5
100
AcDbEntity
  8
4221333_GRIFF_OB
  6
Continuous
 62
     7
100
AcDbCircle
 10
330.3609374546
 20
386.3820338282
 30
0.0
 40
80.53154225668767
100
AcDbArc
 50
19.7731783618
 51
22.1809011459
  0
ARC
  5
CA
330
C5
100
AcDbEntity
  8
4221333_GRIFF_OB
  6
Continuous
 62
     7
100
AcDbCircle
 10
412.7465999679
 20
420.1751648309
 30
0.0
 40
16.17094390732871
100
AcDbArc
 50
157.3213721298
 51
157.3225184253
  0
ELLIPSE
  5
CB
330
C5
100
AcDbEntity
  8
4221333_GRIFF_OB
  6
Continuous
 62
     7
100
AcDbEllipse
 10
403.97943229
 20
417.0718217817
 30
0.0
 11
-0.1289823760252939
 21
-0.4830771643069762
 31
0.0
210
0.0
220
0.0
230
0.9999999999999999
 40
0.1004995831
 41
3.13887928760758
 42
3.238908809066677
  0
ELLIPSE
  5
CC
330
C5
100
AcDbEntity
  8
4221333_GRIFF_OB
  6
Continuous
 62
     7
100
AcDbEllipse
 10
404.1130813591
 20
417.0287983345
 30
0.0
 11
-0.172201329782351
 21
-0.4694110160842098
 31
0.0
210
0.0
220
0.0
230
1.0
 40
0.1909902004
 41
3.143427960953334
 42
3.165683211386742
  0
ARC
  5
CD
330
C5
100
AcDbEntity
  8
4221333_GRIFF_OB
  6
Continuous
 62
     7
100
AcDbCircle
 10
155.4465449108
 20
399.9121052444
 30
0.0
 40
250.1699288785791
100
AcDbArc
 50
356.5286521334
 51
0.2519555627
  0
ARC
  5
CE
330
C5
100
AcDbEntity
  8
4221333_GRIFF_OB
  6
Continuous
 62
     7
100
AcDbCircle
 10
181.9681333429
 20
401.7557368008
 30
0.0
 40
223.647157549263
100
AcDbArc
 50
359.8095174379
 51
3.5744735794
  0
SPLINE
  5
CF
330
C5
100
AcDbEntity
  8
4221333_GRIFF_OB
  6
Continuous
 62
     7
100
AcDbSpline
210
0.0
220
0.0
230
1.0
 70
     8
 71
     3
 72
    10
 73
     6
 74
     0
 42
0.0000000269767631
 43
0.0000000001
 40
0.0
 40
0.0
 40
0.0
 40
0.0
 40
0.2500000000000003
 40
0.2500000000000003
 40
0.4008133623750931
 40
0.4008133623750931
 40
0.4008133623750931
 40
0.4008133623750931
 10
405.1802085654858
 20
415.6992139387557
 30
0.0
 10
405.1780897641235
 20
415.7555861538772
 30
0.0
 10
405.1808740683468
 20
415.7941426163835
 30
0.0
 10
405.1929591175187
 20
415.8285013737978
 30
0.0
 10
405.1993195931682
 20
415.8349939975194
 30
0.0
 10
405.2073164077971
 20
415.8350765055611
 30
0.0
  0
SPLINE
  5
D0
330
C5
100
AcDbEntity
  8
4221333_GRIFF_OB
  6
Continuous
 62
     7
100
AcDbSpline
210
0.0
220
0.0
230
1.0
 70
     8
 71
     3
 72
    10
 73
     6
 74
     0
 42
0.000000012411318
 43
0.0000000001
 40
0.7086612943944561
 40
0.7086612943944561
 40
0.7086612943944561
 40
0.7086612943944561
 40
0.750000000000001
 40
0.750000000000001
 40
1.0
 40
1.0
 40
1.0
 40
1.0
 10
405.27589484539
 20
415.7561814116606
 30
0.0
 10
405.2798096275123
 20
415.7491538456175
 30
0.0
 10
405.283831534156
 20
415.741665735376
 30
0.0
 10
405.3129112797764
 20
415.685672449328
 30
0.0
 10
405.3412432422591
 20
415.6219272602818
 30
0.0
 10
405.3728396980678
 20
415.5426518460842
 30
0.0
  0
SPLINE
  5
D1
330
C5
100
AcDbEntity
  8
4221333_GRIFF_OB
  6
Continuous
 62
     7
100
AcDbSpline
210
0.0
220
0.0
230
1.0
 70
     8
 71
     3
 72
    10
 73
     6
 74
     0
 42
0.0000000088169805
 43
0.0000000001
 40
0.5016427451586709
 40
0.5016427451586709
 40
0.5016427451586709
 40
0.5016427451586709
 40
0.75
 40
0.75
 40
1.0
 40
1.0
 40
1.0
 40
1.0
 10
392.4448837423379
 20
423.7622068305705
 30
0.0
 10
392.4448865433838
 20
423.7622379275316
 30
0.0
 10
392.4665750938507
 20
423.7209729182072
 30
0.0
 10
392.553960371384
 20
423.5536395166289
 30
0.0
 10
392.6194775022064
 20
423.4279088267153
 30
0.0
 10
392.7056615095991
 20
423.2608023308549
 30
0.0
  0
LINE
  5
D2
330
C5
100
AcDbEntity
  8
4221333_GRIFF_OB
  6
Continuous
 62
     7
100
AcDbLine
 10
392.7054374785
 20
423.2122068696
 30
0.0
 11
392.7054374785
 21
423.2608023309
 31
0.0
  0
LINE
  5
D3
330
C5
100
AcDbEntity
  8
4221333_GRIFF_OB
  6
Continuous
 62
     7
100
AcDbLine
 10
392.7056615096
 20
423.2608023309
 30
0.0
 11
392.7056615096
 21
420.4503010984
 31
0.0
  0
LINE
  5
D4
330
C5
100
AcDbEntity
  8
4221333_GRIFF_OB
  6
Continuous
 62
     7
100
AcDbLine
 10
360.1595618413
 20
375.9568472161
 30
0.0
 11
360.1595618413
 21
426.0675461012
 31
0.0
  0
LINE
  5
D5
330
C5
100
AcDbEntity
  8
4221333_GRIFF_OB
  6
Continuous
 62
     7
100
AcDbLine
 10
392.7056615096
 20
423.2608023309
 30
0.0
 11
392.7054374785
 21
423.2608023309
 31
0.0
  0
ARC
  5
D6
330
C5
100
AcDbEntity
  8
4221333_GRIFF_OB
  6
Continuous
 62
     7
100
AcDbCircle
 10
341.3607243262
 20
607.7338968486
 30
0.0
 40
233.0769630701626
100
AcDbArc
 50
274.7630822278
 51
285.4784828908
  0
LINE
  5
D7
330
C5
100
AcDbEntity
  8
4221333_GRIFF_OB
  6
Continuous
 62
     7
100
AcDbLine
 10
362.0095778323
 20
426.4168226227
 30
0.0
 11
360.714666019
 21
426.5625398511
 31
0.0
  0
LINE
  5
D8
330
C5
100
AcDbEntity
  8
4221333_GRIFF_OB
  6
Continuous
 62
     7
100
AcDbLine
 10
403.5618538044
 20
383.0939625785
 30
0.0
 11
404.2637429399
 21
383.3176613521
 31
0.0
  0
ARC
  5
D9
330
C5
100
AcDbEntity
  8
4221333_GRIFF_OB
  6
Continuous
 62
     7
100
AcDbCircle
 10
312.0809283301
 20
415.5019474567
 30
0.0
 40
87.23414700920999
100
AcDbArc
 50
2.1834564649
 51
6.6494812897
  0
LINE
  5
DA
330
C5
100
AcDbEntity
  8
4221333_GRIFF_OB
  6
Continuous
 62
     7
100
AcDbLine
 10
397.8081210558
 20
426.4108819988
 30
0.0
 11
393.4686029628
 21
426.7289639527
 31
0.0
  0
ARC
  5
DB
330
C5
100
AcDbEntity
  8
4221333_GRIFF_OB
  6
Continuous
 62
     7
100
AcDbCircle
 10
404.0002317498
 20
384.2302762512
 30
0.0
 40
0.9464246827804569
100
AcDbArc
 50
286.1499334858
 51
345.4919450426
  0
ARC
  5
DC
330
C5
100
AcDbEntity
  8
4221333_GRIFF_OB
  6
Continuous
 62
     7
100
AcDbCircle
 10
403.9745919097
 20
416.5707373441
 30
0.0
 40
0.9706758757453264
100
AcDbArc
 50
19.4638966935
 51
71.4900409002
  0
ARC
  5
DD
330
C5
100
AcDbEntity
  8
4221333_GRIFF_OB
  6
Continuous
 62
     7
100
AcDbCircle
 10
403.4973932885
 20
415.3048076347
 30
0.0
 40
2.331501226803136
100
AcDbArc
 50
69.7657451224
 51
75.2431223306
  0
LINE
  5
DE
330
C5
100
AcDbEntity
  8
4221333_GRIFF_OB
  6
Continuous
 62
     7
100
AcDbLine
 10
404.955846886
 20
416.7485320368
 30
0.0
 11
404.8928913596
 21
416.9048334677
 31
0.0
  0
ARC
  5
DF
330
C5
100
AcDbEntity
  8
4221333_GRIFF_OB
  6
Continuous
 62
     7
100
AcDbCircle
 10
312.7970639207
 20
87.1821113001
 30
0.0
 40
342.7143368239351
100
AcDbArc
 50
76.3691420999
 51
77.0246527159
  0
ARC
  5
E0
330
C5
100
AcDbEntity
  8
4221333_GRIFF_OB
  6
Continuous
 62
     7
100
AcDbCircle
 10
278.5068036587
 20
-54.440058945
 30
0.0
 40
488.4286436967236
100
AcDbArc
 50
75.0990431393
 51
76.3751268751
  0
ARC
  5
E1
330
C5
100
AcDbEntity
  8
4221333_GRIFF_OB
  6
Continuous
 62
     7
100
AcDbCircle
 10
397.7516737076
 20
425.4392391803
 30
0.0
 40
0.9837407178443657
100
AcDbArc
 50
4.3431483395
 51
85.7169050031
  0
ARC
  5
E2
330
C5
100
AcDbEntity
  8
4221333_GRIFF_OB
  6
Continuous
 62
     7
100
AcDbCircle
 10
393.4427233565
 20
425.7330852536
 30
0.0
 40
0.9953533035597841
100
AcDbArc
 50
85.985684696
 51
181.1712151579
  0
LINE
  5
E3
330
C5
100
AcDbEntity
  8
4221333_GRIFF_OB
  6
Continuous
 62
     7
100
AcDbLine
 10
404.907876762
 20
383.9953817605
 30
0.0
 11
405.1327108896
 21
384.7879913353
 31
0.0
  0
LINE
  5
E4
330
C5
100
AcDbEntity
  8
4221333_GRIFF_OB
  6
Continuous
 62
     7
100
AcDbLine
 10
392.4448837265
 20
425.7122935485
 30
0.0
 11
392.4448837265
 21
423.7519204264
 31
0.0
  0
ARC
  5
E5
330
C5
100
AcDbEntity
  8
4221333_GRIFF_OB
  6
Continuous
 62
     7
100
AcDbCircle
 10
360.659561908
 20
426.0680882737
 30
0.0
 40
0.5000000666753752
100
AcDbArc
 50
83.3377824109
 51
180.0031673386
  0
ARC
  5
E6
330
C5
100
AcDbEntity
  8
4221333_GRIFF_OB
  6
Continuous
 62
     7
100
AcDbCircle
 10
360.659562202
 20
375.9563865248
 30
0.0
 40
0.5000003607586294
100
AcDbArc
 50
179.982826142
 51
276.6229646179
  0
LINE
  5
E7
330
C5
100
AcDbEntity
  8
4221335_TASTE_00
  6
Continuous
 62
     7
100
AcDbLine
 10
364.9156069453
 20
426.3994666359
 30
0.0
 11
364.9156275975
 21
426.3994679485
 31
0.0
  0
SPLINE
  5
E8
330
C5
100
AcDbEntity
  8
4221335_TASTE_00
  6
Continuous
 62
     7
100
AcDbSpline
210
0.0
220
0.0
230
1.0
 70
     8
 71
     3
 72
     8
 73
     4
 74
     0
 42
0.0000000003838358
 43
0.0000000001
 40
0.0
 40
0.0
 40
0.0
 40
0.0
 40
1.0
 40
1.0
 40
1.0
 40
1.0
 10
364.915627597506
 20
426.3994679484565
 30
0.0
 10
373.0910653423058
 20
427.1209610849023
 30
0.0
 10
381.3830855677573
 20
427.3660272484332
 30
0.0
 10
390.9209483368153
 20
426.8856314712547
 30
0.0
  0
SPLINE
  5
E9
330
C5
100
AcDbEntity
  8
4221335_TASTE_00
  6
Continuous
 62
     7
100
AcDbSpline
210
0.0
220
0.0
230
1.0
 70
     8
 71
     3
 72
    10
 73
     6
 74
     0
 42
0.0000000132659274
 43
0.0000000001
 40
0.1757283937172576
 40
0.1757283937172576
 40
0.1757283937172576
 40
0.1757283937172576
 40
0.5
 40
0.5
 40
1.0
 40
1.0
 40
1.0
 40
1.0
 10
364.4767446997132
 20
426.0305692563805
 30
0.0
 10
364.4975448017053
 20
426.1078800717152
 30
0.0
 10
364.5366416521009
 20
426.1798744891785
 30
0.0
 10
364.6741402714637
 20
426.330107163669
 30
0.0
 10
364.7914492719936
 20
426.3885090478631
 30
0.0
 10
364.915627597506
 20
426.3994679484565
 30
0.0
  0
SPLINE
  5
EA
330
C5
100
AcDbEntity
  8
4221335_TASTE_00
  6
Continuous
 62
     7
100
AcDbSpline
210
0.0
220
0.0
230
1.0
 70
     8
 71
     3
 72
     8
 73
     4
 74
     0
 42
0.0000000071081706
 43
0.0000000001
 40
0.0
 40
0.0
 40
0.0
 40
0.0
 40
0.175910439188872
 40
0.175910439188872
 40
0.175910439188872
 40
0.175910439188872
 10
390.9209483368153
 20
426.8856314712547
 30
0.0
 10
391.0036878972115
 20
426.8814641083578
 30
0.0
 10
391.085136286124
 20
426.8669496957118
 30
0.0
 10
391.1634324786952
 20
426.8429209168957
 30
0.0
  0
SPLINE
  5
EB
330
C5
100
AcDbEntity
  8
4221335_TASTE_00
  6
Continuous
 62
     7
100
AcDbSpline
210
0.0
220
0.0
230
1.0
 70
     8
 71
     3
 72
    10
 73
     6
 74
     0
 42
0.0000000132592749
 43
0.0000000001
 40
0.177012197364889
 40
0.177012197364889
 40
0.177012197364889
 40
0.177012197364889
 40
0.5
 40
0.5
 40
1.0
 40
1.0
 40
1.0
 40
1.0
 10
364.4769923343173
 20
426.0310237533946
 30
0.0
 10
364.4978678741049
 20
426.1080385490495
 30
0.0
 10
364.5368925206143
 20
426.1801884192712
 30
0.0
 10
364.6742400068832
 20
426.3301908306408
 30
0.0
 10
364.7925211659693
 20
426.3886041418142
 30
0.0
 10
364.9156069453468
 20
426.3994666359281
 30
0.0
  0
SPLINE
  5
EC
330
C5
100
AcDbEntity
  8
4221335_TASTE_00
  6
Continuous
 62
     7
100
AcDbSpline
210
0.0
220
0.0
230
1.0
 70
     8
 71
     3
 72
    10
 73
     6
 74
     0
 42
0.0000000132592702
 43
0.0000000001
 40
0.1770122418831929
 40
0.1770122418831929
 40
0.1770122418831929
 40
0.1770122418831929
 40
0.5
 40
0.5
 40
1.0
 40
1.0
 40
1.0
 40
1.0
 10
364.4769921627818
 20
426.0310237692412
 30
0.0
 10
364.497867638185
 20
426.108038547016
 30
0.0
 10
364.5368922813051
 20
426.1801884054168
 30
0.0
 10
364.6742397599448
 20
426.3301908086336
 30
0.0
 10
364.792520918872
 20
426.3886041198597
 30
0.0
 10
364.9156069453468
 20
426.3994666359281
 30
0.0
  0
LINE
  5
ED
330
C5
100
AcDbEntity
  8
4221335_TASTE_00
  6
Continuous
 62
     7
100
AcDbLine
 10
364.9156069453
 20
426.3994666359
 30
0.0
 11
364.9156275975
 21
426.3994679485
 31
0.0
  0
SPLINE
  5
EE
330
C5
100
AcDbEntity
  8
4221335_TASTE_00
  6
Continuous
 62
     7
100
AcDbSpline
210
0.0
220
0.0
230
1.0
 70
     8
 71
     3
 72
    11
 73
     7
 74
     0
 42
0.0000000081901697
 43
0.0000000001
 40
0.6599499060284647
 40
0.6599499060284647
 40
0.6599499060284647
 40
0.6599499060284647
 40
0.6638299774272124
 40
0.6638299774272124
 40
0.6638299774272124
 40
0.7256917729551953
 40
0.7256917729551953
 40
0.7256917729551953
 40
0.7256917729551953
 10
392.1600927547028
 20
425.6544108780594
 30
0.0
 10
392.1609676326826
 20
425.6531021621495
 30
0.0
 10
392.1618378185422
 20
425.6517913159255
 30
0.0
 10
392.1627032920091
 20
425.6504783673897
 30
0.0
 10
392.1765957195753
 20
425.6294031488761
 30
0.0
 10
392.189368797192
 20
425.6076762055644
 30
0.0
 10
392.2009785053011
 20
425.585418523568
 30
0.0
  0
ARC
  5
EF
330
C5
100
AcDbEntity
  8
4221335_TASTE_00
  6
Continuous
 62
     7
100
AcDbCircle
 10
375.5835233675
 20
247.6602824974
 30
0.0
 40
179.0572544950434
100
AcDbArc
 50
85.1437533157
 51
93.4156045003
  0
ARC
  5
F0
330
C5
100
AcDbEntity
  8
4221335_TASTE_00
  6
Continuous
 62
     7
100
AcDbCircle
 10
305.9814201933
 20
415.4604294651
 30
0.0
 40
86.85825821066555
100
AcDbArc
 50
3.2960314042
 51
6.4816150434
  0
SPLINE
  5
F1
330
C5
100
AcDbEntity
  8
4221335_TASTE_00
  6
Continuous
 62
     7
100
AcDbSpline
210
0.0
220
0.0
230
1.0
 70
     8
 71
     3
 72
    19
 73
    15
 74
     0
 42
0.0000000059547589
 43
0.0000000001
 40
0.0
 40
0.0
 40
0.0
 40
0.0
 40
0.0339597800552133
 40
0.2240366331849259
 40
0.4240655646906247
 40
0.6568400769911551
 40
0.7766670509471522
 40
0.844789203409795
 40
0.8923907775002429
 40
0.906181023902072
 40
0.9173037911816009
 40
0.9365929387515043
 40
0.9611547713749888
 40
1.0
 40
1.0
 40
1.0
 40
1.0
 10
392.1995169071033
 20
425.5849701446894
 30
0.0
 10
392.1860250522175
 20
425.6104106154911
 30
0.0
 10
392.1099085340181
 20
425.7539924137754
 30
0.0
 10
391.9884225324137
 20
425.9638324596094
 30
0.0
 10
391.8541413939244
 20
426.1968467690826
 30
0.0
 10
391.7721477673846
 20
426.3326701019409
 30
0.0
 10
391.7354094345434
 20
426.3930071608448
 30
0.0
 10
391.7136146443435
 20
426.4261500390976
 30
0.0
 10
391.7024295915204
 20
426.4448424189191
 30
0.0
 10
391.6633708671036
 20
426.4984110533117
 30
0.0
 10
391.6150161240816
 20
426.5578304513671
 30
0.0
 10
391.5293972564245
 20
426.6449285490609
 30
0.0
 10
391.3785372352211
 20
426.7601233803469
 30
0.0
 10
391.25305682454
 20
426.8078399096891
 30
0.0
 10
391.1620744884701
 20
426.8408129784226
 30
0.0
  0
ARC
  5
F2
330
C5
100
AcDbEntity
  8
4221335_TASTE_00
  6
Continuous
 62
     7
100
AcDbCircle
 10
391.7355681494
 20
425.3040321808
 30
0.0
 40
0.5398515927223104
100
AcDbArc
 50
0.4031487011
 51
40.4653380283
  0
LINE
  5
F3
330
C5
100
AcDbEntity
  8
4221335_TASTE_00
  6
Continuous
 62
     7
100
AcDbLine
 10
392.7056615096
 20
423.2122068696
 30
0.0
 11
392.4310270946
 21
423.2122068696
 31
0.0
  0
SPLINE
  5
F4
330
C5
100
AcDbEntity
  8
$DDT_AUDIT_GENERATED_(A6)
  6
Continuous
 62
     7
100
AcDbSpline
210
0.0
220
0.0
230
1.0
 70
     8
 71
     3
 72
    12
 73
     8
 74
     0
 42
0.0000000020676023
 43
0.0000000001
 40
0.4987568981766797
 40
0.4987568981766797
 40
0.4987568981766797
 40
0.4987568981766797
 40
0.5
 40
0.5
 40
0.75
 40
0.75
 40
1.0
 40
1.0
 40
1.0
 40
1.0
 10
406.2733278425245
 20
413.0714860136805
 30
0.0
 10
406.2733268380055
 20
413.0714898235518
 30
0.0
 10
406.2733239447239
 20
413.0714989524461
 30
0.0
 10
406.2723572361693
 20
413.0744200060401
 30
0.0
 10
406.1965459480479
 20
413.2881330928656
 30
0.0
 10
405.9039388697478
 20
414.0798655435368
 30
0.0
 10
405.6905788914332
 20
414.6462407511453
 30
0.0
 10
405.4154016078334
 20
415.3386842127209
 30
0.0
  0
ARC
  5
F5
330
C5
100
AcDbEntity
  8
$DDT_AUDIT_GENERATED_(A6)
  6
Continuous
 62
     7
100
AcDbCircle
 10
152.2615317319
 20
399.8947481416
 30
0.0
 40
253.4070104822856
100
AcDbArc
 50
356.6318947417
 51
0.2526614911
  0
ARC
  5
F6
330
C5
100
AcDbEntity
  8
$DDT_AUDIT_GENERATED_(A6)
  6
Continuous
 62
     7
100
AcDbCircle
 10
358.3966514209
 20
401.2527388849
 30
0.0
 40
49.25976198561823
100
AcDbArc
 50
359.6210927806
 51
13.9255723263
  0
ARC
  5
F7
330
C5
100
AcDbEntity
  8
$DDT_AUDIT_GENERATED_(A6)
  6
Continuous
 62
     7
100
AcDbCircle
 10
352.6415880299
 20
401.1855334254
 30
0.0
 40
55.01380518098635
100
AcDbArc
 50
342.9127236783
 51
359.9175465718
  0
SPLINE
  5
F8
330
C5
100
AcDbEntity
  8
$DDT_AUDIT_GENERATED_(A6)
  6
Continuous
 62
     7
100
AcDbSpline
210
0.0
220
0.0
230
1.0
 70
     8
 71
     3
 72
    12
 73
     8
 74
     0
 42
0.0000000201176541
 43
0.0000000001
 40
0.0
 40
0.0
 40
0.0
 40
0.0
 40
0.0228423961350929
 40
0.4808362267668684
 40
0.7288351235315598
 40
0.8620763305706463
 40
0.8885827154168958
 40
0.8885827154168958
 40
0.8885827154168958
 40
0.8885827154168958
 10
405.4089317149105
 20
415.3593171665005
 30
0.0
 10
405.407033314962
 20
415.3643182555564
 30
0.0
 10
405.3725661485042
 20
415.4550087337636
 30
0.0
 10
405.3237327968134
 20
415.5551813707833
 30
0.0
 10
405.2674118200966
 20
415.6465400878399
 30
0.0
 10
405.2112054742278
 20
415.6947933633579
 30
0.0
 10
405.1764611286278
 20
415.714059652556
 30
0.0
 10
405.1704169457916
 20
415.7170694872169
 30
0.0
  0
LINE
  5
F9
330
C5
100
AcDbEntity
  8
$DDT_AUDIT_GENERATED_(B0)
  6
Continuous
 62
     7
100
AcDbLine
 10
359.3595618413
 20
426.2775877885
 30
0.0
 11
359.3595618413
 21
375.7468259506
 31
0.0
  0
LINE
  5
FA
330
C5
100
AcDbEntity
  8
$DDT_AUDIT_GENERATED_(B0)
  6
Continuous
 62
     7
100
AcDbLine
 10
359.8595618413
 20
379.2622068696
 30
0.0
 11
360.1595618413
 21
379.2622068696
 31
0.0
  0
LINE
  5
FB
330
C5
100
AcDbEntity
  8
$DDT_AUDIT_GENERATED_(B0)
  6
Continuous
 62
     7
100
AcDbLine
 10
360.1595618413
 20
422.7622068696
 30
0.0
 11
359.8595618413
 21
422.7622068696
 31
0.0
  0
LINE
  5
FC
330
C5
100
AcDbEntity
  8
$DDT_AUDIT_GENERATED_(B0)
  6
Continuous
 62
     7
100
AcDbLine
 10
352.3906745755
 20
375.0444291425
 30
0.0
 11
358.8751792175
 21
375.2470699126
 31
0.0
  0
LINE
  5
FD
330
C5
100
AcDbEntity
  8
$DDT_AUDIT_GENERATED_(B0)
  6
Continuous
 62
     7
100
AcDbLine
 10
358.8751792175
 20
426.7773438266
 30
0.0
 11
352.3906745755
 21
426.9799845966
 31
0.0
  0
ARC
  5
FE
330
C5
100
AcDbEntity
  8
$DDT_AUDIT_GENERATED_(B0)
  6
Continuous
 62
     7
100
AcDbCircle
 10
359.8595618413
 20
423.2622068696
 30
0.0
 40
0.5000000000000039
100
AcDbArc
 50
180.0
 51
270.0
  0
ARC
  5
FF
330
C5
100
AcDbEntity
  8
$DDT_AUDIT_GENERATED_(B0)
  6
Continuous
 62
     7
100
AcDbCircle
 10
359.8595618413
 20
378.7622068696
 30
0.0
 40
0.5000000000000004
100
AcDbArc
 50
90.0
 51
180.0
  0
ARC
  5
100
330
C5
100
AcDbEntity
  8
$DDT_AUDIT_GENERATED_(B0)
  6
Continuous
 62
     7
100
AcDbCircle
 10
358.8595618413
 20
426.2775877885
 30
0.0
 40
0.5000000000000004
100
AcDbArc
 50
0.0
 51
88.2100893918
  0
ARC
  5
101
330
C5
100
AcDbEntity
  8
$DDT_AUDIT_GENERATED_(B0)
  6
Continuous
 62
     7
100
AcDbCircle
 10
358.8595618413
 20
375.7468259506
 30
0.0
 40
0.4999999999999988
100
AcDbArc
 50
271.7899106082
 51
0.0
  0
ARC
  5
102
330
C5
100
AcDbEntity
  8
$DDT_AUDIT_GENERATED_(B0)
  6
Continuous
 62
     7
100
AcDbCircle
 10
352.3594398231
 20
376.0439412186
 30
0.0
 40
0.999999999980574
100
AcDbArc
 50
261.6258352933
 51
271.7899106083
  0
ARC
  5
103
330
C5
100
AcDbEntity
  8
$DDT_AUDIT_GENERATED_(B0)
  6
Continuous
 62
     7
100
AcDbCircle
 10
352.3594398231
 20
425.9804725205
 30
0.0
 40
0.9999999999999998
100
AcDbArc
 50
88.2100893918
 51
98.5496451629
  0
LINE
  5
105
330
C5
100
AcDbEntity
  8
$DDT_AUDIT_GENERATED_(104)
  6
Continuous
 62
     7
100
AcDbLine
 10
343.7495618413
 20
451.1724052459
 30
0.0
 11
343.7495618413
 21
446.2122068696
 31
0.0
  0
ARC
  5
106
330
C5
100
AcDbEntity
  8
$DDT_AUDIT_GENERATED_(AD)
  6
Continuous
 62
     7
100
AcDbCircle
 10
1155.5540246085
 20
401.0122068696
 30
0.0
 40
810.8627349968615
100
AcDbArc
 50
174.2024212885
 51
185.7975787115
  0
LINE
  5
107
330
C5
100
AcDbEntity
  8
$DDT_AUDIT_GENERATED_(AD)
  6
Continuous
 62
     7
100
AcDbLine
 10
340.7495618413
 20
490.0785009572
 30
0.0
 11
340.7495618413
 21
490.2187354564
 31
0.0
  0
LINE
  5
108
330
C5
100
AcDbEntity
  8
$DDT_AUDIT_GENERATED_(AD)
  6
Continuous
 62
     7
100
AcDbLine
 10
339.7495618413
 20
490.1934541663
 30
0.0
 11
336.8363859301
 21
490.7082802568
 31
0.0
  0
ARC
  5
109
330
C5
100
AcDbEntity
  8
$DDT_AUDIT_GENERATED_(AD)
  6
Continuous
 62
     7
100
AcDbCircle
 10
340.7482422521
 20
494.4740940416
 30
0.0
 40
4.395593282444468
100
AcDbArc
 50
256.8676984733
 51
270.0172006121
  0
LINE
  5
10A
330
C5
100
AcDbEntity
  8
$DDT_AUDIT_GENERATED_(AD)
  6
Continuous
 62
     7
100
AcDbLine
 10
336.2495618413
 20
490.2147698699
 30
0.0
 11
336.2495618413
 21
311.6080836659
 31
0.0
  0
SPLINE
  5
10B
330
C5
100
AcDbEntity
  8
$DDT_AUDIT_GENERATED_(AD)
  6
Continuous
 62
     7
100
AcDbSpline
210
0.0
220
0.0
230
1.0
 70
     8
 71
     3
 72
    10
 73
     6
 74
     0
 42
0.0000000111012732
 43
0.0000000001
 40
0.0
 40
0.0
 40
0.0
 40
0.0
 40
0.5
 40
0.5
 40
1.0
 40
1.0
 40
1.0
 40
1.0
 10
336.2495618413053
 20
490.21476986987
 30
0.0
 10
336.2495618413053
 20
490.361712270446
 30
0.0
 10
336.3169648212522
 20
490.50493548176
 30
0.0
 10
336.5385692045763
 20
490.6916970069836
 30
0.0
 10
336.6916763435871
 20
490.7338534851206
 30
0.0
 10
336.8363859301388
 20
490.7082802567721
 30
0.0
  0
LINE
  5
10C
330
C5
100
AcDbEntity
  8
$DDT_AUDIT_GENERATED_(AD)
  6
Continuous
 62
     7
100
AcDbLine
 10
336.8363859301
 20
311.1156797894
 30
0.0
 11
343.2917204481
 21
312.2539294344
 31
0.0
  0
LINE
  5
10D
330
C5
100
AcDbEntity
  8
$DDT_AUDIT_GENERATED_(AD)
  6
Continuous
 62
     7
100
AcDbLine
 10
343.2917204481
 20
489.7704843048
 30
0.0
 11
340.7495618413
 21
490.2187354564
 31
0.0
  0
SPLINE
  5
10E
330
C5
100
AcDbEntity
  8
$DDT_AUDIT_GENERATED_(AD)
  6
Continuous
 62
     7
100
AcDbSpline
210
0.0
220
0.0
230
1.0
 70
     8
 71
     3
 72
    10
 73
     6
 74
     0
 42
0.0000000010021232
 43
0.0000000001
 40
0.0
 40
0.0
 40
0.0
 40
0.0
 40
0.0280280577872339
 40
0.1282157343444172
 40
0.2176889019326373
 40
0.2176889019326373
 40
0.2176889019326373
 40
0.2176889019326373
 10
348.2967518515544
 20
484.337417885339
 30
0.0
 10
348.2276281912582
 20
484.4327788707005
 30
0.0
 10
347.9578751975542
 20
484.8049021646521
 30
0.0
 10
347.5136643947343
 20
485.4134120923637
 30
0.0
 10
347.1698577854136
 20
485.882994305125
 30
0.0
 10
347.0163707255017
 20
486.092237328379
 30
0.0
  0
SPLINE
  5
10F
330
C5
100
AcDbEntity
  8
$DDT_AUDIT_GENERATED_(AD)
  6
Continuous
 62
     7
100
AcDbSpline
210
0.0
220
0.0
230
1.0
 70
     8
 71
     3
 72
    22
 73
    18
 74
     0
 42
0.0000000014352803
 43
0.0000000001
 40
0.5454249278412228
 40
0.5454249278412228
 40
0.5454249278412228
 40
0.5454249278412228
 40
0.6152146139596558
 40
0.7097817194953087
 40
0.8048966123436684
 40
0.9003378141894538
 40
0.9126809303200941
 40
0.916653463107126
 40
0.9191468150265719
 40
0.9202411039860363
 40
0.921489839041586
 40
0.9246698487316765
 40
0.9329148191351382
 40
0.9540686361312639
 40
0.9734275718643123
 40
0.9947488083997872
 40
1.0
 40
1.0
 40
1.0
 40
1.0
 10
345.6995276633031
 20
487.8783084892305
 30
0.0
 10
345.6335591374663
 20
487.9674669831413
 30
0.0
 10
345.4925238429037
 20
488.1580566088307
 30
0.0
 10
345.3234764150943
 20
488.3864459379899
 30
0.0
 10
345.2044935715419
 20
488.5471664910201
 30
0.0
 10
345.1701743747452
 20
488.5933956709931
 30
0.0
 10
345.1609679201604
 20
488.6058573949311
 30
0.0
 10
345.1538192936017
 20
488.6154022851761
 30
0.0
 10
345.1457675150062
 20
488.6261294347111
 30
0.0
 10
345.1312374717506
 20
488.6451692334947
 30
0.0
 10
345.1045676681928
 20
488.6795667099214
 30
0.0
 10
345.0301536142005
 20
488.7718181520881
 30
0.0
 10
344.8301923177908
 20
488.9940677241075
 30
0.0
 10
344.4823776260423
 20
489.2897600089764
 30
0.0
 10
343.9866676591699
 20
489.5666140505076
 30
0.0
 10
343.5717144295087
 20
489.7208306334836
 30
0.0
 10
343.3425053721777
 20
489.7519815455411
 30
0.0
 10
343.2896055490682
 20
489.7589544951081
 30
0.0
  0
SPLINE
  5
110
330
C5
100
AcDbEntity
  8
$DDT_AUDIT_GENERATED_(AD)
  6
Continuous
 62
     7
100
AcDbSpline
210
0.0
220
0.0
230
1.0
 70
     8
 71
     3
 72
    18
 73
    14
 74
     0
 42
0.0000000017248803
 43
0.0000000001
 40
0.0
 40
0.0
 40
0.0
 40
0.0
 40
0.0300290162201771
 40
0.1317868894129983
 40
0.2324056377111151
 40
0.3319868469691682
 40
0.4306227011120219
 40
0.5283701205147203
 40
0.6251540927834873
 40
0.7209237552038019
 40
0.8170533253007217
 40
0.8939232076756344
 40
0.9119611254569125
 40
0.9119611254569125
 40
0.9119611254569125
 40
0.9119611254569125
 10
348.2982410047898
 20
484.3351038811715
 30
0.0
 10
348.2253258262453
 20
484.4356897189451
 30
0.0
 10
347.9524910900502
 20
484.8120411180678
 30
0.0
 10
347.4856218269055
 20
485.4516955284922
 30
0.0
 10
346.9501291218078
 20
486.1830732452979
 30
0.0
 10
346.4822334377919
 20
486.8192271556602
 30
0.0
 10
346.0851717152978
 20
487.3572582710395
 30
0.0
 10
345.758689752354
 20
487.7984579228012
 30
0.0
 10
345.5040909961403
 20
488.1422006777603
 30
0.0
 10
345.3203587680184
 20
488.3903595510606
 30
0.0
 10
345.2105645925653
 20
488.538824621719
 30
0.0
 10
345.1783879463276
 20
488.5820864046711
 30
0.0
 10
345.1688439245766
 20
488.5952566328599
 30
0.0
 10
345.1694498646705
 20
488.5944031326046
 30
0.0
  0
SPLINE
  5
111
330
C5
100
AcDbEntity
  8
$DDT_AUDIT_GENERATED_(AD)
  6
Continuous
 62
     7
100
AcDbSpline
210
0.0
220
0.0
230
1.0
 70
     8
 71
     3
 72
    18
 73
    14
 74
     0
 42
0.0000000017278052
 43
0.0000000001
 40
0.088095892737134
 40
0.088095892737134
 40
0.088095892737134
 40
0.088095892737134
 40
0.0988962023463447
 40
0.1473354460776294
 40
0.2341036583997503
 40
0.3296595027811082
 40
0.425679218604238
 40
0.5209763302303468
 40
0.6167647848047834
 40
0.7137843122317011
 40
0.8118699520164004
 40
0.9110337766210262
 40
1.0
 40
1.0
 40
1.0
 40
1.0
 10
345.1702435680924
 20
313.4311331214589
 30
0.0
 10
345.1702086516788
 20
313.4310854469012
 30
0.0
 10
345.1724120462046
 20
313.4340664542609
 30
0.0
 10
345.1922886534584
 20
313.4609670826503
 30
0.0
 10
345.2619687722863
 20
313.5551398327981
 30
0.0
 10
345.4088398561951
 20
313.7535594588646
 30
0.0
 10
345.6276432736688
 20
314.0490477266151
 30
0.0
 10
345.9149353555147
 20
314.4369904306974
 30
0.0
 10
346.2682561202182
 20
314.9150440982808
 30
0.0
 10
346.6899847263115
 20
315.4873659292944
 30
0.0
 10
347.1766722010133
 20
316.1503729251099
 30
0.0
 10
347.7207083934416
 20
316.8943944164013
 30
0.0
 10
348.0878511790006
 20
317.3995118377153
 30
0.0
 10
348.294895038526
 20
317.6844122759886
 30
0.0
  0
SPLINE
  5
112
330
C5
100
AcDbEntity
  8
$DDT_AUDIT_GENERATED_(AD)
  6
Continuous
 62
     7
100
AcDbSpline
210
0.0
220
0.0
230
1.0
 70
     8
 71
     3
 72
    26
 73
    22
 74
     0
 42
0.0000000014546194
 43
0.0000000001
 40
0.0
 40
0.0
 40
0.0
 40
0.0
 40
0.0154384706062077
 40
0.0297169401156855
 40
0.0426994468220314
 40
0.0541958616475938
 40
0.0639493870128828
 40
0.0716468776887334
 40
0.0768955372994619
 40
0.0789863509680655
 40
0.0801022999579655
 40
0.0810211736730969
 40
0.0823321143897635
 40
0.0849048282864857
 40
0.0923580423783665
 40
0.1109643823491469
 40
0.181194590706672
 40
0.2794898522902174
 40
0.3751382671184491
 40
0.470415252695669
 40
0.4724570561750917
 40
0.4724570561750917
 40
0.4724570561750917
 40
0.4724570561750917
 10
343.2922378694755
 20
312.2577270397552
 30
0.0
 10
343.445463312021
 20
312.2913623434706
 30
0.0
 10
343.6939230409913
 20
312.3485127989001
 30
0.0
 10
344.0667070819494
 20
312.5028769760846
 30
0.0
 10
344.377423982902
 20
312.678704732062
 30
0.0
 10
344.6340951007075
 20
312.8651577569713
 30
0.0
 10
344.8341461925991
 20
313.0429350586001
 30
0.0
 10
344.9793403498417
 20
313.1946011319321
 30
0.0
 10
345.0690286765652
 20
313.3002088610417
 30
0.0
 10
345.1168675319615
 20
313.3606337411466
 30
0.0
 10
345.1345163510179
 20
313.3835333615658
 30
0.0
 10
345.1434714909543
 20
313.3952841892203
 30
0.0
 10
345.1507795458611
 20
313.4049537845386
 30
0.0
 10
345.1580812331455
 20
313.4146950230386
 30
0.0
 10
345.1626077391988
 20
313.4207840616882
 30
0.0
 10
345.1713648376916
 20
313.4325625591585
 30
0.0
 10
345.2031959445637
 20
313.4755271592038
 30
0.0
 10
345.3050970417394
 20
313.6131333649507
 30
0.0
 10
345.4862209115142
 20
313.8578365465128
 30
0.0
 10
345.6532757615853
 20
314.0835947936358
 30
0.0
 10
345.749374438115
 20
314.2134776476025
 30
0.0
 10
345.7513958530176
 20
314.2162097127887
 30
0.0
  0
SPLINE
  5
113
330
C5
100
AcDbEntity
  8
$DDT_AUDIT_GENERATED_(AD)
  6
Continuous
 62
     7
100
AcDbSpline
210
0.0
220
0.0
230
1.0
 70
     8
 71
     3
 72
     8
 73
     4
 74
     0
 42
0.0000000008201626
 43
0.0000000001
 40
0.9941183024654244
 40
0.9941183024654244
 40
0.9941183024654244
 40
0.9941183024654244
 40
1.0
 40
1.0
 40
1.0
 40
1.0
 10
348.2558262626799
 20
317.6306610804676
 30
0.0
 10
348.2696242889165
 20
317.6496773475608
 30
0.0
 10
348.2836529529807
 20
317.6690121703782
 30
0.0
 10
348.2979416438807
 20
317.6887055776
 30
0.0
  0
ARC
  5
114
330
C5
100
AcDbEntity
  8
$DDT_AUDIT_GENERATED_(AD)
  6
Continuous
 62
     7
100
AcDbCircle
 10
345.8641853807
 20
482.5812567755
 30
0.0
 40
2.999999999999967
100
AcDbArc
 50
5.220493531
 51
35.9971824066
  0
ARC
  5
115
330
C5
100
AcDbEntity
  8
$DDT_AUDIT_GENERATED_(AD)
  6
Continuous
 62
     7
100
AcDbCircle
 10
345.8641853807
 20
319.4431569636
 30
0.0
 40
2.999999999999995
100
AcDbArc
 50
324.0028175933
 51
354.779506469
  0
ARC
  5
116
330
C5
100
AcDbEntity
  8
$DDT_AUDIT_GENERATED_(AD)
  6
Continuous
 62
     7
100
AcDbCircle
 10
-543.4558277356
 20
401.0162426994
 30
0.0
 40
896.0522440969874
100
AcDbArc
 50
354.7594458065
 51
5.240181776
  0
ARC
  5
117
330
C5
100
AcDbEntity
  8
$DDT_AUDIT_GENERATED_(AD)
  6
Continuous
 62
     7
100
AcDbCircle
 10
336.7495618413
 20
311.6080836659
 30
0.0
 40
0.5000000000000004
100
AcDbArc
 50
180.0
 51
280.0
  0
ENDBLK
  5
119
330
C5
100
AcDbEntity
  8
0
100
AcDbBlockEnd
  0
BLOCK
  5
1B9
330
11A
100
AcDbEntity
  8
0
100
AcDbBlockBegin
  2
SE2
 70
     0
 10
0.0
 20
0.0
 30
0.0
  3
SE2
  1

  0
ARC
  5
11C
330
11A
100
AcDbEntity
  8
$DDT_AUDIT_GENERATED_(77)
  6
Continuous
 62
     7
100
AcDbCircle
 10
105.4870438805
 20
164.6477695686
 30
0.0
 40
1.999999999999998
100
AcDbArc
 50
180.0
 51
270.0
  0
ARC
  5
11D
330
11A
100
AcDbEntity
  8
$DDT_AUDIT_GENERATED_(77)
  6
Continuous
 62
     7
100
AcDbCircle
 10
153.9870438805
 20
164.6477695686
 30
0.0
 40
2.000000000000002
100
AcDbArc
 50
270.0
 51
0.0
  0
LINE
  5
11E
330
11A
100
AcDbEntity
  8
$DDT_AUDIT_GENERATED_(79)
  6
Continuous
 62
     7
100
AcDbLine
 10
122.9502903105
 20
127.0477695686
 30
0.0
 11
123.2003637574
 21
127.0477695686
 31
0.0
  0
ARC
  5
11F
330
11A
100
AcDbEntity
  8
$DDT_AUDIT_GENERATED_(79)
  6
Continuous
 62
     7
100
AcDbCircle
 10
122.9590225877
 20
126.5189184448
 30
0.0
 40
0.5289232117034826
100
AcDbArc
 50
90.9459697543
 51
115.1896101519
  0
SPLINE
  5
120
330
11A
100
AcDbEntity
  8
$DDT_AUDIT_GENERATED_(79)
  6
Continuous
 62
     7
100
AcDbSpline
210
0.0
220
0.0
230
1.0
 70
     8
 71
     3
 72
    12
 73
     8
 74
     0
 42
0.0000000145365575
 43
0.0000000001
 40
0.0
 40
0.0
 40
0.0
 40
0.0
 40
0.4999999999999969
 40
0.4999999999999969
 40
0.7499999999999984
 40
0.7499999999999984
 40
1.0
 40
1.0
 40
1.0
 40
1.0
 10
125.9514537501192
 20
141.4477695686389
 30
0.0
 10
125.8705417272751
 20
141.4477695686389
 30
0.0
 10
125.7894374792626
 20
141.4109267992511
 30
0.0
 10
125.686520344926
 20
141.2877594441694
 30
0.0
 10
125.6557171846111
 20
141.2351860450993
 30
0.0
 10
125.6099867626655
 20
141.1050988533516
 30
0.0
 10
125.5959391588511
 20
141.028016037469
 30
0.0
 10
125.5959391588511
 20
140.9477695686389
 30
0.0
  0
SPLINE
  5
121
330
11A
100
AcDbEntity
  8
$DDT_AUDIT_GENERATED_(79)
  6
Continuous
 62
     7
100
AcDbSpline
210
0.0
220
0.0
230
1.0
 70
     8
 71
     3
 72
    10
 73
     6
 74
     0
 42
0.0000000105622641
 43
0.0000000001
 40
0.0
 40
0.0
 40
0.0
 40
0.0
 40
0.25
 40
0.25
 40
0.2717446194162814
 40
0.2717446194162814
 40
0.2717446194162814
 40
0.2717446194162814
 10
123.9054724220456
 20
133.8477695686389
 30
0.0
 10
123.9847065091312
 20
133.8477695686389
 30
0.0
 10
124.0628578901191
 20
133.8395260119534
 30
0.0
 10
124.1464413248982
 20
133.8206013885725
 30
0.0
 10
124.1531291180835
 20
133.8190139056527
 30
0.0
 10
124.1598125844761
 20
133.8173518842496
 30
0.0
  0
LINE
  5
122
330
11A
100
AcDbEntity
  8
$DDT_AUDIT_GENERATED_(79)
  6
Continuous
 62
     7
100
AcDbLine
 10
136.7129367549
 20
127.0477695686
 30
0.0
 11
136.270759066
 21
127.0477695686
 31
0.0
  0
LINE
  5
123
330
11A
100
AcDbEntity
  8
$DDT_AUDIT_GENERATED_(79)
  6
Continuous
 62
     7
100
AcDbLine
 10
135.7284167884
 20
131.0477695686
 30
0.0
 11
136.1216371235
 21
131.0477695686
 31
0.0
  0
LINE
  5
124
330
11A
100
AcDbEntity
  8
$DDT_AUDIT_GENERATED_(79)
  6
Continuous
 62
     7
100
AcDbLine
 10
127.3412474
 20
147.3895119991
 30
0.0
 11
127.5922373719
 21
147.3895119991
 31
0.0
  0
LINE
  5
125
330
11A
100
AcDbEntity
  8
$DDT_AUDIT_GENERATED_(79)
  6
Continuous
 62
     7
100
AcDbLine
 10
131.8756749968
 20
147.3895119991
 30
0.0
 11
132.1637067947
 21
147.3895119991
 31
0.0
  0
LINE
  5
126
330
11A
100
AcDbEntity
  8
$DDT_AUDIT_GENERATED_(79)
  6
Continuous
 62
     7
100
AcDbLine
 10
127.759115119
 20
148.3060271381
 30
0.0
 11
128.1199163709
 21
148.3060271381
 31
0.0
  0
LINE
  5
127
330
11A
100
AcDbEntity
  8
$DDT_AUDIT_GENERATED_(79)
  6
Continuous
 62
     7
100
AcDbLine
 10
131.3511074859
 20
148.3060271381
 30
0.0
 11
131.6981106367
 21
148.3060271381
 31
0.0
  0
LINE
  5
128
330
11A
100
AcDbEntity
  8
$DDT_AUDIT_GENERATED_(79)
  6
Continuous
 62
     7
100
AcDbLine
 10
131.3812323032
 20
148.8477695686
 30
0.0
 11
130.9381622266
 21
148.8477695686
 31
0.0
  0
LINE
  5
129
330
11A
100
AcDbEntity
  8
$DDT_AUDIT_GENERATED_(79)
  6
Continuous
 62
     7
100
AcDbLine
 10
128.5362944482
 20
148.8477695686
 30
0.0
 11
128.1245609232
 21
148.8477695686
 31
0.0
  0
LINE
  5
12A
330
11A
100
AcDbEntity
  8
$DDT_AUDIT_GENERATED_(79)
  6
Continuous
 62
     7
100
AcDbLine
 10
123.0128307141
 20
129.0477695686
 30
0.0
 11
123.4332976096
 21
129.0477695686
 31
0.0
  0
LINE
  5
12B
330
11A
100
AcDbEntity
  8
$DDT_AUDIT_GENERATED_(79)
  6
Continuous
 62
     7
100
AcDbLine
 10
123.3177989903
 20
131.0477695686
 30
0.0
 11
123.7232838968
 21
131.0477695686
 31
0.0
  0
LINE
  5
12C
330
11A
100
AcDbEntity
  8
$DDT_AUDIT_GENERATED_(79)
  6
Continuous
 62
     7
100
AcDbLine
 10
132.0577959583
 20
146.9477695686
 30
0.0
 11
132.3602062895
 21
146.9477695686
 31
0.0
  0
LINE
  5
12D
330
11A
100
AcDbEntity
  8
$DDT_AUDIT_GENERATED_(79)
  6
Continuous
 62
     7
100
AcDbLine
 10
127.1477065734
 20
146.9477695686
 30
0.0
 11
127.4162918027
 21
146.9477695686
 31
0.0
  0
LINE
  5
12E
330
11A
100
AcDbEntity
  8
$DDT_AUDIT_GENERATED_(79)
  6
Continuous
 62
     7
100
AcDbLine
 10
125.6067902976
 20
142.1477695686
 30
0.0
 11
125.891829239
 21
142.1477695686
 31
0.0
  0
LINE
  5
12F
330
11A
100
AcDbEntity
  8
$DDT_AUDIT_GENERATED_(79)
  6
Continuous
 62
     7
100
AcDbLine
 10
133.5877215377
 20
142.1477695686
 30
0.0
 11
133.8644880408
 21
142.1477695686
 31
0.0
  0
LINE
  5
130
330
11A
100
AcDbEntity
  8
$DDT_AUDIT_GENERATED_(79)
  6
Continuous
 62
     7
100
AcDbLine
 10
134.0496859694
 20
141.4477695686
 30
0.0
 11
133.7802958663
 21
141.4477695686
 31
0.0
  0
LINE
  5
131
330
11A
100
AcDbEntity
  8
$DDT_AUDIT_GENERATED_(79)
  6
Continuous
 62
     7
100
AcDbLine
 10
125.6937918947
 20
141.4477695686
 30
0.0
 11
125.4274381011
 21
141.4477695686
 31
0.0
  0
LINE
  5
132
330
11A
100
AcDbEntity
  8
$DDT_AUDIT_GENERATED_(79)
  6
Continuous
 62
     7
100
AcDbLine
 10
136.9076021037
 20
125.8477695686
 30
0.0
 11
136.4586674862
 21
125.8477695686
 31
0.0
  0
LINE
  5
133
330
11A
100
AcDbEntity
  8
$DDT_AUDIT_GENERATED_(79)
  6
Continuous
 62
     7
100
AcDbLine
 10
123.015653128
 20
125.8477695686
 30
0.0
 11
122.5696676226
 21
125.8477695686
 31
0.0
  0
LINE
  5
135
330
11A
100
AcDbEntity
  8
$DDT_AUDIT_GENERATED_(134)
  6
Continuous
 62
     7
100
AcDbLine
 10
136.0974597205
 20
131.2977695686
 30
0.0
 11
135.6995803515
 21
131.2977695686
 31
0.0
  0
LINE
  5
136
330
11A
100
AcDbEntity
  8
$DDT_AUDIT_GENERATED_(134)
  6
Continuous
 62
     7
100
AcDbLine
 10
133.8373637409
 20
141.2977695686
 30
0.0
 11
134.2117258846
 21
141.2977695686
 31
0.0
  0
ARC
  5
137
330
11A
100
AcDbEntity
  8
4221333_GRIFF_OB
  6
Continuous
 62
     7
100
AcDbCircle
 10
129.7370397843
 20
-222.79310587
 30
0.0
 40
333.3079050704592
100
AcDbArc
 50
93.8025918975
 51
93.8033069192
  0
ARC
  5
138
330
11A
100
AcDbEntity
  8
4221333_GRIFF_OB
  6
Continuous
 62
     7
100
AcDbCircle
 10
129.7370397843
 20
-222.79310587
 30
0.0
 40
333.3079050704592
100
AcDbArc
 50
86.1972914214
 51
86.197652736
  0
LINE
  5
139
330
11A
100
AcDbEntity
  8
4221333_GRIFF_OB
  6
Continuous
 62
     7
100
AcDbLine
 10
151.0228429144
 20
108.5822893097
 30
0.0
 11
150.0812966051
 21
108.3893472864
 31
0.0
  0
LINE
  5
13A
330
11A
100
AcDbEntity
  8
4221333_GRIFF_OB
  6
Continuous
 62
     7
100
AcDbLine
 10
137.2724290956
 20
118.0244072949
 30
0.0
 11
137.3327039054
 21
116.6708281909
 31
0.0
  0
ARC
  5
13B
330
11A
100
AcDbEntity
  8
4221333_GRIFF_OB
  6
Continuous
 62
     7
100
AcDbCircle
 10
-30.042189225
 20
109.9021450993
 30
0.0
 40
167.5117008485643
100
AcDbArc
 50
2.1704677891
 51
2.3157939652
  0
LINE
  5
13C
330
11A
100
AcDbEntity
  8
4221333_GRIFF_OB
  6
Continuous
 62
     7
100
AcDbLine
 10
122.1521054925
 20
116.6694555186
 30
0.0
 11
122.2124357593
 21
118.0244072949
 31
0.0
  0
ARC
  5
13D
330
11A
100
AcDbEntity
  8
4221333_GRIFF_OB
  6
Continuous
 62
     7
100
AcDbCircle
 10
108.6528317009
 20
109.5608168487
 30
0.0
 40
0.9999999999998432
100
AcDbArc
 50
185.2922213816
 51
258.1651213415
  0
ARC
  5
13E
330
11A
100
AcDbEntity
  8
4221333_GRIFF_OB
  6
Continuous
 62
     7
100
AcDbCircle
 10
150.8177415363
 20
109.5610300439
 30
0.0
 40
0.9999999999999972
100
AcDbArc
 50
281.8354336868
 51
354.7019943648
  0
LINE
  5
13F
330
11A
100
AcDbEntity
  8
4221333_GRIFF_OB
  6
Continuous
 62
     7
100
AcDbLine
 10
122.1521054925
 20
116.6694555186
 30
0.0
 11
122.1551610356
 21
116.5404056085
 31
0.0
  0
ARC
  5
140
330
11A
100
AcDbEntity
  8
4221333_GRIFF_OB
  6
Continuous
 62
     7
100
AcDbCircle
 10
129.7380614126
 20
78.153510827
 30
0.0
 40
43.40893685644303
100
AcDbArc
 50
81.2955580416
 51
98.6923765065
  0
LINE
  5
141
330
11A
100
AcDbEntity
  8
4221333_GRIFF_OB
  6
Continuous
 62
     7
100
AcDbLine
 10
137.1541101193
 20
120.1373889027
 30
0.0
 11
137.1618344286
 21
120.0149254092
 31
0.0
  0
LINE
  5
142
330
11A
100
AcDbEntity
  8
4221333_GRIFF_OB
  6
Continuous
 62
     7
100
AcDbLine
 10
137.1618344286
 20
120.0149254092
 30
0.0
 11
137.2724290956
 21
118.0244072949
 31
0.0
  0
ARC
  5
143
330
11A
100
AcDbEntity
  8
4221333_GRIFF_OB
  6
Continuous
 62
     7
100
AcDbCircle
 10
136.156121967
 20
120.07398821
 30
0.0
 40
0.9999999999999909
100
AcDbArc
 50
3.6350301481
 51
81.2955580416
  0
LINE
  5
144
330
11A
100
AcDbEntity
  8
4221333_GRIFF_OB
  6
Continuous
 62
     7
100
AcDbLine
 10
122.3231205619
 20
120.0163647152
 30
0.0
 11
122.3308411789
 21
120.1387495525
 31
0.0
  0
LINE
  5
145
330
11A
100
AcDbEntity
  8
4221333_GRIFF_OB
  6
Continuous
 62
     7
100
AcDbLine
 10
122.2124357593
 20
118.0244072949
 30
0.0
 11
122.3231205619
 21
120.0163647152
 31
0.0
  0
ARC
  5
146
330
11A
100
AcDbEntity
  8
4221333_GRIFF_OB
  6
Continuous
 62
     7
100
AcDbCircle
 10
123.3288286926
 20
120.0753388076
 30
0.0
 40
1.000000000000013
100
AcDbArc
 50
98.6923765065
 51
176.3643927466
  0
SPLINE
  5
147
330
11A
100
AcDbEntity
  8
4221333_GRIFF_OB
  6
Continuous
 62
     7
100
AcDbSpline
210
0.0
220
0.0
230
1.0
 70
     8
 71
     3
 72
    32
 73
    28
 74
     0
 42
0.0000000001686506
 43
0.0000000001
 40
0.0
 40
0.0
 40
0.0
 40
0.0
 40
0.1250000000000001
 40
0.1250000000000001
 40
0.2500000000000003
 40
0.2500000000000003
 40
0.3750000000000004
 40
0.3750000000000004
 40
0.4375000000000005
 40
0.4375000000000005
 40
0.4687500000000005
 40
0.4687500000000005
 40
0.4843750000000006
 40
0.4843750000000006
 40
0.5000000000000006
 40
0.5000000000000006
 40
0.5156250000000006
 40
0.5156250000000006
 40
0.5312500000000006
 40
0.5312500000000006
 40
0.5625000000000007
 40
0.5625000000000007
 40
0.6250000000000006
 40
0.6250000000000006
 40
0.7500000000000003
 40
0.7500000000000003
 40
1.0
 40
1.0
 40
1.0
 40
1.0
 10
137.3106025900581
 20
122.1544448711086
 30
0.0
 10
137.0700966626677
 20
124.5868421019648
 30
0.0
 10
136.755701540288
 20
127.0187977124509
 30
0.0
 10
136.0349578515386
 20
131.8764230179327
 30
0.0
 10
135.6198419281878
 20
134.3056509205614
 30
0.0
 10
134.6561161543527
 20
139.1447030123753
 30
0.0
 10
134.1219057094117
 20
141.5564549692028
 30
0.0
 10
133.0582355471197
 20
145.1212541261363
 30
0.0
 10
132.6678821554927
 20
146.3053111989663
 30
0.0
 10
131.8912846535873
 20
147.9989094199546
 30
0.0
 10
131.6076782968059
 20
148.5577612791695
 30
0.0
 10
131.0467970759333
 20
149.3067839964186
 30
0.0
 10
130.8423085317693
 20
149.5469439423247
 30
0.0
 10
130.3427416595526
 20
149.9296967371962
 30
0.0
 10
130.0371496921813
 20
150.0659875307275
 30
0.0
 10
129.4062489729621
 20
150.0581255858791
 30
0.0
 10
129.1046520111429
 20
149.9116488148896
 30
0.0
 10
128.6112330741596
 20
149.5259873408852
 30
0.0
 10
128.4098338080111
 20
149.2824560946189
 30
0.0
 10
127.8563573399611
 20
148.5265972333478
 30
0.0
 10
127.5691901893444
 20
147.9676654568413
 30
0.0
 10
126.804581217479
 20
146.2747934201319
 30
0.0
 10
126.410568806986
 20
145.1024713008838
 30
0.0
 10
125.3584869279983
 20
141.5411697599828
 30
0.0
 10
124.8150642565539
 20
139.1280941255627
 30
0.0
 10
123.3812624893616
 20
131.8757158464411
 30
0.0
 10
122.651841018758
 20
127.015677781927
 30
0.0
 10
122.1686306480497
 20
122.1554789969735
 30
0.0
  0
ARC
  5
148
330
11A
100
AcDbEntity
  8
4221333_GRIFF_OB
  6
Continuous
 62
     7
100
AcDbCircle
 10
123.2103655175
 20
122.0479818384
 30
0.0
 40
1.047266526453279
100
AcDbArc
 50
174.1084714589
 51
210.176639537
  0
LINE
  5
149
330
11A
100
AcDbEntity
  8
4221333_GRIFF_OB
  6
Continuous
 62
     7
100
AcDbLine
 10
109.3686507276
 20
108.39327646
 30
0.0
 11
108.447739804
 21
108.5820741277
 31
0.0
  0
ARC
  5
14A
330
11A
100
AcDbEntity
  8
4221333_GRIFF_OB
  6
Continuous
 62
     7
100
AcDbCircle
 10
135.2944968662
 20
-131.8874971878
 30
0.0
 40
240.7314093279257
100
AcDbArc
 50
86.4784201505
 51
89.1428932269
  0
ARC
  5
14B
330
11A
100
AcDbEntity
  8
4221333_GRIFF_OB
  6
Continuous
 62
     7
100
AcDbCircle
 10
129.686855323
 20
-286.5768888362
 30
0.0
 40
395.4924283878337
100
AcDbArc
 50
87.1603065992
 51
88.1185657292
  0
ARC
  5
14C
330
11A
100
AcDbEntity
  8
4221333_GRIFF_OB
  6
Continuous
 62
     7
100
AcDbCircle
 10
124.6763087461
 20
-141.6378894886
 30
0.0
 40
250.4993180422044
100
AcDbArc
 50
90.9482492625
 51
93.5034465921
  0
ARC
  5
14D
330
11A
100
AcDbEntity
  8
4221333_GRIFF_OB
  6
Continuous
 62
     7
100
AcDbCircle
 10
120.621927248
 20
101.4706838079
 30
0.0
 40
7.357004467408667
100
AcDbArc
 50
76.8404264162
 51
90.7103618814
  0
ARC
  5
14E
330
11A
100
AcDbEntity
  8
4221333_GRIFF_OB
  6
Continuous
 62
     7
100
AcDbCircle
 10
129.7390589824
 20
141.0546774097
 30
0.0
 40
33.26341674855097
100
AcDbArc
 50
257.0714671967
 51
282.8635160875
  0
ARC
  5
14F
330
11A
100
AcDbEntity
  8
4221333_GRIFF_OB
  6
Continuous
 62
     7
100
AcDbCircle
 10
138.8118391567
 20
101.4586459448
 30
0.0
 40
7.358807136637641
100
AcDbArc
 50
89.3482556416
 51
103.0958683016
  0
ARC
  5
150
330
11A
100
AcDbEntity
  8
4221333_GRIFF_OB
  6
Continuous
 62
     7
100
AcDbCircle
 10
129.7380614114
 20
78.1535108382
 30
0.0
 40
43.4089368451594
100
AcDbArc
 50
96.1905287697
 51
96.4849378971
  0
ARC
  5
151
330
11A
100
AcDbEntity
  8
4221333_GRIFF_OB
  6
Continuous
 62
     7
100
AcDbCircle
 10
129.7380614127
 20
78.1535108283
 30
0.0
 40
43.40893685515412
100
AcDbArc
 50
83.514097209
 51
83.808777344
  0
LINE
  5
152
330
11A
100
AcDbEntity
  8
4221333_GRIFF_OB
  6
Continuous
 62
     7
100
AcDbLine
 10
154.9056560894
 20
153.8477695686
 30
0.0
 11
104.5685833268
 21
153.8477695686
 31
0.0
  0
LINE
  5
153
330
11A
100
AcDbEntity
  8
4221333_GRIFF_OB
  6
Continuous
 62
     7
100
AcDbLine
 10
122.4860941065
 20
125.1477695686
 30
0.0
 11
122.9275772506
 21
125.1477695686
 31
0.0
  0
ARC
  5
154
330
11A
100
AcDbEntity
  8
4221333_GRIFF_OB
  6
Continuous
 62
     7
100
AcDbCircle
 10
129.7380614128
 20
78.1535108256
 30
0.0
 40
43.40893685792036
100
AcDbArc
 50
95.7655976216
 51
96.1905287697
  0
ARC
  5
155
330
11A
100
AcDbEntity
  8
4221333_GRIFF_OB
  6
Continuous
 62
     7
100
AcDbCircle
 10
129.7380614125
 20
78.1535108256
 30
0.0
 40
43.4089368578359
100
AcDbArc
 50
83.808777344
 51
84.2371021259
  0
ARC
  5
156
330
11A
100
AcDbEntity
  8
4221333_GRIFF_OB
  6
Continuous
 62
     7
100
AcDbCircle
 10
136.2687094902
 20
122.0475308669
 30
0.0
 40
1.047364232670035
100
AcDbArc
 50
329.9277472955
 51
5.8589072469
  0
ARC
  5
157
330
11A
100
AcDbEntity
  8
4221333_GRIFF_OB
  6
Continuous
 62
     7
100
AcDbCircle
 10
289.5404377207
 20
109.9015758648
 30
0.0
 40
167.5250965113677
100
AcDbArc
 50
177.6846663223
 51
177.8300053397
  0
ARC
  5
158
330
11A
100
AcDbEntity
  8
4221333_GRIFF_OB
  6
Continuous
 62
     7
100
AcDbCircle
 10
136.275821564
 20
116.2094973015
 30
0.0
 40
1.074141913065076
100
AcDbArc
 50
326.2669269293
 51
1.9620779934
  0
ARC
  5
159
330
11A
100
AcDbEntity
  8
4221333_GRIFF_OB
  6
Continuous
 62
     7
100
AcDbCircle
 10
136.3039728688
 20
116.1741587181
 30
0.0
 40
1.031197706283718
100
AcDbArc
 50
279.6597842388
 51
327.031245772
  0
ARC
  5
15A
330
11A
100
AcDbEntity
  8
4221333_GRIFF_OB
  6
Continuous
 62
     7
100
AcDbCircle
 10
123.1334677583
 20
122.0860546451
 30
0.0
 40
1.017283602757209
100
AcDbArc
 50
267.5088667115
 51
278.5561734867
  0
ARC
  5
15B
330
11A
100
AcDbEntity
  8
4221333_GRIFF_OB
  6
Continuous
 62
     7
100
AcDbCircle
 10
136.3458590807
 20
122.0889716582
 30
0.0
 40
1.020644625604633
100
AcDbArc
 50
261.4594261733
 51
273.1020203106
  0
ARC
  5
15C
330
11A
100
AcDbEntity
  8
4221333_GRIFF_OB
  6
Continuous
 62
     7
100
AcDbCircle
 10
123.1170319388
 20
122.0244518859
 30
0.0
 40
0.9551235547157558
100
AcDbArc
 50
211.7709969988
 51
268.333291964
  0
ARC
  5
15D
330
11A
100
AcDbEntity
  8
4221333_GRIFF_OB
  6
Continuous
 62
     7
100
AcDbCircle
 10
136.3626638428
 20
122.0233433864
 30
0.0
 40
0.9542948363560582
100
AcDbArc
 50
272.3077431028
 51
328.3576246422
  0
LINE
  5
15E
330
11A
100
AcDbEntity
  8
4221333_GRIFF_OB
  6
Continuous
 62
     7
100
AcDbLine
 10
136.5201977539
 20
125.1477695686
 30
0.0
 11
136.9864434272
 21
125.1477695686
 31
0.0
  0
SPLINE
  5
15F
330
11A
100
AcDbEntity
  8
4221333_GRIFF_OB
  6
Continuous
 62
     7
100
AcDbSpline
210
0.0
220
0.0
230
1.0
 70
     8
 71
     3
 72
    15
 73
    11
 74
     0
 42
0.0000000002289752
 43
0.0000000001
 40
0.0
 40
0.0
 40
0.0
 40
0.0
 40
0.1530428324817844
 40
0.3041469600127517
 40
0.4454110399420173
 40
0.5768353798216594
 40
0.6984203618733418
 40
0.8101664692837882
 40
0.9120743251901732
 40
1.0
 40
1.0
 40
1.0
 40
1.0
 10
104.0698021021455
 20
153.3079441262928
 30
0.0
 10
104.2564185402866
 20
150.864328511387
 30
0.0
 10
104.5692457650079
 20
146.7736842780563
 30
0.0
 10
105.0825546988395
 20
140.1820592258187
 30
0.0
 10
105.5673645147489
 20
134.0625287320734
 30
0.0
 10
106.030032219516
 20
128.3365322417911
 30
0.0
 10
106.4678804260552
 20
123.0378239854447
 30
0.0
 10
106.8779926280351
 20
118.2027699777786
 30
0.0
 10
107.2672487506464
 20
113.7388110176515
 30
0.0
 10
107.5004166510423
 20
111.1829082813009
 30
0.0
 10
107.6285432804812
 20
109.7807640200435
 30
0.0
  0
SPLINE
  5
160
330
11A
100
AcDbEntity
  8
4221333_GRIFF_OB
  6
Continuous
 62
     7
100
AcDbSpline
210
0.0
220
0.0
230
1.0
 70
     8
 71
     3
 72
    15
 73
    11
 74
     0
 42
0.0000000002289693
 43
0.0000000001
 40
0.0
 40
0.0
 40
0.0
 40
0.0
 40
0.0879237296089909
 40
0.1898295864935297
 40
0.3015734140510979
 40
0.4231558386633618
 40
0.5545773460337928
 40
0.6958383203755182
 40
0.8469390708434399
 40
1.0
 40
1.0
 40
1.0
 40
1.0
 10
151.8420623792657
 20
109.7809950344366
 30
0.0
 10
151.9703263667181
 20
111.1831321639325
 30
0.0
 10
152.203743968728
 20
113.7390255729039
 30
0.0
 10
152.5933896551531
 20
118.2029746511262
 30
0.0
 10
153.0038940304066
 20
123.0380224641365
 30
0.0
 10
153.4421416356348
 20
128.3367241683972
 30
0.0
 10
153.9052133772388
 20
134.0627129534288
 30
0.0
 10
154.3904299211547
 20
140.1822378122082
 30
0.0
 10
154.9041774750621
 20
146.7741653571542
 30
0.0
 10
155.2172685768668
 20
150.8650875978892
 30
0.0
 10
155.4040553330392
 20
153.3090446527637
 30
0.0
  0
LINE
  5
161
330
11A
100
AcDbEntity
  8
4221333_GRIFF_OB
  6
Continuous
 62
     7
100
AcDbLine
 10
151.8123351136
 20
109.4596127126
 30
0.0
 11
151.8419551987
 21
109.7806588693
 31
0.0
  0
LINE
  5
162
330
11A
100
AcDbEntity
  8
4221333_GRIFF_OB
  6
Continuous
 62
     7
100
AcDbLine
 10
107.6286493108
 20
109.7804275038
 30
0.0
 11
107.6582358794
 21
109.4593946996
 31
0.0
  0
ARC
  5
163
330
11A
100
AcDbEntity
  8
4221333_GRIFF_OB
  6
Continuous
 62
     7
100
AcDbCircle
 10
154.9057187738
 20
153.3477695024
 30
0.0
 40
0.5000000662397501
100
AcDbArc
 50
355.4485144715
 51
90.0044694527
  0
ARC
  5
164
330
11A
100
AcDbEntity
  8
4221333_GRIFF_OB
  6
Continuous
 62
     7
100
AcDbCircle
 10
104.5680402301
 20
153.3477695508
 30
0.0
 40
0.50000001789041
100
AcDbArc
 50
89.9988895958
 51
184.9564634194
  0
LINE
  5
165
330
11A
100
AcDbEntity
  8
4221335_TASTE_00
  6
Continuous
 62
     7
100
AcDbLine
 10
136.8597312966
 20
122.399428382
 30
0.0
 11
136.861550737
 21
122.3834226142
 31
0.0
  0
LINE
  5
166
330
11A
100
AcDbEntity
  8
4221335_TASTE_00
  6
Continuous
 62
     7
100
AcDbLine
 10
129.7370438805
 20
149.5477572946
 30
0.0
 11
129.7424324335
 21
149.5477694687
 31
0.0
  0
LINE
  5
167
330
11A
100
AcDbEntity
  8
4221335_TASTE_00
  6
Continuous
 62
     7
100
AcDbLine
 10
129.7370438805
 20
149.5477572946
 30
0.0
 11
129.7370438805
 21
149.0917038124
 31
0.0
  0
SPLINE
  5
168
330
11A
100
AcDbEntity
  8
4221335_TASTE_00
  6
Continuous
 62
     7
100
AcDbSpline
210
0.0
220
0.0
230
1.0
 70
     8
 71
     3
 72
    18
 73
    14
 74
     0
 42
0.000000000353446
 43
0.0000000001
 40
0.0
 40
0.0
 40
0.0
 40
0.0
 40
0.03125
 40
0.03125
 40
0.0624999999999999
 40
0.0624999999999999
 40
0.1249999999999999
 40
0.1249999999999999
 40
0.2499999999999998
 40
0.2499999999999998
 40
0.4999999999999998
 40
0.4999999999999998
 40
1.0
 40
1.0
 40
1.0
 40
1.0
 10
129.7424324335011
 20
149.5477694686788
 30
0.0
 10
130.040684654383
 20
149.5477618037586
 30
0.0
 10
130.3306013952968
 20
149.4227720086917
 30
0.0
 10
130.8082750455637
 20
149.0582027832007
 30
0.0
 10
131.0028881984857
 20
148.8307846143487
 30
0.0
 10
131.5268679579695
 20
148.1028996665344
 30
0.0
 10
131.7868153634227
 20
147.5726327166145
 30
0.0
 10
132.4900102181082
 20
145.9563887673852
 30
0.0
 10
132.8465965613799
 20
144.8255105557199
 30
0.0
 10
133.8147686032679
 20
141.4261921922506
 30
0.0
 10
134.3113510132169
 20
139.1294125456076
 30
0.0
 10
135.6446897636081
 20
132.2075845881852
 30
0.0
 10
136.2704441265569
 20
127.5357830334436
 30
0.0
 10
136.8059257930124
 20
122.8704719651245
 30
0.0
  0
LINE
  5
169
330
11A
100
AcDbEntity
  8
4221335_TASTE_00
  6
Continuous
 62
     7
100
AcDbLine
 10
136.805925793
 20
122.8704719651
 30
0.0
 11
136.8597312966
 21
122.399428382
 31
0.0
  0
LINE
  5
16A
330
11A
100
AcDbEntity
  8
4221335_TASTE_00
  6
Continuous
 62
     7
100
AcDbLine
 10
136.805925793
 20
122.8704719651
 30
0.0
 11
136.783058753
 21
122.5146522452
 31
0.0
  0
LINE
  5
16B
330
11A
100
AcDbEntity
  8
4221335_TASTE_00
  6
Continuous
 62
     7
100
AcDbLine
 10
129.7370438805
 20
149.5477572946
 30
0.0
 11
129.7316553275
 21
149.5477694687
 31
0.0
  0
SPLINE
  5
16C
330
11A
100
AcDbEntity
  8
4221335_TASTE_00
  6
Continuous
 62
     7
100
AcDbSpline
210
0.0
220
0.0
230
1.0
 70
     8
 71
     3
 72
    18
 73
    14
 74
     0
 42
0.000000000353446
 43
0.0000000001
 40
0.0
 40
0.0
 40
0.0
 40
0.0
 40
0.03125
 40
0.03125
 40
0.0624999999999999
 40
0.0624999999999999
 40
0.1249999999999999
 40
0.1249999999999999
 40
0.2499999999999998
 40
0.2499999999999998
 40
0.4999999999999998
 40
0.4999999999999998
 40
1.0
 40
1.0
 40
1.0
 40
1.0
 10
129.7316553274819
 20
149.5477694686788
 30
0.0
 10
129.4334031064081
 20
149.5477693453708
 30
0.0
 10
129.1434863656862
 20
149.4227720086917
 30
0.0
 10
128.6658127154193
 20
149.0582027832007
 30
0.0
 10
128.4711995624972
 20
148.8307846143487
 30
0.0
 10
127.9472198030135
 20
148.1028996665344
 30
0.0
 10
127.6872723975603
 20
147.5726327166145
 30
0.0
 10
126.9840775428748
 20
145.9563887673852
 30
0.0
 10
126.6274911996031
 20
144.8255105557199
 30
0.0
 10
125.6593191577151
 20
141.4261921922506
 30
0.0
 10
125.1627367477661
 20
139.1294125456076
 30
0.0
 10
123.8293979973749
 20
132.2075845881852
 30
0.0
 10
123.2036436344261
 20
127.5357830334436
 30
0.0
 10
122.6681619679706
 20
122.8704719651245
 30
0.0
  0
LINE
  5
16D
330
11A
100
AcDbEntity
  8
4221335_TASTE_00
  6
Continuous
 62
     7
100
AcDbLine
 10
122.668161968
 20
122.8704719651
 30
0.0
 11
122.691029008
 21
122.5146522452
 31
0.0
  0
LINE
  5
16E
330
11A
100
AcDbEntity
  8
4221335_TASTE_00
  6
Continuous
 62
     7
100
AcDbLine
 10
122.668161968
 20
122.8704719651
 30
0.0
 11
122.6143564644
 21
122.399428382
 31
0.0
  0
LINE
  5
16F
330
11A
100
AcDbEntity
  8
4221335_TASTE_00
  6
Continuous
 62
     7
100
AcDbLine
 10
122.6143564644
 20
122.399428382
 30
0.0
 11
122.612537024
 21
122.3834226142
 31
0.0
  0
ARC
  5
170
330
11A
100
AcDbEntity
  8
4221335_TASTE_00
  6
Continuous
 62
     7
100
AcDbCircle
 10
129.7320505122
 20
77.6378491213
 30
0.0
 40
44.23719303095007
100
AcDbArc
 50
85.7074411631
 51
89.9935326157
  0
ARC
  5
171
330
11A
100
AcDbEntity
  8
4221335_TASTE_00
  6
Continuous
 62
     7
100
AcDbCircle
 10
129.7420372488
 20
77.6378491213
 30
0.0
 40
44.23719303095741
100
AcDbArc
 50
90.0064673843
 51
94.2925588369
  0
LINE
  5
172
330
11A
100
AcDbEntity
  8
4221335_TASTE_00
  6
Continuous
 62
     7
100
AcDbLine
 10
126.2007144203
 20
144.3477694605
 30
0.0
 11
126.2746683362
 21
144.3477694605
 31
0.0
  0
LINE
  5
173
330
11A
100
AcDbEntity
  8
4221335_TASTE_00
  6
Continuous
 62
     7
100
AcDbLine
 10
125.9142511781
 20
143.3477694605
 30
0.0
 11
126.2079775979
 21
143.3477694605
 31
0.0
  0
LINE
  5
174
330
11A
100
AcDbEntity
  8
4221335_TASTE_00
  6
Continuous
 62
     7
100
AcDbLine
 10
133.2824374364
 20
144.3477694605
 30
0.0
 11
133.1994194248
 21
144.3477694605
 31
0.0
  0
ARC
  5
175
330
11A
100
AcDbEntity
  8
4221335_TASTE_00
  6
Continuous
 62
     7
100
AcDbCircle
 10
133.1994194248
 20
144.6477694605
 30
0.0
 40
0.3000000000000086
100
AcDbArc
 50
197.1217297015
 51
270.0
  0
ARC
  5
176
330
11A
100
AcDbEntity
  8
4221335_TASTE_00
  6
Continuous
 62
     7
100
AcDbCircle
 10
133.6589900918
 20
143.0477694605
 30
0.0
 40
0.2999999999999981
100
AcDbArc
 50
90.0
 51
195.0637299645
  0
ARC
  5
177
330
11A
100
AcDbEntity
  8
4221335_TASTE_00
  6
Continuous
 62
     7
100
AcDbCircle
 10
135.8671290905
 20
122.2703660586
 30
0.0
 40
1.000827755309729
100
AcDbArc
 50
331.4170512846
 51
6.4861507851
  0
ARC
  5
178
330
11A
100
AcDbEntity
  8
4221335_TASTE_00
  6
Continuous
 62
     7
100
AcDbCircle
 10
135.8680169795
 20
122.2697425266
 30
0.0
 40
0.9997497681465048
100
AcDbArc
 50
263.6008500659
 51
331.4240858773
  0
ARC
  5
179
330
11A
100
AcDbEntity
  8
4221335_TASTE_00
  6
Continuous
 62
     7
100
AcDbCircle
 10
129.6965592236
 20
67.3757597921
 30
0.0
 40
54.24005685119541
100
AcDbArc
 50
83.58517122
 51
85.9171760588
  0
ARC
  5
17A
330
11A
100
AcDbEntity
  8
4221335_TASTE_00
  6
Continuous
 62
     7
100
AcDbCircle
 10
133.5375037391
 20
121.1784293917
 30
0.0
 40
0.3004604506226856
100
AcDbArc
 50
86.0184869108
 51
129.1013512545
  0
ARC
  5
17B
330
11A
100
AcDbEntity
  8
4221335_TASTE_00
  6
Continuous
 62
     7
100
AcDbCircle
 10
123.6069585992
 20
122.2703660447
 30
0.0
 40
1.000827686024201
100
AcDbArc
 50
173.5138479616
 51
208.5829499687
  0
ARC
  5
17C
330
11A
100
AcDbEntity
  8
4221335_TASTE_00
  6
Continuous
 62
     7
100
AcDbCircle
 10
123.6060709829
 20
122.2697429133
 30
0.0
 40
0.9997501299848335
100
AcDbArc
 50
208.5759280635
 51
276.3991359933
  0
ARC
  5
17D
330
11A
100
AcDbEntity
  8
4221335_TASTE_00
  6
Continuous
 62
     7
100
AcDbCircle
 10
125.9365843818
 20
121.1784297767
 30
0.0
 40
0.3004600914918486
100
AcDbArc
 50
49.2570161371
 51
93.9815866517
  0
ARC
  5
17E
330
11A
100
AcDbEntity
  8
4221335_TASTE_00
  6
Continuous
 62
     7
100
AcDbCircle
 10
129.7775268278
 20
67.3757784018
 30
0.0
 40
54.24003816703597
100
AcDbArc
 50
94.0828235395
 51
96.4148291817
  0
ARC
  5
17F
330
11A
100
AcDbEntity
  8
4221335_TASTE_00
  6
Continuous
 62
     7
100
AcDbCircle
 10
132.9148248795
 20
145.6304045753
 30
0.0
 40
0.3325000744245346
100
AcDbArc
 50
198.5760211253
 51
266.5413664104
  0
ARC
  5
180
330
11A
100
AcDbEntity
  8
4221335_TASTE_00
  6
Continuous
 62
     7
100
AcDbCircle
 10
126.2746683362
 20
144.6477694605
 30
0.0
 40
0.3000000000000002
100
AcDbArc
 50
270.0
 51
342.8782702985
  0
ARC
  5
181
330
11A
100
AcDbEntity
  8
4221335_TASTE_00
  6
Continuous
 62
     7
100
AcDbCircle
 10
132.8776178158
 20
145.6207570107
 30
0.0
 40
0.29417054072054
100
AcDbArc
 50
199.1034354917
 51
270.9495344718
  0
LINE
  5
182
330
11A
100
AcDbEntity
  8
4221335_TASTE_00
  6
Continuous
 62
     7
100
AcDbLine
 10
126.69199347
 20
145.3477694605
 30
0.0
 11
126.5260868646
 21
145.3477694605
 31
0.0
  0
LINE
  5
183
330
11A
100
AcDbEntity
  8
4221335_TASTE_00
  6
Continuous
 62
     7
100
AcDbLine
 10
125.6580337546
 20
142.3477694605
 30
0.0
 11
125.9410466159
 21
142.3477694605
 31
0.0
  0
LINE
  5
184
330
11A
100
AcDbEntity
  8
4221335_TASTE_00
  6
Continuous
 62
     7
100
AcDbLine
 10
132.9383331098
 20
145.3477694605
 30
0.0
 11
132.7779548525
 21
145.3477694605
 31
0.0
  0
LINE
  5
185
330
11A
100
AcDbEntity
  8
4221335_TASTE_00
  6
Continuous
 62
     7
100
AcDbLine
 10
133.7151214763
 20
142.3477694605
 30
0.0
 11
133.8115743755
 21
142.3477694605
 31
0.0
  0
SPLINE
  5
186
330
11A
100
AcDbEntity
  8
4221335_TASTE_00
  6
Continuous
 62
     7
100
AcDbSpline
210
0.0
220
0.0
230
1.0
 70
     8
 71
     3
 72
    13
 73
     9
 74
     0
 42
0.00000001522058
 43
0.0000000001
 40
0.0
 40
0.0
 40
0.0
 40
0.0
 40
0.0460916553549216
 40
0.1663000740715555
 40
0.3032954538842471
 40
0.3829149420677939
 40
0.4481975496648735
 40
0.4608527287467018
 40
0.4608527287467018
 40
0.4608527287467018
 40
0.4608527287467018
 10
133.5928087925813
 20
142.1230883512303
 30
0.0
 10
133.5901921070468
 20
142.1327652288085
 30
0.0
 10
133.5827752088903
 20
142.1627135882667
 30
0.0
 10
133.5936645598519
 20
142.2499608034258
 30
0.0
 10
133.6464554492204
 20
142.3285223109095
 30
0.0
 10
133.696799634989
 20
142.3638385870685
 30
0.0
 10
133.7125363852541
 20
142.3696274158503
 30
0.0
 10
133.713530523395
 20
142.3699711392749
 30
0.0
 10
133.7135161772516
 20
142.369970994856
 30
0.0
  0
ARC
  5
187
330
11A
100
AcDbEntity
  8
4221335_TASTE_00
  6
Continuous
 62
     7
100
AcDbCircle
 10
126.6304624338
 20
145.5940205714
 30
0.0
 40
0.2505394244697859
100
AcDbArc
 50
280.2351844678
 51
342.1058621674
  0
LINE
  5
188
330
11A
100
AcDbEntity
  8
4221335_TASTE_00
  6
Continuous
 62
     7
100
AcDbLine
 10
132.8249236012
 20
145.3091855841
 30
0.0
 11
132.8947658515
 21
145.2985101118
 31
0.0
  0
LINE
  5
189
330
11A
100
AcDbEntity
  8
4221335_TASTE_00
  6
Continuous
 62
     7
100
AcDbLine
 10
132.6484934742
 20
145.4359861605
 30
0.0
 11
132.6215789245
 21
145.4738597221
 31
0.0
  0
SPLINE
  5
18A
330
11A
100
AcDbEntity
  8
4221335_TASTE_00
  6
Continuous
 62
     7
100
AcDbSpline
210
0.0
220
0.0
230
1.0
 70
     8
 71
     3
 72
    13
 73
     9
 74
     0
 42
0.0000000303419994
 43
0.0000000001
 40
0.1429235437973813
 40
0.1429235437973813
 40
0.1429235437973813
 40
0.1429235437973813
 40
0.1751159134302215
 40
0.2891191413184713
 40
0.4201642690770811
 40
0.6073743792971729
 40
0.8548431582434833
 40
1.0
 40
1.0
 40
1.0
 40
1.0
 10
132.7988363054194
 20
145.3474570340557
 30
0.0
 10
132.7986622203379
 20
145.3474469266361
 30
0.0
 10
132.7969495469935
 20
145.3474821801287
 30
0.0
 10
132.7870877566285
 20
145.348747523757
 30
0.0
 10
132.747106652034
 20
145.3598836299002
 30
0.0
 10
132.6857036043563
 20
145.3942474743556
 30
0.0
 10
132.6261849285157
 20
145.4547247733946
 30
0.0
 10
132.6110929818741
 20
145.5040647394261
 30
0.0
 10
132.6048071690296
 20
145.5254864471861
 30
0.0
  0
ARC
  5
18B
330
11A
100
AcDbEntity
  8
$DDT_AUDIT_GENERATED_(A6)
  6
Continuous
 62
     7
100
AcDbCircle
 10
129.6120650423
 20
209.8629002951
 30
0.0
 40
102.0147414097823
100
AcDbArc
 50
277.1325464109
 51
277.7709887337
  0
ARC
  5
18C
330
11A
100
AcDbEntity
  8
$DDT_AUDIT_GENERATED_(A6)
  6
Continuous
 62
     7
100
AcDbCircle
 10
129.7346728124
 20
208.8407551091
 30
0.0
 40
102.4907551090854
100
AcDbArc
 50
258.6873545179
 51
281.3015660053
  0
ARC
  5
18D
330
11A
100
AcDbEntity
  8
$DDT_AUDIT_GENERATED_(A6)
  6
Continuous
 62
     7
100
AcDbCircle
 10
124.7723147578
 20
-147.1068906588
 30
0.0
 40
255.8965595500152
100
AcDbArc
 50
90.9293831711
 51
93.3918581479
  0
ARC
  5
18E
330
11A
100
AcDbEntity
  8
$DDT_AUDIT_GENERATED_(A6)
  6
Continuous
 62
     7
100
AcDbCircle
 10
135.3275973309
 20
-133.6800237989
 30
0.0
 40
242.4509225448812
100
AcDbArc
 50
86.5736654819
 51
89.1779455989
  0
ARC
  5
18F
330
11A
100
AcDbEntity
  8
$DDT_AUDIT_GENERATED_(A6)
  6
Continuous
 62
     7
100
AcDbCircle
 10
109.6686513245
 20
108.5374478377
 30
0.0
 40
0.1999999999964716
100
AcDbArc
 50
204.8546232706
 51
258.8054938313
  0
ARC
  5
190
330
11A
100
AcDbEntity
  8
$DDT_AUDIT_GENERATED_(A6)
  6
Continuous
 62
     7
100
AcDbCircle
 10
149.7812965039
 20
108.5335691265
 30
0.0
 40
0.1999999322060091
100
AcDbArc
 50
281.1838495673
 51
320.5919294349
  0
LINE
  5
191
330
11A
100
AcDbEntity
  8
$DDT_AUDIT_GENERATED_(B0)
  6
Continuous
 62
     7
100
AcDbLine
 10
104.4716629615
 20
154.6477695686
 30
0.0
 11
155.0024247994
 21
154.6477695686
 31
0.0
  0
LINE
  5
192
330
11A
100
AcDbEntity
  8
$DDT_AUDIT_GENERATED_(B0)
  6
Continuous
 62
     7
100
AcDbLine
 10
104.7531570426
 20
162.6477695686
 30
0.0
 11
154.7209307184
 21
162.6477695686
 31
0.0
  0
LINE
  5
193
330
11A
100
AcDbEntity
  8
$DDT_AUDIT_GENERATED_(B0)
  6
Continuous
 62
     7
100
AcDbLine
 10
107.9870438805
 20
154.1477695686
 30
0.0
 11
107.9870438805
 21
153.8477695686
 31
0.0
  0
LINE
  5
194
330
11A
100
AcDbEntity
  8
$DDT_AUDIT_GENERATED_(B0)
  6
Continuous
 62
     7
100
AcDbLine
 10
151.4870438805
 20
153.8477695686
 30
0.0
 11
151.4870438805
 21
154.1477695686
 31
0.0
  0
LINE
  5
195
330
11A
100
AcDbEntity
  8
$DDT_AUDIT_GENERATED_(B0)
  6
Continuous
 62
     7
100
AcDbLine
 10
103.7692661534
 20
161.6166568345
 30
0.0
 11
103.9719069235
 21
155.1321521925
 31
0.0
  0
LINE
  5
196
330
11A
100
AcDbEntity
  8
$DDT_AUDIT_GENERATED_(B0)
  6
Continuous
 62
     7
100
AcDbLine
 10
155.5021808375
 20
155.1321521925
 30
0.0
 11
155.7048216075
 21
161.6166568345
 31
0.0
  0
ARC
  5
197
330
11A
100
AcDbEntity
  8
$DDT_AUDIT_GENERATED_(B0)
  6
Continuous
 62
     7
100
AcDbCircle
 10
151.9870438805
 20
154.1477695686
 30
0.0
 40
0.5000000000000039
100
AcDbArc
 50
90.0
 51
180.0
  0
ARC
  5
198
330
11A
100
AcDbEntity
  8
$DDT_AUDIT_GENERATED_(B0)
  6
Continuous
 62
     7
100
AcDbCircle
 10
107.4870438805
 20
154.1477695686
 30
0.0
 40
0.5000000000000004
100
AcDbArc
 50
0.0
 51
90.0
  0
ARC
  5
199
330
11A
100
AcDbEntity
  8
$DDT_AUDIT_GENERATED_(B0)
  6
Continuous
 62
     7
100
AcDbCircle
 10
155.0024247994
 20
155.1477695686
 30
0.0
 40
0.5000000000000004
100
AcDbArc
 50
270.0
 51
358.2100893918
  0
ARC
  5
19A
330
11A
100
AcDbEntity
  8
$DDT_AUDIT_GENERATED_(B0)
  6
Continuous
 62
     7
100
AcDbCircle
 10
104.4716629615
 20
155.1477695686
 30
0.0
 40
0.4999999999999988
100
AcDbArc
 50
181.7899106082
 51
270.0
  0
ARC
  5
19B
330
11A
100
AcDbEntity
  8
$DDT_AUDIT_GENERATED_(B0)
  6
Continuous
 62
     7
100
AcDbCircle
 10
104.7687782295
 20
161.6478915869
 30
0.0
 40
0.999999999980574
100
AcDbArc
 50
90.8950645584
 51
181.7899106082
  0
ARC
  5
19C
330
11A
100
AcDbEntity
  8
$DDT_AUDIT_GENERATED_(B0)
  6
Continuous
 62
     7
100
AcDbCircle
 10
154.7053095315
 20
161.6478915869
 30
0.0
 40
0.9999999999999998
100
AcDbArc
 50
358.2100893918
 51
89.1049354416
  0
LINE
  5
19E
330
11A
100
AcDbEntity
  8
$DDT_AUDIT_GENERATED_(19D)
  6
Continuous
 62
     7
100
AcDbLine
 10
110.131501214
 20
177.7604621325
 30
0.0
 11
110.131501214
 21
177.7577695686
 31
0.0
  0
LINE
  5
19F
330
11A
100
AcDbEntity
  8
$DDT_AUDIT_GENERATED_(19D)
  6
Continuous
 62
     7
100
AcDbLine
 10
149.342586547
 20
177.7604621325
 30
0.0
 11
149.342586547
 21
177.7577695686
 31
0.0
  0
LINE
  5
1A0
330
11A
100
AcDbEntity
  8
$DDT_AUDIT_GENERATED_(104)
  6
Continuous
 62
     7
100
AcDbLine
 10
123.7370438805
 20
177.7577695686
 30
0.0
 11
135.7370438805
 21
177.7577695686
 31
0.0
  0
ELLIPSE
  5
1A1
330
11A
100
AcDbEntity
  8
$DDT_AUDIT_GENERATED_(104)
  6
Continuous
 62
     7
100
AcDbEllipse
 10
129.7370438805
 20
154.4820882121
 30
0.0
 11
84.99999999981816
 21
-8.423817199343375E-12
 31
0.0
210
0.0
220
0.0
230
1.0
 40
0.2679491924
 41
1.500149339683233
 42
1.641443313906827
  0
LINE
  5
1A2
330
11A
100
AcDbEntity
  8
$DDT_AUDIT_GENERATED_(104)
  6
Continuous
 62
     7
100
AcDbLine
 10
123.7370438805
 20
174.3103284519
 30
0.0
 11
135.7370438805
 21
174.3103284519
 31
0.0
  0
ARC
  5
1A3
330
11A
100
AcDbEntity
  8
$DDT_AUDIT_GENERATED_(AD)
  6
Continuous
 62
     7
100
AcDbCircle
 10
129.7370450802
 20
70.8947257843
 30
0.0
 40
97.36304347825111
100
AcDbArc
 50
68.7134257934
 51
75.6885688618
  0
ARC
  5
1A4
330
11A
100
AcDbEntity
  8
$DDT_AUDIT_GENERATED_(AD)
  6
Continuous
 62
     7
100
AcDbCircle
 10
129.7370438805
 20
70.8947260904
 30
0.0
 40
97.36304347826102
100
AcDbArc
 50
75.6885681332
 51
104.3114318668
  0
ARC
  5
1A5
330
11A
100
AcDbEntity
  8
$DDT_AUDIT_GENERATED_(AD)
  6
Continuous
 62
     7
100
AcDbCircle
 10
129.7370426808
 20
70.8947257843
 30
0.0
 40
97.36304347828839
100
AcDbArc
 50
104.3114311382
 51
111.2865742066
  0
LINE
  5
1A6
330
11A
100
AcDbEntity
  8
$DDT_AUDIT_GENERATED_(AD)
  6
Continuous
 62
     7
100
AcDbLine
 10
135.7370438805
 20
174.2577695686
 30
0.0
 11
135.7370438805
 21
177.1709454798
 31
0.0
  0
ARC
  5
1A7
330
11A
100
AcDbEntity
  8
$DDT_AUDIT_GENERATED_(AD)
  6
Continuous
 62
     7
100
AcDbCircle
 10
134.7370438805
 20
174.2577695686
 30
0.0
 40
1.000000000000009
100
AcDbArc
 50
270.0
 51
0.0
  0
LINE
  5
1A8
330
11A
100
AcDbEntity
  8
$DDT_AUDIT_GENERATED_(AD)
  6
Continuous
 62
     7
100
AcDbLine
 10
124.7370438805
 20
173.2577695686
 30
0.0
 11
134.7370438805
 21
173.2577695686
 31
0.0
  0
LINE
  5
1A9
330
11A
100
AcDbEntity
  8
$DDT_AUDIT_GENERATED_(AD)
  6
Continuous
 62
     7
100
AcDbLine
 10
123.7370438805
 20
174.2577695686
 30
0.0
 11
123.7370438805
 21
177.1709454798
 31
0.0
  0
ARC
  5
1AA
330
11A
100
AcDbEntity
  8
$DDT_AUDIT_GENERATED_(AD)
  6
Continuous
 62
     7
100
AcDbCircle
 10
124.7370438805
 20
174.2577695686
 30
0.0
 40
0.9999999999999892
100
AcDbArc
 50
180.0
 51
270.0
  0
LINE
  5
1AB
330
11A
100
AcDbEntity
  8
$DDT_AUDIT_GENERATED_(AD)
  6
Continuous
 62
     7
100
AcDbLine
 10
135.7370438805
 20
177.1709454798
 30
0.0
 11
135.7370438805
 21
177.7577695686
 31
0.0
  0
LINE
  5
1AC
330
11A
100
AcDbEntity
  8
$DDT_AUDIT_GENERATED_(AD)
  6
Continuous
 62
     7
100
AcDbLine
 10
219.1411670842
 20
177.7577695686
 30
0.0
 11
135.7370438805
 21
177.7577695686
 31
0.0
  0
LINE
  5
1AD
330
11A
100
AcDbEntity
  8
$DDT_AUDIT_GENERATED_(AD)
  6
Continuous
 62
     7
100
AcDbLine
 10
123.7370438805
 20
177.7577695686
 30
0.0
 11
40.3329206768
 21
177.7577695686
 31
0.0
  0
LINE
  5
1AE
330
11A
100
AcDbEntity
  8
$DDT_AUDIT_GENERATED_(AD)
  6
Continuous
 62
     7
100
AcDbLine
 10
123.7370438805
 20
177.7577695686
 30
0.0
 11
123.7370438805
 21
177.1709454798
 31
0.0
  0
ARC
  5
1AF
330
11A
100
AcDbEntity
  8
$DDT_AUDIT_GENERATED_(AD)
  6
Continuous
 62
     7
100
AcDbCircle
 10
129.7370438805
 20
555.5624710474
 30
0.0
 40
395.8451043880563
100
AcDbArc
 50
275.3169530971
 51
282.6379919749
  0
ARC
  5
1B0
330
11A
100
AcDbEntity
  8
$DDT_AUDIT_GENERATED_(AD)
  6
Continuous
 62
     7
100
AcDbCircle
 10
129.7370438805
 20
555.5624710474
 30
0.0
 40
395.8451043880563
100
AcDbArc
 50
257.3620278446
 51
264.6830622599
  0
LINE
  5
1B1
330
11A
100
AcDbEntity
  8
$DDT_AUDIT_GENERATED_(AD)
  6
Continuous
 62
     7
100
AcDbLine
 10
39.8405168003
 20
177.1709454798
 30
0.0
 11
40.8029848322
 21
171.7125180285
 31
0.0
  0
LINE
  5
1B2
330
11A
100
AcDbEntity
  8
$DDT_AUDIT_GENERATED_(AD)
  6
Continuous
 62
     7
100
AcDbLine
 10
218.6711029288
 20
171.7125180285
 30
0.0
 11
219.6335709607
 21
177.1709454798
 31
0.0
  0
ARC
  5
1B3
330
11A
100
AcDbEntity
  8
$DDT_AUDIT_GENERATED_(AD)
  6
Continuous
 62
     7
100
AcDbCircle
 10
166.1118451679
 20
164.1122704765
 30
0.0
 40
2.697868173880551
100
AcDbArc
 50
249.5817302433
 51
276.4974313195
  0
ARC
  5
1B4
330
11A
100
AcDbEntity
  8
$DDT_AUDIT_GENERATED_(AD)
  6
Continuous
 62
     7
100
AcDbCircle
 10
215.7386231853
 20
172.2114760249
 30
0.0
 40
2.963491625324919
100
AcDbArc
 50
281.7778740682
 51
350.3292161981
  0
ARC
  5
1B5
330
11A
100
AcDbEntity
  8
$DDT_AUDIT_GENERATED_(AD)
  6
Continuous
 62
     7
100
AcDbCircle
 10
43.7410666098
 20
172.2158371797
 30
0.0
 40
2.969918391606804
100
AcDbArc
 50
189.7104676705
 51
258.1271458222
  0
ARC
  5
1B6
330
11A
100
AcDbEntity
  8
$DDT_AUDIT_GENERATED_(AD)
  6
Continuous
 62
     7
100
AcDbCircle
 10
93.3106135128
 20
164.367535947
 30
0.0
 40
2.955736755562624
100
AcDbArc
 50
265.0483892937
 51
289.6300061569
  0
ARC
  5
1B7
330
11A
100
AcDbEntity
  8
$DDT_AUDIT_GENERATED_(AD)
  6
Continuous
 62
     7
100
AcDbCircle
 10
219.1411670842
 20
177.2577695686
 30
0.0
 40
0.4999999999999993
100
AcDbArc
 50
350.0
 51
90.0
  0
ARC
  5
1B8
330
11A
100
AcDbEntity
  8
$DDT_AUDIT_GENERATED_(AD)
  6
Continuous
 62
     7
100
AcDbCircle
 10
40.3329206768
 20
177.2577695686
 30
0.0
 40
0.5000000000000004
100
AcDbArc
 50
90.0
 51
190.0
  0
ENDBLK
  5
1BA
330
11A
100
AcDbEntity
  8
0
100
AcDbBlockEnd
  0
ENDSEC
  0
SECTION
  2
ENTITIES
  0
INSERT
  5
5F
330
1F
100
AcDbEntity
  8
Default
100
AcDbBlockReference
  2
SEANNOT_GROUP
 10
0.0
 20
0.0
 30
0.0
  0
INSERT
  5
66
330
1F
100
AcDbEntity
  8
Default
100
AcDbBlockReference
  2
SEANNOT_GROUP1
 10
0.0
 20
0.0
 30
0.0
  0
INSERT
  5
70
330
1F
100
AcDbEntity
  8
Default
100
AcDbBlockReference
  2
SEANNOT_GROUP2
 10
0.0
 20
0.0
 30
0.0
  0
INSERT
  5
76
330
1F
100
AcDbEntity
  8
Default
100
AcDbBlockReference
  2
SE
 10
0.0
 20
0.0
 30
0.0
  0
INSERT
  5
C6
330
1F
100
AcDbEntity
  8
Default
100
AcDbBlockReference
  2
SE1
 10
0.0
 20
0.0
 30
0.0
  0
INSERT
  5
11B
330
1F
100
AcDbEntity
  8
Default
100
AcDbBlockReference
  2
SE2
 10
0.0
 20
0.0
 30
0.0
  0
TEXT
  5
1BC
330
1F
100
AcDbEntity
  8
Default
  6
Continuous
 62
     7
100
AcDbText
 10
5.9362635081
 20
53.4225120485
 30
0.0
 40
10.0
  1
Grohe AG^J
  7
SEACAD_seiso_ttf
 11
5.9362635081
 21
63.4225120485
 31
0.0
100
AcDbText
 73
     3
  0
TEXT
  5
1BD
330
1F
100
AcDbEntity
  8
Default
  6
Continuous
 62
     7
100
AcDbText
 10
5.9362635081
 20
37.0588756849
 30
0.0
 40
10.0
  1
 
  7
SEACAD_seiso_ttf
 11
5.9362635081
 21
47.0588756849
 31
0.0
100
AcDbText
 73
     3
  0
TEXT
  5
1BE
330
1F
100
AcDbEntity
  8
Default
  6
Continuous
 62
     7
100
AcDbText
 10
5.9362635081
 20
20.6952393213
 30
0.0
 40
10.0
  1
ecn: 
  7
SEACAD_seiso_ttf
 11
5.9362635081
 21
30.6952393213
 31
0.0
100
AcDbText
 73
     3
  0
TEXT
  5
1BF
330
1F
100
AcDbEntity
  8
Default
  6
Continuous
 62
     7
100
AcDbText
 10
5.9362635081
 20
4.3316029576
 30
0.0
 40
10.0
  1
unit: mm
  7
SEACAD_seiso_ttf
 11
5.9362635081
 21
14.3316029576
 31
0.0
100
AcDbText
 73
     3
  0
LINE
  5
1C0
330
1F
100
AcDbEntity
  8
Default
  6
Continuous
 62
     7
100
AcDbLine
 10
0.0
 20
0.0
 30
0.0
 11
100.0
 21
0.0
 31
0.0
  0
LINE
  5
1C1
330
1F
100
AcDbEntity
  8
Default
  6
Continuous
 62
     7
100
AcDbLine
 10
0.0
 20
0.0
 30
0.0
 11
0.0
 21
100.0
 31
0.0
  0
TEXT
  5
1C2
330
1F
100
AcDbEntity
  8
Default
  6
Continuous
 62
     7
100
AcDbText
 10
24.3923665681
 20
-18.2375342018
 30
0.0
 40
10.0
  1
100 mm
  7
SEACAD_seiso_ttf
 11
24.3923665681
 21
-8.2375342018
 31
0.0
100
AcDbText
 73
     3
  0
TEXT
  5
1C3
330
1F
100
AcDbEntity
  8
Default
  6
Continuous
 62
     7
100
AcDbText
 10
-7.6150308803
 20
24.6231930421
 30
0.0
 40
10.0
  1
100 mm
 50
90.0
  7
SEACAD_seiso_ttf
 11
-17.6150308803
 21
24.6231930421
 31
0.0
100
AcDbText
 73
     3
  0
TEXT
  5
1C4
330
1F
100
AcDbEntity
  8
Default
  6
Continuous
 62
     7
100
AcDbText
 10
28.4878128572
 20
20.0907663715
 30
0.0
 40
10.0
  1
205910
  7
SEACAD_seiso_ttf
 11
28.4878128572
 21
30.0907663715
 31
0.0
100
AcDbText
 73
     3
  0
TEXT
  5
1C5
330
1F
100
AcDbEntity
  8
Default
  6
Continuous
 62
     7
100
AcDbText
 10
5.9012241913
 20
36.7242780188
 30
0.0
 40
10.0
  1
19251000
  7
SEACAD_seiso_ttf
 11
5.9012241913
 21
46.7242780188
 31
0.0
100
AcDbText
 73
     3
  0
ENDSEC
  0
SECTION
  2
OBJECTS
  0
DICTIONARY
  5
C
330
0
100
AcDbDictionary
281
     1
  3
ACAD_GROUP
350
D
  3
ACAD_LAYOUT
350
1A
  3
ACAD_MLEADERSTYLE
350
1C9
  3
ACAD_MLINESTYLE
350
17
  3
ACAD_PLOTSETTINGS
350
19
  3
ACAD_PLOTSTYLENAME
350
E
  3
ACAD_SCALELIST
350
3B
  3
ACAD_TABLESTYLE
350
1C8
  3
ACAD_VISUALSTYLE
350
2A
  3
AcDbVariableDictionary
350
1C6
  0
DICTIONARY
  5
D
102
{ACAD_REACTORS
330
C
102
}
330
C
100
AcDbDictionary
281
     1
  0
DICTIONARY
  5
1A
102
{ACAD_REACTORS
330
C
102
}
330
C
100
AcDbDictionary
281
     1
  3
Layout1
350
1E
  3
Model
350
22
  0
DICTIONARY
  5
1C9
102
{ACAD_REACTORS
330
C
102
}
330
C
100
AcDbDictionary
281
     1
  0
DICTIONARY
  5
17
102
{ACAD_REACTORS
330
C
102
}
330
C
100
AcDbDictionary
281
     1
  3
Standard
350
18
  0
DICTIONARY
  5
19
102
{ACAD_REACTORS
330
C
102
}
330
C
100
AcDbDictionary
281
     1
  0
ACDBDICTIONARYWDFLT
  5
E
102
{ACAD_REACTORS
330
C
102
}
330
C
100
AcDbDictionary
281
     1
  3
Normal
350
F
100
AcDbDictionaryWithDefault
340
F
  0
DICTIONARY
  5
3B
102
{ACAD_REACTORS
330
C
102
}
330
C
100
AcDbDictionary
281
     1
  3
A0
350
3C
  3
A1
350
3D
  3
A2
350
3E
  3
A3
350
3F
  3
A4
350
40
  3
A5
350
41
  3
A6
350
42
  3
A7
350
43
  3
A8
350
44
  3
A9
350
45
  3
B0
350
46
  3
B1
350
47
  3
B2
350
48
  3
B3
350
49
  3
B4
350
4A
  3
B5
350
4B
  3
B6
350
4C
  3
B7
350
4D
  3
B8
350
4E
  3
B9
350
4F
  3
C0
350
50
  3
C1
350
51
  3
C2
350
52
  3
C3
350
53
  3
C4
350
54
  3
C5
350
55
  3
C6
350
56
  3
C7
350
57
  3
C8
350
58
  3
C9
350
59
  3
D0
350
5A
  3
D1
350
5B
  3
D2
350
5C
  0
DICTIONARY
  5
1C8
102
{ACAD_REACTORS
330
C
102
}
330
C
100
AcDbDictionary
281
     1
  0
DICTIONARY
  5
2A
102
{ACAD_REACTORS
330
C
102
}
330
C
100
AcDbDictionary
281
     1
  3
2dWireframe
350
2F
  3
3D Hidden
350
31
  3
3dWireframe
350
30
  3
Basic
350
32
  3
Brighten
350
36
  3
ColorChange
350
3A
  3
Conceptual
350
34
  3
Dim
350
35
  3
Facepattern
350
39
  3
Flat
350
2B
  3
FlatWithEdges
350
2C
  3
Gouraud
350
2D
  3
GouraudWithEdges
350
2E
  3
Linepattern
350
38
  3
Realistic
350
33
  3
Thicken
350
37
  0
DICTIONARY
  5
1C6
102
{ACAD_REACTORS
330
C
102
}
330
C
100
AcDbDictionary
281
     1
  3
CANNOSCALE
350
1C7
  3
PSOLHEIGHT
350
1CB
  3
PSOLWIDTH
350
1CA
  0
LAYOUT
  5
1E
102
{ACAD_REACTORS
330
1A
102
}
330
1A
100
AcDbPlotSettings
  1

  2
none_device
  4

  6

 40
0.0
 41
0.0
 42
0.0
 43
0.0
 44
0.0
 45
0.0
 46
0.0
 47
0.0
 48
0.0
 49
0.0
140
0.0
141
0.0
142
1.0
143
1.0
 70
   688
 72
     0
 73
     0
 74
     5
  7

 75
    16
147
1.0
148
0.0
149
0.0
100
AcDbLayout
  1
Layout1
 70
     1
 71
     1
 10
0.0
 20
0.0
 11
1682.0
 21
2378.0
 12
0.0
 22
0.0
 32
0.0
 14
0.0
 24
0.0
 34
0.0
 15
1682.0
 25
2378.0
 35
0.0
146
0.0
 13
0.0
 23
0.0
 33
0.0
 16
1.0
 26
0.0
 36
0.0
 17
0.0
 27
1.0
 37
0.0
 76
     0
330
1B
  0
LAYOUT
  5
22
102
{ACAD_REACTORS
330
1A
102
}
330
1A
100
AcDbPlotSettings
  1

  2
none_device
  4

  6

 40
0.0
 41
0.0
 42
0.0
 43
0.0
 44
0.0
 45
0.0
 46
0.0
 47
0.0
 48
0.0
 49
0.0
140
0.0
141
0.0
142
1.0
143
1.0
 70
  1712
 72
     0
 73
     0
 74
     0
  7

 75
     0
147
1.0
148
0.0
149
0.0
100
AcDbLayout
  1
Model
 70
     1
 71
     0
 10
0.0
 20
0.0
 11
1682.0
 21
2378.0
 12
0.0
 22
0.0
 32
0.0
 14
0.0
 24
0.0
 34
0.0
 15
1682.0
 25
2378.0
 35
0.0
146
0.0
 13
0.0
 23
0.0
 33
0.0
 16
1.0
 26
0.0
 36
0.0
 17
0.0
 27
1.0
 37
0.0
 76
     0
330
1F
331
29
  0
MLINESTYLE
  5
18
102
{ACAD_REACTORS
330
17
102
}
330
17
100
AcDbMlineStyle
  2
Standard
 70
     0
  3

 62
   256
 51
90.0
 52
90.0
 71
     2
 49
0.5
 62
   256
  6
BYLAYER
 49
-0.5
 62
   256
  6
BYLAYER
  0
ACDBPLACEHOLDER
  5
F
102
{ACAD_REACTORS
330
E
102
}
330
E
  0
SCALE
  5
3C
102
{ACAD_REACTORS
330
3B
102
}
330
3B
100
AcDbScale
 70
     0
300
1:1
140
1.0
141
1.0
290
     1
  0
SCALE
  5
3D
102
{ACAD_REACTORS
330
3B
102
}
330
3B
100
AcDbScale
 70
     0
300
1:2
140
1.0
141
2.0
290
     0
  0
SCALE
  5
3E
102
{ACAD_REACTORS
330
3B
102
}
330
3B
100
AcDbScale
 70
     0
300
1:4
140
1.0
141
4.0
290
     0
  0
SCALE
  5
3F
102
{ACAD_REACTORS
330
3B
102
}
330
3B
100
AcDbScale
 70
     0
300
1:5
140
1.0
141
5.0
290
     0
  0
SCALE
  5
40
102
{ACAD_REACTORS
330
3B
102
}
330
3B
100
AcDbScale
 70
     0
300
1:8
140
1.0
141
8.0
290
     0
  0
SCALE
  5
41
102
{ACAD_REACTORS
330
3B
102
}
330
3B
100
AcDbScale
 70
     0
300
1:10
140
1.0
141
10.0
290
     0
  0
SCALE
  5
42
102
{ACAD_REACTORS
330
3B
102
}
330
3B
100
AcDbScale
 70
     0
300
1:16
140
1.0
141
16.0
290
     0
  0
SCALE
  5
43
102
{ACAD_REACTORS
330
3B
102
}
330
3B
100
AcDbScale
 70
     0
300
1:20
140
1.0
141
20.0
290
     0
  0
SCALE
  5
44
102
{ACAD_REACTORS
330
3B
102
}
330
3B
100
AcDbScale
 70
     0
300
1:30
140
1.0
141
30.0
290
     0
  0
SCALE
  5
45
102
{ACAD_REACTORS
330
3B
102
}
330
3B
100
AcDbScale
 70
     0
300
1:40
140
1.0
141
40.0
290
     0
  0
SCALE
  5
46
102
{ACAD_REACTORS
330
3B
102
}
330
3B
100
AcDbScale
 70
     0
300
1:50
140
1.0
141
50.0
290
     0
  0
SCALE
  5
47
102
{ACAD_REACTORS
330
3B
102
}
330
3B
100
AcDbScale
 70
     0
300
1:100
140
1.0
141
100.0
290
     0
  0
SCALE
  5
48
102
{ACAD_REACTORS
330
3B
102
}
330
3B
100
AcDbScale
 70
     0
300
2:1
140
2.0
141
1.0
290
     0
  0
SCALE
  5
49
102
{ACAD_REACTORS
330
3B
102
}
330
3B
100
AcDbScale
 70
     0
300
4:1
140
4.0
141
1.0
290
     0
  0
SCALE
  5
4A
102
{ACAD_REACTORS
330
3B
102
}
330
3B
100
AcDbScale
 70
     0
300
8:1
140
8.0
141
1.0
290
     0
  0
SCALE
  5
4B
102
{ACAD_REACTORS
330
3B
102
}
330
3B
100
AcDbScale
 70
     0
300
10:1
140
10.0
141
1.0
290
     0
  0
SCALE
  5
4C
102
{ACAD_REACTORS
330
3B
102
}
330
3B
100
AcDbScale
 70
     0
300
100:1
140
100.0
141
1.0
290
     0
  0
SCALE
  5
4D
102
{ACAD_REACTORS
330
3B
102
}
330
3B
100
AcDbScale
 70
     0
300
1/128" = 1'-0"
140
0.0078125
141
12.0
290
     0
  0
SCALE
  5
4E
102
{ACAD_REACTORS
330
3B
102
}
330
3B
100
AcDbScale
 70
     0
300
1/64" = 1'-0"
140
0.015625
141
12.0
290
     0
  0
SCALE
  5
4F
102
{ACAD_REACTORS
330
3B
102
}
330
3B
100
AcDbScale
 70
     0
300
1/32" = 1'-0"
140
0.03125
141
12.0
290
     0
  0
SCALE
  5
50
102
{ACAD_REACTORS
330
3B
102
}
330
3B
100
AcDbScale
 70
     0
300
1/16" = 1'-0"
140
0.0625
141
12.0
290
     0
  0
SCALE
  5
51
102
{ACAD_REACTORS
330
3B
102
}
330
3B
100
AcDbScale
 70
     0
300
3/32" = 1'-0"
140
0.09375
141
12.0
290
     0
  0
SCALE
  5
52
102
{ACAD_REACTORS
330
3B
102
}
330
3B
100
AcDbScale
 70
     0
300
1/8" = 1'-0"
140
0.125
141
12.0
290
     0
  0
SCALE
  5
53
102
{ACAD_REACTORS
330
3B
102
}
330
3B
100
AcDbScale
 70
     0
300
3/16" = 1'-0"
140
0.1875
141
12.0
290
     0
  0
SCALE
  5
54
102
{ACAD_REACTORS
330
3B
102
}
330
3B
100
AcDbScale
 70
     0
300
1/4" = 1'-0"
140
0.25
141
12.0
290
     0
  0
SCALE
  5
55
102
{ACAD_REACTORS
330
3B
102
}
330
3B
100
AcDbScale
 70
     0
300
3/8" = 1'-0"
140
0.375
141
12.0
290
     0
  0
SCALE
  5
56
102
{ACAD_REACTORS
330
3B
102
}
330
3B
100
AcDbScale
 70
     0
300
1/2" = 1'-0"
140
0.5
141
12.0
290
     0
  0
SCALE
  5
57
102
{ACAD_REACTORS
330
3B
102
}
330
3B
100
AcDbScale
 70
     0
300
3/4" = 1'-0"
140
0.75
141
12.0
290
     0
  0
SCALE
  5
58
102
{ACAD_REACTORS
330
3B
102
}
330
3B
100
AcDbScale
 70
     0
300
1" = 1'-0"
140
1.0
141
12.0
290
     0
  0
SCALE
  5
59
102
{ACAD_REACTORS
330
3B
102
}
330
3B
100
AcDbScale
 70
     0
300
1-1/2" = 1'-0"
140
1.5
141
12.0
290
     0
  0
SCALE
  5
5A
102
{ACAD_REACTORS
330
3B
102
}
330
3B
100
AcDbScale
 70
     0
300
3" = 1'-0"
140
3.0
141
12.0
290
     0
  0
SCALE
  5
5B
102
{ACAD_REACTORS
330
3B
102
}
330
3B
100
AcDbScale
 70
     0
300
6" = 1'-0"
140
6.0
141
12.0
290
     0
  0
SCALE
  5
5C
102
{ACAD_REACTORS
330
3B
102
}
330
3B
100
AcDbScale
 70
     0
300
1'-0" = 1'-0"
140
12.0
141
12.0
290
     0
  0
VISUALSTYLE
  5
2F
102
{ACAD_REACTORS
330
2A
102
}
330
2A
100
AcDbVisualStyle
  2
2dWireframe
 70
     4
 71
     0
 72
     2
 73
     0
 90
        0
 40
-0.6
 41
-30.0
 62
     5
 63
     7
 74
     1
 91
        4
 64
     7
 65
   257
 75
     1
175
     1
 42
1.0
 92
        0
 66
   257
 43
1.0
 76
     1
 77
     6
 78
     2
 67
     7
 79
     5
170
     0
171
     0
290
     0
174
     0
 93
        1
 44
0.0
173
     0
291
     0
 45
0.0
1001
ACAD
1000
AcDbSavedByObjectVersion
1070
     0
  0
VISUALSTYLE
  5
31
102
{ACAD_REACTORS
330
2A
102
}
330
2A
100
AcDbVisualStyle
  2
3D Hidden
 70
     6
 71
     1
 72
     2
 73
     2
 90
        0
 40
-0.6
 41
-30.0
 62
     5
 63
     7
 74
     2
 91
        2
 64
     7
 65
   257
 75
     2
175
     1
 42
40.0
 92
        0
 66
   257
 43
1.0
 76
     1
 77
     6
 78
     2
 67
     7
 79
     3
170
     0
171
     0
290
     0
174
     0
 93
        1
 44
0.0
173
     0
291
     0
 45
0.0
1001
ACAD
1000
AcDbSavedByObjectVersion
1070
     0
  0
VISUALSTYLE
  5
30
102
{ACAD_REACTORS
330
2A
102
}
330
2A
100
AcDbVisualStyle
  2
3dWireframe
 70
     5
 71
     0
 72
     2
 73
     0
 90
        0
 40
-0.6
 41
-30.0
 62
     5
 63
     7
 74
     1
 91
        4
 64
     7
 65
   257
 75
     1
175
     1
 42
1.0
 92
        0
 66
   257
 43
1.0
 76
     1
 77
     6
 78
     2
 67
     7
 79
     5
170
     0
171
     0
290
     0
174
     0
 93
        1
 44
0.0
173
     0
291
     0
 45
0.0
1001
ACAD
1000
AcDbSavedByObjectVersion
1070
     0
  0
VISUALSTYLE
  5
32
102
{ACAD_REACTORS
330
2A
102
}
330
2A
100
AcDbVisualStyle
  2
Basic
 70
     7
 71
     1
 72
     0
 73
     1
 90
        0
 40
-0.6
 41
-30.0
 62
     5
 63
     7
 74
     0
 91
        4
 64
     7
 65
   257
 75
     1
175
     1
 42
1.0
 92
        8
 66
     7
 43
1.0
 76
     1
 77
     6
 78
     2
 67
     7
 79
     5
170
     0
171
     0
290
     0
174
     0
 93
        1
 44
0.0
173
     0
291
     1
 45
0.0
1001
ACAD
1000
AcDbSavedByObjectVersion
1070
     0
  0
VISUALSTYLE
  5
36
102
{ACAD_REACTORS
330
2A
102
}
330
2A
100
AcDbVisualStyle
  2
Brighten
 70
    12
 71
     2
 72
     2
 73
     0
 90
        0
 40
-0.6
 41
-30.0
 62
     5
 63
     7
 74
     1
 91
        4
 64
     7
 65
   257
 75
     1
175
     1
 42
1.0
 92
        8
 66
     7
 43
1.0
 76
     1
 77
     6
 78
     2
 67
     7
 79
     5
170
     0
171
     0
290
     0
174
     0
 93
        1
 44
50.0
173
     0
291
     1
 45
0.0
1001
ACAD
1000
AcDbSavedByObjectVersion
1070
     0
  0
VISUALSTYLE
  5
3A
102
{ACAD_REACTORS
330
2A
102
}
330
2A
100
AcDbVisualStyle
  2
ColorChange
 70
    16
 71
     2
 72
     2
 73
     3
 90
        0
 40
-0.6
 41
-30.0
 62
     5
 63
     8
 74
     1
 91
        4
 64
     7
 65
   257
 75
     1
175
     1
 42
1.0
 92
        8
 66
     8
 43
1.0
 76
     1
 77
     6
 78
     2
 67
     7
 79
     5
170
     0
171
     0
290
     0
174
     0
 93
        1
 44
0.0
173
     0
291
     1
 45
0.0
1001
ACAD
1000
AcDbSavedByObjectVersion
1070
     0
  0
VISUALSTYLE
  5
34
102
{ACAD_REACTORS
330
2A
102
}
330
2A
100
AcDbVisualStyle
  2
Conceptual
 70
     9
 71
     3
 72
     2
 73
     0
 90
        0
 40
-0.6
 41
-30.0
 62
     5
 63
     7
 74
     2
 91
        2
 64
     7
 65
   257
 75
     1
175
     1
 42
40.0
 92
        8
 66
     7
 43
1.0
 76
     1
 77
     6
 78
     2
 67
     7
 79
     3
170
     0
171
     0
290
     0
174
     0
 93
        1
 44
0.0
173
     0
291
     0
 45
0.0
1001
ACAD
1000
AcDbSavedByObjectVersion
1070
     0
  0
VISUALSTYLE
  5
35
102
{ACAD_REACTORS
330
2A
102
}
330
2A
100
AcDbVisualStyle
  2
Dim
 70
    11
 71
     2
 72
     2
 73
     0
 90
        0
 40
-0.6
 41
-30.0
 62
     5
 63
     7
 74
     1
 91
        4
 64
     7
 65
   257
 75
     1
175
     1
 42
1.0
 92
        8
 66
     7
 43
1.0
 76
     1
 77
     6
 78
     2
 67
     7
 79
     5
170
     0
171
     0
290
     0
174
     0
 93
        1
 44
-50.0
173
     0
291
     1
 45
0.0
1001
ACAD
1000
AcDbSavedByObjectVersion
1070
     0
  0
VISUALSTYLE
  5
39
102
{ACAD_REACTORS
330
2A
102
}
330
2A
100
AcDbVisualStyle
  2
Facepattern
 70
    15
 71
     2
 72
     2
 73
     0
 90
        0
 40
-0.6
 41
-30.0
 62
     5
 63
     7
 74
     1
 91
        4
 64
     7
 65
   257
 75
     1
175
     1
 42
1.0
 92
        8
 66
     7
 43
1.0
 76
     1
 77
     6
 78
     2
 67
     7
 79
     5
170
     0
171
     0
290
     0
174
     0
 93
        1
 44
0.0
173
     0
291
     1
 45
0.0
1001
ACAD
1000
AcDbSavedByObjectVersion
1070
     0
  0
VISUALSTYLE
  5
2B
102
{ACAD_REACTORS
330
2A
102
}
330
2A
100
AcDbVisualStyle
  2
Flat
 70
     0
 71
     2
 72
     1
 73
     1
 90
        2
 40
-0.6
 41
30.0
 62
     5
 63
     7
 74
     0
 91
        4
 64
     7
 65
   257
 75
     1
175
     1
 42
1.0
 92
        8
 66
     7
 43
1.0
 76
     1
 77
     6
 78
     2
 67
     7
 79
     5
170
     0
171
     0
290
     0
174
     0
 93
       13
 44
0.0
173
     0
291
     1
 45
0.0
1001
ACAD
1000
AcDbSavedByObjectVersion
1070
     0
  0
VISUALSTYLE
  5
2C
102
{ACAD_REACTORS
330
2A
102
}
330
2A
100
AcDbVisualStyle
  2
FlatWithEdges
 70
     1
 71
     2
 72
     1
 73
     1
 90
        2
 40
-0.6
 41
30.0
 62
     5
 63
     7
 74
     1
 91
        4
 64
     7
 65
   257
 75
     1
175
     1
 42
1.0
 92
        0
 66
   257
 43
1.0
 76
     1
 77
     6
 78
     2
 67
     7
 79
     5
170
     0
171
     0
290
     0
174
     0
 93
       13
 44
0.0
173
     0
291
     1
 45
0.0
1001
ACAD
1000
AcDbSavedByObjectVersion
1070
     0
  0
VISUALSTYLE
  5
2D
102
{ACAD_REACTORS
330
2A
102
}
330
2A
100
AcDbVisualStyle
  2
Gouraud
 70
     2
 71
     2
 72
     2
 73
     1
 90
        2
 40
-0.6
 41
30.0
 62
     5
 63
     7
 74
     0
 91
        4
 64
     7
 65
   257
 75
     1
175
     1
 42
1.0
 92
        0
 66
     7
 43
1.0
 76
     1
 77
     6
 78
     2
 67
     7
 79
     5
170
     0
171
     0
290
     0
174
     0
 93
       13
 44
0.0
173
     0
291
     1
 45
0.0
1001
ACAD
1000
AcDbSavedByObjectVersion
1070
     0
  0
VISUALSTYLE
  5
2E
102
{ACAD_REACTORS
330
2A
102
}
330
2A
100
AcDbVisualStyle
  2
GouraudWithEdges
 70
     3
 71
     2
 72
     2
 73
     1
 90
        2
 40
-0.6
 41
30.0
 62
     5
 63
     7
 74
     1
 91
        4
 64
     7
 65
   257
 75
     1
175
     1
 42
1.0
 92
        0
 66
   257
 43
1.0
 76
     1
 77
     6
 78
     2
 67
     7
 79
     5
170
     0
171
     0
290
     0
174
     0
 93
       13
 44
0.0
173
     0
291
     1
 45
0.0
1001
ACAD
1000
AcDbSavedByObjectVersion
1070
     0
  0
VISUALSTYLE
  5
38
102
{ACAD_REACTORS
330
2A
102
}
330
2A
100
AcDbVisualStyle
  2
Linepattern
 70
    14
 71
     2
 72
     2
 73
     0
 90
        0
 40
-0.6
 41
-30.0
 62
     5
 63
     7
 74
     1
 91
        4
 64
     7
 65
   257
 75
     7
175
     7
 42
1.0
 92
        8
 66
     7
 43
1.0
 76
     1
 77
     6
 78
     2
 67
     7
 79
     5
170
     0
171
     0
290
     0
174
     0
 93
        1
 44
0.0
173
     0
291
     1
 45
0.0
1001
ACAD
1000
AcDbSavedByObjectVersion
1070
     0
  0
VISUALSTYLE
  5
33
102
{ACAD_REACTORS
330
2A
102
}
330
2A
100
AcDbVisualStyle
  2
Realistic
 70
     8
 71
     2
 72
     2
 73
     0
 90
        0
 40
-0.6
 41
-30.0
 62
     5
 63
     7
 74
     1
 91
        0
 64
     7
 65
   257
 75
     1
175
     1
 42
1.0
 92
        8
 66
     8
 43
1.0
 76
     1
 77
     6
 78
     2
 67
     7
 79
     5
170
     0
171
     0
290
     0
174
     0
 93
       13
 44
0.0
173
     0
291
     0
 45
0.0
1001
ACAD
1000
AcDbSavedByObjectVersion
1070
     0
  0
VISUALSTYLE
  5
37
102
{ACAD_REACTORS
330
2A
102
}
330
2A
100
AcDbVisualStyle
  2
Thicken
 70
    13
 71
     2
 72
     2
 73
     0
 90
        0
 40
-0.6
 41
-30.0
 62
     5
 63
     7
 74
     1
 91
        4
 64
     7
 65
   257
 75
     1
175
     1
 42
1.0
 92
       12
 66
     7
 43
1.0
 76
     1
 77
     6
 78
     2
 67
     7
 79
     5
170
     0
171
     0
290
     0
174
     0
 93
        1
 44
0.0
173
     0
291
     1
 45
0.0
1001
ACAD
1000
AcDbSavedByObjectVersion
1070
     0
  0
DICTIONARYVAR
  5
1C7
102
{ACAD_REACTORS
330
1C6
102
}
330
1C6
100
DictionaryVariables
280
     0
  1
1:1
  0
DICTIONARYVAR
  5
1CB
102
{ACAD_REACTORS
330
1C6
102
}
330
1C6
100
DictionaryVariables
280
     0
  1
80.000000
  0
DICTIONARYVAR
  5
1CA
102
{ACAD_REACTORS
330
1C6
102
}
330
1C6
100
DictionaryVariables
280
     0
  1
5.000000
  0
ENDSEC
  0
EOF
