  0
SECTION
  2
HEADER
  9
$ACADVER
  1
AC1015
  9
$ACADMAINTVER
 70
     6
  9
$DWGCODEPAGE
  3
ANSI_1252
  9
$INSBASE
 10
0.0
 20
0.0
 30
0.0
  9
$EXTMIN
 10
0.0
 20
0.0
 30
0.0
  9
$EXTMAX
 10
1682.0
 20
2378.0
 30
0.0
  9
$LIMMIN
 10
0.0
 20
0.0
  9
$LIMMAX
 10
1682.0
 20
2378.0
  9
$ORTHOMODE
 70
     0
  9
$REGENMODE
 70
     1
  9
$FILLMODE
 70
     1
  9
$QTEXTMODE
 70
     0
  9
$MIRRTEXT
 70
     1
  9
$LTSCALE
 40
1.0
  9
$ATTMODE
 70
     1
  9
$TEXTSIZE
 40
2.5
  9
$TRACEWID
 40
1.0
  9
$TEXTSTYLE
  7
Standard
  9
$CLAYER
  8
0
  9
$CELTYPE
  6
ByLayer
  9
$CECOLOR
 62
   256
  9
$CELTSCALE
 40
1.0
  9
$DISPSILH
 70
     0
  9
$DIMSCALE
 40
1.0
  9
$DIMASZ
 40
2.5
  9
$DIMEXO
 40
0.625
  9
$DIMDLI
 40
3.75
  9
$DIMRND
 40
0.0
  9
$DIMDLE
 40
0.0
  9
$DIMEXE
 40
1.25
  9
$DIMTP
 40
0.0
  9
$DIMTM
 40
0.0
  9
$DIMTXT
 40
2.5
  9
$DIMCEN
 40
2.5
  9
$DIMTSZ
 40
0.0
  9
$DIMTOL
 70
     0
  9
$DIMLIM
 70
     0
  9
$DIMTIH
 70
     0
  9
$DIMTOH
 70
     0
  9
$DIMSE1
 70
     0
  9
$DIMSE2
 70
     0
  9
$DIMTAD
 70
     1
  9
$DIMZIN
 70
     8
  9
$DIMBLK
  1

  9
$DIMASO
 70
     1
  9
$DIMSHO
 70
     1
  9
$DIMPOST
  1

  9
$DIMAPOST
  1

  9
$DIMALT
 70
     0
  9
$DIMALTD
 70
     3
  9
$DIMALTF
 40
0.0393700787
  9
$DIMLFAC
 40
1.0
  9
$DIMTOFL
 70
     1
  9
$DIMTVP
 40
0.0
  9
$DIMTIX
 70
     0
  9
$DIMSOXD
 70
     0
  9
$DIMSAH
 70
     0
  9
$DIMBLK1
  1

  9
$DIMBLK2
  1

  9
$DIMSTYLE
  2
ISO-25
  9
$DIMCLRD
 70
     0
  9
$DIMCLRE
 70
     0
  9
$DIMCLRT
 70
     0
  9
$DIMTFAC
 40
1.0
  9
$DIMGAP
 40
0.625
  9
$DIMJUST
 70
     0
  9
$DIMSD1
 70
     0
  9
$DIMSD2
 70
     0
  9
$DIMTOLJ
 70
     0
  9
$DIMTZIN
 70
     8
  9
$DIMALTZ
 70
     0
  9
$DIMALTTZ
 70
     0
  9
$DIMUPT
 70
     0
  9
$DIMDEC
 70
     2
  9
$DIMTDEC
 70
     2
  9
$DIMALTU
 70
     2
  9
$DIMALTTD
 70
     3
  9
$DIMTXSTY
  7
Standard
  9
$DIMAUNIT
 70
     0
  9
$DIMADEC
 70
     0
  9
$DIMALTRND
 40
0.0
  9
$DIMAZIN
 70
     0
  9
$DIMDSEP
 70
    44
  9
$DIMATFIT
 70
     3
  9
$DIMFRAC
 70
     0
  9
$DIMLDRBLK
  1

  9
$DIMLUNIT
 70
     2
  9
$DIMLWD
 70
    -2
  9
$DIMLWE
 70
    -2
  9
$DIMTMOVE
 70
     0
  9
$LUNITS
 70
     2
  9
$LUPREC
 70
     4
  9
$SKETCHINC
 40
1.0
  9
$FILLETRAD
 40
10.0
  9
$AUNITS
 70
     0
  9
$AUPREC
 70
     0
  9
$MENU
  1
.
  9
$ELEVATION
 40
0.0
  9
$PELEVATION
 40
0.0
  9
$THICKNESS
 40
0.0
  9
$LIMCHECK
 70
     0
  9
$CHAMFERA
 40
10.0
  9
$CHAMFERB
 40
10.0
  9
$CHAMFERC
 40
20.0
  9
$CHAMFERD
 40
0.0
  9
$SKPOLY
 70
     0
  9
$TDCREATE
 40
2455512.660513577
  9
$TDUCREATE
 40
2455512.61884691
  9
$TDUPDATE
 40
2455512.660513588
  9
$TDUUPDATE
 40
2455512.618846921
  9
$TDINDWG
 40
0.0000000116
  9
$TDUSRTIMER
 40
0.0000000116
  9
$USRTIMER
 70
     1
  9
$ANGBASE
 50
0.0
  9
$ANGDIR
 70
     0
  9
$PDMODE
 70
     0
  9
$PDSIZE
 40
0.0
  9
$PLINEWID
 40
0.0
  9
$SPLFRAME
 70
     0
  9
$SPLINETYPE
 70
     6
  9
$SPLINESEGS
 70
     8
  9
$HANDSEED
  5
127
  9
$SURFTAB1
 70
     6
  9
$SURFTAB2
 70
     6
  9
$SURFTYPE
 70
     6
  9
$SURFU
 70
     6
  9
$SURFV
 70
     6
  9
$UCSBASE
  2

  9
$UCSNAME
  2

  9
$UCSORG
 10
0.0
 20
0.0
 30
0.0
  9
$UCSXDIR
 10
1.0
 20
0.0
 30
0.0
  9
$UCSYDIR
 10
0.0
 20
1.0
 30
0.0
  9
$UCSORTHOREF
  2

  9
$UCSORTHOVIEW
 70
     0
  9
$UCSORGTOP
 10
0.0
 20
0.0
 30
0.0
  9
$UCSORGBOTTOM
 10
0.0
 20
0.0
 30
0.0
  9
$UCSORGLEFT
 10
0.0
 20
0.0
 30
0.0
  9
$UCSORGRIGHT
 10
0.0
 20
0.0
 30
0.0
  9
$UCSORGFRONT
 10
0.0
 20
0.0
 30
0.0
  9
$UCSORGBACK
 10
0.0
 20
0.0
 30
0.0
  9
$PUCSBASE
  2

  9
$PUCSNAME
  2

  9
$PUCSORG
 10
0.0
 20
0.0
 30
0.0
  9
$PUCSXDIR
 10
1.0
 20
0.0
 30
0.0
  9
$PUCSYDIR
 10
0.0
 20
1.0
 30
0.0
  9
$PUCSORTHOREF
  2

  9
$PUCSORTHOVIEW
 70
     0
  9
$PUCSORGTOP
 10
0.0
 20
0.0
 30
0.0
  9
$PUCSORGBOTTOM
 10
0.0
 20
0.0
 30
0.0
  9
$PUCSORGLEFT
 10
0.0
 20
0.0
 30
0.0
  9
$PUCSORGRIGHT
 10
0.0
 20
0.0
 30
0.0
  9
$PUCSORGFRONT
 10
0.0
 20
0.0
 30
0.0
  9
$PUCSORGBACK
 10
0.0
 20
0.0
 30
0.0
  9
$USERI1
 70
     0
  9
$USERI2
 70
     0
  9
$USERI3
 70
     0
  9
$USERI4
 70
     0
  9
$USERI5
 70
     0
  9
$USERR1
 40
0.0
  9
$USERR2
 40
0.0
  9
$USERR3
 40
0.0
  9
$USERR4
 40
0.0
  9
$USERR5
 40
0.0
  9
$WORLDVIEW
 70
     1
  9
$SHADEDGE
 70
     3
  9
$SHADEDIF
 70
    70
  9
$TILEMODE
 70
     1
  9
$MAXACTVP
 70
    64
  9
$PINSBASE
 10
0.0
 20
0.0
 30
0.0
  9
$PLIMCHECK
 70
     0
  9
$PEXTMIN
 10
0.0
 20
0.0
 30
0.0
  9
$PEXTMAX
 10
1682.0
 20
2378.0
 30
0.0
  9
$PLIMMIN
 10
0.0
 20
0.0
  9
$PLIMMAX
 10
1682.0
 20
2378.0
  9
$UNITMODE
 70
     0
  9
$VISRETAIN
 70
     1
  9
$PLINEGEN
 70
     0
  9
$PSLTSCALE
 70
     1
  9
$TREEDEPTH
 70
  3020
  9
$CMLSTYLE
  2
Standard
  9
$CMLJUST
 70
     0
  9
$CMLSCALE
 40
20.0
  9
$PROXYGRAPHICS
 70
     1
  9
$MEASUREMENT
 70
     1
  9
$CELWEIGHT
370
    -1
  9
$ENDCAPS
280
     0
  9
$JOINSTYLE
280
     0
  9
$LWDISPLAY
290
     0
  9
$INSUNITS
 70
     4
  9
$HYPERLINKBASE
  1

  9
$STYLESHEET
  1

  9
$XEDIT
290
     1
  9
$CEPSNTYPE
380
     0
  9
$PSTYLEMODE
290
     1
  9
$FINGERPRINTGUID
  2
{0CF752AE-4DDF-475C-B045-733C19BB8F37}
  9
$VERSIONGUID
  2
{FAEB1C32-E019-11D5-929B-00C0DF256EC4}
  9
$EXTNAMES
290
     1
  9
$PSVPSCALE
 40
0.0
  9
$OLESTARTUP
290
     0
  0
ENDSEC
  0
SECTION
  2
CLASSES
  0
CLASS
  1
ACDBDICTIONARYWDFLT
  2
AcDbDictionaryWithDefault
  3
ObjectDBX Classes
 90
        0
280
     0
281
     0
  0
CLASS
  1
VISUALSTYLE
  2
AcDbVisualStyle
  3
ObjectDBX Classes
 90
     4095
280
     0
281
     0
  0
CLASS
  1
SCALE
  2
AcDbScale
  3
ObjectDBX Classes
 90
     1153
280
     0
281
     0
  0
CLASS
  1
DICTIONARYVAR
  2
AcDbDictionaryVar
  3
ObjectDBX Classes
 90
        0
280
     0
281
     0
  0
CLASS
  1
ACDBPLACEHOLDER
  2
AcDbPlaceHolder
  3
ObjectDBX Classes
 90
        0
280
     0
281
     0
  0
CLASS
  1
LAYOUT
  2
AcDbLayout
  3
ObjectDBX Classes
 90
        0
280
     0
281
     0
  0
ENDSEC
  0
SECTION
  2
TABLES
  0
TABLE
  2
VPORT
  5
8
330
0
100
AcDbSymbolTable
 70
     1
  0
VPORT
  5
29
330
8
100
AcDbSymbolTableRecord
100
AcDbViewportTableRecord
  2
*Active
 70
     0
 10
0.0
 20
0.0
 11
1.0
 21
1.0
 12
344.1869158879
 22
148.5
 13
0.0
 23
0.0
 14
10.0
 24
10.0
 15
10.0
 25
10.0
 16
0.0
 26
0.0
 36
1.0
 17
0.0
 27
0.0
 37
0.0
 40
297.0
 41
1.9729729729
 42
50.0
 43
0.0
 44
0.0
 50
0.0
 51
0.0
 71
     0
 72
   100
 73
     1
 74
     3
 75
     0
 76
     0
 77
     0
 78
     0
281
     0
 65
     1
110
0.0
120
0.0
130
0.0
111
1.0
121
0.0
131
0.0
112
0.0
122
1.0
132
0.0
 79
     0
146
0.0
  0
ENDTAB
  0
TABLE
  2
LTYPE
  5
5
330
0
100
AcDbSymbolTable
 70
     2
  0
LTYPE
  5
14
330
5
100
AcDbSymbolTableRecord
100
AcDbLinetypeTableRecord
  2
ByBlock
 70
     0
  3

 72
    65
 73
     0
 40
0.0
  0
LTYPE
  5
15
330
5
100
AcDbSymbolTableRecord
100
AcDbLinetypeTableRecord
  2
ByLayer
 70
     0
  3

 72
    65
 73
     0
 40
0.0
  0
LTYPE
  5
16
330
5
100
AcDbSymbolTableRecord
100
AcDbLinetypeTableRecord
  2
Continuous
 70
     0
  3
Solid line
 72
    65
 73
     0
 40
0.0
  0
LTYPE
  5
60
330
5
100
AcDbSymbolTableRecord
100
AcDbLinetypeTableRecord
  2
CENTER2
 70
     0
  3
Center (.5x) ___ _ ___ _ ___ _ ___ _ ___ _ ___
 72
    65
 73
     4
 40
28.575
 49
19.05
 74
     4
 75
     0
340
0
 46
0.0
 50
0.0
 44
0.0
 45
0.0
 49
-3.175
 74
     4
 75
     0
340
0
 46
0.0
 50
0.0
 44
0.0
 45
0.0
 49
3.175
 74
     4
 75
     0
340
0
 46
0.0
 50
0.0
 44
0.0
 45
0.0
 49
-3.175
 74
     4
 75
     0
340
0
 46
0.0
 50
0.0
 44
0.0
 45
0.0
  0
ENDTAB
  0
TABLE
  2
LAYER
  5
2
330
0
100
AcDbSymbolTable
 70
     7
  0
LAYER
  5
10
330
2
100
AcDbSymbolTableRecord
100
AcDbLayerTableRecord
  2
0
 70
     0
 62
     7
  6
Continuous
370
    -3
390
F
  0
LAYER
  5
5D
330
2
100
AcDbSymbolTableRecord
100
AcDbLayerTableRecord
  2
Default
 70
     0
 62
     7
  6
Continuous
370
    -3
390
F
  0
LAYER
  5
77
330
2
100
AcDbSymbolTableRecord
100
AcDbLayerTableRecord
  2
$DDT_AUDIT_GENERATED_(77)
 70
     0
 62
     7
  6
Continuous
370
    -3
390
F
  0
LAYER
  5
7F
330
2
100
AcDbSymbolTableRecord
100
AcDbLayerTableRecord
  2
$DDT_AUDIT_GENERATED_(7F)
 70
     0
 62
     7
  6
Continuous
370
    -3
390
F
  0
LAYER
  5
A7
330
2
100
AcDbSymbolTableRecord
100
AcDbLayerTableRecord
  2
$DDT_AUDIT_GENERATED_(A7)
 70
     0
 62
     7
  6
Continuous
370
    -3
390
F
  0
LAYER
  5
A9
330
2
100
AcDbSymbolTableRecord
100
AcDbLayerTableRecord
  2
$DDT_AUDIT_GENERATED_(A9)
 70
     0
 62
     7
  6
Continuous
370
    -3
390
F
  0
LAYER
  5
B9
330
2
100
AcDbSymbolTableRecord
100
AcDbLayerTableRecord
  2
$DDT_AUDIT_GENERATED_(B9)
 70
     0
 62
     7
  6
Continuous
370
    -3
390
F
  0
ENDTAB
  0
TABLE
  2
STYLE
  5
3
330
0
100
AcDbSymbolTable
 70
     2
  0
STYLE
  5
11
330
3
100
AcDbSymbolTableRecord
100
AcDbTextStyleTableRecord
  2
Standard
 70
     0
 40
0.0
 41
1.0
 50
0.0
 71
     0
 42
2.5
  3
txt
  4

  0
STYLE
  5
116
330
3
100
AcDbSymbolTableRecord
100
AcDbTextStyleTableRecord
  2
SEACAD_seiso_ttf
 70
     0
 40
0.0
 41
1.0
 50
0.0
 71
     0
 42
0.2
  3
seiso.ttf
  4

  0
ENDTAB
  0
TABLE
  2
VIEW
  5
6
330
0
100
AcDbSymbolTable
 70
     0
  0
ENDTAB
  0
TABLE
  2
UCS
  5
7
330
0
100
AcDbSymbolTable
 70
     0
  0
ENDTAB
  0
TABLE
  2
APPID
  5
9
330
0
100
AcDbSymbolTable
 70
     1
  0
APPID
  5
12
330
9
100
AcDbSymbolTableRecord
100
AcDbRegAppTableRecord
  2
ACAD
 70
     0
  0
ENDTAB
  0
TABLE
  2
DIMSTYLE
  5
A
330
0
100
AcDbSymbolTable
 70
     1
100
AcDbDimStyleTable
  0
DIMSTYLE
105
27
330
A
100
AcDbSymbolTableRecord
100
AcDbDimStyleTableRecord
  2
ISO-25
 70
     0
 41
2.5
 42
0.625
 43
3.75
 44
1.25
 73
     0
 74
     0
 77
     1
 78
     8
140
2.5
141
2.5
143
0.0393700787
147
0.625
171
     3
172
     1
271
     2
272
     2
274
     3
278
    44
283
     0
284
     8
340
11
  0
ENDTAB
  0
TABLE
  2
BLOCK_RECORD
  5
1
330
0
100
AcDbSymbolTable
 70
     7
  0
BLOCK_RECORD
  5
1F
330
1
100
AcDbSymbolTableRecord
100
AcDbBlockTableRecord
  2
*Model_Space
340
22
  0
BLOCK_RECORD
  5
1B
330
1
100
AcDbSymbolTableRecord
100
AcDbBlockTableRecord
  2
*Paper_Space
340
1E
  0
BLOCK_RECORD
  5
5E
330
1
100
AcDbSymbolTableRecord
100
AcDbBlockTableRecord
  2
SEANNOT_GROUP
340
0
102
{BLKREFS
331
5F
102
}
  0
BLOCK_RECORD
  5
69
330
1
100
AcDbSymbolTableRecord
100
AcDbBlockTableRecord
  2
SEANNOT_GROUP1
340
0
102
{BLKREFS
331
6A
102
}
  0
BLOCK_RECORD
  5
6F
330
1
100
AcDbSymbolTableRecord
100
AcDbBlockTableRecord
  2
SEANNOT_GROUP2
340
0
102
{BLKREFS
331
70
102
}
  0
BLOCK_RECORD
  5
75
330
1
100
AcDbSymbolTableRecord
100
AcDbBlockTableRecord
  2
SE
340
0
102
{BLKREFS
331
76
102
}
  0
BLOCK_RECORD
  5
AD
330
1
100
AcDbSymbolTableRecord
100
AcDbBlockTableRecord
  2
SE1
340
0
102
{BLKREFS
331
AE
102
}
  0
BLOCK_RECORD
  5
E1
330
1
100
AcDbSymbolTableRecord
100
AcDbBlockTableRecord
  2
SE2
340
0
102
{BLKREFS
331
E2
102
}
  0
ENDTAB
  0
ENDSEC
  0
SECTION
  2
BLOCKS
  0
BLOCK
  5
20
330
1F
100
AcDbEntity
  8
0
100
AcDbBlockBegin
  2
*Model_Space
 70
     0
 10
0.0
 20
0.0
 30
0.0
  3
*Model_Space
  1

  0
ENDBLK
  5
21
330
1F
100
AcDbEntity
  8
0
100
AcDbBlockEnd
  0
BLOCK
  5
1C
330
1B
100
AcDbEntity
 67
     1
  8
0
100
AcDbBlockBegin
  2
*Paper_Space
 70
     0
 10
0.0
 20
0.0
 30
0.0
  3
*Paper_Space
  1

  0
ENDBLK
  5
1D
330
1B
100
AcDbEntity
 67
     1
  8
0
100
AcDbBlockEnd
  0
BLOCK
  5
67
330
5E
100
AcDbEntity
  8
0
100
AcDbBlockBegin
  2
SEANNOT_GROUP
 70
     0
 10
0.0
 20
0.0
 30
0.0
  3
SEANNOT_GROUP
  1

  0
LINE
  5
61
330
5E
100
AcDbEntity
  8
Default
  6
CENTER2
 62
     7
100
AcDbLine
 10
133.6693312142
 20
390.7444614701
 30
0.0
 11
93.6693321082
 21
390.7444614701
 31
0.0
  0
LINE
  5
62
330
5E
100
AcDbEntity
  8
Default
  6
CENTER2
 62
     7
100
AcDbLine
 10
113.6693316612
 20
410.7444610231
 30
0.0
 11
113.6693316612
 21
370.7444619172
 31
0.0
  0
LINE
  5
63
330
5E
100
AcDbEntity
  8
Default
  6
CENTER2
 62
     7
100
AcDbLine
 10
138.6693311024
 20
390.7444614701
 30
0.0
 11
135.1693316612
 21
390.7444614701
 31
0.0
  0
LINE
  5
64
330
5E
100
AcDbEntity
  8
Default
  6
CENTER2
 62
     7
100
AcDbLine
 10
113.6693316612
 20
415.7444609113
 30
0.0
 11
113.6693316612
 21
412.2444614701
 31
0.0
  0
LINE
  5
65
330
5E
100
AcDbEntity
  8
Default
  6
CENTER2
 62
     7
100
AcDbLine
 10
88.66933222
 20
390.7444614701
 30
0.0
 11
92.1693316612
 21
390.7444614701
 31
0.0
  0
LINE
  5
66
330
5E
100
AcDbEntity
  8
Default
  6
CENTER2
 62
     7
100
AcDbLine
 10
113.6693316612
 20
365.7444620289
 30
0.0
 11
113.6693316612
 21
369.2444614701
 31
0.0
  0
ENDBLK
  5
68
330
5E
100
AcDbEntity
  8
0
100
AcDbBlockEnd
  0
BLOCK
  5
6D
330
69
100
AcDbEntity
  8
0
100
AcDbBlockBegin
  2
SEANNOT_GROUP1
 70
     0
 10
0.0
 20
0.0
 30
0.0
  3
SEANNOT_GROUP1
  1

  0
LINE
  5
6B
330
69
100
AcDbEntity
  8
Default
  6
CENTER2
 62
     7
100
AcDbLine
 10
276.1707185824
 20
390.7444614701
 30
0.0
 11
236.1707194764
 21
390.7444614701
 31
0.0
  0
LINE
  5
6C
330
69
100
AcDbEntity
  8
Default
  6
CENTER2
 62
     7
100
AcDbLine
 10
256.1707190294
 20
410.7444610231
 30
0.0
 11
256.1707190294
 21
370.7444619172
 31
0.0
  0
ENDBLK
  5
6E
330
69
100
AcDbEntity
  8
0
100
AcDbBlockEnd
  0
BLOCK
  5
73
330
6F
100
AcDbEntity
  8
0
100
AcDbBlockBegin
  2
SEANNOT_GROUP2
 70
     0
 10
0.0
 20
0.0
 30
0.0
  3
SEANNOT_GROUP2
  1

  0
LINE
  5
71
330
6F
100
AcDbEntity
  8
Default
  6
CENTER2
 62
     7
100
AcDbLine
 10
133.6693312142
 20
199.0150198136
 30
0.0
 11
93.6693321082
 21
199.0150198136
 31
0.0
  0
LINE
  5
72
330
6F
100
AcDbEntity
  8
Default
  6
CENTER2
 62
     7
100
AcDbLine
 10
113.6693316612
 20
219.0150193666
 30
0.0
 11
113.6693316612
 21
179.0150202607
 31
0.0
  0
ENDBLK
  5
74
330
6F
100
AcDbEntity
  8
0
100
AcDbBlockEnd
  0
BLOCK
  5
AB
330
75
100
AcDbEntity
  8
0
100
AcDbBlockBegin
  2
SE
 70
     0
 10
0.0
 20
0.0
 30
0.0
  3
SE
  1

  0
LINE
  5
78
330
75
100
AcDbEntity
  8
$DDT_AUDIT_GENERATED_(77)
  6
Continuous
 62
     7
100
AcDbLine
 10
91.6693316612
 20
413.7444614701
 30
0.0
 11
135.6693316612
 21
413.7444614701
 31
0.0
  0
ARC
  5
79
330
75
100
AcDbEntity
  8
$DDT_AUDIT_GENERATED_(77)
  6
Continuous
 62
     7
100
AcDbCircle
 10
91.6693316612
 20
412.7444614701
 30
0.0
 40
1.000000000000001
100
AcDbArc
 50
90.0
 51
180.0
  0
ARC
  5
7A
330
75
100
AcDbEntity
  8
$DDT_AUDIT_GENERATED_(77)
  6
Continuous
 62
     7
100
AcDbCircle
 10
135.6693316612
 20
368.7444614701
 30
0.0
 40
1.000000000000001
100
AcDbArc
 50
330.1254240697
 51
0.0
  0
LINE
  5
7B
330
75
100
AcDbEntity
  8
$DDT_AUDIT_GENERATED_(77)
  6
Continuous
 62
     7
100
AcDbLine
 10
90.6693316612
 20
368.7444614701
 30
0.0
 11
90.6693316612
 21
412.7444614701
 31
0.0
  0
ARC
  5
7C
330
75
100
AcDbEntity
  8
$DDT_AUDIT_GENERATED_(77)
  6
Continuous
 62
     7
100
AcDbCircle
 10
91.6693316612
 20
368.7444614701
 30
0.0
 40
1.000000000000001
100
AcDbArc
 50
180.0
 51
209.8745759303
  0
LINE
  5
7D
330
75
100
AcDbEntity
  8
$DDT_AUDIT_GENERATED_(77)
  6
Continuous
 62
     7
100
AcDbLine
 10
136.6693316612
 20
412.7444614701
 30
0.0
 11
136.6693316612
 21
368.7444614701
 31
0.0
  0
ARC
  5
7E
330
75
100
AcDbEntity
  8
$DDT_AUDIT_GENERATED_(77)
  6
Continuous
 62
     7
100
AcDbCircle
 10
135.6693316612
 20
412.7444614701
 30
0.0
 40
1.000000000000001
100
AcDbArc
 50
0.0
 51
90.0
  0
LINE
  5
80
330
75
100
AcDbEntity
  8
$DDT_AUDIT_GENERATED_(7F)
  6
Continuous
 62
     7
100
AcDbLine
 10
192.6693316612
 20
284.8004574943
 30
0.0
 11
192.6693316612
 21
342.8041558647
 31
0.0
  0
ELLIPSE
  5
81
330
75
100
AcDbEntity
  8
$DDT_AUDIT_GENERATED_(7F)
  6
Continuous
 62
     7
100
AcDbEllipse
 10
180.6693316612
 20
342.8041558647
 30
0.0
 11
12.00000000000001
 21
-1.387778780781446E-14
 31
0.0
210
0.0
220
0.0
230
1.0
 40
0.906307787
 41
0.0000000000000013
 42
0.182697320273981
  0
ELLIPSE
  5
82
330
75
100
AcDbEntity
  8
$DDT_AUDIT_GENERATED_(7F)
  6
Continuous
 62
     7
100
AcDbEllipse
 10
180.6693316612
 20
284.8004574943
 30
0.0
 11
-11.99999999999998
 21
1.387778780781446E-14
 31
0.0
210
0.0
220
0.0
230
1.0
 40
0.906307787
 41
3.015488156933821
 42
3.141592653589789
  0
ELLIPSE
  5
83
330
75
100
AcDbEntity
  8
$DDT_AUDIT_GENERATED_(7F)
  6
Continuous
 62
     7
100
AcDbEllipse
 10
46.6693316612
 20
342.8041558647
 30
0.0
 11
11.99999999999999
 21
2.775557561562892E-14
 31
0.0
210
0.0
220
0.0
230
1.0
 40
0.906307787
 41
3.015488156933784
 42
3.141592653589793
  0
ELLIPSE
  5
84
330
75
100
AcDbEntity
  8
$DDT_AUDIT_GENERATED_(7F)
  6
Continuous
 62
     7
100
AcDbEllipse
 10
46.6693316612
 20
284.8004574943
 30
0.0
 11
-12.00000000000001
 21
1.387778780781446E-14
 31
0.0
210
0.0
220
0.0
230
1.0
 40
0.906307787
 41
0.0
 42
0.182697320273981
  0
LINE
  5
85
330
75
100
AcDbEntity
  8
$DDT_AUDIT_GENERATED_(7F)
  6
Continuous
 62
     7
100
AcDbLine
 10
34.6693316612
 20
342.8041558647
 30
0.0
 11
34.6693316612
 21
284.8004574943
 31
0.0
  0
ELLIPSE
  5
86
330
75
100
AcDbEntity
  8
$DDT_AUDIT_GENERATED_(7F)
  6
Continuous
 62
     7
100
AcDbEllipse
 10
180.6693316612
 20
282.8564134903
 30
0.0
 11
-28.00000000000002
 21
-1.249000902703301E-13
 31
0.0
210
0.0
220
0.0
230
1.0
 40
0.906307787
 41
2.746099656024318
 42
3.141592653589793
  0
LINE
  5
87
330
75
100
AcDbEntity
  8
$DDT_AUDIT_GENERATED_(7F)
  6
Continuous
 62
     7
100
AcDbLine
 10
18.6693316612
 20
282.8564134903
 30
0.0
 11
18.6693316612
 21
284.8004574943
 31
0.0
  0
ELLIPSE
  5
88
330
75
100
AcDbEntity
  8
$DDT_AUDIT_GENERATED_(7F)
  6
Continuous
 62
     7
100
AcDbEllipse
 10
46.6693316612
 20
282.8564134903
 30
0.0
 11
-28.0
 21
1.110223024625156E-13
 31
0.0
210
0.0
220
0.0
230
1.0
 40
0.906307787
 41
0.0000000000000044
 42
0.4043870658836897
  0
ELLIPSE
  5
89
330
75
100
AcDbEntity
  8
$DDT_AUDIT_GENERATED_(7F)
  6
Continuous
 62
     7
100
AcDbEllipse
 10
180.6693316612
 20
342.8041558647
 30
0.0
 11
-28.0
 21
6.245004513516506E-14
 31
0.0
210
0.0
220
0.0
230
1.0
 40
0.906307787
 41
3.141592653589795
 42
3.538246398728287
  0
LINE
  5
8A
330
75
100
AcDbEntity
  8
$DDT_AUDIT_GENERATED_(7F)
  6
Continuous
 62
     7
100
AcDbLine
 10
208.6693316612
 20
284.8004574943
 30
0.0
 11
208.6693316612
 21
282.8564134903
 31
0.0
  0
LINE
  5
8B
330
75
100
AcDbEntity
  8
$DDT_AUDIT_GENERATED_(7F)
  6
Continuous
 62
     7
100
AcDbLine
 10
208.6693316612
 20
342.8041558647
 30
0.0
 11
208.6693316612
 21
284.8004574943
 31
0.0
  0
ELLIPSE
  5
8C
330
75
100
AcDbEntity
  8
$DDT_AUDIT_GENERATED_(7F)
  6
Continuous
 62
     7
100
AcDbEllipse
 10
180.6693316612
 20
284.8004574943
 30
0.0
 11
28.0
 21
5.551115123125782E-14
 31
0.0
210
0.0
220
0.0
230
1.0
 40
0.906307787
 41
5.879780086877536
 42
6.283185307179584
  0
LINE
  5
8D
330
75
100
AcDbEntity
  8
$DDT_AUDIT_GENERATED_(7F)
  6
Continuous
 62
     7
100
AcDbLine
 10
121.9693316612
 20
374.7722981852
 30
0.0
 11
121.9693316612
 21
369.7444614701
 31
0.0
  0
LINE
  5
8E
330
75
100
AcDbEntity
  8
$DDT_AUDIT_GENERATED_(7F)
  6
Continuous
 62
     7
100
AcDbLine
 10
121.9693316612
 20
369.7444614701
 30
0.0
 11
121.9693316612
 21
369.1452751135
 31
0.0
  0
ELLIPSE
  5
8F
330
75
100
AcDbEntity
  8
$DDT_AUDIT_GENERATED_(7F)
  6
Continuous
 62
     7
100
AcDbEllipse
 10
46.6693316612
 20
284.8004574943
 30
0.0
 11
28.0
 21
5.551115123125782E-14
 31
0.0
210
0.0
220
0.0
230
1.0
 40
0.906307787
 41
3.141592653589791
 42
3.538246398728242
  0
LINE
  5
90
330
75
100
AcDbEntity
  8
$DDT_AUDIT_GENERATED_(7F)
  6
Continuous
 62
     7
100
AcDbLine
 10
18.6693316612
 20
284.8004574943
 30
0.0
 11
18.6693316612
 21
342.8041558647
 31
0.0
  0
ELLIPSE
  5
91
330
75
100
AcDbEntity
  8
$DDT_AUDIT_GENERATED_(7F)
  6
Continuous
 62
     7
100
AcDbEllipse
 10
46.6693316612
 20
342.8041558647
 30
0.0
 11
-28.00000000000002
 21
6.245004513516506E-14
 31
0.0
210
0.0
220
0.0
230
1.0
 40
0.906307787
 41
5.879780086877531
 42
6.283185307179586
  0
LINE
  5
92
330
75
100
AcDbEntity
  8
$DDT_AUDIT_GENERATED_(7F)
  6
Continuous
 62
     7
100
AcDbLine
 10
105.3693316612
 20
369.1452751135
 30
0.0
 11
105.3693316612
 21
369.7444614701
 31
0.0
  0
LINE
  5
93
330
75
100
AcDbEntity
  8
$DDT_AUDIT_GENERATED_(7F)
  6
Continuous
 62
     7
100
AcDbLine
 10
105.3693316612
 20
369.7444614701
 30
0.0
 11
105.3693316612
 21
374.7722981852
 31
0.0
  0
ELLIPSE
  5
94
330
75
100
AcDbEntity
  8
$DDT_AUDIT_GENERATED_(7F)
  6
Continuous
 62
     7
100
AcDbEllipse
 10
180.6693316612
 20
340.8601118607
 30
0.0
 11
-12.0
 21
-6.938893903907229E-15
 31
0.0
210
0.0
220
0.0
230
1.0
 40
0.906307787
 41
3.141592653589793
 42
3.268192808271339
  0
ELLIPSE
  5
95
330
75
100
AcDbEntity
  8
$DDT_AUDIT_GENERATED_(7F)
  6
Continuous
 62
     7
100
AcDbEllipse
 10
46.6693316612
 20
340.8601118607
 30
0.0
 11
-12.0
 21
2.775557561562891E-14
 31
0.0
210
0.0
220
0.0
230
1.0
 40
0.906307787
 41
6.101597792564067
 42
6.283185307179586
  0
ARC
  5
96
330
75
100
AcDbEntity
  8
$DDT_AUDIT_GENERATED_(7F)
  6
Continuous
 62
     7
100
AcDbCircle
 10
46.2413882765
 20
285.6959547517
 30
0.0
 40
11.71342609757002
100
AcDbArc
 50
194.0565785113
 51
272.0937347864
  0
LINE
  5
97
330
75
100
AcDbEntity
  8
$DDT_AUDIT_GENERATED_(7F)
  6
Continuous
 62
     7
100
AcDbLine
 10
180.6693316612
 20
273.990348599
 30
0.0
 11
46.6693316612
 21
273.990348599
 31
0.0
  0
ARC
  5
98
330
75
100
AcDbEntity
  8
$DDT_AUDIT_GENERATED_(7F)
  6
Continuous
 62
     7
100
AcDbCircle
 10
181.1362403671
 20
285.612375071
 30
0.0
 40
11.63140159471093
100
AcDbArc
 50
267.6994098372
 51
349.294670624
  0
ARC
  5
99
330
75
100
AcDbEntity
  8
$DDT_AUDIT_GENERATED_(7F)
  6
Continuous
 62
     7
100
AcDbCircle
 10
46.0820371706
 20
285.6047899253
 30
0.0
 40
28.19669591215603
100
AcDbArc
 50
206.951733905
 51
271.1934706544
  0
LINE
  5
9A
330
75
100
AcDbEntity
  8
$DDT_AUDIT_GENERATED_(7F)
  6
Continuous
 62
     7
100
AcDbLine
 10
46.6693316612
 20
257.4142109042
 30
0.0
 11
180.6693316612
 21
257.4142109042
 31
0.0
  0
ARC
  5
9B
330
75
100
AcDbEntity
  8
$DDT_AUDIT_GENERATED_(7F)
  6
Continuous
 62
     7
100
AcDbCircle
 10
181.2755886611
 20
285.5591017693
 30
0.0
 40
28.15141966860306
100
AcDbArc
 50
268.7660070666
 51
333.5845396867
  0
ARC
  5
9C
330
75
100
AcDbEntity
  8
$DDT_AUDIT_GENERATED_(7F)
  6
Continuous
 62
     7
100
AcDbCircle
 10
104.5649714013
 20
369.1132028498
 30
0.0
 40
0.803144057976084
100
AcDbArc
 50
321.9327571738
 51
2.308200191
  0
ARC
  5
9D
330
75
100
AcDbEntity
  8
$DDT_AUDIT_GENERATED_(7F)
  6
Continuous
 62
     7
100
AcDbCircle
 10
104.389096505
 20
369.3106596946
 30
0.0
 40
1.064484751699885
100
AcDbArc
 50
268.9360982322
 51
319.4709488783
  0
LINE
  5
9E
330
75
100
AcDbEntity
  8
$DDT_AUDIT_GENERATED_(7F)
  6
Continuous
 62
     7
100
AcDbLine
 10
104.3693316612
 20
368.2463584508
 30
0.0
 11
46.6693316612
 21
368.2463584508
 31
0.0
  0
ARC
  5
9F
330
75
100
AcDbEntity
  8
$DDT_AUDIT_GENERATED_(7F)
  6
Continuous
 62
     7
100
AcDbCircle
 10
46.0744853826
 20
340.0764212083
 30
0.0
 40
28.17621703390201
100
AcDbArc
 50
88.7903019969
 51
153.129314452
  0
SPLINE
  5
A0
330
75
100
AcDbEntity
  8
$DDT_AUDIT_GENERATED_(7F)
  6
Continuous
 62
     7
100
AcDbSpline
210
0.0
220
0.0
230
1.0
 70
     8
 71
     3
 72
    10
 73
     6
 74
     0
 42
0.0000000149204653
 43
0.0000000001
 40
0.0
 40
0.0
 40
0.0
 40
0.0
 40
0.2201534053084784
 40
0.618604873959278
 40
1.0
 40
1.0
 40
1.0
 40
1.0
 10
122.1510780994567
 20
368.6268772440905
 30
0.0
 10
122.1179207912228
 20
368.662496259496
 30
0.0
 10
122.0395850820104
 20
368.7494337273419
 30
0.0
 10
121.9712412879519
 20
368.9698308126425
 30
0.0
 10
121.9710947280675
 20
369.1431338821059
 30
0.0
 10
121.9737028646811
 20
369.2435795688965
 30
0.0
  0
ARC
  5
A1
330
75
100
AcDbEntity
  8
$DDT_AUDIT_GENERATED_(7F)
  6
Continuous
 62
     7
100
AcDbCircle
 10
122.9481732922
 20
369.3075594702
 30
0.0
 40
1.061411927653173
100
AcDbArc
 50
220.4507332508
 51
271.1422196387
  0
LINE
  5
A2
330
75
100
AcDbEntity
  8
$DDT_AUDIT_GENERATED_(7F)
  6
Continuous
 62
     7
100
AcDbLine
 10
180.6693316612
 20
368.2463584508
 30
0.0
 11
122.9693316612
 21
368.2463584508
 31
0.0
  0
ARC
  5
A3
330
75
100
AcDbEntity
  8
$DDT_AUDIT_GENERATED_(7F)
  6
Continuous
 62
     7
100
AcDbCircle
 10
181.2659111148
 20
340.0875121023
 30
0.0
 40
28.16516527060132
100
AcDbArc
 50
26.4935207382
 51
91.2136992972
  0
ARC
  5
A4
330
75
100
AcDbEntity
  8
$DDT_AUDIT_GENERATED_(7F)
  6
Continuous
 62
     7
100
AcDbCircle
 10
46.2407766212
 20
339.966809059
 30
0.0
 40
11.71125547378438
100
AcDbArc
 50
87.9028825312
 51
166.011268771
  0
LINE
  5
A5
330
75
100
AcDbEntity
  8
$DDT_AUDIT_GENERATED_(7F)
  6
Continuous
 62
     7
100
AcDbLine
 10
46.6693316612
 20
351.670220756
 30
0.0
 11
180.6693316612
 21
351.670220756
 31
0.0
  0
ARC
  5
A6
330
75
100
AcDbEntity
  8
$DDT_AUDIT_GENERATED_(7F)
  6
Continuous
 62
     7
100
AcDbCircle
 10
181.1359377517
 20
340.0485695121
 30
0.0
 40
11.63101452496725
100
AcDbArc
 50
10.7294973102
 51
92.299174844
  0
CIRCLE
  5
A8
330
75
100
AcDbEntity
  8
$DDT_AUDIT_GENERATED_(A7)
  6
Continuous
 62
     7
100
AcDbCircle
 10
113.6693316612
 20
390.7444614701
 30
0.0
 40
18.0
  0
LINE
  5
AA
330
75
100
AcDbEntity
  8
$DDT_AUDIT_GENERATED_(A9)
  6
Continuous
 62
     7
100
AcDbLine
 10
109.6693316612
 20
413.7687255389
 30
0.0
 11
109.6693316612
 21
413.7444614701
 31
0.0
  0
ENDBLK
  5
AC
330
75
100
AcDbEntity
  8
0
100
AcDbBlockEnd
  0
BLOCK
  5
DF
330
AD
100
AcDbEntity
  8
0
100
AcDbBlockBegin
  2
SE1
 70
     0
 10
0.0
 20
0.0
 30
0.0
  3
SE1
  1

  0
ARC
  5
AF
330
AD
100
AcDbEntity
  8
$DDT_AUDIT_GENERATED_(77)
  6
Continuous
 62
     7
100
AcDbCircle
 10
262.6707190294
 20
413.2444614701
 30
0.0
 40
0.5000000000000004
100
AcDbArc
 50
0.0
 51
90.0
  0
LINE
  5
B0
330
AD
100
AcDbEntity
  8
$DDT_AUDIT_GENERATED_(77)
  6
Continuous
 62
     7
100
AcDbLine
 10
263.1707190294
 20
412.7444614701
 30
0.0
 11
263.1707190294
 21
368.7444614701
 31
0.0
  0
LINE
  5
B1
330
AD
100
AcDbEntity
  8
$DDT_AUDIT_GENERATED_(77)
  6
Continuous
 62
     7
100
AcDbLine
 10
263.1707190294
 20
412.7444614701
 30
0.0
 11
263.1707190294
 21
413.2444614701
 31
0.0
  0
LINE
  5
B2
330
AD
100
AcDbEntity
  8
$DDT_AUDIT_GENERATED_(77)
  6
Continuous
 62
     7
100
AcDbLine
 10
256.1707190294
 20
412.7444614701
 30
0.0
 11
256.1707190294
 21
368.7444614701
 31
0.0
  0
LINE
  5
B3
330
AD
100
AcDbEntity
  8
$DDT_AUDIT_GENERATED_(77)
  6
Continuous
 62
     7
100
AcDbLine
 10
256.1707190294
 20
412.7444614701
 30
0.0
 11
256.1707190294
 21
413.7444614701
 31
0.0
  0
LINE
  5
B4
330
AD
100
AcDbEntity
  8
$DDT_AUDIT_GENERATED_(77)
  6
Continuous
 62
     7
100
AcDbLine
 10
256.1707190294
 20
413.7444614701
 30
0.0
 11
262.6707190294
 21
413.7444614701
 31
0.0
  0
LINE
  5
B5
330
AD
100
AcDbEntity
  8
$DDT_AUDIT_GENERATED_(77)
  6
Continuous
 62
     7
100
AcDbLine
 10
263.1707190294
 20
368.2444614701
 30
0.0
 11
263.1707190294
 21
368.7444614701
 31
0.0
  0
LINE
  5
B6
330
AD
100
AcDbEntity
  8
$DDT_AUDIT_GENERATED_(77)
  6
Continuous
 62
     7
100
AcDbLine
 10
262.6707190294
 20
367.7444614701
 30
0.0
 11
256.1707190294
 21
367.7444614701
 31
0.0
  0
LINE
  5
B7
330
AD
100
AcDbEntity
  8
$DDT_AUDIT_GENERATED_(77)
  6
Continuous
 62
     7
100
AcDbLine
 10
256.1707190294
 20
367.7444614701
 30
0.0
 11
256.1707190294
 21
368.7444614701
 31
0.0
  0
ARC
  5
B8
330
AD
100
AcDbEntity
  8
$DDT_AUDIT_GENERATED_(77)
  6
Continuous
 62
     7
100
AcDbCircle
 10
262.6707190294
 20
368.2444614701
 30
0.0
 40
0.5000000000000004
100
AcDbArc
 50
270.0
 51
0.0
  0
LINE
  5
BA
330
AD
100
AcDbEntity
  8
$DDT_AUDIT_GENERATED_(B9)
  6
Continuous
 62
     7
100
AcDbLine
 10
292.0707190294
 20
374.8778298175
 30
0.0
 11
292.0707190294
 21
372.7444614701
 31
0.0
  0
ARC
  5
BB
330
AD
100
AcDbEntity
  8
$DDT_AUDIT_GENERATED_(B9)
  6
Continuous
 62
     7
100
AcDbCircle
 10
268.6707190294
 20
355.9803079634
 30
0.0
 40
17.03046807333856
100
AcDbArc
 50
79.854128217
 51
100.1458717832
  0
LINE
  5
BC
330
AD
100
AcDbEntity
  8
$DDT_AUDIT_GENERATED_(B9)
  6
Continuous
 62
     7
100
AcDbLine
 10
298.1707190294
 20
375.1050880812
 30
0.0
 11
298.1707190294
 21
408.5444614701
 31
0.0
  0
LINE
  5
BD
330
AD
100
AcDbEntity
  8
$DDT_AUDIT_GENERATED_(B9)
  6
Continuous
 62
     7
100
AcDbLine
 10
297.9707190294
 20
374.8778298175
 30
0.0
 11
292.0707190294
 21
374.8778298175
 31
0.0
  0
SPLINE
  5
BE
330
AD
100
AcDbEntity
  8
$DDT_AUDIT_GENERATED_(B9)
  6
Continuous
 62
     7
100
AcDbSpline
210
0.0
220
0.0
230
1.0
 70
     8
 71
     3
 72
    10
 73
     6
 74
     0
 42
0.000000029006017
 43
0.0000000001
 40
0.0
 40
0.0
 40
0.0
 40
0.0
 40
0.5
 40
0.5
 40
1.0
 40
1.0
 40
1.0
 40
1.0
 10
298.1707190294075
 20
375.1050880811519
 30
0.0
 10
298.1707190294075
 20
375.0486088626057
 30
0.0
 10
298.152630214364
 20
374.9932527246157
 30
0.0
 10
298.0808220725414
 20
374.9061431492251
 30
0.0
 10
298.0274556481227
 20
374.8778298175115
 30
0.0
 10
297.9707190294074
 20
374.8778298175115
 30
0.0
  0
LINE
  5
BF
330
AD
100
AcDbEntity
  8
$DDT_AUDIT_GENERATED_(B9)
  6
Continuous
 62
     7
100
AcDbLine
 10
271.6707176455
 20
372.7444614701
 30
0.0
 11
292.0707190294
 21
372.7444614701
 31
0.0
  0
LINE
  5
C0
330
AD
100
AcDbEntity
  8
$DDT_AUDIT_GENERATED_(B9)
  6
Continuous
 62
     7
100
AcDbLine
 10
263.1707190294
 20
372.7444614701
 30
0.0
 11
265.6707190294
 21
372.7444614701
 31
0.0
  0
LINE
  5
C1
330
AD
100
AcDbEntity
  8
$DDT_AUDIT_GENERATED_(B9)
  6
Continuous
 62
     7
100
AcDbLine
 10
297.9707190294
 20
408.7444614701
 30
0.0
 11
263.1707190294
 21
408.7444614701
 31
0.0
  0
ARC
  5
C2
330
AD
100
AcDbEntity
  8
$DDT_AUDIT_GENERATED_(B9)
  6
Continuous
 62
     7
100
AcDbCircle
 10
297.9707190294
 20
408.5444614701
 30
0.0
 40
0.1999999999999988
100
AcDbArc
 50
0.0
 51
90.0
  0
LINE
  5
C3
330
AD
100
AcDbEntity
  8
$DDT_AUDIT_GENERATED_(7F)
  6
Continuous
 62
     7
100
AcDbLine
 10
293.2097817293
 20
365.3064816635
 30
0.0
 11
292.9139489461
 21
365.9408971145
 31
0.0
  0
LINE
  5
C4
330
AD
100
AcDbEntity
  8
$DDT_AUDIT_GENERATED_(7F)
  6
Continuous
 62
     7
100
AcDbLine
 10
304.7472602748
 20
340.5642790774
 30
0.0
 11
293.2097817293
 21
365.3064816635
 31
0.0
  0
LINE
  5
C5
330
AD
100
AcDbEntity
  8
$DDT_AUDIT_GENERATED_(7F)
  6
Continuous
 62
     7
100
AcDbLine
 10
331.7948290262
 20
282.5605807071
 30
0.0
 11
304.7472602748
 21
340.5642790774
 31
0.0
  0
LINE
  5
C6
330
AD
100
AcDbEntity
  8
$DDT_AUDIT_GENERATED_(7F)
  6
Continuous
 62
     7
100
AcDbLine
 10
343.3323075717
 20
257.818378121
 30
0.0
 11
331.7948290262
 21
282.5605807071
 31
0.0
  0
ARC
  5
C7
330
AD
100
AcDbEntity
  8
$DDT_AUDIT_GENERATED_(7F)
  6
Continuous
 62
     7
100
AcDbCircle
 10
301.0707190294
 20
369.7444614701
 30
0.0
 40
8.999999999996968
100
AcDbArc
 50
198.080083197
 51
205.0
  0
ARC
  5
C8
330
AD
100
AcDbEntity
  8
$DDT_AUDIT_GENERATED_(7F)
  6
Continuous
 62
     7
100
AcDbCircle
 10
301.0707190294
 20
369.7444614701
 30
0.0
 40
9.000000000000007
100
AcDbArc
 50
180.0
 51
198.080083197
  0
LINE
  5
C9
330
AD
100
AcDbEntity
  8
$DDT_AUDIT_GENERATED_(7F)
  6
Continuous
 62
     7
100
AcDbLine
 10
292.0707190294
 20
369.7444614701
 30
0.0
 11
292.0707190294
 21
374.8778298175
 31
0.0
  0
LINE
  5
CA
330
AD
100
AcDbEntity
  8
$DDT_AUDIT_GENERATED_(7F)
  6
Continuous
 62
     7
100
AcDbLine
 10
293.548364397
 20
366.2367298977
 30
0.0
 11
297.7173802174
 21
368.1807739017
 31
0.0
  0
ARC
  5
CB
330
AD
100
AcDbEntity
  8
$DDT_AUDIT_GENERATED_(7F)
  6
Continuous
 62
     7
100
AcDbCircle
 10
293.8441971802
 20
365.6023144468
 30
0.0
 40
0.7000000000000035
100
AcDbArc
 50
115.0
 51
205.0
  0
ARC
  5
CC
330
AD
100
AcDbEntity
  8
$DDT_AUDIT_GENERATED_(7F)
  6
Continuous
 62
     7
100
AcDbCircle
 10
343.9667230227
 20
258.1142109042
 30
0.0
 40
0.7000000000000063
100
AcDbArc
 50
205.0
 51
295.0
  0
LINE
  5
CD
330
AD
100
AcDbEntity
  8
$DDT_AUDIT_GENERATED_(7F)
  6
Continuous
 62
     7
100
AcDbLine
 10
298.3517956683
 20
368.4766066849
 30
0.0
 11
298.6476284515
 21
367.842191234
 31
0.0
  0
LINE
  5
CE
330
AD
100
AcDbEntity
  8
$DDT_AUDIT_GENERATED_(7F)
  6
Continuous
 62
     7
100
AcDbLine
 10
298.6476284515
 20
367.842191234
 30
0.0
 11
310.185106997
 21
343.0999886479
 31
0.0
  0
LINE
  5
CF
330
AD
100
AcDbEntity
  8
$DDT_AUDIT_GENERATED_(7F)
  6
Continuous
 62
     7
100
AcDbLine
 10
310.185106997
 20
343.0999886479
 30
0.0
 11
337.2326757484
 21
285.0962902775
 31
0.0
  0
LINE
  5
D0
330
AD
100
AcDbEntity
  8
$DDT_AUDIT_GENERATED_(7F)
  6
Continuous
 62
     7
100
AcDbLine
 10
337.2326757484
 20
285.0962902775
 30
0.0
 11
348.770154294
 21
260.3540876914
 31
0.0
  0
ARC
  5
D1
330
AD
100
AcDbEntity
  8
$DDT_AUDIT_GENERATED_(7F)
  6
Continuous
 62
     7
100
AcDbCircle
 10
301.0707190294
 20
369.7444614701
 30
0.0
 40
2.999999999996247
100
AcDbArc
 50
189.3196498652
 51
205.0
  0
ARC
  5
D2
330
AD
100
AcDbEntity
  8
$DDT_AUDIT_GENERATED_(7F)
  6
Continuous
 62
     7
100
AcDbCircle
 10
301.0707190294
 20
369.7444614701
 30
0.0
 40
3.00000000000001
100
AcDbArc
 50
180.0
 51
189.3196498652
  0
LINE
  5
D3
330
AD
100
AcDbEntity
  8
$DDT_AUDIT_GENERATED_(7F)
  6
Continuous
 62
     7
100
AcDbLine
 10
348.4315716263
 20
259.4238394573
 30
0.0
 11
344.2625558059
 21
257.4797954533
 31
0.0
  0
LINE
  5
D4
330
AD
100
AcDbEntity
  8
$DDT_AUDIT_GENERATED_(7F)
  6
Continuous
 62
     7
100
AcDbLine
 10
298.0707190294
 20
374.911953994
 30
0.0
 11
298.0707190294
 21
369.7444614701
 31
0.0
  0
ARC
  5
D5
330
AD
100
AcDbEntity
  8
$DDT_AUDIT_GENERATED_(7F)
  6
Continuous
 62
     7
100
AcDbCircle
 10
298.0132130006
 20
367.5463584508
 30
0.0
 40
0.6999999999999971
100
AcDbArc
 50
25.0
 51
115.0
  0
ARC
  5
D6
330
AD
100
AcDbEntity
  8
$DDT_AUDIT_GENERATED_(7F)
  6
Continuous
 62
     7
100
AcDbCircle
 10
348.135738843
 20
260.0582549082
 30
0.0
 40
0.6999999999999879
100
AcDbArc
 50
295.0
 51
25.0
  0
LINE
  5
D7
330
AD
100
AcDbEntity
  8
$DDT_AUDIT_GENERATED_(A7)
  6
Continuous
 62
     7
100
AcDbLine
 10
298.1707190294
 20
408.5444614701
 30
0.0
 11
298.1707190294
 21
372.9444614701
 31
0.0
  0
ARC
  5
D8
330
AD
100
AcDbEntity
  8
$DDT_AUDIT_GENERATED_(A7)
  6
Continuous
 62
     7
100
AcDbCircle
 10
-697.8292809706
 20
390.7444614701
 30
0.0
 40
1000.0
100
AcDbArc
 50
358.9967710075
 51
1.0032289925
  0
LINE
  5
D9
330
AD
100
AcDbEntity
  8
$DDT_AUDIT_GENERATED_(A7)
  6
Continuous
 62
     7
100
AcDbLine
 10
298.3707190294
 20
372.7444614701
 30
0.0
 11
301.5175056856
 21
372.7444614701
 31
0.0
  0
LINE
  5
DA
330
AD
100
AcDbEntity
  8
$DDT_AUDIT_GENERATED_(A7)
  6
Continuous
 62
     7
100
AcDbLine
 10
301.5175056856
 20
408.7444614701
 30
0.0
 11
298.3707190294
 21
408.7444614701
 31
0.0
  0
ARC
  5
DB
330
AD
100
AcDbEntity
  8
$DDT_AUDIT_GENERATED_(A7)
  6
Continuous
 62
     7
100
AcDbCircle
 10
301.5175056856
 20
373.2444614701
 30
0.0
 40
0.5000000000000004
100
AcDbArc
 50
270.0
 51
358.9967710079
  0
ARC
  5
DC
330
AD
100
AcDbEntity
  8
$DDT_AUDIT_GENERATED_(A7)
  6
Continuous
 62
     7
100
AcDbCircle
 10
301.5175056856
 20
408.2444614701
 30
0.0
 40
0.5000000000000601
100
AcDbArc
 50
1.0032289921
 51
90.0
  0
ARC
  5
DD
330
AD
100
AcDbEntity
  8
$DDT_AUDIT_GENERATED_(A7)
  6
Continuous
 62
     7
100
AcDbCircle
 10
298.3707190294
 20
372.9444614701
 30
0.0
 40
0.2000000000000057
100
AcDbArc
 50
180.0
 51
270.0
  0
ARC
  5
DE
330
AD
100
AcDbEntity
  8
$DDT_AUDIT_GENERATED_(A7)
  6
Continuous
 62
     7
100
AcDbCircle
 10
298.3707190294
 20
408.5444614701
 30
0.0
 40
0.1999999999999988
100
AcDbArc
 50
90.0
 51
180.0
  0
ENDBLK
  5
E0
330
AD
100
AcDbEntity
  8
0
100
AcDbBlockEnd
  0
BLOCK
  5
114
330
E1
100
AcDbEntity
  8
0
100
AcDbBlockBegin
  2
SE2
 70
     0
 10
0.0
 20
0.0
 30
0.0
  3
SE2
  1

  0
LINE
  5
E3
330
E1
100
AcDbEntity
  8
$DDT_AUDIT_GENERATED_(77)
  6
Continuous
 62
     7
100
AcDbLine
 10
91.1693316612
 20
192.0150198136
 30
0.0
 11
91.6693316612
 21
192.0150198136
 31
0.0
  0
ARC
  5
E4
330
E1
100
AcDbEntity
  8
$DDT_AUDIT_GENERATED_(77)
  6
Continuous
 62
     7
100
AcDbCircle
 10
91.1693316612
 20
192.5150198136
 30
0.0
 40
0.5000000000000004
100
AcDbArc
 50
180.0
 51
270.0
  0
LINE
  5
E5
330
E1
100
AcDbEntity
  8
$DDT_AUDIT_GENERATED_(77)
  6
Continuous
 62
     7
100
AcDbLine
 10
90.6693316612
 20
192.5150198136
 30
0.0
 11
90.6693316612
 21
199.0150198136
 31
0.0
  0
LINE
  5
E6
330
E1
100
AcDbEntity
  8
$DDT_AUDIT_GENERATED_(77)
  6
Continuous
 62
     7
100
AcDbLine
 10
90.6693316612
 20
199.0150198136
 30
0.0
 11
91.6693316612
 21
199.0150198136
 31
0.0
  0
LINE
  5
E7
330
E1
100
AcDbEntity
  8
$DDT_AUDIT_GENERATED_(77)
  6
Continuous
 62
     7
100
AcDbLine
 10
135.6693316612
 20
192.0150198136
 30
0.0
 11
91.6693316612
 21
192.0150198136
 31
0.0
  0
LINE
  5
E8
330
E1
100
AcDbEntity
  8
$DDT_AUDIT_GENERATED_(77)
  6
Continuous
 62
     7
100
AcDbLine
 10
135.6693316612
 20
192.0150198136
 30
0.0
 11
136.1693316612
 21
192.0150198136
 31
0.0
  0
ARC
  5
E9
330
E1
100
AcDbEntity
  8
$DDT_AUDIT_GENERATED_(77)
  6
Continuous
 62
     7
100
AcDbCircle
 10
136.1693316612
 20
192.5150198136
 30
0.0
 40
0.5000000000000004
100
AcDbArc
 50
270.0
 51
0.0
  0
LINE
  5
EA
330
E1
100
AcDbEntity
  8
$DDT_AUDIT_GENERATED_(77)
  6
Continuous
 62
     7
100
AcDbLine
 10
135.6693316612
 20
199.0150198136
 30
0.0
 11
91.6693316612
 21
199.0150198136
 31
0.0
  0
LINE
  5
EB
330
E1
100
AcDbEntity
  8
$DDT_AUDIT_GENERATED_(77)
  6
Continuous
 62
     7
100
AcDbLine
 10
135.6693316612
 20
199.0150198136
 30
0.0
 11
136.6693316612
 21
199.0150198136
 31
0.0
  0
LINE
  5
EC
330
E1
100
AcDbEntity
  8
$DDT_AUDIT_GENERATED_(77)
  6
Continuous
 62
     7
100
AcDbLine
 10
136.6693316612
 20
199.0150198136
 30
0.0
 11
136.6693316612
 21
192.5150198136
 31
0.0
  0
LINE
  5
ED
330
E1
100
AcDbEntity
  8
$DDT_AUDIT_GENERATED_(B9)
  6
Continuous
 62
     7
100
AcDbLine
 10
131.4693316612
 20
157.0150198136
 30
0.0
 11
95.8693316612
 21
157.0150198136
 31
0.0
  0
LINE
  5
EE
330
E1
100
AcDbEntity
  8
$DDT_AUDIT_GENERATED_(B9)
  6
Continuous
 62
     7
100
AcDbLine
 10
95.6693316612
 20
192.0150198136
 30
0.0
 11
95.6693316612
 21
157.2150198136
 31
0.0
  0
LINE
  5
EF
330
E1
100
AcDbEntity
  8
$DDT_AUDIT_GENERATED_(B9)
  6
Continuous
 62
     7
100
AcDbLine
 10
131.6693316612
 20
157.2150198136
 30
0.0
 11
131.6693316612
 21
192.0150198136
 31
0.0
  0
ARC
  5
F0
330
E1
100
AcDbEntity
  8
$DDT_AUDIT_GENERATED_(B9)
  6
Continuous
 62
     7
100
AcDbCircle
 10
131.4693316612
 20
157.2150198136
 30
0.0
 40
0.1999999999999988
100
AcDbArc
 50
270.0
 51
0.0
  0
ARC
  5
F1
330
E1
100
AcDbEntity
  8
$DDT_AUDIT_GENERATED_(B9)
  6
Continuous
 62
     7
100
AcDbCircle
 10
95.8693316612
 20
157.2150198136
 30
0.0
 40
0.1999999999999988
100
AcDbArc
 50
180.0
 51
270.0
  0
LINE
  5
F2
330
E1
100
AcDbEntity
  8
$DDT_AUDIT_GENERATED_(7F)
  6
Continuous
 62
     7
100
AcDbLine
 10
180.6693316612
 20
112.5858111705
 30
0.0
 11
46.6693316612
 21
112.5858111705
 31
0.0
  0
LINE
  5
F3
330
E1
100
AcDbEntity
  8
$DDT_AUDIT_GENERATED_(7F)
  6
Continuous
 62
     7
100
AcDbLine
 10
192.6693316612
 20
118.5874785455
 30
0.0
 11
192.6693316612
 21
145.6350472969
 31
0.0
  0
ELLIPSE
  5
F4
330
E1
100
AcDbEntity
  8
$DDT_AUDIT_GENERATED_(7F)
  6
Continuous
 62
     7
100
AcDbEllipse
 10
180.6693316612
 20
118.5874785455
 30
0.0
 11
-12.0
 21
1.387778780781446E-14
 31
0.0
210
0.0
220
0.0
230
1.0
 40
0.4226182617
 41
1.570796326794899
 42
3.141592653589793
  0
ELLIPSE
  5
F5
330
E1
100
AcDbEntity
  8
$DDT_AUDIT_GENERATED_(7F)
  6
Continuous
 62
     7
100
AcDbEllipse
 10
46.6693316612
 20
118.5874785455
 30
0.0
 11
-12.0
 21
1.387778780781446E-14
 31
0.0
210
0.0
220
0.0
230
1.0
 40
0.4226182617
 41
0.0
 42
1.570796326794898
  0
LINE
  5
F6
330
E1
100
AcDbEntity
  8
$DDT_AUDIT_GENERATED_(7F)
  6
Continuous
 62
     7
100
AcDbLine
 10
34.6693316612
 20
145.6350472969
 30
0.0
 11
34.6693316612
 21
118.5874785455
 31
0.0
  0
LINE
  5
F7
330
E1
100
AcDbEntity
  8
$DDT_AUDIT_GENERATED_(7F)
  6
Continuous
 62
     7
100
AcDbLine
 10
208.6693316612
 20
149.8040631173
 30
0.0
 11
208.6693316612
 21
145.6350472969
 31
0.0
  0
ELLIPSE
  5
F8
330
E1
100
AcDbEntity
  8
$DDT_AUDIT_GENERATED_(7F)
  6
Continuous
 62
     7
100
AcDbEllipse
 10
180.6693316612
 20
145.000631846
 30
0.0
 11
27.30000000000002
 21
6.938893903907228E-15
 31
0.0
210
0.0
220
0.0
230
1.0
 40
0.4226182617
 41
0.0000000000000019
 42
1.570796326794895
  0
LINE
  5
F9
330
E1
100
AcDbEntity
  8
$DDT_AUDIT_GENERATED_(7F)
  6
Continuous
 62
     7
100
AcDbLine
 10
208.6693316612
 20
145.6350472969
 30
0.0
 11
208.6693316612
 21
118.5874785455
 31
0.0
  0
LINE
  5
FA
330
E1
100
AcDbEntity
  8
$DDT_AUDIT_GENERATED_(7F)
  6
Continuous
 62
     7
100
AcDbLine
 10
131.6693316612
 20
157.4683586257
 30
0.0
 11
180.6693316612
 21
157.4683586257
 31
0.0
  0
LINE
  5
FB
330
E1
100
AcDbEntity
  8
$DDT_AUDIT_GENERATED_(7F)
  6
Continuous
 62
     7
100
AcDbLine
 10
18.6693316612
 20
145.6350472969
 30
0.0
 11
18.6693316612
 21
149.8040631173
 31
0.0
  0
LINE
  5
FC
330
E1
100
AcDbEntity
  8
$DDT_AUDIT_GENERATED_(7F)
  6
Continuous
 62
     7
100
AcDbLine
 10
18.6693316612
 20
118.5874785455
 30
0.0
 11
18.6693316612
 21
145.6350472969
 31
0.0
  0
ELLIPSE
  5
FD
330
E1
100
AcDbEntity
  8
$DDT_AUDIT_GENERATED_(7F)
  6
Continuous
 62
     7
100
AcDbEllipse
 10
46.6693316612
 20
145.6350472969
 30
0.0
 11
-28.0
 21
6.938893903907228E-15
 31
0.0
210
0.0
220
0.0
230
1.0
 40
0.4226182617
 41
4.71238898038469
 42
6.283185307179586
  0
LINE
  5
FE
330
E1
100
AcDbEntity
  8
$DDT_AUDIT_GENERATED_(7F)
  6
Continuous
 62
     7
100
AcDbLine
 10
46.6693316612
 20
157.4683586257
 30
0.0
 11
95.6693316612
 21
157.4683586257
 31
0.0
  0
SPLINE
  5
FF
330
E1
100
AcDbEntity
  8
$DDT_AUDIT_GENERATED_(7F)
  6
Continuous
 62
     7
100
AcDbSpline
210
0.0
220
0.0
230
1.0
 70
     8
 71
     3
 72
    28
 73
    24
 74
     0
 42
0.000000000730448
 43
0.0000000001
 40
0.0
 40
0.0
 40
0.0
 40
0.0
 40
0.0257146000152718
 40
0.0842589574282778
 40
0.133780307148694
 40
0.1863732313367675
 40
0.2368277874699621
 40
0.2862137886335224
 40
0.3352036186021972
 40
0.384128573011168
 40
0.433118176929125
 40
0.482262458883481
 40
0.5315895978029346
 40
0.5810970261237672
 40
0.6307681627193176
 40
0.6805811656257518
 40
0.7305132956619269
 40
0.7805429013452997
 40
0.8306501483064078
 40
0.8808171109427302
 40
0.9310275577176669
 40
0.981266601609468
 40
1.0
 40
1.0
 40
1.0
 40
1.0
 10
34.66933166121361
 20
145.6350472969259
 30
0.0
 10
34.670646270619
 20
145.6907751516096
 30
0.0
 10
34.67596250592322
 20
145.8465771881899
 30
0.0
 10
34.73292476092627
 20
146.1215551746278
 30
0.0
 10
34.87119259890996
 20
146.4557887040981
 30
0.0
 10
35.07549121821098
 20
146.7887335880538
 30
0.0
 10
35.3570260952618
 20
147.1292310689178
 30
0.0
 10
35.70641750711948
 20
147.4640184382661
 30
0.0
 10
36.12354859726835
 20
147.7918860972018
 30
0.0
 10
36.60769360750098
 20
148.1106637529977
 30
0.0
 10
37.15700869129066
 20
148.4174861930908
 30
0.0
 10
37.76872042189565
 20
148.7093901768991
 30
0.0
 10
38.43942013321561
 20
148.9835659060361
 30
0.0
 10
39.16498077582965
 20
149.2373688802319
 30
0.0
 10
39.94070230087632
 20
149.4684004430209
 30
0.0
 10
40.76145959248759
 20
149.6745415519817
 30
0.0
 10
41.62170259430095
 20
149.8539570206127
 30
0.0
 10
42.51588589155178
 20
150.0051040896695
 30
0.0
 10
43.43719711282139
 20
150.1266802016315
 30
0.0
 10
44.38258337376064
 20
150.2177831449884
 30
0.0
 10
45.33418768265827
 20
150.2772767062352
 30
0.0
 10
46.12086092374246
 20
150.3000957462527
 30
0.0
 10
46.53682004388672
 20
150.3018912555817
 30
0.0
 10
46.66933166121359
 20
150.3022992210327
 30
0.0
  0
LINE
  5
100
330
E1
100
AcDbEntity
  8
$DDT_AUDIT_GENERATED_(7F)
  6
Continuous
 62
     7
100
AcDbLine
 10
46.6693316612
 20
150.302299221
 30
0.0
 11
180.6693316612
 21
150.302299221
 31
0.0
  0
SPLINE
  5
101
330
E1
100
AcDbEntity
  8
$DDT_AUDIT_GENERATED_(7F)
  6
Continuous
 62
     7
100
AcDbSpline
210
0.0
220
0.0
230
1.0
 70
     8
 71
     3
 72
    28
 73
    24
 74
     0
 42
0.000000000730472
 43
0.0000000001
 40
0.0
 40
0.0
 40
0.0
 40
0.0
 40
0.026373092226896
 40
0.076618209187161
 40
0.1268581275691072
 40
0.1770692422092682
 40
0.2272370258079095
 40
0.2773457105347151
 40
0.3273778745211934
 40
0.377314097029747
 40
0.427132781010264
 40
0.4768103542141585
 40
0.5263222546160791
 40
0.5756454516163789
 40
0.624763850065654
 40
0.6736789089788796
 40
0.7224293471164109
 40
0.7711241145749951
 40
0.8199098821108406
 40
0.8691656733657535
 40
0.9195698148451766
 40
0.9721887967499577
 40
1.0
 40
1.0
 40
1.0
 40
1.0
 10
180.6693316612135
 20
150.3022992210328
 30
0.0
 10
180.8558790270833
 20
150.3014906147888
 30
0.0
 10
181.3163038647156
 20
150.2987620957485
 30
0.0
 10
182.1508142472926
 20
150.2701680293272
 30
0.0
 10
183.101763990917
 20
150.2058871520747
 30
0.0
 10
184.0450600735186
 20
150.1099204137106
 30
0.0
 10
184.9638487724258
 20
149.9835228677788
 30
0.0
 10
185.8548080808652
 20
149.8275694559492
 30
0.0
 10
186.7112021920682
 20
149.6433718912713
 30
0.0
 10
187.5274478185305
 20
149.4324750325079
 30
0.0
 10
188.2979458872044
 20
149.1967306864555
 30
0.0
 10
189.0174564887164
 20
148.9383033617787
 30
0.0
 10
189.6810771114347
 20
148.6597001952943
 30
0.0
 10
190.2843526065444
 20
148.3637964761016
 30
0.0
 10
190.8233881768037
 20
148.0538576675162
 30
0.0
 10
191.2950182689665
 20
147.733525800036
 30
0.0
 10
191.6970138677095
 20
147.4067744297258
 30
0.0
 10
192.0281700153939
 20
147.0778087237784
 30
0.0
 10
192.2887312635023
 20
146.7508802882855
 30
0.0
 10
192.4809777441395
 20
146.4280420187227
 30
0.0
 10
192.6074160559138
 20
146.1122017941211
 30
0.0
 10
192.6623992126673
 20
145.843765727045
 30
0.0
 10
192.6677904515579
 20
145.6953216744926
 30
0.0
 10
192.6693316612136
 20
145.6350472969259
 30
0.0
  0
LINE
  5
102
330
E1
100
AcDbEntity
  8
$DDT_AUDIT_GENERATED_(7F)
  6
Continuous
 62
     7
100
AcDbLine
 10
95.6693316612
 20
162.0415416628
 30
0.0
 11
46.6693316612
 21
162.0415416628
 31
0.0
  0
SPLINE
  5
103
330
E1
100
AcDbEntity
  8
$DDT_AUDIT_GENERATED_(7F)
  6
Continuous
 62
     7
100
AcDbSpline
210
0.0
220
0.0
230
1.0
 70
     8
 71
     3
 72
    38
 73
    34
 74
     0
 42
0.0000000003041072
 43
0.0000000001
 40
0.0
 40
0.0
 40
0.0
 40
0.0
 40
0.0177265862264041
 40
0.05138632199309
 40
0.0850504173171052
 40
0.1187178968694166
 40
0.1523906745039174
 40
0.186070740111684
 40
0.2197601878591001
 40
0.2534612449460072
 40
0.2871762993932195
 40
0.3209079250920562
 40
0.3546589009082953
 40
0.388432218312408
 40
0.4222310683026484
 40
0.456058792526772
 40
0.4899187743527192
 40
0.5238142316025108
 40
0.5577478517814994
 40
0.5917211811263132
 40
0.6257336409320348
 40
0.6597810056244834
 40
0.6938531619798289
 40
0.7279256950442884
 40
0.7619582845263944
 40
0.7958972795125964
 40
0.8296723150576268
 40
0.8632032520465949
 40
0.8964163330627608
 40
0.9292674201572919
 40
0.9617637983287076
 40
0.9921144755871831
 40
1.0
 40
1.0
 40
1.0
 40
1.0
 10
46.66933166121356
 20
162.0415416628156
 30
0.0
 10
46.38611722213562
 20
162.0407040799594
 30
0.0
 10
45.688719393918
 20
162.0378839791757
 30
0.0
 10
44.42353441432931
 20
162.0083852674444
 30
0.0
 10
42.97423326409892
 20
161.9420165406348
 30
0.0
 10
41.52246223424908
 20
161.8425414867769
 30
0.0
 10
40.08810373854797
 20
161.7107280257848
 30
0.0
 10
38.67079103291754
 20
161.5467654985987
 30
0.0
 10
37.27550803897961
 20
161.3510952492868
 30
0.0
 10
35.90572478416271
 20
161.1241850523189
 30
0.0
 10
34.56522319797631
 20
160.8665852262451
 30
0.0
 10
33.25759419440698
 20
160.5789082983288
 30
0.0
 10
31.98635983519292
 20
160.2618281395268
 30
0.0
 10
30.75492907227062
 20
159.9160727902221
 30
0.0
 10
29.56659970046767
 20
159.5424178564032
 30
0.0
 10
28.42455011404554
 20
159.141678683732
 30
0.0
 10
27.331836827842
 20
158.7147020135261
 30
0.0
 10
26.29139461193158
 20
158.2623574759914
 30
0.0
 10
25.30604155283779
 20
157.7855299455231
 30
0.0
 10
24.37849018879057
 20
157.2851145544255
 30
0.0
 10
23.51136622979151
 20
156.7620175404782
 30
0.0
 10
22.70723558383231
 20
156.2171677569379
 30
0.0
 10
21.9686769807256
 20
155.651576320258
 30
0.0
 10
21.29831823018802
 20
155.0664159242195
 30
0.0
 10
20.69880693506174
 20
154.4631090688726
 30
0.0
 10
20.17273822619971
 20
153.843397514037
 30
0.0
 10
19.7225389865987
 20
153.209512040375
 30
0.0
 10
19.35026075486421
 20
152.5639453007935
 30
0.0
 10
19.05741334258832
 20
151.9104351108757
 30
0.0
 10
18.84445811696964
 20
151.249797922974
 30
0.0
 10
18.71446641682693
 20
150.6065303000549
 30
0.0
 10
18.67231475069295
 20
150.1092004598577
 30
0.0
 10
18.6697620239263
 20
149.8633482319697
 30
0.0
 10
18.66933166121357
 20
149.8040631172945
 30
0.0
  0
LINE
  5
104
330
E1
100
AcDbEntity
  8
$DDT_AUDIT_GENERATED_(7F)
  6
Continuous
 62
     7
100
AcDbLine
 10
180.6693316612
 20
162.0415416628
 30
0.0
 11
131.6693316612
 21
162.0415416628
 31
0.0
  0
SPLINE
  5
105
330
E1
100
AcDbEntity
  8
$DDT_AUDIT_GENERATED_(7F)
  6
Continuous
 62
     7
100
AcDbSpline
210
0.0
220
0.0
230
1.0
 70
     8
 71
     3
 72
    38
 73
    34
 74
     0
 42
0.0000000003041092
 43
0.0000000001
 40
0.0
 40
0.0
 40
0.0
 40
0.0
 40
0.0180115167796934
 40
0.0500230657395207
 40
0.082089020627004
 40
0.1143473673892342
 40
0.1469012333651146
 40
0.1797996927499323
 40
0.213036942774626
 40
0.2465648073740073
 40
0.2803127671056747
 40
0.3142073789157837
 40
0.3481852631901559
 40
0.382198461967903
 40
0.4162091910648236
 40
0.4501977893828957
 40
0.4841553862604602
 40
0.5180783417131483
 40
0.5519662495718868
 40
0.5858205842878589
 40
0.6196438282412144
 40
0.6534389310078722
 40
0.6872089874650097
 40
0.7209570556860042
 40
0.7546860620057602
 40
0.7883987592794461
 40
0.8220977168568576
 40
0.8557853289307139
 40
0.8894638331180917
 40
0.9231353344183784
 40
0.9568018317469911
 40
0.990465245519594
 40
1.0
 40
1.0
 40
1.0
 40
1.0
 10
208.6693316612136
 20
149.8040631172945
 30
0.0
 10
208.6670837093075
 20
149.9394859479956
 30
0.0
 10
208.6599058441217
 20
150.258652626975
 30
0.0
 10
208.5872617841398
 20
150.8320041594232
 30
0.0
 10
208.4293597509862
 20
151.4779212167507
 30
0.0
 10
208.1943383766149
 20
152.1232935707729
 30
0.0
 10
207.8834932720667
 20
152.7602783044248
 30
0.0
 10
207.496410507624
 20
153.3895905857906
 30
0.0
 10
207.0334258959479
 20
154.0090359872005
 30
0.0
 10
206.4953525022082
 20
154.6166880645877
 30
0.0
 10
205.8837208546464
 20
155.2102754136249
 30
0.0
 10
205.2006406961447
 20
155.7876378609734
 30
0.0
 10
204.4486227266831
 20
156.346816324222
 30
0.0
 10
203.6304335097191
 20
156.8860950146586
 30
0.0
 10
202.7489426550414
 20
157.4040111021877
 30
0.0
 10
201.8070469007364
 20
157.8993114648772
 30
0.0
 10
200.8076056102604
 20
158.3709126361421
 30
0.0
 10
199.7535035735744
 20
158.8178237491506
 30
0.0
 10
198.6476957399968
 20
159.2391095636829
 30
0.0
 10
197.4932240026281
 20
159.6338795101647
 30
0.0
 10
196.2932285179434
 20
160.0012844821868
 30
0.0
 10
195.0509532967873
 20
160.3405182555425
 30
0.0
 10
193.7697482009242
 20
160.6508213381888
 30
0.0
 10
192.4530635442061
 20
160.9314859582651
 30
0.0
 10
191.1044560594185
 20
161.1818610579851
 30
0.0
 10
189.7275402988576
 20
161.4013579973657
 30
0.0
 10
188.3261345458332
 20
161.5894523872766
 30
0.0
 10
186.9036746837453
 20
161.7456981273586
 30
0.0
 10
185.4653539359354
 20
161.8696932257047
 30
0.0
 10
184.0100901827309
 20
161.9612226476383
 30
0.0
 10
182.5604429756828
 20
162.0197378321606
 30
0.0
 10
181.4115590450876
 20
162.0399606204574
 30
0.0
 10
180.8216694159743
 20
162.0412993411061
 30
0.0
 10
180.6693316612136
 20
162.0415416628156
 30
0.0
  0
SPLINE
  5
106
330
E1
100
AcDbEntity
  8
$DDT_AUDIT_GENERATED_(7F)
  6
Continuous
 62
     7
100
AcDbSpline
210
0.0
220
0.0
230
1.0
 70
     8
 71
     3
 72
    38
 73
    34
 74
     0
 42
0.0000000003041092
 43
0.0000000001
 40
0.0
 40
0.0
 40
0.0
 40
0.0
 40
0.0180115167796937
 40
0.0500230657395209
 40
0.0820890206270039
 40
0.1143473673892405
 40
0.1469012333651143
 40
0.1797996927499325
 40
0.2130369427746263
 40
0.2465648073740143
 40
0.280312767105674
 40
0.3142073789157886
 40
0.3481852631901599
 40
0.3821984619679055
 40
0.4162091910648236
 40
0.4501977893828927
 40
0.4841553862604611
 40
0.518078341713144
 40
0.551966249571886
 40
0.5858205842878614
 40
0.6196438282412146
 40
0.6534389310078699
 40
0.6872089874650101
 40
0.7209570556860078
 40
0.7546860620057643
 40
0.7883987592794507
 40
0.8220977168568661
 40
0.8557853289307192
 40
0.8894638331180946
 40
0.9231353344183851
 40
0.9568018317470013
 40
0.9904652455196014
 40
1.0
 40
1.0
 40
1.0
 40
1.0
 10
18.66933166121359
 20
118.5874785455211
 30
0.0
 10
18.67157961311971
 20
118.45205571482
 30
0.0
 10
18.67875747830563
 20
118.1328890358405
 30
0.0
 10
18.7514015382873
 20
117.5595375033924
 30
0.0
 10
18.90930357144115
 20
116.9136204460649
 30
0.0
 10
19.14432494581227
 20
116.2682480920428
 30
0.0
 10
19.45517005036065
 20
115.6312633583906
 30
0.0
 10
19.84225281480298
 20
115.001951077025
 30
0.0
 10
20.30523742647934
 20
114.382505675615
 30
0.0
 10
20.84331082021899
 20
113.7748535982279
 30
0.0
 10
21.4549424677809
 20
113.1812662491907
 30
0.0
 10
22.13802262628252
 20
112.6039038018421
 30
0.0
 10
22.89004059574426
 20
112.0447253385936
 30
0.0
 10
23.70822981270807
 20
111.5054466481569
 30
0.0
 10
24.58972066738587
 20
110.9875305606279
 30
0.0
 10
25.53161642169088
 20
110.4922301979384
 30
0.0
 10
26.53105771216672
 20
110.0206290266735
 30
0.0
 10
27.58515974885266
 20
109.573717913665
 30
0.0
 10
28.69096758243045
 20
109.1524320991327
 30
0.0
 10
29.84543931979913
 20
108.7576621526509
 30
0.0
 10
31.04543480448381
 20
108.3902571806287
 30
0.0
 10
32.28771002564
 20
108.0510234072731
 30
0.0
 10
33.5689151215028
 20
107.7407203246268
 30
0.0
 10
34.8855997782213
 20
107.4600557045504
 30
0.0
 10
36.23420726300888
 20
107.2096806048304
 30
0.0
 10
37.61112302356987
 20
106.9901836654499
 30
0.0
 10
39.01252877659425
 20
106.8020892755389
 30
0.0
 10
40.43498863868204
 20
106.645843535457
 30
0.0
 10
41.87330938649214
 20
106.5218484371108
 30
0.0
 10
43.3285731396964
 20
106.4303190151773
 30
0.0
 10
44.77822034674482
 20
106.3718038306549
 30
0.0
 10
45.92710427733979
 20
106.3515810423582
 30
0.0
 10
46.51699390645303
 20
106.3502423217095
 30
0.0
 10
46.66933166121362
 20
106.35
 30
0.0
  0
LINE
  5
107
330
E1
100
AcDbEntity
  8
$DDT_AUDIT_GENERATED_(7F)
  6
Continuous
 62
     7
100
AcDbLine
 10
46.6693316612
 20
106.35
 30
0.0
 11
180.6693316612
 21
106.35
 31
0.0
  0
SPLINE
  5
108
330
E1
100
AcDbEntity
  8
$DDT_AUDIT_GENERATED_(7F)
  6
Continuous
 62
     7
100
AcDbSpline
210
0.0
220
0.0
230
1.0
 70
     8
 71
     3
 72
    38
 73
    34
 74
     0
 42
0.0000000003041072
 43
0.0000000001
 40
0.0
 40
0.0
 40
0.0
 40
0.0
 40
0.0177265862264041
 40
0.0513863219931118
 40
0.0850504173171212
 40
0.1187178968694331
 40
0.1523906745039375
 40
0.1860707401117045
 40
0.2197601878591212
 40
0.2534612449460316
 40
0.2871762993932395
 40
0.3209079250920744
 40
0.3546589009083146
 40
0.388432218312431
 40
0.4222310683026679
 40
0.4560587925267873
 40
0.4899187743527391
 40
0.5238142316025295
 40
0.5577478517815141
 40
0.5917211811263311
 40
0.625733640932055
 40
0.6597810056245063
 40
0.6938531619798463
 40
0.7279256950443068
 40
0.7619582845264087
 40
0.7958972795126129
 40
0.8296723150576457
 40
0.863203252046598
 40
0.8964163330627728
 40
0.9292674201573008
 40
0.9617637983287071
 40
0.9921144755871831
 40
1.0
 40
1.0
 40
1.0
 40
1.0
 10
180.6693316612136
 20
106.35
 30
0.0
 10
180.9525461002916
 20
106.3508375828562
 30
0.0
 10
181.6499439285096
 20
106.35365768364
 30
0.0
 10
182.9151289080984
 20
106.3831563953713
 30
0.0
 10
184.3644300583291
 20
106.4495251221808
 30
0.0
 10
185.8162010881789
 20
106.5490001760388
 30
0.0
 10
187.25055958388
 20
106.6808136370309
 30
0.0
 10
188.6678722895106
 20
106.8447761642169
 30
0.0
 10
190.0631552834485
 20
107.040446413529
 30
0.0
 10
191.4329385382653
 20
107.2673566104968
 30
0.0
 10
192.7734401244518
 20
107.5249564365707
 30
0.0
 10
194.0810691280208
 20
107.812633364487
 30
0.0
 10
195.3523034872352
 20
108.1297135232889
 30
0.0
 10
196.5837342501572
 20
108.4754688725938
 30
0.0
 10
197.7720636219603
 20
108.8491238064126
 30
0.0
 10
198.9141132083821
 20
109.2498629790839
 30
0.0
 10
200.0068264945859
 20
109.6768396492896
 30
0.0
 10
201.0472687104961
 20
110.1291841868245
 30
0.0
 10
202.0326217695899
 20
110.6060117172927
 30
0.0
 10
202.9601731336371
 20
111.1064271083904
 30
0.0
 10
203.8272970926361
 20
111.6295241223378
 30
0.0
 10
204.6314277385953
 20
112.174373905878
 30
0.0
 10
205.3699863417019
 20
112.7399653425579
 30
0.0
 10
206.0403450922396
 20
113.3251257385964
 30
0.0
 10
206.6398563873655
 20
113.9284325939434
 30
0.0
 10
207.1659250962278
 20
114.5481441487789
 30
0.0
 10
207.6161243358285
 20
115.1820296224408
 30
0.0
 10
207.9884025675631
 20
115.8275963620223
 30
0.0
 10
208.2812499798389
 20
116.4811065519401
 30
0.0
 10
208.4942052054577
 20
117.1417437398418
 30
0.0
 10
208.6241969056003
 20
117.7850113627607
 30
0.0
 10
208.6663485717342
 20
118.2823412029579
 30
0.0
 10
208.6689012985009
 20
118.5281934308459
 30
0.0
 10
208.6693316612136
 20
118.5874785455211
 30
0.0
  0
SPLINE
  5
109
330
E1
100
AcDbEntity
  8
$DDT_AUDIT_GENERATED_(7F)
  6
Continuous
 62
     7
100
AcDbSpline
210
0.0
220
0.0
230
1.0
 70
     8
 71
     3
 72
    28
 73
    24
 74
     0
 42
0.000000000730472
 43
0.0000000001
 40
0.0
 40
0.0
 40
0.0
 40
0.0
 40
0.026373092226896
 40
0.0766182091871609
 40
0.1268581275691078
 40
0.177069242209268
 40
0.2272370258079103
 40
0.2773457105347159
 40
0.3273778745211936
 40
0.3773140970297439
 40
0.4271327810102606
 40
0.4768103542141677
 40
0.5263222546160744
 40
0.5756454516163779
 40
0.6247638500656437
 40
0.673678908978869
 40
0.7224293471164104
 40
0.771124114574994
 40
0.81990988211084
 40
0.869165673365753
 40
0.9195698148451669
 40
0.9721887967499386
 40
1.0
 40
1.0
 40
1.0
 40
1.0
 10
46.66933166121362
 20
118.0892424417828
 30
0.0
 10
46.48278429534382
 20
118.0900510480268
 30
0.0
 10
46.02235945771162
 20
118.0927795670671
 30
0.0
 10
45.18784907513465
 20
118.1213736334884
 30
0.0
 10
44.23689933151008
 20
118.1856545107409
 30
0.0
 10
43.29360324890853
 20
118.2816212491049
 30
0.0
 10
42.37481455000136
 20
118.4080187950369
 30
0.0
 10
41.48385524156188
 20
118.5639722068664
 30
0.0
 10
40.62746113035906
 20
118.7481697715443
 30
0.0
 10
39.81121550389662
 20
118.9590666303076
 30
0.0
 10
39.04071743522279
 20
119.1948109763602
 30
0.0
 10
38.32120683371064
 20
119.4532383010368
 30
0.0
 10
37.65758621099244
 20
119.7318414675212
 30
0.0
 10
37.05431071588286
 20
120.027745186714
 30
0.0
 10
36.51527514562354
 20
120.3376839952993
 30
0.0
 10
36.04364505346071
 20
120.6580158627796
 30
0.0
 10
35.64164945471772
 20
120.9847672330898
 30
0.0
 10
35.31049330703331
 20
121.3137329390373
 30
0.0
 10
35.04993205892487
 20
121.6406613745301
 30
0.0
 10
34.85768557828768
 20
121.9634996440929
 30
0.0
 10
34.73124726651347
 20
122.2793398686944
 30
0.0
 10
34.67626410975986
 20
122.5477759357705
 30
0.0
 10
34.67087287086932
 20
122.6962199883229
 30
0.0
 10
34.66933166121361
 20
122.7564943658897
 30
0.0
  0
LINE
  5
10A
330
E1
100
AcDbEntity
  8
$DDT_AUDIT_GENERATED_(7F)
  6
Continuous
 62
     7
100
AcDbLine
 10
180.6693316612
 20
118.0892424418
 30
0.0
 11
46.6693316612
 21
118.0892424418
 31
0.0
  0
SPLINE
  5
10B
330
E1
100
AcDbEntity
  8
$DDT_AUDIT_GENERATED_(7F)
  6
Continuous
 62
     7
100
AcDbSpline
210
0.0
220
0.0
230
1.0
 70
     8
 71
     3
 72
    28
 73
    24
 74
     0
 42
0.000000000730448
 43
0.0000000001
 40
0.0
 40
0.0
 40
0.0
 40
0.0
 40
0.0257146000152714
 40
0.0842589574282768
 40
0.1337803071487006
 40
0.1863732313367924
 40
0.2368277874699768
 40
0.2862137886335372
 40
0.3352036186022208
 40
0.3841285730111991
 40
0.4331181769291537
 40
0.4822624588835042
 40
0.5315895978029627
 40
0.581097026123796
 40
0.6307681627193492
 40
0.6805811656257843
 40
0.730513295661961
 40
0.7805429013453222
 40
0.8306501483064402
 40
0.8808171109427595
 40
0.9310275577176922
 40
0.9812666016095011
 40
1.0
 40
1.0
 40
1.0
 40
1.0
 10
192.6693316612136
 20
122.7564943658897
 30
0.0
 10
192.6680170518082
 20
122.700766511206
 30
0.0
 10
192.6627008165039
 20
122.5449644746257
 30
0.0
 10
192.605738561501
 20
122.2699864881879
 30
0.0
 10
192.4674707235172
 20
121.9357529587174
 30
0.0
 10
192.2631721042162
 20
121.6028080747617
 30
0.0
 10
191.9816372271653
 20
121.2623105938977
 30
0.0
 10
191.6322458153075
 20
120.9275232245494
 30
0.0
 10
191.2151147251586
 20
120.5996555656136
 30
0.0
 10
190.7309697149259
 20
120.2808779098177
 30
0.0
 10
190.1816546311363
 20
119.9740554697246
 30
0.0
 10
189.5699429005312
 20
119.6821514859164
 30
0.0
 10
188.8992431892113
 20
119.4079757567794
 30
0.0
 10
188.1736825465971
 20
119.1541727825834
 30
0.0
 10
187.3979610215503
 20
118.9231412197946
 30
0.0
 10
186.5772037299392
 20
118.7170001108338
 30
0.0
 10
185.7169607281257
 20
118.5375846422027
 30
0.0
 10
184.8227774308749
 20
118.3864375731461
 30
0.0
 10
183.9014662096054
 20
118.2648614611841
 30
0.0
 10
182.956079948666
 20
118.1737585178271
 30
0.0
 10
182.0044756397683
 20
118.1142649565804
 30
0.0
 10
181.2178023986844
 20
118.0914459165628
 30
0.0
 10
180.8018432785402
 20
118.0896504072339
 30
0.0
 10
180.6693316612136
 20
118.0892424417828
 30
0.0
  0
LINE
  5
10C
330
E1
100
AcDbEntity
  8
$DDT_AUDIT_GENERATED_(A7)
  6
Continuous
 62
     7
100
AcDbLine
 10
131.4693316612
 20
157.0150198136
 30
0.0
 11
95.8693316612
 21
157.0150198136
 31
0.0
  0
ARC
  5
10D
330
E1
100
AcDbEntity
  8
$DDT_AUDIT_GENERATED_(A7)
  6
Continuous
 62
     7
100
AcDbCircle
 10
113.6693316612
 20
1153.0150198136
 30
0.0
 40
1000.0
100
AcDbArc
 50
268.9967710075
 51
271.0032289925
  0
LINE
  5
10E
330
E1
100
AcDbEntity
  8
$DDT_AUDIT_GENERATED_(A7)
  6
Continuous
 62
     7
100
AcDbLine
 10
95.6693316612
 20
156.8150198136
 30
0.0
 11
95.6693316612
 21
153.6682331575
 31
0.0
  0
LINE
  5
10F
330
E1
100
AcDbEntity
  8
$DDT_AUDIT_GENERATED_(A7)
  6
Continuous
 62
     7
100
AcDbLine
 10
131.6693316612
 20
153.6682331575
 30
0.0
 11
131.6693316612
 21
156.8150198136
 31
0.0
  0
ARC
  5
110
330
E1
100
AcDbEntity
  8
$DDT_AUDIT_GENERATED_(A7)
  6
Continuous
 62
     7
100
AcDbCircle
 10
96.1693316612
 20
153.6682331575
 30
0.0
 40
0.5000000000000004
100
AcDbArc
 50
180.0
 51
268.9967710079
  0
ARC
  5
111
330
E1
100
AcDbEntity
  8
$DDT_AUDIT_GENERATED_(A7)
  6
Continuous
 62
     7
100
AcDbCircle
 10
131.1693316612
 20
153.6682331575
 30
0.0
 40
0.5000000000000601
100
AcDbArc
 50
271.0032289921
 51
0.0
  0
ARC
  5
112
330
E1
100
AcDbEntity
  8
$DDT_AUDIT_GENERATED_(A7)
  6
Continuous
 62
     7
100
AcDbCircle
 10
95.8693316612
 20
156.8150198136
 30
0.0
 40
0.1999999999999988
100
AcDbArc
 50
90.0
 51
180.0
  0
ARC
  5
113
330
E1
100
AcDbEntity
  8
$DDT_AUDIT_GENERATED_(A7)
  6
Continuous
 62
     7
100
AcDbCircle
 10
131.4693316612
 20
156.8150198136
 30
0.0
 40
0.1999999999999988
100
AcDbArc
 50
0.0
 51
90.0
  0
ENDBLK
  5
115
330
E1
100
AcDbEntity
  8
0
100
AcDbBlockEnd
  0
ENDSEC
  0
SECTION
  2
ENTITIES
  0
INSERT
  5
5F
330
1F
100
AcDbEntity
  8
Default
100
AcDbBlockReference
  2
SEANNOT_GROUP
 10
0.0
 20
0.0
 30
0.0
  0
INSERT
  5
6A
330
1F
100
AcDbEntity
  8
Default
100
AcDbBlockReference
  2
SEANNOT_GROUP1
 10
0.0
 20
0.0
 30
0.0
  0
INSERT
  5
70
330
1F
100
AcDbEntity
  8
Default
100
AcDbBlockReference
  2
SEANNOT_GROUP2
 10
0.0
 20
0.0
 30
0.0
  0
INSERT
  5
76
330
1F
100
AcDbEntity
  8
Default
100
AcDbBlockReference
  2
SE
 10
0.0
 20
0.0
 30
0.0
  0
INSERT
  5
AE
330
1F
100
AcDbEntity
  8
Default
100
AcDbBlockReference
  2
SE1
 10
0.0
 20
0.0
 30
0.0
  0
INSERT
  5
E2
330
1F
100
AcDbEntity
  8
Default
100
AcDbBlockReference
  2
SE2
 10
0.0
 20
0.0
 30
0.0
  0
TEXT
  5
117
330
1F
100
AcDbEntity
  8
Default
  6
Continuous
 62
     7
100
AcDbText
 10
5.9362635081
 20
53.4225120485
 30
0.0
 40
10.0
  1
Grohe AG^J
  7
SEACAD_seiso_ttf
 11
5.9362635081
 21
63.4225120485
 31
0.0
100
AcDbText
 73
     3
  0
TEXT
  5
118
330
1F
100
AcDbEntity
  8
Default
  6
Continuous
 62
     7
100
AcDbText
 10
5.9362635081
 20
37.0588756849
 30
0.0
 40
10.0
  1
 
  7
SEACAD_seiso_ttf
 11
5.9362635081
 21
47.0588756849
 31
0.0
100
AcDbText
 73
     3
  0
TEXT
  5
119
330
1F
100
AcDbEntity
  8
Default
  6
Continuous
 62
     7
100
AcDbText
 10
5.9362635081
 20
20.6952393213
 30
0.0
 40
10.0
  1
ecn: 
  7
SEACAD_seiso_ttf
 11
5.9362635081
 21
30.6952393213
 31
0.0
100
AcDbText
 73
     3
  0
TEXT
  5
11A
330
1F
100
AcDbEntity
  8
Default
  6
Continuous
 62
     7
100
AcDbText
 10
5.9362635081
 20
4.3316029576
 30
0.0
 40
10.0
  1
unit: mm
  7
SEACAD_seiso_ttf
 11
5.9362635081
 21
14.3316029576
 31
0.0
100
AcDbText
 73
     3
  0
LINE
  5
11B
330
1F
100
AcDbEntity
  8
Default
  6
Continuous
 62
     7
100
AcDbLine
 10
0.0
 20
0.0
 30
0.0
 11
100.0
 21
0.0
 31
0.0
  0
LINE
  5
11C
330
1F
100
AcDbEntity
  8
Default
  6
Continuous
 62
     7
100
AcDbLine
 10
0.0
 20
0.0
 30
0.0
 11
0.0
 21
100.0
 31
0.0
  0
TEXT
  5
11D
330
1F
100
AcDbEntity
  8
Default
  6
Continuous
 62
     7
100
AcDbText
 10
24.3923665681
 20
-18.2375342018
 30
0.0
 40
10.0
  1
100 mm
  7
SEACAD_seiso_ttf
 11
24.3923665681
 21
-8.2375342018
 31
0.0
100
AcDbText
 73
     3
  0
TEXT
  5
11E
330
1F
100
AcDbEntity
  8
Default
  6
Continuous
 62
     7
100
AcDbText
 10
-7.6150308803
 20
24.6231930421
 30
0.0
 40
10.0
  1
100 mm
 50
90.0
  7
SEACAD_seiso_ttf
 11
-17.6150308803
 21
24.6231930421
 31
0.0
100
AcDbText
 73
     3
  0
TEXT
  5
11F
330
1F
100
AcDbEntity
  8
Default
  6
Continuous
 62
     7
100
AcDbText
 10
28.4878128572
 20
20.0907663715
 30
0.0
 40
10.0
  1
208536
  7
SEACAD_seiso_ttf
 11
28.4878128572
 21
30.0907663715
 31
0.0
100
AcDbText
 73
     3
  0
TEXT
  5
120
330
1F
100
AcDbEntity
  8
Default
  6
Continuous
 62
     7
100
AcDbText
 10
5.9012241913
 20
36.7242780188
 30
0.0
 40
10.0
  1
40339000
  7
SEACAD_seiso_ttf
 11
5.9012241913
 21
46.7242780188
 31
0.0
100
AcDbText
 73
     3
  0
ENDSEC
  0
SECTION
  2
OBJECTS
  0
DICTIONARY
  5
C
330
0
100
AcDbDictionary
281
     1
  3
ACAD_GROUP
350
D
  3
ACAD_LAYOUT
350
1A
  3
ACAD_MLEADERSTYLE
350
124
  3
ACAD_MLINESTYLE
350
17
  3
ACAD_PLOTSETTINGS
350
19
  3
ACAD_PLOTSTYLENAME
350
E
  3
ACAD_SCALELIST
350
3B
  3
ACAD_TABLESTYLE
350
123
  3
ACAD_VISUALSTYLE
350
2A
  3
AcDbVariableDictionary
350
121
  0
DICTIONARY
  5
D
102
{ACAD_REACTORS
330
C
102
}
330
C
100
AcDbDictionary
281
     1
  0
DICTIONARY
  5
1A
102
{ACAD_REACTORS
330
C
102
}
330
C
100
AcDbDictionary
281
     1
  3
Layout1
350
1E
  3
Model
350
22
  0
DICTIONARY
  5
124
102
{ACAD_REACTORS
330
C
102
}
330
C
100
AcDbDictionary
281
     1
  0
DICTIONARY
  5
17
102
{ACAD_REACTORS
330
C
102
}
330
C
100
AcDbDictionary
281
     1
  3
Standard
350
18
  0
DICTIONARY
  5
19
102
{ACAD_REACTORS
330
C
102
}
330
C
100
AcDbDictionary
281
     1
  0
ACDBDICTIONARYWDFLT
  5
E
102
{ACAD_REACTORS
330
C
102
}
330
C
100
AcDbDictionary
281
     1
  3
Normal
350
F
100
AcDbDictionaryWithDefault
340
F
  0
DICTIONARY
  5
3B
102
{ACAD_REACTORS
330
C
102
}
330
C
100
AcDbDictionary
281
     1
  3
A0
350
3C
  3
A1
350
3D
  3
A2
350
3E
  3
A3
350
3F
  3
A4
350
40
  3
A5
350
41
  3
A6
350
42
  3
A7
350
43
  3
A8
350
44
  3
A9
350
45
  3
B0
350
46
  3
B1
350
47
  3
B2
350
48
  3
B3
350
49
  3
B4
350
4A
  3
B5
350
4B
  3
B6
350
4C
  3
B7
350
4D
  3
B8
350
4E
  3
B9
350
4F
  3
C0
350
50
  3
C1
350
51
  3
C2
350
52
  3
C3
350
53
  3
C4
350
54
  3
C5
350
55
  3
C6
350
56
  3
C7
350
57
  3
C8
350
58
  3
C9
350
59
  3
D0
350
5A
  3
D1
350
5B
  3
D2
350
5C
  0
DICTIONARY
  5
123
102
{ACAD_REACTORS
330
C
102
}
330
C
100
AcDbDictionary
281
     1
  0
DICTIONARY
  5
2A
102
{ACAD_REACTORS
330
C
102
}
330
C
100
AcDbDictionary
281
     1
  3
2dWireframe
350
2F
  3
3D Hidden
350
31
  3
3dWireframe
350
30
  3
Basic
350
32
  3
Brighten
350
36
  3
ColorChange
350
3A
  3
Conceptual
350
34
  3
Dim
350
35
  3
Facepattern
350
39
  3
Flat
350
2B
  3
FlatWithEdges
350
2C
  3
Gouraud
350
2D
  3
GouraudWithEdges
350
2E
  3
Linepattern
350
38
  3
Realistic
350
33
  3
Thicken
350
37
  0
DICTIONARY
  5
121
102
{ACAD_REACTORS
330
C
102
}
330
C
100
AcDbDictionary
281
     1
  3
CANNOSCALE
350
122
  3
PSOLHEIGHT
350
126
  3
PSOLWIDTH
350
125
  0
LAYOUT
  5
1E
102
{ACAD_REACTORS
330
1A
102
}
330
1A
100
AcDbPlotSettings
  1

  2
none_device
  4

  6

 40
0.0
 41
0.0
 42
0.0
 43
0.0
 44
0.0
 45
0.0
 46
0.0
 47
0.0
 48
0.0
 49
0.0
140
0.0
141
0.0
142
1.0
143
1.0
 70
   688
 72
     0
 73
     0
 74
     5
  7

 75
    16
147
1.0
148
0.0
149
0.0
100
AcDbLayout
  1
Layout1
 70
     1
 71
     1
 10
0.0
 20
0.0
 11
1682.0
 21
2378.0
 12
0.0
 22
0.0
 32
0.0
 14
0.0
 24
0.0
 34
0.0
 15
1682.0
 25
2378.0
 35
0.0
146
0.0
 13
0.0
 23
0.0
 33
0.0
 16
1.0
 26
0.0
 36
0.0
 17
0.0
 27
1.0
 37
0.0
 76
     0
330
1B
  0
LAYOUT
  5
22
102
{ACAD_REACTORS
330
1A
102
}
330
1A
100
AcDbPlotSettings
  1

  2
none_device
  4

  6

 40
0.0
 41
0.0
 42
0.0
 43
0.0
 44
0.0
 45
0.0
 46
0.0
 47
0.0
 48
0.0
 49
0.0
140
0.0
141
0.0
142
1.0
143
1.0
 70
  1712
 72
     0
 73
     0
 74
     0
  7

 75
     0
147
1.0
148
0.0
149
0.0
100
AcDbLayout
  1
Model
 70
     1
 71
     0
 10
0.0
 20
0.0
 11
1682.0
 21
2378.0
 12
0.0
 22
0.0
 32
0.0
 14
0.0
 24
0.0
 34
0.0
 15
1682.0
 25
2378.0
 35
0.0
146
0.0
 13
0.0
 23
0.0
 33
0.0
 16
1.0
 26
0.0
 36
0.0
 17
0.0
 27
1.0
 37
0.0
 76
     0
330
1F
331
29
  0
MLINESTYLE
  5
18
102
{ACAD_REACTORS
330
17
102
}
330
17
100
AcDbMlineStyle
  2
Standard
 70
     0
  3

 62
   256
 51
90.0
 52
90.0
 71
     2
 49
0.5
 62
   256
  6
BYLAYER
 49
-0.5
 62
   256
  6
BYLAYER
  0
ACDBPLACEHOLDER
  5
F
102
{ACAD_REACTORS
330
E
102
}
330
E
  0
SCALE
  5
3C
102
{ACAD_REACTORS
330
3B
102
}
330
3B
100
AcDbScale
 70
     0
300
1:1
140
1.0
141
1.0
290
     1
  0
SCALE
  5
3D
102
{ACAD_REACTORS
330
3B
102
}
330
3B
100
AcDbScale
 70
     0
300
1:2
140
1.0
141
2.0
290
     0
  0
SCALE
  5
3E
102
{ACAD_REACTORS
330
3B
102
}
330
3B
100
AcDbScale
 70
     0
300
1:4
140
1.0
141
4.0
290
     0
  0
SCALE
  5
3F
102
{ACAD_REACTORS
330
3B
102
}
330
3B
100
AcDbScale
 70
     0
300
1:5
140
1.0
141
5.0
290
     0
  0
SCALE
  5
40
102
{ACAD_REACTORS
330
3B
102
}
330
3B
100
AcDbScale
 70
     0
300
1:8
140
1.0
141
8.0
290
     0
  0
SCALE
  5
41
102
{ACAD_REACTORS
330
3B
102
}
330
3B
100
AcDbScale
 70
     0
300
1:10
140
1.0
141
10.0
290
     0
  0
SCALE
  5
42
102
{ACAD_REACTORS
330
3B
102
}
330
3B
100
AcDbScale
 70
     0
300
1:16
140
1.0
141
16.0
290
     0
  0
SCALE
  5
43
102
{ACAD_REACTORS
330
3B
102
}
330
3B
100
AcDbScale
 70
     0
300
1:20
140
1.0
141
20.0
290
     0
  0
SCALE
  5
44
102
{ACAD_REACTORS
330
3B
102
}
330
3B
100
AcDbScale
 70
     0
300
1:30
140
1.0
141
30.0
290
     0
  0
SCALE
  5
45
102
{ACAD_REACTORS
330
3B
102
}
330
3B
100
AcDbScale
 70
     0
300
1:40
140
1.0
141
40.0
290
     0
  0
SCALE
  5
46
102
{ACAD_REACTORS
330
3B
102
}
330
3B
100
AcDbScale
 70
     0
300
1:50
140
1.0
141
50.0
290
     0
  0
SCALE
  5
47
102
{ACAD_REACTORS
330
3B
102
}
330
3B
100
AcDbScale
 70
     0
300
1:100
140
1.0
141
100.0
290
     0
  0
SCALE
  5
48
102
{ACAD_REACTORS
330
3B
102
}
330
3B
100
AcDbScale
 70
     0
300
2:1
140
2.0
141
1.0
290
     0
  0
SCALE
  5
49
102
{ACAD_REACTORS
330
3B
102
}
330
3B
100
AcDbScale
 70
     0
300
4:1
140
4.0
141
1.0
290
     0
  0
SCALE
  5
4A
102
{ACAD_REACTORS
330
3B
102
}
330
3B
100
AcDbScale
 70
     0
300
8:1
140
8.0
141
1.0
290
     0
  0
SCALE
  5
4B
102
{ACAD_REACTORS
330
3B
102
}
330
3B
100
AcDbScale
 70
     0
300
10:1
140
10.0
141
1.0
290
     0
  0
SCALE
  5
4C
102
{ACAD_REACTORS
330
3B
102
}
330
3B
100
AcDbScale
 70
     0
300
100:1
140
100.0
141
1.0
290
     0
  0
SCALE
  5
4D
102
{ACAD_REACTORS
330
3B
102
}
330
3B
100
AcDbScale
 70
     0
300
1/128" = 1'-0"
140
0.0078125
141
12.0
290
     0
  0
SCALE
  5
4E
102
{ACAD_REACTORS
330
3B
102
}
330
3B
100
AcDbScale
 70
     0
300
1/64" = 1'-0"
140
0.015625
141
12.0
290
     0
  0
SCALE
  5
4F
102
{ACAD_REACTORS
330
3B
102
}
330
3B
100
AcDbScale
 70
     0
300
1/32" = 1'-0"
140
0.03125
141
12.0
290
     0
  0
SCALE
  5
50
102
{ACAD_REACTORS
330
3B
102
}
330
3B
100
AcDbScale
 70
     0
300
1/16" = 1'-0"
140
0.0625
141
12.0
290
     0
  0
SCALE
  5
51
102
{ACAD_REACTORS
330
3B
102
}
330
3B
100
AcDbScale
 70
     0
300
3/32" = 1'-0"
140
0.09375
141
12.0
290
     0
  0
SCALE
  5
52
102
{ACAD_REACTORS
330
3B
102
}
330
3B
100
AcDbScale
 70
     0
300
1/8" = 1'-0"
140
0.125
141
12.0
290
     0
  0
SCALE
  5
53
102
{ACAD_REACTORS
330
3B
102
}
330
3B
100
AcDbScale
 70
     0
300
3/16" = 1'-0"
140
0.1875
141
12.0
290
     0
  0
SCALE
  5
54
102
{ACAD_REACTORS
330
3B
102
}
330
3B
100
AcDbScale
 70
     0
300
1/4" = 1'-0"
140
0.25
141
12.0
290
     0
  0
SCALE
  5
55
102
{ACAD_REACTORS
330
3B
102
}
330
3B
100
AcDbScale
 70
     0
300
3/8" = 1'-0"
140
0.375
141
12.0
290
     0
  0
SCALE
  5
56
102
{ACAD_REACTORS
330
3B
102
}
330
3B
100
AcDbScale
 70
     0
300
1/2" = 1'-0"
140
0.5
141
12.0
290
     0
  0
SCALE
  5
57
102
{ACAD_REACTORS
330
3B
102
}
330
3B
100
AcDbScale
 70
     0
300
3/4" = 1'-0"
140
0.75
141
12.0
290
     0
  0
SCALE
  5
58
102
{ACAD_REACTORS
330
3B
102
}
330
3B
100
AcDbScale
 70
     0
300
1" = 1'-0"
140
1.0
141
12.0
290
     0
  0
SCALE
  5
59
102
{ACAD_REACTORS
330
3B
102
}
330
3B
100
AcDbScale
 70
     0
300
1-1/2" = 1'-0"
140
1.5
141
12.0
290
     0
  0
SCALE
  5
5A
102
{ACAD_REACTORS
330
3B
102
}
330
3B
100
AcDbScale
 70
     0
300
3" = 1'-0"
140
3.0
141
12.0
290
     0
  0
SCALE
  5
5B
102
{ACAD_REACTORS
330
3B
102
}
330
3B
100
AcDbScale
 70
     0
300
6" = 1'-0"
140
6.0
141
12.0
290
     0
  0
SCALE
  5
5C
102
{ACAD_REACTORS
330
3B
102
}
330
3B
100
AcDbScale
 70
     0
300
1'-0" = 1'-0"
140
12.0
141
12.0
290
     0
  0
VISUALSTYLE
  5
2F
102
{ACAD_REACTORS
330
2A
102
}
330
2A
100
AcDbVisualStyle
  2
2dWireframe
 70
     4
 71
     0
 72
     2
 73
     0
 90
        0
 40
-0.6
 41
-30.0
 62
     5
 63
     7
 74
     1
 91
        4
 64
     7
 65
   257
 75
     1
175
     1
 42
1.0
 92
        0
 66
   257
 43
1.0
 76
     1
 77
     6
 78
     2
 67
     7
 79
     5
170
     0
171
     0
290
     0
174
     0
 93
        1
 44
0.0
173
     0
291
     0
 45
0.0
1001
ACAD
1000
AcDbSavedByObjectVersion
1070
     0
  0
VISUALSTYLE
  5
31
102
{ACAD_REACTORS
330
2A
102
}
330
2A
100
AcDbVisualStyle
  2
3D Hidden
 70
     6
 71
     1
 72
     2
 73
     2
 90
        0
 40
-0.6
 41
-30.0
 62
     5
 63
     7
 74
     2
 91
        2
 64
     7
 65
   257
 75
     2
175
     1
 42
40.0
 92
        0
 66
   257
 43
1.0
 76
     1
 77
     6
 78
     2
 67
     7
 79
     3
170
     0
171
     0
290
     0
174
     0
 93
        1
 44
0.0
173
     0
291
     0
 45
0.0
1001
ACAD
1000
AcDbSavedByObjectVersion
1070
     0
  0
VISUALSTYLE
  5
30
102
{ACAD_REACTORS
330
2A
102
}
330
2A
100
AcDbVisualStyle
  2
3dWireframe
 70
     5
 71
     0
 72
     2
 73
     0
 90
        0
 40
-0.6
 41
-30.0
 62
     5
 63
     7
 74
     1
 91
        4
 64
     7
 65
   257
 75
     1
175
     1
 42
1.0
 92
        0
 66
   257
 43
1.0
 76
     1
 77
     6
 78
     2
 67
     7
 79
     5
170
     0
171
     0
290
     0
174
     0
 93
        1
 44
0.0
173
     0
291
     0
 45
0.0
1001
ACAD
1000
AcDbSavedByObjectVersion
1070
     0
  0
VISUALSTYLE
  5
32
102
{ACAD_REACTORS
330
2A
102
}
330
2A
100
AcDbVisualStyle
  2
Basic
 70
     7
 71
     1
 72
     0
 73
     1
 90
        0
 40
-0.6
 41
-30.0
 62
     5
 63
     7
 74
     0
 91
        4
 64
     7
 65
   257
 75
     1
175
     1
 42
1.0
 92
        8
 66
     7
 43
1.0
 76
     1
 77
     6
 78
     2
 67
     7
 79
     5
170
     0
171
     0
290
     0
174
     0
 93
        1
 44
0.0
173
     0
291
     1
 45
0.0
1001
ACAD
1000
AcDbSavedByObjectVersion
1070
     0
  0
VISUALSTYLE
  5
36
102
{ACAD_REACTORS
330
2A
102
}
330
2A
100
AcDbVisualStyle
  2
Brighten
 70
    12
 71
     2
 72
     2
 73
     0
 90
        0
 40
-0.6
 41
-30.0
 62
     5
 63
     7
 74
     1
 91
        4
 64
     7
 65
   257
 75
     1
175
     1
 42
1.0
 92
        8
 66
     7
 43
1.0
 76
     1
 77
     6
 78
     2
 67
     7
 79
     5
170
     0
171
     0
290
     0
174
     0
 93
        1
 44
50.0
173
     0
291
     1
 45
0.0
1001
ACAD
1000
AcDbSavedByObjectVersion
1070
     0
  0
VISUALSTYLE
  5
3A
102
{ACAD_REACTORS
330
2A
102
}
330
2A
100
AcDbVisualStyle
  2
ColorChange
 70
    16
 71
     2
 72
     2
 73
     3
 90
        0
 40
-0.6
 41
-30.0
 62
     5
 63
     8
 74
     1
 91
        4
 64
     7
 65
   257
 75
     1
175
     1
 42
1.0
 92
        8
 66
     8
 43
1.0
 76
     1
 77
     6
 78
     2
 67
     7
 79
     5
170
     0
171
     0
290
     0
174
     0
 93
        1
 44
0.0
173
     0
291
     1
 45
0.0
1001
ACAD
1000
AcDbSavedByObjectVersion
1070
     0
  0
VISUALSTYLE
  5
34
102
{ACAD_REACTORS
330
2A
102
}
330
2A
100
AcDbVisualStyle
  2
Conceptual
 70
     9
 71
     3
 72
     2
 73
     0
 90
        0
 40
-0.6
 41
-30.0
 62
     5
 63
     7
 74
     2
 91
        2
 64
     7
 65
   257
 75
     1
175
     1
 42
40.0
 92
        8
 66
     7
 43
1.0
 76
     1
 77
     6
 78
     2
 67
     7
 79
     3
170
     0
171
     0
290
     0
174
     0
 93
        1
 44
0.0
173
     0
291
     0
 45
0.0
1001
ACAD
1000
AcDbSavedByObjectVersion
1070
     0
  0
VISUALSTYLE
  5
35
102
{ACAD_REACTORS
330
2A
102
}
330
2A
100
AcDbVisualStyle
  2
Dim
 70
    11
 71
     2
 72
     2
 73
     0
 90
        0
 40
-0.6
 41
-30.0
 62
     5
 63
     7
 74
     1
 91
        4
 64
     7
 65
   257
 75
     1
175
     1
 42
1.0
 92
        8
 66
     7
 43
1.0
 76
     1
 77
     6
 78
     2
 67
     7
 79
     5
170
     0
171
     0
290
     0
174
     0
 93
        1
 44
-50.0
173
     0
291
     1
 45
0.0
1001
ACAD
1000
AcDbSavedByObjectVersion
1070
     0
  0
VISUALSTYLE
  5
39
102
{ACAD_REACTORS
330
2A
102
}
330
2A
100
AcDbVisualStyle
  2
Facepattern
 70
    15
 71
     2
 72
     2
 73
     0
 90
        0
 40
-0.6
 41
-30.0
 62
     5
 63
     7
 74
     1
 91
        4
 64
     7
 65
   257
 75
     1
175
     1
 42
1.0
 92
        8
 66
     7
 43
1.0
 76
     1
 77
     6
 78
     2
 67
     7
 79
     5
170
     0
171
     0
290
     0
174
     0
 93
        1
 44
0.0
173
     0
291
     1
 45
0.0
1001
ACAD
1000
AcDbSavedByObjectVersion
1070
     0
  0
VISUALSTYLE
  5
2B
102
{ACAD_REACTORS
330
2A
102
}
330
2A
100
AcDbVisualStyle
  2
Flat
 70
     0
 71
     2
 72
     1
 73
     1
 90
        2
 40
-0.6
 41
30.0
 62
     5
 63
     7
 74
     0
 91
        4
 64
     7
 65
   257
 75
     1
175
     1
 42
1.0
 92
        8
 66
     7
 43
1.0
 76
     1
 77
     6
 78
     2
 67
     7
 79
     5
170
     0
171
     0
290
     0
174
     0
 93
       13
 44
0.0
173
     0
291
     1
 45
0.0
1001
ACAD
1000
AcDbSavedByObjectVersion
1070
     0
  0
VISUALSTYLE
  5
2C
102
{ACAD_REACTORS
330
2A
102
}
330
2A
100
AcDbVisualStyle
  2
FlatWithEdges
 70
     1
 71
     2
 72
     1
 73
     1
 90
        2
 40
-0.6
 41
30.0
 62
     5
 63
     7
 74
     1
 91
        4
 64
     7
 65
   257
 75
     1
175
     1
 42
1.0
 92
        0
 66
   257
 43
1.0
 76
     1
 77
     6
 78
     2
 67
     7
 79
     5
170
     0
171
     0
290
     0
174
     0
 93
       13
 44
0.0
173
     0
291
     1
 45
0.0
1001
ACAD
1000
AcDbSavedByObjectVersion
1070
     0
  0
VISUALSTYLE
  5
2D
102
{ACAD_REACTORS
330
2A
102
}
330
2A
100
AcDbVisualStyle
  2
Gouraud
 70
     2
 71
     2
 72
     2
 73
     1
 90
        2
 40
-0.6
 41
30.0
 62
     5
 63
     7
 74
     0
 91
        4
 64
     7
 65
   257
 75
     1
175
     1
 42
1.0
 92
        0
 66
     7
 43
1.0
 76
     1
 77
     6
 78
     2
 67
     7
 79
     5
170
     0
171
     0
290
     0
174
     0
 93
       13
 44
0.0
173
     0
291
     1
 45
0.0
1001
ACAD
1000
AcDbSavedByObjectVersion
1070
     0
  0
VISUALSTYLE
  5
2E
102
{ACAD_REACTORS
330
2A
102
}
330
2A
100
AcDbVisualStyle
  2
GouraudWithEdges
 70
     3
 71
     2
 72
     2
 73
     1
 90
        2
 40
-0.6
 41
30.0
 62
     5
 63
     7
 74
     1
 91
        4
 64
     7
 65
   257
 75
     1
175
     1
 42
1.0
 92
        0
 66
   257
 43
1.0
 76
     1
 77
     6
 78
     2
 67
     7
 79
     5
170
     0
171
     0
290
     0
174
     0
 93
       13
 44
0.0
173
     0
291
     1
 45
0.0
1001
ACAD
1000
AcDbSavedByObjectVersion
1070
     0
  0
VISUALSTYLE
  5
38
102
{ACAD_REACTORS
330
2A
102
}
330
2A
100
AcDbVisualStyle
  2
Linepattern
 70
    14
 71
     2
 72
     2
 73
     0
 90
        0
 40
-0.6
 41
-30.0
 62
     5
 63
     7
 74
     1
 91
        4
 64
     7
 65
   257
 75
     7
175
     7
 42
1.0
 92
        8
 66
     7
 43
1.0
 76
     1
 77
     6
 78
     2
 67
     7
 79
     5
170
     0
171
     0
290
     0
174
     0
 93
        1
 44
0.0
173
     0
291
     1
 45
0.0
1001
ACAD
1000
AcDbSavedByObjectVersion
1070
     0
  0
VISUALSTYLE
  5
33
102
{ACAD_REACTORS
330
2A
102
}
330
2A
100
AcDbVisualStyle
  2
Realistic
 70
     8
 71
     2
 72
     2
 73
     0
 90
        0
 40
-0.6
 41
-30.0
 62
     5
 63
     7
 74
     1
 91
        0
 64
     7
 65
   257
 75
     1
175
     1
 42
1.0
 92
        8
 66
     8
 43
1.0
 76
     1
 77
     6
 78
     2
 67
     7
 79
     5
170
     0
171
     0
290
     0
174
     0
 93
       13
 44
0.0
173
     0
291
     0
 45
0.0
1001
ACAD
1000
AcDbSavedByObjectVersion
1070
     0
  0
VISUALSTYLE
  5
37
102
{ACAD_REACTORS
330
2A
102
}
330
2A
100
AcDbVisualStyle
  2
Thicken
 70
    13
 71
     2
 72
     2
 73
     0
 90
        0
 40
-0.6
 41
-30.0
 62
     5
 63
     7
 74
     1
 91
        4
 64
     7
 65
   257
 75
     1
175
     1
 42
1.0
 92
       12
 66
     7
 43
1.0
 76
     1
 77
     6
 78
     2
 67
     7
 79
     5
170
     0
171
     0
290
     0
174
     0
 93
        1
 44
0.0
173
     0
291
     1
 45
0.0
1001
ACAD
1000
AcDbSavedByObjectVersion
1070
     0
  0
DICTIONARYVAR
  5
122
102
{ACAD_REACTORS
330
121
102
}
330
121
100
DictionaryVariables
280
     0
  1
1:1
  0
DICTIONARYVAR
  5
126
102
{ACAD_REACTORS
330
121
102
}
330
121
100
DictionaryVariables
280
     0
  1
80.000000
  0
DICTIONARYVAR
  5
125
102
{ACAD_REACTORS
330
121
102
}
330
121
100
DictionaryVariables
280
     0
  1
5.000000
  0
ENDSEC
  0
EOF
