  0
SECTION
  2
HEADER
  9
$ACADVER
  1
AC1015
  9
$ACADMAINTVER
 70
     6
  9
$DWGCODEPAGE
  3
ANSI_1252
  9
$INSBASE
 10
0.0
 20
0.0
 30
0.0
  9
$EXTMIN
 10
0.0
 20
0.0
 30
0.0
  9
$EXTMAX
 10
1682.0
 20
2378.0
 30
0.0
  9
$LIMMIN
 10
0.0
 20
0.0
  9
$LIMMAX
 10
1682.0
 20
2378.0
  9
$ORTHOMODE
 70
     0
  9
$REGENMODE
 70
     1
  9
$FILLMODE
 70
     1
  9
$QTEXTMODE
 70
     0
  9
$MIRRTEXT
 70
     1
  9
$LTSCALE
 40
1.0
  9
$ATTMODE
 70
     1
  9
$TEXTSIZE
 40
2.5
  9
$TRACEWID
 40
1.0
  9
$TEXTSTYLE
  7
Standard
  9
$CLAYER
  8
0
  9
$CELTYPE
  6
ByLayer
  9
$CECOLOR
 62
   256
  9
$CELTSCALE
 40
1.0
  9
$DISPSILH
 70
     0
  9
$DIMSCALE
 40
1.0
  9
$DIMASZ
 40
2.5
  9
$DIMEXO
 40
0.625
  9
$DIMDLI
 40
3.75
  9
$DIMRND
 40
0.0
  9
$DIMDLE
 40
0.0
  9
$DIMEXE
 40
1.25
  9
$DIMTP
 40
0.0
  9
$DIMTM
 40
0.0
  9
$DIMTXT
 40
2.5
  9
$DIMCEN
 40
2.5
  9
$DIMTSZ
 40
0.0
  9
$DIMTOL
 70
     0
  9
$DIMLIM
 70
     0
  9
$DIMTIH
 70
     0
  9
$DIMTOH
 70
     0
  9
$DIMSE1
 70
     0
  9
$DIMSE2
 70
     0
  9
$DIMTAD
 70
     1
  9
$DIMZIN
 70
     8
  9
$DIMBLK
  1

  9
$DIMASO
 70
     1
  9
$DIMSHO
 70
     1
  9
$DIMPOST
  1

  9
$DIMAPOST
  1

  9
$DIMALT
 70
     0
  9
$DIMALTD
 70
     3
  9
$DIMALTF
 40
0.0393700787
  9
$DIMLFAC
 40
1.0
  9
$DIMTOFL
 70
     1
  9
$DIMTVP
 40
0.0
  9
$DIMTIX
 70
     0
  9
$DIMSOXD
 70
     0
  9
$DIMSAH
 70
     0
  9
$DIMBLK1
  1

  9
$DIMBLK2
  1

  9
$DIMSTYLE
  2
ISO-25
  9
$DIMCLRD
 70
     0
  9
$DIMCLRE
 70
     0
  9
$DIMCLRT
 70
     0
  9
$DIMTFAC
 40
1.0
  9
$DIMGAP
 40
0.625
  9
$DIMJUST
 70
     0
  9
$DIMSD1
 70
     0
  9
$DIMSD2
 70
     0
  9
$DIMTOLJ
 70
     0
  9
$DIMTZIN
 70
     8
  9
$DIMALTZ
 70
     0
  9
$DIMALTTZ
 70
     0
  9
$DIMUPT
 70
     0
  9
$DIMDEC
 70
     2
  9
$DIMTDEC
 70
     2
  9
$DIMALTU
 70
     2
  9
$DIMALTTD
 70
     3
  9
$DIMTXSTY
  7
Standard
  9
$DIMAUNIT
 70
     0
  9
$DIMADEC
 70
     0
  9
$DIMALTRND
 40
0.0
  9
$DIMAZIN
 70
     0
  9
$DIMDSEP
 70
    44
  9
$DIMATFIT
 70
     3
  9
$DIMFRAC
 70
     0
  9
$DIMLDRBLK
  1

  9
$DIMLUNIT
 70
     2
  9
$DIMLWD
 70
    -2
  9
$DIMLWE
 70
    -2
  9
$DIMTMOVE
 70
     0
  9
$LUNITS
 70
     2
  9
$LUPREC
 70
     4
  9
$SKETCHINC
 40
1.0
  9
$FILLETRAD
 40
10.0
  9
$AUNITS
 70
     0
  9
$AUPREC
 70
     0
  9
$MENU
  1
.
  9
$ELEVATION
 40
0.0
  9
$PELEVATION
 40
0.0
  9
$THICKNESS
 40
0.0
  9
$LIMCHECK
 70
     0
  9
$CHAMFERA
 40
10.0
  9
$CHAMFERB
 40
10.0
  9
$CHAMFERC
 40
20.0
  9
$CHAMFERD
 40
0.0
  9
$SKPOLY
 70
     0
  9
$TDCREATE
 40
2455510.628836493
  9
$TDUCREATE
 40
2455510.587169826
  9
$TDUPDATE
 40
2455510.628836505
  9
$TDUUPDATE
 40
2455510.587169838
  9
$TDINDWG
 40
0.0000000116
  9
$TDUSRTIMER
 40
0.0000000116
  9
$USRTIMER
 70
     1
  9
$ANGBASE
 50
0.0
  9
$ANGDIR
 70
     0
  9
$PDMODE
 70
     0
  9
$PDSIZE
 40
0.0
  9
$PLINEWID
 40
0.0
  9
$SPLFRAME
 70
     0
  9
$SPLINETYPE
 70
     6
  9
$SPLINESEGS
 70
     8
  9
$HANDSEED
  5
1A2
  9
$SURFTAB1
 70
     6
  9
$SURFTAB2
 70
     6
  9
$SURFTYPE
 70
     6
  9
$SURFU
 70
     6
  9
$SURFV
 70
     6
  9
$UCSBASE
  2

  9
$UCSNAME
  2

  9
$UCSORG
 10
0.0
 20
0.0
 30
0.0
  9
$UCSXDIR
 10
1.0
 20
0.0
 30
0.0
  9
$UCSYDIR
 10
0.0
 20
1.0
 30
0.0
  9
$UCSORTHOREF
  2

  9
$UCSORTHOVIEW
 70
     0
  9
$UCSORGTOP
 10
0.0
 20
0.0
 30
0.0
  9
$UCSORGBOTTOM
 10
0.0
 20
0.0
 30
0.0
  9
$UCSORGLEFT
 10
0.0
 20
0.0
 30
0.0
  9
$UCSORGRIGHT
 10
0.0
 20
0.0
 30
0.0
  9
$UCSORGFRONT
 10
0.0
 20
0.0
 30
0.0
  9
$UCSORGBACK
 10
0.0
 20
0.0
 30
0.0
  9
$PUCSBASE
  2

  9
$PUCSNAME
  2

  9
$PUCSORG
 10
0.0
 20
0.0
 30
0.0
  9
$PUCSXDIR
 10
1.0
 20
0.0
 30
0.0
  9
$PUCSYDIR
 10
0.0
 20
1.0
 30
0.0
  9
$PUCSORTHOREF
  2

  9
$PUCSORTHOVIEW
 70
     0
  9
$PUCSORGTOP
 10
0.0
 20
0.0
 30
0.0
  9
$PUCSORGBOTTOM
 10
0.0
 20
0.0
 30
0.0
  9
$PUCSORGLEFT
 10
0.0
 20
0.0
 30
0.0
  9
$PUCSORGRIGHT
 10
0.0
 20
0.0
 30
0.0
  9
$PUCSORGFRONT
 10
0.0
 20
0.0
 30
0.0
  9
$PUCSORGBACK
 10
0.0
 20
0.0
 30
0.0
  9
$USERI1
 70
     0
  9
$USERI2
 70
     0
  9
$USERI3
 70
     0
  9
$USERI4
 70
     0
  9
$USERI5
 70
     0
  9
$USERR1
 40
0.0
  9
$USERR2
 40
0.0
  9
$USERR3
 40
0.0
  9
$USERR4
 40
0.0
  9
$USERR5
 40
0.0
  9
$WORLDVIEW
 70
     1
  9
$SHADEDGE
 70
     3
  9
$SHADEDIF
 70
    70
  9
$TILEMODE
 70
     1
  9
$MAXACTVP
 70
    64
  9
$PINSBASE
 10
0.0
 20
0.0
 30
0.0
  9
$PLIMCHECK
 70
     0
  9
$PEXTMIN
 10
0.0
 20
0.0
 30
0.0
  9
$PEXTMAX
 10
1682.0
 20
2378.0
 30
0.0
  9
$PLIMMIN
 10
0.0
 20
0.0
  9
$PLIMMAX
 10
1682.0
 20
2378.0
  9
$UNITMODE
 70
     0
  9
$VISRETAIN
 70
     1
  9
$PLINEGEN
 70
     0
  9
$PSLTSCALE
 70
     1
  9
$TREEDEPTH
 70
  3020
  9
$CMLSTYLE
  2
Standard
  9
$CMLJUST
 70
     0
  9
$CMLSCALE
 40
20.0
  9
$PROXYGRAPHICS
 70
     1
  9
$MEASUREMENT
 70
     1
  9
$CELWEIGHT
370
    -1
  9
$ENDCAPS
280
     0
  9
$JOINSTYLE
280
     0
  9
$LWDISPLAY
290
     0
  9
$INSUNITS
 70
     4
  9
$HYPERLINKBASE
  1

  9
$STYLESHEET
  1

  9
$XEDIT
290
     1
  9
$CEPSNTYPE
380
     0
  9
$PSTYLEMODE
290
     1
  9
$FINGERPRINTGUID
  2
{359F6959-CF59-41A4-A9C5-C0765429BD49}
  9
$VERSIONGUID
  2
{FAEB1C32-E019-11D5-929B-00C0DF256EC4}
  9
$EXTNAMES
290
     1
  9
$PSVPSCALE
 40
0.0
  9
$OLESTARTUP
290
     0
  0
ENDSEC
  0
SECTION
  2
CLASSES
  0
CLASS
  1
ACDBDICTIONARYWDFLT
  2
AcDbDictionaryWithDefault
  3
ObjectDBX Classes
 90
        0
280
     0
281
     0
  0
CLASS
  1
VISUALSTYLE
  2
AcDbVisualStyle
  3
ObjectDBX Classes
 90
     4095
280
     0
281
     0
  0
CLASS
  1
SCALE
  2
AcDbScale
  3
ObjectDBX Classes
 90
     1153
280
     0
281
     0
  0
CLASS
  1
DICTIONARYVAR
  2
AcDbDictionaryVar
  3
ObjectDBX Classes
 90
        0
280
     0
281
     0
  0
CLASS
  1
ACDBPLACEHOLDER
  2
AcDbPlaceHolder
  3
ObjectDBX Classes
 90
        0
280
     0
281
     0
  0
CLASS
  1
LAYOUT
  2
AcDbLayout
  3
ObjectDBX Classes
 90
        0
280
     0
281
     0
  0
ENDSEC
  0
SECTION
  2
TABLES
  0
TABLE
  2
VPORT
  5
8
330
0
100
AcDbSymbolTable
 70
     1
  0
VPORT
  5
29
330
8
100
AcDbSymbolTableRecord
100
AcDbViewportTableRecord
  2
*Active
 70
     0
 10
0.0
 20
0.0
 11
1.0
 21
1.0
 12
344.1869158879
 22
148.5
 13
0.0
 23
0.0
 14
10.0
 24
10.0
 15
10.0
 25
10.0
 16
0.0
 26
0.0
 36
1.0
 17
0.0
 27
0.0
 37
0.0
 40
297.0
 41
1.9729729729
 42
50.0
 43
0.0
 44
0.0
 50
0.0
 51
0.0
 71
     0
 72
   100
 73
     1
 74
     3
 75
     0
 76
     0
 77
     0
 78
     0
281
     0
 65
     1
110
0.0
120
0.0
130
0.0
111
1.0
121
0.0
131
0.0
112
0.0
122
1.0
132
0.0
 79
     0
146
0.0
  0
ENDTAB
  0
TABLE
  2
LTYPE
  5
5
330
0
100
AcDbSymbolTable
 70
     2
  0
LTYPE
  5
14
330
5
100
AcDbSymbolTableRecord
100
AcDbLinetypeTableRecord
  2
ByBlock
 70
     0
  3

 72
    65
 73
     0
 40
0.0
  0
LTYPE
  5
15
330
5
100
AcDbSymbolTableRecord
100
AcDbLinetypeTableRecord
  2
ByLayer
 70
     0
  3

 72
    65
 73
     0
 40
0.0
  0
LTYPE
  5
16
330
5
100
AcDbSymbolTableRecord
100
AcDbLinetypeTableRecord
  2
Continuous
 70
     0
  3
Solid line
 72
    65
 73
     0
 40
0.0
  0
LTYPE
  5
60
330
5
100
AcDbSymbolTableRecord
100
AcDbLinetypeTableRecord
  2
CENTER2
 70
     0
  3
Center (.5x) ___ _ ___ _ ___ _ ___ _ ___ _ ___
 72
    65
 73
     4
 40
28.575
 49
19.05
 74
     4
 75
     0
340
0
 46
0.0
 50
0.0
 44
0.0
 45
0.0
 49
-3.175
 74
     4
 75
     0
340
0
 46
0.0
 50
0.0
 44
0.0
 45
0.0
 49
3.175
 74
     4
 75
     0
340
0
 46
0.0
 50
0.0
 44
0.0
 45
0.0
 49
-3.175
 74
     4
 75
     0
340
0
 46
0.0
 50
0.0
 44
0.0
 45
0.0
  0
ENDTAB
  0
TABLE
  2
LAYER
  5
2
330
0
100
AcDbSymbolTable
 70
    10
  0
LAYER
  5
10
330
2
100
AcDbSymbolTableRecord
100
AcDbLayerTableRecord
  2
0
 70
     0
 62
     7
  6
Continuous
370
    -3
390
F
  0
LAYER
  5
5D
330
2
100
AcDbSymbolTableRecord
100
AcDbLayerTableRecord
  2
Default
 70
     0
 62
     7
  6
Continuous
370
    -3
390
F
  0
LAYER
  5
8D
330
2
100
AcDbSymbolTableRecord
100
AcDbLayerTableRecord
  2
$DDT_AUDIT_GENERATED_(8D)
 70
     0
 62
     7
  6
Continuous
370
    -3
390
F
  0
LAYER
  5
A0
330
2
100
AcDbSymbolTableRecord
100
AcDbLayerTableRecord
  2
$DDT_AUDIT_GENERATED_(A0)
 70
     0
 62
     7
  6
Continuous
370
    -3
390
F
  0
LAYER
  5
A4
330
2
100
AcDbSymbolTableRecord
100
AcDbLayerTableRecord
  2
$DDT_AUDIT_GENERATED_(A4)
 70
     0
 62
     7
  6
Continuous
370
    -3
390
F
  0
LAYER
  5
B3
330
2
100
AcDbSymbolTableRecord
100
AcDbLayerTableRecord
  2
$DDT_AUDIT_GENERATED_(B3)
 70
     0
 62
     7
  6
Continuous
370
    -3
390
F
  0
LAYER
  5
CB
330
2
100
AcDbSymbolTableRecord
100
AcDbLayerTableRecord
  2
$DDT_AUDIT_GENERATED_(CB)
 70
     0
 62
     7
  6
Continuous
370
    -3
390
F
  0
LAYER
  5
115
330
2
100
AcDbSymbolTableRecord
100
AcDbLayerTableRecord
  2
$DDT_AUDIT_GENERATED_(115)
 70
     0
 62
     7
  6
Continuous
370
    -3
390
F
  0
LAYER
  5
121
330
2
100
AcDbSymbolTableRecord
100
AcDbLayerTableRecord
  2
$DDT_AUDIT_GENERATED_(121)
 70
     0
 62
     7
  6
Continuous
370
    -3
390
F
  0
LAYER
  5
127
330
2
100
AcDbSymbolTableRecord
100
AcDbLayerTableRecord
  2
$DDT_AUDIT_GENERATED_(127)
 70
     0
 62
     7
  6
Continuous
370
    -3
390
F
  0
ENDTAB
  0
TABLE
  2
STYLE
  5
3
330
0
100
AcDbSymbolTable
 70
     2
  0
STYLE
  5
11
330
3
100
AcDbSymbolTableRecord
100
AcDbTextStyleTableRecord
  2
Standard
 70
     0
 40
0.0
 41
1.0
 50
0.0
 71
     0
 42
2.5
  3
txt
  4

  0
STYLE
  5
191
330
3
100
AcDbSymbolTableRecord
100
AcDbTextStyleTableRecord
  2
SEACAD_seiso_ttf
 70
     0
 40
0.0
 41
1.0
 50
0.0
 71
     0
 42
0.2
  3
seiso.ttf
  4

  0
ENDTAB
  0
TABLE
  2
VIEW
  5
6
330
0
100
AcDbSymbolTable
 70
     0
  0
ENDTAB
  0
TABLE
  2
UCS
  5
7
330
0
100
AcDbSymbolTable
 70
     0
  0
ENDTAB
  0
TABLE
  2
APPID
  5
9
330
0
100
AcDbSymbolTable
 70
     1
  0
APPID
  5
12
330
9
100
AcDbSymbolTableRecord
100
AcDbRegAppTableRecord
  2
ACAD
 70
     0
  0
ENDTAB
  0
TABLE
  2
DIMSTYLE
  5
A
330
0
100
AcDbSymbolTable
 70
     1
100
AcDbDimStyleTable
  0
DIMSTYLE
105
27
330
A
100
AcDbSymbolTableRecord
100
AcDbDimStyleTableRecord
  2
ISO-25
 70
     0
 41
2.5
 42
0.625
 43
3.75
 44
1.25
 73
     0
 74
     0
 77
     1
 78
     8
140
2.5
141
2.5
143
0.0393700787
147
0.625
171
     3
172
     1
271
     2
272
     2
274
     3
278
    44
283
     0
284
     8
340
11
  0
ENDTAB
  0
TABLE
  2
BLOCK_RECORD
  5
1
330
0
100
AcDbSymbolTable
 70
    10
  0
BLOCK_RECORD
  5
1F
330
1
100
AcDbSymbolTableRecord
100
AcDbBlockTableRecord
  2
*Model_Space
340
22
  0
BLOCK_RECORD
  5
1B
330
1
100
AcDbSymbolTableRecord
100
AcDbBlockTableRecord
  2
*Paper_Space
340
1E
  0
BLOCK_RECORD
  5
5E
330
1
100
AcDbSymbolTableRecord
100
AcDbBlockTableRecord
  2
SEANNOT_GROUP
340
0
102
{BLKREFS
331
5F
102
}
  0
BLOCK_RECORD
  5
69
330
1
100
AcDbSymbolTableRecord
100
AcDbBlockTableRecord
  2
SEANNOT_GROUP1
340
0
102
{BLKREFS
331
6A
102
}
  0
BLOCK_RECORD
  5
73
330
1
100
AcDbSymbolTableRecord
100
AcDbBlockTableRecord
  2
SEANNOT_GROUP2
340
0
102
{BLKREFS
331
74
102
}
  0
BLOCK_RECORD
  5
79
330
1
100
AcDbSymbolTableRecord
100
AcDbBlockTableRecord
  2
SEANNOT_GROUP3
340
0
102
{BLKREFS
331
7A
102
}
  0
BLOCK_RECORD
  5
7F
330
1
100
AcDbSymbolTableRecord
100
AcDbBlockTableRecord
  2
SEANNOT_GROUP4
340
0
102
{BLKREFS
331
80
102
}
  0
BLOCK_RECORD
  5
85
330
1
100
AcDbSymbolTableRecord
100
AcDbBlockTableRecord
  2
SEANNOT_GROUP5
340
0
102
{BLKREFS
331
86
102
}
  0
BLOCK_RECORD
  5
8B
330
1
100
AcDbSymbolTableRecord
100
AcDbBlockTableRecord
  2
SE
340
0
102
{BLKREFS
331
8C
102
}
  0
BLOCK_RECORD
  5
D1
330
1
100
AcDbSymbolTableRecord
100
AcDbBlockTableRecord
  2
SE1
340
0
102
{BLKREFS
331
D2
102
}
  0
BLOCK_RECORD
  5
12B
330
1
100
AcDbSymbolTableRecord
100
AcDbBlockTableRecord
  2
SE2
340
0
102
{BLKREFS
331
12C
102
}
  0
ENDTAB
  0
ENDSEC
  0
SECTION
  2
BLOCKS
  0
BLOCK
  5
20
330
1F
100
AcDbEntity
  8
0
100
AcDbBlockBegin
  2
*Model_Space
 70
     0
 10
0.0
 20
0.0
 30
0.0
  3
*Model_Space
  1

  0
ENDBLK
  5
21
330
1F
100
AcDbEntity
  8
0
100
AcDbBlockEnd
  0
BLOCK
  5
1C
330
1B
100
AcDbEntity
 67
     1
  8
0
100
AcDbBlockBegin
  2
*Paper_Space
 70
     0
 10
0.0
 20
0.0
 30
0.0
  3
*Paper_Space
  1

  0
ENDBLK
  5
1D
330
1B
100
AcDbEntity
 67
     1
  8
0
100
AcDbBlockEnd
  0
BLOCK
  5
67
330
5E
100
AcDbEntity
  8
0
100
AcDbBlockBegin
  2
SEANNOT_GROUP
 70
     0
 10
0.0
 20
0.0
 30
0.0
  3
SEANNOT_GROUP
  1

  0
LINE
  5
61
330
5E
100
AcDbEntity
  8
Default
  6
CENTER2
 62
     7
100
AcDbLine
 10
61.349999553
 20
456.0562586847
 30
0.0
 11
21.350000447
 21
456.0562586847
 31
0.0
  0
LINE
  5
62
330
5E
100
AcDbEntity
  8
Default
  6
CENTER2
 62
     7
100
AcDbLine
 10
41.35
 20
476.0562582376
 30
0.0
 11
41.35
 21
436.0562591317
 31
0.0
  0
LINE
  5
63
330
5E
100
AcDbEntity
  8
Default
  6
CENTER2
 62
     7
100
AcDbLine
 10
66.3499994412
 20
456.0562586847
 30
0.0
 11
79.85
 21
456.0562586847
 31
0.0
  0
LINE
  5
64
330
5E
100
AcDbEntity
  8
Default
  6
CENTER2
 62
     7
100
AcDbLine
 10
41.35
 20
481.0562581259
 30
0.0
 11
41.35
 21
494.5562586847
 31
0.0
  0
LINE
  5
65
330
5E
100
AcDbEntity
  8
Default
  6
CENTER2
 62
     7
100
AcDbLine
 10
16.3500005588
 20
456.0562586847
 30
0.0
 11
2.85
 21
456.0562586847
 31
0.0
  0
LINE
  5
66
330
5E
100
AcDbEntity
  8
Default
  6
CENTER2
 62
     7
100
AcDbLine
 10
41.35
 20
431.0562592435
 30
0.0
 11
41.35
 21
417.5562586847
 31
0.0
  0
ENDBLK
  5
68
330
5E
100
AcDbEntity
  8
0
100
AcDbBlockEnd
  0
BLOCK
  5
71
330
69
100
AcDbEntity
  8
0
100
AcDbBlockBegin
  2
SEANNOT_GROUP1
 70
     0
 10
0.0
 20
0.0
 30
0.0
  3
SEANNOT_GROUP1
  1

  0
LINE
  5
6B
330
69
100
AcDbEntity
  8
Default
  6
CENTER2
 62
     7
100
AcDbLine
 10
211.349999553
 20
456.0562586847
 30
0.0
 11
171.350000447
 21
456.0562586847
 31
0.0
  0
LINE
  5
6C
330
69
100
AcDbEntity
  8
Default
  6
CENTER2
 62
     7
100
AcDbLine
 10
191.35
 20
476.0562582376
 30
0.0
 11
191.35
 21
436.0562591317
 31
0.0
  0
LINE
  5
6D
330
69
100
AcDbEntity
  8
Default
  6
CENTER2
 62
     7
100
AcDbLine
 10
216.3499994412
 20
456.0562586847
 30
0.0
 11
229.85
 21
456.0562586847
 31
0.0
  0
LINE
  5
6E
330
69
100
AcDbEntity
  8
Default
  6
CENTER2
 62
     7
100
AcDbLine
 10
191.35
 20
481.0562581259
 30
0.0
 11
191.35
 21
494.5562586847
 31
0.0
  0
LINE
  5
6F
330
69
100
AcDbEntity
  8
Default
  6
CENTER2
 62
     7
100
AcDbLine
 10
166.3500005588
 20
456.0562586847
 30
0.0
 11
152.85
 21
456.0562586847
 31
0.0
  0
LINE
  5
70
330
69
100
AcDbEntity
  8
Default
  6
CENTER2
 62
     7
100
AcDbLine
 10
191.35
 20
431.0562592435
 30
0.0
 11
191.35
 21
417.5562586847
 31
0.0
  0
ENDBLK
  5
72
330
69
100
AcDbEntity
  8
0
100
AcDbBlockEnd
  0
BLOCK
  5
77
330
73
100
AcDbEntity
  8
0
100
AcDbBlockBegin
  2
SEANNOT_GROUP2
 70
     0
 10
0.0
 20
0.0
 30
0.0
  3
SEANNOT_GROUP2
  1

  0
LINE
  5
75
330
73
100
AcDbEntity
  8
Default
  6
CENTER2
 62
     7
100
AcDbLine
 10
320.7986573149
 20
456.0562586847
 30
0.0
 11
280.7986582089
 21
456.0562586847
 31
0.0
  0
LINE
  5
76
330
73
100
AcDbEntity
  8
Default
  6
CENTER2
 62
     7
100
AcDbLine
 10
300.7986577619
 20
476.0562582376
 30
0.0
 11
300.7986577619
 21
436.0562591317
 31
0.0
  0
ENDBLK
  5
78
330
73
100
AcDbEntity
  8
0
100
AcDbBlockEnd
  0
BLOCK
  5
7D
330
79
100
AcDbEntity
  8
0
100
AcDbBlockBegin
  2
SEANNOT_GROUP3
 70
     0
 10
0.0
 20
0.0
 30
0.0
  3
SEANNOT_GROUP3
  1

  0
LINE
  5
7B
330
79
100
AcDbEntity
  8
Default
  6
CENTER2
 62
     7
100
AcDbLine
 10
320.7986573149
 20
456.0562586847
 30
0.0
 11
280.7986582089
 21
456.0562586847
 31
0.0
  0
LINE
  5
7C
330
79
100
AcDbEntity
  8
Default
  6
CENTER2
 62
     7
100
AcDbLine
 10
300.7986577619
 20
476.0562582376
 30
0.0
 11
300.7986577619
 21
436.0562591317
 31
0.0
  0
ENDBLK
  5
7E
330
79
100
AcDbEntity
  8
0
100
AcDbBlockEnd
  0
BLOCK
  5
83
330
7F
100
AcDbEntity
  8
0
100
AcDbBlockBegin
  2
SEANNOT_GROUP4
 70
     0
 10
0.0
 20
0.0
 30
0.0
  3
SEANNOT_GROUP4
  1

  0
LINE
  5
81
330
7F
100
AcDbEntity
  8
Default
  6
CENTER2
 62
     7
100
AcDbLine
 10
61.349999553
 20
276.3270028874
 30
0.0
 11
21.350000447
 21
276.3270028874
 31
0.0
  0
LINE
  5
82
330
7F
100
AcDbEntity
  8
Default
  6
CENTER2
 62
     7
100
AcDbLine
 10
41.35
 20
296.3270024403
 30
0.0
 11
41.35
 21
256.3270033344
 31
0.0
  0
ENDBLK
  5
84
330
7F
100
AcDbEntity
  8
0
100
AcDbBlockEnd
  0
BLOCK
  5
89
330
85
100
AcDbEntity
  8
0
100
AcDbBlockBegin
  2
SEANNOT_GROUP5
 70
     0
 10
0.0
 20
0.0
 30
0.0
  3
SEANNOT_GROUP5
  1

  0
LINE
  5
87
330
85
100
AcDbEntity
  8
Default
  6
CENTER2
 62
     7
100
AcDbLine
 10
211.349999553
 20
276.3270028874
 30
0.0
 11
171.350000447
 21
276.3270028874
 31
0.0
  0
LINE
  5
88
330
85
100
AcDbEntity
  8
Default
  6
CENTER2
 62
     7
100
AcDbLine
 10
191.35
 20
296.3270024403
 30
0.0
 11
191.35
 21
256.3270033344
 31
0.0
  0
ENDBLK
  5
8A
330
85
100
AcDbEntity
  8
0
100
AcDbBlockEnd
  0
BLOCK
  5
CF
330
8B
100
AcDbEntity
  8
0
100
AcDbBlockBegin
  2
SE
 70
     0
 10
0.0
 20
0.0
 30
0.0
  3
SE
  1

  0
LINE
  5
8E
330
8B
100
AcDbEntity
  8
$DDT_AUDIT_GENERATED_(8D)
  6
Continuous
 62
     7
100
AcDbLine
 10
36.35
 20
478.5562586847
 30
0.0
 11
196.35
 21
478.5562586847
 31
0.0
  0
ARC
  5
8F
330
8B
100
AcDbEntity
  8
$DDT_AUDIT_GENERATED_(8D)
  6
Continuous
 62
     7
100
AcDbCircle
 10
36.35
 20
463.5562586847
 30
0.0
 40
15.0
100
AcDbArc
 50
90.0
 51
180.0
  0
ARC
  5
90
330
8B
100
AcDbEntity
  8
$DDT_AUDIT_GENERATED_(8D)
  6
Continuous
 62
     7
100
AcDbCircle
 10
196.35
 20
463.5562586847
 30
0.0
 40
15.0
100
AcDbArc
 50
0.0
 51
90.0
  0
LINE
  5
91
330
8B
100
AcDbEntity
  8
$DDT_AUDIT_GENERATED_(8D)
  6
Continuous
 62
     7
100
AcDbLine
 10
21.35
 20
448.5562586847
 30
0.0
 11
21.35
 21
463.5562586847
 31
0.0
  0
LINE
  5
92
330
8B
100
AcDbEntity
  8
$DDT_AUDIT_GENERATED_(8D)
  6
Continuous
 62
     7
100
AcDbLine
 10
211.35
 20
463.5562586847
 30
0.0
 11
211.35
 21
448.5562586847
 31
0.0
  0
ARC
  5
93
330
8B
100
AcDbEntity
  8
$DDT_AUDIT_GENERATED_(8D)
  6
Continuous
 62
     7
100
AcDbCircle
 10
36.35
 20
448.5562586847
 30
0.0
 40
14.99999999999999
100
AcDbArc
 50
180.0
 51
270.0
  0
ARC
  5
94
330
8B
100
AcDbEntity
  8
$DDT_AUDIT_GENERATED_(8D)
  6
Continuous
 62
     7
100
AcDbCircle
 10
196.35
 20
448.5562586847
 30
0.0
 40
15.0
100
AcDbArc
 50
270.0
 51
0.0
  0
LINE
  5
95
330
8B
100
AcDbEntity
  8
$DDT_AUDIT_GENERATED_(8D)
  6
Continuous
 62
     7
100
AcDbLine
 10
80.31
 20
433.5562586847
 30
0.0
 11
36.35
 21
433.5562586847
 31
0.0
  0
LINE
  5
96
330
8B
100
AcDbEntity
  8
$DDT_AUDIT_GENERATED_(8D)
  6
Continuous
 62
     7
100
AcDbLine
 10
196.35
 20
433.5562586847
 30
0.0
 11
152.39
 21
433.5562586847
 31
0.0
  0
ARC
  5
97
330
8B
100
AcDbEntity
  8
$DDT_AUDIT_GENERATED_(8D)
  6
Continuous
 62
     7
100
AcDbCircle
 10
80.31
 20
418.5562586847
 30
0.0
 40
14.99999999999999
100
AcDbArc
 50
32.4122129397
 51
90.0
  0
ARC
  5
98
330
8B
100
AcDbEntity
  8
$DDT_AUDIT_GENERATED_(8D)
  6
Continuous
 62
     7
100
AcDbCircle
 10
152.39
 20
418.5562586847
 30
0.0
 40
15.00000000000002
100
AcDbArc
 50
90.0
 51
147.5877870603
  0
ARC
  5
99
330
8B
100
AcDbEntity
  8
$DDT_AUDIT_GENERATED_(8D)
  6
Continuous
 62
     7
100
AcDbCircle
 10
116.35
 20
446.9562586847
 30
0.0
 40
31.00000000302762
100
AcDbArc
 50
287.3607541452
 51
318.9459323976
  0
ARC
  5
9A
330
8B
100
AcDbEntity
  8
$DDT_AUDIT_GENERATED_(8D)
  6
Continuous
 62
     7
100
AcDbCircle
 10
116.35
 20
446.9562586847
 30
0.0
 40
31.00000000302762
100
AcDbArc
 50
221.0540676024
 51
252.6392458548
  0
ARC
  5
9B
330
8B
100
AcDbEntity
  8
$DDT_AUDIT_GENERATED_(8D)
  6
Continuous
 62
     7
100
AcDbCircle
 10
-71.518452925
 20
647.005811744
 30
0.0
 40
275.0233300190203
100
AcDbArc
 50
306.7339942106
 51
306.9429090326
  0
SPLINE
  5
9C
330
8B
100
AcDbEntity
  8
$DDT_AUDIT_GENERATED_(8D)
  6
Continuous
 62
     7
100
AcDbSpline
210
0.0
220
0.0
230
1.0
 70
     8
 71
     3
 72
    14
 73
    10
 74
     0
 42
0.0000000099720356
 43
0.0000000001
 40
0.0
 40
0.0
 40
0.0
 40
0.0
 40
0.25
 40
0.25
 40
0.5
 40
0.5
 40
0.75
 40
0.75
 40
1.0
 40
1.0
 40
1.0
 40
1.0
 10
138.9242215819311
 20
427.1976018439034
 30
0.0
 10
139.0284211309885
 20
427.1192515719949
 30
0.0
 10
139.1349687324709
 20
427.0392484043567
 30
0.0
 10
139.3277463155173
 20
426.8947002423315
 30
0.0
 10
139.4172215481942
 20
426.827712788421
 30
0.0
 10
139.5653536532896
 20
426.7169141794864
 30
0.0
 10
139.6250949376732
 20
426.6722876814952
 30
0.0
 10
139.7058406725775
 20
426.6119931909421
 30
0.0
 10
139.7267946256945
 20
426.5963600303191
 30
0.0
 10
139.7267946256945
 20
426.5963600303191
 30
0.0
  0
ARC
  5
9D
330
8B
100
AcDbEntity
  8
$DDT_AUDIT_GENERATED_(8D)
  6
Continuous
 62
     7
100
AcDbCircle
 10
116.35
 20
450.2562586847
 30
0.0
 40
26.4
100
AcDbArc
 50
0.0
 51
23.7205622958
  0
ARC
  5
9E
330
8B
100
AcDbEntity
  8
$DDT_AUDIT_GENERATED_(8D)
  6
Continuous
 62
     7
100
AcDbCircle
 10
116.35
 20
450.2562586847
 30
0.0
 40
26.4
100
AcDbArc
 50
156.2794377042
 51
246.5932817313
  0
ARC
  5
9F
330
8B
100
AcDbEntity
  8
$DDT_AUDIT_GENERATED_(8D)
  6
Continuous
 62
     7
100
AcDbCircle
 10
116.35
 20
450.2562586847
 30
0.0
 40
26.4
100
AcDbArc
 50
293.4067182687
 51
0.0
  0
ARC
  5
A1
330
8B
100
AcDbEntity
  8
$DDT_AUDIT_GENERATED_(A0)
  6
Continuous
 62
     7
100
AcDbCircle
 10
116.35
 20
450.2562586847
 30
0.0
 40
26.25166953461827
100
AcDbArc
 50
293.9025481832
 51
0.0
  0
ARC
  5
A2
330
8B
100
AcDbEntity
  8
$DDT_AUDIT_GENERATED_(A0)
  6
Continuous
 62
     7
100
AcDbCircle
 10
116.35
 20
450.2562586847
 30
0.0
 40
26.25166953461827
100
AcDbArc
 50
164.876623003
 51
246.0974518168
  0
ARC
  5
A3
330
8B
100
AcDbEntity
  8
$DDT_AUDIT_GENERATED_(A0)
  6
Continuous
 62
     7
100
AcDbCircle
 10
116.35
 20
450.2562586847
 30
0.0
 40
26.25166953461827
100
AcDbArc
 50
0.0
 51
15.123376997
  0
LINE
  5
A5
330
8B
100
AcDbEntity
  8
$DDT_AUDIT_GENERATED_(A4)
  6
Continuous
 62
     7
100
AcDbLine
 10
126.83
 20
409.1862586847
 30
0.0
 11
125.6
 21
409.1862586847
 31
0.0
  0
LINE
  5
A6
330
8B
100
AcDbEntity
  8
$DDT_AUDIT_GENERATED_(A4)
  6
Continuous
 62
     7
100
AcDbLine
 10
107.1
 20
409.1862586847
 30
0.0
 11
105.87
 21
409.1862586847
 31
0.0
  0
LINE
  5
A7
330
8B
100
AcDbEntity
  8
$DDT_AUDIT_GENERATED_(A4)
  6
Continuous
 62
     7
100
AcDbLine
 10
125.63
 20
401.7662586847
 30
0.0
 11
125.6
 21
401.7662586847
 31
0.0
  0
LINE
  5
A8
330
8B
100
AcDbEntity
  8
$DDT_AUDIT_GENERATED_(A4)
  6
Continuous
 62
     7
100
AcDbLine
 10
107.1
 20
401.7662586847
 30
0.0
 11
107.07
 21
401.7662586847
 31
0.0
  0
LINE
  5
A9
330
8B
100
AcDbEntity
  8
$DDT_AUDIT_GENERATED_(A4)
  6
Continuous
 62
     7
100
AcDbLine
 10
126.83
 20
402.9662586847
 30
0.0
 11
125.6
 21
402.9662586847
 31
0.0
  0
LINE
  5
AA
330
8B
100
AcDbEntity
  8
$DDT_AUDIT_GENERATED_(A4)
  6
Continuous
 62
     7
100
AcDbLine
 10
107.1
 20
402.9662586847
 30
0.0
 11
105.87
 21
402.9662586847
 31
0.0
  0
LINE
  5
AB
330
8B
100
AcDbEntity
  8
$DDT_AUDIT_GENERATED_(A4)
  6
Continuous
 62
     7
100
AcDbLine
 10
105.87
 20
409.1862586847
 30
0.0
 11
105.87
 21
402.9662586847
 31
0.0
  0
LINE
  5
AC
330
8B
100
AcDbEntity
  8
$DDT_AUDIT_GENERATED_(A4)
  6
Continuous
 62
     7
100
AcDbLine
 10
126.83
 20
402.9662586847
 30
0.0
 11
126.83
 21
409.1862586847
 31
0.0
  0
LINE
  5
AD
330
8B
100
AcDbEntity
  8
$DDT_AUDIT_GENERATED_(A4)
  6
Continuous
 62
     7
100
AcDbLine
 10
126.83
 20
409.1862586847
 30
0.0
 11
125.6
 21
410.4162586847
 31
0.0
  0
LINE
  5
AE
330
8B
100
AcDbEntity
  8
$DDT_AUDIT_GENERATED_(A4)
  6
Continuous
 62
     7
100
AcDbLine
 10
107.1
 20
410.4162586847
 30
0.0
 11
105.87
 21
409.1862586847
 31
0.0
  0
LINE
  5
AF
330
8B
100
AcDbEntity
  8
$DDT_AUDIT_GENERATED_(A4)
  6
Continuous
 62
     7
100
AcDbLine
 10
105.87
 20
402.9662586847
 30
0.0
 11
107.07
 21
401.7662586847
 31
0.0
  0
LINE
  5
B0
330
8B
100
AcDbEntity
  8
$DDT_AUDIT_GENERATED_(A4)
  6
Continuous
 62
     7
100
AcDbLine
 10
125.63
 20
401.7662586847
 30
0.0
 11
126.83
 21
402.9662586847
 31
0.0
  0
LINE
  5
B1
330
8B
100
AcDbEntity
  8
$DDT_AUDIT_GENERATED_(A4)
  6
Continuous
 62
     7
100
AcDbLine
 10
125.665
 20
410.3512586847
 30
0.0
 11
125.665
 21
401.8012586847
 31
0.0
  0
LINE
  5
B2
330
8B
100
AcDbEntity
  8
$DDT_AUDIT_GENERATED_(A4)
  6
Continuous
 62
     7
100
AcDbLine
 10
107.035
 20
410.3512586847
 30
0.0
 11
107.035
 21
401.8012586847
 31
0.0
  0
ELLIPSE
  5
B4
330
8B
100
AcDbEntity
  8
$DDT_AUDIT_GENERATED_(B3)
  6
Continuous
 62
     7
100
AcDbEllipse
 10
133.6
 20
421.7559817367
 30
0.0
 11
-8.000000000000497
 21
-3.247402347028583E-12
 31
0.0
210
0.0
220
0.0
230
1.0
 40
0.999657325
 41
5.244499216819982
 42
6.28318530717918
  0
ELLIPSE
  5
B5
330
8B
100
AcDbEntity
  8
$DDT_AUDIT_GENERATED_(B3)
  6
Continuous
 62
     7
100
AcDbEllipse
 10
122.6
 20
354.0782852248
 30
0.0
 11
-2.999999999999959
 21
-6.036837696399289E-12
 31
0.0
210
0.0
220
0.0
230
1.0
 40
0.999657325
 41
1.570796326792885
 42
3.141592653589793
  0
ELLIPSE
  5
B6
330
8B
100
AcDbEntity
  8
$DDT_AUDIT_GENERATED_(B3)
  6
Continuous
 62
     7
100
AcDbEllipse
 10
99.1
 20
421.7559817367
 30
0.0
 11
-8.000000000000528
 21
-3.144012827860365E-11
 31
0.0
210
0.0
220
0.0
230
1.0
 40
0.999657325
 41
3.141592653585862
 42
4.180278743945053
  0
LINE
  5
B7
330
8B
100
AcDbEntity
  8
$DDT_AUDIT_GENERATED_(B3)
  6
Continuous
 62
     7
100
AcDbLine
 10
107.1
 20
354.0782852248
 30
0.0
 11
107.1
 21
354.3412560183
 31
0.0
  0
ELLIPSE
  5
B8
330
8B
100
AcDbEntity
  8
$DDT_AUDIT_GENERATED_(B3)
  6
Continuous
 62
     7
100
AcDbEllipse
 10
110.1
 20
354.0782852248
 30
0.0
 11
-3.000000000000334
 21
-1.328104293207844E-11
 31
0.0
210
0.0
220
0.0
230
1.0
 40
0.999657325
 41
0.0000000000000068
 42
1.570796326790466
  0
LINE
  5
B9
330
8B
100
AcDbEntity
  8
$DDT_AUDIT_GENERATED_(B3)
  6
Continuous
 62
     7
100
AcDbLine
 10
110.1
 20
351.0790733773
 30
0.0
 11
110.1
 21
351.0793132499
 31
0.0
  0
LINE
  5
BA
330
8B
100
AcDbEntity
  8
$DDT_AUDIT_GENERATED_(B3)
  6
Continuous
 62
     7
100
AcDbLine
 10
122.6
 20
351.0790733773
 30
0.0
 11
122.6
 21
351.0793132499
 31
0.0
  0
ARC
  5
BB
330
8B
100
AcDbEntity
  8
$DDT_AUDIT_GENERATED_(B3)
  6
Continuous
 62
     7
100
AcDbCircle
 10
116.0154666946
 20
450.4518568674
 30
0.0
 40
26.33454603178896
100
AcDbArc
 50
358.0932162299
 51
359.9986373492
  0
ARC
  5
BC
330
8B
100
AcDbEntity
  8
$DDT_AUDIT_GENERATED_(B3)
  6
Continuous
 62
     7
100
AcDbCircle
 10
116.6858802005
 20
450.4518644082
 30
0.0
 40
26.33589243206567
100
AcDbArc
 50
179.9818984006
 51
181.906702666
  0
ELLIPSE
  5
BD
330
8B
100
AcDbEntity
  8
$DDT_AUDIT_GENERATED_(B3)
  6
Continuous
 62
     7
100
AcDbEllipse
 10
116.35
 20
450.4455936312
 30
0.0
 11
-26.00000000000595
 21
-5.560343852017979E-10
 31
0.0
210
0.0
220
0.0
230
1.0
 40
0.999657325
 41
0.0334784774734774
 42
1.125377858122764
  0
ELLIPSE
  5
BE
330
8B
100
AcDbEntity
  8
$DDT_AUDIT_GENERATED_(B3)
  6
Continuous
 62
     7
100
AcDbEllipse
 10
116.35
 20
450.4455936312
 30
0.0
 11
-26.00000000000595
 21
-5.560343852017979E-10
 31
0.0
210
0.0
220
0.0
230
1.0
 40
0.999657325
 41
2.016214795424267
 42
3.108114176073545
  0
ARC
  5
BF
330
8B
100
AcDbEntity
  8
$DDT_AUDIT_GENERATED_(B3)
  6
Continuous
 62
     7
100
AcDbCircle
 10
116.3499999998
 20
-25454.6096759312
 30
0.0
 40
25805.95337637517
100
AcDbArc
 50
89.9861234104
 51
90.0138765896
  0
LINE
  5
C0
330
8B
100
AcDbEntity
  8
$DDT_AUDIT_GENERATED_(B3)
  6
Continuous
 62
     7
100
AcDbLine
 10
125.6
 20
354.3412560183
 30
0.0
 11
125.6
 21
354.0782852248
 31
0.0
  0
LINE
  5
C1
330
8B
100
AcDbEntity
  8
$DDT_AUDIT_GENERATED_(B3)
  6
Continuous
 62
     7
100
AcDbLine
 10
125.6
 20
422.0189525302
 30
0.0
 11
125.6
 21
354.3412560183
 31
0.0
  0
LINE
  5
C2
330
8B
100
AcDbEntity
  8
$DDT_AUDIT_GENERATED_(B3)
  6
Continuous
 62
     7
100
AcDbLine
 10
107.1
 20
354.3412560183
 30
0.0
 11
107.1
 21
422.0189525302
 31
0.0
  0
ARC
  5
C3
330
8B
100
AcDbEntity
  8
$DDT_AUDIT_GENERATED_(B3)
  6
Continuous
 62
     7
100
AcDbCircle
 10
133.592269365
 20
422.0192349731
 30
0.0
 40
7.992269370027516
100
AcDbArc
 50
120.455992781
 51
180.0020248049
  0
ARC
  5
C4
330
8B
100
AcDbEntity
  8
$DDT_AUDIT_GENERATED_(B3)
  6
Continuous
 62
     7
100
AcDbCircle
 10
99.1077306487
 20
422.019234981
 30
0.0
 40
7.992269356310574
100
AcDbArc
 50
359.9979751389
 51
59.5440072753
  0
ELLIPSE
  5
C5
330
8B
100
AcDbEntity
  8
$DDT_AUDIT_GENERATED_(B3)
  6
Continuous
 62
     7
100
AcDbEllipse
 10
116.35
 20
451.297027121
 30
0.0
 11
-25.99999999999921
 21
2.022080419772365E-11
 31
0.0
210
0.0
220
0.0
230
1.0
 40
0.999657325
 41
3.141592653590571
 42
6.283185307179585
  0
ARC
  5
C6
330
8B
100
AcDbEntity
  8
$DDT_AUDIT_GENERATED_(B3)
  6
Continuous
 62
     7
100
AcDbCircle
 10
116.3197462943
 20
451.2966157046
 30
0.0
 40
25.96974629755023
100
AcDbArc
 50
179.9990923123
 51
239.5504804808
  0
ARC
  5
C7
330
8B
100
AcDbEntity
  8
$DDT_AUDIT_GENERATED_(B3)
  6
Continuous
 62
     7
100
AcDbCircle
 10
116.3802541879
 20
451.2966154288
 30
0.0
 40
25.96974581531937
100
AcDbArc
 50
300.4495189105
 51
0.0009082965
  0
LINE
  5
C8
330
8B
100
AcDbEntity
  8
$DDT_AUDIT_GENERATED_(B3)
  6
Continuous
 62
     7
100
AcDbLine
 10
110.1
 20
351.0790733773
 30
0.0
 11
122.6
 21
351.0790733773
 31
0.0
  0
LINE
  5
C9
330
8B
100
AcDbEntity
  8
$DDT_AUDIT_GENERATED_(B3)
  6
Continuous
 62
     7
100
AcDbLine
 10
142.35
 20
450.4494454534
 30
0.0
 11
142.35
 21
451.297027121
 31
0.0
  0
LINE
  5
CA
330
8B
100
AcDbEntity
  8
$DDT_AUDIT_GENERATED_(B3)
  6
Continuous
 62
     7
100
AcDbLine
 10
90.35
 20
451.297027121
 30
0.0
 11
90.35
 21
450.4502138042
 31
0.0
  0
ARC
  5
CC
330
8B
100
AcDbEntity
  8
$DDT_AUDIT_GENERATED_(CB)
  6
Continuous
 62
     7
100
AcDbCircle
 10
41.35
 20
456.0562586847
 30
0.0
 40
35.0
100
AcDbArc
 50
40.0052008849
 51
319.9947991151
  0
ARC
  5
CD
330
8B
100
AcDbEntity
  8
$DDT_AUDIT_GENERATED_(CB)
  6
Continuous
 62
     7
100
AcDbCircle
 10
191.35
 20
456.0562586847
 30
0.0
 40
35.0
100
AcDbArc
 50
0.0
 51
139.9947991151
  0
ARC
  5
CE
330
8B
100
AcDbEntity
  8
$DDT_AUDIT_GENERATED_(CB)
  6
Continuous
 62
     7
100
AcDbCircle
 10
191.35
 20
456.0562586847
 30
0.0
 40
35.0
100
AcDbArc
 50
220.0052008849
 51
0.0
  0
ENDBLK
  5
D0
330
8B
100
AcDbEntity
  8
0
100
AcDbBlockEnd
  0
BLOCK
  5
129
330
D1
100
AcDbEntity
  8
0
100
AcDbBlockBegin
  2
SE1
 70
     0
 10
0.0
 20
0.0
 30
0.0
  3
SE1
  1

  0
ARC
  5
D3
330
D1
100
AcDbEntity
  8
$DDT_AUDIT_GENERATED_(8D)
  6
Continuous
 62
     7
100
AcDbCircle
 10
365.2991146391
 20
386.4129649107
 30
0.0
 40
30.95753068037653
100
AcDbArc
 50
72.614674784
 51
107.3853281526
  0
LINE
  5
D4
330
D1
100
AcDbEntity
  8
$DDT_AUDIT_GENERATED_(8D)
  6
Continuous
 62
     7
100
AcDbLine
 10
352.7991146764
 20
416.9562586817
 30
0.0
 11
352.7991146764
 21
427.1976018439
 31
0.0
  0
LINE
  5
D5
330
D1
100
AcDbEntity
  8
$DDT_AUDIT_GENERATED_(8D)
  6
Continuous
 62
     7
100
AcDbLine
 10
352.7991146764
 20
427.1976018439
 30
0.0
 11
352.7991146764
 21
434.5562586847
 31
0.0
  0
LINE
  5
D6
330
D1
100
AcDbEntity
  8
$DDT_AUDIT_GENERATED_(8D)
  6
Continuous
 62
     7
100
AcDbLine
 10
352.7991146764
 20
434.5562586847
 30
0.0
 11
352.7991146764
 21
448.5562586847
 31
0.0
  0
LINE
  5
D7
330
D1
100
AcDbEntity
  8
$DDT_AUDIT_GENERATED_(8D)
  6
Continuous
 62
     7
100
AcDbLine
 10
352.7991146764
 20
448.5562586847
 30
0.0
 11
352.7991146764
 21
463.5562586847
 31
0.0
  0
LINE
  5
D8
330
D1
100
AcDbEntity
  8
$DDT_AUDIT_GENERATED_(8D)
  6
Continuous
 62
     7
100
AcDbLine
 10
352.7991146764
 20
463.5562586847
 30
0.0
 11
352.7991146764
 21
477.5562586847
 31
0.0
  0
SPLINE
  5
D9
330
D1
100
AcDbEntity
  8
$DDT_AUDIT_GENERATED_(8D)
  6
Continuous
 62
     7
100
AcDbSpline
210
0.0
220
0.0
230
1.0
 70
     8
 71
     3
 72
    14
 73
    10
 74
     0
 42
0.0000000077789969
 43
0.0000000001
 40
0.0
 40
0.0
 40
0.0
 40
0.0
 40
0.25
 40
0.25
 40
0.5
 40
0.5
 40
0.75
 40
0.75
 40
1.0
 40
1.0
 40
1.0
 40
1.0
 10
352.7991146764272
 20
427.1976018439036
 30
0.0
 10
352.7991146764272
 20
427.1192515719946
 30
0.0
 10
352.8255602195593
 20
427.0392484043568
 30
0.0
 10
352.9251904927818
 20
426.8947002423316
 30
0.0
 10
352.9995883554652
 20
426.8277127884212
 30
0.0
 10
353.1839205212931
 20
426.7169141794864
 30
0.0
 10
353.2948400486649
 20
426.6722876814953
 30
0.0
 10
353.5370951332244
 20
426.6119931909422
 30
0.0
 10
353.666869932728
 20
426.5963600303192
 30
0.0
 10
353.7991146764272
 20
426.5963600303192
 30
0.0
  0
ARC
  5
DA
330
D1
100
AcDbEntity
  8
$DDT_AUDIT_GENERATED_(8D)
  6
Continuous
 62
     7
100
AcDbCircle
 10
353.7991146764
 20
434.5562586847
 30
0.0
 40
1.000000000000001
100
AcDbArc
 50
180.0
 51
270.0
  0
ARC
  5
DB
330
D1
100
AcDbEntity
  8
$DDT_AUDIT_GENERATED_(8D)
  6
Continuous
 62
     7
100
AcDbCircle
 10
353.7991146764
 20
477.5562586847
 30
0.0
 40
1.000000000000001
100
AcDbArc
 50
90.0
 51
180.0
  0
LINE
  5
DC
330
D1
100
AcDbEntity
  8
$DDT_AUDIT_GENERATED_(8D)
  6
Continuous
 62
     7
100
AcDbLine
 10
396.7991146764
 20
478.5562586847
 30
0.0
 11
353.7991146764
 21
478.5562586847
 31
0.0
  0
LINE
  5
DD
330
D1
100
AcDbEntity
  8
$DDT_AUDIT_GENERATED_(8D)
  6
Continuous
 62
     7
100
AcDbLine
 10
397.7991146764
 20
427.1976018439
 30
0.0
 11
397.7991146764
 21
416.9562586817
 31
0.0
  0
LINE
  5
DE
330
D1
100
AcDbEntity
  8
$DDT_AUDIT_GENERATED_(8D)
  6
Continuous
 62
     7
100
AcDbLine
 10
397.7991146764
 20
434.5562586847
 30
0.0
 11
397.7991146764
 21
427.1976018439
 31
0.0
  0
LINE
  5
DF
330
D1
100
AcDbEntity
  8
$DDT_AUDIT_GENERATED_(8D)
  6
Continuous
 62
     7
100
AcDbLine
 10
397.7991146764
 20
448.5562586847
 30
0.0
 11
397.7991146764
 21
434.5562586847
 31
0.0
  0
LINE
  5
E0
330
D1
100
AcDbEntity
  8
$DDT_AUDIT_GENERATED_(8D)
  6
Continuous
 62
     7
100
AcDbLine
 10
397.7991146764
 20
463.5562586847
 30
0.0
 11
397.7991146764
 21
448.5562586847
 31
0.0
  0
LINE
  5
E1
330
D1
100
AcDbEntity
  8
$DDT_AUDIT_GENERATED_(8D)
  6
Continuous
 62
     7
100
AcDbLine
 10
397.7991146764
 20
477.5562586847
 30
0.0
 11
397.7991146764
 21
463.5562586847
 31
0.0
  0
LINE
  5
E2
330
D1
100
AcDbEntity
  8
$DDT_AUDIT_GENERATED_(8D)
  6
Continuous
 62
     7
100
AcDbLine
 10
396.7991146764
 20
433.5562586847
 30
0.0
 11
353.7991146764
 21
433.5562586847
 31
0.0
  0
LINE
  5
E3
330
D1
100
AcDbEntity
  8
$DDT_AUDIT_GENERATED_(8D)
  6
Continuous
 62
     7
100
AcDbLine
 10
396.7991146764
 20
426.5963600303
 30
0.0
 11
353.7991146764
 21
426.5963600303
 31
0.0
  0
SPLINE
  5
E4
330
D1
100
AcDbEntity
  8
$DDT_AUDIT_GENERATED_(8D)
  6
Continuous
 62
     7
100
AcDbSpline
210
0.0
220
0.0
230
1.0
 70
     8
 71
     3
 72
    14
 73
    10
 74
     0
 42
0.0000000077789969
 43
0.0000000001
 40
0.0
 40
0.0
 40
0.0
 40
0.0
 40
0.25
 40
0.25
 40
0.5
 40
0.5
 40
0.75
 40
0.75
 40
1.0
 40
1.0
 40
1.0
 40
1.0
 10
396.7991146764273
 20
426.5963600303192
 30
0.0
 10
396.9313594201264
 20
426.5963600303192
 30
0.0
 10
397.06113421963
 20
426.6119931909422
 30
0.0
 10
397.3033893041896
 20
426.6722876814953
 30
0.0
 10
397.4143088315613
 20
426.7169141794864
 30
0.0
 10
397.5986409973893
 20
426.8277127884211
 30
0.0
 10
397.6730388600727
 20
426.8947002423316
 30
0.0
 10
397.7726691332952
 20
427.0392484043567
 30
0.0
 10
397.7991146764273
 20
427.1192515719949
 30
0.0
 10
397.7991146764273
 20
427.1976018439036
 30
0.0
  0
ARC
  5
E5
330
D1
100
AcDbEntity
  8
$DDT_AUDIT_GENERATED_(8D)
  6
Continuous
 62
     7
100
AcDbCircle
 10
396.7991146764
 20
434.5562586847
 30
0.0
 40
1.000000000000001
100
AcDbArc
 50
270.0
 51
0.0
  0
ARC
  5
E6
330
D1
100
AcDbEntity
  8
$DDT_AUDIT_GENERATED_(8D)
  6
Continuous
 62
     7
100
AcDbCircle
 10
396.7991146764
 20
477.5562586847
 30
0.0
 40
1.000000000000022
100
AcDbArc
 50
0.0
 51
90.0
  0
LINE
  5
E7
330
D1
100
AcDbEntity
  8
$DDT_AUDIT_GENERATED_(8D)
  6
Continuous
 62
     7
100
AcDbLine
 10
374.5161785726
 20
415.9562586817
 30
0.0
 11
396.7991146764
 21
415.9562586817
 31
0.0
  0
LINE
  5
E8
330
D1
100
AcDbEntity
  8
$DDT_AUDIT_GENERATED_(8D)
  6
Continuous
 62
     7
100
AcDbLine
 10
353.7991146764
 20
415.9562586817
 30
0.0
 11
356.0769337007
 21
415.9562586817
 31
0.0
  0
ARC
  5
E9
330
D1
100
AcDbEntity
  8
$DDT_AUDIT_GENERATED_(8D)
  6
Continuous
 62
     7
100
AcDbCircle
 10
353.7991146764
 20
416.9562586817
 30
0.0
 40
1.000000000000001
100
AcDbArc
 50
180.0
 51
270.0
  0
ARC
  5
EA
330
D1
100
AcDbEntity
  8
$DDT_AUDIT_GENERATED_(8D)
  6
Continuous
 62
     7
100
AcDbCircle
 10
396.7991146764
 20
416.9562586817
 30
0.0
 40
1.000000000000001
100
AcDbArc
 50
270.0
 51
0.0
  0
LINE
  5
EB
330
D1
100
AcDbEntity
  8
$DDT_AUDIT_GENERATED_(A0)
  6
Continuous
 62
     7
100
AcDbLine
 10
431.6991146764
 20
475.7120835408
 30
0.0
 11
431.6991146764
 21
424.8004338286
 31
0.0
  0
ARC
  5
EC
330
D1
100
AcDbEntity
  8
$DDT_AUDIT_GENERATED_(A0)
  6
Continuous
 62
     7
100
AcDbCircle
 10
425.6991146764
 20
450.2562586847
 30
0.0
 40
25.00000000000005
100
AcDbArc
 50
42.7088192007
 51
76.1134596374
  0
ARC
  5
ED
330
D1
100
AcDbEntity
  8
$DDT_AUDIT_GENERATED_(A0)
  6
Continuous
 62
     7
100
AcDbCircle
 10
425.6991146764
 20
450.2562586847
 30
0.0
 40
25.00000000000001
100
AcDbArc
 50
283.8865403626
 51
291.3541327163
  0
LINE
  5
EE
330
D1
100
AcDbEntity
  8
$DDT_AUDIT_GENERATED_(A0)
  6
Continuous
 62
     7
100
AcDbLine
 10
397.7991146764
 20
424.0089523601
 30
0.0
 11
431.2034777204
 21
424.3004528651
 31
0.0
  0
LINE
  5
EF
330
D1
100
AcDbEntity
  8
$DDT_AUDIT_GENERATED_(A0)
  6
Continuous
 62
     7
100
AcDbLine
 10
431.2034777204
 20
476.2120645043
 30
0.0
 11
397.7991146764
 21
476.5035650092
 31
0.0
  0
ARC
  5
F0
330
D1
100
AcDbEntity
  8
$DDT_AUDIT_GENERATED_(A0)
  6
Continuous
 62
     7
100
AcDbCircle
 10
431.1991146764
 20
475.7120835408
 30
0.0
 40
0.5000000000000004
100
AcDbArc
 50
0.0
 51
89.500025649
  0
ARC
  5
F1
330
D1
100
AcDbEntity
  8
$DDT_AUDIT_GENERATED_(A0)
  6
Continuous
 62
     7
100
AcDbCircle
 10
431.1991146764
 20
424.8004338286
 30
0.0
 40
0.5000000000000041
100
AcDbArc
 50
270.499974351
 51
0.0
  0
LINE
  5
F2
330
D1
100
AcDbEntity
  8
$DDT_AUDIT_GENERATED_(A4)
  6
Continuous
 62
     7
100
AcDbLine
 10
374.2991146764
 20
410.6662586847
 30
0.0
 11
356.2991146764
 21
410.6662586847
 31
0.0
  0
LINE
  5
F3
330
D1
100
AcDbEntity
  8
$DDT_AUDIT_GENERATED_(A4)
  6
Continuous
 62
     7
100
AcDbLine
 10
375.7791146764
 20
409.1862586847
 30
0.0
 11
354.8191146764
 21
409.1862586847
 31
0.0
  0
LINE
  5
F4
330
D1
100
AcDbEntity
  8
$DDT_AUDIT_GENERATED_(A4)
  6
Continuous
 62
     7
100
AcDbLine
 10
374.5791146764
 20
401.7662586847
 30
0.0
 11
356.0191146764
 21
401.7662586847
 31
0.0
  0
LINE
  5
F5
330
D1
100
AcDbEntity
  8
$DDT_AUDIT_GENERATED_(A4)
  6
Continuous
 62
     7
100
AcDbLine
 10
375.7791146764
 20
402.9662586847
 30
0.0
 11
354.8191146764
 21
402.9662586847
 31
0.0
  0
LINE
  5
F6
330
D1
100
AcDbEntity
  8
$DDT_AUDIT_GENERATED_(A4)
  6
Continuous
 62
     7
100
AcDbLine
 10
354.8191146764
 20
409.1862586847
 30
0.0
 11
354.8191146764
 21
402.9662586847
 31
0.0
  0
LINE
  5
F7
330
D1
100
AcDbEntity
  8
$DDT_AUDIT_GENERATED_(A4)
  6
Continuous
 62
     7
100
AcDbLine
 10
375.7791146764
 20
402.9662586847
 30
0.0
 11
375.7791146764
 21
409.1862586847
 31
0.0
  0
LINE
  5
F8
330
D1
100
AcDbEntity
  8
$DDT_AUDIT_GENERATED_(A4)
  6
Continuous
 62
     7
100
AcDbLine
 10
356.2991146764
 20
416.0299079977
 30
0.0
 11
356.2991146764
 21
410.6662586847
 31
0.0
  0
LINE
  5
F9
330
D1
100
AcDbEntity
  8
$DDT_AUDIT_GENERATED_(A4)
  6
Continuous
 62
     7
100
AcDbLine
 10
374.2991146764
 20
410.6662586847
 30
0.0
 11
374.2991146764
 21
416.0297863675
 31
0.0
  0
LINE
  5
FA
330
D1
100
AcDbEntity
  8
$DDT_AUDIT_GENERATED_(A4)
  6
Continuous
 62
     7
100
AcDbLine
 10
375.7791146764
 20
409.1862586847
 30
0.0
 11
374.2991146764
 21
410.6662586847
 31
0.0
  0
LINE
  5
FB
330
D1
100
AcDbEntity
  8
$DDT_AUDIT_GENERATED_(A4)
  6
Continuous
 62
     7
100
AcDbLine
 10
356.2991146764
 20
410.6662586847
 30
0.0
 11
354.8191146764
 21
409.1862586847
 31
0.0
  0
LINE
  5
FC
330
D1
100
AcDbEntity
  8
$DDT_AUDIT_GENERATED_(A4)
  6
Continuous
 62
     7
100
AcDbLine
 10
354.8191146764
 20
402.9662586847
 30
0.0
 11
356.0191146764
 21
401.7662586847
 31
0.0
  0
LINE
  5
FD
330
D1
100
AcDbEntity
  8
$DDT_AUDIT_GENERATED_(A4)
  6
Continuous
 62
     7
100
AcDbLine
 10
374.5791146764
 20
401.7662586847
 30
0.0
 11
375.7791146764
 21
402.9662586847
 31
0.0
  0
LINE
  5
FE
330
D1
100
AcDbEntity
  8
$DDT_AUDIT_GENERATED_(A4)
  6
Continuous
 62
     7
100
AcDbLine
 10
374.6141146764
 20
410.3512586847
 30
0.0
 11
374.6141146764
 21
401.8012586847
 31
0.0
  0
LINE
  5
FF
330
D1
100
AcDbEntity
  8
$DDT_AUDIT_GENERATED_(A4)
  6
Continuous
 62
     7
100
AcDbLine
 10
355.9841146764
 20
410.3512586847
 30
0.0
 11
355.9841146764
 21
401.8012586847
 31
0.0
  0
LINE
  5
100
330
D1
100
AcDbEntity
  8
$DDT_AUDIT_GENERATED_(B3)
  6
Continuous
 62
     7
100
AcDbLine
 10
459.2193944305
 20
354.059961361
 30
0.0
 11
457.4471915777
 21
421.7376578729
 31
0.0
  0
LINE
  5
101
330
D1
100
AcDbEntity
  8
$DDT_AUDIT_GENERATED_(B3)
  6
Continuous
 62
     7
100
AcDbLine
 10
459.2796014116
 20
351.7607495135
 30
0.0
 11
459.2193944305
 21
354.059961361
 31
0.0
  0
LINE
  5
102
330
D1
100
AcDbEntity
  8
$DDT_AUDIT_GENERATED_(B3)
  6
Continuous
 62
     7
100
AcDbLine
 10
457.4471915777
 20
421.7376578729
 30
0.0
 11
457.35823407
 21
425.1348080343
 31
0.0
  0
ARC
  5
103
330
D1
100
AcDbEntity
  8
$DDT_AUDIT_GENERATED_(B3)
  6
Continuous
 62
     7
100
AcDbCircle
 10
459.9793615391
 20
351.7790733773
 30
0.0
 40
0.6999999999999889
100
AcDbArc
 50
181.5
 51
271.5
  0
ARC
  5
104
330
D1
100
AcDbEntity
  8
$DDT_AUDIT_GENERATED_(B3)
  6
Continuous
 62
     7
100
AcDbCircle
 10
450.2134132806
 20
393.7819679988
 30
0.0
 40
31.26055636176115
100
AcDbArc
 50
84.9395163514
 51
88.3867250292
  0
ARC
  5
105
330
D1
100
AcDbEntity
  8
$DDT_AUDIT_GENERATED_(B3)
  6
Continuous
 62
     7
100
AcDbCircle
 10
450.2134132806
 20
393.7819679988
 30
0.0
 40
31.26055636176115
100
AcDbArc
 50
97.5775635743
 51
98.0604794502
  0
LINE
  5
106
330
D1
100
AcDbEntity
  8
$DDT_AUDIT_GENERATED_(B3)
  6
Continuous
 62
     7
100
AcDbLine
 10
434.8606882042
 20
424.7465472948
 30
0.0
 11
434.2104589901
 21
449.5777991708
 31
0.0
  0
ARC
  5
107
330
D1
100
AcDbEntity
  8
$DDT_AUDIT_GENERATED_(B3)
  6
Continuous
 62
     7
100
AcDbCircle
 10
437.2094309651
 20
449.6563300158
 30
0.0
 40
2.999999999999549
100
AcDbArc
 50
149.5
 51
181.5
  0
LINE
  5
108
330
D1
100
AcDbEntity
  8
$DDT_AUDIT_GENERATED_(B3)
  6
Continuous
 62
     7
100
AcDbLine
 10
449.6639758887
 20
476.7108348341
 30
0.0
 11
434.6245434837
 21
451.1789451046
 31
0.0
  0
LINE
  5
109
330
D1
100
AcDbEntity
  8
$DDT_AUDIT_GENERATED_(B3)
  6
Continuous
 62
     7
100
AcDbLine
 10
470.0653220464
 20
351.3429435934
 30
0.0
 11
459.9976854029
 21
351.0793132499
 31
0.0
  0
LINE
  5
10A
330
D1
100
AcDbEntity
  8
$DDT_AUDIT_GENERATED_(B3)
  6
Continuous
 62
     7
100
AcDbLine
 10
470.0653220464
 20
351.3429435934
 30
0.0
 11
470.0942243852
 21
351.3437004278
 31
0.0
  0
ARC
  5
10B
330
D1
100
AcDbEntity
  8
$DDT_AUDIT_GENERATED_(B3)
  6
Continuous
 62
     7
100
AcDbCircle
 10
455.9006105357
 20
423.4968800243
 30
0.0
 40
1.500000000000003
100
AcDbArc
 50
1.5
 51
91.5
  0
ARC
  5
10C
330
D1
100
AcDbEntity
  8
$DDT_AUDIT_GENERATED_(B3)
  6
Continuous
 62
     7
100
AcDbCircle
 10
449.9224646368
 20
476.5585733252
 30
0.0
 40
0.2999999999999893
100
AcDbArc
 50
95.6923493427
 51
149.5
  0
ARC
  5
10D
330
D1
100
AcDbEntity
  8
$DDT_AUDIT_GENERATED_(B3)
  6
Continuous
 62
     7
100
AcDbCircle
 10
435.1605854017
 20
424.7544003793
 30
0.0
 40
0.3000000000000013
100
AcDbArc
 50
181.5
 51
271.5
  0
ARC
  5
10E
330
D1
100
AcDbEntity
  8
$DDT_AUDIT_GENERATED_(B3)
  6
Continuous
 62
     7
100
AcDbCircle
 10
-207.8419763327
 20
433.6255954959
 30
0.0
 40
676.2499999998115
100
AcDbArc
 50
1.5
 51
3.6462842038
  0
LINE
  5
10F
330
D1
100
AcDbEntity
  8
$DDT_AUDIT_GENERATED_(B3)
  6
Continuous
 62
     7
100
AcDbLine
 10
452.970823047
 20
424.9206750276
 30
0.0
 11
455.8613451132
 21
424.9963660118
 31
0.0
  0
LINE
  5
110
330
D1
100
AcDbEntity
  8
$DDT_AUDIT_GENERATED_(B3)
  6
Continuous
 62
     7
100
AcDbLine
 10
435.1684384862
 20
424.4545031818
 30
0.0
 11
445.8589487281
 21
424.7344440445
 31
0.0
  0
LINE
  5
111
330
D1
100
AcDbEntity
  8
$DDT_AUDIT_GENERATED_(B3)
  6
Continuous
 62
     7
100
AcDbLine
 10
466.3221703452
 20
477.2881175704
 30
0.0
 11
449.9146115523
 21
476.8584705227
 31
0.0
  0
LINE
  5
112
330
D1
100
AcDbEntity
  8
$DDT_AUDIT_GENERATED_(B3)
  6
Continuous
 62
     7
100
AcDbLine
 10
470.7756606488
 20
352.0617844191
 30
0.0
 11
468.1762896819
 21
451.3277567891
 31
0.0
  0
ARC
  5
113
330
D1
100
AcDbEntity
  8
$DDT_AUDIT_GENERATED_(B3)
  6
Continuous
 62
     7
100
AcDbCircle
 10
466.340494209
 20
476.5883574429
 30
0.0
 40
0.7000000000001504
100
AcDbArc
 50
3.6462842035
 51
91.5
  0
ARC
  5
114
330
D1
100
AcDbEntity
  8
$DDT_AUDIT_GENERATED_(B3)
  6
Continuous
 62
     7
100
AcDbCircle
 10
470.0759005214
 20
352.0434605552
 30
0.0
 40
0.6999999999999889
100
AcDbArc
 50
271.5
 51
1.5
  0
LINE
  5
116
330
D1
100
AcDbEntity
  8
$DDT_AUDIT_GENERATED_(115)
  6
Continuous
 62
     7
100
AcDbLine
 10
446.0715122618
 20
424.7670948323
 30
0.0
 11
451.1414432902
 21
425.0327986587
 31
0.0
  0
LINE
  5
117
330
D1
100
AcDbEntity
  8
$DDT_AUDIT_GENERATED_(CB)
  6
Continuous
 62
     7
100
AcDbLine
 10
300.7986577619
 20
421.5562586847
 30
0.0
 11
300.7986577619
 21
490.5562586847
 31
0.0
  0
LINE
  5
118
330
D1
100
AcDbEntity
  8
$DDT_AUDIT_GENERATED_(CB)
  6
Continuous
 62
     7
100
AcDbLine
 10
333.7986377579
 20
436.0562586847
 30
0.0
 11
333.7986377579
 21
476.0562586847
 31
0.0
  0
ARC
  5
119
330
D1
100
AcDbEntity
  8
$DDT_AUDIT_GENERATED_(CB)
  6
Continuous
 62
     7
100
AcDbCircle
 10
331.9631747716
 20
488.7529372548
 30
0.0
 40
1.499999999999992
100
AcDbArc
 50
1.8765314455
 51
88.5
  0
ARC
  5
11A
330
D1
100
AcDbEntity
  8
$DDT_AUDIT_GENERATED_(CB)
  6
Continuous
 62
     7
100
AcDbCircle
 10
331.9631747716
 20
423.3595801145
 30
0.0
 40
1.499999999999999
100
AcDbArc
 50
271.5
 51
358.1234685545
  0
LINE
  5
11B
330
D1
100
AcDbEntity
  8
$DDT_AUDIT_GENERATED_(CB)
  6
Continuous
 62
     7
100
AcDbLine
 10
301.3117462361
 20
421.0564300222
 30
0.0
 11
332.0024401941
 21
421.8600941271
 31
0.0
  0
LINE
  5
11C
330
D1
100
AcDbEntity
  8
$DDT_AUDIT_GENERATED_(CB)
  6
Continuous
 62
     7
100
AcDbLine
 10
332.0024401941
 20
490.2524232423
 30
0.0
 11
301.3117462361
 21
491.0560873472
 31
0.0
  0
ARC
  5
11D
330
D1
100
AcDbEntity
  8
$DDT_AUDIT_GENERATED_(CB)
  6
Continuous
 62
     7
100
AcDbCircle
 10
301.2986577619
 20
490.5562586847
 30
0.0
 40
0.500000000000002
100
AcDbArc
 50
88.5
 51
180.0
  0
ARC
  5
11E
330
D1
100
AcDbEntity
  8
$DDT_AUDIT_GENERATED_(CB)
  6
Continuous
 62
     7
100
AcDbCircle
 10
301.2986577619
 20
421.5562586847
 30
0.0
 40
0.5000000000000004
100
AcDbArc
 50
180.0
 51
271.5
  0
ARC
  5
11F
330
D1
100
AcDbEntity
  8
$DDT_AUDIT_GENERATED_(CB)
  6
Continuous
 62
     7
100
AcDbCircle
 10
-666.0013422381
 20
456.0562586847
 30
0.0
 40
1000.0
100
AcDbArc
 50
358.1234685545
 51
358.8540080016
  0
ARC
  5
120
330
D1
100
AcDbEntity
  8
$DDT_AUDIT_GENERATED_(CB)
  6
Continuous
 62
     7
100
AcDbCircle
 10
-666.0013422381
 20
456.0562586847
 30
0.0
 40
1000.0
100
AcDbArc
 50
1.1459919984
 51
1.8765314455
  0
LINE
  5
122
330
D1
100
AcDbEntity
  8
$DDT_AUDIT_GENERATED_(121)
  6
Continuous
 62
     7
100
AcDbLine
 10
352.7991146764
 20
448.5562586847
 30
0.0
 11
352.7991146764
 21
463.5562586847
 31
0.0
  0
LINE
  5
123
330
D1
100
AcDbEntity
  8
$DDT_AUDIT_GENERATED_(121)
  6
Continuous
 62
     7
100
AcDbLine
 10
352.5991146764
 20
475.3062586847
 30
0.0
 11
333.7986377579
 21
475.3062586847
 31
0.0
  0
LINE
  5
124
330
D1
100
AcDbEntity
  8
$DDT_AUDIT_GENERATED_(121)
  6
Continuous
 62
     7
100
AcDbLine
 10
333.7986377579
 20
436.8062586847
 30
0.0
 11
352.5991146764
 21
436.8062586847
 31
0.0
  0
ARC
  5
125
330
D1
100
AcDbEntity
  8
$DDT_AUDIT_GENERATED_(121)
  6
Continuous
 62
     7
100
AcDbCircle
 10
352.5991146764
 20
437.0062586847
 30
0.0
 40
0.1999999999999988
100
AcDbArc
 50
270.0
 51
0.0
  0
ARC
  5
126
330
D1
100
AcDbEntity
  8
$DDT_AUDIT_GENERATED_(121)
  6
Continuous
 62
     7
100
AcDbCircle
 10
352.5991146764
 20
475.1062586847
 30
0.0
 40
0.1999999999999988
100
AcDbArc
 50
0.0
 51
90.0
  0
LINE
  5
128
330
D1
100
AcDbEntity
  8
$DDT_AUDIT_GENERATED_(127)
  6
Continuous
 62
     7
100
AcDbLine
 10
300.0401771027
 20
423.7128165012
 30
0.0
 11
300.7986577619
 21
423.588045925
 31
0.0
  0
ENDBLK
  5
12A
330
D1
100
AcDbEntity
  8
0
100
AcDbBlockEnd
  0
BLOCK
  5
18F
330
12B
100
AcDbEntity
  8
0
100
AcDbBlockBegin
  2
SE2
 70
     0
 10
0.0
 20
0.0
 30
0.0
  3
SE2
  1

  0
LINE
  5
12D
330
12B
100
AcDbEntity
  8
$DDT_AUDIT_GENERATED_(8D)
  6
Continuous
 62
     7
100
AcDbLine
 10
196.35
 20
224.3265459728
 30
0.0
 11
210.35
 21
224.3265459728
 31
0.0
  0
LINE
  5
12E
330
12B
100
AcDbEntity
  8
$DDT_AUDIT_GENERATED_(8D)
  6
Continuous
 62
     7
100
AcDbLine
 10
22.35
 20
224.3265459728
 30
0.0
 11
36.35
 21
224.3265459728
 31
0.0
  0
LINE
  5
12F
330
12B
100
AcDbEntity
  8
$DDT_AUDIT_GENERATED_(8D)
  6
Continuous
 62
     7
100
AcDbLine
 10
36.35
 20
224.3265459728
 30
0.0
 11
196.35
 21
224.3265459728
 31
0.0
  0
ARC
  5
130
330
12B
100
AcDbEntity
  8
$DDT_AUDIT_GENERATED_(8D)
  6
Continuous
 62
     7
100
AcDbCircle
 10
22.35
 20
223.3265459728
 30
0.0
 40
1.000000000000001
100
AcDbArc
 50
90.0
 51
180.0
  0
ARC
  5
131
330
12B
100
AcDbEntity
  8
$DDT_AUDIT_GENERATED_(8D)
  6
Continuous
 62
     7
100
AcDbCircle
 10
210.35
 20
223.3265459728
 30
0.0
 40
1.000000000000015
100
AcDbArc
 50
0.0
 51
90.0
  0
LINE
  5
132
330
12B
100
AcDbEntity
  8
$DDT_AUDIT_GENERATED_(8D)
  6
Continuous
 62
     7
100
AcDbLine
 10
196.35
 20
180.3265459728
 30
0.0
 11
196.35
 21
223.3265459728
 31
0.0
  0
LINE
  5
133
330
12B
100
AcDbEntity
  8
$DDT_AUDIT_GENERATED_(8D)
  6
Continuous
 62
     7
100
AcDbLine
 10
36.35
 20
180.3265459728
 30
0.0
 11
36.35
 21
223.3265459728
 31
0.0
  0
LINE
  5
134
330
12B
100
AcDbEntity
  8
$DDT_AUDIT_GENERATED_(8D)
  6
Continuous
 62
     7
100
AcDbLine
 10
210.35
 20
179.3265459728
 30
0.0
 11
196.35
 21
179.3265459728
 31
0.0
  0
LINE
  5
135
330
12B
100
AcDbEntity
  8
$DDT_AUDIT_GENERATED_(8D)
  6
Continuous
 62
     7
100
AcDbLine
 10
36.35
 20
179.3265459728
 30
0.0
 11
22.35
 21
179.3265459728
 31
0.0
  0
LINE
  5
136
330
12B
100
AcDbEntity
  8
$DDT_AUDIT_GENERATED_(8D)
  6
Continuous
 62
     7
100
AcDbLine
 10
196.35
 20
179.3265459728
 30
0.0
 11
36.35
 21
179.3265459728
 31
0.0
  0
LINE
  5
137
330
12B
100
AcDbEntity
  8
$DDT_AUDIT_GENERATED_(8D)
  6
Continuous
 62
     7
100
AcDbLine
 10
21.35
 20
180.3265459728
 30
0.0
 11
21.35
 21
223.3265459728
 31
0.0
  0
LINE
  5
138
330
12B
100
AcDbEntity
  8
$DDT_AUDIT_GENERATED_(8D)
  6
Continuous
 62
     7
100
AcDbLine
 10
211.35
 20
180.3265459728
 30
0.0
 11
211.35
 21
223.3265459728
 31
0.0
  0
ARC
  5
139
330
12B
100
AcDbEntity
  8
$DDT_AUDIT_GENERATED_(8D)
  6
Continuous
 62
     7
100
AcDbCircle
 10
22.35
 20
180.3265459728
 30
0.0
 40
1.000000000000015
100
AcDbArc
 50
180.0
 51
270.0
  0
ARC
  5
13A
330
12B
100
AcDbEntity
  8
$DDT_AUDIT_GENERATED_(8D)
  6
Continuous
 62
     7
100
AcDbCircle
 10
210.35
 20
180.3265459728
 30
0.0
 40
1.000000000000001
100
AcDbArc
 50
270.0
 51
0.0
  0
LINE
  5
13B
330
12B
100
AcDbEntity
  8
$DDT_AUDIT_GENERATED_(A0)
  6
Continuous
 62
     7
100
AcDbLine
 10
90.8941751439
 20
145.4265459728
 30
0.0
 11
141.8058248561
 21
145.4265459728
 31
0.0
  0
ARC
  5
13C
330
12B
100
AcDbEntity
  8
$DDT_AUDIT_GENERATED_(A0)
  6
Continuous
 62
     7
100
AcDbCircle
 10
116.35
 20
151.4265459728
 30
0.0
 40
24.99999999999999
100
AcDbArc
 50
327.9374592019
 51
346.1134596374
  0
ARC
  5
13D
330
12B
100
AcDbEntity
  8
$DDT_AUDIT_GENERATED_(A0)
  6
Continuous
 62
     7
100
AcDbCircle
 10
116.35
 20
151.4265459728
 30
0.0
 40
25.00000000000011
100
AcDbArc
 50
193.8865403626
 51
212.2367899815
  0
LINE
  5
13E
330
12B
100
AcDbEntity
  8
$DDT_AUDIT_GENERATED_(A0)
  6
Continuous
 62
     7
100
AcDbLine
 10
90.1026936754
 20
179.3265459728
 30
0.0
 11
90.3941941804
 21
145.9221829289
 31
0.0
  0
LINE
  5
13F
330
12B
100
AcDbEntity
  8
$DDT_AUDIT_GENERATED_(A0)
  6
Continuous
 62
     7
100
AcDbLine
 10
142.3058058196
 20
145.9221829289
 30
0.0
 11
142.5973063246
 21
179.3265459728
 31
0.0
  0
ARC
  5
140
330
12B
100
AcDbEntity
  8
$DDT_AUDIT_GENERATED_(A0)
  6
Continuous
 62
     7
100
AcDbCircle
 10
141.8058248561
 20
145.9265459728
 30
0.0
 40
0.5000000000000004
100
AcDbArc
 50
270.0
 51
359.500025649
  0
ARC
  5
141
330
12B
100
AcDbEntity
  8
$DDT_AUDIT_GENERATED_(A0)
  6
Continuous
 62
     7
100
AcDbCircle
 10
90.8941751439
 20
145.9265459728
 30
0.0
 40
0.5000000000000007
100
AcDbArc
 50
180.499974351
 51
270.0
  0
ELLIPSE
  5
142
330
12B
100
AcDbEntity
  8
$DDT_AUDIT_GENERATED_(B3)
  6
Continuous
 62
     7
100
AcDbEllipse
 10
116.35
 20
140.8384396341
 30
0.0
 11
0.0
 21
24.06222269792553
 31
0.0
210
0.0
220
0.0
230
1.0
 40
1.0
 41
1.575199344378791
 42
1.581677430133379
  0
ELLIPSE
  5
143
330
12B
100
AcDbEntity
  8
$DDT_AUDIT_GENERATED_(B3)
  6
Continuous
 62
     7
100
AcDbEllipse
 10
116.35
 20
140.8384396341
 30
0.0
 11
0.0
 21
22.53220414315646
 31
0.0
210
0.0
220
0.0
230
1.0
 40
1.0
 41
4.701507877046208
 42
4.707885563930231
  0
ELLIPSE
  5
144
330
12B
100
AcDbEntity
  8
$DDT_AUDIT_GENERATED_(B3)
  6
Continuous
 62
     7
100
AcDbEllipse
 10
116.35
 20
148.5277530929
 30
0.0
 11
27.46190811600764
 21
-2.775557561562891E-14
 31
0.0
210
0.0
220
0.0
230
1.0
 40
0.5986208108
 41
4.104667809425573
 42
5.36116343985371
  0
SPLINE
  5
145
330
12B
100
AcDbEntity
  8
$DDT_AUDIT_GENERATED_(B3)
  6
Continuous
 62
     7
100
AcDbSpline
210
0.0
220
0.0
230
1.0
 70
     8
 71
     3
 72
    10
 73
     6
 74
     0
 42
0.000000017111203
 43
0.0000000001
 40
0.4167119529554084
 40
0.4167119529554084
 40
0.4167119529554084
 40
0.4167119529554084
 40
0.5
 40
0.5
 40
1.0
 40
1.0
 40
1.0
 40
1.0
 10
91.28528984200898
 20
142.6609639139084
 30
0.0
 10
91.28845975387891
 20
142.6522881895842
 30
0.0
 10
91.29207799072235
 20
142.6426480046181
 30
0.0
 10
91.32052623919628
 20
142.5684161273071
 30
0.0
 10
91.36046473079296
 20
142.4714443539835
 30
0.0
 10
91.41321521972378
 20
142.3450323891622
 30
0.0
  0
SPLINE
  5
146
330
12B
100
AcDbEntity
  8
$DDT_AUDIT_GENERATED_(B3)
  6
Continuous
 62
     7
100
AcDbSpline
210
0.0
220
0.0
230
1.0
 70
     8
 71
     3
 72
    10
 73
     6
 74
     0
 42
0.0000000193865209
 43
0.0000000001
 40
0.0
 40
0.0
 40
0.0
 40
0.0
 40
0.5
 40
0.5
 40
0.7390616205439632
 40
0.7390616205439632
 40
0.7390616205439632
 40
0.7390616205439632
 10
141.2867847802762
 20
142.3450323891622
 30
0.0
 10
141.3395192418756
 20
142.4714059458761
 30
0.0
 10
141.3790031892975
 20
142.5672525818275
 30
0.0
 10
141.4152599399285
 20
142.6617652146538
 30
0.0
 10
141.423339956657
 20
142.6844865580076
 30
0.0
 10
141.4276432383473
 20
142.6991532790323
 30
0.0
  0
ARC
  5
147
330
12B
100
AcDbEntity
  8
$DDT_AUDIT_GENERATED_(B3)
  6
Continuous
 62
     7
100
AcDbCircle
 10
102.485522791
 20
146.9751213246
 30
0.0
 40
12.0014048554231
100
AcDbArc
 50
202.6931396636
 51
208.7345413906
  0
ARC
  5
148
330
12B
100
AcDbEntity
  8
$DDT_AUDIT_GENERATED_(B3)
  6
Continuous
 62
     7
100
AcDbCircle
 10
130.2144607527
 20
146.9751292494
 30
0.0
 40
12.00142309509199
100
AcDbArc
 50
331.2654632045
 51
337.3068557414
  0
SPLINE
  5
149
330
12B
100
AcDbEntity
  8
$DDT_AUDIT_GENERATED_(B3)
  6
Continuous
 62
     7
100
AcDbSpline
210
0.0
220
0.0
230
1.0
 70
     8
 71
     3
 72
     8
 73
     4
 74
     0
 42
0.000000199760225
 43
0.0000000001
 40
0.0
 40
0.0
 40
0.0
 40
0.0
 40
0.0454110210278779
 40
0.0454110210278779
 40
0.0454110210278779
 40
0.0454110210278779
 10
141.7098138124114
 20
142.9152016591354
 30
0.0
 10
141.7105984091608
 20
142.9158744055291
 30
0.0
 10
141.7112435578171
 20
142.9162220011195
 30
0.0
 10
141.7117499422189
 20
142.9162452718757
 30
0.0
  0
SPLINE
  5
14A
330
12B
100
AcDbEntity
  8
$DDT_AUDIT_GENERATED_(B3)
  6
Continuous
 62
     7
100
AcDbSpline
210
0.0
220
0.0
230
1.0
 70
     8
 71
     3
 72
     8
 73
     4
 74
     0
 42
0.0000002007397665
 43
0.0000000001
 40
0.9541874495012077
 40
0.9541874495012077
 40
0.9541874495012077
 40
0.9541874495012077
 40
1.0
 40
1.0
 40
1.0
 40
1.0
 10
90.98824044563209
 20
142.9162329236505
 30
0.0
 10
90.98874645896105
 20
142.9162235038127
 30
0.0
 10
90.98939475339688
 20
142.9158802682409
 30
0.0
 10
90.99018618758855
 20
142.9152016591354
 30
0.0
  0
ELLIPSE
  5
14B
330
12B
100
AcDbEntity
  8
$DDT_AUDIT_GENERATED_(B3)
  6
Continuous
 62
     7
100
AcDbEllipse
 10
116.35
 20
142.9377200166
 30
0.0
 11
-25.37439975342192
 21
1.387778780781446E-14
 31
0.0
210
0.0
220
0.0
230
1.0
 40
0.0261769483
 41
0.1573115926480402
 42
0.3949642399228632
  0
ELLIPSE
  5
14C
330
12B
100
AcDbEntity
  8
$DDT_AUDIT_GENERATED_(B3)
  6
Continuous
 62
     7
100
AcDbEllipse
 10
116.35
 20
142.9377200166
 30
0.0
 11
-25.37439975342192
 21
1.387778780781446E-14
 31
0.0
210
0.0
220
0.0
230
1.0
 40
0.0261769483
 41
-3.536556893512617
 42
-3.293522550064238
  0
ELLIPSE
  5
14D
330
12B
100
AcDbEntity
  8
$DDT_AUDIT_GENERATED_(B3)
  6
Continuous
 62
     7
100
AcDbEllipse
 10
141.7098138124
 20
142.6153044616
 30
0.0
 11
0.1832811526964011
 21
-0.2375037243208741
 31
0.0
210
0.0
220
0.0
230
1.0
 40
0.9990826929
 41
3.141830243012859
 42
3.70563537113865
  0
SPLINE
  5
14E
330
12B
100
AcDbEntity
  8
$DDT_AUDIT_GENERATED_(B3)
  6
Continuous
 62
     7
100
AcDbSpline
210
0.0
220
0.0
230
1.0
 70
     8
 71
     3
 72
    10
 73
     6
 74
     0
 42
0.0000000265697251
 43
0.0000000001
 40
0.0
 40
0.0
 40
0.0
 40
0.0
 40
0.5
 40
0.5
 40
0.7929376680310329
 40
0.7929376680310329
 40
0.7929376680310329
 40
0.7929376680310329
 10
140.8295492486047
 20
141.1081718887751
 30
0.0
 10
140.7627730172613
 20
141.1211859687033
 30
0.0
 10
140.6957515271649
 20
141.1113680158305
 30
0.0
 10
140.6151629020969
 20
141.0625294736658
 30
0.0
 10
140.5912102444811
 20
141.0376753802615
 30
0.0
 10
140.5746233885994
 20
141.0080905006703
 30
0.0
  0
SPLINE
  5
14F
330
12B
100
AcDbEntity
  8
$DDT_AUDIT_GENERATED_(B3)
  6
Continuous
 62
     7
100
AcDbSpline
210
0.0
220
0.0
230
1.0
 70
     8
 71
     3
 72
    10
 73
     6
 74
     0
 42
0.0000000265747118
 43
0.0000000001
 40
0.2038146675034854
 40
0.2038146675034854
 40
0.2038146675034854
 40
0.2038146675034854
 40
0.5000000000000003
 40
0.5000000000000003
 40
1.0
 40
1.0
 40
1.0
 40
1.0
 10
92.12592527272204
 20
141.0071049210713
 30
0.0
 10
92.10931964764268
 20
141.0371237415297
 30
0.0
 10
92.0851665124333
 20
141.0623298824439
 30
0.0
 10
92.00424909327428
 20
141.1113675697965
 30
0.0
 10
91.93722715417658
 20
141.1211860021139
 30
0.0
 10
91.87045075139518
 20
141.1081718887751
 30
0.0
  0
SPLINE
  5
150
330
12B
100
AcDbEntity
  8
$DDT_AUDIT_GENERATED_(B3)
  6
Continuous
 62
     7
100
AcDbSpline
210
0.0
220
0.0
230
1.0
 70
     8
 71
     3
 72
     8
 73
     4
 74
     0
 42
0.0000001788095541
 43
0.0000000001
 40
0.0
 40
0.0
 40
0.0
 40
0.0
 40
0.0455952314999832
 40
0.0455952314999832
 40
0.0455952314999832
 40
0.0455952314999832
 10
90.66440104350852
 20
142.9152016591354
 30
0.0
 10
90.66362803131203
 20
142.915872987283
 30
0.0
 10
90.66288776607038
 20
142.9162205002486
 30
0.0
 10
90.6621798598684
 20
142.9162448750841
 30
0.0
  0
SPLINE
  5
151
330
12B
100
AcDbEntity
  8
$DDT_AUDIT_GENERATED_(B3)
  6
Continuous
 62
     7
100
AcDbSpline
210
0.0
220
0.0
230
1.0
 70
     8
 71
     3
 72
     8
 73
     4
 74
     0
 42
0.00000017908065
 43
0.0000000001
 40
0.9537943895858251
 40
0.9537943895858251
 40
0.9537943895858251
 40
0.9537943895858251
 40
1.0
 40
1.0
 40
1.0
 40
1.0
 10
142.0378500389514
 20
142.9162329187382
 30
0.0
 10
142.0371325832947
 20
142.916225385519
 30
0.0
 10
142.0363823147973
 20
142.915881972438
 30
0.0
 10
142.0355989564914
 20
142.9152016591354
 30
0.0
  0
ARC
  5
152
330
12B
100
AcDbEntity
  8
$DDT_AUDIT_GENERATED_(B3)
  6
Continuous
 62
     7
100
AcDbCircle
 10
103.358475833
 20
191.3772944351
 30
0.0
 40
82.8767114348326
100
AcDbArc
 50
261.5625181182
 51
270.0983042015
  0
ARC
  5
153
330
12B
100
AcDbEntity
  8
$DDT_AUDIT_GENERATED_(B3)
  6
Continuous
 62
     7
100
AcDbCircle
 10
103.7365418043
 20
77.355640257
 30
0.0
 40
31.1459578814411
100
AcDbArc
 50
82.6013637213
 51
90.4339114829
  0
ARC
  5
154
330
12B
100
AcDbEntity
  8
$DDT_AUDIT_GENERATED_(B3)
  6
Continuous
 62
     7
100
AcDbCircle
 10
109.7831083446
 20
129.0835789289
 30
0.0
 40
22.70676852524694
100
AcDbArc
 50
264.9672166987
 51
270.7832928421
  0
ARC
  5
155
330
12B
100
AcDbEntity
  8
$DDT_AUDIT_GENERATED_(B3)
  6
Continuous
 62
     7
100
AcDbCircle
 10
116.3499999999
 20
782.8317935883
 30
0.0
 40
676.4817935883008
100
AcDbArc
 50
269.4700895204
 51
270.5299104796
  0
ARC
  5
156
330
12B
100
AcDbEntity
  8
$DDT_AUDIT_GENERATED_(B3)
  6
Continuous
 62
     7
100
AcDbCircle
 10
128.963578042
 20
77.3536936455
 30
0.0
 40
31.14790352983666
100
AcDbArc
 50
89.5663360822
 51
97.392432503
  0
ARC
  5
157
330
12B
100
AcDbEntity
  8
$DDT_AUDIT_GENERATED_(B3)
  6
Continuous
 62
     7
100
AcDbCircle
 10
129.3407259469
 20
191.3880855657
 30
0.0
 40
82.88750118401744
100
AcDbArc
 50
269.9022603636
 51
278.4785570253
  0
LINE
  5
158
330
12B
100
AcDbEntity
  8
$DDT_AUDIT_GENERATED_(B3)
  6
Continuous
 62
     7
100
AcDbLine
 10
125.6
 20
108.3328000573
 30
0.0
 11
125.6
 21
107.1640566481
 31
0.0
  0
LINE
  5
159
330
12B
100
AcDbEntity
  8
$DDT_AUDIT_GENERATED_(B3)
  6
Continuous
 62
     7
100
AcDbLine
 10
107.1
 20
107.1640566481
 30
0.0
 11
107.1
 21
108.3333093656
 31
0.0
  0
ELLIPSE
  5
15A
330
12B
100
AcDbEntity
  8
$DDT_AUDIT_GENERATED_(B3)
  6
Continuous
 62
     7
100
AcDbEllipse
 10
116.35
 20
109.4236204258
 30
0.0
 11
25.32621567611177
 21
0.0
 31
0.0
210
0.0
220
0.0
230
1.0
 40
0.0261769483
 41
0.0979617112072403
 42
3.019837597063912
  0
ELLIPSE
  5
15B
330
12B
100
AcDbEntity
  8
$DDT_AUDIT_GENERATED_(B3)
  6
Continuous
 62
     7
100
AcDbEllipse
 10
91.05
 20
110.1228896481
 30
0.0
 11
0.7000000000000062
 21
2.997602166487923E-12
 31
0.0
210
0.0
220
0.0
230
1.0
 40
0.999657325
 41
3.141592653585164
 42
4.674929254338429
  0
ELLIPSE
  5
15C
330
12B
100
AcDbEntity
  8
$DDT_AUDIT_GENERATED_(B3)
  6
Continuous
 62
     7
100
AcDbEllipse
 10
141.65
 20
110.1228896481
 30
0.0
 11
0.7000000000000339
 21
7.216449660063518E-12
 31
0.0
210
0.0
220
0.0
230
1.0
 40
0.999657325
 41
4.749848706401531
 42
6.283185307179586
  0
ELLIPSE
  5
15D
330
12B
100
AcDbEntity
  8
$DDT_AUDIT_GENERATED_(B3)
  6
Continuous
 62
     7
100
AcDbEllipse
 10
107.8
 20
107.1640566481
 30
0.0
 11
0.6999999999997772
 21
-3.844147222764605E-12
 31
0.0
210
0.0
220
0.0
230
1.0
 40
0.999657325
 41
3.141592653589783
 42
4.699732288394773
  0
ELLIPSE
  5
15E
330
12B
100
AcDbEntity
  8
$DDT_AUDIT_GENERATED_(B3)
  6
Continuous
 62
     7
100
AcDbEllipse
 10
124.9
 20
107.1640566481
 30
0.0
 11
0.7000000000000131
 21
-3.212707877509047E-11
 31
0.0
210
0.0
220
0.0
230
1.0
 40
0.999657325
 41
4.725045672426297
 42
6.283185307179586
  0
LINE
  5
15F
330
12B
100
AcDbEntity
  8
$DDT_AUDIT_GENERATED_(B3)
  6
Continuous
 62
     7
100
AcDbLine
 10
90.9918328237
 20
142.9162296842
 30
0.0
 11
90.6632892376
 21
142.9162296842
 31
0.0
  0
LINE
  5
160
330
12B
100
AcDbEntity
  8
$DDT_AUDIT_GENERATED_(B3)
  6
Continuous
 62
     7
100
AcDbLine
 10
142.0371299161
 20
142.9162296842
 30
0.0
 11
141.70699745
 21
142.9162296842
 31
0.0
  0
ARC
  5
161
330
12B
100
AcDbEntity
  8
$DDT_AUDIT_GENERATED_(B3)
  6
Continuous
 62
     7
100
AcDbCircle
 10
141.6983730787
 20
142.6327701485
 30
0.0
 40
0.279848544455794
100
AcDbArc
 50
88.2299068483
 51
139.4991587333
  0
SPLINE
  5
162
330
12B
100
AcDbEntity
  8
$DDT_AUDIT_GENERATED_(B3)
  6
Continuous
 62
     7
100
AcDbSpline
210
0.0
220
0.0
230
1.0
 70
     8
 71
     3
 72
    11
 73
     7
 74
     0
 42
0.0000000504272766
 43
0.0000000001
 40
0.0
 40
0.0
 40
0.0
 40
0.0
 40
0.0237019306425694
 40
0.4185426779461333
 40
0.8899336963110062
 40
1.0
 40
1.0
 40
1.0
 40
1.0
 10
91.17289538351407
 20
142.8529243930722
 30
0.0
 10
91.17193202042476
 20
142.8537853301628
 30
0.0
 10
91.15721565048496
 20
142.8668918665307
 30
0.0
 10
91.10218329084242
 20
142.8969352030611
 30
0.0
 10
91.03715501354775
 20
142.9185228160833
 30
0.0
 10
90.99962321759884
 20
142.9140375122588
 30
0.0
 10
90.9913961984331
 20
142.9130097998859
 30
0.0
  0
ARC
  5
163
330
12B
100
AcDbEntity
  8
$DDT_AUDIT_GENERATED_(B3)
  6
Continuous
 62
     7
100
AcDbCircle
 10
140.168309436
 20
141.5593196099
 30
0.0
 40
0.6625916492155488
100
AcDbArc
 50
309.5187109755
 51
331.9392751244
  0
ARC
  5
164
330
12B
100
AcDbEntity
  8
$DDT_AUDIT_GENERATED_(B3)
  6
Continuous
 62
     7
100
AcDbCircle
 10
139.5015847292
 20
141.6564045408
 30
0.0
 40
1.253208381001643
100
AcDbArc
 50
320.4135308089
 51
328.8441918865
  0
ARC
  5
165
330
12B
100
AcDbEntity
  8
$DDT_AUDIT_GENERATED_(B3)
  6
Continuous
 62
     7
100
AcDbCircle
 10
92.6434913361
 20
141.649890433
 30
0.0
 40
0.805369964944418
100
AcDbArc
 50
207.0691255863
 51
228.3689010148
  0
ARC
  5
166
330
12B
100
AcDbEntity
  8
$DDT_AUDIT_GENERATED_(B3)
  6
Continuous
 62
     7
100
AcDbCircle
 10
108.9995982009
 20
156.3869277304
 30
0.0
 40
22.85356356408495
100
AcDbArc
 50
222.8050065857
 51
248.9334836641
  0
ARC
  5
167
330
12B
100
AcDbEntity
  8
$DDT_AUDIT_GENERATED_(B3)
  6
Continuous
 62
     7
100
AcDbCircle
 10
123.9949739724
 20
156.0186194282
 30
0.0
 40
22.38728677179435
100
AcDbArc
 50
293.2409652139
 51
317.3742817358
  0
ARC
  5
168
330
12B
100
AcDbEntity
  8
$DDT_AUDIT_GENERATED_(B3)
  6
Continuous
 62
     7
100
AcDbCircle
 10
92.8610761438
 20
141.4058325371
 30
0.0
 40
0.8338449225129866
100
AcDbArc
 50
208.5074574243
 51
221.0886953551
  0
SPLINE
  5
169
330
12B
100
AcDbEntity
  8
$DDT_AUDIT_GENERATED_(B3)
  6
Continuous
 62
     7
100
AcDbSpline
210
0.0
220
0.0
230
1.0
 70
     8
 71
     3
 72
    15
 73
    11
 74
     0
 42
0.0000000162082629
 43
0.0000000001
 40
0.0
 40
0.0
 40
0.0
 40
0.0
 40
0.0049628722226598
 40
0.370608882990901
 40
0.5453857180206924
 40
0.6338232165661046
 40
0.7144540082433268
 40
0.8074754263746977
 40
0.9096239514769314
 40
1.0
 40
1.0
 40
1.0
 40
1.0
 10
142.3499289175109
 20
142.4867069692749
 30
0.0
 10
142.3499509886412
 20
142.4875661458232
 30
0.0
 10
142.351369484269
 20
142.5429781983777
 30
0.0
 10
142.3484690973359
 20
142.5862907452805
 30
0.0
 10
142.3418927449947
 20
142.6546771967343
 30
0.0
 10
142.3243514001739
 20
142.7192389027648
 30
0.0
 10
142.2896013140964
 20
142.788657269037
 30
0.0
 10
142.2249008129574
 20
142.8587683938175
 30
0.0
 10
142.1304565352865
 20
142.9098125105333
 30
0.0
 10
142.0650918779327
 20
142.9126979437063
 30
0.0
 10
142.0292523712036
 20
142.9135051619321
 30
0.0
  0
SPLINE
  5
16A
330
12B
100
AcDbEntity
  8
$DDT_AUDIT_GENERATED_(B3)
  6
Continuous
 62
     7
100
AcDbSpline
210
0.0
220
0.0
230
1.0
 70
     8
 71
     3
 72
    17
 73
    13
 74
     0
 42
0.0000000114391143
 43
0.0000000001
 40
0.0
 40
0.0
 40
0.0
 40
0.0
 40
0.0190915070452979
 40
0.0904367583342902
 40
0.1469982841349887
 40
0.1962634564849173
 40
0.2414702014234715
 40
0.2889234934309072
 40
0.3589067632219697
 40
0.5226903628811588
 40
0.8773718566250952
 40
1.0
 40
1.0
 40
1.0
 40
1.0
 10
90.66430668484033
 20
142.9119690736051
 30
0.0
 10
90.65285189735836
 20
142.9134683438882
 30
0.0
 10
90.60615015347584
 20
142.919260790902
 30
0.0
 10
90.5234688884409
 20
142.8883300518709
 30
0.0
 10
90.4466540760958
 20
142.8318126541103
 30
0.0
 10
90.39980337189296
 20
142.7697123189935
 30
0.0
 10
90.3747784577789
 20
142.7149822893893
 30
0.0
 10
90.3615557147966
 20
142.6679131408104
 30
0.0
 10
90.35300385651429
 20
142.6134122991738
 30
0.0
 10
90.3488998563272
 20
142.5272192221477
 30
0.0
 10
90.35028097166177
 20
142.4021471152142
 30
0.0
 10
90.35550732393611
 20
142.2651321790547
 30
0.0
 10
90.35713584568624
 20
142.2237412750409
 30
0.0
  0
LINE
  5
16B
330
12B
100
AcDbEntity
  8
$DDT_AUDIT_GENERATED_(B3)
  6
Continuous
 62
     7
100
AcDbLine
 10
90.35
 20
142.4613855275
 30
0.0
 11
90.35
 21
110.1228896481
 31
0.0
  0
LINE
  5
16C
330
12B
100
AcDbEntity
  8
$DDT_AUDIT_GENERATED_(B3)
  6
Continuous
 62
     7
100
AcDbLine
 10
142.35
 20
110.1228896481
 30
0.0
 11
142.35
 21
142.4907276618
 31
0.0
  0
SPLINE
  5
16D
330
12B
100
AcDbEntity
  8
$DDT_AUDIT_GENERATED_(B3)
  6
Continuous
 62
     7
100
AcDbSpline
210
0.0
220
0.0
230
1.0
 70
     8
 71
     3
 72
    12
 73
     8
 74
     0
 42
0.0000000134917262
 43
0.0000000001
 40
0.2580593398028936
 40
0.2580593398028936
 40
0.2580593398028936
 40
0.2580593398028936
 40
0.2684211042225214
 40
0.39977157076113
 40
0.565062307710357
 40
0.8031416788845515
 40
1.0
 40
1.0
 40
1.0
 40
1.0
 10
90.58646744777033
 20
109.6099083700277
 30
0.0
 10
90.5899183376548
 20
109.6063289668568
 30
0.0
 10
90.63693979551456
 20
109.558564289035
 30
0.0
 10
90.73324170810376
 20
109.4889524389921
 30
0.0
 10
90.85351119856682
 20
109.4278174097539
 30
0.0
 10
90.96050310304643
 20
109.3881264755665
 30
0.0
 10
91.03063199271433
 20
109.3702806496977
 30
0.0
 10
91.06731615355274
 20
109.3615822830553
 30
0.0
  0
SPLINE
  5
16E
330
12B
100
AcDbEntity
  8
$DDT_AUDIT_GENERATED_(B3)
  6
Continuous
 62
     7
100
AcDbSpline
210
0.0
220
0.0
230
1.0
 70
     8
 71
     3
 72
    10
 73
     6
 74
     0
 42
0.0000000152736171
 43
0.0000000001
 40
0.0
 40
0.0
 40
0.0
 40
0.0
 40
0.36306734154232
 40
0.6088524066370101
 40
0.6453226718365623
 40
0.6453226718365623
 40
0.6453226718365623
 40
0.6453226718365623
 10
141.7046597459237
 20
109.3817768843612
 30
0.0
 10
141.7602824242362
 20
109.3954720597735
 30
0.0
 10
141.8445989595182
 20
109.4262013298553
 30
0.0
 10
141.9859491466706
 20
109.4990877886434
 30
0.0
 10
142.0644635497096
 20
109.5650644167892
 30
0.0
 10
142.0748467952743
 20
109.574294234307
 30
0.0
  0
SPLINE
  5
16F
330
12B
100
AcDbEntity
  8
$DDT_AUDIT_GENERATED_(B3)
  6
Continuous
 62
     7
100
AcDbSpline
210
0.0
220
0.0
230
1.0
 70
     8
 71
     3
 72
    21
 73
    17
 74
     0
 42
0.00000000300723
 43
0.0000000001
 40
0.0
 40
0.0
 40
0.0
 40
0.0
 40
0.0530301476477211
 40
0.0968222909558939
 40
0.134173541766633
 40
0.16568587716917
 40
0.190881376319978
 40
0.2148207047039655
 40
0.2503545976082354
 40
0.3263147360019854
 40
0.4537318618041072
 40
0.5902638830099144
 40
0.7206777340894566
 40
0.8489591174446192
 40
0.9767063258471378
 40
1.0
 40
1.0
 40
1.0
 40
1.0
 10
107.111354469246
 20
107.0407512266373
 30
0.0
 10
107.1327808886908
 20
106.959312314998
 30
0.0
 10
107.1689736381508
 20
106.8329998985134
 30
0.0
 10
107.2895823058219
 20
106.6739708846374
 30
0.0
 10
107.4141381233062
 20
106.5727869445808
 30
0.0
 10
107.5293481516983
 20
106.5136537579735
 30
0.0
 10
107.6177916286488
 20
106.4840812187627
 30
0.0
 10
107.6865409980549
 20
106.4679708457786
 30
0.0
 10
107.7648330256596
 20
106.4551509055136
 30
0.0
 10
107.8834276294577
 20
106.4428486303726
 30
0.0
 10
108.1115378419122
 20
106.4276145003395
 30
0.0
 10
108.4869007232259
 20
106.4114060986182
 30
0.0
 10
108.9591927251898
 20
106.3971023103506
 30
0.0
 10
109.478791332658
 20
106.3862967218141
 30
0.0
 10
109.8971802216596
 20
106.3800692958918
 30
0.0
 10
110.1029670056062
 20
106.3787646260464
 30
0.0
 10
110.1399032286163
 20
106.3785342231069
 30
0.0
  0
SPLINE
  5
170
330
12B
100
AcDbEntity
  8
$DDT_AUDIT_GENERATED_(B3)
  6
Continuous
 62
     7
100
AcDbSpline
210
0.0
220
0.0
230
1.0
 70
     8
 71
     3
 72
    21
 73
    17
 74
     0
 42
0.0000000029338664
 43
0.0000000001
 40
0.0
 40
0.0
 40
0.0
 40
0.0
 40
0.0135971958876437
 40
0.1394850755787205
 40
0.2646312852612864
 40
0.3909022274576929
 40
0.5170205911101143
 40
0.6461218047029751
 40
0.7150361352599857
 40
0.7727535167511267
 40
0.8002280345059309
 40
0.8336784637378725
 40
0.8781821249047469
 40
0.9291451320650969
 40
0.9859173778682729
 40
1.0
 40
1.0
 40
1.0
 40
1.0
 10
122.60643997288
 20
106.3788823752425
 30
0.0
 10
122.6283726772161
 20
106.3790163777561
 30
0.0
 10
122.8220916815927
 20
106.3802105250958
 30
0.0
 10
123.2264211932134
 20
106.3864381687555
 30
0.0
 10
123.7419572996764
 20
106.397135462528
 30
0.0
 10
124.2009032549962
 20
106.4110093743479
 30
0.0
 10
124.5744348532218
 20
106.4270726209867
 30
0.0
 10
124.800759422763
 20
106.4411864653118
 30
0.0
 10
124.9345690710909
 20
106.4555726042556
 30
0.0
 10
125.0178813123264
 20
106.4671529741049
 30
0.0
 10
125.1356638364926
 20
106.4997584766336
 30
0.0
 10
125.267826919502
 20
106.5594137519456
 30
0.0
 10
125.4177851958951
 20
106.6762387895004
 30
0.0
 10
125.5427848457072
 20
106.8602920347184
 30
0.0
 10
125.6063406624383
 20
107.0426749623214
 30
0.0
 10
125.5943603713861
 20
107.1405480069445
 30
0.0
 10
125.5914546984552
 20
107.1631233547477
 30
0.0
  0
LINE
  5
171
330
12B
100
AcDbEntity
  8
$DDT_AUDIT_GENERATED_(CB)
  6
Continuous
 62
     7
100
AcDbLine
 10
6.85
 20
276.3270028874
 30
0.0
 11
75.85
 21
276.3270028874
 31
0.0
  0
LINE
  5
172
330
12B
100
AcDbEntity
  8
$DDT_AUDIT_GENERATED_(CB)
  6
Continuous
 62
     7
100
AcDbLine
 10
21.35
 20
243.3270228914
 30
0.0
 11
61.35
 21
243.3270228914
 31
0.0
  0
ARC
  5
173
330
12B
100
AcDbEntity
  8
$DDT_AUDIT_GENERATED_(CB)
  6
Continuous
 62
     7
100
AcDbCircle
 10
74.0466785701
 20
245.1624858776
 30
0.0
 40
1.499999999999999
100
AcDbArc
 50
271.8765314455
 51
358.5
  0
ARC
  5
174
330
12B
100
AcDbEntity
  8
$DDT_AUDIT_GENERATED_(CB)
  6
Continuous
 62
     7
100
AcDbCircle
 10
8.6533214299
 20
245.1624858776
 30
0.0
 40
1.499999999999992
100
AcDbArc
 50
181.5
 51
268.1234685545
  0
LINE
  5
175
330
12B
100
AcDbEntity
  8
$DDT_AUDIT_GENERATED_(CB)
  6
Continuous
 62
     7
100
AcDbLine
 10
6.3501713375
 20
275.8139144132
 30
0.0
 11
7.1538354424
 21
245.1232204552
 31
0.0
  0
LINE
  5
176
330
12B
100
AcDbEntity
  8
$DDT_AUDIT_GENERATED_(CB)
  6
Continuous
 62
     7
100
AcDbLine
 10
75.5461645576
 20
245.1232204552
 30
0.0
 11
76.3498286625
 21
275.8139144132
 31
0.0
  0
ARC
  5
177
330
12B
100
AcDbEntity
  8
$DDT_AUDIT_GENERATED_(CB)
  6
Continuous
 62
     7
100
AcDbCircle
 10
75.85
 20
275.8270028874
 30
0.0
 40
0.500000000000002
100
AcDbArc
 50
358.5
 51
90.0
  0
ARC
  5
178
330
12B
100
AcDbEntity
  8
$DDT_AUDIT_GENERATED_(CB)
  6
Continuous
 62
     7
100
AcDbCircle
 10
6.85
 20
275.8270028874
 30
0.0
 40
0.5000000000000004
100
AcDbArc
 50
90.0
 51
181.5
  0
ARC
  5
179
330
12B
100
AcDbEntity
  8
$DDT_AUDIT_GENERATED_(CB)
  6
Continuous
 62
     7
100
AcDbCircle
 10
41.35
 20
1243.1270028874
 30
0.0
 40
1000.0
100
AcDbArc
 50
268.1234685545
 51
268.8540080016
  0
ARC
  5
17A
330
12B
100
AcDbEntity
  8
$DDT_AUDIT_GENERATED_(CB)
  6
Continuous
 62
     7
100
AcDbCircle
 10
41.35
 20
1243.1270028874
 30
0.0
 40
1000.0
100
AcDbArc
 50
271.1459919984
 51
271.8765314455
  0
LINE
  5
17B
330
12B
100
AcDbEntity
  8
$DDT_AUDIT_GENERATED_(121)
  6
Continuous
 62
     7
100
AcDbLine
 10
22.3
 20
224.3265459728
 30
0.0
 11
22.35
 21
224.3265459728
 31
0.0
  0
LINE
  5
17C
330
12B
100
AcDbEntity
  8
$DDT_AUDIT_GENERATED_(121)
  6
Continuous
 62
     7
100
AcDbLine
 10
60.6
 20
224.5265459728
 30
0.0
 11
60.6
 21
243.3270228914
 31
0.0
  0
LINE
  5
17D
330
12B
100
AcDbEntity
  8
$DDT_AUDIT_GENERATED_(121)
  6
Continuous
 62
     7
100
AcDbLine
 10
22.1
 20
243.3270228914
 30
0.0
 11
22.1
 21
224.5265459728
 31
0.0
  0
ARC
  5
17E
330
12B
100
AcDbEntity
  8
$DDT_AUDIT_GENERATED_(121)
  6
Continuous
 62
     7
100
AcDbCircle
 10
22.3
 20
224.5265459728
 30
0.0
 40
0.1999999999999919
100
AcDbArc
 50
180.0
 51
270.0
  0
ARC
  5
17F
330
12B
100
AcDbEntity
  8
$DDT_AUDIT_GENERATED_(121)
  6
Continuous
 62
     7
100
AcDbCircle
 10
60.4
 20
224.5265459728
 30
0.0
 40
0.1999999999999988
100
AcDbArc
 50
270.0
 51
0.0
  0
LINE
  5
180
330
12B
100
AcDbEntity
  8
$DDT_AUDIT_GENERATED_(CB)
  6
Continuous
 62
     7
100
AcDbLine
 10
156.85
 20
276.3270028874
 30
0.0
 11
225.85
 21
276.3270028874
 31
0.0
  0
LINE
  5
181
330
12B
100
AcDbEntity
  8
$DDT_AUDIT_GENERATED_(CB)
  6
Continuous
 62
     7
100
AcDbLine
 10
171.35
 20
243.3270228914
 30
0.0
 11
211.35
 21
243.3270228914
 31
0.0
  0
ARC
  5
182
330
12B
100
AcDbEntity
  8
$DDT_AUDIT_GENERATED_(CB)
  6
Continuous
 62
     7
100
AcDbCircle
 10
224.0466785701
 20
245.1624858776
 30
0.0
 40
1.500000000000006
100
AcDbArc
 50
271.8765314455
 51
358.5
  0
ARC
  5
183
330
12B
100
AcDbEntity
  8
$DDT_AUDIT_GENERATED_(CB)
  6
Continuous
 62
     7
100
AcDbCircle
 10
158.6533214299
 20
245.1624858776
 30
0.0
 40
1.499999999999998
100
AcDbArc
 50
181.5
 51
268.1234685545
  0
LINE
  5
184
330
12B
100
AcDbEntity
  8
$DDT_AUDIT_GENERATED_(CB)
  6
Continuous
 62
     7
100
AcDbLine
 10
156.3501713375
 20
275.8139144132
 30
0.0
 11
157.1538354424
 21
245.1232204552
 31
0.0
  0
LINE
  5
185
330
12B
100
AcDbEntity
  8
$DDT_AUDIT_GENERATED_(CB)
  6
Continuous
 62
     7
100
AcDbLine
 10
225.5461645576
 20
245.1232204552
 30
0.0
 11
226.3498286625
 21
275.8139144132
 31
0.0
  0
ARC
  5
186
330
12B
100
AcDbEntity
  8
$DDT_AUDIT_GENERATED_(CB)
  6
Continuous
 62
     7
100
AcDbCircle
 10
225.85
 20
275.8270028874
 30
0.0
 40
0.500000000000002
100
AcDbArc
 50
358.5
 51
90.0
  0
ARC
  5
187
330
12B
100
AcDbEntity
  8
$DDT_AUDIT_GENERATED_(CB)
  6
Continuous
 62
     7
100
AcDbCircle
 10
156.85
 20
275.8270028874
 30
0.0
 40
0.5000000000000004
100
AcDbArc
 50
90.0
 51
181.5
  0
ARC
  5
188
330
12B
100
AcDbEntity
  8
$DDT_AUDIT_GENERATED_(CB)
  6
Continuous
 62
     7
100
AcDbCircle
 10
191.35
 20
1243.1270028874
 30
0.0
 40
1000.0
100
AcDbArc
 50
268.1234685545
 51
268.8540080016
  0
ARC
  5
189
330
12B
100
AcDbEntity
  8
$DDT_AUDIT_GENERATED_(CB)
  6
Continuous
 62
     7
100
AcDbCircle
 10
191.35
 20
1243.1270028874
 30
0.0
 40
1000.0
100
AcDbArc
 50
271.1459919984
 51
271.8765314455
  0
LINE
  5
18A
330
12B
100
AcDbEntity
  8
$DDT_AUDIT_GENERATED_(121)
  6
Continuous
 62
     7
100
AcDbLine
 10
210.35
 20
224.3265459728
 30
0.0
 11
210.4
 21
224.3265459728
 31
0.0
  0
LINE
  5
18B
330
12B
100
AcDbEntity
  8
$DDT_AUDIT_GENERATED_(121)
  6
Continuous
 62
     7
100
AcDbLine
 10
210.6
 20
224.5265459728
 30
0.0
 11
210.6
 21
243.3270228914
 31
0.0
  0
LINE
  5
18C
330
12B
100
AcDbEntity
  8
$DDT_AUDIT_GENERATED_(121)
  6
Continuous
 62
     7
100
AcDbLine
 10
172.1
 20
243.3270228914
 30
0.0
 11
172.1
 21
224.5265459728
 31
0.0
  0
ARC
  5
18D
330
12B
100
AcDbEntity
  8
$DDT_AUDIT_GENERATED_(121)
  6
Continuous
 62
     7
100
AcDbCircle
 10
172.3
 20
224.5265459728
 30
0.0
 40
0.2000000000000057
100
AcDbArc
 50
180.0
 51
270.0
  0
ARC
  5
18E
330
12B
100
AcDbEntity
  8
$DDT_AUDIT_GENERATED_(121)
  6
Continuous
 62
     7
100
AcDbCircle
 10
210.4
 20
224.5265459728
 30
0.0
 40
0.1999999999999988
100
AcDbArc
 50
270.0
 51
0.0
  0
ENDBLK
  5
190
330
12B
100
AcDbEntity
  8
0
100
AcDbBlockEnd
  0
ENDSEC
  0
SECTION
  2
ENTITIES
  0
INSERT
  5
5F
330
1F
100
AcDbEntity
  8
Default
100
AcDbBlockReference
  2
SEANNOT_GROUP
 10
0.0
 20
0.0
 30
0.0
  0
INSERT
  5
6A
330
1F
100
AcDbEntity
  8
Default
100
AcDbBlockReference
  2
SEANNOT_GROUP1
 10
0.0
 20
0.0
 30
0.0
  0
INSERT
  5
74
330
1F
100
AcDbEntity
  8
Default
100
AcDbBlockReference
  2
SEANNOT_GROUP2
 10
0.0
 20
0.0
 30
0.0
  0
INSERT
  5
7A
330
1F
100
AcDbEntity
  8
Default
100
AcDbBlockReference
  2
SEANNOT_GROUP3
 10
0.0
 20
0.0
 30
0.0
  0
INSERT
  5
80
330
1F
100
AcDbEntity
  8
Default
100
AcDbBlockReference
  2
SEANNOT_GROUP4
 10
0.0
 20
0.0
 30
0.0
  0
INSERT
  5
86
330
1F
100
AcDbEntity
  8
Default
100
AcDbBlockReference
  2
SEANNOT_GROUP5
 10
0.0
 20
0.0
 30
0.0
  0
INSERT
  5
8C
330
1F
100
AcDbEntity
  8
Default
100
AcDbBlockReference
  2
SE
 10
0.0
 20
0.0
 30
0.0
  0
INSERT
  5
D2
330
1F
100
AcDbEntity
  8
Default
100
AcDbBlockReference
  2
SE1
 10
0.0
 20
0.0
 30
0.0
  0
INSERT
  5
12C
330
1F
100
AcDbEntity
  8
Default
100
AcDbBlockReference
  2
SE2
 10
0.0
 20
0.0
 30
0.0
  0
TEXT
  5
192
330
1F
100
AcDbEntity
  8
Default
  6
Continuous
 62
     7
100
AcDbText
 10
5.9362635081
 20
53.4225120485
 30
0.0
 40
10.0
  1
Grohe AG^J
  7
SEACAD_seiso_ttf
 11
5.9362635081
 21
63.4225120485
 31
0.0
100
AcDbText
 73
     3
  0
TEXT
  5
193
330
1F
100
AcDbEntity
  8
Default
  6
Continuous
 62
     7
100
AcDbText
 10
5.9362635081
 20
37.0588756849
 30
0.0
 40
10.0
  1
 
  7
SEACAD_seiso_ttf
 11
5.9362635081
 21
47.0588756849
 31
0.0
100
AcDbText
 73
     3
  0
TEXT
  5
194
330
1F
100
AcDbEntity
  8
Default
  6
Continuous
 62
     7
100
AcDbText
 10
5.9362635081
 20
20.6952393213
 30
0.0
 40
10.0
  1
ecn: 
  7
SEACAD_seiso_ttf
 11
5.9362635081
 21
30.6952393213
 31
0.0
100
AcDbText
 73
     3
  0
TEXT
  5
195
330
1F
100
AcDbEntity
  8
Default
  6
Continuous
 62
     7
100
AcDbText
 10
5.9362635081
 20
4.3316029576
 30
0.0
 40
10.0
  1
unit: mm
  7
SEACAD_seiso_ttf
 11
5.9362635081
 21
14.3316029576
 31
0.0
100
AcDbText
 73
     3
  0
LINE
  5
196
330
1F
100
AcDbEntity
  8
Default
  6
Continuous
 62
     7
100
AcDbLine
 10
0.0
 20
0.0
 30
0.0
 11
100.0
 21
0.0
 31
0.0
  0
LINE
  5
197
330
1F
100
AcDbEntity
  8
Default
  6
Continuous
 62
     7
100
AcDbLine
 10
0.0
 20
0.0
 30
0.0
 11
0.0
 21
100.0
 31
0.0
  0
TEXT
  5
198
330
1F
100
AcDbEntity
  8
Default
  6
Continuous
 62
     7
100
AcDbText
 10
24.3923665681
 20
-18.2375342018
 30
0.0
 40
10.0
  1
100 mm
  7
SEACAD_seiso_ttf
 11
24.3923665681
 21
-8.2375342018
 31
0.0
100
AcDbText
 73
     3
  0
TEXT
  5
199
330
1F
100
AcDbEntity
  8
Default
  6
Continuous
 62
     7
100
AcDbText
 10
-7.6150308803
 20
24.6231930421
 30
0.0
 40
10.0
  1
100 mm
 50
90.0
  7
SEACAD_seiso_ttf
 11
-17.6150308803
 21
24.6231930421
 31
0.0
100
AcDbText
 73
     3
  0
TEXT
  5
19A
330
1F
100
AcDbEntity
  8
Default
  6
Continuous
 62
     7
100
AcDbText
 10
28.4878128572
 20
20.0907663715
 30
0.0
 40
10.0
  1
214610
  7
SEACAD_seiso_ttf
 11
28.4878128572
 21
30.0907663715
 31
0.0
100
AcDbText
 73
     3
  0
TEXT
  5
19B
330
1F
100
AcDbEntity
  8
Default
  6
Continuous
 62
     7
100
AcDbText
 10
5.9012241913
 20
36.7242780188
 30
0.0
 40
10.0
  1
33865000
  7
SEACAD_seiso_ttf
 11
5.9012241913
 21
46.7242780188
 31
0.0
100
AcDbText
 73
     3
  0
ENDSEC
  0
SECTION
  2
OBJECTS
  0
DICTIONARY
  5
C
330
0
100
AcDbDictionary
281
     1
  3
ACAD_GROUP
350
D
  3
ACAD_LAYOUT
350
1A
  3
ACAD_MLEADERSTYLE
350
19F
  3
ACAD_MLINESTYLE
350
17
  3
ACAD_PLOTSETTINGS
350
19
  3
ACAD_PLOTSTYLENAME
350
E
  3
ACAD_SCALELIST
350
3B
  3
ACAD_TABLESTYLE
350
19E
  3
ACAD_VISUALSTYLE
350
2A
  3
AcDbVariableDictionary
350
19C
  0
DICTIONARY
  5
D
102
{ACAD_REACTORS
330
C
102
}
330
C
100
AcDbDictionary
281
     1
  0
DICTIONARY
  5
1A
102
{ACAD_REACTORS
330
C
102
}
330
C
100
AcDbDictionary
281
     1
  3
Layout1
350
1E
  3
Model
350
22
  0
DICTIONARY
  5
19F
102
{ACAD_REACTORS
330
C
102
}
330
C
100
AcDbDictionary
281
     1
  0
DICTIONARY
  5
17
102
{ACAD_REACTORS
330
C
102
}
330
C
100
AcDbDictionary
281
     1
  3
Standard
350
18
  0
DICTIONARY
  5
19
102
{ACAD_REACTORS
330
C
102
}
330
C
100
AcDbDictionary
281
     1
  0
ACDBDICTIONARYWDFLT
  5
E
102
{ACAD_REACTORS
330
C
102
}
330
C
100
AcDbDictionary
281
     1
  3
Normal
350
F
100
AcDbDictionaryWithDefault
340
F
  0
DICTIONARY
  5
3B
102
{ACAD_REACTORS
330
C
102
}
330
C
100
AcDbDictionary
281
     1
  3
A0
350
3C
  3
A1
350
3D
  3
A2
350
3E
  3
A3
350
3F
  3
A4
350
40
  3
A5
350
41
  3
A6
350
42
  3
A7
350
43
  3
A8
350
44
  3
A9
350
45
  3
B0
350
46
  3
B1
350
47
  3
B2
350
48
  3
B3
350
49
  3
B4
350
4A
  3
B5
350
4B
  3
B6
350
4C
  3
B7
350
4D
  3
B8
350
4E
  3
B9
350
4F
  3
C0
350
50
  3
C1
350
51
  3
C2
350
52
  3
C3
350
53
  3
C4
350
54
  3
C5
350
55
  3
C6
350
56
  3
C7
350
57
  3
C8
350
58
  3
C9
350
59
  3
D0
350
5A
  3
D1
350
5B
  3
D2
350
5C
  0
DICTIONARY
  5
19E
102
{ACAD_REACTORS
330
C
102
}
330
C
100
AcDbDictionary
281
     1
  0
DICTIONARY
  5
2A
102
{ACAD_REACTORS
330
C
102
}
330
C
100
AcDbDictionary
281
     1
  3
2dWireframe
350
2F
  3
3D Hidden
350
31
  3
3dWireframe
350
30
  3
Basic
350
32
  3
Brighten
350
36
  3
ColorChange
350
3A
  3
Conceptual
350
34
  3
Dim
350
35
  3
Facepattern
350
39
  3
Flat
350
2B
  3
FlatWithEdges
350
2C
  3
Gouraud
350
2D
  3
GouraudWithEdges
350
2E
  3
Linepattern
350
38
  3
Realistic
350
33
  3
Thicken
350
37
  0
DICTIONARY
  5
19C
102
{ACAD_REACTORS
330
C
102
}
330
C
100
AcDbDictionary
281
     1
  3
CANNOSCALE
350
19D
  3
PSOLHEIGHT
350
1A1
  3
PSOLWIDTH
350
1A0
  0
LAYOUT
  5
1E
102
{ACAD_REACTORS
330
1A
102
}
330
1A
100
AcDbPlotSettings
  1

  2
none_device
  4

  6

 40
0.0
 41
0.0
 42
0.0
 43
0.0
 44
0.0
 45
0.0
 46
0.0
 47
0.0
 48
0.0
 49
0.0
140
0.0
141
0.0
142
1.0
143
1.0
 70
   688
 72
     0
 73
     0
 74
     5
  7

 75
    16
147
1.0
148
0.0
149
0.0
100
AcDbLayout
  1
Layout1
 70
     1
 71
     1
 10
0.0
 20
0.0
 11
1682.0
 21
2378.0
 12
0.0
 22
0.0
 32
0.0
 14
0.0
 24
0.0
 34
0.0
 15
1682.0
 25
2378.0
 35
0.0
146
0.0
 13
0.0
 23
0.0
 33
0.0
 16
1.0
 26
0.0
 36
0.0
 17
0.0
 27
1.0
 37
0.0
 76
     0
330
1B
  0
LAYOUT
  5
22
102
{ACAD_REACTORS
330
1A
102
}
330
1A
100
AcDbPlotSettings
  1

  2
none_device
  4

  6

 40
0.0
 41
0.0
 42
0.0
 43
0.0
 44
0.0
 45
0.0
 46
0.0
 47
0.0
 48
0.0
 49
0.0
140
0.0
141
0.0
142
1.0
143
1.0
 70
  1712
 72
     0
 73
     0
 74
     0
  7

 75
     0
147
1.0
148
0.0
149
0.0
100
AcDbLayout
  1
Model
 70
     1
 71
     0
 10
0.0
 20
0.0
 11
1682.0
 21
2378.0
 12
0.0
 22
0.0
 32
0.0
 14
0.0
 24
0.0
 34
0.0
 15
1682.0
 25
2378.0
 35
0.0
146
0.0
 13
0.0
 23
0.0
 33
0.0
 16
1.0
 26
0.0
 36
0.0
 17
0.0
 27
1.0
 37
0.0
 76
     0
330
1F
331
29
  0
MLINESTYLE
  5
18
102
{ACAD_REACTORS
330
17
102
}
330
17
100
AcDbMlineStyle
  2
Standard
 70
     0
  3

 62
   256
 51
90.0
 52
90.0
 71
     2
 49
0.5
 62
   256
  6
BYLAYER
 49
-0.5
 62
   256
  6
BYLAYER
  0
ACDBPLACEHOLDER
  5
F
102
{ACAD_REACTORS
330
E
102
}
330
E
  0
SCALE
  5
3C
102
{ACAD_REACTORS
330
3B
102
}
330
3B
100
AcDbScale
 70
     0
300
1:1
140
1.0
141
1.0
290
     1
  0
SCALE
  5
3D
102
{ACAD_REACTORS
330
3B
102
}
330
3B
100
AcDbScale
 70
     0
300
1:2
140
1.0
141
2.0
290
     0
  0
SCALE
  5
3E
102
{ACAD_REACTORS
330
3B
102
}
330
3B
100
AcDbScale
 70
     0
300
1:4
140
1.0
141
4.0
290
     0
  0
SCALE
  5
3F
102
{ACAD_REACTORS
330
3B
102
}
330
3B
100
AcDbScale
 70
     0
300
1:5
140
1.0
141
5.0
290
     0
  0
SCALE
  5
40
102
{ACAD_REACTORS
330
3B
102
}
330
3B
100
AcDbScale
 70
     0
300
1:8
140
1.0
141
8.0
290
     0
  0
SCALE
  5
41
102
{ACAD_REACTORS
330
3B
102
}
330
3B
100
AcDbScale
 70
     0
300
1:10
140
1.0
141
10.0
290
     0
  0
SCALE
  5
42
102
{ACAD_REACTORS
330
3B
102
}
330
3B
100
AcDbScale
 70
     0
300
1:16
140
1.0
141
16.0
290
     0
  0
SCALE
  5
43
102
{ACAD_REACTORS
330
3B
102
}
330
3B
100
AcDbScale
 70
     0
300
1:20
140
1.0
141
20.0
290
     0
  0
SCALE
  5
44
102
{ACAD_REACTORS
330
3B
102
}
330
3B
100
AcDbScale
 70
     0
300
1:30
140
1.0
141
30.0
290
     0
  0
SCALE
  5
45
102
{ACAD_REACTORS
330
3B
102
}
330
3B
100
AcDbScale
 70
     0
300
1:40
140
1.0
141
40.0
290
     0
  0
SCALE
  5
46
102
{ACAD_REACTORS
330
3B
102
}
330
3B
100
AcDbScale
 70
     0
300
1:50
140
1.0
141
50.0
290
     0
  0
SCALE
  5
47
102
{ACAD_REACTORS
330
3B
102
}
330
3B
100
AcDbScale
 70
     0
300
1:100
140
1.0
141
100.0
290
     0
  0
SCALE
  5
48
102
{ACAD_REACTORS
330
3B
102
}
330
3B
100
AcDbScale
 70
     0
300
2:1
140
2.0
141
1.0
290
     0
  0
SCALE
  5
49
102
{ACAD_REACTORS
330
3B
102
}
330
3B
100
AcDbScale
 70
     0
300
4:1
140
4.0
141
1.0
290
     0
  0
SCALE
  5
4A
102
{ACAD_REACTORS
330
3B
102
}
330
3B
100
AcDbScale
 70
     0
300
8:1
140
8.0
141
1.0
290
     0
  0
SCALE
  5
4B
102
{ACAD_REACTORS
330
3B
102
}
330
3B
100
AcDbScale
 70
     0
300
10:1
140
10.0
141
1.0
290
     0
  0
SCALE
  5
4C
102
{ACAD_REACTORS
330
3B
102
}
330
3B
100
AcDbScale
 70
     0
300
100:1
140
100.0
141
1.0
290
     0
  0
SCALE
  5
4D
102
{ACAD_REACTORS
330
3B
102
}
330
3B
100
AcDbScale
 70
     0
300
1/128" = 1'-0"
140
0.0078125
141
12.0
290
     0
  0
SCALE
  5
4E
102
{ACAD_REACTORS
330
3B
102
}
330
3B
100
AcDbScale
 70
     0
300
1/64" = 1'-0"
140
0.015625
141
12.0
290
     0
  0
SCALE
  5
4F
102
{ACAD_REACTORS
330
3B
102
}
330
3B
100
AcDbScale
 70
     0
300
1/32" = 1'-0"
140
0.03125
141
12.0
290
     0
  0
SCALE
  5
50
102
{ACAD_REACTORS
330
3B
102
}
330
3B
100
AcDbScale
 70
     0
300
1/16" = 1'-0"
140
0.0625
141
12.0
290
     0
  0
SCALE
  5
51
102
{ACAD_REACTORS
330
3B
102
}
330
3B
100
AcDbScale
 70
     0
300
3/32" = 1'-0"
140
0.09375
141
12.0
290
     0
  0
SCALE
  5
52
102
{ACAD_REACTORS
330
3B
102
}
330
3B
100
AcDbScale
 70
     0
300
1/8" = 1'-0"
140
0.125
141
12.0
290
     0
  0
SCALE
  5
53
102
{ACAD_REACTORS
330
3B
102
}
330
3B
100
AcDbScale
 70
     0
300
3/16" = 1'-0"
140
0.1875
141
12.0
290
     0
  0
SCALE
  5
54
102
{ACAD_REACTORS
330
3B
102
}
330
3B
100
AcDbScale
 70
     0
300
1/4" = 1'-0"
140
0.25
141
12.0
290
     0
  0
SCALE
  5
55
102
{ACAD_REACTORS
330
3B
102
}
330
3B
100
AcDbScale
 70
     0
300
3/8" = 1'-0"
140
0.375
141
12.0
290
     0
  0
SCALE
  5
56
102
{ACAD_REACTORS
330
3B
102
}
330
3B
100
AcDbScale
 70
     0
300
1/2" = 1'-0"
140
0.5
141
12.0
290
     0
  0
SCALE
  5
57
102
{ACAD_REACTORS
330
3B
102
}
330
3B
100
AcDbScale
 70
     0
300
3/4" = 1'-0"
140
0.75
141
12.0
290
     0
  0
SCALE
  5
58
102
{ACAD_REACTORS
330
3B
102
}
330
3B
100
AcDbScale
 70
     0
300
1" = 1'-0"
140
1.0
141
12.0
290
     0
  0
SCALE
  5
59
102
{ACAD_REACTORS
330
3B
102
}
330
3B
100
AcDbScale
 70
     0
300
1-1/2" = 1'-0"
140
1.5
141
12.0
290
     0
  0
SCALE
  5
5A
102
{ACAD_REACTORS
330
3B
102
}
330
3B
100
AcDbScale
 70
     0
300
3" = 1'-0"
140
3.0
141
12.0
290
     0
  0
SCALE
  5
5B
102
{ACAD_REACTORS
330
3B
102
}
330
3B
100
AcDbScale
 70
     0
300
6" = 1'-0"
140
6.0
141
12.0
290
     0
  0
SCALE
  5
5C
102
{ACAD_REACTORS
330
3B
102
}
330
3B
100
AcDbScale
 70
     0
300
1'-0" = 1'-0"
140
12.0
141
12.0
290
     0
  0
VISUALSTYLE
  5
2F
102
{ACAD_REACTORS
330
2A
102
}
330
2A
100
AcDbVisualStyle
  2
2dWireframe
 70
     4
 71
     0
 72
     2
 73
     0
 90
        0
 40
-0.6
 41
-30.0
 62
     5
 63
     7
 74
     1
 91
        4
 64
     7
 65
   257
 75
     1
175
     1
 42
1.0
 92
        0
 66
   257
 43
1.0
 76
     1
 77
     6
 78
     2
 67
     7
 79
     5
170
     0
171
     0
290
     0
174
     0
 93
        1
 44
0.0
173
     0
291
     0
 45
0.0
1001
ACAD
1000
AcDbSavedByObjectVersion
1070
     0
  0
VISUALSTYLE
  5
31
102
{ACAD_REACTORS
330
2A
102
}
330
2A
100
AcDbVisualStyle
  2
3D Hidden
 70
     6
 71
     1
 72
     2
 73
     2
 90
        0
 40
-0.6
 41
-30.0
 62
     5
 63
     7
 74
     2
 91
        2
 64
     7
 65
   257
 75
     2
175
     1
 42
40.0
 92
        0
 66
   257
 43
1.0
 76
     1
 77
     6
 78
     2
 67
     7
 79
     3
170
     0
171
     0
290
     0
174
     0
 93
        1
 44
0.0
173
     0
291
     0
 45
0.0
1001
ACAD
1000
AcDbSavedByObjectVersion
1070
     0
  0
VISUALSTYLE
  5
30
102
{ACAD_REACTORS
330
2A
102
}
330
2A
100
AcDbVisualStyle
  2
3dWireframe
 70
     5
 71
     0
 72
     2
 73
     0
 90
        0
 40
-0.6
 41
-30.0
 62
     5
 63
     7
 74
     1
 91
        4
 64
     7
 65
   257
 75
     1
175
     1
 42
1.0
 92
        0
 66
   257
 43
1.0
 76
     1
 77
     6
 78
     2
 67
     7
 79
     5
170
     0
171
     0
290
     0
174
     0
 93
        1
 44
0.0
173
     0
291
     0
 45
0.0
1001
ACAD
1000
AcDbSavedByObjectVersion
1070
     0
  0
VISUALSTYLE
  5
32
102
{ACAD_REACTORS
330
2A
102
}
330
2A
100
AcDbVisualStyle
  2
Basic
 70
     7
 71
     1
 72
     0
 73
     1
 90
        0
 40
-0.6
 41
-30.0
 62
     5
 63
     7
 74
     0
 91
        4
 64
     7
 65
   257
 75
     1
175
     1
 42
1.0
 92
        8
 66
     7
 43
1.0
 76
     1
 77
     6
 78
     2
 67
     7
 79
     5
170
     0
171
     0
290
     0
174
     0
 93
        1
 44
0.0
173
     0
291
     1
 45
0.0
1001
ACAD
1000
AcDbSavedByObjectVersion
1070
     0
  0
VISUALSTYLE
  5
36
102
{ACAD_REACTORS
330
2A
102
}
330
2A
100
AcDbVisualStyle
  2
Brighten
 70
    12
 71
     2
 72
     2
 73
     0
 90
        0
 40
-0.6
 41
-30.0
 62
     5
 63
     7
 74
     1
 91
        4
 64
     7
 65
   257
 75
     1
175
     1
 42
1.0
 92
        8
 66
     7
 43
1.0
 76
     1
 77
     6
 78
     2
 67
     7
 79
     5
170
     0
171
     0
290
     0
174
     0
 93
        1
 44
50.0
173
     0
291
     1
 45
0.0
1001
ACAD
1000
AcDbSavedByObjectVersion
1070
     0
  0
VISUALSTYLE
  5
3A
102
{ACAD_REACTORS
330
2A
102
}
330
2A
100
AcDbVisualStyle
  2
ColorChange
 70
    16
 71
     2
 72
     2
 73
     3
 90
        0
 40
-0.6
 41
-30.0
 62
     5
 63
     8
 74
     1
 91
        4
 64
     7
 65
   257
 75
     1
175
     1
 42
1.0
 92
        8
 66
     8
 43
1.0
 76
     1
 77
     6
 78
     2
 67
     7
 79
     5
170
     0
171
     0
290
     0
174
     0
 93
        1
 44
0.0
173
     0
291
     1
 45
0.0
1001
ACAD
1000
AcDbSavedByObjectVersion
1070
     0
  0
VISUALSTYLE
  5
34
102
{ACAD_REACTORS
330
2A
102
}
330
2A
100
AcDbVisualStyle
  2
Conceptual
 70
     9
 71
     3
 72
     2
 73
     0
 90
        0
 40
-0.6
 41
-30.0
 62
     5
 63
     7
 74
     2
 91
        2
 64
     7
 65
   257
 75
     1
175
     1
 42
40.0
 92
        8
 66
     7
 43
1.0
 76
     1
 77
     6
 78
     2
 67
     7
 79
     3
170
     0
171
     0
290
     0
174
     0
 93
        1
 44
0.0
173
     0
291
     0
 45
0.0
1001
ACAD
1000
AcDbSavedByObjectVersion
1070
     0
  0
VISUALSTYLE
  5
35
102
{ACAD_REACTORS
330
2A
102
}
330
2A
100
AcDbVisualStyle
  2
Dim
 70
    11
 71
     2
 72
     2
 73
     0
 90
        0
 40
-0.6
 41
-30.0
 62
     5
 63
     7
 74
     1
 91
        4
 64
     7
 65
   257
 75
     1
175
     1
 42
1.0
 92
        8
 66
     7
 43
1.0
 76
     1
 77
     6
 78
     2
 67
     7
 79
     5
170
     0
171
     0
290
     0
174
     0
 93
        1
 44
-50.0
173
     0
291
     1
 45
0.0
1001
ACAD
1000
AcDbSavedByObjectVersion
1070
     0
  0
VISUALSTYLE
  5
39
102
{ACAD_REACTORS
330
2A
102
}
330
2A
100
AcDbVisualStyle
  2
Facepattern
 70
    15
 71
     2
 72
     2
 73
     0
 90
        0
 40
-0.6
 41
-30.0
 62
     5
 63
     7
 74
     1
 91
        4
 64
     7
 65
   257
 75
     1
175
     1
 42
1.0
 92
        8
 66
     7
 43
1.0
 76
     1
 77
     6
 78
     2
 67
     7
 79
     5
170
     0
171
     0
290
     0
174
     0
 93
        1
 44
0.0
173
     0
291
     1
 45
0.0
1001
ACAD
1000
AcDbSavedByObjectVersion
1070
     0
  0
VISUALSTYLE
  5
2B
102
{ACAD_REACTORS
330
2A
102
}
330
2A
100
AcDbVisualStyle
  2
Flat
 70
     0
 71
     2
 72
     1
 73
     1
 90
        2
 40
-0.6
 41
30.0
 62
     5
 63
     7
 74
     0
 91
        4
 64
     7
 65
   257
 75
     1
175
     1
 42
1.0
 92
        8
 66
     7
 43
1.0
 76
     1
 77
     6
 78
     2
 67
     7
 79
     5
170
     0
171
     0
290
     0
174
     0
 93
       13
 44
0.0
173
     0
291
     1
 45
0.0
1001
ACAD
1000
AcDbSavedByObjectVersion
1070
     0
  0
VISUALSTYLE
  5
2C
102
{ACAD_REACTORS
330
2A
102
}
330
2A
100
AcDbVisualStyle
  2
FlatWithEdges
 70
     1
 71
     2
 72
     1
 73
     1
 90
        2
 40
-0.6
 41
30.0
 62
     5
 63
     7
 74
     1
 91
        4
 64
     7
 65
   257
 75
     1
175
     1
 42
1.0
 92
        0
 66
   257
 43
1.0
 76
     1
 77
     6
 78
     2
 67
     7
 79
     5
170
     0
171
     0
290
     0
174
     0
 93
       13
 44
0.0
173
     0
291
     1
 45
0.0
1001
ACAD
1000
AcDbSavedByObjectVersion
1070
     0
  0
VISUALSTYLE
  5
2D
102
{ACAD_REACTORS
330
2A
102
}
330
2A
100
AcDbVisualStyle
  2
Gouraud
 70
     2
 71
     2
 72
     2
 73
     1
 90
        2
 40
-0.6
 41
30.0
 62
     5
 63
     7
 74
     0
 91
        4
 64
     7
 65
   257
 75
     1
175
     1
 42
1.0
 92
        0
 66
     7
 43
1.0
 76
     1
 77
     6
 78
     2
 67
     7
 79
     5
170
     0
171
     0
290
     0
174
     0
 93
       13
 44
0.0
173
     0
291
     1
 45
0.0
1001
ACAD
1000
AcDbSavedByObjectVersion
1070
     0
  0
VISUALSTYLE
  5
2E
102
{ACAD_REACTORS
330
2A
102
}
330
2A
100
AcDbVisualStyle
  2
GouraudWithEdges
 70
     3
 71
     2
 72
     2
 73
     1
 90
        2
 40
-0.6
 41
30.0
 62
     5
 63
     7
 74
     1
 91
        4
 64
     7
 65
   257
 75
     1
175
     1
 42
1.0
 92
        0
 66
   257
 43
1.0
 76
     1
 77
     6
 78
     2
 67
     7
 79
     5
170
     0
171
     0
290
     0
174
     0
 93
       13
 44
0.0
173
     0
291
     1
 45
0.0
1001
ACAD
1000
AcDbSavedByObjectVersion
1070
     0
  0
VISUALSTYLE
  5
38
102
{ACAD_REACTORS
330
2A
102
}
330
2A
100
AcDbVisualStyle
  2
Linepattern
 70
    14
 71
     2
 72
     2
 73
     0
 90
        0
 40
-0.6
 41
-30.0
 62
     5
 63
     7
 74
     1
 91
        4
 64
     7
 65
   257
 75
     7
175
     7
 42
1.0
 92
        8
 66
     7
 43
1.0
 76
     1
 77
     6
 78
     2
 67
     7
 79
     5
170
     0
171
     0
290
     0
174
     0
 93
        1
 44
0.0
173
     0
291
     1
 45
0.0
1001
ACAD
1000
AcDbSavedByObjectVersion
1070
     0
  0
VISUALSTYLE
  5
33
102
{ACAD_REACTORS
330
2A
102
}
330
2A
100
AcDbVisualStyle
  2
Realistic
 70
     8
 71
     2
 72
     2
 73
     0
 90
        0
 40
-0.6
 41
-30.0
 62
     5
 63
     7
 74
     1
 91
        0
 64
     7
 65
   257
 75
     1
175
     1
 42
1.0
 92
        8
 66
     8
 43
1.0
 76
     1
 77
     6
 78
     2
 67
     7
 79
     5
170
     0
171
     0
290
     0
174
     0
 93
       13
 44
0.0
173
     0
291
     0
 45
0.0
1001
ACAD
1000
AcDbSavedByObjectVersion
1070
     0
  0
VISUALSTYLE
  5
37
102
{ACAD_REACTORS
330
2A
102
}
330
2A
100
AcDbVisualStyle
  2
Thicken
 70
    13
 71
     2
 72
     2
 73
     0
 90
        0
 40
-0.6
 41
-30.0
 62
     5
 63
     7
 74
     1
 91
        4
 64
     7
 65
   257
 75
     1
175
     1
 42
1.0
 92
       12
 66
     7
 43
1.0
 76
     1
 77
     6
 78
     2
 67
     7
 79
     5
170
     0
171
     0
290
     0
174
     0
 93
        1
 44
0.0
173
     0
291
     1
 45
0.0
1001
ACAD
1000
AcDbSavedByObjectVersion
1070
     0
  0
DICTIONARYVAR
  5
19D
102
{ACAD_REACTORS
330
19C
102
}
330
19C
100
DictionaryVariables
280
     0
  1
1:1
  0
DICTIONARYVAR
  5
1A1
102
{ACAD_REACTORS
330
19C
102
}
330
19C
100
DictionaryVariables
280
     0
  1
80.000000
  0
DICTIONARYVAR
  5
1A0
102
{ACAD_REACTORS
330
19C
102
}
330
19C
100
DictionaryVariables
280
     0
  1
5.000000
  0
ENDSEC
  0
EOF
