  0
SECTION
  2
HEADER
  9
$ACADVER
  1
AC1015
  9
$ACADMAINTVER
 70
     6
  9
$DWGCODEPAGE
  3
ANSI_1252
  9
$INSBASE
 10
0.0
 20
0.0
 30
0.0
  9
$EXTMIN
 10
0.0
 20
0.0
 30
0.0
  9
$EXTMAX
 10
1682.0
 20
2378.0
 30
0.0
  9
$LIMMIN
 10
0.0
 20
0.0
  9
$LIMMAX
 10
1682.0
 20
2378.0
  9
$ORTHOMODE
 70
     0
  9
$REGENMODE
 70
     1
  9
$FILLMODE
 70
     1
  9
$QTEXTMODE
 70
     0
  9
$MIRRTEXT
 70
     1
  9
$LTSCALE
 40
1.0
  9
$ATTMODE
 70
     1
  9
$TEXTSIZE
 40
2.5
  9
$TRACEWID
 40
1.0
  9
$TEXTSTYLE
  7
Standard
  9
$CLAYER
  8
0
  9
$CELTYPE
  6
ByLayer
  9
$CECOLOR
 62
   256
  9
$CELTSCALE
 40
1.0
  9
$DISPSILH
 70
     0
  9
$DIMSCALE
 40
1.0
  9
$DIMASZ
 40
2.5
  9
$DIMEXO
 40
0.625
  9
$DIMDLI
 40
3.75
  9
$DIMRND
 40
0.0
  9
$DIMDLE
 40
0.0
  9
$DIMEXE
 40
1.25
  9
$DIMTP
 40
0.0
  9
$DIMTM
 40
0.0
  9
$DIMTXT
 40
2.5
  9
$DIMCEN
 40
2.5
  9
$DIMTSZ
 40
0.0
  9
$DIMTOL
 70
     0
  9
$DIMLIM
 70
     0
  9
$DIMTIH
 70
     0
  9
$DIMTOH
 70
     0
  9
$DIMSE1
 70
     0
  9
$DIMSE2
 70
     0
  9
$DIMTAD
 70
     1
  9
$DIMZIN
 70
     8
  9
$DIMBLK
  1

  9
$DIMASO
 70
     1
  9
$DIMSHO
 70
     1
  9
$DIMPOST
  1

  9
$DIMAPOST
  1

  9
$DIMALT
 70
     0
  9
$DIMALTD
 70
     3
  9
$DIMALTF
 40
0.0393700787
  9
$DIMLFAC
 40
1.0
  9
$DIMTOFL
 70
     1
  9
$DIMTVP
 40
0.0
  9
$DIMTIX
 70
     0
  9
$DIMSOXD
 70
     0
  9
$DIMSAH
 70
     0
  9
$DIMBLK1
  1

  9
$DIMBLK2
  1

  9
$DIMSTYLE
  2
ISO-25
  9
$DIMCLRD
 70
     0
  9
$DIMCLRE
 70
     0
  9
$DIMCLRT
 70
     0
  9
$DIMTFAC
 40
1.0
  9
$DIMGAP
 40
0.625
  9
$DIMJUST
 70
     0
  9
$DIMSD1
 70
     0
  9
$DIMSD2
 70
     0
  9
$DIMTOLJ
 70
     0
  9
$DIMTZIN
 70
     8
  9
$DIMALTZ
 70
     0
  9
$DIMALTTZ
 70
     0
  9
$DIMUPT
 70
     0
  9
$DIMDEC
 70
     2
  9
$DIMTDEC
 70
     2
  9
$DIMALTU
 70
     2
  9
$DIMALTTD
 70
     3
  9
$DIMTXSTY
  7
Standard
  9
$DIMAUNIT
 70
     0
  9
$DIMADEC
 70
     0
  9
$DIMALTRND
 40
0.0
  9
$DIMAZIN
 70
     0
  9
$DIMDSEP
 70
    44
  9
$DIMATFIT
 70
     3
  9
$DIMFRAC
 70
     0
  9
$DIMLDRBLK
  1

  9
$DIMLUNIT
 70
     2
  9
$DIMLWD
 70
    -2
  9
$DIMLWE
 70
    -2
  9
$DIMTMOVE
 70
     0
  9
$LUNITS
 70
     2
  9
$LUPREC
 70
     4
  9
$SKETCHINC
 40
1.0
  9
$FILLETRAD
 40
10.0
  9
$AUNITS
 70
     0
  9
$AUPREC
 70
     0
  9
$MENU
  1
.
  9
$ELEVATION
 40
0.0
  9
$PELEVATION
 40
0.0
  9
$THICKNESS
 40
0.0
  9
$LIMCHECK
 70
     0
  9
$CHAMFERA
 40
10.0
  9
$CHAMFERB
 40
10.0
  9
$CHAMFERC
 40
20.0
  9
$CHAMFERD
 40
0.0
  9
$SKPOLY
 70
     0
  9
$TDCREATE
 40
2455510.491277558
  9
$TDUCREATE
 40
2455510.449610891
  9
$TDUPDATE
 40
2455510.491277569
  9
$TDUUPDATE
 40
2455510.449610903
  9
$TDINDWG
 40
0.0000000116
  9
$TDUSRTIMER
 40
0.0000000116
  9
$USRTIMER
 70
     1
  9
$ANGBASE
 50
0.0
  9
$ANGDIR
 70
     0
  9
$PDMODE
 70
     0
  9
$PDSIZE
 40
0.0
  9
$PLINEWID
 40
0.0
  9
$SPLFRAME
 70
     0
  9
$SPLINETYPE
 70
     6
  9
$SPLINESEGS
 70
     8
  9
$HANDSEED
  5
1D2
  9
$SURFTAB1
 70
     6
  9
$SURFTAB2
 70
     6
  9
$SURFTYPE
 70
     6
  9
$SURFU
 70
     6
  9
$SURFV
 70
     6
  9
$UCSBASE
  2

  9
$UCSNAME
  2

  9
$UCSORG
 10
0.0
 20
0.0
 30
0.0
  9
$UCSXDIR
 10
1.0
 20
0.0
 30
0.0
  9
$UCSYDIR
 10
0.0
 20
1.0
 30
0.0
  9
$UCSORTHOREF
  2

  9
$UCSORTHOVIEW
 70
     0
  9
$UCSORGTOP
 10
0.0
 20
0.0
 30
0.0
  9
$UCSORGBOTTOM
 10
0.0
 20
0.0
 30
0.0
  9
$UCSORGLEFT
 10
0.0
 20
0.0
 30
0.0
  9
$UCSORGRIGHT
 10
0.0
 20
0.0
 30
0.0
  9
$UCSORGFRONT
 10
0.0
 20
0.0
 30
0.0
  9
$UCSORGBACK
 10
0.0
 20
0.0
 30
0.0
  9
$PUCSBASE
  2

  9
$PUCSNAME
  2

  9
$PUCSORG
 10
0.0
 20
0.0
 30
0.0
  9
$PUCSXDIR
 10
1.0
 20
0.0
 30
0.0
  9
$PUCSYDIR
 10
0.0
 20
1.0
 30
0.0
  9
$PUCSORTHOREF
  2

  9
$PUCSORTHOVIEW
 70
     0
  9
$PUCSORGTOP
 10
0.0
 20
0.0
 30
0.0
  9
$PUCSORGBOTTOM
 10
0.0
 20
0.0
 30
0.0
  9
$PUCSORGLEFT
 10
0.0
 20
0.0
 30
0.0
  9
$PUCSORGRIGHT
 10
0.0
 20
0.0
 30
0.0
  9
$PUCSORGFRONT
 10
0.0
 20
0.0
 30
0.0
  9
$PUCSORGBACK
 10
0.0
 20
0.0
 30
0.0
  9
$USERI1
 70
     0
  9
$USERI2
 70
     0
  9
$USERI3
 70
     0
  9
$USERI4
 70
     0
  9
$USERI5
 70
     0
  9
$USERR1
 40
0.0
  9
$USERR2
 40
0.0
  9
$USERR3
 40
0.0
  9
$USERR4
 40
0.0
  9
$USERR5
 40
0.0
  9
$WORLDVIEW
 70
     1
  9
$SHADEDGE
 70
     3
  9
$SHADEDIF
 70
    70
  9
$TILEMODE
 70
     1
  9
$MAXACTVP
 70
    64
  9
$PINSBASE
 10
0.0
 20
0.0
 30
0.0
  9
$PLIMCHECK
 70
     0
  9
$PEXTMIN
 10
0.0
 20
0.0
 30
0.0
  9
$PEXTMAX
 10
1682.0
 20
2378.0
 30
0.0
  9
$PLIMMIN
 10
0.0
 20
0.0
  9
$PLIMMAX
 10
1682.0
 20
2378.0
  9
$UNITMODE
 70
     0
  9
$VISRETAIN
 70
     1
  9
$PLINEGEN
 70
     0
  9
$PSLTSCALE
 70
     1
  9
$TREEDEPTH
 70
  3020
  9
$CMLSTYLE
  2
Standard
  9
$CMLJUST
 70
     0
  9
$CMLSCALE
 40
20.0
  9
$PROXYGRAPHICS
 70
     1
  9
$MEASUREMENT
 70
     1
  9
$CELWEIGHT
370
    -1
  9
$ENDCAPS
280
     0
  9
$JOINSTYLE
280
     0
  9
$LWDISPLAY
290
     0
  9
$INSUNITS
 70
     4
  9
$HYPERLINKBASE
  1

  9
$STYLESHEET
  1

  9
$XEDIT
290
     1
  9
$CEPSNTYPE
380
     0
  9
$PSTYLEMODE
290
     1
  9
$FINGERPRINTGUID
  2
{2D165A62-9ADB-4483-8FCE-2169C5BE197B}
  9
$VERSIONGUID
  2
{FAEB1C32-E019-11D5-929B-00C0DF256EC4}
  9
$EXTNAMES
290
     1
  9
$PSVPSCALE
 40
0.0
  9
$OLESTARTUP
290
     0
  0
ENDSEC
  0
SECTION
  2
CLASSES
  0
CLASS
  1
ACDBDICTIONARYWDFLT
  2
AcDbDictionaryWithDefault
  3
ObjectDBX Classes
 90
        0
280
     0
281
     0
  0
CLASS
  1
VISUALSTYLE
  2
AcDbVisualStyle
  3
ObjectDBX Classes
 90
     4095
280
     0
281
     0
  0
CLASS
  1
SCALE
  2
AcDbScale
  3
ObjectDBX Classes
 90
     1153
280
     0
281
     0
  0
CLASS
  1
DICTIONARYVAR
  2
AcDbDictionaryVar
  3
ObjectDBX Classes
 90
        0
280
     0
281
     0
  0
CLASS
  1
ACDBPLACEHOLDER
  2
AcDbPlaceHolder
  3
ObjectDBX Classes
 90
        0
280
     0
281
     0
  0
CLASS
  1
LAYOUT
  2
AcDbLayout
  3
ObjectDBX Classes
 90
        0
280
     0
281
     0
  0
ENDSEC
  0
SECTION
  2
TABLES
  0
TABLE
  2
VPORT
  5
8
330
0
100
AcDbSymbolTable
 70
     1
  0
VPORT
  5
29
330
8
100
AcDbSymbolTableRecord
100
AcDbViewportTableRecord
  2
*Active
 70
     0
 10
0.0
 20
0.0
 11
1.0
 21
1.0
 12
344.1869158879
 22
148.5
 13
0.0
 23
0.0
 14
10.0
 24
10.0
 15
10.0
 25
10.0
 16
0.0
 26
0.0
 36
1.0
 17
0.0
 27
0.0
 37
0.0
 40
297.0
 41
1.9729729729
 42
50.0
 43
0.0
 44
0.0
 50
0.0
 51
0.0
 71
     0
 72
   100
 73
     1
 74
     3
 75
     0
 76
     0
 77
     0
 78
     0
281
     0
 65
     1
110
0.0
120
0.0
130
0.0
111
1.0
121
0.0
131
0.0
112
0.0
122
1.0
132
0.0
 79
     0
146
0.0
  0
ENDTAB
  0
TABLE
  2
LTYPE
  5
5
330
0
100
AcDbSymbolTable
 70
     2
  0
LTYPE
  5
14
330
5
100
AcDbSymbolTableRecord
100
AcDbLinetypeTableRecord
  2
ByBlock
 70
     0
  3

 72
    65
 73
     0
 40
0.0
  0
LTYPE
  5
15
330
5
100
AcDbSymbolTableRecord
100
AcDbLinetypeTableRecord
  2
ByLayer
 70
     0
  3

 72
    65
 73
     0
 40
0.0
  0
LTYPE
  5
16
330
5
100
AcDbSymbolTableRecord
100
AcDbLinetypeTableRecord
  2
Continuous
 70
     0
  3
Solid line
 72
    65
 73
     0
 40
0.0
  0
LTYPE
  5
60
330
5
100
AcDbSymbolTableRecord
100
AcDbLinetypeTableRecord
  2
CENTER2
 70
     0
  3
Center (.5x) ___ _ ___ _ ___ _ ___ _ ___ _ ___
 72
    65
 73
     4
 40
28.575
 49
19.05
 74
     4
 75
     0
340
0
 46
0.0
 50
0.0
 44
0.0
 45
0.0
 49
-3.175
 74
     4
 75
     0
340
0
 46
0.0
 50
0.0
 44
0.0
 45
0.0
 49
3.175
 74
     4
 75
     0
340
0
 46
0.0
 50
0.0
 44
0.0
 45
0.0
 49
-3.175
 74
     4
 75
     0
340
0
 46
0.0
 50
0.0
 44
0.0
 45
0.0
  0
ENDTAB
  0
TABLE
  2
LAYER
  5
2
330
0
100
AcDbSymbolTable
 70
    12
  0
LAYER
  5
10
330
2
100
AcDbSymbolTableRecord
100
AcDbLayerTableRecord
  2
0
 70
     0
 62
     7
  6
Continuous
370
    -3
390
F
  0
LAYER
  5
5D
330
2
100
AcDbSymbolTableRecord
100
AcDbLayerTableRecord
  2
Default
 70
     0
 62
     7
  6
Continuous
370
    -3
390
F
  0
LAYER
  5
87
330
2
100
AcDbSymbolTableRecord
100
AcDbLayerTableRecord
  2
$DDT_AUDIT_GENERATED_(87)
 70
     0
 62
     7
  6
Continuous
370
    -3
390
F
  0
LAYER
  5
90
330
2
100
AcDbSymbolTableRecord
100
AcDbLayerTableRecord
  2
$DDT_AUDIT_GENERATED_(90)
 70
     0
 62
     7
  6
Continuous
370
    -3
390
F
  0
LAYER
  5
9F
330
2
100
AcDbSymbolTableRecord
100
AcDbLayerTableRecord
  2
$DDT_AUDIT_GENERATED_(9F)
 70
     0
 62
     7
  6
Continuous
370
    -3
390
F
  0
LAYER
  5
BB
330
2
100
AcDbSymbolTableRecord
100
AcDbLayerTableRecord
  2
$DDT_AUDIT_GENERATED_(BB)
 70
     0
 62
     7
  6
Continuous
370
    -3
390
F
  0
LAYER
  5
C1
330
2
100
AcDbSymbolTableRecord
100
AcDbLayerTableRecord
  2
$DDT_AUDIT_GENERATED_(C1)
 70
     0
 62
     7
  6
Continuous
370
    -3
390
F
  0
LAYER
  5
C9
330
2
100
AcDbSymbolTableRecord
100
AcDbLayerTableRecord
  2
$DDT_AUDIT_GENERATED_(C9)
 70
     0
 62
     7
  6
Continuous
370
    -3
390
F
  0
LAYER
  5
FD
330
2
100
AcDbSymbolTableRecord
100
AcDbLayerTableRecord
  2
$DDT_AUDIT_GENERATED_(FD)
 70
     0
 62
     7
  6
Continuous
370
    -3
390
F
  0
LAYER
  5
104
330
2
100
AcDbSymbolTableRecord
100
AcDbLayerTableRecord
  2
$DDT_AUDIT_GENERATED_(104)
 70
     0
 62
     7
  6
Continuous
370
    -3
390
F
  0
LAYER
  5
12B
330
2
100
AcDbSymbolTableRecord
100
AcDbLayerTableRecord
  2
$DDT_AUDIT_GENERATED_(12B)
 70
     0
 62
     7
  6
Continuous
370
    -3
390
F
  0
LAYER
  5
134
330
2
100
AcDbSymbolTableRecord
100
AcDbLayerTableRecord
  2
DV2_Default
 70
     0
 62
     7
  6
Continuous
370
    -3
390
F
  0
ENDTAB
  0
TABLE
  2
STYLE
  5
3
330
0
100
AcDbSymbolTable
 70
     2
  0
STYLE
  5
11
330
3
100
AcDbSymbolTableRecord
100
AcDbTextStyleTableRecord
  2
Standard
 70
     0
 40
0.0
 41
1.0
 50
0.0
 71
     0
 42
2.5
  3
txt
  4

  0
STYLE
  5
1C1
330
3
100
AcDbSymbolTableRecord
100
AcDbTextStyleTableRecord
  2
SEACAD_seiso_ttf
 70
     0
 40
0.0
 41
1.0
 50
0.0
 71
     0
 42
0.2
  3
seiso.ttf
  4

  0
ENDTAB
  0
TABLE
  2
VIEW
  5
6
330
0
100
AcDbSymbolTable
 70
     0
  0
ENDTAB
  0
TABLE
  2
UCS
  5
7
330
0
100
AcDbSymbolTable
 70
     0
  0
ENDTAB
  0
TABLE
  2
APPID
  5
9
330
0
100
AcDbSymbolTable
 70
     1
  0
APPID
  5
12
330
9
100
AcDbSymbolTableRecord
100
AcDbRegAppTableRecord
  2
ACAD
 70
     0
  0
ENDTAB
  0
TABLE
  2
DIMSTYLE
  5
A
330
0
100
AcDbSymbolTable
 70
     1
100
AcDbDimStyleTable
  0
DIMSTYLE
105
27
330
A
100
AcDbSymbolTableRecord
100
AcDbDimStyleTableRecord
  2
ISO-25
 70
     0
 41
2.5
 42
0.625
 43
3.75
 44
1.25
 73
     0
 74
     0
 77
     1
 78
     8
140
2.5
141
2.5
143
0.0393700787
147
0.625
171
     3
172
     1
271
     2
272
     2
274
     3
278
    44
283
     0
284
     8
340
11
  0
ENDTAB
  0
TABLE
  2
BLOCK_RECORD
  5
1
330
0
100
AcDbSymbolTable
 70
     9
  0
BLOCK_RECORD
  5
1F
330
1
100
AcDbSymbolTableRecord
100
AcDbBlockTableRecord
  2
*Model_Space
340
22
  0
BLOCK_RECORD
  5
1B
330
1
100
AcDbSymbolTableRecord
100
AcDbBlockTableRecord
  2
*Paper_Space
340
1E
  0
BLOCK_RECORD
  5
5E
330
1
100
AcDbSymbolTableRecord
100
AcDbBlockTableRecord
  2
SEANNOT_GROUP
340
0
102
{BLKREFS
331
5F
102
}
  0
BLOCK_RECORD
  5
69
330
1
100
AcDbSymbolTableRecord
100
AcDbBlockTableRecord
  2
SEANNOT_GROUP1
340
0
102
{BLKREFS
331
6A
102
}
  0
BLOCK_RECORD
  5
73
330
1
100
AcDbSymbolTableRecord
100
AcDbBlockTableRecord
  2
SEANNOT_GROUP2
340
0
102
{BLKREFS
331
74
102
}
  0
BLOCK_RECORD
  5
79
330
1
100
AcDbSymbolTableRecord
100
AcDbBlockTableRecord
  2
SEANNOT_GROUP3
340
0
102
{BLKREFS
331
7A
102
}
  0
BLOCK_RECORD
  5
7F
330
1
100
AcDbSymbolTableRecord
100
AcDbBlockTableRecord
  2
SEANNOT_GROUP4
340
0
102
{BLKREFS
331
80
102
}
  0
BLOCK_RECORD
  5
85
330
1
100
AcDbSymbolTableRecord
100
AcDbBlockTableRecord
  2
SE
340
0
102
{BLKREFS
331
86
102
}
  0
BLOCK_RECORD
  5
D0
330
1
100
AcDbSymbolTableRecord
100
AcDbBlockTableRecord
  2
SE1
340
0
102
{BLKREFS
331
D1
102
}
  0
BLOCK_RECORD
  5
138
330
1
100
AcDbSymbolTableRecord
100
AcDbBlockTableRecord
  2
SE2
340
0
102
{BLKREFS
331
139
102
}
  0
ENDTAB
  0
ENDSEC
  0
SECTION
  2
BLOCKS
  0
BLOCK
  5
20
330
1F
100
AcDbEntity
  8
0
100
AcDbBlockBegin
  2
*Model_Space
 70
     0
 10
0.0
 20
0.0
 30
0.0
  3
*Model_Space
  1

  0
ENDBLK
  5
21
330
1F
100
AcDbEntity
  8
0
100
AcDbBlockEnd
  0
BLOCK
  5
1C
330
1B
100
AcDbEntity
 67
     1
  8
0
100
AcDbBlockBegin
  2
*Paper_Space
 70
     0
 10
0.0
 20
0.0
 30
0.0
  3
*Paper_Space
  1

  0
ENDBLK
  5
1D
330
1B
100
AcDbEntity
 67
     1
  8
0
100
AcDbBlockEnd
  0
BLOCK
  5
67
330
5E
100
AcDbEntity
  8
0
100
AcDbBlockBegin
  2
SEANNOT_GROUP
 70
     0
 10
0.0
 20
0.0
 30
0.0
  3
SEANNOT_GROUP
  1

  0
LINE
  5
61
330
5E
100
AcDbEntity
  8
Default
  6
CENTER2
 62
     7
100
AcDbLine
 10
130.5729883531
 20
404.9614817107
 30
0.0
 11
90.5729892472
 21
404.9614817107
 31
0.0
  0
LINE
  5
62
330
5E
100
AcDbEntity
  8
Default
  6
CENTER2
 62
     7
100
AcDbLine
 10
110.5729888001
 20
424.9614812637
 30
0.0
 11
110.5729888001
 21
384.9614821578
 31
0.0
  0
LINE
  5
63
330
5E
100
AcDbEntity
  8
Default
  6
CENTER2
 62
     7
100
AcDbLine
 10
135.5729882413
 20
404.9614817107
 30
0.0
 11
149.0729888001
 21
404.9614817107
 31
0.0
  0
LINE
  5
64
330
5E
100
AcDbEntity
  8
Default
  6
CENTER2
 62
     7
100
AcDbLine
 10
110.5729888001
 20
429.9614811519
 30
0.0
 11
110.5729888001
 21
443.4614817107
 31
0.0
  0
LINE
  5
65
330
5E
100
AcDbEntity
  8
Default
  6
CENTER2
 62
     7
100
AcDbLine
 10
85.5729893589
 20
404.9614817107
 30
0.0
 11
72.0729888001
 21
404.9614817107
 31
0.0
  0
LINE
  5
66
330
5E
100
AcDbEntity
  8
Default
  6
CENTER2
 62
     7
100
AcDbLine
 10
110.5729888001
 20
379.9614822695
 30
0.0
 11
110.5729888001
 21
366.4614817107
 31
0.0
  0
ENDBLK
  5
68
330
5E
100
AcDbEntity
  8
0
100
AcDbBlockEnd
  0
BLOCK
  5
71
330
69
100
AcDbEntity
  8
0
100
AcDbBlockBegin
  2
SEANNOT_GROUP1
 70
     0
 10
0.0
 20
0.0
 30
0.0
  3
SEANNOT_GROUP1
  1

  0
LINE
  5
6B
330
69
100
AcDbEntity
  8
Default
  6
CENTER2
 62
     7
100
AcDbLine
 10
280.5729883531
 20
404.9614817107
 30
0.0
 11
240.5729892472
 21
404.9614817107
 31
0.0
  0
LINE
  5
6C
330
69
100
AcDbEntity
  8
Default
  6
CENTER2
 62
     7
100
AcDbLine
 10
260.5729888001
 20
424.9614812637
 30
0.0
 11
260.5729888001
 21
384.9614821578
 31
0.0
  0
LINE
  5
6D
330
69
100
AcDbEntity
  8
Default
  6
CENTER2
 62
     7
100
AcDbLine
 10
285.5729882413
 20
404.9614817107
 30
0.0
 11
299.0729888001
 21
404.9614817107
 31
0.0
  0
LINE
  5
6E
330
69
100
AcDbEntity
  8
Default
  6
CENTER2
 62
     7
100
AcDbLine
 10
260.5729888001
 20
429.9614811519
 30
0.0
 11
260.5729888001
 21
443.4614817107
 31
0.0
  0
LINE
  5
6F
330
69
100
AcDbEntity
  8
Default
  6
CENTER2
 62
     7
100
AcDbLine
 10
235.5729893589
 20
404.9614817107
 30
0.0
 11
222.0729888001
 21
404.9614817107
 31
0.0
  0
LINE
  5
70
330
69
100
AcDbEntity
  8
Default
  6
CENTER2
 62
     7
100
AcDbLine
 10
260.5729888001
 20
379.9614822695
 30
0.0
 11
260.5729888001
 21
366.4614817107
 31
0.0
  0
ENDBLK
  5
72
330
69
100
AcDbEntity
  8
0
100
AcDbBlockEnd
  0
BLOCK
  5
77
330
73
100
AcDbEntity
  8
0
100
AcDbBlockBegin
  2
SEANNOT_GROUP2
 70
     0
 10
0.0
 20
0.0
 30
0.0
  3
SEANNOT_GROUP2
  1

  0
LINE
  5
75
330
73
100
AcDbEntity
  8
Default
  6
CENTER2
 62
     7
100
AcDbLine
 10
409.5972022591
 20
404.9614817107
 30
0.0
 11
369.5972031531
 21
404.9614817107
 31
0.0
  0
LINE
  5
76
330
73
100
AcDbEntity
  8
Default
  6
CENTER2
 62
     7
100
AcDbLine
 10
389.5972027061
 20
424.9614812637
 30
0.0
 11
389.5972027061
 21
384.9614821578
 31
0.0
  0
ENDBLK
  5
78
330
73
100
AcDbEntity
  8
0
100
AcDbBlockEnd
  0
BLOCK
  5
7D
330
79
100
AcDbEntity
  8
0
100
AcDbBlockBegin
  2
SEANNOT_GROUP3
 70
     0
 10
0.0
 20
0.0
 30
0.0
  3
SEANNOT_GROUP3
  1

  0
LINE
  5
7B
330
79
100
AcDbEntity
  8
Default
  6
CENTER2
 62
     7
100
AcDbLine
 10
280.5729883531
 20
228.3594940187
 30
0.0
 11
240.5729892472
 21
228.3594940187
 31
0.0
  0
LINE
  5
7C
330
79
100
AcDbEntity
  8
Default
  6
CENTER2
 62
     7
100
AcDbLine
 10
260.5729888001
 20
248.3594935716
 30
0.0
 11
260.5729888001
 21
208.3594944657
 31
0.0
  0
ENDBLK
  5
7E
330
79
100
AcDbEntity
  8
0
100
AcDbBlockEnd
  0
BLOCK
  5
83
330
7F
100
AcDbEntity
  8
0
100
AcDbBlockBegin
  2
SEANNOT_GROUP4
 70
     0
 10
0.0
 20
0.0
 30
0.0
  3
SEANNOT_GROUP4
  1

  0
LINE
  5
81
330
7F
100
AcDbEntity
  8
Default
  6
CENTER2
 62
     7
100
AcDbLine
 10
130.5729883531
 20
227.8594940187
 30
0.0
 11
90.5729892472
 21
227.8594940187
 31
0.0
  0
LINE
  5
82
330
7F
100
AcDbEntity
  8
Default
  6
CENTER2
 62
     7
100
AcDbLine
 10
110.5729888001
 20
247.8594935716
 30
0.0
 11
110.5729888001
 21
207.8594944657
 31
0.0
  0
ENDBLK
  5
84
330
7F
100
AcDbEntity
  8
0
100
AcDbBlockEnd
  0
BLOCK
  5
CE
330
85
100
AcDbEntity
  8
0
100
AcDbBlockBegin
  2
SE
 70
     0
 10
0.0
 20
0.0
 30
0.0
  3
SE
  1

  0
LINE
  5
88
330
85
100
AcDbEntity
  8
$DDT_AUDIT_GENERATED_(87)
  6
Continuous
 62
     7
100
AcDbLine
 10
73.6729888001
 20
430.9614817107
 30
0.0
 11
73.6729888001
 21
378.9614817107
 31
0.0
  0
LINE
  5
89
330
85
100
AcDbEntity
  8
$DDT_AUDIT_GENERATED_(87)
  6
Continuous
 62
     7
100
AcDbLine
 10
312.5729888001
 20
379.7614817107
 30
0.0
 11
312.5729888001
 21
430.1614817107
 31
0.0
  0
ARC
  5
8A
330
85
100
AcDbEntity
  8
$DDT_AUDIT_GENERATED_(87)
  6
Continuous
 62
     7
100
AcDbCircle
 10
260.5729887799
 20
354.6314484435
 30
0.0
 40
26.02908024517508
100
AcDbArc
 50
69.183771163
 51
110.8162302228
  0
LINE
  5
8B
330
85
100
AcDbEntity
  8
$DDT_AUDIT_GENERATED_(87)
  6
Continuous
 62
     7
100
AcDbLine
 10
269.8194961301
 20
378.9614817107
 30
0.0
 11
311.7729888001
 21
378.9614817107
 31
0.0
  0
LINE
  5
8C
330
85
100
AcDbEntity
  8
$DDT_AUDIT_GENERATED_(87)
  6
Continuous
 62
     7
100
AcDbLine
 10
73.6729888001
 20
378.9614817107
 30
0.0
 11
251.3229888001
 21
378.9614817107
 31
0.0
  0
LINE
  5
8D
330
85
100
AcDbEntity
  8
$DDT_AUDIT_GENERATED_(87)
  6
Continuous
 62
     7
100
AcDbLine
 10
311.7729888001
 20
430.9614817107
 30
0.0
 11
73.6729888001
 21
430.9614817107
 31
0.0
  0
ARC
  5
8E
330
85
100
AcDbEntity
  8
$DDT_AUDIT_GENERATED_(87)
  6
Continuous
 62
     7
100
AcDbCircle
 10
311.7729888001
 20
379.7614817107
 30
0.0
 40
0.7999999999999986
100
AcDbArc
 50
270.0
 51
0.0
  0
ARC
  5
8F
330
85
100
AcDbEntity
  8
$DDT_AUDIT_GENERATED_(87)
  6
Continuous
 62
     7
100
AcDbCircle
 10
311.7729888001
 20
430.1614817107
 30
0.0
 40
0.7999999999999674
100
AcDbArc
 50
0.0
 51
90.0
  0
LINE
  5
91
330
85
100
AcDbEntity
  8
$DDT_AUDIT_GENERATED_(90)
  6
Continuous
 62
     7
100
AcDbLine
 10
269.5729888001
 20
373.9614817107
 30
0.0
 11
251.5729888001
 21
373.9614817107
 31
0.0
  0
LINE
  5
92
330
85
100
AcDbEntity
  8
$DDT_AUDIT_GENERATED_(90)
  6
Continuous
 62
     7
100
AcDbLine
 10
250.0929888001
 20
372.4814817107
 30
0.0
 11
271.0529888001
 21
372.4814817107
 31
0.0
  0
LINE
  5
93
330
85
100
AcDbEntity
  8
$DDT_AUDIT_GENERATED_(90)
  6
Continuous
 62
     7
100
AcDbLine
 10
251.2929888001
 20
365.0614817107
 30
0.0
 11
269.8529888001
 21
365.0614817107
 31
0.0
  0
LINE
  5
94
330
85
100
AcDbEntity
  8
$DDT_AUDIT_GENERATED_(90)
  6
Continuous
 62
     7
100
AcDbLine
 10
250.0929888001
 20
366.2614817107
 30
0.0
 11
271.0529888001
 21
366.2614817107
 31
0.0
  0
LINE
  5
95
330
85
100
AcDbEntity
  8
$DDT_AUDIT_GENERATED_(90)
  6
Continuous
 62
     7
100
AcDbLine
 10
250.0929888001
 20
372.4814817107
 30
0.0
 11
250.0929888001
 21
366.2614817107
 31
0.0
  0
LINE
  5
96
330
85
100
AcDbEntity
  8
$DDT_AUDIT_GENERATED_(90)
  6
Continuous
 62
     7
100
AcDbLine
 10
271.0529888001
 20
366.2614817107
 30
0.0
 11
271.0529888001
 21
372.4814817107
 31
0.0
  0
LINE
  5
97
330
85
100
AcDbEntity
  8
$DDT_AUDIT_GENERATED_(90)
  6
Continuous
 62
     7
100
AcDbLine
 10
251.5729888001
 20
379.0488464019
 30
0.0
 11
251.5729888001
 21
373.9614817107
 31
0.0
  0
LINE
  5
98
330
85
100
AcDbEntity
  8
$DDT_AUDIT_GENERATED_(90)
  6
Continuous
 62
     7
100
AcDbLine
 10
269.5729888001
 20
373.9614817107
 30
0.0
 11
269.5729888001
 21
379.0487784789
 31
0.0
  0
LINE
  5
99
330
85
100
AcDbEntity
  8
$DDT_AUDIT_GENERATED_(90)
  6
Continuous
 62
     7
100
AcDbLine
 10
271.0529888001
 20
372.4814817107
 30
0.0
 11
269.5729888001
 21
373.9614817107
 31
0.0
  0
LINE
  5
9A
330
85
100
AcDbEntity
  8
$DDT_AUDIT_GENERATED_(90)
  6
Continuous
 62
     7
100
AcDbLine
 10
251.5729888001
 20
373.9614817107
 30
0.0
 11
250.0929888001
 21
372.4814817107
 31
0.0
  0
LINE
  5
9B
330
85
100
AcDbEntity
  8
$DDT_AUDIT_GENERATED_(90)
  6
Continuous
 62
     7
100
AcDbLine
 10
250.0929888001
 20
366.2614817107
 30
0.0
 11
251.2929888001
 21
365.0614817107
 31
0.0
  0
LINE
  5
9C
330
85
100
AcDbEntity
  8
$DDT_AUDIT_GENERATED_(90)
  6
Continuous
 62
     7
100
AcDbLine
 10
269.8529888001
 20
365.0614817107
 30
0.0
 11
271.0529888001
 21
366.2614817107
 31
0.0
  0
LINE
  5
9D
330
85
100
AcDbEntity
  8
$DDT_AUDIT_GENERATED_(90)
  6
Continuous
 62
     7
100
AcDbLine
 10
269.8879888001
 20
373.6464817107
 30
0.0
 11
269.8879888001
 21
365.0964817107
 31
0.0
  0
LINE
  5
9E
330
85
100
AcDbEntity
  8
$DDT_AUDIT_GENERATED_(90)
  6
Continuous
 62
     7
100
AcDbLine
 10
251.2579888001
 20
373.6464817107
 30
0.0
 11
251.2579888001
 21
365.0964817107
 31
0.0
  0
ARC
  5
A0
330
85
100
AcDbEntity
  8
$DDT_AUDIT_GENERATED_(9F)
  6
Continuous
 62
     7
100
AcDbCircle
 10
33.3833692686
 20
347.0663455758
 30
0.0
 40
32.41979024228819
100
AcDbArc
 50
81.1236286482
 51
85.157239221
  0
ARC
  5
A1
330
85
100
AcDbEntity
  8
$DDT_AUDIT_GENERATED_(9F)
  6
Continuous
 62
     7
100
AcDbCircle
 10
33.3833692686
 20
347.0663455758
 30
0.0
 40
32.41979024228819
100
AcDbArc
 50
88.769416609
 51
93.8759526304
  0
ARC
  5
A2
330
85
100
AcDbEntity
  8
$DDT_AUDIT_GENERATED_(9F)
  6
Continuous
 62
     7
100
AcDbCircle
 10
28.2153095475
 20
325.7299287404
 30
0.0
 40
4.499999999999996
100
AcDbArc
 50
123.5
 51
195.5
  0
LINE
  5
A3
330
85
100
AcDbEntity
  8
$DDT_AUDIT_GENERATED_(9F)
  6
Continuous
 62
     7
100
AcDbLine
 10
23.878972508
 20
324.527356048
 30
0.0
 11
27.128421965
 21
312.8102198385
 31
0.0
  0
LINE
  5
A4
330
85
100
AcDbEntity
  8
$DDT_AUDIT_GENERATED_(9F)
  6
Continuous
 62
     7
100
AcDbLine
 10
25.7315931136
 20
329.4824149397
 30
0.0
 11
27.4025298146
 21
330.5883838157
 31
0.0
  0
LINE
  5
A5
330
85
100
AcDbEntity
  8
$DDT_AUDIT_GENERATED_(9F)
  6
Continuous
 62
     7
100
AcDbLine
 10
19.9937285218
 20
306.9235067587
 30
0.0
 11
13.4902066658
 21
307.2074566552
 31
0.0
  0
LINE
  5
A6
330
85
100
AcDbEntity
  8
$DDT_AUDIT_GENERATED_(9F)
  6
Continuous
 62
     7
100
AcDbLine
 10
19.9937285218
 20
306.9235067587
 30
0.0
 11
26.5031983164
 21
306.8666994764
 31
0.0
  0
LINE
  5
A7
330
85
100
AcDbEntity
  8
$DDT_AUDIT_GENERATED_(9F)
  6
Continuous
 62
     7
100
AcDbLine
 10
19.9937285218
 20
306.9235067587
 30
0.0
 11
20.0068189897
 21
307.4234115591
 31
0.0
  0
LINE
  5
A8
330
85
100
AcDbEntity
  8
$DDT_AUDIT_GENERATED_(9F)
  6
Continuous
 62
     7
100
AcDbLine
 10
45.8913244304
 20
379.0755936654
 30
0.0
 11
47.262719977
 21
431.4470766785
 31
0.0
  0
LINE
  5
A9
330
85
100
AcDbEntity
  8
$DDT_AUDIT_GENERATED_(9F)
  6
Continuous
 62
     7
100
AcDbLine
 10
46.9654407402
 20
431.7549183399
 30
0.0
 11
8.4986445042
 21
432.090612985
 31
0.0
  0
LINE
  5
AA
330
85
100
AcDbEntity
  8
$DDT_AUDIT_GENERATED_(9F)
  6
Continuous
 62
     7
100
AcDbLine
 10
38.3580509594
 20
379.0989769728
 30
0.0
 11
45.5783414167
 21
378.7837322834
 31
0.0
  0
LINE
  5
AB
330
85
100
AcDbEntity
  8
$DDT_AUDIT_GENERATED_(9F)
  6
Continuous
 62
     7
100
AcDbLine
 10
29.9103047299
 20
379.4678135387
 30
0.0
 11
31.1915391869
 21
379.4118736342
 31
0.0
  0
LINE
  5
AC
330
85
100
AcDbEntity
  8
$DDT_AUDIT_GENERATED_(9F)
  6
Continuous
 62
     7
100
AcDbLine
 10
7.1466936877
 20
380.4616942608
 30
0.0
 11
13.9373593757
 21
380.1652073938
 31
0.0
  0
ARC
  5
AD
330
85
100
AcDbEntity
  8
$DDT_AUDIT_GENERATED_(9F)
  6
Continuous
 62
     7
100
AcDbCircle
 10
708.85
 20
387.919106918
 30
0.0
 40
702.4999999999995
100
AcDbArc
 50
176.4563331926
 51
180.5436668074
  0
LINE
  5
AE
330
85
100
AcDbEntity
  8
$DDT_AUDIT_GENERATED_(9F)
  6
Continuous
 62
     7
100
AcDbLine
 10
14.8824648377
 20
379.1430717027
 30
0.0
 11
13.012187697
 21
307.7200692401
 31
0.0
  0
LINE
  5
AF
330
85
100
AcDbEntity
  8
$DDT_AUDIT_GENERATED_(9F)
  6
Continuous
 62
     7
100
AcDbLine
 10
27.6263899844
 20
330.9922382526
 30
0.0
 11
28.8703585308
 21
378.4974804521
 31
0.0
  0
LINE
  5
B0
330
85
100
AcDbEntity
  8
$DDT_AUDIT_GENERATED_(9F)
  6
Continuous
 62
     7
100
AcDbLine
 10
27.0073902467
 20
307.3535919638
 30
0.0
 11
27.1464354009
 21
312.6635121763
 31
0.0
  0
ARC
  5
B1
330
85
100
AcDbEntity
  8
$DDT_AUDIT_GENERATED_(9F)
  6
Continuous
 62
     7
100
AcDbCircle
 10
13.8827391926
 20
379.166639481
 30
0.0
 40
0.9999999983010036
100
AcDbArc
 50
358.4999998257
 51
87.4999998032
  0
ARC
  5
B2
330
85
100
AcDbEntity
  8
$DDT_AUDIT_GENERATED_(9F)
  6
Continuous
 62
     7
100
AcDbCircle
 10
29.8699456635
 20
378.4686229684
 30
0.0
 40
1.000000000000308
100
AcDbArc
 50
87.5
 51
178.5
  0
ARC
  5
B3
330
85
100
AcDbEntity
  8
$DDT_AUDIT_GENERATED_(9F)
  6
Continuous
 62
     7
100
AcDbCircle
 10
26.6466067384
 20
312.6766006505
 30
0.0
 40
0.5000000000000032
100
AcDbArc
 50
359.4209365278
 51
15.5
  0
ARC
  5
B4
330
85
100
AcDbEntity
  8
$DDT_AUDIT_GENERATED_(9F)
  6
Continuous
 62
     7
100
AcDbCircle
 10
27.1265613219
 20
331.0053267267
 30
0.0
 40
0.5000000000000118
100
AcDbArc
 50
303.5
 51
356.2204751516
  0
ARC
  5
B5
330
85
100
AcDbEntity
  8
$DDT_AUDIT_GENERATED_(9F)
  6
Continuous
 62
     7
100
AcDbCircle
 10
26.5075615842
 20
307.366680438
 30
0.0
 40
0.5000000000000037
100
AcDbArc
 50
269.5
 51
359.437800628
  0
ARC
  5
B6
330
85
100
AcDbEntity
  8
$DDT_AUDIT_GENERATED_(9F)
  6
Continuous
 62
     7
100
AcDbCircle
 10
13.5120163595
 20
307.706980766
 30
0.0
 40
0.5000000000000048
100
AcDbArc
 50
179.4089252443
 51
267.5
  0
ARC
  5
B7
330
85
100
AcDbEntity
  8
$DDT_AUDIT_GENERATED_(9F)
  6
Continuous
 62
     7
100
AcDbCircle
 10
45.5914272329
 20
379.0834467499
 30
0.0
 40
0.299999999999994
100
AcDbArc
 50
267.5
 51
358.5
  0
ARC
  5
B8
330
85
100
AcDbEntity
  8
$DDT_AUDIT_GENERATED_(9F)
  6
Continuous
 62
     7
100
AcDbCircle
 10
46.9628227795
 20
431.454929763
 30
0.0
 40
0.2999999999999874
100
AcDbArc
 50
358.5
 51
89.5
  0
ARC
  5
B9
330
85
100
AcDbEntity
  8
$DDT_AUDIT_GENERATED_(9F)
  6
Continuous
 62
     7
100
AcDbCircle
 10
8.4916632758
 20
431.2906434465
 30
0.0
 40
0.8000000000000039
100
AcDbArc
 50
89.5
 51
176.4563331932
  0
ARC
  5
BA
330
85
100
AcDbEntity
  8
$DDT_AUDIT_GENERATED_(9F)
  6
Continuous
 62
     7
100
AcDbCircle
 10
7.1815891976
 20
381.260932838
 30
0.0
 40
0.8000000000002986
100
AcDbArc
 50
180.5436668068
 51
267.5
  0
ARC
  5
BC
330
85
100
AcDbEntity
  8
$DDT_AUDIT_GENERATED_(BB)
  6
Continuous
 62
     7
100
AcDbCircle
 10
260.5729888001
 20
404.9614817107
 30
0.0
 40
35.0
100
AcDbArc
 50
287.4232850413
 51
312.0246275794
  0
ARC
  5
BD
330
85
100
AcDbEntity
  8
$DDT_AUDIT_GENERATED_(BB)
  6
Continuous
 62
     7
100
AcDbCircle
 10
260.5729888001
 20
404.9614817107
 30
0.0
 40
35.0
100
AcDbArc
 50
227.9753724206
 51
252.5767149587
  0
ARC
  5
BE
330
85
100
AcDbEntity
  8
$DDT_AUDIT_GENERATED_(BB)
  6
Continuous
 62
     7
100
AcDbCircle
 10
260.5729888001
 20
404.9614817107
 30
0.0
 40
35.0
100
AcDbArc
 50
47.9753724206
 51
132.0246275794
  0
ARC
  5
BF
330
85
100
AcDbEntity
  8
$DDT_AUDIT_GENERATED_(BB)
  6
Continuous
 62
     7
100
AcDbCircle
 10
110.5729888001
 20
404.9614817107
 30
0.0
 40
35.0
100
AcDbArc
 50
227.9753724206
 51
312.0246275794
  0
ARC
  5
C0
330
85
100
AcDbEntity
  8
$DDT_AUDIT_GENERATED_(BB)
  6
Continuous
 62
     7
100
AcDbCircle
 10
110.5729888001
 20
404.9614817107
 30
0.0
 40
35.0
100
AcDbArc
 50
47.9753724206
 51
132.0246275794
  0
LINE
  5
C2
330
85
100
AcDbEntity
  8
$DDT_AUDIT_GENERATED_(C1)
  6
Continuous
 62
     7
100
AcDbLine
 10
73.1729888001
 20
430.9614817107
 30
0.0
 11
73.1729888001
 21
378.9614817107
 31
0.0
  0
ARC
  5
C3
330
85
100
AcDbEntity
  8
$DDT_AUDIT_GENERATED_(C1)
  6
Continuous
 62
     7
100
AcDbCircle
 10
59.1729888001
 20
404.9614817107
 30
0.0
 40
26.0
100
AcDbArc
 50
90.0
 51
117.4860156932
  0
ARC
  5
C4
330
85
100
AcDbEntity
  8
$DDT_AUDIT_GENERATED_(C1)
  6
Continuous
 62
     7
100
AcDbCircle
 10
59.1729888001
 20
404.9614817107
 30
0.0
 40
26.00000000000001
100
AcDbArc
 50
239.5139843068
 51
270.0
  0
LINE
  5
C5
330
85
100
AcDbEntity
  8
$DDT_AUDIT_GENERATED_(C1)
  6
Continuous
 62
     7
100
AcDbLine
 10
59.1729888001
 20
378.9614817107
 30
0.0
 11
73.1729888001
 21
378.9614817107
 31
0.0
  0
LINE
  5
C6
330
85
100
AcDbEntity
  8
$DDT_AUDIT_GENERATED_(C1)
  6
Continuous
 62
     7
100
AcDbLine
 10
73.1729888001
 20
430.9614817107
 30
0.0
 11
59.1729888001
 21
430.9614817107
 31
0.0
  0
LINE
  5
C7
330
85
100
AcDbEntity
  8
$DDT_AUDIT_GENERATED_(C1)
  6
Continuous
 62
     7
100
AcDbLine
 10
73.1729888001
 20
378.9614817107
 30
0.0
 11
73.6729888001
 21
379.4614817107
 31
0.0
  0
LINE
  5
C8
330
85
100
AcDbEntity
  8
$DDT_AUDIT_GENERATED_(C1)
  6
Continuous
 62
     7
100
AcDbLine
 10
73.6729888001
 20
430.4614817107
 30
0.0
 11
73.1729888001
 21
430.9614817107
 31
0.0
  0
LINE
  5
CA
330
85
100
AcDbEntity
  8
$DDT_AUDIT_GENERATED_(C9)
  6
Continuous
 62
     7
100
AcDbLine
 10
36.136927741
 20
379.3705896908
 30
0.0
 11
31.4843123288
 21
378.4662128686
 31
0.0
  0
LINE
  5
CB
330
85
100
AcDbEntity
  8
$DDT_AUDIT_GENERATED_(C9)
  6
Continuous
 62
     7
100
AcDbLine
 10
34.0788328822
 20
379.4798949233
 30
0.0
 11
31.2845821816
 21
378.9367476084
 31
0.0
  0
LINE
  5
CC
330
85
100
AcDbEntity
  8
$DDT_AUDIT_GENERATED_(C9)
  6
Continuous
 62
     7
100
AcDbLine
 10
31.2845821816
 20
378.9367476084
 30
0.0
 11
31.4843123288
 21
378.4662128686
 31
0.0
  0
LINE
  5
CD
330
85
100
AcDbEntity
  8
$DDT_AUDIT_GENERATED_(C9)
  6
Continuous
 62
     7
100
AcDbLine
 10
31.1915391869
 20
379.4118736342
 30
0.0
 11
31.3849379135
 21
378.9562547865
 31
0.0
  0
ENDBLK
  5
CF
330
85
100
AcDbEntity
  8
0
100
AcDbBlockEnd
  0
BLOCK
  5
136
330
D0
100
AcDbEntity
  8
0
100
AcDbBlockBegin
  2
SE1
 70
     0
 10
0.0
 20
0.0
 30
0.0
  3
SE1
  1

  0
LINE
  5
D2
330
D0
100
AcDbEntity
  8
$DDT_AUDIT_GENERATED_(87)
  6
Continuous
 62
     7
100
AcDbLine
 10
438.5972027061
 20
420.6614817107
 30
0.0
 11
438.5972027061
 21
389.2614817107
 31
0.0
  0
LINE
  5
D3
330
D0
100
AcDbEntity
  8
$DDT_AUDIT_GENERATED_(87)
  6
Continuous
 62
     7
100
AcDbLine
 10
439.3972027061
 20
388.4614817107
 30
0.0
 11
462.7446600683
 21
388.4614817107
 31
0.0
  0
LINE
  5
D4
330
D0
100
AcDbEntity
  8
$DDT_AUDIT_GENERATED_(87)
  6
Continuous
 62
     7
100
AcDbLine
 10
462.7276871634
 20
421.4614817107
 30
0.0
 11
439.3972027061
 21
421.4614817107
 31
0.0
  0
ARC
  5
D5
330
D0
100
AcDbEntity
  8
$DDT_AUDIT_GENERATED_(87)
  6
Continuous
 62
     7
100
AcDbCircle
 10
462.7989248562
 20
426.3954824291
 30
0.0
 40
4.927236531320067
100
AcDbArc
 50
269.1630131369
 51
288.936726011
  0
ARC
  5
D6
330
D0
100
AcDbEntity
  8
$DDT_AUDIT_GENERATED_(87)
  6
Continuous
 62
     7
100
AcDbCircle
 10
462.7927159454
 20
383.5102069833
 30
0.0
 40
4.944213632547321
100
AcDbArc
 50
60.4384909725
 51
90.5689794248
  0
ARC
  5
D7
330
D0
100
AcDbEntity
  8
$DDT_AUDIT_GENERATED_(87)
  6
Continuous
 62
     7
100
AcDbCircle
 10
439.3972027061
 20
420.6614817107
 30
0.0
 40
0.7999999999999986
100
AcDbArc
 50
90.0
 51
180.0
  0
ARC
  5
D8
330
D0
100
AcDbEntity
  8
$DDT_AUDIT_GENERATED_(87)
  6
Continuous
 62
     7
100
AcDbCircle
 10
439.3972027061
 20
389.2614817107
 30
0.0
 40
0.800000000000002
100
AcDbArc
 50
180.0
 51
270.0
  0
LINE
  5
D9
330
D0
100
AcDbEntity
  8
$DDT_AUDIT_GENERATED_(90)
  6
Continuous
 62
     7
100
AcDbLine
 10
476.0972027061
 20
373.9614817107
 30
0.0
 11
478.0972027061
 21
373.9614817107
 31
0.0
  0
LINE
  5
DA
330
D0
100
AcDbEntity
  8
$DDT_AUDIT_GENERATED_(90)
  6
Continuous
 62
     7
100
AcDbLine
 10
492.0972027061
 20
373.9614817107
 30
0.0
 11
494.0972027061
 21
373.9614817107
 31
0.0
  0
LINE
  5
DB
330
D0
100
AcDbEntity
  8
$DDT_AUDIT_GENERATED_(90)
  6
Continuous
 62
     7
100
AcDbLine
 10
495.5772027061
 20
372.4814817107
 30
0.0
 11
492.0972027061
 21
372.4814817107
 31
0.0
  0
LINE
  5
DC
330
D0
100
AcDbEntity
  8
$DDT_AUDIT_GENERATED_(90)
  6
Continuous
 62
     7
100
AcDbLine
 10
478.0972027061
 20
372.4814817107
 30
0.0
 11
474.6172027061
 21
372.4814817107
 31
0.0
  0
LINE
  5
DD
330
D0
100
AcDbEntity
  8
$DDT_AUDIT_GENERATED_(90)
  6
Continuous
 62
     7
100
AcDbLine
 10
494.3772027061
 20
365.0614817107
 30
0.0
 11
492.0972027061
 21
365.0614817107
 31
0.0
  0
LINE
  5
DE
330
D0
100
AcDbEntity
  8
$DDT_AUDIT_GENERATED_(90)
  6
Continuous
 62
     7
100
AcDbLine
 10
478.0972027061
 20
365.0614817107
 30
0.0
 11
475.8172027061
 21
365.0614817107
 31
0.0
  0
LINE
  5
DF
330
D0
100
AcDbEntity
  8
$DDT_AUDIT_GENERATED_(90)
  6
Continuous
 62
     7
100
AcDbLine
 10
495.5772027061
 20
366.2614817107
 30
0.0
 11
492.0972027061
 21
366.2614817107
 31
0.0
  0
LINE
  5
E0
330
D0
100
AcDbEntity
  8
$DDT_AUDIT_GENERATED_(90)
  6
Continuous
 62
     7
100
AcDbLine
 10
478.0972027061
 20
366.2614817107
 30
0.0
 11
474.6172027061
 21
366.2614817107
 31
0.0
  0
LINE
  5
E1
330
D0
100
AcDbEntity
  8
$DDT_AUDIT_GENERATED_(90)
  6
Continuous
 62
     7
100
AcDbLine
 10
474.6172027061
 20
372.4814817107
 30
0.0
 11
474.6172027061
 21
366.2614817107
 31
0.0
  0
LINE
  5
E2
330
D0
100
AcDbEntity
  8
$DDT_AUDIT_GENERATED_(90)
  6
Continuous
 62
     7
100
AcDbLine
 10
495.5772027061
 20
366.2614817107
 30
0.0
 11
495.5772027061
 21
372.4814817107
 31
0.0
  0
LINE
  5
E3
330
D0
100
AcDbEntity
  8
$DDT_AUDIT_GENERATED_(90)
  6
Continuous
 62
     7
100
AcDbLine
 10
476.0972027061
 20
380.3586420231
 30
0.0
 11
476.0972027061
 21
373.9614817107
 31
0.0
  0
LINE
  5
E4
330
D0
100
AcDbEntity
  8
$DDT_AUDIT_GENERATED_(90)
  6
Continuous
 62
     7
100
AcDbLine
 10
494.0972027061
 20
373.9614817107
 30
0.0
 11
494.0972027061
 21
380.3586420231
 31
0.0
  0
LINE
  5
E5
330
D0
100
AcDbEntity
  8
$DDT_AUDIT_GENERATED_(90)
  6
Continuous
 62
     7
100
AcDbLine
 10
495.5772027061
 20
372.4814817107
 30
0.0
 11
494.0972027061
 21
373.9614817107
 31
0.0
  0
LINE
  5
E6
330
D0
100
AcDbEntity
  8
$DDT_AUDIT_GENERATED_(90)
  6
Continuous
 62
     7
100
AcDbLine
 10
476.0972027061
 20
373.9614817107
 30
0.0
 11
474.6172027061
 21
372.4814817107
 31
0.0
  0
LINE
  5
E7
330
D0
100
AcDbEntity
  8
$DDT_AUDIT_GENERATED_(90)
  6
Continuous
 62
     7
100
AcDbLine
 10
474.6172027061
 20
366.2614817107
 30
0.0
 11
475.8172027061
 21
365.0614817107
 31
0.0
  0
LINE
  5
E8
330
D0
100
AcDbEntity
  8
$DDT_AUDIT_GENERATED_(90)
  6
Continuous
 62
     7
100
AcDbLine
 10
494.3772027061
 20
365.0614817107
 30
0.0
 11
495.5772027061
 21
366.2614817107
 31
0.0
  0
LINE
  5
E9
330
D0
100
AcDbEntity
  8
$DDT_AUDIT_GENERATED_(90)
  6
Continuous
 62
     7
100
AcDbLine
 10
494.4122027061
 20
373.6464817107
 30
0.0
 11
494.4122027061
 21
365.0964817107
 31
0.0
  0
LINE
  5
EA
330
D0
100
AcDbEntity
  8
$DDT_AUDIT_GENERATED_(90)
  6
Continuous
 62
     7
100
AcDbLine
 10
475.7822027061
 20
373.6464817107
 30
0.0
 11
475.7822027061
 21
365.0964817107
 31
0.0
  0
SPLINE
  5
EB
330
D0
100
AcDbEntity
  8
$DDT_AUDIT_GENERATED_(9F)
  6
Continuous
 62
     7
100
AcDbSpline
210
0.0
220
0.0
230
1.0
 70
     8
 71
     3
 72
    20
 73
    16
 74
     0
 42
0.0000000002589338
 43
0.0000000001
 40
0.2908337756003992
 40
0.2908337756003992
 40
0.2908337756003992
 40
0.2908337756003992
 40
0.3124999999999998
 40
0.3124999999999998
 40
0.3749999999999998
 40
0.3749999999999998
 40
0.4374999999999998
 40
0.4374999999999998
 40
0.4999999999999999
 40
0.4999999999999999
 40
0.5625
 40
0.5625
 40
0.625
 40
0.625
 40
0.6608939667704087
 40
0.6608939667704087
 40
0.6608939667704087
 40
0.6608939667704087
 10
477.9688190353294
 20
380.9435503682124
 30
0.0
 10
478.0998981160409
 20
380.9210521194539
 30
0.0
 10
478.2526401564492
 20
380.8931655216745
 30
0.0
 10
478.9271477863243
 20
380.7678733837938
 30
0.0
 10
479.5902131545656
 20
380.6419906723011
 30
0.0
 10
481.2037804571731
 20
380.4018345819013
 30
0.0
 10
482.1267863806362
 20
380.2932646469201
 30
0.0
 10
484.1172917065265
 20
380.1653004906822
 30
0.0
 10
485.1731632552571
 20
380.1488839512776
 30
0.0
 10
487.2093450600374
 20
380.2215575655375
 30
0.0
 10
488.1995269348637
 20
380.3105108980906
 30
0.0
 10
489.9369343545645
 20
380.5317550696524
 30
0.0
 10
490.6937963239556
 20
380.6630920677972
 30
0.0
 10
491.6341478479499
 20
380.8354116280951
 30
0.0
 10
491.9213968282198
 20
380.8877941753897
 30
0.0
 10
492.1500592387788
 20
380.9263773462361
 30
0.0
  0
LINE
  5
EC
330
D0
100
AcDbEntity
  8
$DDT_AUDIT_GENERATED_(9F)
  6
Continuous
 62
     7
100
AcDbLine
 10
478.5972085635
 20
306.9235067587
 30
0.0
 11
491.5971968487
 21
306.9235067587
 31
0.0
  0
ELLIPSE
  5
ED
330
D0
100
AcDbEntity
  8
$DDT_AUDIT_GENERATED_(9F)
  6
Continuous
 62
     7
100
AcDbEllipse
 10
485.0972027061
 20
306.9238874483
 30
0.0
 11
6.499999999999992
 21
1.387778780781446E-14
 31
0.0
210
0.0
220
0.0
230
1.0
 40
0.0436260318
 41
0.1331898219564875
 42
2.997610968723551
  0
ELLIPSE
  5
EE
330
D0
100
AcDbEntity
  8
$DDT_AUDIT_GENERATED_(9F)
  6
Continuous
 62
     7
100
AcDbEllipse
 10
485.0972027061
 20
306.9234305976
 30
0.0
 11
0.0
 21
6.499994143011039
 31
0.0
210
0.0
220
0.0
230
1.0
 40
1.0
 41
1.57078460968675
 42
4.712400697492836
  0
ARC
  5
EF
330
D0
100
AcDbEntity
  8
$DDT_AUDIT_GENERATED_(9F)
  6
Continuous
 62
     7
100
AcDbCircle
 10
478.5971598681
 20
307.4234639211
 30
0.0
 40
0.4999571647674929
100
AcDbArc
 50
180.0060007557
 51
270.005580561
  0
ARC
  5
F0
330
D0
100
AcDbEntity
  8
$DDT_AUDIT_GENERATED_(9F)
  6
Continuous
 62
     7
100
AcDbCircle
 10
491.5972455441
 20
307.4234639211
 30
0.0
 40
0.4999571647674967
100
AcDbArc
 50
269.994419439
 51
359.9939992443
  0
ELLIPSE
  5
F1
330
D0
100
AcDbEntity
  8
$DDT_AUDIT_GENERATED_(9F)
  6
Continuous
 62
     7
100
AcDbEllipse
 10
485.0972027061
 20
405.2693253116
 30
0.0
 11
-26.49467209065596
 21
1.094722890896543E-9
 31
0.0
210
0.0
220
0.0
230
1.0
 40
0.999657325
 41
0.0
 42
1.303417759638733
  0
ELLIPSE
  5
F2
330
D0
100
AcDbEntity
  8
$DDT_AUDIT_GENERATED_(9F)
  6
Continuous
 62
     7
100
AcDbEllipse
 10
485.0972027061
 20
405.2693253116
 30
0.0
 11
-26.49467209065596
 21
1.094722890896543E-9
 31
0.0
210
0.0
220
0.0
230
1.0
 40
0.999657325
 41
1.838174894033667
 42
3.871206772390634
  0
ELLIPSE
  5
F3
330
D0
100
AcDbEntity
  8
$DDT_AUDIT_GENERATED_(9F)
  6
Continuous
 62
     7
100
AcDbEllipse
 10
485.0972027061
 20
405.2693253116
 30
0.0
 11
-26.49467209065596
 21
1.094722890896543E-9
 31
0.0
210
0.0
220
0.0
230
1.0
 40
0.999657325
 41
5.553571188461361
 42
6.283185307179584
  0
ELLIPSE
  5
F4
330
D0
100
AcDbEntity
  8
$DDT_AUDIT_GENERATED_(9F)
  6
Continuous
 62
     7
100
AcDbEllipse
 10
485.0972027061
 20
406.2761536229
 30
0.0
 11
25.82330836492657
 21
-6.820704808244148E-9
 31
0.0
210
0.0
220
0.0
230
1.0
 40
0.999657325
 41
0.0
 42
6.283185307179586
  0
LINE
  5
F5
330
D0
100
AcDbEntity
  8
$DDT_AUDIT_GENERATED_(9F)
  6
Continuous
 62
     7
100
AcDbLine
 10
504.8471706162
 20
422.9241458513
 30
0.0
 11
504.3467148267
 21
423.4836085166
 31
0.0
  0
LINE
  5
F6
330
D0
100
AcDbEntity
  8
$DDT_AUDIT_GENERATED_(9F)
  6
Continuous
 62
     7
100
AcDbLine
 10
465.8476905855
 20
423.4836085166
 30
0.0
 11
465.347234796
 21
422.9241458513
 31
0.0
  0
LINE
  5
F7
330
D0
100
AcDbEntity
  8
$DDT_AUDIT_GENERATED_(9F)
  6
Continuous
 62
     7
100
AcDbLine
 10
478.0972027061
 20
380.0173224772
 30
0.0
 11
478.0972027061
 21
307.4234115591
 31
0.0
  0
LINE
  5
F8
330
D0
100
AcDbEntity
  8
$DDT_AUDIT_GENERATED_(9F)
  6
Continuous
 62
     7
100
AcDbLine
 10
492.0972027061
 20
307.4234115591
 30
0.0
 11
492.0972027061
 21
380.0180595402
 31
0.0
  0
SPLINE
  5
F9
330
D0
100
AcDbEntity
  8
$DDT_AUDIT_GENERATED_(9F)
  6
Continuous
 62
     7
100
AcDbSpline
210
0.0
220
0.0
230
1.0
 70
     8
 71
     3
 72
    14
 73
    10
 74
     0
 42
0.0000000062936112
 43
0.0000000001
 40
0.0
 40
0.0
 40
0.0
 40
0.0
 40
0.0908134258902839
 40
0.1782108467544969
 40
0.2580411601529444
 40
0.3344997743592643
 40
0.41679161213303
 40
0.513862907696474
 40
0.5804621311097391
 40
0.5804621311097391
 40
0.5804621311097391
 40
0.5804621311097391
 10
492.099381204712
 20
380.0154685860176
 30
0.0
 10
492.1033521822227
 20
380.1055447827911
 30
0.0
 10
492.111656917155
 20
380.2548737696151
 30
0.0
 10
492.1944132544771
 20
380.4676673805432
 30
0.0
 10
492.2955504087088
 20
380.6234321779985
 30
0.0
 10
492.3907732958179
 20
380.7249916064498
 30
0.0
 10
492.4592847259704
 20
380.7808001316193
 30
0.0
 10
492.4887637482028
 20
380.8001655918617
 30
0.0
 10
492.4936214109516
 20
380.8031134813226
 30
0.0
 10
492.4936154876842
 20
380.8031139774257
 30
0.0
  0
SPLINE
  5
FA
330
D0
100
AcDbEntity
  8
$DDT_AUDIT_GENERATED_(9F)
  6
Continuous
 62
     7
100
AcDbSpline
210
0.0
220
0.0
230
1.0
 70
     8
 71
     3
 72
    14
 73
    10
 74
     0
 42
0.0000000058758388
 43
0.0000000001
 40
0.457220086782367
 40
0.457220086782367
 40
0.457220086782367
 40
0.457220086782367
 40
0.4817445493082329
 40
0.5864834165614667
 40
0.6725202592360193
 40
0.7536735602380309
 40
0.8359328662665347
 40
0.9271869653711706
 40
1.0
 40
1.0
 40
1.0
 40
1.0
 10
477.7008542656407
 20
380.8030609461271
 30
0.0
 10
477.7008513561219
 20
380.8030501154175
 30
0.0
 10
477.7024330328848
 20
380.8020626331092
 30
0.0
 10
477.7201343835359
 20
380.7914114618754
 30
0.0
 10
477.7868811300964
 20
380.7404379741467
 30
0.0
 10
477.8909281706408
 20
380.6351725381149
 30
0.0
 10
478.0046186696986
 20
380.4615192790675
 30
0.0
 10
478.0876724703583
 20
380.240395618314
 30
0.0
 10
478.0897036094479
 20
380.0923963427516
 30
0.0
 10
478.0899830401325
 20
380.0149556013175
 30
0.0
  0
ARC
  5
FB
330
D0
100
AcDbEntity
  8
$DDT_AUDIT_GENERATED_(9F)
  6
Continuous
 62
     7
100
AcDbCircle
 10
491.6043990638
 20
307.4107798611
 30
0.0
 40
0.4870349942361348
100
AcDbArc
 50
280.7016869521
 51
346.7751468772
  0
SPLINE
  5
FC
330
D0
100
AcDbEntity
  8
$DDT_AUDIT_GENERATED_(9F)
  6
Continuous
 62
     7
100
AcDbSpline
210
0.0
220
0.0
230
1.0
 70
     8
 71
     3
 72
    13
 73
     9
 74
     0
 42
0.0000000187826319
 43
0.0000000001
 40
0.4685346876289258
 40
0.4685346876289258
 40
0.4685346876289258
 40
0.4685346876289258
 40
0.4837345233626212
 40
0.5931382774658536
 40
0.6814585461021234
 40
0.7619129453382227
 40
0.8689119622857775
 40
1.0
 40
1.0
 40
1.0
 40
1.0
 10
478.2906346156024
 20
307.0280812028316
 30
0.0
 10
478.2943296072909
 20
307.0252145000154
 30
0.0
 10
478.3248644170084
 20
307.0022056469898
 30
0.0
 10
478.3800092903579
 20
306.9700230111122
 30
0.0
 10
478.4456915432678
 20
306.94518858435
 30
0.0
 10
478.4921035294534
 20
306.9329598132737
 30
0.0
 10
478.5270506547398
 20
306.9264655455409
 30
0.0
 10
478.5410748419526
 20
306.9246638163381
 30
0.0
 10
478.5493294133107
 20
306.9238391442983
 30
0.0
  0
LINE
  5
FE
330
D0
100
AcDbEntity
  8
$DDT_AUDIT_GENERATED_(FD)
  6
Continuous
 62
     7
100
AcDbLine
 10
438.5972027061
 20
415.4614817107
 30
0.0
 11
437.5972027061
 21
415.4614817107
 31
0.0
  0
LINE
  5
FF
330
D0
100
AcDbEntity
  8
$DDT_AUDIT_GENERATED_(FD)
  6
Continuous
 62
     7
100
AcDbLine
 10
437.5972027061
 20
394.4614817107
 30
0.0
 11
438.5972027061
 21
394.4614817107
 31
0.0
  0
LINE
  5
100
330
D0
100
AcDbEntity
  8
$DDT_AUDIT_GENERATED_(BB)
  6
Continuous
 62
     7
100
AcDbLine
 10
389.5972027061
 20
369.9614817107
 30
0.0
 11
389.5972027061
 21
394.4814817107
 31
0.0
  0
LINE
  5
101
330
D0
100
AcDbEntity
  8
$DDT_AUDIT_GENERATED_(BB)
  6
Continuous
 62
     7
100
AcDbLine
 10
389.5972027061
 20
415.4414817107
 30
0.0
 11
389.5972027061
 21
439.9614817107
 31
0.0
  0
LINE
  5
102
330
D0
100
AcDbEntity
  8
$DDT_AUDIT_GENERATED_(BB)
  6
Continuous
 62
     7
100
AcDbLine
 10
389.5972027061
 20
369.9614817107
 30
0.0
 11
390.0972027061
 21
369.9614817107
 31
0.0
  0
LINE
  5
103
330
D0
100
AcDbEntity
  8
$DDT_AUDIT_GENERATED_(BB)
  6
Continuous
 62
     7
100
AcDbLine
 10
390.0972027061
 20
439.9614817107
 30
0.0
 11
389.5972027061
 21
439.9614817107
 31
0.0
  0
LINE
  5
105
330
D0
100
AcDbEntity
  8
$DDT_AUDIT_GENERATED_(104)
  6
Continuous
 62
     7
100
AcDbLine
 10
434.0972027061
 20
414.8268627675
 30
0.0
 11
434.0972027061
 21
411.2114817107
 31
0.0
  0
LINE
  5
106
330
D0
100
AcDbEntity
  8
$DDT_AUDIT_GENERATED_(104)
  6
Continuous
 62
     7
100
AcDbLine
 10
437.5972027061
 20
390.4614817107
 30
0.0
 11
437.5972027061
 21
419.4614817107
 31
0.0
  0
LINE
  5
107
330
D0
100
AcDbEntity
  8
$DDT_AUDIT_GENERATED_(104)
  6
Continuous
 62
     7
100
AcDbLine
 10
420.5972027061
 20
390.4614817107
 30
0.0
 11
420.5972027061
 21
419.4614817107
 31
0.0
  0
LINE
  5
108
330
D0
100
AcDbEntity
  8
$DDT_AUDIT_GENERATED_(104)
  6
Continuous
 62
     7
100
AcDbLine
 10
424.0972027061
 20
414.8268627675
 30
0.0
 11
424.0972027061
 21
411.2114817107
 31
0.0
  0
LINE
  5
109
330
D0
100
AcDbEntity
  8
$DDT_AUDIT_GENERATED_(104)
  6
Continuous
 62
     7
100
AcDbLine
 10
424.0972027061
 20
398.7114817107
 30
0.0
 11
424.0972027061
 21
395.096100654
 31
0.0
  0
LINE
  5
10A
330
D0
100
AcDbEntity
  8
$DDT_AUDIT_GENERATED_(104)
  6
Continuous
 62
     7
100
AcDbLine
 10
424.0972027061
 20
388.846100654
 30
0.0
 11
424.0972027061
 21
388.7114817107
 31
0.0
  0
LINE
  5
10B
330
D0
100
AcDbEntity
  8
$DDT_AUDIT_GENERATED_(104)
  6
Continuous
 62
     7
100
AcDbLine
 10
424.0972027061
 20
421.0768627675
 30
0.0
 11
424.0972027061
 21
421.2114817107
 31
0.0
  0
SPLINE
  5
10C
330
D0
100
AcDbEntity
  8
$DDT_AUDIT_GENERATED_(104)
  6
Continuous
 62
     7
100
AcDbSpline
210
0.0
220
0.0
230
1.0
 70
     8
 71
     3
 72
    14
 73
    10
 74
     0
 42
0.0000000011014719
 43
0.0000000001
 40
0.0
 40
0.0
 40
0.0
 40
0.0
 40
0.25
 40
0.25
 40
0.5
 40
0.5
 40
0.75
 40
0.75
 40
1.0
 40
1.0
 40
1.0
 40
1.0
 10
424.0972027060993
 20
421.076862767507
 30
0.0
 10
423.1193961376462
 20
420.7295449188797
 30
0.0
 10
422.4225376434654
 20
420.2316176062963
 30
0.0
 10
421.5158556915957
 20
419.141709541728
 30
0.0
 10
421.3019085912766
 20
418.547835360323
 30
0.0
 10
421.3010414382347
 20
417.3594302569341
 30
0.0
 10
421.5083599965038
 20
416.7738764745371
 30
0.0
 10
422.4189584924271
 20
415.6735947314306
 30
0.0
 10
423.1204733049429
 20
415.1737980052568
 30
0.0
 10
424.0972027060993
 20
414.826862767507
 30
0.0
  0
SPLINE
  5
10D
330
D0
100
AcDbEntity
  8
$DDT_AUDIT_GENERATED_(104)
  6
Continuous
 62
     7
100
AcDbSpline
210
0.0
220
0.0
230
1.0
 70
     8
 71
     3
 72
    14
 73
    10
 74
     0
 42
0.0000000011014719
 43
0.0000000001
 40
0.0
 40
0.0
 40
0.0
 40
0.0
 40
0.25
 40
0.25
 40
0.5
 40
0.5
 40
0.75
 40
0.75
 40
1.0
 40
1.0
 40
1.0
 40
1.0
 10
424.0972027060993
 20
395.0961006539738
 30
0.0
 10
423.1193961376462
 20
394.7487828053465
 30
0.0
 10
422.4225376434654
 20
394.2508554927632
 30
0.0
 10
421.5158556915957
 20
393.1609474281949
 30
0.0
 10
421.3019085912766
 20
392.5670732467899
 30
0.0
 10
421.3010414382347
 20
391.378668143401
 30
0.0
 10
421.5083599965038
 20
390.793114361004
 30
0.0
 10
422.4189584924272
 20
389.6928326178975
 30
0.0
 10
423.1204733049429
 20
389.1930358917236
 30
0.0
 10
424.0972027060993
 20
388.8461006539738
 30
0.0
  0
SPLINE
  5
10E
330
D0
100
AcDbEntity
  8
$DDT_AUDIT_GENERATED_(104)
  6
Continuous
 62
     7
100
AcDbSpline
210
0.0
220
0.0
230
1.0
 70
     8
 71
     3
 72
    14
 73
    10
 74
     0
 42
0.0000000006969408
 43
0.0000000001
 40
0.0
 40
0.0
 40
0.0
 40
0.0
 40
0.25
 40
0.25
 40
0.5
 40
0.5
 40
0.75
 40
0.75
 40
1.0
 40
1.0
 40
1.0
 40
1.0
 10
424.0972027060993
 20
411.2114817107404
 30
0.0
 10
423.1215742633296
 20
410.5183933582283
 30
0.0
 10
422.4155955746822
 20
409.5108331903974
 30
0.0
 10
421.5098818102861
 20
407.3201877380237
 30
0.0
 10
421.2995794135961
 20
406.1359734345343
 30
0.0
 10
421.3033942517331
 20
403.7558854257098
 30
0.0
 10
421.5186934942828
 20
402.5728618161662
 30
0.0
 10
422.423879808921
 20
400.4008587763237
 30
0.0
 10
423.128913770393
 20
399.3993560630904
 30
0.0
 10
424.0972027060993
 20
398.7114817107404
 30
0.0
  0
LINE
  5
10F
330
D0
100
AcDbEntity
  8
$DDT_AUDIT_GENERATED_(104)
  6
Continuous
 62
     7
100
AcDbLine
 10
434.0972027061
 20
398.7114817107
 30
0.0
 11
434.0972027061
 21
395.096100654
 31
0.0
  0
LINE
  5
110
330
D0
100
AcDbEntity
  8
$DDT_AUDIT_GENERATED_(104)
  6
Continuous
 62
     7
100
AcDbLine
 10
434.0972027061
 20
388.846100654
 30
0.0
 11
434.0972027061
 21
388.7114817107
 31
0.0
  0
LINE
  5
111
330
D0
100
AcDbEntity
  8
$DDT_AUDIT_GENERATED_(104)
  6
Continuous
 62
     7
100
AcDbLine
 10
434.0972027061
 20
421.0768627675
 30
0.0
 11
434.0972027061
 21
421.2114817107
 31
0.0
  0
LINE
  5
112
330
D0
100
AcDbEntity
  8
$DDT_AUDIT_GENERATED_(104)
  6
Continuous
 62
     7
100
AcDbLine
 10
424.0972027061
 20
411.2114817107
 30
0.0
 11
434.0972027061
 21
411.2114817107
 31
0.0
  0
SPLINE
  5
113
330
D0
100
AcDbEntity
  8
$DDT_AUDIT_GENERATED_(104)
  6
Continuous
 62
     7
100
AcDbSpline
210
0.0
220
0.0
230
1.0
 70
     8
 71
     3
 72
    14
 73
    10
 74
     0
 42
0.0000000006969408
 43
0.0000000001
 40
0.0
 40
0.0
 40
0.0
 40
0.0
 40
0.25
 40
0.25
 40
0.5
 40
0.5
 40
0.75
 40
0.75
 40
1.0
 40
1.0
 40
1.0
 40
1.0
 10
434.0972027060994
 20
411.2114817107404
 30
0.0
 10
435.0728311488691
 20
410.5183933582283
 30
0.0
 10
435.7788098375165
 20
409.5108331903974
 30
0.0
 10
436.6845236019127
 20
407.3201877380237
 30
0.0
 10
436.8948259986026
 20
406.1359734345343
 30
0.0
 10
436.8910111604656
 20
403.7558854257098
 30
0.0
 10
436.6757119179159
 20
402.5728618161662
 30
0.0
 10
435.7705256032777
 20
400.4008587763237
 30
0.0
 10
435.0654916418057
 20
399.3993560630904
 30
0.0
 10
434.0972027060994
 20
398.7114817107404
 30
0.0
  0
LINE
  5
114
330
D0
100
AcDbEntity
  8
$DDT_AUDIT_GENERATED_(104)
  6
Continuous
 62
     7
100
AcDbLine
 10
434.0972027061
 20
398.7114817107
 30
0.0
 11
424.0972027061
 21
398.7114817107
 31
0.0
  0
LINE
  5
115
330
D0
100
AcDbEntity
  8
$DDT_AUDIT_GENERATED_(104)
  6
Continuous
 62
     7
100
AcDbLine
 10
424.0972027061
 20
395.096100654
 30
0.0
 11
434.0972027061
 21
395.096100654
 31
0.0
  0
SPLINE
  5
116
330
D0
100
AcDbEntity
  8
$DDT_AUDIT_GENERATED_(104)
  6
Continuous
 62
     7
100
AcDbSpline
210
0.0
220
0.0
230
1.0
 70
     8
 71
     3
 72
    14
 73
    10
 74
     0
 42
0.0000000011014719
 43
0.0000000001
 40
0.0
 40
0.0
 40
0.0
 40
0.0
 40
0.2500000000000001
 40
0.2500000000000001
 40
0.5000000000000001
 40
0.5000000000000001
 40
0.7500000000000002
 40
0.7500000000000002
 40
1.0
 40
1.0
 40
1.0
 40
1.0
 10
434.0972027060994
 20
395.0961006539738
 30
0.0
 10
435.0750092745524
 20
394.7487828053465
 30
0.0
 10
435.7718677687333
 20
394.2508554927632
 30
0.0
 10
436.678549720603
 20
393.1609474281949
 30
0.0
 10
436.8924968209221
 20
392.5670732467899
 30
0.0
 10
436.893363973964
 20
391.378668143401
 30
0.0
 10
436.6860454156949
 20
390.793114361004
 30
0.0
 10
435.7754469197715
 20
389.6928326178975
 30
0.0
 10
435.0739321072558
 20
389.1930358917236
 30
0.0
 10
434.0972027060994
 20
388.8461006539738
 30
0.0
  0
LINE
  5
117
330
D0
100
AcDbEntity
  8
$DDT_AUDIT_GENERATED_(104)
  6
Continuous
 62
     7
100
AcDbLine
 10
434.0972027061
 20
388.846100654
 30
0.0
 11
424.0972027061
 21
388.846100654
 31
0.0
  0
LINE
  5
118
330
D0
100
AcDbEntity
  8
$DDT_AUDIT_GENERATED_(104)
  6
Continuous
 62
     7
100
AcDbLine
 10
424.0972027061
 20
421.0768627675
 30
0.0
 11
434.0972027061
 21
421.0768627675
 31
0.0
  0
SPLINE
  5
119
330
D0
100
AcDbEntity
  8
$DDT_AUDIT_GENERATED_(104)
  6
Continuous
 62
     7
100
AcDbSpline
210
0.0
220
0.0
230
1.0
 70
     8
 71
     3
 72
    14
 73
    10
 74
     0
 42
0.0000000011014719
 43
0.0000000001
 40
0.0
 40
0.0
 40
0.0
 40
0.0
 40
0.2499999999999999
 40
0.2499999999999999
 40
0.4999999999999999
 40
0.4999999999999999
 40
0.7499999999999999
 40
0.7499999999999999
 40
1.0
 40
1.0
 40
1.0
 40
1.0
 10
434.0972027060994
 20
421.076862767507
 30
0.0
 10
435.0750092745524
 20
420.7295449188797
 30
0.0
 10
435.7718677687333
 20
420.2316176062963
 30
0.0
 10
436.678549720603
 20
419.1417095417281
 30
0.0
 10
436.8924968209221
 20
418.547835360323
 30
0.0
 10
436.893363973964
 20
417.3594302569341
 30
0.0
 10
436.6860454156949
 20
416.7738764745371
 30
0.0
 10
435.7754469197715
 20
415.6735947314306
 30
0.0
 10
435.0739321072558
 20
415.1737980052568
 30
0.0
 10
434.0972027060994
 20
414.826862767507
 30
0.0
  0
LINE
  5
11A
330
D0
100
AcDbEntity
  8
$DDT_AUDIT_GENERATED_(104)
  6
Continuous
 62
     7
100
AcDbLine
 10
434.0972027061
 20
414.8268627675
 30
0.0
 11
424.0972027061
 21
414.8268627675
 31
0.0
  0
LINE
  5
11B
330
D0
100
AcDbEntity
  8
$DDT_AUDIT_GENERATED_(104)
  6
Continuous
 62
     7
100
AcDbLine
 10
434.0972027061
 20
421.2114817107
 30
0.0
 11
424.0972027061
 21
421.2114817107
 31
0.0
  0
ARC
  5
11C
330
D0
100
AcDbEntity
  8
$DDT_AUDIT_GENERATED_(104)
  6
Continuous
 62
     7
100
AcDbCircle
 10
431.4615015079
 20
411.5650793143
 30
0.0
 40
10.0
100
AcDbArc
 50
52.1519040322
 51
74.7179936136
  0
ARC
  5
11D
330
D0
100
AcDbEntity
  8
$DDT_AUDIT_GENERATED_(104)
  6
Continuous
 62
     7
100
AcDbCircle
 10
431.4615015079
 20
398.3578841072
 30
0.0
 40
9.999999999999996
100
AcDbArc
 50
285.2820063864
 51
307.8480959678
  0
ARC
  5
11E
330
D0
100
AcDbEntity
  8
$DDT_AUDIT_GENERATED_(104)
  6
Continuous
 62
     7
100
AcDbCircle
 10
426.7329039043
 20
411.5650793143
 30
0.0
 40
9.999999999999996
100
AcDbArc
 50
105.2820063864
 51
127.8480959678
  0
ARC
  5
11F
330
D0
100
AcDbEntity
  8
$DDT_AUDIT_GENERATED_(104)
  6
Continuous
 62
     7
100
AcDbCircle
 10
426.7329039043
 20
398.3578841072
 30
0.0
 40
10.0
100
AcDbArc
 50
232.1519040322
 51
254.7179936136
  0
LINE
  5
120
330
D0
100
AcDbEntity
  8
$DDT_AUDIT_GENERATED_(104)
  6
Continuous
 62
     7
100
AcDbLine
 10
424.0972027061
 20
388.7114817107
 30
0.0
 11
434.0972027061
 21
388.7114817107
 31
0.0
  0
LINE
  5
121
330
D0
100
AcDbEntity
  8
$DDT_AUDIT_GENERATED_(BB)
  6
Continuous
 62
     7
100
AcDbLine
 10
390.0972027061
 20
369.9614817107
 30
0.0
 11
412.88014777
 21
369.9614817107
 31
0.0
  0
LINE
  5
122
330
D0
100
AcDbEntity
  8
$DDT_AUDIT_GENERATED_(BB)
  6
Continuous
 62
     7
100
AcDbLine
 10
412.88014777
 20
439.9614817107
 30
0.0
 11
390.0972027061
 21
439.9614817107
 31
0.0
  0
ARC
  5
123
330
D0
100
AcDbEntity
  8
$DDT_AUDIT_GENERATED_(BB)
  6
Continuous
 62
     7
100
AcDbCircle
 10
-33.9027972939
 20
404.9614817107
 30
0.0
 40
450.0
100
AcDbArc
 50
1.6665978934
 51
4.2242740157
  0
ARC
  5
124
330
D0
100
AcDbEntity
  8
$DDT_AUDIT_GENERATED_(BB)
  6
Continuous
 62
     7
100
AcDbCircle
 10
-33.9027972939
 20
404.9614817107
 30
0.0
 40
450.0000000000001
100
AcDbArc
 50
355.7757259843
 51
358.3334021066
  0
ARC
  5
125
330
D0
100
AcDbEntity
  8
$DDT_AUDIT_GENERATED_(BB)
  6
Continuous
 62
     7
100
AcDbCircle
 10
412.88014777
 20
371.9614817107
 30
0.0
 40
1.999999999999995
100
AcDbArc
 50
270.0
 51
355.7757259844
  0
ARC
  5
126
330
D0
100
AcDbEntity
  8
$DDT_AUDIT_GENERATED_(BB)
  6
Continuous
 62
     7
100
AcDbCircle
 10
412.88014777
 20
437.9614817107
 30
0.0
 40
2.000000000000141
100
AcDbArc
 50
4.2242740156
 51
90.0
  0
ARC
  5
127
330
D0
100
AcDbEntity
  8
$DDT_AUDIT_GENERATED_(BB)
  6
Continuous
 62
     7
100
AcDbCircle
 10
414.9072689677
 20
391.9029817107
 30
0.0
 40
1.000000000000043
100
AcDbArc
 50
358.3334021067
 51
0.0
  0
ARC
  5
128
330
D0
100
AcDbEntity
  8
$DDT_AUDIT_GENERATED_(BB)
  6
Continuous
 62
     7
100
AcDbCircle
 10
414.9072689677
 20
418.0199817107
 30
0.0
 40
1.000000000000001
100
AcDbArc
 50
0.0
 51
1.6665978933
  0
LINE
  5
129
330
D0
100
AcDbEntity
  8
$DDT_AUDIT_GENERATED_(BB)
  6
Continuous
 62
     7
100
AcDbLine
 10
415.9072689677
 20
391.9029817107
 30
0.0
 11
415.9072689677
 21
393.9614817107
 31
0.0
  0
LINE
  5
12A
330
D0
100
AcDbEntity
  8
$DDT_AUDIT_GENERATED_(BB)
  6
Continuous
 62
     7
100
AcDbLine
 10
415.9072689677
 20
415.9614817107
 30
0.0
 11
415.9072689677
 21
418.0199817107
 31
0.0
  0
LINE
  5
12C
330
D0
100
AcDbEntity
  8
$DDT_AUDIT_GENERATED_(12B)
  6
Continuous
 62
     7
100
AcDbLine
 10
420.471683962
 20
391.7414817107
 30
0.0
 11
419.5972027061
 21
393.9614817107
 31
0.0
  0
LINE
  5
12D
330
D0
100
AcDbEntity
  8
$DDT_AUDIT_GENERATED_(12B)
  6
Continuous
 62
     7
100
AcDbLine
 10
415.3462964029
 20
393.9614817107
 30
0.0
 11
419.5972027061
 21
393.9614817107
 31
0.0
  0
LINE
  5
12E
330
D0
100
AcDbEntity
  8
$DDT_AUDIT_GENERATED_(12B)
  6
Continuous
 62
     7
100
AcDbLine
 10
419.5972027061
 20
415.9614817107
 30
0.0
 11
420.471683962
 21
418.1814817107
 31
0.0
  0
LINE
  5
12F
330
D0
100
AcDbEntity
  8
$DDT_AUDIT_GENERATED_(12B)
  6
Continuous
 62
     7
100
AcDbLine
 10
415.3462964029
 20
415.9614817107
 30
0.0
 11
419.5972027061
 21
415.9614817107
 31
0.0
  0
LINE
  5
130
330
D0
100
AcDbEntity
  8
$DDT_AUDIT_GENERATED_(12B)
  6
Continuous
 62
     7
100
AcDbLine
 10
420.5972027061
 20
418.1814817107
 30
0.0
 11
420.471683962
 21
418.1814817107
 31
0.0
  0
LINE
  5
131
330
D0
100
AcDbEntity
  8
$DDT_AUDIT_GENERATED_(12B)
  6
Continuous
 62
     7
100
AcDbLine
 10
420.471683962
 20
391.7414817107
 30
0.0
 11
420.5972027061
 21
391.7414817107
 31
0.0
  0
LINE
  5
132
330
D0
100
AcDbEntity
  8
$DDT_AUDIT_GENERATED_(12B)
  6
Continuous
 62
     7
100
AcDbLine
 10
420.0108087055
 20
417.0114817107
 30
0.0
 11
420.5972027061
 21
417.0114817107
 31
0.0
  0
LINE
  5
133
330
D0
100
AcDbEntity
  8
$DDT_AUDIT_GENERATED_(12B)
  6
Continuous
 62
     7
100
AcDbLine
 10
420.0108087055
 20
392.9114817107
 30
0.0
 11
420.5972027061
 21
392.9114817107
 31
0.0
  0
LINE
  5
135
330
D0
100
AcDbEntity
  8
DV2_Default
  6
Continuous
 62
     7
100
AcDbLine
 10
389.5972027061
 20
439.9614817107
 30
0.0
 11
389.5972027061
 21
369.9614817107
 31
0.0
  0
ENDBLK
  5
137
330
D0
100
AcDbEntity
  8
0
100
AcDbBlockEnd
  0
BLOCK
  5
1BF
330
138
100
AcDbEntity
  8
0
100
AcDbBlockBegin
  2
SE2
 70
     0
 10
0.0
 20
0.0
 30
0.0
  3
SE2
  1

  0
SPLINE
  5
13A
330
138
100
AcDbEntity
  8
$DDT_AUDIT_GENERATED_(87)
  6
Continuous
 62
     7
100
AcDbSpline
210
0.0
220
0.0
230
1.0
 70
     8
 71
     3
 72
    22
 73
    18
 74
     0
 42
0.0000000001259116
 43
0.0000000001
 40
0.0
 40
0.0
 40
0.0
 40
0.0
 40
0.03125
 40
0.03125
 40
0.0625
 40
0.0625
 40
0.09375
 40
0.09375
 40
0.1250000000000001
 40
0.1250000000000001
 40
0.1562500000000001
 40
0.1562500000000001
 40
0.1875000000000002
 40
0.1875000000000002
 40
0.2500000000000004
 40
0.2500000000000004
 40
0.275994793935031
 40
0.275994793935031
 40
0.275994793935031
 40
0.275994793935031
 10
107.7556187551948
 20
155.4919252793009
 30
0.0
 10
108.8785306830679
 20
155.2545886746645
 30
0.0
 10
110.0169515341845
 20
155.1532377665856
 30
0.0
 10
112.3277924845918
 20
155.2584798390895
 30
0.0
 10
113.4604623199058
 20
155.4656616926011
 30
0.0
 10
115.6133491869616
 20
156.0977821830278
 30
0.0
 10
116.6360393727349
 20
156.5208858750531
 30
0.0
 10
118.529881092669
 20
157.4550858698722
 30
0.0
 10
119.4201790899655
 20
157.974475817797
 30
0.0
 10
121.0798898788906
 20
159.0377731088628
 30
0.0
 10
121.8421470409912
 20
159.5766716214515
 30
0.0
 10
123.248921921256
 20
160.6264099068918
 30
0.0
 10
123.8965367761188
 20
161.1406910946872
 30
0.0
 10
125.5951447208452
 20
162.5342459049473
 30
0.0
 10
126.4405343748913
 20
163.2915207963143
 30
0.0
 10
126.9912775004647
 20
163.7853829518257
 30
0.0
 10
127.0737986866437
 20
163.8601143800839
 30
0.0
 10
127.0727091946484
 20
163.8592219410797
 30
0.0
  0
SPLINE
  5
13B
330
138
100
AcDbEntity
  8
$DDT_AUDIT_GENERATED_(87)
  6
Continuous
 62
     7
100
AcDbSpline
210
0.0
220
0.0
230
1.0
 70
     8
 71
     3
 72
    20
 73
    16
 74
     0
 42
0.0000000001380126
 43
0.0000000001
 40
0.7760169789495398
 40
0.7760169789495398
 40
0.7760169789495398
 40
0.7760169789495398
 40
0.7812500000000007
 40
0.7812500000000007
 40
0.8125000000000006
 40
0.8125000000000006
 40
0.8437500000000004
 40
0.8437500000000004
 40
0.8750000000000004
 40
0.8750000000000004
 40
0.9375000000000003
 40
0.9375000000000003
 40
0.9687500000000002
 40
0.9687500000000002
 40
1.0
 40
1.0
 40
1.0
 40
1.0
 10
94.07305921971702
 20
163.8593793049247
 30
0.0
 10
94.07315994280476
 20
163.8593070921499
 30
0.0
 10
94.07661587614946
 20
163.8561999669679
 30
0.0
 10
94.1242055125956
 20
163.8132066900306
 30
0.0
 10
94.28862227607455
 20
163.6641947555175
 30
0.0
 10
94.82986313294884
 20
163.1827100784688
 30
0.0
 10
95.21177679401985
 20
162.8459288625635
 30
0.0
 10
96.13941649319403
 20
162.0529642033157
 30
0.0
 10
96.68281365793788
 20
161.5984886735438
 30
0.0
 10
98.53533609853022
 20
160.1205103990154
 30
0.0
 10
100.0313096065717
 20
158.9998334544186
 30
0.0
 10
102.6552802299648
 20
157.4392012349894
 30
0.0
 10
103.5803877432751
 20
156.9485159580694
 30
0.0
 10
105.5650090903672
 20
156.0940192305655
 30
0.0
 10
106.6327068273216
 20
155.7292618839373
 30
0.0
 10
107.7556187551948
 20
155.4919252793009
 30
0.0
  0
SPLINE
  5
13C
330
138
100
AcDbEntity
  8
$DDT_AUDIT_GENERATED_(87)
  6
Continuous
 62
     7
100
AcDbSpline
210
0.0
220
0.0
230
1.0
 70
     8
 71
     3
 72
    22
 73
    18
 74
     0
 42
0.0000000001259116
 43
0.0000000001
 40
0.0
 40
0.0
 40
0.0
 40
0.0
 40
0.03125
 40
0.03125
 40
0.0625
 40
0.0625
 40
0.0937500000000001
 40
0.0937500000000001
 40
0.1250000000000001
 40
0.1250000000000001
 40
0.1562500000000001
 40
0.1562500000000001
 40
0.1875000000000001
 40
0.1875000000000001
 40
0.2500000000000002
 40
0.2500000000000002
 40
0.2759947939350272
 40
0.2759947939350272
 40
0.2759947939350272
 40
0.2759947939350272
 10
257.7556361681378
 20
155.4919252793009
 30
0.0
 10
258.8785480960109
 20
155.2545886746645
 30
0.0
 10
260.0169689471276
 20
155.1532377665856
 30
0.0
 10
262.3278098975348
 20
155.2584798390895
 30
0.0
 10
263.4604797328489
 20
155.4656616926011
 30
0.0
 10
265.6133665999046
 20
156.0977821830278
 30
0.0
 10
266.636056785678
 20
156.5208858750531
 30
0.0
 10
268.529898505612
 20
157.4550858698722
 30
0.0
 10
269.4201965029085
 20
157.974475817797
 30
0.0
 10
271.0799072918336
 20
159.0377731088628
 30
0.0
 10
271.8421644539343
 20
159.5766716214515
 30
0.0
 10
273.248939334199
 20
160.6264099068918
 30
0.0
 10
273.8965541890618
 20
161.1406910946872
 30
0.0
 10
275.5951621337883
 20
162.5342459049473
 30
0.0
 10
276.4405517878343
 20
163.2915207963143
 30
0.0
 10
276.9912949134077
 20
163.7853829518257
 30
0.0
 10
277.0738160995867
 20
163.8601143800839
 30
0.0
 10
277.0727266075914
 20
163.8592219410797
 30
0.0
  0
SPLINE
  5
13D
330
138
100
AcDbEntity
  8
$DDT_AUDIT_GENERATED_(87)
  6
Continuous
 62
     7
100
AcDbSpline
210
0.0
220
0.0
230
1.0
 70
     8
 71
     3
 72
    20
 73
    16
 74
     0
 42
0.0000000001380126
 43
0.0000000001
 40
0.7760169789495404
 40
0.7760169789495404
 40
0.7760169789495404
 40
0.7760169789495404
 40
0.7812499999999999
 40
0.7812499999999999
 40
0.8124999999999999
 40
0.8124999999999999
 40
0.8437499999999999
 40
0.8437499999999999
 40
0.8749999999999999
 40
0.8749999999999999
 40
0.9375
 40
0.9375
 40
0.96875
 40
0.96875
 40
1.0
 40
1.0
 40
1.0
 40
1.0
 10
244.0730766326601
 20
163.8593793049247
 30
0.0
 10
244.0731773557478
 20
163.8593070921499
 30
0.0
 10
244.0766332890925
 20
163.8561999669679
 30
0.0
 10
244.1242229255386
 20
163.8132066900306
 30
0.0
 10
244.2886396890176
 20
163.6641947555175
 30
0.0
 10
244.8298805458919
 20
163.1827100784688
 30
0.0
 10
245.2117942069629
 20
162.8459288625635
 30
0.0
 10
246.139433906137
 20
162.0529642033157
 30
0.0
 10
246.682831070881
 20
161.5984886735438
 30
0.0
 10
248.5353535114733
 20
160.1205103990154
 30
0.0
 10
250.0313270195148
 20
158.9998334544186
 30
0.0
 10
252.6552976429078
 20
157.4392012349894
 30
0.0
 10
253.5804051562181
 20
156.9485159580694
 30
0.0
 10
255.5650265033102
 20
156.0940192305655
 30
0.0
 10
256.6327242402647
 20
155.7292618839373
 30
0.0
 10
257.7556361681378
 20
155.4919252793009
 30
0.0
  0
LINE
  5
13E
330
138
100
AcDbEntity
  8
$DDT_AUDIT_GENERATED_(87)
  6
Continuous
 62
     7
100
AcDbLine
 10
73.6729888001
 20
158.8594940187
 30
0.0
 11
73.6729888001
 21
106.8594940187
 31
0.0
  0
LINE
  5
13F
330
138
100
AcDbEntity
  8
$DDT_AUDIT_GENERATED_(87)
  6
Continuous
 62
     7
100
AcDbLine
 10
126.2729713872
 20
179.3594940187
 30
0.0
 11
94.8729713872
 21
179.3594940187
 31
0.0
  0
LINE
  5
140
330
138
100
AcDbEntity
  8
$DDT_AUDIT_GENERATED_(87)
  6
Continuous
 62
     7
100
AcDbLine
 10
312.5729888001
 20
107.6594940187
 30
0.0
 11
312.5729888001
 21
158.0594940187
 31
0.0
  0
LINE
  5
141
330
138
100
AcDbEntity
  8
$DDT_AUDIT_GENERATED_(87)
  6
Continuous
 62
     7
100
AcDbLine
 10
244.8729888001
 20
179.3594940187
 30
0.0
 11
276.2729888001
 21
179.3594940187
 31
0.0
  0
LINE
  5
142
330
138
100
AcDbEntity
  8
$DDT_AUDIT_GENERATED_(87)
  6
Continuous
 62
     7
100
AcDbLine
 10
73.6729888001
 20
106.8594940187
 30
0.0
 11
311.7729888001
 21
106.8594940187
 31
0.0
  0
LINE
  5
143
330
138
100
AcDbEntity
  8
$DDT_AUDIT_GENERATED_(87)
  6
Continuous
 62
     7
100
AcDbLine
 10
89.074980611
 20
158.8594940187
 30
0.0
 11
73.6729888001
 21
158.8594940187
 31
0.0
  0
LINE
  5
144
330
138
100
AcDbEntity
  8
$DDT_AUDIT_GENERATED_(87)
  6
Continuous
 62
     7
100
AcDbLine
 10
239.074998024
 20
158.8594940187
 30
0.0
 11
132.0631041276
 21
158.8594940187
 31
0.0
  0
LINE
  5
145
330
138
100
AcDbEntity
  8
$DDT_AUDIT_GENERATED_(87)
  6
Continuous
 62
     7
100
AcDbLine
 10
311.7729888001
 20
158.8594940187
 30
0.0
 11
282.0631215406
 21
158.8594940187
 31
0.0
  0
LINE
  5
146
330
138
100
AcDbEntity
  8
$DDT_AUDIT_GENERATED_(87)
  6
Continuous
 62
     7
100
AcDbLine
 10
94.0729713872
 20
178.5594940187
 30
0.0
 11
94.0729713872
 21
163.8553512123
 31
0.0
  0
LINE
  5
147
330
138
100
AcDbEntity
  8
$DDT_AUDIT_GENERATED_(87)
  6
Continuous
 62
     7
100
AcDbLine
 10
127.0729713872
 20
163.8343329791
 30
0.0
 11
127.0729713872
 21
178.5594940187
 31
0.0
  0
LINE
  5
148
330
138
100
AcDbEntity
  8
$DDT_AUDIT_GENERATED_(87)
  6
Continuous
 62
     7
100
AcDbLine
 10
244.0729888001
 20
178.5594940187
 30
0.0
 11
244.0729888001
 21
163.8553512123
 31
0.0
  0
LINE
  5
149
330
138
100
AcDbEntity
  8
$DDT_AUDIT_GENERATED_(87)
  6
Continuous
 62
     7
100
AcDbLine
 10
277.0729888001
 20
163.8343329791
 30
0.0
 11
277.0729888001
 21
178.5594940187
 31
0.0
  0
ARC
  5
14A
330
138
100
AcDbEntity
  8
$DDT_AUDIT_GENERATED_(87)
  6
Continuous
 62
     7
100
AcDbCircle
 10
89.0810560884
 20
163.8544013663
 30
0.0
 40
4.989374180085164
100
AcDbArc
 50
269.9197335149
 51
0.0123122508
  0
ARC
  5
14B
330
138
100
AcDbEntity
  8
$DDT_AUDIT_GENERATED_(87)
  6
Continuous
 62
     7
100
AcDbCircle
 10
132.0706514156
 20
163.8575537968
 30
0.0
 40
4.998024797738768
100
AcDbArc
 50
180.2371637404
 51
269.9070228455
  0
ARC
  5
14C
330
138
100
AcDbEntity
  8
$DDT_AUDIT_GENERATED_(87)
  6
Continuous
 62
     7
100
AcDbCircle
 10
239.0810735013
 20
163.8544013664
 30
0.0
 40
4.989374180089731
100
AcDbArc
 50
269.9197335149
 51
0.0123122507
  0
ARC
  5
14D
330
138
100
AcDbEntity
  8
$DDT_AUDIT_GENERATED_(87)
  6
Continuous
 62
     7
100
AcDbCircle
 10
282.0706688285
 20
163.8575537968
 30
0.0
 40
4.998024797750574
100
AcDbArc
 50
180.2371637405
 51
269.9070228454
  0
ARC
  5
14E
330
138
100
AcDbEntity
  8
$DDT_AUDIT_GENERATED_(87)
  6
Continuous
 62
     7
100
AcDbCircle
 10
126.2729713872
 20
178.5594940187
 30
0.0
 40
0.7999999999999952
100
AcDbArc
 50
0.0
 51
90.0
  0
ARC
  5
14F
330
138
100
AcDbEntity
  8
$DDT_AUDIT_GENERATED_(87)
  6
Continuous
 62
     7
100
AcDbCircle
 10
94.8729713872
 20
178.5594940187
 30
0.0
 40
0.800000000000002
100
AcDbArc
 50
90.0
 51
180.0
  0
ARC
  5
150
330
138
100
AcDbEntity
  8
$DDT_AUDIT_GENERATED_(87)
  6
Continuous
 62
     7
100
AcDbCircle
 10
311.7729888001
 20
107.6594940187
 30
0.0
 40
0.7999999999999986
100
AcDbArc
 50
270.0
 51
0.0
  0
ARC
  5
151
330
138
100
AcDbEntity
  8
$DDT_AUDIT_GENERATED_(87)
  6
Continuous
 62
     7
100
AcDbCircle
 10
311.7729888001
 20
158.0594940187
 30
0.0
 40
0.7999999999999674
100
AcDbArc
 50
0.0
 51
90.0
  0
ARC
  5
152
330
138
100
AcDbEntity
  8
$DDT_AUDIT_GENERATED_(87)
  6
Continuous
 62
     7
100
AcDbCircle
 10
276.2729888001
 20
178.5594940187
 30
0.0
 40
0.7999999999999952
100
AcDbArc
 50
0.0
 51
90.0
  0
ARC
  5
153
330
138
100
AcDbEntity
  8
$DDT_AUDIT_GENERATED_(87)
  6
Continuous
 62
     7
100
AcDbCircle
 10
244.8729888001
 20
178.5594940187
 30
0.0
 40
0.800000000000002
100
AcDbArc
 50
90.0
 51
180.0
  0
ELLIPSE
  5
154
330
138
100
AcDbEntity
  8
$DDT_AUDIT_GENERATED_(9F)
  6
Continuous
 62
     7
100
AcDbEllipse
 10
46.5770222037
 20
132.8594940187
 30
0.0
 11
-2.775557561562891E-14
 21
-26.19471778210836
 31
0.0
210
0.0
220
0.0
230
1.0
 40
0.0261769483
 41
0.1265074341834107
 42
3.04851289335174
  0
ELLIPSE
  5
155
330
138
100
AcDbEntity
  8
$DDT_AUDIT_GENERATED_(9F)
  6
Continuous
 62
     7
100
AcDbEllipse
 10
7.0374090513
 20
132.8594940187
 30
0.0
 11
0.0
 21
24.77275040127753
 31
0.0
210
0.0
220
0.0
230
1.0
 40
1.0
 41
0.0039425902586163
 42
0.0282694586783394
  0
ELLIPSE
  5
156
330
138
100
AcDbEntity
  8
$DDT_AUDIT_GENERATED_(9F)
  6
Continuous
 62
     7
100
AcDbEllipse
 10
7.0374090513
 20
132.8594940187
 30
0.0
 11
0.0
 21
17.02539652089823
 31
0.0
210
0.0
220
0.0
230
1.0
 40
1.0
 41
3.113323194911453
 42
3.136708745561122
  0
ELLIPSE
  5
157
330
138
100
AcDbEntity
  8
$DDT_AUDIT_GENERATED_(9F)
  6
Continuous
 62
     7
100
AcDbEllipse
 10
7.0374090513
 20
132.8594940187
 30
0.0
 11
0.0
 21
24.50426515956465
 31
0.0
210
0.0
220
0.0
230
1.0
 40
1.0
 41
3.147159977735184
 42
6.27882860188813
  0
LINE
  5
158
330
138
100
AcDbEntity
  8
$DDT_AUDIT_GENERATED_(9F)
  6
Continuous
 62
     7
100
AcDbLine
 10
46.2715740728
 20
159.3541633417
 30
0.0
 11
7.8223601232
 21
158.6827996861
 31
0.0
  0
LINE
  5
159
330
138
100
AcDbEntity
  8
$DDT_AUDIT_GENERATED_(9F)
  6
Continuous
 62
     7
100
AcDbLine
 10
7.8223601232
 20
107.0361883512
 30
0.0
 11
46.2715740728
 21
106.3648246956
 31
0.0
  0
ARC
  5
15A
330
138
100
AcDbEntity
  8
$DDT_AUDIT_GENERATED_(9F)
  6
Continuous
 62
     7
100
AcDbCircle
 10
708.85
 20
132.8594940187
 30
0.0
 40
702.4999999999994
100
AcDbArc
 50
178.6118305909
 51
180.0
  0
ARC
  5
15B
330
138
100
AcDbEntity
  8
$DDT_AUDIT_GENERATED_(9F)
  6
Continuous
 62
     7
100
AcDbCircle
 10
708.85
 20
132.8594940187
 30
0.0
 40
702.4999999999994
100
AcDbArc
 50
180.0
 51
181.3881694091
  0
SPLINE
  5
15C
330
138
100
AcDbEntity
  8
$DDT_AUDIT_GENERATED_(9F)
  6
Continuous
 62
     7
100
AcDbSpline
210
0.0
220
0.0
230
1.0
 70
     8
 71
     3
 72
    12
 73
     8
 74
     0
 42
0.0000000180944731
 43
0.0000000001
 40
0.0
 40
0.0
 40
0.0
 40
0.0
 40
0.380035708857813
 40
0.6077131955482968
 40
0.7824451863495322
 40
0.9472931312618241
 40
1.0
 40
1.0
 40
1.0
 40
1.0
 10
46.62574083993356
 20
159.019569421253
 30
0.0
 10
46.61666380924612
 20
159.0616401456891
 30
0.0
 10
46.60034510000996
 20
159.1199762423271
 30
0.0
 10
46.55129523106011
 20
159.2102329523795
 30
0.0
 10
46.47897543452614
 20
159.2924227395455
 30
0.0
 10
46.35008227065082
 20
159.3631398918362
 30
0.0
 10
46.28206031935314
 20
159.347610208078
 30
0.0
 10
46.26248364046645
 20
159.3432841717602
 30
0.0
  0
SPLINE
  5
15D
330
138
100
AcDbEntity
  8
$DDT_AUDIT_GENERATED_(9F)
  6
Continuous
 62
     7
100
AcDbSpline
210
0.0
220
0.0
230
1.0
 70
     8
 71
     3
 72
    14
 73
    10
 74
     0
 42
0.0000000147468227
 43
0.0000000001
 40
0.0
 40
0.0
 40
0.0
 40
0.0
 40
0.0067262671041585
 40
0.1343977879565969
 40
0.2564824691789968
 40
0.3965411695105557
 40
0.6006664202203564
 40
0.9631364874132289
 40
1.0
 40
1.0
 40
1.0
 40
1.0
 10
46.25842959039131
 20
106.3674319610574
 30
0.0
 10
46.26153788837403
 20
106.3664763567007
 30
0.0
 10
46.31483651346596
 20
106.35
 30
0.0
 10
46.45052579830622
 20
106.4046324539088
 30
0.0
 10
46.53297978804372
 20
106.4844377781198
 30
0.0
 10
46.58335473234401
 20
106.5639639745441
 30
0.0
 10
46.62051219906116
 20
106.6600695889113
 30
0.0
 10
46.64386010010035
 20
106.7368371405493
 30
0.0
 10
46.65595115533275
 20
106.808652343485
 30
0.0
 10
46.65723931419411
 20
106.8163511615885
 30
0.0
  0
SPLINE
  5
15E
330
138
100
AcDbEntity
  8
$DDT_AUDIT_GENERATED_(9F)
  6
Continuous
 62
     7
100
AcDbSpline
210
0.0
220
0.0
230
1.0
 70
     8
 71
     3
 72
    15
 73
    11
 74
     0
 42
0.0000000062815172
 43
0.0000000001
 40
0.0
 40
0.0
 40
0.0
 40
0.0
 40
0.0409134044610614
 40
0.3881185857352557
 40
0.6020028693363414
 40
0.7192011290563135
 40
0.7942481530017657
 40
0.8644521976987452
 40
0.9338604504059342
 40
1.0
 40
1.0
 40
1.0
 40
1.0
 10
6.924619821324917
 20
108.1531144468676
 30
0.0
 10
6.926676577962033
 20
108.1361394740872
 30
0.0
 10
6.943599673034289
 20
107.9975949337215
 30
0.0
 10
6.976480838334798
 20
107.8320561971276
 30
0.0
 10
7.028453052410816
 20
107.6398154327433
 30
0.0
 10
7.099275379447157
 20
107.478345715537
 30
0.0
 10
7.198497223825928
 20
107.3305423158508
 30
0.0
 10
7.343124922451066
 20
107.1891409794491
 30
0.0
 10
7.563908347574588
 20
107.0652787071765
 30
0.0
 10
7.72590853716637
 20
107.0479189413058
 30
0.0
 10
7.820142997870621
 20
107.0385624964572
 30
0.0
  0
SPLINE
  5
15F
330
138
100
AcDbEntity
  8
$DDT_AUDIT_GENERATED_(9F)
  6
Continuous
 62
     7
100
AcDbSpline
210
0.0
220
0.0
230
1.0
 70
     8
 71
     3
 72
    16
 73
    12
 74
     0
 42
0.000000007045311
 43
0.0000000001
 40
0.0
 40
0.0
 40
0.0
 40
0.0
 40
0.0026178684323388
 40
0.0919827309763579
 40
0.1726970520257794
 40
0.2523829954960563
 40
0.3386732464764642
 40
0.4426632187666061
 40
0.5820754350885458
 40
0.7908292765890328
 40
1.0
 40
1.0
 40
1.0
 40
1.0
 10
7.822797666474673
 20
158.6815052247574
 30
0.0
 10
7.819826486863746
 20
158.6819315432583
 30
0.0
 10
7.729799876589116
 20
158.6948215372189
 30
0.0
 10
7.539088161604229
 20
158.6368711046596
 30
0.0
 10
7.335425266033646
 20
158.5235969714101
 30
0.0
 10
7.199393727167768
 20
158.3881816013414
 30
0.0
 10
7.114268868612273
 20
158.2639040353784
 30
0.0
 10
7.056915257453417
 20
158.1470595729512
 30
0.0
 10
7.013380159506366
 20
158.024731164178
 30
0.0
 10
6.979464892485465
 20
157.8968396087701
 30
0.0
 10
6.962740743064161
 20
157.7983299757614
 30
0.0
 10
6.953578475641126
 20
157.7407992357334
 30
0.0
  0
LINE
  5
160
330
138
100
AcDbEntity
  8
$DDT_AUDIT_GENERATED_(FD)
  6
Continuous
 62
     7
100
AcDbLine
 10
121.0729888001
 20
179.3594940187
 30
0.0
 11
121.0729888001
 21
180.3594940187
 31
0.0
  0
LINE
  5
161
330
138
100
AcDbEntity
  8
$DDT_AUDIT_GENERATED_(FD)
  6
Continuous
 62
     7
100
AcDbLine
 10
100.0729888001
 20
180.3594940187
 30
0.0
 11
100.0729888001
 21
179.3594940187
 31
0.0
  0
LINE
  5
162
330
138
100
AcDbEntity
  8
$DDT_AUDIT_GENERATED_(FD)
  6
Continuous
 62
     7
100
AcDbLine
 10
271.0729888001
 20
179.3594940187
 30
0.0
 11
271.0729888001
 21
180.3594940187
 31
0.0
  0
LINE
  5
163
330
138
100
AcDbEntity
  8
$DDT_AUDIT_GENERATED_(FD)
  6
Continuous
 62
     7
100
AcDbLine
 10
250.0729888001
 20
180.3594940187
 30
0.0
 11
250.0729888001
 21
179.3594940187
 31
0.0
  0
LINE
  5
164
330
138
100
AcDbEntity
  8
$DDT_AUDIT_GENERATED_(104)
  6
Continuous
 62
     7
100
AcDbLine
 10
247.6603300265
 20
183.8594940187
 30
0.0
 11
245.5729888001
 21
183.8594940187
 31
0.0
  0
LINE
  5
165
330
138
100
AcDbEntity
  8
$DDT_AUDIT_GENERATED_(104)
  6
Continuous
 62
     7
100
AcDbLine
 10
246.0729888001
 20
180.3594940187
 30
0.0
 11
275.0729888001
 21
180.3594940187
 31
0.0
  0
LINE
  5
166
330
138
100
AcDbEntity
  8
$DDT_AUDIT_GENERATED_(104)
  6
Continuous
 62
     7
100
AcDbLine
 10
246.0729888001
 20
197.3594940187
 30
0.0
 11
275.0729888001
 21
197.3594940187
 31
0.0
  0
LINE
  5
167
330
138
100
AcDbEntity
  8
$DDT_AUDIT_GENERATED_(104)
  6
Continuous
 62
     7
100
AcDbLine
 10
247.6603300265
 20
193.8594940187
 30
0.0
 11
245.5729888001
 21
193.8594940187
 31
0.0
  0
LINE
  5
168
330
138
100
AcDbEntity
  8
$DDT_AUDIT_GENERATED_(104)
  6
Continuous
 62
     7
100
AcDbLine
 10
275.5729888001
 20
193.8594940187
 30
0.0
 11
273.4856475738
 21
193.8594940187
 31
0.0
  0
LINE
  5
169
330
138
100
AcDbEntity
  8
$DDT_AUDIT_GENERATED_(104)
  6
Continuous
 62
     7
100
AcDbLine
 10
262.6603300265
 20
193.8594940187
 30
0.0
 11
258.4856475738
 21
193.8594940187
 31
0.0
  0
ARC
  5
16A
330
138
100
AcDbEntity
  8
$DDT_AUDIT_GENERATED_(104)
  6
Continuous
 62
     7
100
AcDbCircle
 10
253.0729888001
 20
190.0809344995
 30
0.0
 40
6.601089837288625
100
AcDbArc
 50
34.9187681796
 51
145.0812318204
  0
ARC
  5
16B
330
138
100
AcDbEntity
  8
$DDT_AUDIT_GENERATED_(104)
  6
Continuous
 62
     7
100
AcDbCircle
 10
268.0729888001
 20
190.0809344995
 30
0.0
 40
6.601089837288628
100
AcDbArc
 50
34.9187681796
 51
145.0812318204
  0
LINE
  5
16C
330
138
100
AcDbEntity
  8
$DDT_AUDIT_GENERATED_(104)
  6
Continuous
 62
     7
100
AcDbLine
 10
275.5729888001
 20
193.8594940187
 30
0.0
 11
275.5729888001
 21
196.6552227478
 31
0.0
  0
LINE
  5
16D
330
138
100
AcDbEntity
  8
$DDT_AUDIT_GENERATED_(104)
  6
Continuous
 62
     7
100
AcDbLine
 10
245.5729888001
 20
193.8594940187
 30
0.0
 11
245.5729888001
 21
196.6552227478
 31
0.0
  0
LINE
  5
16E
330
138
100
AcDbEntity
  8
$DDT_AUDIT_GENERATED_(104)
  6
Continuous
 62
     7
100
AcDbLine
 10
275.5729888001
 20
183.8594940187
 30
0.0
 11
273.4856475738
 21
183.8594940187
 31
0.0
  0
LINE
  5
16F
330
138
100
AcDbEntity
  8
$DDT_AUDIT_GENERATED_(104)
  6
Continuous
 62
     7
100
AcDbLine
 10
262.6603300265
 20
183.8594940187
 30
0.0
 11
258.4856475738
 21
183.8594940187
 31
0.0
  0
LINE
  5
170
330
138
100
AcDbEntity
  8
$DDT_AUDIT_GENERATED_(104)
  6
Continuous
 62
     7
100
AcDbLine
 10
245.5729888001
 20
193.8594940187
 30
0.0
 11
245.5729888001
 21
183.8594940187
 31
0.0
  0
LINE
  5
171
330
138
100
AcDbEntity
  8
$DDT_AUDIT_GENERATED_(104)
  6
Continuous
 62
     7
100
AcDbLine
 10
245.5729888001
 20
181.0637652895
 30
0.0
 11
245.5729888001
 21
183.8594940187
 31
0.0
  0
LINE
  5
172
330
138
100
AcDbEntity
  8
$DDT_AUDIT_GENERATED_(104)
  6
Continuous
 62
     7
100
AcDbLine
 10
275.5729888001
 20
183.8594940187
 30
0.0
 11
275.5729888001
 21
181.0637652895
 31
0.0
  0
LINE
  5
173
330
138
100
AcDbEntity
  8
$DDT_AUDIT_GENERATED_(104)
  6
Continuous
 62
     7
100
AcDbLine
 10
275.5729888001
 20
183.8594940187
 30
0.0
 11
275.5729888001
 21
193.8594940187
 31
0.0
  0
LINE
  5
174
330
138
100
AcDbEntity
  8
$DDT_AUDIT_GENERATED_(104)
  6
Continuous
 62
     7
100
AcDbLine
 10
273.4856475738
 20
193.8594940187
 30
0.0
 11
273.4856475738
 21
183.8594940187
 31
0.0
  0
ARC
  5
175
330
138
100
AcDbEntity
  8
$DDT_AUDIT_GENERATED_(104)
  6
Continuous
 62
     7
100
AcDbCircle
 10
268.0729888001
 20
187.6380535378
 30
0.0
 40
6.6010898372886
100
AcDbArc
 50
214.9187681796
 51
325.0812318205
  0
LINE
  5
176
330
138
100
AcDbEntity
  8
$DDT_AUDIT_GENERATED_(104)
  6
Continuous
 62
     7
100
AcDbLine
 10
262.6603300265
 20
183.8594940187
 30
0.0
 11
262.6603300265
 21
193.8594940187
 31
0.0
  0
LINE
  5
177
330
138
100
AcDbEntity
  8
$DDT_AUDIT_GENERATED_(104)
  6
Continuous
 62
     7
100
AcDbLine
 10
258.4856475738
 20
193.8594940187
 30
0.0
 11
258.4856475738
 21
183.8594940187
 31
0.0
  0
ARC
  5
178
330
138
100
AcDbEntity
  8
$DDT_AUDIT_GENERATED_(104)
  6
Continuous
 62
     7
100
AcDbCircle
 10
253.0729888001
 20
187.6380535378
 30
0.0
 40
6.601089837288619
100
AcDbArc
 50
214.9187681796
 51
325.0812318204
  0
LINE
  5
179
330
138
100
AcDbEntity
  8
$DDT_AUDIT_GENERATED_(104)
  6
Continuous
 62
     7
100
AcDbLine
 10
247.6603300265
 20
183.8594940187
 30
0.0
 11
247.6603300265
 21
193.8594940187
 31
0.0
  0
ARC
  5
17A
330
138
100
AcDbEntity
  8
$DDT_AUDIT_GENERATED_(104)
  6
Continuous
 62
     7
100
AcDbCircle
 10
267.1765864037
 20
186.4951952169
 30
0.0
 40
10.0
100
AcDbArc
 50
322.1519040322
 51
327.1069806059
  0
ARC
  5
17B
330
138
100
AcDbEntity
  8
$DDT_AUDIT_GENERATED_(104)
  6
Continuous
 62
     7
100
AcDbCircle
 10
253.9693911966
 20
186.4951952169
 30
0.0
 40
9.999999999999993
100
AcDbArc
 50
212.8929680297
 51
217.8480959678
  0
ARC
  5
17C
330
138
100
AcDbEntity
  8
$DDT_AUDIT_GENERATED_(104)
  6
Continuous
 62
     7
100
AcDbCircle
 10
267.1765864037
 20
191.2237928204
 30
0.0
 40
9.999999999999988
100
AcDbArc
 50
32.8929680297
 51
37.8480959678
  0
ARC
  5
17D
330
138
100
AcDbEntity
  8
$DDT_AUDIT_GENERATED_(104)
  6
Continuous
 62
     7
100
AcDbCircle
 10
253.9693911966
 20
191.2237928204
 30
0.0
 40
10.0
100
AcDbArc
 50
142.1519040322
 51
147.1069806059
  0
LINE
  5
17E
330
138
100
AcDbEntity
  8
$DDT_AUDIT_GENERATED_(BB)
  6
Continuous
 62
     7
100
AcDbLine
 10
225.5729888001
 20
228.3594940187
 30
0.0
 11
295.5729888001
 21
228.3594940187
 31
0.0
  0
LINE
  5
17F
330
138
100
AcDbEntity
  8
$DDT_AUDIT_GENERATED_(BB)
  6
Continuous
 62
     7
100
AcDbLine
 10
225.5729888001
 20
228.3594940187
 30
0.0
 11
225.5729888001
 21
205.5765489547
 31
0.0
  0
LINE
  5
180
330
138
100
AcDbEntity
  8
$DDT_AUDIT_GENERATED_(BB)
  6
Continuous
 62
     7
100
AcDbLine
 10
295.5729888001
 20
205.5765489547
 30
0.0
 11
295.5729888001
 21
228.3594940187
 31
0.0
  0
ARC
  5
181
330
138
100
AcDbEntity
  8
$DDT_AUDIT_GENERATED_(BB)
  6
Continuous
 62
     7
100
AcDbCircle
 10
260.5729888001
 20
652.3594940187
 30
0.0
 40
450.0000000000001
100
AcDbArc
 50
271.6834648908
 51
274.2242740157
  0
ARC
  5
182
330
138
100
AcDbEntity
  8
$DDT_AUDIT_GENERATED_(BB)
  6
Continuous
 62
     7
100
AcDbCircle
 10
260.5729888001
 20
652.3594940187
 30
0.0
 40
450.0000000000002
100
AcDbArc
 50
265.7757259843
 51
268.3165351092
  0
ARC
  5
183
330
138
100
AcDbEntity
  8
$DDT_AUDIT_GENERATED_(BB)
  6
Continuous
 62
     7
100
AcDbCircle
 10
227.5729888001
 20
205.5765489547
 30
0.0
 40
2.000000000000002
100
AcDbArc
 50
180.0
 51
265.7757259844
  0
ARC
  5
184
330
138
100
AcDbEntity
  8
$DDT_AUDIT_GENERATED_(BB)
  6
Continuous
 62
     7
100
AcDbCircle
 10
293.5729888001
 20
205.5765489547
 30
0.0
 40
2.000000000000141
100
AcDbArc
 50
274.2242740156
 51
0.0
  0
LINE
  5
185
330
138
100
AcDbEntity
  8
$DDT_AUDIT_GENERATED_(BB)
  6
Continuous
 62
     7
100
AcDbLine
 10
247.5144888001
 20
202.549427757
 30
0.0
 11
273.6314888001
 21
202.549427757
 31
0.0
  0
LINE
  5
186
330
138
100
AcDbEntity
  8
$DDT_AUDIT_GENERATED_(104)
  6
Continuous
 62
     7
100
AcDbLine
 10
97.6603300265
 20
183.8594940187
 30
0.0
 11
95.5729888001
 21
183.8594940187
 31
0.0
  0
LINE
  5
187
330
138
100
AcDbEntity
  8
$DDT_AUDIT_GENERATED_(104)
  6
Continuous
 62
     7
100
AcDbLine
 10
96.0729888001
 20
180.3594940187
 30
0.0
 11
125.0729888001
 21
180.3594940187
 31
0.0
  0
LINE
  5
188
330
138
100
AcDbEntity
  8
$DDT_AUDIT_GENERATED_(104)
  6
Continuous
 62
     7
100
AcDbLine
 10
96.0729888001
 20
197.3594940187
 30
0.0
 11
125.0729888001
 21
197.3594940187
 31
0.0
  0
LINE
  5
189
330
138
100
AcDbEntity
  8
$DDT_AUDIT_GENERATED_(104)
  6
Continuous
 62
     7
100
AcDbLine
 10
97.6603300265
 20
193.8594940187
 30
0.0
 11
95.5729888001
 21
193.8594940187
 31
0.0
  0
LINE
  5
18A
330
138
100
AcDbEntity
  8
$DDT_AUDIT_GENERATED_(104)
  6
Continuous
 62
     7
100
AcDbLine
 10
125.5729888001
 20
193.8594940187
 30
0.0
 11
123.4856475738
 21
193.8594940187
 31
0.0
  0
LINE
  5
18B
330
138
100
AcDbEntity
  8
$DDT_AUDIT_GENERATED_(104)
  6
Continuous
 62
     7
100
AcDbLine
 10
112.6603300265
 20
193.8594940187
 30
0.0
 11
108.4856475738
 21
193.8594940187
 31
0.0
  0
ARC
  5
18C
330
138
100
AcDbEntity
  8
$DDT_AUDIT_GENERATED_(104)
  6
Continuous
 62
     7
100
AcDbCircle
 10
103.0729888001
 20
190.0809344995
 30
0.0
 40
6.601089837288616
100
AcDbArc
 50
34.9187681796
 51
145.0812318204
  0
ARC
  5
18D
330
138
100
AcDbEntity
  8
$DDT_AUDIT_GENERATED_(104)
  6
Continuous
 62
     7
100
AcDbCircle
 10
118.0729888001
 20
190.0809344995
 30
0.0
 40
6.601089837288617
100
AcDbArc
 50
34.9187681796
 51
145.0812318204
  0
LINE
  5
18E
330
138
100
AcDbEntity
  8
$DDT_AUDIT_GENERATED_(104)
  6
Continuous
 62
     7
100
AcDbLine
 10
125.5729888001
 20
193.8594940187
 30
0.0
 11
125.5729888001
 21
196.6552227478
 31
0.0
  0
LINE
  5
18F
330
138
100
AcDbEntity
  8
$DDT_AUDIT_GENERATED_(104)
  6
Continuous
 62
     7
100
AcDbLine
 10
95.5729888001
 20
193.8594940187
 30
0.0
 11
95.5729888001
 21
196.6552227478
 31
0.0
  0
LINE
  5
190
330
138
100
AcDbEntity
  8
$DDT_AUDIT_GENERATED_(104)
  6
Continuous
 62
     7
100
AcDbLine
 10
125.5729888001
 20
183.8594940187
 30
0.0
 11
123.4856475738
 21
183.8594940187
 31
0.0
  0
LINE
  5
191
330
138
100
AcDbEntity
  8
$DDT_AUDIT_GENERATED_(104)
  6
Continuous
 62
     7
100
AcDbLine
 10
112.6603300265
 20
183.8594940187
 30
0.0
 11
108.4856475738
 21
183.8594940187
 31
0.0
  0
LINE
  5
192
330
138
100
AcDbEntity
  8
$DDT_AUDIT_GENERATED_(104)
  6
Continuous
 62
     7
100
AcDbLine
 10
95.5729888001
 20
193.8594940187
 30
0.0
 11
95.5729888001
 21
183.8594940187
 31
0.0
  0
LINE
  5
193
330
138
100
AcDbEntity
  8
$DDT_AUDIT_GENERATED_(104)
  6
Continuous
 62
     7
100
AcDbLine
 10
95.5729888001
 20
183.8594940187
 30
0.0
 11
95.5729888001
 21
181.0637652895
 31
0.0
  0
LINE
  5
194
330
138
100
AcDbEntity
  8
$DDT_AUDIT_GENERATED_(104)
  6
Continuous
 62
     7
100
AcDbLine
 10
125.5729888001
 20
183.8594940187
 30
0.0
 11
125.5729888001
 21
181.0637652895
 31
0.0
  0
LINE
  5
195
330
138
100
AcDbEntity
  8
$DDT_AUDIT_GENERATED_(104)
  6
Continuous
 62
     7
100
AcDbLine
 10
125.5729888001
 20
183.8594940187
 30
0.0
 11
125.5729888001
 21
193.8594940187
 31
0.0
  0
LINE
  5
196
330
138
100
AcDbEntity
  8
$DDT_AUDIT_GENERATED_(104)
  6
Continuous
 62
     7
100
AcDbLine
 10
123.4856475738
 20
193.8594940187
 30
0.0
 11
123.4856475738
 21
183.8594940187
 31
0.0
  0
ARC
  5
197
330
138
100
AcDbEntity
  8
$DDT_AUDIT_GENERATED_(104)
  6
Continuous
 62
     7
100
AcDbCircle
 10
118.0729888001
 20
187.6380535378
 30
0.0
 40
6.601089837288602
100
AcDbArc
 50
214.9187681796
 51
325.0812318204
  0
LINE
  5
198
330
138
100
AcDbEntity
  8
$DDT_AUDIT_GENERATED_(104)
  6
Continuous
 62
     7
100
AcDbLine
 10
112.6603300265
 20
183.8594940187
 30
0.0
 11
112.6603300265
 21
193.8594940187
 31
0.0
  0
LINE
  5
199
330
138
100
AcDbEntity
  8
$DDT_AUDIT_GENERATED_(104)
  6
Continuous
 62
     7
100
AcDbLine
 10
108.4856475738
 20
193.8594940187
 30
0.0
 11
108.4856475738
 21
183.8594940187
 31
0.0
  0
ARC
  5
19A
330
138
100
AcDbEntity
  8
$DDT_AUDIT_GENERATED_(104)
  6
Continuous
 62
     7
100
AcDbCircle
 10
103.0729888001
 20
187.6380535378
 30
0.0
 40
6.601089837288611
100
AcDbArc
 50
214.9187681796
 51
325.0812318204
  0
LINE
  5
19B
330
138
100
AcDbEntity
  8
$DDT_AUDIT_GENERATED_(104)
  6
Continuous
 62
     7
100
AcDbLine
 10
97.6603300265
 20
183.8594940187
 30
0.0
 11
97.6603300265
 21
193.8594940187
 31
0.0
  0
ARC
  5
19C
330
138
100
AcDbEntity
  8
$DDT_AUDIT_GENERATED_(104)
  6
Continuous
 62
     7
100
AcDbCircle
 10
117.1765864037
 20
186.4951952169
 30
0.0
 40
9.999999999999995
100
AcDbArc
 50
322.1519040322
 51
327.1069806059
  0
ARC
  5
19D
330
138
100
AcDbEntity
  8
$DDT_AUDIT_GENERATED_(104)
  6
Continuous
 62
     7
100
AcDbCircle
 10
103.9693911966
 20
186.4951952169
 30
0.0
 40
9.999999999999993
100
AcDbArc
 50
212.8929680297
 51
217.8480959678
  0
ARC
  5
19E
330
138
100
AcDbEntity
  8
$DDT_AUDIT_GENERATED_(104)
  6
Continuous
 62
     7
100
AcDbCircle
 10
117.1765864037
 20
191.2237928204
 30
0.0
 40
9.999999999999993
100
AcDbArc
 50
32.8929680297
 51
37.8480959678
  0
ARC
  5
19F
330
138
100
AcDbEntity
  8
$DDT_AUDIT_GENERATED_(104)
  6
Continuous
 62
     7
100
AcDbCircle
 10
103.9693911966
 20
191.2237928204
 30
0.0
 40
9.999999999999995
100
AcDbArc
 50
142.1519040322
 51
147.1069806059
  0
LINE
  5
1A0
330
138
100
AcDbEntity
  8
$DDT_AUDIT_GENERATED_(BB)
  6
Continuous
 62
     7
100
AcDbLine
 10
145.5729888001
 20
227.8594940187
 30
0.0
 11
75.5729888001
 21
227.8594940187
 31
0.0
  0
LINE
  5
1A1
330
138
100
AcDbEntity
  8
$DDT_AUDIT_GENERATED_(BB)
  6
Continuous
 62
     7
100
AcDbLine
 10
75.5729888001
 20
227.8594940187
 30
0.0
 11
75.5729888001
 21
205.0765489547
 31
0.0
  0
LINE
  5
1A2
330
138
100
AcDbEntity
  8
$DDT_AUDIT_GENERATED_(BB)
  6
Continuous
 62
     7
100
AcDbLine
 10
145.5729888001
 20
205.0765489547
 30
0.0
 11
145.5729888001
 21
227.8594940187
 31
0.0
  0
ARC
  5
1A3
330
138
100
AcDbEntity
  8
$DDT_AUDIT_GENERATED_(BB)
  6
Continuous
 62
     7
100
AcDbCircle
 10
110.5729888001
 20
651.8594940187
 30
0.0
 40
450.0
100
AcDbArc
 50
271.6834648908
 51
274.2242740157
  0
ARC
  5
1A4
330
138
100
AcDbEntity
  8
$DDT_AUDIT_GENERATED_(BB)
  6
Continuous
 62
     7
100
AcDbCircle
 10
110.5729888001
 20
651.8594940187
 30
0.0
 40
450.0000000000001
100
AcDbArc
 50
265.7757259843
 51
268.3165351092
  0
ARC
  5
1A5
330
138
100
AcDbEntity
  8
$DDT_AUDIT_GENERATED_(BB)
  6
Continuous
 62
     7
100
AcDbCircle
 10
77.5729888001
 20
205.0765489547
 30
0.0
 40
2.000000000000002
100
AcDbArc
 50
180.0
 51
265.7757259844
  0
ARC
  5
1A6
330
138
100
AcDbEntity
  8
$DDT_AUDIT_GENERATED_(BB)
  6
Continuous
 62
     7
100
AcDbCircle
 10
143.5729888001
 20
205.0765489547
 30
0.0
 40
2.000000000000142
100
AcDbArc
 50
274.2242740156
 51
0.0
  0
LINE
  5
1A7
330
138
100
AcDbEntity
  8
$DDT_AUDIT_GENERATED_(BB)
  6
Continuous
 62
     7
100
AcDbLine
 10
97.5144888001
 20
202.049427757
 30
0.0
 11
123.6314888001
 21
202.049427757
 31
0.0
  0
LINE
  5
1A8
330
138
100
AcDbEntity
  8
$DDT_AUDIT_GENERATED_(C1)
  6
Continuous
 62
     7
100
AcDbLine
 10
73.1729888001
 20
158.8594940187
 30
0.0
 11
73.1729888001
 21
106.8594940187
 31
0.0
  0
ARC
  5
1A9
330
138
100
AcDbEntity
  8
$DDT_AUDIT_GENERATED_(C1)
  6
Continuous
 62
     7
100
AcDbCircle
 10
59.1729888001
 20
132.8594940187
 30
0.0
 40
26.0
100
AcDbArc
 50
90.0
 51
118.1448458642
  0
ARC
  5
1AA
330
138
100
AcDbEntity
  8
$DDT_AUDIT_GENERATED_(C1)
  6
Continuous
 62
     7
100
AcDbCircle
 10
59.1729888001
 20
132.8594940187
 30
0.0
 40
25.99999999999999
100
AcDbArc
 50
241.8551541358
 51
270.0
  0
LINE
  5
1AB
330
138
100
AcDbEntity
  8
$DDT_AUDIT_GENERATED_(C1)
  6
Continuous
 62
     7
100
AcDbLine
 10
59.1729888001
 20
106.8594940187
 30
0.0
 11
73.1729888001
 21
106.8594940187
 31
0.0
  0
LINE
  5
1AC
330
138
100
AcDbEntity
  8
$DDT_AUDIT_GENERATED_(C1)
  6
Continuous
 62
     7
100
AcDbLine
 10
73.1729888001
 20
158.8594940187
 30
0.0
 11
59.1729888001
 21
158.8594940187
 31
0.0
  0
LINE
  5
1AD
330
138
100
AcDbEntity
  8
$DDT_AUDIT_GENERATED_(C1)
  6
Continuous
 62
     7
100
AcDbLine
 10
73.1729888001
 20
106.8594940187
 30
0.0
 11
73.6729888001
 21
107.3594940187
 31
0.0
  0
LINE
  5
1AE
330
138
100
AcDbEntity
  8
$DDT_AUDIT_GENERATED_(C1)
  6
Continuous
 62
     7
100
AcDbLine
 10
73.6729888001
 20
158.3594940187
 30
0.0
 11
73.1729888001
 21
158.8594940187
 31
0.0
  0
ELLIPSE
  5
1AF
330
138
100
AcDbEntity
  8
$DDT_AUDIT_GENERATED_(12B)
  6
Continuous
 62
     7
100
AcDbEllipse
 10
260.5729888001
 20
202.6925092504
 30
0.0
 11
13.22000000000002
 21
4.248847104521535E-31
 31
0.0
210
0.0
220
0.0
230
1.0
 40
0.3939104756
 41
4.124426621247903
 42
5.300351339521471
  0
LINE
  5
1B0
330
138
100
AcDbEntity
  8
$DDT_AUDIT_GENERATED_(12B)
  6
Continuous
 62
     7
100
AcDbLine
 10
253.2402948886
 20
198.3594940187
 30
0.0
 11
253.2402948886
 21
203.1104003219
 31
0.0
  0
LINE
  5
1B1
330
138
100
AcDbEntity
  8
$DDT_AUDIT_GENERATED_(12B)
  6
Continuous
 62
     7
100
AcDbLine
 10
267.9056827117
 20
203.1104003219
 30
0.0
 11
267.9056827117
 21
198.3594940187
 31
0.0
  0
LINE
  5
1B2
330
138
100
AcDbEntity
  8
$DDT_AUDIT_GENERATED_(12B)
  6
Continuous
 62
     7
100
AcDbLine
 10
267.9056827117
 20
198.3594940187
 30
0.0
 11
253.2402948886
 21
198.3594940187
 31
0.0
  0
LINE
  5
1B3
330
138
100
AcDbEntity
  8
$DDT_AUDIT_GENERATED_(12B)
  6
Continuous
 62
     7
100
AcDbLine
 10
273.7929888001
 20
197.3594940187
 30
0.0
 11
273.7929888001
 21
202.5537230463
 31
0.0
  0
LINE
  5
1B4
330
138
100
AcDbEntity
  8
$DDT_AUDIT_GENERATED_(12B)
  6
Continuous
 62
     7
100
AcDbLine
 10
247.3529888001
 20
202.5537230463
 30
0.0
 11
247.3529888001
 21
197.3594940187
 31
0.0
  0
LINE
  5
1B5
330
138
100
AcDbEntity
  8
$DDT_AUDIT_GENERATED_(12B)
  6
Continuous
 62
     7
100
AcDbLine
 10
272.6229888001
 20
202.5537230463
 30
0.0
 11
272.6229888001
 21
197.3594940187
 31
0.0
  0
LINE
  5
1B6
330
138
100
AcDbEntity
  8
$DDT_AUDIT_GENERATED_(12B)
  6
Continuous
 62
     7
100
AcDbLine
 10
248.5229888001
 20
202.5537230463
 30
0.0
 11
248.5229888001
 21
197.3594940187
 31
0.0
  0
ELLIPSE
  5
1B7
330
138
100
AcDbEntity
  8
$DDT_AUDIT_GENERATED_(12B)
  6
Continuous
 62
     7
100
AcDbEllipse
 10
110.5729888001
 20
202.6925092504
 30
0.0
 11
-13.22000000000001
 21
-4.248847104521535E-31
 31
0.0
210
0.0
220
0.0
230
1.0
 40
0.3939104756
 41
0.982833967658115
 42
2.158758685931678
  0
LINE
  5
1B8
330
138
100
AcDbEntity
  8
$DDT_AUDIT_GENERATED_(12B)
  6
Continuous
 62
     7
100
AcDbLine
 10
117.9056827116
 20
198.3594940187
 30
0.0
 11
117.9056827116
 21
202.6104003219
 31
0.0
  0
LINE
  5
1B9
330
138
100
AcDbEntity
  8
$DDT_AUDIT_GENERATED_(12B)
  6
Continuous
 62
     7
100
AcDbLine
 10
103.2402948886
 20
202.6104003219
 30
0.0
 11
103.2402948886
 21
198.3594940187
 31
0.0
  0
LINE
  5
1BA
330
138
100
AcDbEntity
  8
$DDT_AUDIT_GENERATED_(12B)
  6
Continuous
 62
     7
100
AcDbLine
 10
103.2402948886
 20
198.3594940187
 30
0.0
 11
117.9056827116
 21
198.3594940187
 31
0.0
  0
LINE
  5
1BB
330
138
100
AcDbEntity
  8
$DDT_AUDIT_GENERATED_(12B)
  6
Continuous
 62
     7
100
AcDbLine
 10
123.7929888001
 20
197.3594940187
 30
0.0
 11
123.7929888001
 21
202.0537230463
 31
0.0
  0
LINE
  5
1BC
330
138
100
AcDbEntity
  8
$DDT_AUDIT_GENERATED_(12B)
  6
Continuous
 62
     7
100
AcDbLine
 10
97.3529888001
 20
202.0537230463
 30
0.0
 11
97.3529888001
 21
197.3594940187
 31
0.0
  0
LINE
  5
1BD
330
138
100
AcDbEntity
  8
$DDT_AUDIT_GENERATED_(12B)
  6
Continuous
 62
     7
100
AcDbLine
 10
122.6229888001
 20
202.0537230463
 30
0.0
 11
122.6229888001
 21
197.3594940187
 31
0.0
  0
LINE
  5
1BE
330
138
100
AcDbEntity
  8
$DDT_AUDIT_GENERATED_(12B)
  6
Continuous
 62
     7
100
AcDbLine
 10
98.5229888001
 20
202.0537230463
 30
0.0
 11
98.5229888001
 21
197.3594940187
 31
0.0
  0
ENDBLK
  5
1C0
330
138
100
AcDbEntity
  8
0
100
AcDbBlockEnd
  0
ENDSEC
  0
SECTION
  2
ENTITIES
  0
INSERT
  5
5F
330
1F
100
AcDbEntity
  8
Default
100
AcDbBlockReference
  2
SEANNOT_GROUP
 10
0.0
 20
0.0
 30
0.0
  0
INSERT
  5
6A
330
1F
100
AcDbEntity
  8
Default
100
AcDbBlockReference
  2
SEANNOT_GROUP1
 10
0.0
 20
0.0
 30
0.0
  0
INSERT
  5
74
330
1F
100
AcDbEntity
  8
Default
100
AcDbBlockReference
  2
SEANNOT_GROUP2
 10
0.0
 20
0.0
 30
0.0
  0
INSERT
  5
7A
330
1F
100
AcDbEntity
  8
Default
100
AcDbBlockReference
  2
SEANNOT_GROUP3
 10
0.0
 20
0.0
 30
0.0
  0
INSERT
  5
80
330
1F
100
AcDbEntity
  8
Default
100
AcDbBlockReference
  2
SEANNOT_GROUP4
 10
0.0
 20
0.0
 30
0.0
  0
INSERT
  5
86
330
1F
100
AcDbEntity
  8
Default
100
AcDbBlockReference
  2
SE
 10
0.0
 20
0.0
 30
0.0
  0
INSERT
  5
D1
330
1F
100
AcDbEntity
  8
Default
100
AcDbBlockReference
  2
SE1
 10
0.0
 20
0.0
 30
0.0
  0
INSERT
  5
139
330
1F
100
AcDbEntity
  8
Default
100
AcDbBlockReference
  2
SE2
 10
0.0
 20
0.0
 30
0.0
  0
TEXT
  5
1C2
330
1F
100
AcDbEntity
  8
Default
  6
Continuous
 62
     7
100
AcDbText
 10
5.9362635081
 20
53.4225120485
 30
0.0
 40
10.0
  1
Grohe AG^J
  7
SEACAD_seiso_ttf
 11
5.9362635081
 21
63.4225120485
 31
0.0
100
AcDbText
 73
     3
  0
TEXT
  5
1C3
330
1F
100
AcDbEntity
  8
Default
  6
Continuous
 62
     7
100
AcDbText
 10
5.9362635081
 20
37.0588756849
 30
0.0
 40
10.0
  1
 
  7
SEACAD_seiso_ttf
 11
5.9362635081
 21
47.0588756849
 31
0.0
100
AcDbText
 73
     3
  0
TEXT
  5
1C4
330
1F
100
AcDbEntity
  8
Default
  6
Continuous
 62
     7
100
AcDbText
 10
5.9362635081
 20
20.6952393213
 30
0.0
 40
10.0
  1
ecn: 
  7
SEACAD_seiso_ttf
 11
5.9362635081
 21
30.6952393213
 31
0.0
100
AcDbText
 73
     3
  0
TEXT
  5
1C5
330
1F
100
AcDbEntity
  8
Default
  6
Continuous
 62
     7
100
AcDbText
 10
5.9362635081
 20
4.3316029576
 30
0.0
 40
10.0
  1
unit: mm
  7
SEACAD_seiso_ttf
 11
5.9362635081
 21
14.3316029576
 31
0.0
100
AcDbText
 73
     3
  0
LINE
  5
1C6
330
1F
100
AcDbEntity
  8
Default
  6
Continuous
 62
     7
100
AcDbLine
 10
0.0
 20
0.0
 30
0.0
 11
100.0
 21
0.0
 31
0.0
  0
LINE
  5
1C7
330
1F
100
AcDbEntity
  8
Default
  6
Continuous
 62
     7
100
AcDbLine
 10
0.0
 20
0.0
 30
0.0
 11
0.0
 21
100.0
 31
0.0
  0
TEXT
  5
1C8
330
1F
100
AcDbEntity
  8
Default
  6
Continuous
 62
     7
100
AcDbText
 10
24.3923665681
 20
-18.2375342018
 30
0.0
 40
10.0
  1
100 mm
  7
SEACAD_seiso_ttf
 11
24.3923665681
 21
-8.2375342018
 31
0.0
100
AcDbText
 73
     3
  0
TEXT
  5
1C9
330
1F
100
AcDbEntity
  8
Default
  6
Continuous
 62
     7
100
AcDbText
 10
-7.6150308803
 20
24.6231930421
 30
0.0
 40
10.0
  1
100 mm
 50
90.0
  7
SEACAD_seiso_ttf
 11
-17.6150308803
 21
24.6231930421
 31
0.0
100
AcDbText
 73
     3
  0
TEXT
  5
1CA
330
1F
100
AcDbEntity
  8
Default
  6
Continuous
 62
     7
100
AcDbText
 10
28.4878128572
 20
20.0907663715
 30
0.0
 40
10.0
  1
211778
  7
SEACAD_seiso_ttf
 11
28.4878128572
 21
30.0907663715
 31
0.0
100
AcDbText
 73
     3
  0
TEXT
  5
1CB
330
1F
100
AcDbEntity
  8
Default
  6
Continuous
 62
     7
100
AcDbText
 10
5.9012241913
 20
36.7242780188
 30
0.0
 40
10.0
  1
33636000
  7
SEACAD_seiso_ttf
 11
5.9012241913
 21
46.7242780188
 31
0.0
100
AcDbText
 73
     3
  0
ENDSEC
  0
SECTION
  2
OBJECTS
  0
DICTIONARY
  5
C
330
0
100
AcDbDictionary
281
     1
  3
ACAD_GROUP
350
D
  3
ACAD_LAYOUT
350
1A
  3
ACAD_MLEADERSTYLE
350
1CF
  3
ACAD_MLINESTYLE
350
17
  3
ACAD_PLOTSETTINGS
350
19
  3
ACAD_PLOTSTYLENAME
350
E
  3
ACAD_SCALELIST
350
3B
  3
ACAD_TABLESTYLE
350
1CE
  3
ACAD_VISUALSTYLE
350
2A
  3
AcDbVariableDictionary
350
1CC
  0
DICTIONARY
  5
D
102
{ACAD_REACTORS
330
C
102
}
330
C
100
AcDbDictionary
281
     1
  0
DICTIONARY
  5
1A
102
{ACAD_REACTORS
330
C
102
}
330
C
100
AcDbDictionary
281
     1
  3
Layout1
350
1E
  3
Model
350
22
  0
DICTIONARY
  5
1CF
102
{ACAD_REACTORS
330
C
102
}
330
C
100
AcDbDictionary
281
     1
  0
DICTIONARY
  5
17
102
{ACAD_REACTORS
330
C
102
}
330
C
100
AcDbDictionary
281
     1
  3
Standard
350
18
  0
DICTIONARY
  5
19
102
{ACAD_REACTORS
330
C
102
}
330
C
100
AcDbDictionary
281
     1
  0
ACDBDICTIONARYWDFLT
  5
E
102
{ACAD_REACTORS
330
C
102
}
330
C
100
AcDbDictionary
281
     1
  3
Normal
350
F
100
AcDbDictionaryWithDefault
340
F
  0
DICTIONARY
  5
3B
102
{ACAD_REACTORS
330
C
102
}
330
C
100
AcDbDictionary
281
     1
  3
A0
350
3C
  3
A1
350
3D
  3
A2
350
3E
  3
A3
350
3F
  3
A4
350
40
  3
A5
350
41
  3
A6
350
42
  3
A7
350
43
  3
A8
350
44
  3
A9
350
45
  3
B0
350
46
  3
B1
350
47
  3
B2
350
48
  3
B3
350
49
  3
B4
350
4A
  3
B5
350
4B
  3
B6
350
4C
  3
B7
350
4D
  3
B8
350
4E
  3
B9
350
4F
  3
C0
350
50
  3
C1
350
51
  3
C2
350
52
  3
C3
350
53
  3
C4
350
54
  3
C5
350
55
  3
C6
350
56
  3
C7
350
57
  3
C8
350
58
  3
C9
350
59
  3
D0
350
5A
  3
D1
350
5B
  3
D2
350
5C
  0
DICTIONARY
  5
1CE
102
{ACAD_REACTORS
330
C
102
}
330
C
100
AcDbDictionary
281
     1
  0
DICTIONARY
  5
2A
102
{ACAD_REACTORS
330
C
102
}
330
C
100
AcDbDictionary
281
     1
  3
2dWireframe
350
2F
  3
3D Hidden
350
31
  3
3dWireframe
350
30
  3
Basic
350
32
  3
Brighten
350
36
  3
ColorChange
350
3A
  3
Conceptual
350
34
  3
Dim
350
35
  3
Facepattern
350
39
  3
Flat
350
2B
  3
FlatWithEdges
350
2C
  3
Gouraud
350
2D
  3
GouraudWithEdges
350
2E
  3
Linepattern
350
38
  3
Realistic
350
33
  3
Thicken
350
37
  0
DICTIONARY
  5
1CC
102
{ACAD_REACTORS
330
C
102
}
330
C
100
AcDbDictionary
281
     1
  3
CANNOSCALE
350
1CD
  3
PSOLHEIGHT
350
1D1
  3
PSOLWIDTH
350
1D0
  0
LAYOUT
  5
1E
102
{ACAD_REACTORS
330
1A
102
}
330
1A
100
AcDbPlotSettings
  1

  2
none_device
  4

  6

 40
0.0
 41
0.0
 42
0.0
 43
0.0
 44
0.0
 45
0.0
 46
0.0
 47
0.0
 48
0.0
 49
0.0
140
0.0
141
0.0
142
1.0
143
1.0
 70
   688
 72
     0
 73
     0
 74
     5
  7

 75
    16
147
1.0
148
0.0
149
0.0
100
AcDbLayout
  1
Layout1
 70
     1
 71
     1
 10
0.0
 20
0.0
 11
1682.0
 21
2378.0
 12
0.0
 22
0.0
 32
0.0
 14
0.0
 24
0.0
 34
0.0
 15
1682.0
 25
2378.0
 35
0.0
146
0.0
 13
0.0
 23
0.0
 33
0.0
 16
1.0
 26
0.0
 36
0.0
 17
0.0
 27
1.0
 37
0.0
 76
     0
330
1B
  0
LAYOUT
  5
22
102
{ACAD_REACTORS
330
1A
102
}
330
1A
100
AcDbPlotSettings
  1

  2
none_device
  4

  6

 40
0.0
 41
0.0
 42
0.0
 43
0.0
 44
0.0
 45
0.0
 46
0.0
 47
0.0
 48
0.0
 49
0.0
140
0.0
141
0.0
142
1.0
143
1.0
 70
  1712
 72
     0
 73
     0
 74
     0
  7

 75
     0
147
1.0
148
0.0
149
0.0
100
AcDbLayout
  1
Model
 70
     1
 71
     0
 10
0.0
 20
0.0
 11
1682.0
 21
2378.0
 12
0.0
 22
0.0
 32
0.0
 14
0.0
 24
0.0
 34
0.0
 15
1682.0
 25
2378.0
 35
0.0
146
0.0
 13
0.0
 23
0.0
 33
0.0
 16
1.0
 26
0.0
 36
0.0
 17
0.0
 27
1.0
 37
0.0
 76
     0
330
1F
331
29
  0
MLINESTYLE
  5
18
102
{ACAD_REACTORS
330
17
102
}
330
17
100
AcDbMlineStyle
  2
Standard
 70
     0
  3

 62
   256
 51
90.0
 52
90.0
 71
     2
 49
0.5
 62
   256
  6
BYLAYER
 49
-0.5
 62
   256
  6
BYLAYER
  0
ACDBPLACEHOLDER
  5
F
102
{ACAD_REACTORS
330
E
102
}
330
E
  0
SCALE
  5
3C
102
{ACAD_REACTORS
330
3B
102
}
330
3B
100
AcDbScale
 70
     0
300
1:1
140
1.0
141
1.0
290
     1
  0
SCALE
  5
3D
102
{ACAD_REACTORS
330
3B
102
}
330
3B
100
AcDbScale
 70
     0
300
1:2
140
1.0
141
2.0
290
     0
  0
SCALE
  5
3E
102
{ACAD_REACTORS
330
3B
102
}
330
3B
100
AcDbScale
 70
     0
300
1:4
140
1.0
141
4.0
290
     0
  0
SCALE
  5
3F
102
{ACAD_REACTORS
330
3B
102
}
330
3B
100
AcDbScale
 70
     0
300
1:5
140
1.0
141
5.0
290
     0
  0
SCALE
  5
40
102
{ACAD_REACTORS
330
3B
102
}
330
3B
100
AcDbScale
 70
     0
300
1:8
140
1.0
141
8.0
290
     0
  0
SCALE
  5
41
102
{ACAD_REACTORS
330
3B
102
}
330
3B
100
AcDbScale
 70
     0
300
1:10
140
1.0
141
10.0
290
     0
  0
SCALE
  5
42
102
{ACAD_REACTORS
330
3B
102
}
330
3B
100
AcDbScale
 70
     0
300
1:16
140
1.0
141
16.0
290
     0
  0
SCALE
  5
43
102
{ACAD_REACTORS
330
3B
102
}
330
3B
100
AcDbScale
 70
     0
300
1:20
140
1.0
141
20.0
290
     0
  0
SCALE
  5
44
102
{ACAD_REACTORS
330
3B
102
}
330
3B
100
AcDbScale
 70
     0
300
1:30
140
1.0
141
30.0
290
     0
  0
SCALE
  5
45
102
{ACAD_REACTORS
330
3B
102
}
330
3B
100
AcDbScale
 70
     0
300
1:40
140
1.0
141
40.0
290
     0
  0
SCALE
  5
46
102
{ACAD_REACTORS
330
3B
102
}
330
3B
100
AcDbScale
 70
     0
300
1:50
140
1.0
141
50.0
290
     0
  0
SCALE
  5
47
102
{ACAD_REACTORS
330
3B
102
}
330
3B
100
AcDbScale
 70
     0
300
1:100
140
1.0
141
100.0
290
     0
  0
SCALE
  5
48
102
{ACAD_REACTORS
330
3B
102
}
330
3B
100
AcDbScale
 70
     0
300
2:1
140
2.0
141
1.0
290
     0
  0
SCALE
  5
49
102
{ACAD_REACTORS
330
3B
102
}
330
3B
100
AcDbScale
 70
     0
300
4:1
140
4.0
141
1.0
290
     0
  0
SCALE
  5
4A
102
{ACAD_REACTORS
330
3B
102
}
330
3B
100
AcDbScale
 70
     0
300
8:1
140
8.0
141
1.0
290
     0
  0
SCALE
  5
4B
102
{ACAD_REACTORS
330
3B
102
}
330
3B
100
AcDbScale
 70
     0
300
10:1
140
10.0
141
1.0
290
     0
  0
SCALE
  5
4C
102
{ACAD_REACTORS
330
3B
102
}
330
3B
100
AcDbScale
 70
     0
300
100:1
140
100.0
141
1.0
290
     0
  0
SCALE
  5
4D
102
{ACAD_REACTORS
330
3B
102
}
330
3B
100
AcDbScale
 70
     0
300
1/128" = 1'-0"
140
0.0078125
141
12.0
290
     0
  0
SCALE
  5
4E
102
{ACAD_REACTORS
330
3B
102
}
330
3B
100
AcDbScale
 70
     0
300
1/64" = 1'-0"
140
0.015625
141
12.0
290
     0
  0
SCALE
  5
4F
102
{ACAD_REACTORS
330
3B
102
}
330
3B
100
AcDbScale
 70
     0
300
1/32" = 1'-0"
140
0.03125
141
12.0
290
     0
  0
SCALE
  5
50
102
{ACAD_REACTORS
330
3B
102
}
330
3B
100
AcDbScale
 70
     0
300
1/16" = 1'-0"
140
0.0625
141
12.0
290
     0
  0
SCALE
  5
51
102
{ACAD_REACTORS
330
3B
102
}
330
3B
100
AcDbScale
 70
     0
300
3/32" = 1'-0"
140
0.09375
141
12.0
290
     0
  0
SCALE
  5
52
102
{ACAD_REACTORS
330
3B
102
}
330
3B
100
AcDbScale
 70
     0
300
1/8" = 1'-0"
140
0.125
141
12.0
290
     0
  0
SCALE
  5
53
102
{ACAD_REACTORS
330
3B
102
}
330
3B
100
AcDbScale
 70
     0
300
3/16" = 1'-0"
140
0.1875
141
12.0
290
     0
  0
SCALE
  5
54
102
{ACAD_REACTORS
330
3B
102
}
330
3B
100
AcDbScale
 70
     0
300
1/4" = 1'-0"
140
0.25
141
12.0
290
     0
  0
SCALE
  5
55
102
{ACAD_REACTORS
330
3B
102
}
330
3B
100
AcDbScale
 70
     0
300
3/8" = 1'-0"
140
0.375
141
12.0
290
     0
  0
SCALE
  5
56
102
{ACAD_REACTORS
330
3B
102
}
330
3B
100
AcDbScale
 70
     0
300
1/2" = 1'-0"
140
0.5
141
12.0
290
     0
  0
SCALE
  5
57
102
{ACAD_REACTORS
330
3B
102
}
330
3B
100
AcDbScale
 70
     0
300
3/4" = 1'-0"
140
0.75
141
12.0
290
     0
  0
SCALE
  5
58
102
{ACAD_REACTORS
330
3B
102
}
330
3B
100
AcDbScale
 70
     0
300
1" = 1'-0"
140
1.0
141
12.0
290
     0
  0
SCALE
  5
59
102
{ACAD_REACTORS
330
3B
102
}
330
3B
100
AcDbScale
 70
     0
300
1-1/2" = 1'-0"
140
1.5
141
12.0
290
     0
  0
SCALE
  5
5A
102
{ACAD_REACTORS
330
3B
102
}
330
3B
100
AcDbScale
 70
     0
300
3" = 1'-0"
140
3.0
141
12.0
290
     0
  0
SCALE
  5
5B
102
{ACAD_REACTORS
330
3B
102
}
330
3B
100
AcDbScale
 70
     0
300
6" = 1'-0"
140
6.0
141
12.0
290
     0
  0
SCALE
  5
5C
102
{ACAD_REACTORS
330
3B
102
}
330
3B
100
AcDbScale
 70
     0
300
1'-0" = 1'-0"
140
12.0
141
12.0
290
     0
  0
VISUALSTYLE
  5
2F
102
{ACAD_REACTORS
330
2A
102
}
330
2A
100
AcDbVisualStyle
  2
2dWireframe
 70
     4
 71
     0
 72
     2
 73
     0
 90
        0
 40
-0.6
 41
-30.0
 62
     5
 63
     7
 74
     1
 91
        4
 64
     7
 65
   257
 75
     1
175
     1
 42
1.0
 92
        0
 66
   257
 43
1.0
 76
     1
 77
     6
 78
     2
 67
     7
 79
     5
170
     0
171
     0
290
     0
174
     0
 93
        1
 44
0.0
173
     0
291
     0
 45
0.0
1001
ACAD
1000
AcDbSavedByObjectVersion
1070
     0
  0
VISUALSTYLE
  5
31
102
{ACAD_REACTORS
330
2A
102
}
330
2A
100
AcDbVisualStyle
  2
3D Hidden
 70
     6
 71
     1
 72
     2
 73
     2
 90
        0
 40
-0.6
 41
-30.0
 62
     5
 63
     7
 74
     2
 91
        2
 64
     7
 65
   257
 75
     2
175
     1
 42
40.0
 92
        0
 66
   257
 43
1.0
 76
     1
 77
     6
 78
     2
 67
     7
 79
     3
170
     0
171
     0
290
     0
174
     0
 93
        1
 44
0.0
173
     0
291
     0
 45
0.0
1001
ACAD
1000
AcDbSavedByObjectVersion
1070
     0
  0
VISUALSTYLE
  5
30
102
{ACAD_REACTORS
330
2A
102
}
330
2A
100
AcDbVisualStyle
  2
3dWireframe
 70
     5
 71
     0
 72
     2
 73
     0
 90
        0
 40
-0.6
 41
-30.0
 62
     5
 63
     7
 74
     1
 91
        4
 64
     7
 65
   257
 75
     1
175
     1
 42
1.0
 92
        0
 66
   257
 43
1.0
 76
     1
 77
     6
 78
     2
 67
     7
 79
     5
170
     0
171
     0
290
     0
174
     0
 93
        1
 44
0.0
173
     0
291
     0
 45
0.0
1001
ACAD
1000
AcDbSavedByObjectVersion
1070
     0
  0
VISUALSTYLE
  5
32
102
{ACAD_REACTORS
330
2A
102
}
330
2A
100
AcDbVisualStyle
  2
Basic
 70
     7
 71
     1
 72
     0
 73
     1
 90
        0
 40
-0.6
 41
-30.0
 62
     5
 63
     7
 74
     0
 91
        4
 64
     7
 65
   257
 75
     1
175
     1
 42
1.0
 92
        8
 66
     7
 43
1.0
 76
     1
 77
     6
 78
     2
 67
     7
 79
     5
170
     0
171
     0
290
     0
174
     0
 93
        1
 44
0.0
173
     0
291
     1
 45
0.0
1001
ACAD
1000
AcDbSavedByObjectVersion
1070
     0
  0
VISUALSTYLE
  5
36
102
{ACAD_REACTORS
330
2A
102
}
330
2A
100
AcDbVisualStyle
  2
Brighten
 70
    12
 71
     2
 72
     2
 73
     0
 90
        0
 40
-0.6
 41
-30.0
 62
     5
 63
     7
 74
     1
 91
        4
 64
     7
 65
   257
 75
     1
175
     1
 42
1.0
 92
        8
 66
     7
 43
1.0
 76
     1
 77
     6
 78
     2
 67
     7
 79
     5
170
     0
171
     0
290
     0
174
     0
 93
        1
 44
50.0
173
     0
291
     1
 45
0.0
1001
ACAD
1000
AcDbSavedByObjectVersion
1070
     0
  0
VISUALSTYLE
  5
3A
102
{ACAD_REACTORS
330
2A
102
}
330
2A
100
AcDbVisualStyle
  2
ColorChange
 70
    16
 71
     2
 72
     2
 73
     3
 90
        0
 40
-0.6
 41
-30.0
 62
     5
 63
     8
 74
     1
 91
        4
 64
     7
 65
   257
 75
     1
175
     1
 42
1.0
 92
        8
 66
     8
 43
1.0
 76
     1
 77
     6
 78
     2
 67
     7
 79
     5
170
     0
171
     0
290
     0
174
     0
 93
        1
 44
0.0
173
     0
291
     1
 45
0.0
1001
ACAD
1000
AcDbSavedByObjectVersion
1070
     0
  0
VISUALSTYLE
  5
34
102
{ACAD_REACTORS
330
2A
102
}
330
2A
100
AcDbVisualStyle
  2
Conceptual
 70
     9
 71
     3
 72
     2
 73
     0
 90
        0
 40
-0.6
 41
-30.0
 62
     5
 63
     7
 74
     2
 91
        2
 64
     7
 65
   257
 75
     1
175
     1
 42
40.0
 92
        8
 66
     7
 43
1.0
 76
     1
 77
     6
 78
     2
 67
     7
 79
     3
170
     0
171
     0
290
     0
174
     0
 93
        1
 44
0.0
173
     0
291
     0
 45
0.0
1001
ACAD
1000
AcDbSavedByObjectVersion
1070
     0
  0
VISUALSTYLE
  5
35
102
{ACAD_REACTORS
330
2A
102
}
330
2A
100
AcDbVisualStyle
  2
Dim
 70
    11
 71
     2
 72
     2
 73
     0
 90
        0
 40
-0.6
 41
-30.0
 62
     5
 63
     7
 74
     1
 91
        4
 64
     7
 65
   257
 75
     1
175
     1
 42
1.0
 92
        8
 66
     7
 43
1.0
 76
     1
 77
     6
 78
     2
 67
     7
 79
     5
170
     0
171
     0
290
     0
174
     0
 93
        1
 44
-50.0
173
     0
291
     1
 45
0.0
1001
ACAD
1000
AcDbSavedByObjectVersion
1070
     0
  0
VISUALSTYLE
  5
39
102
{ACAD_REACTORS
330
2A
102
}
330
2A
100
AcDbVisualStyle
  2
Facepattern
 70
    15
 71
     2
 72
     2
 73
     0
 90
        0
 40
-0.6
 41
-30.0
 62
     5
 63
     7
 74
     1
 91
        4
 64
     7
 65
   257
 75
     1
175
     1
 42
1.0
 92
        8
 66
     7
 43
1.0
 76
     1
 77
     6
 78
     2
 67
     7
 79
     5
170
     0
171
     0
290
     0
174
     0
 93
        1
 44
0.0
173
     0
291
     1
 45
0.0
1001
ACAD
1000
AcDbSavedByObjectVersion
1070
     0
  0
VISUALSTYLE
  5
2B
102
{ACAD_REACTORS
330
2A
102
}
330
2A
100
AcDbVisualStyle
  2
Flat
 70
     0
 71
     2
 72
     1
 73
     1
 90
        2
 40
-0.6
 41
30.0
 62
     5
 63
     7
 74
     0
 91
        4
 64
     7
 65
   257
 75
     1
175
     1
 42
1.0
 92
        8
 66
     7
 43
1.0
 76
     1
 77
     6
 78
     2
 67
     7
 79
     5
170
     0
171
     0
290
     0
174
     0
 93
       13
 44
0.0
173
     0
291
     1
 45
0.0
1001
ACAD
1000
AcDbSavedByObjectVersion
1070
     0
  0
VISUALSTYLE
  5
2C
102
{ACAD_REACTORS
330
2A
102
}
330
2A
100
AcDbVisualStyle
  2
FlatWithEdges
 70
     1
 71
     2
 72
     1
 73
     1
 90
        2
 40
-0.6
 41
30.0
 62
     5
 63
     7
 74
     1
 91
        4
 64
     7
 65
   257
 75
     1
175
     1
 42
1.0
 92
        0
 66
   257
 43
1.0
 76
     1
 77
     6
 78
     2
 67
     7
 79
     5
170
     0
171
     0
290
     0
174
     0
 93
       13
 44
0.0
173
     0
291
     1
 45
0.0
1001
ACAD
1000
AcDbSavedByObjectVersion
1070
     0
  0
VISUALSTYLE
  5
2D
102
{ACAD_REACTORS
330
2A
102
}
330
2A
100
AcDbVisualStyle
  2
Gouraud
 70
     2
 71
     2
 72
     2
 73
     1
 90
        2
 40
-0.6
 41
30.0
 62
     5
 63
     7
 74
     0
 91
        4
 64
     7
 65
   257
 75
     1
175
     1
 42
1.0
 92
        0
 66
     7
 43
1.0
 76
     1
 77
     6
 78
     2
 67
     7
 79
     5
170
     0
171
     0
290
     0
174
     0
 93
       13
 44
0.0
173
     0
291
     1
 45
0.0
1001
ACAD
1000
AcDbSavedByObjectVersion
1070
     0
  0
VISUALSTYLE
  5
2E
102
{ACAD_REACTORS
330
2A
102
}
330
2A
100
AcDbVisualStyle
  2
GouraudWithEdges
 70
     3
 71
     2
 72
     2
 73
     1
 90
        2
 40
-0.6
 41
30.0
 62
     5
 63
     7
 74
     1
 91
        4
 64
     7
 65
   257
 75
     1
175
     1
 42
1.0
 92
        0
 66
   257
 43
1.0
 76
     1
 77
     6
 78
     2
 67
     7
 79
     5
170
     0
171
     0
290
     0
174
     0
 93
       13
 44
0.0
173
     0
291
     1
 45
0.0
1001
ACAD
1000
AcDbSavedByObjectVersion
1070
     0
  0
VISUALSTYLE
  5
38
102
{ACAD_REACTORS
330
2A
102
}
330
2A
100
AcDbVisualStyle
  2
Linepattern
 70
    14
 71
     2
 72
     2
 73
     0
 90
        0
 40
-0.6
 41
-30.0
 62
     5
 63
     7
 74
     1
 91
        4
 64
     7
 65
   257
 75
     7
175
     7
 42
1.0
 92
        8
 66
     7
 43
1.0
 76
     1
 77
     6
 78
     2
 67
     7
 79
     5
170
     0
171
     0
290
     0
174
     0
 93
        1
 44
0.0
173
     0
291
     1
 45
0.0
1001
ACAD
1000
AcDbSavedByObjectVersion
1070
     0
  0
VISUALSTYLE
  5
33
102
{ACAD_REACTORS
330
2A
102
}
330
2A
100
AcDbVisualStyle
  2
Realistic
 70
     8
 71
     2
 72
     2
 73
     0
 90
        0
 40
-0.6
 41
-30.0
 62
     5
 63
     7
 74
     1
 91
        0
 64
     7
 65
   257
 75
     1
175
     1
 42
1.0
 92
        8
 66
     8
 43
1.0
 76
     1
 77
     6
 78
     2
 67
     7
 79
     5
170
     0
171
     0
290
     0
174
     0
 93
       13
 44
0.0
173
     0
291
     0
 45
0.0
1001
ACAD
1000
AcDbSavedByObjectVersion
1070
     0
  0
VISUALSTYLE
  5
37
102
{ACAD_REACTORS
330
2A
102
}
330
2A
100
AcDbVisualStyle
  2
Thicken
 70
    13
 71
     2
 72
     2
 73
     0
 90
        0
 40
-0.6
 41
-30.0
 62
     5
 63
     7
 74
     1
 91
        4
 64
     7
 65
   257
 75
     1
175
     1
 42
1.0
 92
       12
 66
     7
 43
1.0
 76
     1
 77
     6
 78
     2
 67
     7
 79
     5
170
     0
171
     0
290
     0
174
     0
 93
        1
 44
0.0
173
     0
291
     1
 45
0.0
1001
ACAD
1000
AcDbSavedByObjectVersion
1070
     0
  0
DICTIONARYVAR
  5
1CD
102
{ACAD_REACTORS
330
1CC
102
}
330
1CC
100
DictionaryVariables
280
     0
  1
1:1
  0
DICTIONARYVAR
  5
1D1
102
{ACAD_REACTORS
330
1CC
102
}
330
1CC
100
DictionaryVariables
280
     0
  1
80.000000
  0
DICTIONARYVAR
  5
1D0
102
{ACAD_REACTORS
330
1CC
102
}
330
1CC
100
DictionaryVariables
280
     0
  1
5.000000
  0
ENDSEC
  0
EOF
