  0
SECTION
  2
HEADER
  9
$ACADVER
  1
AC1015
  9
$ACADMAINTVER
 70
     6
  9
$DWGCODEPAGE
  3
ANSI_1252
  9
$INSBASE
 10
0.0
 20
0.0
 30
0.0
  9
$EXTMIN
 10
0.0
 20
0.0
 30
0.0
  9
$EXTMAX
 10
1682.0
 20
2378.0
 30
0.0
  9
$LIMMIN
 10
0.0
 20
0.0
  9
$LIMMAX
 10
1682.0
 20
2378.0
  9
$ORTHOMODE
 70
     0
  9
$REGENMODE
 70
     1
  9
$FILLMODE
 70
     1
  9
$QTEXTMODE
 70
     0
  9
$MIRRTEXT
 70
     1
  9
$LTSCALE
 40
1.0
  9
$ATTMODE
 70
     1
  9
$TEXTSIZE
 40
2.5
  9
$TRACEWID
 40
1.0
  9
$TEXTSTYLE
  7
Standard
  9
$CLAYER
  8
0
  9
$CELTYPE
  6
ByLayer
  9
$CECOLOR
 62
   256
  9
$CELTSCALE
 40
1.0
  9
$DISPSILH
 70
     0
  9
$DIMSCALE
 40
1.0
  9
$DIMASZ
 40
2.5
  9
$DIMEXO
 40
0.625
  9
$DIMDLI
 40
3.75
  9
$DIMRND
 40
0.0
  9
$DIMDLE
 40
0.0
  9
$DIMEXE
 40
1.25
  9
$DIMTP
 40
0.0
  9
$DIMTM
 40
0.0
  9
$DIMTXT
 40
2.5
  9
$DIMCEN
 40
2.5
  9
$DIMTSZ
 40
0.0
  9
$DIMTOL
 70
     0
  9
$DIMLIM
 70
     0
  9
$DIMTIH
 70
     0
  9
$DIMTOH
 70
     0
  9
$DIMSE1
 70
     0
  9
$DIMSE2
 70
     0
  9
$DIMTAD
 70
     1
  9
$DIMZIN
 70
     8
  9
$DIMBLK
  1

  9
$DIMASO
 70
     1
  9
$DIMSHO
 70
     1
  9
$DIMPOST
  1

  9
$DIMAPOST
  1

  9
$DIMALT
 70
     0
  9
$DIMALTD
 70
     3
  9
$DIMALTF
 40
0.0393700787
  9
$DIMLFAC
 40
1.0
  9
$DIMTOFL
 70
     1
  9
$DIMTVP
 40
0.0
  9
$DIMTIX
 70
     0
  9
$DIMSOXD
 70
     0
  9
$DIMSAH
 70
     0
  9
$DIMBLK1
  1

  9
$DIMBLK2
  1

  9
$DIMSTYLE
  2
ISO-25
  9
$DIMCLRD
 70
     0
  9
$DIMCLRE
 70
     0
  9
$DIMCLRT
 70
     0
  9
$DIMTFAC
 40
1.0
  9
$DIMGAP
 40
0.625
  9
$DIMJUST
 70
     0
  9
$DIMSD1
 70
     0
  9
$DIMSD2
 70
     0
  9
$DIMTOLJ
 70
     0
  9
$DIMTZIN
 70
     8
  9
$DIMALTZ
 70
     0
  9
$DIMALTTZ
 70
     0
  9
$DIMUPT
 70
     0
  9
$DIMDEC
 70
     2
  9
$DIMTDEC
 70
     2
  9
$DIMALTU
 70
     2
  9
$DIMALTTD
 70
     3
  9
$DIMTXSTY
  7
Standard
  9
$DIMAUNIT
 70
     0
  9
$DIMADEC
 70
     0
  9
$DIMALTRND
 40
0.0
  9
$DIMAZIN
 70
     0
  9
$DIMDSEP
 70
    44
  9
$DIMATFIT
 70
     3
  9
$DIMFRAC
 70
     0
  9
$DIMLDRBLK
  1

  9
$DIMLUNIT
 70
     2
  9
$DIMLWD
 70
    -2
  9
$DIMLWE
 70
    -2
  9
$DIMTMOVE
 70
     0
  9
$LUNITS
 70
     2
  9
$LUPREC
 70
     4
  9
$SKETCHINC
 40
1.0
  9
$FILLETRAD
 40
10.0
  9
$AUNITS
 70
     0
  9
$AUPREC
 70
     0
  9
$MENU
  1
.
  9
$ELEVATION
 40
0.0
  9
$PELEVATION
 40
0.0
  9
$THICKNESS
 40
0.0
  9
$LIMCHECK
 70
     0
  9
$CHAMFERA
 40
10.0
  9
$CHAMFERB
 40
10.0
  9
$CHAMFERC
 40
20.0
  9
$CHAMFERD
 40
0.0
  9
$SKPOLY
 70
     0
  9
$TDCREATE
 40
2455510.451478322
  9
$TDUCREATE
 40
2455510.409811655
  9
$TDUPDATE
 40
2455510.451478333
  9
$TDUUPDATE
 40
2455510.409811667
  9
$TDINDWG
 40
0.0000000116
  9
$TDUSRTIMER
 40
0.0000000116
  9
$USRTIMER
 70
     1
  9
$ANGBASE
 50
0.0
  9
$ANGDIR
 70
     0
  9
$PDMODE
 70
     0
  9
$PDSIZE
 40
0.0
  9
$PLINEWID
 40
0.0
  9
$SPLFRAME
 70
     0
  9
$SPLINETYPE
 70
     6
  9
$SPLINESEGS
 70
     8
  9
$HANDSEED
  5
4DB
  9
$SURFTAB1
 70
     6
  9
$SURFTAB2
 70
     6
  9
$SURFTYPE
 70
     6
  9
$SURFU
 70
     6
  9
$SURFV
 70
     6
  9
$UCSBASE
  2

  9
$UCSNAME
  2

  9
$UCSORG
 10
0.0
 20
0.0
 30
0.0
  9
$UCSXDIR
 10
1.0
 20
0.0
 30
0.0
  9
$UCSYDIR
 10
0.0
 20
1.0
 30
0.0
  9
$UCSORTHOREF
  2

  9
$UCSORTHOVIEW
 70
     0
  9
$UCSORGTOP
 10
0.0
 20
0.0
 30
0.0
  9
$UCSORGBOTTOM
 10
0.0
 20
0.0
 30
0.0
  9
$UCSORGLEFT
 10
0.0
 20
0.0
 30
0.0
  9
$UCSORGRIGHT
 10
0.0
 20
0.0
 30
0.0
  9
$UCSORGFRONT
 10
0.0
 20
0.0
 30
0.0
  9
$UCSORGBACK
 10
0.0
 20
0.0
 30
0.0
  9
$PUCSBASE
  2

  9
$PUCSNAME
  2

  9
$PUCSORG
 10
0.0
 20
0.0
 30
0.0
  9
$PUCSXDIR
 10
1.0
 20
0.0
 30
0.0
  9
$PUCSYDIR
 10
0.0
 20
1.0
 30
0.0
  9
$PUCSORTHOREF
  2

  9
$PUCSORTHOVIEW
 70
     0
  9
$PUCSORGTOP
 10
0.0
 20
0.0
 30
0.0
  9
$PUCSORGBOTTOM
 10
0.0
 20
0.0
 30
0.0
  9
$PUCSORGLEFT
 10
0.0
 20
0.0
 30
0.0
  9
$PUCSORGRIGHT
 10
0.0
 20
0.0
 30
0.0
  9
$PUCSORGFRONT
 10
0.0
 20
0.0
 30
0.0
  9
$PUCSORGBACK
 10
0.0
 20
0.0
 30
0.0
  9
$USERI1
 70
     0
  9
$USERI2
 70
     0
  9
$USERI3
 70
     0
  9
$USERI4
 70
     0
  9
$USERI5
 70
     0
  9
$USERR1
 40
0.0
  9
$USERR2
 40
0.0
  9
$USERR3
 40
0.0
  9
$USERR4
 40
0.0
  9
$USERR5
 40
0.0
  9
$WORLDVIEW
 70
     1
  9
$SHADEDGE
 70
     3
  9
$SHADEDIF
 70
    70
  9
$TILEMODE
 70
     1
  9
$MAXACTVP
 70
    64
  9
$PINSBASE
 10
0.0
 20
0.0
 30
0.0
  9
$PLIMCHECK
 70
     0
  9
$PEXTMIN
 10
0.0
 20
0.0
 30
0.0
  9
$PEXTMAX
 10
1682.0
 20
2378.0
 30
0.0
  9
$PLIMMIN
 10
0.0
 20
0.0
  9
$PLIMMAX
 10
1682.0
 20
2378.0
  9
$UNITMODE
 70
     0
  9
$VISRETAIN
 70
     1
  9
$PLINEGEN
 70
     0
  9
$PSLTSCALE
 70
     1
  9
$TREEDEPTH
 70
  3020
  9
$CMLSTYLE
  2
Standard
  9
$CMLJUST
 70
     0
  9
$CMLSCALE
 40
20.0
  9
$PROXYGRAPHICS
 70
     1
  9
$MEASUREMENT
 70
     1
  9
$CELWEIGHT
370
    -1
  9
$ENDCAPS
280
     0
  9
$JOINSTYLE
280
     0
  9
$LWDISPLAY
290
     0
  9
$INSUNITS
 70
     4
  9
$HYPERLINKBASE
  1

  9
$STYLESHEET
  1

  9
$XEDIT
290
     1
  9
$CEPSNTYPE
380
     0
  9
$PSTYLEMODE
290
     1
  9
$FINGERPRINTGUID
  2
{C5CACBDE-9E7A-4B9A-AA03-CF380FE17796}
  9
$VERSIONGUID
  2
{FAEB1C32-E019-11D5-929B-00C0DF256EC4}
  9
$EXTNAMES
290
     1
  9
$PSVPSCALE
 40
0.0
  9
$OLESTARTUP
290
     0
  0
ENDSEC
  0
SECTION
  2
CLASSES
  0
CLASS
  1
ACDBDICTIONARYWDFLT
  2
AcDbDictionaryWithDefault
  3
ObjectDBX Classes
 90
        0
280
     0
281
     0
  0
CLASS
  1
VISUALSTYLE
  2
AcDbVisualStyle
  3
ObjectDBX Classes
 90
     4095
280
     0
281
     0
  0
CLASS
  1
SCALE
  2
AcDbScale
  3
ObjectDBX Classes
 90
     1153
280
     0
281
     0
  0
CLASS
  1
DICTIONARYVAR
  2
AcDbDictionaryVar
  3
ObjectDBX Classes
 90
        0
280
     0
281
     0
  0
CLASS
  1
ACDBPLACEHOLDER
  2
AcDbPlaceHolder
  3
ObjectDBX Classes
 90
        0
280
     0
281
     0
  0
CLASS
  1
LAYOUT
  2
AcDbLayout
  3
ObjectDBX Classes
 90
        0
280
     0
281
     0
  0
ENDSEC
  0
SECTION
  2
TABLES
  0
TABLE
  2
VPORT
  5
8
330
0
100
AcDbSymbolTable
 70
     1
  0
VPORT
  5
29
330
8
100
AcDbSymbolTableRecord
100
AcDbViewportTableRecord
  2
*Active
 70
     0
 10
0.0
 20
0.0
 11
1.0
 21
1.0
 12
344.1869158879
 22
148.5
 13
0.0
 23
0.0
 14
10.0
 24
10.0
 15
10.0
 25
10.0
 16
0.0
 26
0.0
 36
1.0
 17
0.0
 27
0.0
 37
0.0
 40
297.0
 41
1.9729729729
 42
50.0
 43
0.0
 44
0.0
 50
0.0
 51
0.0
 71
     0
 72
   100
 73
     1
 74
     3
 75
     0
 76
     0
 77
     0
 78
     0
281
     0
 65
     1
110
0.0
120
0.0
130
0.0
111
1.0
121
0.0
131
0.0
112
0.0
122
1.0
132
0.0
 79
     0
146
0.0
  0
ENDTAB
  0
TABLE
  2
LTYPE
  5
5
330
0
100
AcDbSymbolTable
 70
     2
  0
LTYPE
  5
14
330
5
100
AcDbSymbolTableRecord
100
AcDbLinetypeTableRecord
  2
ByBlock
 70
     0
  3

 72
    65
 73
     0
 40
0.0
  0
LTYPE
  5
15
330
5
100
AcDbSymbolTableRecord
100
AcDbLinetypeTableRecord
  2
ByLayer
 70
     0
  3

 72
    65
 73
     0
 40
0.0
  0
LTYPE
  5
16
330
5
100
AcDbSymbolTableRecord
100
AcDbLinetypeTableRecord
  2
Continuous
 70
     0
  3
Solid line
 72
    65
 73
     0
 40
0.0
  0
LTYPE
  5
60
330
5
100
AcDbSymbolTableRecord
100
AcDbLinetypeTableRecord
  2
CENTER2
 70
     0
  3
Center (.5x) ___ _ ___ _ ___ _ ___ _ ___ _ ___
 72
    65
 73
     4
 40
28.575
 49
19.05
 74
     4
 75
     0
340
0
 46
0.0
 50
0.0
 44
0.0
 45
0.0
 49
-3.175
 74
     4
 75
     0
340
0
 46
0.0
 50
0.0
 44
0.0
 45
0.0
 49
3.175
 74
     4
 75
     0
340
0
 46
0.0
 50
0.0
 44
0.0
 45
0.0
 49
-3.175
 74
     4
 75
     0
340
0
 46
0.0
 50
0.0
 44
0.0
 45
0.0
  0
ENDTAB
  0
TABLE
  2
LAYER
  5
2
330
0
100
AcDbSymbolTable
 70
    13
  0
LAYER
  5
10
330
2
100
AcDbSymbolTableRecord
100
AcDbLayerTableRecord
  2
0
 70
     0
 62
     7
  6
Continuous
370
    -3
390
F
  0
LAYER
  5
5D
330
2
100
AcDbSymbolTableRecord
100
AcDbLayerTableRecord
  2
Default
 70
     0
 62
     7
  6
Continuous
370
    -3
390
F
  0
LAYER
  5
77
330
2
100
AcDbSymbolTableRecord
100
AcDbLayerTableRecord
  2
$DDT_AUDIT_GENERATED_(77)
 70
     0
 62
     7
  6
Continuous
370
    -3
390
F
  0
LAYER
  5
80
330
2
100
AcDbSymbolTableRecord
100
AcDbLayerTableRecord
  2
$DDT_AUDIT_GENERATED_(80)
 70
     0
 62
     7
  6
Continuous
370
    -3
390
F
  0
LAYER
  5
85
330
2
100
AcDbSymbolTableRecord
100
AcDbLayerTableRecord
  2
$DDT_AUDIT_GENERATED_(85)
 70
     0
 62
     7
  6
Continuous
370
    -3
390
F
  0
LAYER
  5
87
330
2
100
AcDbSymbolTableRecord
100
AcDbLayerTableRecord
  2
$DDT_AUDIT_GENERATED_(87)
 70
     0
 62
     7
  6
Continuous
370
    -3
390
F
  0
LAYER
  5
B5
330
2
100
AcDbSymbolTableRecord
100
AcDbLayerTableRecord
  2
04352_GEH_USE_00
 70
     0
 62
     7
  6
Continuous
370
    -3
390
F
  0
LAYER
  5
B9
330
2
100
AcDbSymbolTableRecord
100
AcDbLayerTableRecord
  2
03031031_RING_00
 70
     0
 62
     7
  6
Continuous
370
    -3
390
F
  0
LAYER
  5
DB
330
2
100
AcDbSymbolTableRecord
100
AcDbLayerTableRecord
  2
01543031_KUGELGE
 70
     0
 62
     7
  6
Continuous
370
    -3
390
F
  0
LAYER
  5
11D
330
2
100
AcDbSymbolTableRecord
100
AcDbLayerTableRecord
  2
02636038_GEHÄUSE
 70
     0
 62
     7
  6
Continuous
370
    -3
390
F
  0
LAYER
  5
12A
330
2
100
AcDbSymbolTableRecord
100
AcDbLayerTableRecord
  2
$DDT_AUDIT_GENERATED_(12A)
 70
     0
 62
     7
  6
Continuous
370
    -3
390
F
  0
LAYER
  5
154
330
2
100
AcDbSymbolTableRecord
100
AcDbLayerTableRecord
  2
$DDT_AUDIT_GENERATED_(154)
 70
     0
 62
     7
  6
Continuous
370
    -3
390
F
  0
LAYER
  5
446
330
2
100
AcDbSymbolTableRecord
100
AcDbLayerTableRecord
  2
$DDT_AUDIT_GENERATED_(446)
 70
     0
 62
     7
  6
Continuous
370
    -3
390
F
  0
ENDTAB
  0
TABLE
  2
STYLE
  5
3
330
0
100
AcDbSymbolTable
 70
     2
  0
STYLE
  5
11
330
3
100
AcDbSymbolTableRecord
100
AcDbTextStyleTableRecord
  2
Standard
 70
     0
 40
0.0
 41
1.0
 50
0.0
 71
     0
 42
2.5
  3
txt
  4

  0
STYLE
  5
4CA
330
3
100
AcDbSymbolTableRecord
100
AcDbTextStyleTableRecord
  2
SEACAD_seiso_ttf
 70
     0
 40
0.0
 41
1.0
 50
0.0
 71
     0
 42
0.2
  3
seiso.ttf
  4

  0
ENDTAB
  0
TABLE
  2
VIEW
  5
6
330
0
100
AcDbSymbolTable
 70
     0
  0
ENDTAB
  0
TABLE
  2
UCS
  5
7
330
0
100
AcDbSymbolTable
 70
     0
  0
ENDTAB
  0
TABLE
  2
APPID
  5
9
330
0
100
AcDbSymbolTable
 70
     1
  0
APPID
  5
12
330
9
100
AcDbSymbolTableRecord
100
AcDbRegAppTableRecord
  2
ACAD
 70
     0
  0
ENDTAB
  0
TABLE
  2
DIMSTYLE
  5
A
330
0
100
AcDbSymbolTable
 70
     1
100
AcDbDimStyleTable
  0
DIMSTYLE
105
27
330
A
100
AcDbSymbolTableRecord
100
AcDbDimStyleTableRecord
  2
ISO-25
 70
     0
 41
2.5
 42
0.625
 43
3.75
 44
1.25
 73
     0
 74
     0
 77
     1
 78
     8
140
2.5
141
2.5
143
0.0393700787
147
0.625
171
     3
172
     1
271
     2
272
     2
274
     3
278
    44
283
     0
284
     8
340
11
  0
ENDTAB
  0
TABLE
  2
BLOCK_RECORD
  5
1
330
0
100
AcDbSymbolTable
 70
     7
  0
BLOCK_RECORD
  5
1F
330
1
100
AcDbSymbolTableRecord
100
AcDbBlockTableRecord
  2
*Model_Space
340
22
  0
BLOCK_RECORD
  5
1B
330
1
100
AcDbSymbolTableRecord
100
AcDbBlockTableRecord
  2
*Paper_Space
340
1E
  0
BLOCK_RECORD
  5
5E
330
1
100
AcDbSymbolTableRecord
100
AcDbBlockTableRecord
  2
SEANNOT_GROUP
340
0
102
{BLKREFS
331
5F
102
}
  0
BLOCK_RECORD
  5
65
330
1
100
AcDbSymbolTableRecord
100
AcDbBlockTableRecord
  2
SEANNOT_GROUP1
340
0
102
{BLKREFS
331
66
102
}
  0
BLOCK_RECORD
  5
6B
330
1
100
AcDbSymbolTableRecord
100
AcDbBlockTableRecord
  2
SEANNOT_GROUP2
340
0
102
{BLKREFS
331
6C
102
}
  0
BLOCK_RECORD
  5
75
330
1
100
AcDbSymbolTableRecord
100
AcDbBlockTableRecord
  2
SE
340
0
102
{BLKREFS
331
76
102
}
  0
BLOCK_RECORD
  5
3FD
330
1
100
AcDbSymbolTableRecord
100
AcDbBlockTableRecord
  2
SE1
340
0
102
{BLKREFS
331
3FE
102
}
  0
BLOCK_RECORD
  5
46B
330
1
100
AcDbSymbolTableRecord
100
AcDbBlockTableRecord
  2
SE2
340
0
102
{BLKREFS
331
46C
102
}
  0
ENDTAB
  0
ENDSEC
  0
SECTION
  2
BLOCKS
  0
BLOCK
  5
20
330
1F
100
AcDbEntity
  8
0
100
AcDbBlockBegin
  2
*Model_Space
 70
     0
 10
0.0
 20
0.0
 30
0.0
  3
*Model_Space
  1

  0
ENDBLK
  5
21
330
1F
100
AcDbEntity
  8
0
100
AcDbBlockEnd
  0
BLOCK
  5
1C
330
1B
100
AcDbEntity
 67
     1
  8
0
100
AcDbBlockBegin
  2
*Paper_Space
 70
     0
 10
0.0
 20
0.0
 30
0.0
  3
*Paper_Space
  1

  0
ENDBLK
  5
1D
330
1B
100
AcDbEntity
 67
     1
  8
0
100
AcDbBlockEnd
  0
BLOCK
  5
63
330
5E
100
AcDbEntity
  8
0
100
AcDbBlockBegin
  2
SEANNOT_GROUP
 70
     0
 10
0.0
 20
0.0
 30
0.0
  3
SEANNOT_GROUP
  1

  0
LINE
  5
61
330
5E
100
AcDbEntity
  8
Default
  6
CENTER2
 62
     7
100
AcDbLine
 10
79.292296329
 20
322.0464317874
 30
0.0
 11
39.2922972231
 21
322.0464317874
 31
0.0
  0
LINE
  5
62
330
5E
100
AcDbEntity
  8
Default
  6
CENTER2
 62
     7
100
AcDbLine
 10
59.292296776
 20
342.0464313403
 30
0.0
 11
59.292296776
 21
302.0464322344
 31
0.0
  0
ENDBLK
  5
64
330
5E
100
AcDbEntity
  8
0
100
AcDbBlockEnd
  0
BLOCK
  5
69
330
65
100
AcDbEntity
  8
0
100
AcDbBlockBegin
  2
SEANNOT_GROUP1
 70
     0
 10
0.0
 20
0.0
 30
0.0
  3
SEANNOT_GROUP1
  1

  0
LINE
  5
67
330
65
100
AcDbEntity
  8
Default
  6
CENTER2
 62
     7
100
AcDbLine
 10
235.5731322089
 20
322.0464317874
 30
0.0
 11
195.573133103
 21
322.0464317874
 31
0.0
  0
LINE
  5
68
330
65
100
AcDbEntity
  8
Default
  6
CENTER2
 62
     7
100
AcDbLine
 10
215.573132656
 20
342.0464313403
 30
0.0
 11
215.573132656
 21
302.0464322344
 31
0.0
  0
ENDBLK
  5
6A
330
65
100
AcDbEntity
  8
0
100
AcDbBlockEnd
  0
BLOCK
  5
73
330
6B
100
AcDbEntity
  8
0
100
AcDbBlockBegin
  2
SEANNOT_GROUP2
 70
     0
 10
0.0
 20
0.0
 30
0.0
  3
SEANNOT_GROUP2
  1

  0
LINE
  5
6D
330
6B
100
AcDbEntity
  8
Default
  6
CENTER2
 62
     7
100
AcDbLine
 10
79.292296329
 20
215.2063697392
 30
0.0
 11
39.2922972231
 21
215.2063697392
 31
0.0
  0
LINE
  5
6E
330
6B
100
AcDbEntity
  8
Default
  6
CENTER2
 62
     7
100
AcDbLine
 10
59.292296776
 20
235.2063692922
 30
0.0
 11
59.292296776
 21
195.2063701863
 31
0.0
  0
LINE
  5
6F
330
6B
100
AcDbEntity
  8
Default
  6
CENTER2
 62
     7
100
AcDbLine
 10
84.2922962172
 20
215.2063697392
 30
0.0
 11
89.3869688667
 21
215.2063697392
 31
0.0
  0
LINE
  5
70
330
6B
100
AcDbEntity
  8
Default
  6
CENTER2
 62
     7
100
AcDbLine
 10
59.292296776
 20
240.2063691804
 30
0.0
 11
59.292296776
 21
245.3010418299
 31
0.0
  0
LINE
  5
71
330
6B
100
AcDbEntity
  8
Default
  6
CENTER2
 62
     7
100
AcDbLine
 10
34.2922973348
 20
215.2063697392
 30
0.0
 11
29.1976246854
 21
215.2063697392
 31
0.0
  0
LINE
  5
72
330
6B
100
AcDbEntity
  8
Default
  6
CENTER2
 62
     7
100
AcDbLine
 10
59.292296776
 20
190.206370298
 30
0.0
 11
59.292296776
 21
185.1116976486
 31
0.0
  0
ENDBLK
  5
74
330
6B
100
AcDbEntity
  8
0
100
AcDbBlockEnd
  0
BLOCK
  5
3FB
330
75
100
AcDbEntity
  8
0
100
AcDbBlockBegin
  2
SE
 70
     0
 10
0.0
 20
0.0
 30
0.0
  3
SE
  1

  0
CIRCLE
  5
78
330
75
100
AcDbEntity
  8
$DDT_AUDIT_GENERATED_(77)
  6
Continuous
 62
     7
100
AcDbCircle
 10
59.292296776
 20
399.5464317874
 30
0.0
 40
13.5
  0
SPLINE
  5
79
330
75
100
AcDbEntity
  8
$DDT_AUDIT_GENERATED_(77)
  6
Continuous
 62
     7
100
AcDbSpline
210
0.0
220
0.0
230
1.0
 70
    11
 71
     3
 72
    56
 73
    52
 74
     0
 42
0.0000000000930508
 43
0.0000000001
 40
0.0
 40
0.0
 40
0.0
 40
0.0
 40
0.0312499999999999
 40
0.0312499999999999
 40
0.0624999999999997
 40
0.0624999999999997
 40
0.0937499999999996
 40
0.0937499999999996
 40
0.1249999999999996
 40
0.1249999999999996
 40
0.1874999999999994
 40
0.1874999999999994
 40
0.2499999999999993
 40
0.2499999999999993
 40
0.2812499999999993
 40
0.2812499999999993
 40
0.3124999999999993
 40
0.3124999999999993
 40
0.3437499999999993
 40
0.3437499999999993
 40
0.3749999999999994
 40
0.3749999999999994
 40
0.4062499999999994
 40
0.4062499999999994
 40
0.4374999999999994
 40
0.4374999999999994
 40
0.4687499999999994
 40
0.4687499999999994
 40
0.4999999999999994
 40
0.4999999999999994
 40
0.5624999999999993
 40
0.5624999999999993
 40
0.5937499999999993
 40
0.5937499999999993
 40
0.6249999999999993
 40
0.6249999999999993
 40
0.6874999999999994
 40
0.6874999999999994
 40
0.7499999999999997
 40
0.7499999999999997
 40
0.8124999999999998
 40
0.8124999999999998
 40
0.8437499999999999
 40
0.8437499999999999
 40
0.875
 40
0.875
 40
0.9062500000000001
 40
0.9062500000000001
 40
0.9375
 40
0.9375
 40
1.0
 40
1.0
 40
1.0
 40
1.0
 10
59.29229677601804
 20
381.0464317873705
 30
0.0
 10
58.13879502063248
 20
381.0464317873705
 30
0.0
 10
57.01595564606891
 20
381.197798613287
 30
0.0
 10
54.82614677772884
 20
381.7789676541666
 30
0.0
 10
53.77203281262861
 20
382.2096398394559
 30
0.0
 10
51.82399064164252
 20
383.2800649395741
 30
0.0
 10
50.91053914964984
 20
383.9305852132187
 30
0.0
 10
49.26898152057645
 20
385.3723726553845
 30
0.0
 10
48.52965348847748
 20
386.1685575804914
 30
0.0
 10
46.52542790261182
 20
388.7719320497093
 30
0.0
 10
45.51347301128204
 20
390.7381525844374
 30
0.0
 10
44.12886506085784
 20
395.0058219071074
 30
0.0
 10
43.77811414057507
 20
397.2357394737896
 30
0.0
 10
43.77520637884455
 20
400.673794763757
 30
0.0
 10
43.86276946438458
 20
401.8026329638132
 30
0.0
 10
44.20845020181652
 20
404.0280936368172
 30
0.0
 10
44.47010680486906
 20
405.1346613400028
 30
0.0
 10
45.15765866659213
 20
407.2620881576366
 30
0.0
 10
45.58028426793094
 20
408.2799536673781
 30
0.0
 10
46.5886622705025
 20
410.2301315202746
 30
0.0
 10
47.18050416645674
 20
411.1686430748298
 30
0.0
 10
48.50447402561254
 20
412.8947036468329
 30
0.0
 10
49.23864836306153
 20
413.6897760649023
 30
0.0
 10
50.87476999437717
 20
415.1347741097815
 30
0.0
 10
51.78779025911555
 20
415.7889294899546
 30
0.0
 10
53.7301061543232
 20
416.8640063010018
 30
0.0
 10
54.78003312885197
 20
417.2975064993397
 30
0.0
 10
56.97233122915191
 20
417.8874717036073
 30
0.0
 10
58.09200639843423
 20
418.0414308437162
 30
0.0
 10
61.5263683179317
 20
418.0560785902405
 30
0.0
 10
63.80113560290825
 20
417.4327315896269
 30
0.0
 10
66.7327843897522
 20
415.8311395220302
 30
0.0
 10
67.64909898083255
 20
415.1815467770328
 30
0.0
 10
69.2973706074838
 20
413.7390938920527
 30
0.0
 10
70.03849050765598
 20
412.9430852614089
 30
0.0
 10
72.04579739281964
 20
410.3433831370721
 30
0.0
 10
73.06129043270383
 20
408.378659001746
 30
0.0
 10
74.45441710741416
 20
404.0973835584572
 30
0.0
 10
74.8055611125191
 20
401.8761724413631
 30
0.0
 10
74.8112567596145
 20
397.2712557225692
 30
0.0
 10
74.45955146284747
 20
395.024438943256
 30
0.0
 10
73.42436136337695
 20
391.8235466928251
 30
0.0
 10
73.00040674038318
 20
390.8041024207755
 30
0.0
 10
71.99039052792905
 20
388.8532882821382
 30
0.0
 10
71.39744813467046
 20
387.9140320953099
 30
0.0
 10
70.0681850522666
 20
386.1841526894563
 30
0.0
 10
69.33190800467807
 20
385.3889130578947
 30
0.0
 10
67.69424683250195
 20
383.946141798504
 30
0.0
 10
66.77945119899377
 20
383.2922494541151
 30
0.0
 10
63.85512233250488
 20
381.6799344421367
 30
0.0
 10
61.59930028678919
 20
381.0464317873705
 30
0.0
 10
59.29229677601804
 20
381.0464317873705
 30
0.0
  0
LINE
  5
7A
330
75
100
AcDbEntity
  8
$DDT_AUDIT_GENERATED_(77)
  6
Continuous
 62
     7
100
AcDbLine
 10
85.292296776
 20
322.0464317874
 30
0.0
 11
33.292296776
 21
322.0464317874
 31
0.0
  0
LINE
  5
7B
330
75
100
AcDbEntity
  8
$DDT_AUDIT_GENERATED_(77)
  6
Continuous
 62
     7
100
AcDbLine
 10
83.7920265038
 20
444.0464317874
 30
0.0
 11
34.7925670483
 21
444.0464317874
 31
0.0
  0
LINE
  5
7C
330
75
100
AcDbEntity
  8
$DDT_AUDIT_GENERATED_(77)
  6
Continuous
 62
     7
100
AcDbLine
 10
33.292296776
 20
436.4464317874
 30
0.0
 11
33.292296776
 21
322.0464317874
 31
0.0
  0
LINE
  5
7D
330
75
100
AcDbEntity
  8
$DDT_AUDIT_GENERATED_(77)
  6
Continuous
 62
     7
100
AcDbLine
 10
85.292296776
 20
322.0464317874
 30
0.0
 11
85.292296776
 21
436.4464317874
 31
0.0
  0
ARC
  5
7E
330
75
100
AcDbEntity
  8
$DDT_AUDIT_GENERATED_(77)
  6
Continuous
 62
     7
100
AcDbCircle
 10
65.292296776
 20
436.4464317874
 30
0.0
 40
20.0
100
AcDbArc
 50
0.0
 51
22.3336826578
  0
ARC
  5
7F
330
75
100
AcDbEntity
  8
$DDT_AUDIT_GENERATED_(77)
  6
Continuous
 62
     7
100
AcDbCircle
 10
53.292296776
 20
436.4464317874
 30
0.0
 40
20.0
100
AcDbArc
 50
157.6663173422
 51
180.0
  0
ARC
  5
81
330
75
100
AcDbEntity
  8
$DDT_AUDIT_GENERATED_(80)
  6
Continuous
 62
     7
100
AcDbCircle
 10
59.292296776
 20
434.2464317874
 30
0.0
 40
26.3
100
AcDbArc
 50
156.7550890484
 51
157.1411943503
  0
ARC
  5
82
330
75
100
AcDbEntity
  8
$DDT_AUDIT_GENERATED_(80)
  6
Continuous
 62
     7
100
AcDbCircle
 10
59.292296776
 20
434.2464317874
 30
0.0
 40
26.3
100
AcDbArc
 50
22.8588056497
 51
23.2449109516
  0
ARC
  5
83
330
75
100
AcDbEntity
  8
$DDT_AUDIT_GENERATED_(80)
  6
Continuous
 62
     7
100
AcDbCircle
 10
35.3342083715
 20
444.3464317874
 30
0.0
 40
0.300000000000001
100
AcDbArc
 50
157.1411943503
 51
270.0
  0
ARC
  5
84
330
75
100
AcDbEntity
  8
$DDT_AUDIT_GENERATED_(80)
  6
Continuous
 62
     7
100
AcDbCircle
 10
83.2503851806
 20
444.3464317874
 30
0.0
 40
0.2999999999999999
100
AcDbArc
 50
270.0
 51
22.8588056497
  0
ELLIPSE
  5
86
330
75
100
AcDbEntity
  8
$DDT_AUDIT_GENERATED_(85)
  6
Continuous
 62
     7
100
AcDbEllipse
 10
59.292296776
 20
456.377056664
 30
0.0
 11
-1.709549426867927E-11
 21
3.361917017516197
 31
0.0
210
0.0
220
0.0
230
1.0
 40
0.996455291
 41
0.0
 42
6.283185307179586
  0
ARC
  5
88
330
75
100
AcDbEntity
  8
$DDT_AUDIT_GENERATED_(87)
  6
Continuous
 62
     7
100
AcDbCircle
 10
59.292219648
 20
468.6259578699
 30
0.0
 40
6.999874992811499
100
AcDbArc
 50
179.9993499063
 51
270.0006313714
  0
ARC
  5
89
330
75
100
AcDbEntity
  8
$DDT_AUDIT_GENERATED_(87)
  6
Continuous
 62
     7
100
AcDbCircle
 10
59.2922190605
 20
468.6261404945
 30
0.0
 40
6.999874405629345
100
AcDbArc
 50
89.9993639896
 51
180.0008447355
  0
ARC
  5
8A
330
75
100
AcDbEntity
  8
$DDT_AUDIT_GENERATED_(87)
  6
Continuous
 62
     7
100
AcDbCircle
 10
59.292373904
 20
468.6261399072
 30
0.0
 40
6.9998749928927
100
AcDbArc
 50
359.9993499069
 51
90.0006314233
  0
ARC
  5
8B
330
75
100
AcDbEntity
  8
$DDT_AUDIT_GENERATED_(87)
  6
Continuous
 62
     7
100
AcDbCircle
 10
59.2923744915
 20
468.6259572827
 30
0.0
 40
6.999874405642077
100
AcDbArc
 50
269.999363937
 51
0.0008447354
  0
ARC
  5
8C
330
75
100
AcDbEntity
  8
$DDT_AUDIT_GENERATED_(87)
  6
Continuous
 62
     7
100
AcDbCircle
 10
66.0434421319
 20
411.065768597
 30
0.0
 40
57.56082962410859
100
AcDbArc
 50
89.7523381437
 51
90.2503180254
  0
ARC
  5
8D
330
75
100
AcDbEntity
  8
$DDT_AUDIT_GENERATED_(87)
  6
Continuous
 62
     7
100
AcDbCircle
 10
52.5411514203
 20
526.1863234782
 30
0.0
 40
57.56082392213516
100
AcDbArc
 50
269.7523381191
 51
270.2503180501
  0
LINE
  5
8E
330
75
100
AcDbEntity
  8
$DDT_AUDIT_GENERATED_(87)
  6
Continuous
 62
     7
100
AcDbLine
 10
52.792626616
 20
468.6260488887
 30
0.0
 11
65.791966936
 21
468.6260488885
 31
0.0
  0
ARC
  5
8F
330
75
100
AcDbEntity
  8
$DDT_AUDIT_GENERATED_(87)
  6
Continuous
 62
     7
100
AcDbCircle
 10
87.5446847818
 20
475.451684802
 30
0.0
 40
28.04252311730669
100
AcDbArc
 50
177.742207708
 51
179.6502027376
  0
ARC
  5
90
330
75
100
AcDbEntity
  8
$DDT_AUDIT_GENERATED_(87)
  6
Continuous
 62
     7
100
AcDbCircle
 10
27.2553890134
 20
475.3655568272
 30
0.0
 40
31.82756055750345
100
AcDbArc
 50
0.4632484161
 51
2.1443210697
  0
ARC
  5
91
330
75
100
AcDbEntity
  8
$DDT_AUDIT_GENERATED_(87)
  6
Continuous
 62
     7
100
AcDbCircle
 10
34.422294137
 20
475.4536239692
 30
0.0
 40
24.63190634217828
100
AcDbArc
 50
0.3916099051
 51
2.5636860621
  0
ARC
  5
92
330
75
100
AcDbEntity
  8
$DDT_AUDIT_GENERATED_(87)
  6
Continuous
 62
     7
100
AcDbCircle
 10
59.4377416336
 20
468.7098428232
 30
0.0
 40
7.856173973814667
100
AcDbArc
 50
92.9783418312
 51
180.4511534332
  0
SPLINE
  5
93
330
75
100
AcDbEntity
  8
$DDT_AUDIT_GENERATED_(87)
  6
Continuous
 62
     7
100
AcDbSpline
210
0.0
220
0.0
230
1.0
 70
     8
 71
     3
 72
     8
 73
     4
 74
     0
 42
0.0000000925529652
 43
0.0000000001
 40
0.0002689631958124
 40
0.0002689631958124
 40
0.0002689631958124
 40
0.0002689631958124
 40
0.0392909769264258
 40
0.0392909769264258
 40
0.0392909769264258
 40
0.0392909769264258
 10
52.29228893827425
 20
468.6340573396525
 30
0.0
 10
52.29153278219081
 20
468.6355301374354
 30
0.0
 10
52.29077629985098
 20
468.6366150273276
 30
0.0
 10
52.28985915665555
 20
468.6374466190377
 30
0.0
  0
ARC
  5
94
330
75
100
AcDbEntity
  8
$DDT_AUDIT_GENERATED_(87)
  6
Continuous
 62
     7
100
AcDbCircle
 10
33.3152641701
 20
461.7747550695
 30
0.0
 40
25.7366830211211
100
AcDbArc
 50
357.4718590452
 51
359.6781639638
  0
ARC
  5
95
330
75
100
AcDbEntity
  8
$DDT_AUDIT_GENERATED_(87)
  6
Continuous
 62
     7
100
AcDbCircle
 10
34.8369902238
 20
461.6576057777
 30
0.0
 40
24.24433028199992
100
AcDbArc
 50
357.5906586176
 51
359.9329392448
  0
ARC
  5
96
330
75
100
AcDbEntity
  8
$DDT_AUDIT_GENERATED_(87)
  6
Continuous
 62
     7
100
AcDbCircle
 10
87.5869828255
 20
461.740591289
 30
0.0
 40
28.08391396668071
100
AcDbArc
 50
180.2271969306
 51
182.2492073894
  0
ARC
  5
97
330
75
100
AcDbEntity
  8
$DDT_AUDIT_GENERATED_(87)
  6
Continuous
 62
     7
100
AcDbCircle
 10
81.2461826241
 20
461.6748526905
 30
0.0
 40
21.71317617864482
100
AcDbArc
 50
180.1178531225
 51
180.1603027251
  0
ARC
  5
98
330
75
100
AcDbEntity
  8
$DDT_AUDIT_GENERATED_(87)
  6
Continuous
 62
     7
100
AcDbCircle
 10
81.2461826241
 20
461.6748526905
 30
0.0
 40
21.71317617864482
100
AcDbArc
 50
180.1835121107
 51
182.7330577684
  0
SPLINE
  5
99
330
75
100
AcDbEntity
  8
$DDT_AUDIT_GENERATED_(87)
  6
Continuous
 62
     7
100
AcDbSpline
210
0.0
220
0.0
230
1.0
 70
     8
 71
     3
 72
     8
 73
     4
 74
     0
 42
0.0000001294926437
 43
0.0000000001
 40
0.0003551283659432
 40
0.0003551283659432
 40
0.0003551283659432
 40
0.0003551283659432
 40
0.0406814074715743
 40
0.0406814074715743
 40
0.0406814074715743
 40
0.0406814074715743
 10
66.29228625454512
 20
468.6306273092641
 30
0.0
 10
66.29226771870913
 20
468.6295822659565
 30
0.0
 10
66.29267560204654
 20
468.6287130427759
 30
0.0
 10
66.29351724181069
 20
468.6279911808325
 30
0.0
  0
ARC
  5
9A
330
75
100
AcDbEntity
  8
$DDT_AUDIT_GENERATED_(87)
  6
Continuous
 62
     7
100
AcDbCircle
 10
88.2495373514
 20
475.3481468754
 30
0.0
 40
28.71987439960145
100
AcDbArc
 50
177.5908264547
 51
179.4537004855
  0
LINE
  5
9B
330
75
100
AcDbEntity
  8
$DDT_AUDIT_GENERATED_(87)
  6
Continuous
 62
     7
100
AcDbLine
 10
67.0035074649
 20
468.6262002345
 30
0.0
 11
80.7385807032
 21
468.6260488922
 31
0.0
  0
ARC
  5
9C
330
75
100
AcDbEntity
  8
$DDT_AUDIT_GENERATED_(87)
  6
Continuous
 62
     7
100
AcDbCircle
 10
4597.2574082136
 20
540.126283432
 30
0.0
 40
4517.084746027618
100
AcDbArc
 50
180.7199372817
 51
180.9069638925
  0
SPLINE
  5
9D
330
75
100
AcDbEntity
  8
$DDT_AUDIT_GENERATED_(87)
  6
Continuous
 62
     7
100
AcDbSpline
210
0.0
220
0.0
230
1.0
 70
    12
 71
     3
 72
    13
 73
     9
 74
     0
 42
0.0000000014614959
 43
0.0000000001
 40
0.0
 40
0.0
 40
0.0
 40
0.0
 40
0.1310255521898
 40
0.2639642465216
 40
0.3969029408533
 40
0.6627803295167
 40
0.9286577181801
 40
1.0
 40
1.0
 40
1.0
 40
1.0
 10
59.51952629049261
 20
483.3987429764114
 30
0.0
 41
1.0
 10
59.51955887407701
 20
483.1472851195914
 30
0.0
 41
1.0
 10
59.51971508263771
 20
482.6125918759514
 30
0.0
 41
1.0
 10
59.52011526184851
 20
481.7489428728014
 30
0.0
 41
1.0
 10
59.5208485190979
 20
480.5510453717914
 30
0.0
 41
1.0
 10
59.52202536188961
 20
479.0112237698614
 30
0.0
 41
1.0
 10
59.5231934759456
 20
477.5598293420114
 30
0.0
 41
1.0
 10
59.52380487588771
 20
476.7322515779913
 30
0.0
 41
1.0
 10
59.52393142239385
 20
476.5564399579749
 30
0.0
 41
1.0
  0
SPLINE
  5
9E
330
75
100
AcDbEntity
  8
$DDT_AUDIT_GENERATED_(87)
  6
Continuous
 62
     7
100
AcDbSpline
210
0.0
220
0.0
230
1.0
 70
    12
 71
     3
 72
    13
 73
     9
 74
     0
 42
0.0000000014614959
 43
0.0000000001
 40
0.0
 40
0.0
 40
0.0
 40
0.0
 40
0.1310255521898
 40
0.2639642465215
 40
0.3969029408532
 40
0.6627803295167
 40
0.9286577181801
 40
1.0
 40
1.0
 40
1.0
 40
1.0
 10
59.06506725618581
 20
483.3987430100113
 30
0.0
 41
1.0
 10
59.06503467260141
 20
483.1472851532014
 30
0.0
 41
1.0
 10
59.06487847191801
 20
482.6125918601414
 30
0.0
 41
1.0
 10
59.06447828952261
 20
481.7489428769713
 30
0.0
 41
1.0
 10
59.0637450333242
 20
480.5510453693614
 30
0.0
 41
1.0
 10
59.0625681899915
 20
479.0112237708514
 30
0.0
 41
1.0
 10
59.0614000761452
 20
477.5598293416014
 30
0.0
 41
1.0
 10
59.06078867612221
 20
476.7322515781814
 30
0.0
 41
1.0
 10
59.06066229309261
 20
476.5564399633659
 30
0.0
 41
1.0
  0
ARC
  5
9F
330
75
100
AcDbEntity
  8
$DDT_AUDIT_GENERATED_(87)
  6
Continuous
 62
     7
100
AcDbCircle
 10
-4477.4371744561
 20
540.1086211253
 30
0.0
 40
4515.848981054572
100
AcDbArc
 50
359.0930120178
 51
359.2800898089
  0
SPLINE
  5
A0
330
75
100
AcDbEntity
  8
$DDT_AUDIT_GENERATED_(87)
  6
Continuous
 62
     7
100
AcDbSpline
210
0.0
220
0.0
230
1.0
 70
     8
 71
     3
 72
    10
 73
     6
 74
     0
 42
0.0000000009319703
 43
0.0000000001
 40
0.5131131481624146
 40
0.5131131481624146
 40
0.5131131481624146
 40
0.5131131481624146
 40
0.75
 40
0.75
 40
1.0
 40
1.0
 40
1.0
 40
1.0
 10
55.9433785031026
 20
456.2748290664837
 30
0.0
 10
55.96308628644094
 20
457.1009120320639
 30
0.0
 10
56.25501103301754
 20
457.9307522746435
 30
0.0
 10
57.34579826775844
 20
459.2242877073916
 30
0.0
 10
58.17742623560023
 20
459.6655042740239
 30
0.0
 10
59.05995771044925
 20
459.7286510568401
 30
0.0
  0
LINE
  5
A1
330
75
100
AcDbEntity
  8
$DDT_AUDIT_GENERATED_(87)
  6
Continuous
 62
     7
100
AcDbLine
 10
37.5072166478
 20
444.9312846132
 30
0.0
 11
37.8460128488
 21
468.6260488909
 31
0.0
  0
LINE
  5
A2
330
75
100
AcDbEntity
  8
$DDT_AUDIT_GENERATED_(87)
  6
Continuous
 62
     7
100
AcDbLine
 10
37.7529249499
 20
444.6260488886
 30
0.0
 11
59.0637029035
 21
444.6260488886
 31
0.0
  0
LINE
  5
A3
330
75
100
AcDbEntity
  8
$DDT_AUDIT_GENERATED_(87)
  6
Continuous
 62
     7
100
AcDbLine
 10
59.0637029035
 20
444.6260488886
 30
0.0
 11
59.5208906377
 21
444.6260488886
 31
0.0
  0
LINE
  5
A4
330
75
100
AcDbEntity
  8
$DDT_AUDIT_GENERATED_(87)
  6
Continuous
 62
     7
100
AcDbLine
 10
59.0599577738
 20
459.72864986
 30
0.0
 11
59.2922967721
 21
459.7369369786
 31
0.0
  0
LINE
  5
A5
330
75
100
AcDbEntity
  8
$DDT_AUDIT_GENERATED_(87)
  6
Continuous
 62
     7
100
AcDbLine
 10
59.2922967765
 20
459.7369521934
 30
0.0
 11
59.5246346759
 21
459.7286347981
 31
0.0
  0
SPLINE
  5
A6
330
75
100
AcDbEntity
  8
$DDT_AUDIT_GENERATED_(87)
  6
Continuous
 62
     7
100
AcDbSpline
210
0.0
220
0.0
230
1.0
 70
     8
 71
     3
 72
    25
 73
    21
 74
     0
 42
0.0000000009518733
 43
0.0000000001
 40
0.0
 40
0.0
 40
0.0
 40
0.0
 40
0.0313426631449654
 40
0.0624680993956778
 40
0.093702411929232
 40
0.1251319739274099
 40
0.1563084525700925
 40
0.1874872886218097
 40
0.2189152391124659
 40
0.250163625734332
 40
0.2813119965112729
 40
0.2969410104495489
 40
0.3126489578223016
 40
0.328376335003173
 40
0.344017721488442
 40
0.3751707095507356
 40
0.4063681761745115
 40
0.4377856855490583
 40
0.4690185764328346
 40
0.4869653493989708
 40
0.4869653493989708
 40
0.4869653493989708
 40
0.4869653493989708
 10
59.52463600595784
 20
459.7286532968848
 30
0.0
 10
59.63388783426967
 20
459.7176012157838
 30
0.0
 10
59.8516342679269
 20
459.6955730329191
 30
0.0
 10
60.17179528002318
 20
459.6207682300591
 30
0.0
 10
60.48322116004005
 20
459.5160089371582
 30
0.0
 10
60.78251620751075
 20
459.3798905528141
 30
0.0
 10
61.06661083584198
 20
459.2150905973492
 30
0.0
 10
61.3325696694153
 20
459.022530181579
 30
0.0
 10
61.57860116247793
 20
458.8048396094646
 30
0.0
 10
61.80225501776342
 20
458.5644042966833
 30
0.0
 10
61.96801929222246
 20
458.347338562491
 30
0.0
 10
62.08816623229149
 20
458.1648929886468
 30
0.0
 10
62.17224883755668
 20
458.0234209307501
 30
0.0
 10
62.24959089102909
 20
457.8780802581651
 30
0.0
 10
62.34314896068287
 20
457.680440207374
 30
0.0
 10
62.44305317544276
 20
457.426233303178
 30
0.0
 10
62.53622386926945
 20
457.1112945379734
 30
0.0
 10
62.60088827213324
 20
456.7888713834215
 30
0.0
 10
62.63200811928059
 20
456.5081672527739
 30
0.0
 10
62.6399162207122
 20
456.3361006750131
 30
0.0
 10
62.64130446321402
 20
456.2732753582468
 30
0.0
  0
LINE
  5
A7
330
75
100
AcDbEntity
  8
$DDT_AUDIT_GENERATED_(87)
  6
Continuous
 62
     7
100
AcDbLine
 10
85.5870145613
 20
444.6260488886
 30
0.0
 11
80.8316686038
 21
444.6260488886
 31
0.0
  0
LINE
  5
A8
330
75
100
AcDbEntity
  8
$DDT_AUDIT_GENERATED_(87)
  6
Continuous
 62
     7
100
AcDbLine
 10
37.7529249499
 20
444.6260488886
 30
0.0
 11
32.9975789907
 21
444.6260488886
 31
0.0
  0
LINE
  5
A9
330
75
100
AcDbEntity
  8
$DDT_AUDIT_GENERATED_(87)
  6
Continuous
 62
     7
100
AcDbLine
 10
59.5208906377
 20
444.6260488886
 30
0.0
 11
80.8316686038
 21
444.6260488886
 31
0.0
  0
LINE
  5
AA
330
75
100
AcDbEntity
  8
$DDT_AUDIT_GENERATED_(87)
  6
Continuous
 62
     7
100
AcDbLine
 10
81.0773662002
 20
444.9312846086
 30
0.0
 11
80.7385674118
 21
468.6260488955
 31
0.0
  0
ARC
  5
AB
330
75
100
AcDbEntity
  8
$DDT_AUDIT_GENERATED_(87)
  6
Continuous
 62
     7
100
AcDbCircle
 10
39.5441614748
 20
483.5437147972
 30
0.0
 40
19.97791221067449
100
AcDbArc
 50
359.5841814292
 51
1.7500649268
  0
LINE
  5
AC
330
75
100
AcDbEntity
  8
$DDT_AUDIT_GENERATED_(87)
  6
Continuous
 62
     7
100
AcDbLine
 10
59.292296776
 20
484.1538331346
 30
0.0
 11
59.2922967759
 21
483.3987478332
 31
0.0
  0
ARC
  5
AD
330
75
100
AcDbEntity
  8
$DDT_AUDIT_GENERATED_(87)
  6
Continuous
 62
     7
100
AcDbCircle
 10
82.3177189275
 20
483.5678079807
 30
0.0
 40
23.25326628045849
100
AcDbArc
 50
178.555887704
 51
180.416577805
  0
LINE
  5
AE
330
75
100
AcDbEntity
  8
$DDT_AUDIT_GENERATED_(87)
  6
Continuous
 62
     7
100
AcDbLine
 10
85.8869688667
 20
444.9312846107
 30
0.0
 11
85.2160297581
 21
483.3693603949
 31
0.0
  0
LINE
  5
AF
330
75
100
AcDbEntity
  8
$DDT_AUDIT_GENERATED_(87)
  6
Continuous
 62
     7
100
AcDbLine
 10
33.3685637939
 20
483.3693603949
 30
0.0
 11
32.6976246854
 21
444.9312846107
 31
0.0
  0
ARC
  5
B0
330
75
100
AcDbEntity
  8
$DDT_AUDIT_GENERATED_(87)
  6
Continuous
 62
     7
100
AcDbCircle
 10
85.5870145581
 20
444.9260488886
 30
0.0
 40
0.2999999999998342
100
AcDbArc
 50
270.0000006064
 51
1.0000000384
  0
ARC
  5
B1
330
75
100
AcDbEntity
  8
$DDT_AUDIT_GENERATED_(87)
  6
Continuous
 62
     7
100
AcDbCircle
 10
32.9975789939
 20
444.9260488886
 30
0.0
 40
0.29999999999829
100
AcDbArc
 50
178.9999999617
 51
269.9999993936
  0
ARC
  5
B2
330
75
100
AcDbEntity
  8
$DDT_AUDIT_GENERATED_(87)
  6
Continuous
 62
     7
100
AcDbCircle
 10
34.16844195
 20
483.3553984697
 30
0.0
 40
0.8000000000009597
100
AcDbArc
 50
92.1463222463
 51
179.0
  0
ARC
  5
B3
330
75
100
AcDbEntity
  8
$DDT_AUDIT_GENERATED_(87)
  6
Continuous
 62
     7
100
AcDbCircle
 10
84.416151602
 20
483.3553984697
 30
0.0
 40
0.7999999999974466
100
AcDbArc
 50
1.0
 51
87.8536777537
  0
ARC
  5
B4
330
75
100
AcDbEntity
  8
$DDT_AUDIT_GENERATED_(87)
  6
Continuous
 62
     7
100
AcDbCircle
 10
59.292296776
 20
-186.979253536
 30
0.0
 40
671.6053024246062
100
AcDbArc
 50
87.8535835672
 51
92.1464164328
  0
CIRCLE
  5
B6
330
75
100
AcDbEntity
  8
04352_GEH_USE_00
  6
Continuous
 62
     7
100
AcDbCircle
 10
59.292296776
 20
399.5464317874
 30
0.0
 40
12.74999999999998
  0
CIRCLE
  5
B7
330
75
100
AcDbEntity
  8
04352_GEH_USE_00
  6
Continuous
 62
     7
100
AcDbCircle
 10
59.292296776
 20
399.5464317874
 30
0.0
 40
12.15000000000001
  0
CIRCLE
  5
B8
330
75
100
AcDbEntity
  8
04352_GEH_USE_00
  6
Continuous
 62
     7
100
AcDbCircle
 10
59.292296776
 20
399.5464317874
 30
0.0
 40
12.0585
  0
ARC
  5
BA
330
75
100
AcDbEntity
  8
03031031_RING_00
  6
Continuous
 62
     7
100
AcDbCircle
 10
59.292296776
 20
399.5464317874
 30
0.0
 40
6.750000000000003
100
AcDbArc
 50
0.0
 51
4.2480226667
  0
ARC
  5
BB
330
75
100
AcDbEntity
  8
03031031_RING_00
  6
Continuous
 62
     7
100
AcDbCircle
 10
59.292296776
 20
399.5464317874
 30
0.0
 40
6.750000000000003
100
AcDbArc
 50
5.952486528
 51
6.9781322154
  0
ARC
  5
BC
330
75
100
AcDbEntity
  8
03031031_RING_00
  6
Continuous
 62
     7
100
AcDbCircle
 10
59.292296776
 20
399.5464317874
 30
0.0
 40
6.750000000000003
100
AcDbArc
 50
16.3486440641
 51
25.4440578075
  0
ARC
  5
BD
330
75
100
AcDbEntity
  8
03031031_RING_00
  6
Continuous
 62
     7
100
AcDbCircle
 10
59.292296776
 20
399.5464317874
 30
0.0
 40
6.750000000000003
100
AcDbArc
 50
27.33931918
 51
35.3415390486
  0
ARC
  5
BE
330
75
100
AcDbEntity
  8
03031031_RING_00
  6
Continuous
 62
     7
100
AcDbCircle
 10
59.292296776
 20
399.5464317874
 30
0.0
 40
6.750000000000003
100
AcDbArc
 50
39.5712319616
 51
50.4287680384
  0
ARC
  5
BF
330
75
100
AcDbEntity
  8
03031031_RING_00
  6
Continuous
 62
     7
100
AcDbCircle
 10
59.292296776
 20
399.5464317874
 30
0.0
 40
6.750000000000003
100
AcDbArc
 50
54.5690553127
 51
62.66068082
  0
ARC
  5
C0
330
75
100
AcDbEntity
  8
03031031_RING_00
  6
Continuous
 62
     7
100
AcDbCircle
 10
59.292296776
 20
399.5464317874
 30
0.0
 40
6.750000000000003
100
AcDbArc
 50
64.5559421925
 51
73.6513559359
  0
ARC
  5
C1
330
75
100
AcDbEntity
  8
03031031_RING_00
  6
Continuous
 62
     7
100
AcDbCircle
 10
59.292296776
 20
399.5464317874
 30
0.0
 40
6.750000000000003
100
AcDbArc
 50
83.0218677846
 51
84.047513472
  0
ARC
  5
C2
330
75
100
AcDbEntity
  8
03031031_RING_00
  6
Continuous
 62
     7
100
AcDbCircle
 10
59.292296776
 20
399.5464317874
 30
0.0
 40
6.750000000000003
100
AcDbArc
 50
85.7519773333
 51
94.2480226667
  0
ARC
  5
C3
330
75
100
AcDbEntity
  8
03031031_RING_00
  6
Continuous
 62
     7
100
AcDbCircle
 10
59.292296776
 20
399.5464317874
 30
0.0
 40
6.750000000000003
100
AcDbArc
 50
95.952486528
 51
96.9781322154
  0
ARC
  5
C4
330
75
100
AcDbEntity
  8
03031031_RING_00
  6
Continuous
 62
     7
100
AcDbCircle
 10
59.292296776
 20
399.5464317874
 30
0.0
 40
6.750000000000003
100
AcDbArc
 50
106.3486440641
 51
115.4440578075
  0
ARC
  5
C5
330
75
100
AcDbEntity
  8
03031031_RING_00
  6
Continuous
 62
     7
100
AcDbCircle
 10
59.292296776
 20
399.5464317874
 30
0.0
 40
6.750000000000003
100
AcDbArc
 50
117.33931918
 51
125.4309446873
  0
ARC
  5
C6
330
75
100
AcDbEntity
  8
03031031_RING_00
  6
Continuous
 62
     7
100
AcDbCircle
 10
59.292296776
 20
399.5464317874
 30
0.0
 40
6.750000000000003
100
AcDbArc
 50
129.5712319616
 51
140.4287680384
  0
ARC
  5
C7
330
75
100
AcDbEntity
  8
03031031_RING_00
  6
Continuous
 62
     7
100
AcDbCircle
 10
59.292296776
 20
399.5464317874
 30
0.0
 40
6.750000000000003
100
AcDbArc
 50
144.6584609514
 51
152.66068082
  0
ARC
  5
C8
330
75
100
AcDbEntity
  8
03031031_RING_00
  6
Continuous
 62
     7
100
AcDbCircle
 10
59.292296776
 20
399.5464317874
 30
0.0
 40
6.750000000000003
100
AcDbArc
 50
154.5559421925
 51
163.6513559359
  0
ARC
  5
C9
330
75
100
AcDbEntity
  8
03031031_RING_00
  6
Continuous
 62
     7
100
AcDbCircle
 10
59.292296776
 20
399.5464317874
 30
0.0
 40
6.750000000000003
100
AcDbArc
 50
173.0218677846
 51
174.047513472
  0
ARC
  5
CA
330
75
100
AcDbEntity
  8
03031031_RING_00
  6
Continuous
 62
     7
100
AcDbCircle
 10
59.292296776
 20
399.5464317874
 30
0.0
 40
6.750000000000003
100
AcDbArc
 50
175.7519773333
 51
184.2480226667
  0
ARC
  5
CB
330
75
100
AcDbEntity
  8
03031031_RING_00
  6
Continuous
 62
     7
100
AcDbCircle
 10
59.292296776
 20
399.5464317874
 30
0.0
 40
6.750000000000003
100
AcDbArc
 50
185.952486528
 51
186.9781322154
  0
ARC
  5
CC
330
75
100
AcDbEntity
  8
03031031_RING_00
  6
Continuous
 62
     7
100
AcDbCircle
 10
59.292296776
 20
399.5464317874
 30
0.0
 40
6.750000000000003
100
AcDbArc
 50
196.3486440641
 51
205.4440578075
  0
ARC
  5
CD
330
75
100
AcDbEntity
  8
03031031_RING_00
  6
Continuous
 62
     7
100
AcDbCircle
 10
59.292296776
 20
399.5464317874
 30
0.0
 40
6.750000000000003
100
AcDbArc
 50
207.33931918
 51
215.4309446873
  0
ARC
  5
CE
330
75
100
AcDbEntity
  8
03031031_RING_00
  6
Continuous
 62
     7
100
AcDbCircle
 10
59.292296776
 20
399.5464317874
 30
0.0
 40
6.750000000000003
100
AcDbArc
 50
219.5712319615
 51
230.4287680384
  0
ARC
  5
CF
330
75
100
AcDbEntity
  8
03031031_RING_00
  6
Continuous
 62
     7
100
AcDbCircle
 10
59.292296776
 20
399.5464317874
 30
0.0
 40
6.750000000000003
100
AcDbArc
 50
234.5690553127
 51
242.66068082
  0
ARC
  5
D0
330
75
100
AcDbEntity
  8
03031031_RING_00
  6
Continuous
 62
     7
100
AcDbCircle
 10
59.292296776
 20
399.5464317874
 30
0.0
 40
6.750000000000003
100
AcDbArc
 50
244.5559421925
 51
253.6513559359
  0
ARC
  5
D1
330
75
100
AcDbEntity
  8
03031031_RING_00
  6
Continuous
 62
     7
100
AcDbCircle
 10
59.292296776
 20
399.5464317874
 30
0.0
 40
6.750000000000003
100
AcDbArc
 50
263.0218677846
 51
264.047513472
  0
ARC
  5
D2
330
75
100
AcDbEntity
  8
03031031_RING_00
  6
Continuous
 62
     7
100
AcDbCircle
 10
59.292296776
 20
399.5464317874
 30
0.0
 40
6.750000000000003
100
AcDbArc
 50
265.7519773333
 51
274.2480226667
  0
ARC
  5
D3
330
75
100
AcDbEntity
  8
03031031_RING_00
  6
Continuous
 62
     7
100
AcDbCircle
 10
59.292296776
 20
399.5464317874
 30
0.0
 40
6.750000000000003
100
AcDbArc
 50
275.952486528
 51
276.9781322154
  0
ARC
  5
D4
330
75
100
AcDbEntity
  8
03031031_RING_00
  6
Continuous
 62
     7
100
AcDbCircle
 10
59.292296776
 20
399.5464317874
 30
0.0
 40
6.750000000000003
100
AcDbArc
 50
286.3486440641
 51
295.4440578075
  0
ARC
  5
D5
330
75
100
AcDbEntity
  8
03031031_RING_00
  6
Continuous
 62
     7
100
AcDbCircle
 10
59.292296776
 20
399.5464317874
 30
0.0
 40
6.750000000000003
100
AcDbArc
 50
297.33931918
 51
305.4309446873
  0
ARC
  5
D6
330
75
100
AcDbEntity
  8
03031031_RING_00
  6
Continuous
 62
     7
100
AcDbCircle
 10
59.292296776
 20
399.5464317874
 30
0.0
 40
6.750000000000003
100
AcDbArc
 50
309.5712319616
 51
320.4287680385
  0
ARC
  5
D7
330
75
100
AcDbEntity
  8
03031031_RING_00
  6
Continuous
 62
     7
100
AcDbCircle
 10
59.292296776
 20
399.5464317874
 30
0.0
 40
6.750000000000003
100
AcDbArc
 50
324.5690553127
 51
332.66068082
  0
ARC
  5
D8
330
75
100
AcDbEntity
  8
03031031_RING_00
  6
Continuous
 62
     7
100
AcDbCircle
 10
59.292296776
 20
399.5464317874
 30
0.0
 40
6.750000000000003
100
AcDbArc
 50
334.5559421925
 51
343.6513559359
  0
ARC
  5
D9
330
75
100
AcDbEntity
  8
03031031_RING_00
  6
Continuous
 62
     7
100
AcDbCircle
 10
59.292296776
 20
399.5464317874
 30
0.0
 40
6.750000000000003
100
AcDbArc
 50
353.0218677846
 51
354.047513472
  0
ARC
  5
DA
330
75
100
AcDbEntity
  8
03031031_RING_00
  6
Continuous
 62
     7
100
AcDbCircle
 10
59.292296776
 20
399.5464317874
 30
0.0
 40
6.750000000000003
100
AcDbArc
 50
355.7519773333
 51
0.0
  0
LINE
  5
DC
330
75
100
AcDbEntity
  8
01543031_KUGELGE
  6
Continuous
 62
     7
100
AcDbLine
 10
55.292296776
 20
401.8558328641
 30
0.0
 11
55.292296776
 21
401.4358294812
 31
0.0
  0
LINE
  5
DD
330
75
100
AcDbEntity
  8
01543031_KUGELGE
  6
Continuous
 62
     7
100
AcDbLine
 10
55.292296776
 20
401.2350797825
 30
0.0
 11
55.292296776
 21
400.2423292589
 31
0.0
  0
LINE
  5
DE
330
75
100
AcDbEntity
  8
01543031_KUGELGE
  6
Continuous
 62
     7
100
AcDbLine
 10
55.292296776
 20
400.0426175022
 30
0.0
 11
55.292296776
 21
399.5464317874
 31
0.0
  0
LINE
  5
DF
330
75
100
AcDbEntity
  8
01543031_KUGELGE
  6
Continuous
 62
     7
100
AcDbLine
 10
55.292296776
 20
399.5464317874
 30
0.0
 11
55.292296776
 21
399.0502339374
 31
0.0
  0
LINE
  5
E0
330
75
100
AcDbEntity
  8
01543031_KUGELGE
  6
Continuous
 62
     7
100
AcDbLine
 10
55.292296776
 20
398.8505171652
 30
0.0
 11
55.292296776
 21
397.8578112124
 31
0.0
  0
LINE
  5
E1
330
75
100
AcDbEntity
  8
01543031_KUGELGE
  6
Continuous
 62
     7
100
AcDbLine
 10
55.292296776
 20
397.6570526441
 30
0.0
 11
55.292296776
 21
397.2370307106
 31
0.0
  0
LINE
  5
E2
330
75
100
AcDbEntity
  8
01543031_KUGELGE
  6
Continuous
 62
     7
100
AcDbLine
 10
59.292296776
 20
404.1652339409
 30
0.0
 11
58.7824118878
 21
403.8708517634
 31
0.0
  0
LINE
  5
E3
330
75
100
AcDbEntity
  8
01543031_KUGELGE
  6
Continuous
 62
     7
100
AcDbLine
 10
58.3898143165
 20
403.6441854499
 30
0.0
 11
57.5897382577
 21
403.182261322
 31
0.0
  0
LINE
  5
E4
330
75
100
AcDbEntity
  8
01543031_KUGELGE
  6
Continuous
 62
     7
100
AcDbLine
 10
57.3914223198
 20
403.0677635619
 30
0.0
 11
57.292296776
 21
403.0105334025
 31
0.0
  0
LINE
  5
E5
330
75
100
AcDbEntity
  8
01543031_KUGELGE
  6
Continuous
 62
     7
100
AcDbLine
 10
57.292296776
 20
403.0105334025
 30
0.0
 11
56.6651456521
 21
402.6484475323
 31
0.0
  0
LINE
  5
E6
330
75
100
AcDbEntity
  8
01543031_KUGELGE
  6
Continuous
 62
     7
100
AcDbLine
 10
56.1961878603
 20
402.3776946249
 30
0.0
 11
55.292296776
 21
401.8558328641
 31
0.0
  0
LINE
  5
E7
330
75
100
AcDbEntity
  8
01543031_KUGELGE
  6
Continuous
 62
     7
100
AcDbLine
 10
55.292296776
 20
397.2370307106
 30
0.0
 11
56.196147922
 21
396.7151920082
 31
0.0
  0
LINE
  5
E8
330
75
100
AcDbEntity
  8
01543031_KUGELGE
  6
Continuous
 62
     7
100
AcDbLine
 10
56.6651611209
 20
396.4444071115
 30
0.0
 11
57.292296776
 21
396.0823301722
 31
0.0
  0
LINE
  5
E9
330
75
100
AcDbEntity
  8
01543031_KUGELGE
  6
Continuous
 62
     7
100
AcDbLine
 10
57.292296776
 20
396.0823301722
 30
0.0
 11
57.3914245625
 21
396.025098718
 31
0.0
  0
LINE
  5
EA
330
75
100
AcDbEntity
  8
01543031_KUGELGE
  6
Continuous
 62
     7
100
AcDbLine
 10
57.5897454551
 20
395.9105980973
 30
0.0
 11
58.3897744388
 21
395.4487011482
 31
0.0
  0
LINE
  5
EB
330
75
100
AcDbEntity
  8
01543031_KUGELGE
  6
Continuous
 62
     7
100
AcDbLine
 10
58.7823893652
 20
395.2220248147
 30
0.0
 11
59.292296776
 21
394.9276296339
 31
0.0
  0
LINE
  5
EC
330
75
100
AcDbEntity
  8
01543031_KUGELGE
  6
Continuous
 62
     7
100
AcDbLine
 10
59.292296776
 20
394.9276296339
 30
0.0
 11
59.8021816643
 21
395.2220118113
 31
0.0
  0
LINE
  5
ED
330
75
100
AcDbEntity
  8
01543031_KUGELGE
  6
Continuous
 62
     7
100
AcDbLine
 10
60.1947792356
 20
395.4486781248
 30
0.0
 11
60.9948552946
 21
395.9106022529
 31
0.0
  0
LINE
  5
EE
330
75
100
AcDbEntity
  8
01543031_KUGELGE
  6
Continuous
 62
     7
100
AcDbLine
 10
61.1931712327
 20
396.0251000131
 30
0.0
 11
61.292296776
 21
396.0823301722
 31
0.0
  0
LINE
  5
EF
330
75
100
AcDbEntity
  8
01543031_KUGELGE
  6
Continuous
 62
     7
100
AcDbLine
 10
61.292296776
 20
396.0823301722
 30
0.0
 11
61.9194478999
 21
396.4444160424
 31
0.0
  0
LINE
  5
F0
330
75
100
AcDbEntity
  8
01543031_KUGELGE
  6
Continuous
 62
     7
100
AcDbLine
 10
62.3884056918
 20
396.7151689498
 30
0.0
 11
63.292296776
 21
397.2370307106
 31
0.0
  0
LINE
  5
F1
330
75
100
AcDbEntity
  8
01543031_KUGELGE
  6
Continuous
 62
     7
100
AcDbLine
 10
63.292296776
 20
397.2370307106
 30
0.0
 11
63.292296776
 21
397.6570340936
 31
0.0
  0
LINE
  5
F2
330
75
100
AcDbEntity
  8
01543031_KUGELGE
  6
Continuous
 62
     7
100
AcDbLine
 10
63.292296776
 20
397.8577837922
 30
0.0
 11
63.292296776
 21
398.8505343158
 31
0.0
  0
LINE
  5
F3
330
75
100
AcDbEntity
  8
01543031_KUGELGE
  6
Continuous
 62
     7
100
AcDbLine
 10
63.292296776
 20
399.0502460725
 30
0.0
 11
63.292296776
 21
399.5464317874
 31
0.0
  0
LINE
  5
F4
330
75
100
AcDbEntity
  8
01543031_KUGELGE
  6
Continuous
 62
     7
100
AcDbLine
 10
63.292296776
 20
399.5464317874
 30
0.0
 11
63.292296776
 21
400.0426296373
 31
0.0
  0
LINE
  5
F5
330
75
100
AcDbEntity
  8
01543031_KUGELGE
  6
Continuous
 62
     7
100
AcDbLine
 10
63.292296776
 20
400.2423464095
 30
0.0
 11
63.292296776
 21
401.2350523623
 31
0.0
  0
LINE
  5
F6
330
75
100
AcDbEntity
  8
01543031_KUGELGE
  6
Continuous
 62
     7
100
AcDbLine
 10
63.292296776
 20
401.4358109306
 30
0.0
 11
63.292296776
 21
401.8558328641
 31
0.0
  0
LINE
  5
F7
330
75
100
AcDbEntity
  8
01543031_KUGELGE
  6
Continuous
 62
     7
100
AcDbLine
 10
63.292296776
 20
401.8558328641
 30
0.0
 11
62.38844563
 21
402.3776715666
 31
0.0
  0
LINE
  5
F8
330
75
100
AcDbEntity
  8
01543031_KUGELGE
  6
Continuous
 62
     7
100
AcDbLine
 10
61.9194324311
 20
402.6484564632
 30
0.0
 11
61.292296776
 21
403.0105334025
 31
0.0
  0
LINE
  5
F9
330
75
100
AcDbEntity
  8
01543031_KUGELGE
  6
Continuous
 62
     7
100
AcDbLine
 10
61.292296776
 20
403.0105334025
 30
0.0
 11
61.1931689891
 21
403.067764857
 31
0.0
  0
LINE
  5
FA
330
75
100
AcDbEntity
  8
01543031_KUGELGE
  6
Continuous
 62
     7
100
AcDbLine
 10
60.9948480966
 20
403.1822654776
 30
0.0
 11
60.1948191133
 21
403.6441624265
 31
0.0
  0
LINE
  5
FB
330
75
100
AcDbEntity
  8
01543031_KUGELGE
  6
Continuous
 62
     7
100
AcDbLine
 10
59.8022041868
 20
403.87083876
 30
0.0
 11
59.292296776
 21
404.1652339409
 31
0.0
  0
ARC
  5
FC
330
75
100
AcDbEntity
  8
01543031_KUGELGE
  6
Continuous
 62
     7
100
AcDbCircle
 10
59.292296776
 20
399.5464317874
 30
0.0
 40
6.153981901626786
100
AcDbArc
 50
0.0
 51
4.6603163548
  0
ARC
  5
FD
330
75
100
AcDbEntity
  8
01543031_KUGELGE
  6
Continuous
 62
     7
100
AcDbCircle
 10
59.292296776
 20
399.5464317874
 30
0.0
 40
6.153981901626786
100
AcDbArc
 50
6.5313875176
 51
16.0361565759
  0
ARC
  5
FE
330
75
100
AcDbEntity
  8
01543031_KUGELGE
  6
Continuous
 62
     7
100
AcDbCircle
 10
59.292296776
 20
399.5464317874
 30
0.0
 40
6.153981901626786
100
AcDbArc
 50
17.9835055709
 51
26.6541981697
  0
ARC
  5
FF
330
75
100
AcDbEntity
  8
01543031_KUGELGE
  6
Continuous
 62
     7
100
AcDbCircle
 10
59.292296776
 20
399.5464317874
 30
0.0
 40
6.153981901626786
100
AcDbArc
 50
30.5449180321
 51
41.7771644325
  0
ARC
  5
100
330
75
100
AcDbEntity
  8
01543031_KUGELGE
  6
Continuous
 62
     7
100
AcDbCircle
 10
59.292296776
 20
399.5464317874
 30
0.0
 40
6.153981901626786
100
AcDbArc
 50
44.3255676683
 51
45.6744323317
  0
ARC
  5
101
330
75
100
AcDbEntity
  8
01543031_KUGELGE
  6
Continuous
 62
     7
100
AcDbCircle
 10
59.292296776
 20
399.5464317874
 30
0.0
 40
6.153981901626786
100
AcDbArc
 50
48.2228355675
 51
59.4550819679
  0
ARC
  5
102
330
75
100
AcDbEntity
  8
01543031_KUGELGE
  6
Continuous
 62
     7
100
AcDbCircle
 10
59.292296776
 20
399.5464317874
 30
0.0
 40
6.153981901626786
100
AcDbArc
 50
63.3458018303
 51
72.0164944291
  0
ARC
  5
103
330
75
100
AcDbEntity
  8
01543031_KUGELGE
  6
Continuous
 62
     7
100
AcDbCircle
 10
59.292296776
 20
399.5464317874
 30
0.0
 40
6.153981901626786
100
AcDbArc
 50
73.9638434241
 51
83.4686124824
  0
ARC
  5
104
330
75
100
AcDbEntity
  8
01543031_KUGELGE
  6
Continuous
 62
     7
100
AcDbCircle
 10
59.292296776
 20
399.5464317874
 30
0.0
 40
6.153981901626786
100
AcDbArc
 50
85.3396836452
 51
94.6603163548
  0
ARC
  5
105
330
75
100
AcDbEntity
  8
01543031_KUGELGE
  6
Continuous
 62
     7
100
AcDbCircle
 10
59.292296776
 20
399.5464317874
 30
0.0
 40
6.153981901626786
100
AcDbArc
 50
96.5313875176
 51
106.0361565759
  0
ARC
  5
106
330
75
100
AcDbEntity
  8
01543031_KUGELGE
  6
Continuous
 62
     7
100
AcDbCircle
 10
59.292296776
 20
399.5464317874
 30
0.0
 40
6.153981901626786
100
AcDbArc
 50
107.9835055709
 51
116.6541981697
  0
ARC
  5
107
330
75
100
AcDbEntity
  8
01543031_KUGELGE
  6
Continuous
 62
     7
100
AcDbCircle
 10
59.292296776
 20
399.5464317874
 30
0.0
 40
6.153981901626786
100
AcDbArc
 50
120.5449180321
 51
131.7771644325
  0
ARC
  5
108
330
75
100
AcDbEntity
  8
01543031_KUGELGE
  6
Continuous
 62
     7
100
AcDbCircle
 10
59.292296776
 20
399.5464317874
 30
0.0
 40
6.153981901626786
100
AcDbArc
 50
134.3255676683
 51
135.6744323317
  0
ARC
  5
109
330
75
100
AcDbEntity
  8
01543031_KUGELGE
  6
Continuous
 62
     7
100
AcDbCircle
 10
59.292296776
 20
399.5464317874
 30
0.0
 40
6.153981901626786
100
AcDbArc
 50
138.2228355675
 51
149.4550819679
  0
ARC
  5
10A
330
75
100
AcDbEntity
  8
01543031_KUGELGE
  6
Continuous
 62
     7
100
AcDbCircle
 10
59.292296776
 20
399.5464317874
 30
0.0
 40
6.153981901626786
100
AcDbArc
 50
153.3458018303
 51
162.0164944291
  0
ARC
  5
10B
330
75
100
AcDbEntity
  8
01543031_KUGELGE
  6
Continuous
 62
     7
100
AcDbCircle
 10
59.292296776
 20
399.5464317874
 30
0.0
 40
6.153981901626786
100
AcDbArc
 50
163.9638434241
 51
173.4686124824
  0
ARC
  5
10C
330
75
100
AcDbEntity
  8
01543031_KUGELGE
  6
Continuous
 62
     7
100
AcDbCircle
 10
59.292296776
 20
399.5464317874
 30
0.0
 40
6.153981901626786
100
AcDbArc
 50
175.3396836452
 51
184.6603163548
  0
ARC
  5
10D
330
75
100
AcDbEntity
  8
01543031_KUGELGE
  6
Continuous
 62
     7
100
AcDbCircle
 10
59.292296776
 20
399.5464317874
 30
0.0
 40
6.153981901626786
100
AcDbArc
 50
186.5313875176
 51
196.0361565759
  0
ARC
  5
10E
330
75
100
AcDbEntity
  8
01543031_KUGELGE
  6
Continuous
 62
     7
100
AcDbCircle
 10
59.292296776
 20
399.5464317874
 30
0.0
 40
6.153981901626786
100
AcDbArc
 50
197.9835055709
 51
206.6541981697
  0
ARC
  5
10F
330
75
100
AcDbEntity
  8
01543031_KUGELGE
  6
Continuous
 62
     7
100
AcDbCircle
 10
59.292296776
 20
399.5464317874
 30
0.0
 40
6.153981901626786
100
AcDbArc
 50
210.5449180321
 51
221.7771644325
  0
ARC
  5
110
330
75
100
AcDbEntity
  8
01543031_KUGELGE
  6
Continuous
 62
     7
100
AcDbCircle
 10
59.292296776
 20
399.5464317874
 30
0.0
 40
6.153981901626786
100
AcDbArc
 50
224.3255676683
 51
225.6744323317
  0
ARC
  5
111
330
75
100
AcDbEntity
  8
01543031_KUGELGE
  6
Continuous
 62
     7
100
AcDbCircle
 10
59.292296776
 20
399.5464317874
 30
0.0
 40
6.153981901626786
100
AcDbArc
 50
228.2228355675
 51
239.4550819679
  0
ARC
  5
112
330
75
100
AcDbEntity
  8
01543031_KUGELGE
  6
Continuous
 62
     7
100
AcDbCircle
 10
59.292296776
 20
399.5464317874
 30
0.0
 40
6.153981901626786
100
AcDbArc
 50
243.3458018303
 51
252.0164944291
  0
ARC
  5
113
330
75
100
AcDbEntity
  8
01543031_KUGELGE
  6
Continuous
 62
     7
100
AcDbCircle
 10
59.292296776
 20
399.5464317874
 30
0.0
 40
6.153981901626786
100
AcDbArc
 50
253.9638434241
 51
263.4686124824
  0
ARC
  5
114
330
75
100
AcDbEntity
  8
01543031_KUGELGE
  6
Continuous
 62
     7
100
AcDbCircle
 10
59.292296776
 20
399.5464317874
 30
0.0
 40
6.153981901626786
100
AcDbArc
 50
265.3396836452
 51
274.6603163548
  0
ARC
  5
115
330
75
100
AcDbEntity
  8
01543031_KUGELGE
  6
Continuous
 62
     7
100
AcDbCircle
 10
59.292296776
 20
399.5464317874
 30
0.0
 40
6.153981901626786
100
AcDbArc
 50
276.5313875176
 51
286.0361565759
  0
ARC
  5
116
330
75
100
AcDbEntity
  8
01543031_KUGELGE
  6
Continuous
 62
     7
100
AcDbCircle
 10
59.292296776
 20
399.5464317874
 30
0.0
 40
6.153981901626786
100
AcDbArc
 50
287.9835055709
 51
296.6541981697
  0
ARC
  5
117
330
75
100
AcDbEntity
  8
01543031_KUGELGE
  6
Continuous
 62
     7
100
AcDbCircle
 10
59.292296776
 20
399.5464317874
 30
0.0
 40
6.153981901626786
100
AcDbArc
 50
300.5449180321
 51
311.7771644325
  0
ARC
  5
118
330
75
100
AcDbEntity
  8
01543031_KUGELGE
  6
Continuous
 62
     7
100
AcDbCircle
 10
59.292296776
 20
399.5464317874
 30
0.0
 40
6.153981901626786
100
AcDbArc
 50
314.3255676683
 51
315.6744323317
  0
ARC
  5
119
330
75
100
AcDbEntity
  8
01543031_KUGELGE
  6
Continuous
 62
     7
100
AcDbCircle
 10
59.292296776
 20
399.5464317874
 30
0.0
 40
6.153981901626786
100
AcDbArc
 50
318.2228355675
 51
329.4550819679
  0
ARC
  5
11A
330
75
100
AcDbEntity
  8
01543031_KUGELGE
  6
Continuous
 62
     7
100
AcDbCircle
 10
59.292296776
 20
399.5464317874
 30
0.0
 40
6.153981901626786
100
AcDbArc
 50
333.3458018303
 51
342.0164944291
  0
ARC
  5
11B
330
75
100
AcDbEntity
  8
01543031_KUGELGE
  6
Continuous
 62
     7
100
AcDbCircle
 10
59.292296776
 20
399.5464317874
 30
0.0
 40
6.153981901626786
100
AcDbArc
 50
343.9638434241
 51
353.4686124824
  0
ARC
  5
11C
330
75
100
AcDbEntity
  8
01543031_KUGELGE
  6
Continuous
 62
     7
100
AcDbCircle
 10
59.292296776
 20
399.5464317874
 30
0.0
 40
6.153981901626786
100
AcDbArc
 50
355.3396836452
 51
0.0
  0
CIRCLE
  5
11E
330
75
100
AcDbEntity
  8
02636038_GEHÄUSE
  6
Continuous
 62
     7
100
AcDbCircle
 10
59.292296776
 20
399.5464317874
 30
0.0
 40
10.05000000000001
  0
CIRCLE
  5
11F
330
75
100
AcDbEntity
  8
02636038_GEHÄUSE
  6
Continuous
 62
     7
100
AcDbCircle
 10
59.292296776
 20
399.5464317874
 30
0.0
 40
10.75
  0
LINE
  5
120
330
75
100
AcDbEntity
  8
02636038_GEHÄUSE
  6
Continuous
 62
     7
100
AcDbLine
 10
70.292296776
 20
396.9599283561
 30
0.0
 11
70.292296776
 21
402.1329352186
 31
0.0
  0
ARC
  5
121
330
75
100
AcDbEntity
  8
02636038_GEHÄUSE
  6
Continuous
 62
     7
100
AcDbCircle
 10
59.292296776
 20
399.5464317874
 30
0.0
 40
11.80000000000001
100
AcDbArc
 50
201.2190697926
 51
338.7809302074
  0
ARC
  5
122
330
75
100
AcDbEntity
  8
02636038_GEHÄUSE
  6
Continuous
 62
     7
100
AcDbCircle
 10
59.292296776
 20
399.5464317874
 30
0.0
 40
11.8
100
AcDbArc
 50
338.7809302074
 51
21.2190697926
  0
LINE
  5
123
330
75
100
AcDbEntity
  8
02636038_GEHÄUSE
  6
Continuous
 62
     7
100
AcDbLine
 10
70.292296776
 20
395.2756004866
 30
0.0
 11
70.292296776
 21
396.9599283561
 31
0.0
  0
LINE
  5
124
330
75
100
AcDbEntity
  8
02636038_GEHÄUSE
  6
Continuous
 62
     7
100
AcDbLine
 10
70.292296776
 20
402.1329352186
 30
0.0
 11
70.292296776
 21
403.8172630882
 31
0.0
  0
LINE
  5
125
330
75
100
AcDbEntity
  8
02636038_GEHÄUSE
  6
Continuous
 62
     7
100
AcDbLine
 10
48.292296776
 20
402.1329352186
 30
0.0
 11
48.292296776
 21
396.9599283561
 31
0.0
  0
ARC
  5
126
330
75
100
AcDbEntity
  8
02636038_GEHÄUSE
  6
Continuous
 62
     7
100
AcDbCircle
 10
59.292296776
 20
399.5464317874
 30
0.0
 40
11.80000000000001
100
AcDbArc
 50
21.2190697926
 51
158.7809302074
  0
ARC
  5
127
330
75
100
AcDbEntity
  8
02636038_GEHÄUSE
  6
Continuous
 62
     7
100
AcDbCircle
 10
59.292296776
 20
399.5464317874
 30
0.0
 40
11.8
100
AcDbArc
 50
158.7809302074
 51
201.2190697926
  0
LINE
  5
128
330
75
100
AcDbEntity
  8
02636038_GEHÄUSE
  6
Continuous
 62
     7
100
AcDbLine
 10
48.292296776
 20
403.8172630882
 30
0.0
 11
48.292296776
 21
402.1329352186
 31
0.0
  0
LINE
  5
129
330
75
100
AcDbEntity
  8
02636038_GEHÄUSE
  6
Continuous
 62
     7
100
AcDbLine
 10
48.292296776
 20
396.9599283561
 30
0.0
 11
48.292296776
 21
395.2756004866
 31
0.0
  0
ARC
  5
12B
330
75
100
AcDbEntity
  8
$DDT_AUDIT_GENERATED_(12A)
  6
Continuous
 62
     7
100
AcDbCircle
 10
59.292296776
 20
399.5464317874
 30
0.0
 40
7.250000000000008
100
AcDbArc
 50
356.0454278779
 51
0.0
  0
ARC
  5
12C
330
75
100
AcDbEntity
  8
$DDT_AUDIT_GENERATED_(12A)
  6
Continuous
 62
     7
100
AcDbCircle
 10
59.292296776
 20
399.5464317874
 30
0.0
 40
7.250000000000008
100
AcDbArc
 50
346.4388648643
 51
354.4593623334
  0
ARC
  5
12D
330
75
100
AcDbEntity
  8
$DDT_AUDIT_GENERATED_(12A)
  6
Continuous
 62
     7
100
AcDbCircle
 10
59.292296776
 20
399.5464317874
 30
0.0
 40
7.250000000000008
100
AcDbArc
 50
337.5387192955
 51
344.807137275
  0
ARC
  5
12E
330
75
100
AcDbEntity
  8
$DDT_AUDIT_GENERATED_(12A)
  6
Continuous
 62
     7
100
AcDbCircle
 10
59.292296776
 20
399.5464317874
 30
0.0
 40
7.250000000000008
100
AcDbArc
 50
325.5617828143
 51
333.7084447253
  0
ARC
  5
12F
330
75
100
AcDbEntity
  8
$DDT_AUDIT_GENERATED_(12A)
  6
Continuous
 62
     7
100
AcDbCircle
 10
59.292296776
 20
399.5464317874
 30
0.0
 40
7.250000000000008
100
AcDbArc
 50
319.342751362
 51
323.6224510055
  0
ARC
  5
130
330
75
100
AcDbEntity
  8
$DDT_AUDIT_GENERATED_(12A)
  6
Continuous
 62
     7
100
AcDbCircle
 10
59.292296776
 20
399.5464317874
 30
0.0
 40
7.250000000000008
100
AcDbArc
 50
313.0268113639
 51
316.9731886361
  0
ARC
  5
131
330
75
100
AcDbEntity
  8
$DDT_AUDIT_GENERATED_(12A)
  6
Continuous
 62
     7
100
AcDbCircle
 10
59.292296776
 20
399.5464317874
 30
0.0
 40
7.250000000000008
100
AcDbArc
 50
306.3775489945
 51
310.657248638
  0
ARC
  5
132
330
75
100
AcDbEntity
  8
$DDT_AUDIT_GENERATED_(12A)
  6
Continuous
 62
     7
100
AcDbCircle
 10
59.292296776
 20
399.5464317874
 30
0.0
 40
7.250000000000008
100
AcDbArc
 50
296.2915552747
 51
304.4382171857
  0
ARC
  5
133
330
75
100
AcDbEntity
  8
$DDT_AUDIT_GENERATED_(12A)
  6
Continuous
 62
     7
100
AcDbCircle
 10
59.292296776
 20
399.5464317874
 30
0.0
 40
7.250000000000008
100
AcDbArc
 50
285.192862725
 51
292.4612807045
  0
ARC
  5
134
330
75
100
AcDbEntity
  8
$DDT_AUDIT_GENERATED_(12A)
  6
Continuous
 62
     7
100
AcDbCircle
 10
59.292296776
 20
399.5464317874
 30
0.0
 40
7.250000000000008
100
AcDbArc
 50
275.5406376666
 51
283.5611351357
  0
ARC
  5
135
330
75
100
AcDbEntity
  8
$DDT_AUDIT_GENERATED_(12A)
  6
Continuous
 62
     7
100
AcDbCircle
 10
59.292296776
 20
399.5464317874
 30
0.0
 40
7.250000000000008
100
AcDbArc
 50
266.0454278779
 51
273.9545721221
  0
ARC
  5
136
330
75
100
AcDbEntity
  8
$DDT_AUDIT_GENERATED_(12A)
  6
Continuous
 62
     7
100
AcDbCircle
 10
59.292296776
 20
399.5464317874
 30
0.0
 40
7.250000000000008
100
AcDbArc
 50
256.4388648643
 51
264.4593623334
  0
ARC
  5
137
330
75
100
AcDbEntity
  8
$DDT_AUDIT_GENERATED_(12A)
  6
Continuous
 62
     7
100
AcDbCircle
 10
59.292296776
 20
399.5464317874
 30
0.0
 40
7.250000000000008
100
AcDbArc
 50
247.5387192955
 51
254.807137275
  0
ARC
  5
138
330
75
100
AcDbEntity
  8
$DDT_AUDIT_GENERATED_(12A)
  6
Continuous
 62
     7
100
AcDbCircle
 10
59.292296776
 20
399.5464317874
 30
0.0
 40
7.250000000000008
100
AcDbArc
 50
235.5617828143
 51
243.7084447253
  0
ARC
  5
139
330
75
100
AcDbEntity
  8
$DDT_AUDIT_GENERATED_(12A)
  6
Continuous
 62
     7
100
AcDbCircle
 10
59.292296776
 20
399.5464317874
 30
0.0
 40
7.250000000000008
100
AcDbArc
 50
229.342751362
 51
233.6224510055
  0
ARC
  5
13A
330
75
100
AcDbEntity
  8
$DDT_AUDIT_GENERATED_(12A)
  6
Continuous
 62
     7
100
AcDbCircle
 10
59.292296776
 20
399.5464317874
 30
0.0
 40
7.250000000000008
100
AcDbArc
 50
223.0268113639
 51
226.9731886361
  0
ARC
  5
13B
330
75
100
AcDbEntity
  8
$DDT_AUDIT_GENERATED_(12A)
  6
Continuous
 62
     7
100
AcDbCircle
 10
59.292296776
 20
399.5464317874
 30
0.0
 40
7.250000000000008
100
AcDbArc
 50
216.3775489945
 51
220.657248638
  0
ARC
  5
13C
330
75
100
AcDbEntity
  8
$DDT_AUDIT_GENERATED_(12A)
  6
Continuous
 62
     7
100
AcDbCircle
 10
59.292296776
 20
399.5464317874
 30
0.0
 40
7.250000000000008
100
AcDbArc
 50
206.2915552747
 51
214.4382171857
  0
ARC
  5
13D
330
75
100
AcDbEntity
  8
$DDT_AUDIT_GENERATED_(12A)
  6
Continuous
 62
     7
100
AcDbCircle
 10
59.292296776
 20
399.5464317874
 30
0.0
 40
7.250000000000008
100
AcDbArc
 50
195.192862725
 51
202.4612807045
  0
ARC
  5
13E
330
75
100
AcDbEntity
  8
$DDT_AUDIT_GENERATED_(12A)
  6
Continuous
 62
     7
100
AcDbCircle
 10
59.292296776
 20
399.5464317874
 30
0.0
 40
7.250000000000008
100
AcDbArc
 50
185.5406376666
 51
193.5611351357
  0
ARC
  5
13F
330
75
100
AcDbEntity
  8
$DDT_AUDIT_GENERATED_(12A)
  6
Continuous
 62
     7
100
AcDbCircle
 10
59.292296776
 20
399.5464317874
 30
0.0
 40
7.250000000000008
100
AcDbArc
 50
176.0454278779
 51
183.9545721221
  0
ARC
  5
140
330
75
100
AcDbEntity
  8
$DDT_AUDIT_GENERATED_(12A)
  6
Continuous
 62
     7
100
AcDbCircle
 10
59.292296776
 20
399.5464317874
 30
0.0
 40
7.250000000000008
100
AcDbArc
 50
166.4388648643
 51
174.4593623334
  0
ARC
  5
141
330
75
100
AcDbEntity
  8
$DDT_AUDIT_GENERATED_(12A)
  6
Continuous
 62
     7
100
AcDbCircle
 10
59.292296776
 20
399.5464317874
 30
0.0
 40
7.250000000000008
100
AcDbArc
 50
157.5387192955
 51
164.807137275
  0
ARC
  5
142
330
75
100
AcDbEntity
  8
$DDT_AUDIT_GENERATED_(12A)
  6
Continuous
 62
     7
100
AcDbCircle
 10
59.292296776
 20
399.5464317874
 30
0.0
 40
7.250000000000008
100
AcDbArc
 50
145.5617828143
 51
153.7084447253
  0
ARC
  5
143
330
75
100
AcDbEntity
  8
$DDT_AUDIT_GENERATED_(12A)
  6
Continuous
 62
     7
100
AcDbCircle
 10
59.292296776
 20
399.5464317874
 30
0.0
 40
7.250000000000008
100
AcDbArc
 50
139.4167909726
 51
143.6224510055
  0
ARC
  5
144
330
75
100
AcDbEntity
  8
$DDT_AUDIT_GENERATED_(12A)
  6
Continuous
 62
     7
100
AcDbCircle
 10
59.292296776
 20
399.5464317874
 30
0.0
 40
7.250000000000008
100
AcDbArc
 50
133.0268113639
 51
136.9731886361
  0
ARC
  5
145
330
75
100
AcDbEntity
  8
$DDT_AUDIT_GENERATED_(12A)
  6
Continuous
 62
     7
100
AcDbCircle
 10
59.292296776
 20
399.5464317874
 30
0.0
 40
7.250000000000008
100
AcDbArc
 50
126.3775489945
 51
130.657248638
  0
ARC
  5
146
330
75
100
AcDbEntity
  8
$DDT_AUDIT_GENERATED_(12A)
  6
Continuous
 62
     7
100
AcDbCircle
 10
59.292296776
 20
399.5464317874
 30
0.0
 40
7.250000000000008
100
AcDbArc
 50
116.2915552747
 51
124.4382171857
  0
ARC
  5
147
330
75
100
AcDbEntity
  8
$DDT_AUDIT_GENERATED_(12A)
  6
Continuous
 62
     7
100
AcDbCircle
 10
59.292296776
 20
399.5464317874
 30
0.0
 40
7.250000000000008
100
AcDbArc
 50
105.192862725
 51
112.4612807045
  0
ARC
  5
148
330
75
100
AcDbEntity
  8
$DDT_AUDIT_GENERATED_(12A)
  6
Continuous
 62
     7
100
AcDbCircle
 10
59.292296776
 20
399.5464317874
 30
0.0
 40
7.250000000000008
100
AcDbArc
 50
95.5406376666
 51
103.5611351357
  0
ARC
  5
149
330
75
100
AcDbEntity
  8
$DDT_AUDIT_GENERATED_(12A)
  6
Continuous
 62
     7
100
AcDbCircle
 10
59.292296776
 20
399.5464317874
 30
0.0
 40
7.250000000000008
100
AcDbArc
 50
86.0454278779
 51
93.9545721221
  0
ARC
  5
14A
330
75
100
AcDbEntity
  8
$DDT_AUDIT_GENERATED_(12A)
  6
Continuous
 62
     7
100
AcDbCircle
 10
59.292296776
 20
399.5464317874
 30
0.0
 40
7.250000000000008
100
AcDbArc
 50
76.4388648643
 51
84.4593623334
  0
ARC
  5
14B
330
75
100
AcDbEntity
  8
$DDT_AUDIT_GENERATED_(12A)
  6
Continuous
 62
     7
100
AcDbCircle
 10
59.292296776
 20
399.5464317874
 30
0.0
 40
7.250000000000008
100
AcDbArc
 50
67.5387192955
 51
74.807137275
  0
ARC
  5
14C
330
75
100
AcDbEntity
  8
$DDT_AUDIT_GENERATED_(12A)
  6
Continuous
 62
     7
100
AcDbCircle
 10
59.292296776
 20
399.5464317874
 30
0.0
 40
7.250000000000008
100
AcDbArc
 50
55.5617828143
 51
63.7084447253
  0
ARC
  5
14D
330
75
100
AcDbEntity
  8
$DDT_AUDIT_GENERATED_(12A)
  6
Continuous
 62
     7
100
AcDbCircle
 10
59.292296776
 20
399.5464317874
 30
0.0
 40
7.250000000000008
100
AcDbArc
 50
49.342751362
 51
53.6224510055
  0
ARC
  5
14E
330
75
100
AcDbEntity
  8
$DDT_AUDIT_GENERATED_(12A)
  6
Continuous
 62
     7
100
AcDbCircle
 10
59.292296776
 20
399.5464317874
 30
0.0
 40
7.250000000000008
100
AcDbArc
 50
43.0268113639
 51
46.9731886361
  0
ARC
  5
14F
330
75
100
AcDbEntity
  8
$DDT_AUDIT_GENERATED_(12A)
  6
Continuous
 62
     7
100
AcDbCircle
 10
59.292296776
 20
399.5464317874
 30
0.0
 40
7.250000000000008
100
AcDbArc
 50
36.3775489945
 51
40.5832090274
  0
ARC
  5
150
330
75
100
AcDbEntity
  8
$DDT_AUDIT_GENERATED_(12A)
  6
Continuous
 62
     7
100
AcDbCircle
 10
59.292296776
 20
399.5464317874
 30
0.0
 40
7.250000000000008
100
AcDbArc
 50
26.2915552747
 51
34.4382171857
  0
ARC
  5
151
330
75
100
AcDbEntity
  8
$DDT_AUDIT_GENERATED_(12A)
  6
Continuous
 62
     7
100
AcDbCircle
 10
59.292296776
 20
399.5464317874
 30
0.0
 40
7.250000000000008
100
AcDbArc
 50
15.192862725
 51
22.4612807045
  0
ARC
  5
152
330
75
100
AcDbEntity
  8
$DDT_AUDIT_GENERATED_(12A)
  6
Continuous
 62
     7
100
AcDbCircle
 10
59.292296776
 20
399.5464317874
 30
0.0
 40
7.250000000000008
100
AcDbArc
 50
5.5406376666
 51
13.5611351357
  0
ARC
  5
153
330
75
100
AcDbEntity
  8
$DDT_AUDIT_GENERATED_(12A)
  6
Continuous
 62
     7
100
AcDbCircle
 10
59.292296776
 20
399.5464317874
 30
0.0
 40
7.250000000000008
100
AcDbArc
 50
0.0
 51
3.9545721221
  0
CIRCLE
  5
155
330
75
100
AcDbEntity
  8
$DDT_AUDIT_GENERATED_(154)
  6
Continuous
 62
     7
100
AcDbCircle
 10
59.292296776
 20
399.5464317874
 30
0.0
 40
8.25
  0
CIRCLE
  5
156
330
75
100
AcDbEntity
  8
$DDT_AUDIT_GENERATED_(154)
  6
Continuous
 62
     7
100
AcDbCircle
 10
59.292296776
 20
399.5464317874
 30
0.0
 40
9.400000000000002
  0
ARC
  5
157
330
75
100
AcDbEntity
  8
$DDT_AUDIT_GENERATED_(154)
  6
Continuous
 62
     7
100
AcDbCircle
 10
59.292296776
 20
399.5464317874
 30
0.0
 40
10.02500000000001
100
AcDbArc
 50
287.4126742723
 51
312.5873257277
  0
ARC
  5
158
330
75
100
AcDbEntity
  8
$DDT_AUDIT_GENERATED_(154)
  6
Continuous
 62
     7
100
AcDbCircle
 10
59.292296776
 20
399.5464317874
 30
0.0
 40
10.02500000000001
100
AcDbArc
 50
252.5873257277
 51
287.4126742723
  0
LINE
  5
159
330
75
100
AcDbEntity
  8
$DDT_AUDIT_GENERATED_(154)
  6
Continuous
 62
     7
100
AcDbLine
 10
62.292296776
 20
390.6380088068
 30
0.0
 11
62.292296776
 21
389.9808358833
 31
0.0
  0
LINE
  5
15A
330
75
100
AcDbEntity
  8
$DDT_AUDIT_GENERATED_(154)
  6
Continuous
 62
     7
100
AcDbLine
 10
56.292296776
 20
389.9808358833
 30
0.0
 11
56.292296776
 21
390.6380088068
 31
0.0
  0
ARC
  5
15B
330
75
100
AcDbEntity
  8
$DDT_AUDIT_GENERATED_(154)
  6
Continuous
 62
     7
100
AcDbCircle
 10
59.292296776
 20
399.5464317874
 30
0.0
 40
10.02500000000001
100
AcDbArc
 50
227.4126742723
 51
252.5873257277
  0
ARC
  5
15C
330
75
100
AcDbEntity
  8
$DDT_AUDIT_GENERATED_(154)
  6
Continuous
 62
     7
100
AcDbCircle
 10
59.292296776
 20
399.5464317874
 30
0.0
 40
10.025
100
AcDbArc
 50
192.5873257277
 51
227.4126742723
  0
LINE
  5
15D
330
75
100
AcDbEntity
  8
$DDT_AUDIT_GENERATED_(154)
  6
Continuous
 62
     7
100
AcDbLine
 10
53.0773761672
 20
392.4941440858
 30
0.0
 11
52.5082477208
 21
392.165557624
 31
0.0
  0
LINE
  5
15E
330
75
100
AcDbEntity
  8
$DDT_AUDIT_GENERATED_(154)
  6
Continuous
 62
     7
100
AcDbLine
 10
49.5082477208
 20
397.3617100467
 30
0.0
 11
50.0773761672
 21
397.6902965085
 31
0.0
  0
ARC
  5
15F
330
75
100
AcDbEntity
  8
$DDT_AUDIT_GENERATED_(154)
  6
Continuous
 62
     7
100
AcDbCircle
 10
59.292296776
 20
399.5464317874
 30
0.0
 40
10.025
100
AcDbArc
 50
167.4126742723
 51
192.5873257277
  0
ARC
  5
160
330
75
100
AcDbEntity
  8
$DDT_AUDIT_GENERATED_(154)
  6
Continuous
 62
     7
100
AcDbCircle
 10
59.292296776
 20
399.5464317874
 30
0.0
 40
10.025
100
AcDbArc
 50
132.5873257277
 51
167.4126742723
  0
LINE
  5
161
330
75
100
AcDbEntity
  8
$DDT_AUDIT_GENERATED_(154)
  6
Continuous
 62
     7
100
AcDbLine
 10
50.0773761672
 20
401.4025670663
 30
0.0
 11
49.5082477208
 21
401.7311535281
 31
0.0
  0
LINE
  5
162
330
75
100
AcDbEntity
  8
$DDT_AUDIT_GENERATED_(154)
  6
Continuous
 62
     7
100
AcDbLine
 10
52.5082477208
 20
406.9273059508
 30
0.0
 11
53.0773761672
 21
406.598719489
 31
0.0
  0
ARC
  5
163
330
75
100
AcDbEntity
  8
$DDT_AUDIT_GENERATED_(154)
  6
Continuous
 62
     7
100
AcDbCircle
 10
59.292296776
 20
399.5464317874
 30
0.0
 40
10.02500000000001
100
AcDbArc
 50
107.4126742723
 51
132.5873257277
  0
ARC
  5
164
330
75
100
AcDbEntity
  8
$DDT_AUDIT_GENERATED_(154)
  6
Continuous
 62
     7
100
AcDbCircle
 10
59.292296776
 20
399.5464317874
 30
0.0
 40
10.02500000000001
100
AcDbArc
 50
72.5873257277
 51
107.4126742723
  0
LINE
  5
165
330
75
100
AcDbEntity
  8
$DDT_AUDIT_GENERATED_(154)
  6
Continuous
 62
     7
100
AcDbLine
 10
56.292296776
 20
408.4548547679
 30
0.0
 11
56.292296776
 21
409.1120276914
 31
0.0
  0
LINE
  5
166
330
75
100
AcDbEntity
  8
$DDT_AUDIT_GENERATED_(154)
  6
Continuous
 62
     7
100
AcDbLine
 10
62.292296776
 20
409.1120276914
 30
0.0
 11
62.292296776
 21
408.4548547679
 31
0.0
  0
ARC
  5
167
330
75
100
AcDbEntity
  8
$DDT_AUDIT_GENERATED_(154)
  6
Continuous
 62
     7
100
AcDbCircle
 10
59.292296776
 20
399.5464317874
 30
0.0
 40
10.025
100
AcDbArc
 50
47.4126742723
 51
72.5873257277
  0
ARC
  5
168
330
75
100
AcDbEntity
  8
$DDT_AUDIT_GENERATED_(154)
  6
Continuous
 62
     7
100
AcDbCircle
 10
59.292296776
 20
399.5464317874
 30
0.0
 40
10.025
100
AcDbArc
 50
12.5873257277
 51
47.4126742723
  0
LINE
  5
169
330
75
100
AcDbEntity
  8
$DDT_AUDIT_GENERATED_(154)
  6
Continuous
 62
     7
100
AcDbLine
 10
65.5072173848
 20
406.598719489
 30
0.0
 11
66.0763458313
 21
406.9273059508
 31
0.0
  0
LINE
  5
16A
330
75
100
AcDbEntity
  8
$DDT_AUDIT_GENERATED_(154)
  6
Continuous
 62
     7
100
AcDbLine
 10
69.0763458313
 20
401.7311535281
 30
0.0
 11
68.5072173848
 21
401.4025670663
 31
0.0
  0
ARC
  5
16B
330
75
100
AcDbEntity
  8
$DDT_AUDIT_GENERATED_(154)
  6
Continuous
 62
     7
100
AcDbCircle
 10
59.292296776
 20
399.5464317874
 30
0.0
 40
10.025
100
AcDbArc
 50
347.4126742723
 51
12.5873257277
  0
ARC
  5
16C
330
75
100
AcDbEntity
  8
$DDT_AUDIT_GENERATED_(154)
  6
Continuous
 62
     7
100
AcDbCircle
 10
59.292296776
 20
399.5464317874
 30
0.0
 40
10.025
100
AcDbArc
 50
312.5873257277
 51
347.4126742723
  0
LINE
  5
16D
330
75
100
AcDbEntity
  8
$DDT_AUDIT_GENERATED_(154)
  6
Continuous
 62
     7
100
AcDbLine
 10
68.5072173848
 20
397.6902965085
 30
0.0
 11
69.0763458313
 21
397.3617100467
 31
0.0
  0
LINE
  5
16E
330
75
100
AcDbEntity
  8
$DDT_AUDIT_GENERATED_(154)
  6
Continuous
 62
     7
100
AcDbLine
 10
66.0763458313
 20
392.165557624
 30
0.0
 11
65.5072173848
 21
392.4941440858
 31
0.0
  0
LINE
  5
16F
330
75
100
AcDbEntity
  8
$DDT_AUDIT_GENERATED_(154)
  6
Continuous
 62
     7
100
AcDbLine
 10
59.792296776
 20
400.0464317874
 30
0.0
 11
59.792296776
 21
399.0464317874
 31
0.0
  0
LINE
  5
170
330
75
100
AcDbEntity
  8
$DDT_AUDIT_GENERATED_(154)
  6
Continuous
 62
     7
100
AcDbLine
 10
59.792296776
 20
399.0464317874
 30
0.0
 11
58.792296776
 21
399.0464317874
 31
0.0
  0
LINE
  5
171
330
75
100
AcDbEntity
  8
$DDT_AUDIT_GENERATED_(154)
  6
Continuous
 62
     7
100
AcDbLine
 10
59.792296776
 20
398.8464317874
 30
0.0
 11
59.792296776
 21
397.8464317874
 31
0.0
  0
LINE
  5
172
330
75
100
AcDbEntity
  8
$DDT_AUDIT_GENERATED_(154)
  6
Continuous
 62
     7
100
AcDbLine
 10
59.792296776
 20
397.8464317874
 30
0.0
 11
58.792296776
 21
397.8464317874
 31
0.0
  0
LINE
  5
173
330
75
100
AcDbEntity
  8
$DDT_AUDIT_GENERATED_(154)
  6
Continuous
 62
     7
100
AcDbLine
 10
58.792296776
 20
398.8464317874
 30
0.0
 11
59.792296776
 21
398.8464317874
 31
0.0
  0
LINE
  5
174
330
75
100
AcDbEntity
  8
$DDT_AUDIT_GENERATED_(154)
  6
Continuous
 62
     7
100
AcDbLine
 10
59.792296776
 20
397.6464317874
 30
0.0
 11
59.792296776
 21
396.6464317874
 31
0.0
  0
LINE
  5
175
330
75
100
AcDbEntity
  8
$DDT_AUDIT_GENERATED_(154)
  6
Continuous
 62
     7
100
AcDbLine
 10
59.792296776
 20
396.6464317874
 30
0.0
 11
58.792296776
 21
396.6464317874
 31
0.0
  0
LINE
  5
176
330
75
100
AcDbEntity
  8
$DDT_AUDIT_GENERATED_(154)
  6
Continuous
 62
     7
100
AcDbLine
 10
58.792296776
 20
397.6464317874
 30
0.0
 11
59.792296776
 21
397.6464317874
 31
0.0
  0
LINE
  5
177
330
75
100
AcDbEntity
  8
$DDT_AUDIT_GENERATED_(154)
  6
Continuous
 62
     7
100
AcDbLine
 10
59.792296776
 20
396.4464317874
 30
0.0
 11
59.792296776
 21
395.4464317874
 31
0.0
  0
LINE
  5
178
330
75
100
AcDbEntity
  8
$DDT_AUDIT_GENERATED_(154)
  6
Continuous
 62
     7
100
AcDbLine
 10
59.792296776
 20
395.4464317874
 30
0.0
 11
58.792296776
 21
395.4464317874
 31
0.0
  0
LINE
  5
179
330
75
100
AcDbEntity
  8
$DDT_AUDIT_GENERATED_(154)
  6
Continuous
 62
     7
100
AcDbLine
 10
58.792296776
 20
396.4464317874
 30
0.0
 11
59.792296776
 21
396.4464317874
 31
0.0
  0
LINE
  5
17A
330
75
100
AcDbEntity
  8
$DDT_AUDIT_GENERATED_(154)
  6
Continuous
 62
     7
100
AcDbLine
 10
59.792296776
 20
395.2464317874
 30
0.0
 11
59.792296776
 21
394.2464317874
 31
0.0
  0
LINE
  5
17B
330
75
100
AcDbEntity
  8
$DDT_AUDIT_GENERATED_(154)
  6
Continuous
 62
     7
100
AcDbLine
 10
59.792296776
 20
394.2464317874
 30
0.0
 11
58.792296776
 21
394.2464317874
 31
0.0
  0
LINE
  5
17C
330
75
100
AcDbEntity
  8
$DDT_AUDIT_GENERATED_(154)
  6
Continuous
 62
     7
100
AcDbLine
 10
58.792296776
 20
395.2464317874
 30
0.0
 11
59.792296776
 21
395.2464317874
 31
0.0
  0
LINE
  5
17D
330
75
100
AcDbEntity
  8
$DDT_AUDIT_GENERATED_(154)
  6
Continuous
 62
     7
100
AcDbLine
 10
59.792296776
 20
394.0464317874
 30
0.0
 11
59.792296776
 21
393.0464317874
 31
0.0
  0
LINE
  5
17E
330
75
100
AcDbEntity
  8
$DDT_AUDIT_GENERATED_(154)
  6
Continuous
 62
     7
100
AcDbLine
 10
59.792296776
 20
393.0464317874
 30
0.0
 11
58.792296776
 21
393.0464317874
 31
0.0
  0
LINE
  5
17F
330
75
100
AcDbEntity
  8
$DDT_AUDIT_GENERATED_(154)
  6
Continuous
 62
     7
100
AcDbLine
 10
58.792296776
 20
394.0464317874
 30
0.0
 11
59.792296776
 21
394.0464317874
 31
0.0
  0
LINE
  5
180
330
75
100
AcDbEntity
  8
$DDT_AUDIT_GENERATED_(154)
  6
Continuous
 62
     7
100
AcDbLine
 10
59.792296776
 20
391.8464317874
 30
0.0
 11
58.792296776
 21
391.8464317874
 31
0.0
  0
LINE
  5
181
330
75
100
AcDbEntity
  8
$DDT_AUDIT_GENERATED_(154)
  6
Continuous
 62
     7
100
AcDbLine
 10
59.792296776
 20
392.8464317874
 30
0.0
 11
59.792296776
 21
391.8464317874
 31
0.0
  0
LINE
  5
182
330
75
100
AcDbEntity
  8
$DDT_AUDIT_GENERATED_(154)
  6
Continuous
 62
     7
100
AcDbLine
 10
58.792296776
 20
392.8464317874
 30
0.0
 11
59.792296776
 21
392.8464317874
 31
0.0
  0
LINE
  5
183
330
75
100
AcDbEntity
  8
$DDT_AUDIT_GENERATED_(154)
  6
Continuous
 62
     7
100
AcDbLine
 10
60.992296776
 20
400.0464317874
 30
0.0
 11
60.992296776
 21
399.0464317874
 31
0.0
  0
LINE
  5
184
330
75
100
AcDbEntity
  8
$DDT_AUDIT_GENERATED_(154)
  6
Continuous
 62
     7
100
AcDbLine
 10
60.992296776
 20
399.0464317874
 30
0.0
 11
59.992296776
 21
399.0464317874
 31
0.0
  0
LINE
  5
185
330
75
100
AcDbEntity
  8
$DDT_AUDIT_GENERATED_(154)
  6
Continuous
 62
     7
100
AcDbLine
 10
59.992296776
 20
399.0464317874
 30
0.0
 11
59.992296776
 21
400.0464317874
 31
0.0
  0
LINE
  5
186
330
75
100
AcDbEntity
  8
$DDT_AUDIT_GENERATED_(154)
  6
Continuous
 62
     7
100
AcDbLine
 10
60.992296776
 20
398.8464317874
 30
0.0
 11
60.992296776
 21
397.8464317874
 31
0.0
  0
LINE
  5
187
330
75
100
AcDbEntity
  8
$DDT_AUDIT_GENERATED_(154)
  6
Continuous
 62
     7
100
AcDbLine
 10
60.992296776
 20
397.8464317874
 30
0.0
 11
59.992296776
 21
397.8464317874
 31
0.0
  0
LINE
  5
188
330
75
100
AcDbEntity
  8
$DDT_AUDIT_GENERATED_(154)
  6
Continuous
 62
     7
100
AcDbLine
 10
59.992296776
 20
397.8464317874
 30
0.0
 11
59.992296776
 21
398.8464317874
 31
0.0
  0
LINE
  5
189
330
75
100
AcDbEntity
  8
$DDT_AUDIT_GENERATED_(154)
  6
Continuous
 62
     7
100
AcDbLine
 10
59.992296776
 20
398.8464317874
 30
0.0
 11
60.992296776
 21
398.8464317874
 31
0.0
  0
LINE
  5
18A
330
75
100
AcDbEntity
  8
$DDT_AUDIT_GENERATED_(154)
  6
Continuous
 62
     7
100
AcDbLine
 10
60.992296776
 20
397.6464317874
 30
0.0
 11
60.992296776
 21
396.6464317874
 31
0.0
  0
LINE
  5
18B
330
75
100
AcDbEntity
  8
$DDT_AUDIT_GENERATED_(154)
  6
Continuous
 62
     7
100
AcDbLine
 10
60.992296776
 20
396.6464317874
 30
0.0
 11
59.992296776
 21
396.6464317874
 31
0.0
  0
LINE
  5
18C
330
75
100
AcDbEntity
  8
$DDT_AUDIT_GENERATED_(154)
  6
Continuous
 62
     7
100
AcDbLine
 10
59.992296776
 20
396.6464317874
 30
0.0
 11
59.992296776
 21
397.6464317874
 31
0.0
  0
LINE
  5
18D
330
75
100
AcDbEntity
  8
$DDT_AUDIT_GENERATED_(154)
  6
Continuous
 62
     7
100
AcDbLine
 10
59.992296776
 20
397.6464317874
 30
0.0
 11
60.992296776
 21
397.6464317874
 31
0.0
  0
LINE
  5
18E
330
75
100
AcDbEntity
  8
$DDT_AUDIT_GENERATED_(154)
  6
Continuous
 62
     7
100
AcDbLine
 10
60.992296776
 20
396.4464317874
 30
0.0
 11
60.992296776
 21
395.4464317874
 31
0.0
  0
LINE
  5
18F
330
75
100
AcDbEntity
  8
$DDT_AUDIT_GENERATED_(154)
  6
Continuous
 62
     7
100
AcDbLine
 10
60.992296776
 20
395.4464317874
 30
0.0
 11
59.992296776
 21
395.4464317874
 31
0.0
  0
LINE
  5
190
330
75
100
AcDbEntity
  8
$DDT_AUDIT_GENERATED_(154)
  6
Continuous
 62
     7
100
AcDbLine
 10
59.992296776
 20
395.4464317874
 30
0.0
 11
59.992296776
 21
396.4464317874
 31
0.0
  0
LINE
  5
191
330
75
100
AcDbEntity
  8
$DDT_AUDIT_GENERATED_(154)
  6
Continuous
 62
     7
100
AcDbLine
 10
59.992296776
 20
396.4464317874
 30
0.0
 11
60.992296776
 21
396.4464317874
 31
0.0
  0
LINE
  5
192
330
75
100
AcDbEntity
  8
$DDT_AUDIT_GENERATED_(154)
  6
Continuous
 62
     7
100
AcDbLine
 10
60.992296776
 20
395.2464317874
 30
0.0
 11
60.992296776
 21
394.2464317874
 31
0.0
  0
LINE
  5
193
330
75
100
AcDbEntity
  8
$DDT_AUDIT_GENERATED_(154)
  6
Continuous
 62
     7
100
AcDbLine
 10
60.992296776
 20
394.2464317874
 30
0.0
 11
59.992296776
 21
394.2464317874
 31
0.0
  0
LINE
  5
194
330
75
100
AcDbEntity
  8
$DDT_AUDIT_GENERATED_(154)
  6
Continuous
 62
     7
100
AcDbLine
 10
59.992296776
 20
394.2464317874
 30
0.0
 11
59.992296776
 21
395.2464317874
 31
0.0
  0
LINE
  5
195
330
75
100
AcDbEntity
  8
$DDT_AUDIT_GENERATED_(154)
  6
Continuous
 62
     7
100
AcDbLine
 10
59.992296776
 20
395.2464317874
 30
0.0
 11
60.992296776
 21
395.2464317874
 31
0.0
  0
LINE
  5
196
330
75
100
AcDbEntity
  8
$DDT_AUDIT_GENERATED_(154)
  6
Continuous
 62
     7
100
AcDbLine
 10
60.992296776
 20
394.0464317874
 30
0.0
 11
60.992296776
 21
393.0464317874
 31
0.0
  0
LINE
  5
197
330
75
100
AcDbEntity
  8
$DDT_AUDIT_GENERATED_(154)
  6
Continuous
 62
     7
100
AcDbLine
 10
60.992296776
 20
393.0464317874
 30
0.0
 11
59.992296776
 21
393.0464317874
 31
0.0
  0
LINE
  5
198
330
75
100
AcDbEntity
  8
$DDT_AUDIT_GENERATED_(154)
  6
Continuous
 62
     7
100
AcDbLine
 10
59.992296776
 20
393.0464317874
 30
0.0
 11
59.992296776
 21
394.0464317874
 31
0.0
  0
LINE
  5
199
330
75
100
AcDbEntity
  8
$DDT_AUDIT_GENERATED_(154)
  6
Continuous
 62
     7
100
AcDbLine
 10
59.992296776
 20
394.0464317874
 30
0.0
 11
60.992296776
 21
394.0464317874
 31
0.0
  0
LINE
  5
19A
330
75
100
AcDbEntity
  8
$DDT_AUDIT_GENERATED_(154)
  6
Continuous
 62
     7
100
AcDbLine
 10
60.992296776
 20
392.8464317874
 30
0.0
 11
60.992296776
 21
391.8464317874
 31
0.0
  0
LINE
  5
19B
330
75
100
AcDbEntity
  8
$DDT_AUDIT_GENERATED_(154)
  6
Continuous
 62
     7
100
AcDbLine
 10
60.992296776
 20
391.8464317874
 30
0.0
 11
59.992296776
 21
391.8464317874
 31
0.0
  0
LINE
  5
19C
330
75
100
AcDbEntity
  8
$DDT_AUDIT_GENERATED_(154)
  6
Continuous
 62
     7
100
AcDbLine
 10
59.992296776
 20
391.8464317874
 30
0.0
 11
59.992296776
 21
392.8464317874
 31
0.0
  0
LINE
  5
19D
330
75
100
AcDbEntity
  8
$DDT_AUDIT_GENERATED_(154)
  6
Continuous
 62
     7
100
AcDbLine
 10
59.992296776
 20
392.8464317874
 30
0.0
 11
60.992296776
 21
392.8464317874
 31
0.0
  0
LINE
  5
19E
330
75
100
AcDbEntity
  8
$DDT_AUDIT_GENERATED_(154)
  6
Continuous
 62
     7
100
AcDbLine
 10
62.192296776
 20
400.0464317874
 30
0.0
 11
62.192296776
 21
399.0464317874
 31
0.0
  0
LINE
  5
19F
330
75
100
AcDbEntity
  8
$DDT_AUDIT_GENERATED_(154)
  6
Continuous
 62
     7
100
AcDbLine
 10
62.192296776
 20
399.0464317874
 30
0.0
 11
61.192296776
 21
399.0464317874
 31
0.0
  0
LINE
  5
1A0
330
75
100
AcDbEntity
  8
$DDT_AUDIT_GENERATED_(154)
  6
Continuous
 62
     7
100
AcDbLine
 10
61.192296776
 20
399.0464317874
 30
0.0
 11
61.192296776
 21
400.0464317874
 31
0.0
  0
LINE
  5
1A1
330
75
100
AcDbEntity
  8
$DDT_AUDIT_GENERATED_(154)
  6
Continuous
 62
     7
100
AcDbLine
 10
62.192296776
 20
398.8464317874
 30
0.0
 11
62.192296776
 21
397.8464317874
 31
0.0
  0
LINE
  5
1A2
330
75
100
AcDbEntity
  8
$DDT_AUDIT_GENERATED_(154)
  6
Continuous
 62
     7
100
AcDbLine
 10
62.192296776
 20
397.8464317874
 30
0.0
 11
61.192296776
 21
397.8464317874
 31
0.0
  0
LINE
  5
1A3
330
75
100
AcDbEntity
  8
$DDT_AUDIT_GENERATED_(154)
  6
Continuous
 62
     7
100
AcDbLine
 10
61.192296776
 20
397.8464317874
 30
0.0
 11
61.192296776
 21
398.8464317874
 31
0.0
  0
LINE
  5
1A4
330
75
100
AcDbEntity
  8
$DDT_AUDIT_GENERATED_(154)
  6
Continuous
 62
     7
100
AcDbLine
 10
61.192296776
 20
398.8464317874
 30
0.0
 11
62.192296776
 21
398.8464317874
 31
0.0
  0
LINE
  5
1A5
330
75
100
AcDbEntity
  8
$DDT_AUDIT_GENERATED_(154)
  6
Continuous
 62
     7
100
AcDbLine
 10
62.192296776
 20
397.6464317874
 30
0.0
 11
62.192296776
 21
396.6464317874
 31
0.0
  0
LINE
  5
1A6
330
75
100
AcDbEntity
  8
$DDT_AUDIT_GENERATED_(154)
  6
Continuous
 62
     7
100
AcDbLine
 10
62.192296776
 20
396.6464317874
 30
0.0
 11
61.192296776
 21
396.6464317874
 31
0.0
  0
LINE
  5
1A7
330
75
100
AcDbEntity
  8
$DDT_AUDIT_GENERATED_(154)
  6
Continuous
 62
     7
100
AcDbLine
 10
61.192296776
 20
396.6464317874
 30
0.0
 11
61.192296776
 21
397.6464317874
 31
0.0
  0
LINE
  5
1A8
330
75
100
AcDbEntity
  8
$DDT_AUDIT_GENERATED_(154)
  6
Continuous
 62
     7
100
AcDbLine
 10
61.192296776
 20
397.6464317874
 30
0.0
 11
62.192296776
 21
397.6464317874
 31
0.0
  0
LINE
  5
1A9
330
75
100
AcDbEntity
  8
$DDT_AUDIT_GENERATED_(154)
  6
Continuous
 62
     7
100
AcDbLine
 10
62.192296776
 20
396.4464317874
 30
0.0
 11
62.192296776
 21
395.4464317874
 31
0.0
  0
LINE
  5
1AA
330
75
100
AcDbEntity
  8
$DDT_AUDIT_GENERATED_(154)
  6
Continuous
 62
     7
100
AcDbLine
 10
62.192296776
 20
395.4464317874
 30
0.0
 11
61.192296776
 21
395.4464317874
 31
0.0
  0
LINE
  5
1AB
330
75
100
AcDbEntity
  8
$DDT_AUDIT_GENERATED_(154)
  6
Continuous
 62
     7
100
AcDbLine
 10
61.192296776
 20
395.4464317874
 30
0.0
 11
61.192296776
 21
396.4464317874
 31
0.0
  0
LINE
  5
1AC
330
75
100
AcDbEntity
  8
$DDT_AUDIT_GENERATED_(154)
  6
Continuous
 62
     7
100
AcDbLine
 10
61.192296776
 20
396.4464317874
 30
0.0
 11
62.192296776
 21
396.4464317874
 31
0.0
  0
LINE
  5
1AD
330
75
100
AcDbEntity
  8
$DDT_AUDIT_GENERATED_(154)
  6
Continuous
 62
     7
100
AcDbLine
 10
62.192296776
 20
395.2464317874
 30
0.0
 11
62.192296776
 21
394.2464317874
 31
0.0
  0
LINE
  5
1AE
330
75
100
AcDbEntity
  8
$DDT_AUDIT_GENERATED_(154)
  6
Continuous
 62
     7
100
AcDbLine
 10
62.192296776
 20
394.2464317874
 30
0.0
 11
61.192296776
 21
394.2464317874
 31
0.0
  0
LINE
  5
1AF
330
75
100
AcDbEntity
  8
$DDT_AUDIT_GENERATED_(154)
  6
Continuous
 62
     7
100
AcDbLine
 10
61.192296776
 20
394.2464317874
 30
0.0
 11
61.192296776
 21
395.2464317874
 31
0.0
  0
LINE
  5
1B0
330
75
100
AcDbEntity
  8
$DDT_AUDIT_GENERATED_(154)
  6
Continuous
 62
     7
100
AcDbLine
 10
61.192296776
 20
395.2464317874
 30
0.0
 11
62.192296776
 21
395.2464317874
 31
0.0
  0
LINE
  5
1B1
330
75
100
AcDbEntity
  8
$DDT_AUDIT_GENERATED_(154)
  6
Continuous
 62
     7
100
AcDbLine
 10
62.192296776
 20
394.0464317874
 30
0.0
 11
62.192296776
 21
393.0464317874
 31
0.0
  0
LINE
  5
1B2
330
75
100
AcDbEntity
  8
$DDT_AUDIT_GENERATED_(154)
  6
Continuous
 62
     7
100
AcDbLine
 10
62.192296776
 20
393.0464317874
 30
0.0
 11
61.192296776
 21
393.0464317874
 31
0.0
  0
LINE
  5
1B3
330
75
100
AcDbEntity
  8
$DDT_AUDIT_GENERATED_(154)
  6
Continuous
 62
     7
100
AcDbLine
 10
61.192296776
 20
393.0464317874
 30
0.0
 11
61.192296776
 21
394.0464317874
 31
0.0
  0
LINE
  5
1B4
330
75
100
AcDbEntity
  8
$DDT_AUDIT_GENERATED_(154)
  6
Continuous
 62
     7
100
AcDbLine
 10
61.192296776
 20
394.0464317874
 30
0.0
 11
62.192296776
 21
394.0464317874
 31
0.0
  0
LINE
  5
1B5
330
75
100
AcDbEntity
  8
$DDT_AUDIT_GENERATED_(154)
  6
Continuous
 62
     7
100
AcDbLine
 10
63.392296776
 20
400.0464317874
 30
0.0
 11
63.392296776
 21
399.0464317874
 31
0.0
  0
LINE
  5
1B6
330
75
100
AcDbEntity
  8
$DDT_AUDIT_GENERATED_(154)
  6
Continuous
 62
     7
100
AcDbLine
 10
63.392296776
 20
399.0464317874
 30
0.0
 11
62.392296776
 21
399.0464317874
 31
0.0
  0
LINE
  5
1B7
330
75
100
AcDbEntity
  8
$DDT_AUDIT_GENERATED_(154)
  6
Continuous
 62
     7
100
AcDbLine
 10
62.392296776
 20
399.0464317874
 30
0.0
 11
62.392296776
 21
400.0464317874
 31
0.0
  0
LINE
  5
1B8
330
75
100
AcDbEntity
  8
$DDT_AUDIT_GENERATED_(154)
  6
Continuous
 62
     7
100
AcDbLine
 10
63.392296776
 20
398.8464317874
 30
0.0
 11
63.392296776
 21
397.8464317874
 31
0.0
  0
LINE
  5
1B9
330
75
100
AcDbEntity
  8
$DDT_AUDIT_GENERATED_(154)
  6
Continuous
 62
     7
100
AcDbLine
 10
63.392296776
 20
397.8464317874
 30
0.0
 11
62.392296776
 21
397.8464317874
 31
0.0
  0
LINE
  5
1BA
330
75
100
AcDbEntity
  8
$DDT_AUDIT_GENERATED_(154)
  6
Continuous
 62
     7
100
AcDbLine
 10
62.392296776
 20
397.8464317874
 30
0.0
 11
62.392296776
 21
398.8464317874
 31
0.0
  0
LINE
  5
1BB
330
75
100
AcDbEntity
  8
$DDT_AUDIT_GENERATED_(154)
  6
Continuous
 62
     7
100
AcDbLine
 10
62.392296776
 20
398.8464317874
 30
0.0
 11
63.392296776
 21
398.8464317874
 31
0.0
  0
LINE
  5
1BC
330
75
100
AcDbEntity
  8
$DDT_AUDIT_GENERATED_(154)
  6
Continuous
 62
     7
100
AcDbLine
 10
63.392296776
 20
397.6464317874
 30
0.0
 11
63.392296776
 21
396.6464317874
 31
0.0
  0
LINE
  5
1BD
330
75
100
AcDbEntity
  8
$DDT_AUDIT_GENERATED_(154)
  6
Continuous
 62
     7
100
AcDbLine
 10
63.392296776
 20
396.6464317874
 30
0.0
 11
62.392296776
 21
396.6464317874
 31
0.0
  0
LINE
  5
1BE
330
75
100
AcDbEntity
  8
$DDT_AUDIT_GENERATED_(154)
  6
Continuous
 62
     7
100
AcDbLine
 10
62.392296776
 20
396.6464317874
 30
0.0
 11
62.392296776
 21
397.6464317874
 31
0.0
  0
LINE
  5
1BF
330
75
100
AcDbEntity
  8
$DDT_AUDIT_GENERATED_(154)
  6
Continuous
 62
     7
100
AcDbLine
 10
62.392296776
 20
397.6464317874
 30
0.0
 11
63.392296776
 21
397.6464317874
 31
0.0
  0
LINE
  5
1C0
330
75
100
AcDbEntity
  8
$DDT_AUDIT_GENERATED_(154)
  6
Continuous
 62
     7
100
AcDbLine
 10
63.392296776
 20
396.4464317874
 30
0.0
 11
63.392296776
 21
395.4464317874
 31
0.0
  0
LINE
  5
1C1
330
75
100
AcDbEntity
  8
$DDT_AUDIT_GENERATED_(154)
  6
Continuous
 62
     7
100
AcDbLine
 10
63.392296776
 20
395.4464317874
 30
0.0
 11
62.392296776
 21
395.4464317874
 31
0.0
  0
LINE
  5
1C2
330
75
100
AcDbEntity
  8
$DDT_AUDIT_GENERATED_(154)
  6
Continuous
 62
     7
100
AcDbLine
 10
62.392296776
 20
395.4464317874
 30
0.0
 11
62.392296776
 21
396.4464317874
 31
0.0
  0
LINE
  5
1C3
330
75
100
AcDbEntity
  8
$DDT_AUDIT_GENERATED_(154)
  6
Continuous
 62
     7
100
AcDbLine
 10
62.392296776
 20
396.4464317874
 30
0.0
 11
63.392296776
 21
396.4464317874
 31
0.0
  0
LINE
  5
1C4
330
75
100
AcDbEntity
  8
$DDT_AUDIT_GENERATED_(154)
  6
Continuous
 62
     7
100
AcDbLine
 10
63.392296776
 20
395.2464317874
 30
0.0
 11
63.392296776
 21
394.2464317874
 31
0.0
  0
LINE
  5
1C5
330
75
100
AcDbEntity
  8
$DDT_AUDIT_GENERATED_(154)
  6
Continuous
 62
     7
100
AcDbLine
 10
63.392296776
 20
394.2464317874
 30
0.0
 11
62.392296776
 21
394.2464317874
 31
0.0
  0
LINE
  5
1C6
330
75
100
AcDbEntity
  8
$DDT_AUDIT_GENERATED_(154)
  6
Continuous
 62
     7
100
AcDbLine
 10
62.392296776
 20
394.2464317874
 30
0.0
 11
62.392296776
 21
395.2464317874
 31
0.0
  0
LINE
  5
1C7
330
75
100
AcDbEntity
  8
$DDT_AUDIT_GENERATED_(154)
  6
Continuous
 62
     7
100
AcDbLine
 10
62.392296776
 20
395.2464317874
 30
0.0
 11
63.392296776
 21
395.2464317874
 31
0.0
  0
LINE
  5
1C8
330
75
100
AcDbEntity
  8
$DDT_AUDIT_GENERATED_(154)
  6
Continuous
 62
     7
100
AcDbLine
 10
63.392296776
 20
393.0464317874
 30
0.0
 11
62.392296776
 21
393.0464317874
 31
0.0
  0
LINE
  5
1C9
330
75
100
AcDbEntity
  8
$DDT_AUDIT_GENERATED_(154)
  6
Continuous
 62
     7
100
AcDbLine
 10
63.392296776
 20
394.0464317874
 30
0.0
 11
63.392296776
 21
393.0464317874
 31
0.0
  0
LINE
  5
1CA
330
75
100
AcDbEntity
  8
$DDT_AUDIT_GENERATED_(154)
  6
Continuous
 62
     7
100
AcDbLine
 10
62.392296776
 20
393.0464317874
 30
0.0
 11
62.392296776
 21
394.0464317874
 31
0.0
  0
LINE
  5
1CB
330
75
100
AcDbEntity
  8
$DDT_AUDIT_GENERATED_(154)
  6
Continuous
 62
     7
100
AcDbLine
 10
62.392296776
 20
394.0464317874
 30
0.0
 11
63.392296776
 21
394.0464317874
 31
0.0
  0
LINE
  5
1CC
330
75
100
AcDbEntity
  8
$DDT_AUDIT_GENERATED_(154)
  6
Continuous
 62
     7
100
AcDbLine
 10
64.592296776
 20
400.0464317874
 30
0.0
 11
64.592296776
 21
399.0464317874
 31
0.0
  0
LINE
  5
1CD
330
75
100
AcDbEntity
  8
$DDT_AUDIT_GENERATED_(154)
  6
Continuous
 62
     7
100
AcDbLine
 10
64.592296776
 20
399.0464317874
 30
0.0
 11
63.592296776
 21
399.0464317874
 31
0.0
  0
LINE
  5
1CE
330
75
100
AcDbEntity
  8
$DDT_AUDIT_GENERATED_(154)
  6
Continuous
 62
     7
100
AcDbLine
 10
63.592296776
 20
399.0464317874
 30
0.0
 11
63.592296776
 21
400.0464317874
 31
0.0
  0
LINE
  5
1CF
330
75
100
AcDbEntity
  8
$DDT_AUDIT_GENERATED_(154)
  6
Continuous
 62
     7
100
AcDbLine
 10
64.592296776
 20
398.8464317874
 30
0.0
 11
64.592296776
 21
397.8464317874
 31
0.0
  0
LINE
  5
1D0
330
75
100
AcDbEntity
  8
$DDT_AUDIT_GENERATED_(154)
  6
Continuous
 62
     7
100
AcDbLine
 10
64.592296776
 20
397.8464317874
 30
0.0
 11
63.592296776
 21
397.8464317874
 31
0.0
  0
LINE
  5
1D1
330
75
100
AcDbEntity
  8
$DDT_AUDIT_GENERATED_(154)
  6
Continuous
 62
     7
100
AcDbLine
 10
63.592296776
 20
397.8464317874
 30
0.0
 11
63.592296776
 21
398.8464317874
 31
0.0
  0
LINE
  5
1D2
330
75
100
AcDbEntity
  8
$DDT_AUDIT_GENERATED_(154)
  6
Continuous
 62
     7
100
AcDbLine
 10
63.592296776
 20
398.8464317874
 30
0.0
 11
64.592296776
 21
398.8464317874
 31
0.0
  0
LINE
  5
1D3
330
75
100
AcDbEntity
  8
$DDT_AUDIT_GENERATED_(154)
  6
Continuous
 62
     7
100
AcDbLine
 10
64.592296776
 20
397.6464317874
 30
0.0
 11
64.592296776
 21
396.6464317874
 31
0.0
  0
LINE
  5
1D4
330
75
100
AcDbEntity
  8
$DDT_AUDIT_GENERATED_(154)
  6
Continuous
 62
     7
100
AcDbLine
 10
64.592296776
 20
396.6464317874
 30
0.0
 11
63.592296776
 21
396.6464317874
 31
0.0
  0
LINE
  5
1D5
330
75
100
AcDbEntity
  8
$DDT_AUDIT_GENERATED_(154)
  6
Continuous
 62
     7
100
AcDbLine
 10
63.592296776
 20
396.6464317874
 30
0.0
 11
63.592296776
 21
397.6464317874
 31
0.0
  0
LINE
  5
1D6
330
75
100
AcDbEntity
  8
$DDT_AUDIT_GENERATED_(154)
  6
Continuous
 62
     7
100
AcDbLine
 10
63.592296776
 20
397.6464317874
 30
0.0
 11
64.592296776
 21
397.6464317874
 31
0.0
  0
LINE
  5
1D7
330
75
100
AcDbEntity
  8
$DDT_AUDIT_GENERATED_(154)
  6
Continuous
 62
     7
100
AcDbLine
 10
64.592296776
 20
396.4464317874
 30
0.0
 11
64.592296776
 21
395.4464317874
 31
0.0
  0
LINE
  5
1D8
330
75
100
AcDbEntity
  8
$DDT_AUDIT_GENERATED_(154)
  6
Continuous
 62
     7
100
AcDbLine
 10
64.592296776
 20
395.4464317874
 30
0.0
 11
63.592296776
 21
395.4464317874
 31
0.0
  0
LINE
  5
1D9
330
75
100
AcDbEntity
  8
$DDT_AUDIT_GENERATED_(154)
  6
Continuous
 62
     7
100
AcDbLine
 10
63.592296776
 20
395.4464317874
 30
0.0
 11
63.592296776
 21
396.4464317874
 31
0.0
  0
LINE
  5
1DA
330
75
100
AcDbEntity
  8
$DDT_AUDIT_GENERATED_(154)
  6
Continuous
 62
     7
100
AcDbLine
 10
63.592296776
 20
396.4464317874
 30
0.0
 11
64.592296776
 21
396.4464317874
 31
0.0
  0
LINE
  5
1DB
330
75
100
AcDbEntity
  8
$DDT_AUDIT_GENERATED_(154)
  6
Continuous
 62
     7
100
AcDbLine
 10
64.592296776
 20
395.2464317874
 30
0.0
 11
64.592296776
 21
394.2464317874
 31
0.0
  0
LINE
  5
1DC
330
75
100
AcDbEntity
  8
$DDT_AUDIT_GENERATED_(154)
  6
Continuous
 62
     7
100
AcDbLine
 10
64.592296776
 20
394.2464317874
 30
0.0
 11
63.592296776
 21
394.2464317874
 31
0.0
  0
LINE
  5
1DD
330
75
100
AcDbEntity
  8
$DDT_AUDIT_GENERATED_(154)
  6
Continuous
 62
     7
100
AcDbLine
 10
63.592296776
 20
394.2464317874
 30
0.0
 11
63.592296776
 21
395.2464317874
 31
0.0
  0
LINE
  5
1DE
330
75
100
AcDbEntity
  8
$DDT_AUDIT_GENERATED_(154)
  6
Continuous
 62
     7
100
AcDbLine
 10
63.592296776
 20
395.2464317874
 30
0.0
 11
64.592296776
 21
395.2464317874
 31
0.0
  0
LINE
  5
1DF
330
75
100
AcDbEntity
  8
$DDT_AUDIT_GENERATED_(154)
  6
Continuous
 62
     7
100
AcDbLine
 10
65.792296776
 20
400.0464317874
 30
0.0
 11
65.792296776
 21
399.0464317874
 31
0.0
  0
LINE
  5
1E0
330
75
100
AcDbEntity
  8
$DDT_AUDIT_GENERATED_(154)
  6
Continuous
 62
     7
100
AcDbLine
 10
65.792296776
 20
399.0464317874
 30
0.0
 11
64.792296776
 21
399.0464317874
 31
0.0
  0
LINE
  5
1E1
330
75
100
AcDbEntity
  8
$DDT_AUDIT_GENERATED_(154)
  6
Continuous
 62
     7
100
AcDbLine
 10
64.792296776
 20
399.0464317874
 30
0.0
 11
64.792296776
 21
400.0464317874
 31
0.0
  0
LINE
  5
1E2
330
75
100
AcDbEntity
  8
$DDT_AUDIT_GENERATED_(154)
  6
Continuous
 62
     7
100
AcDbLine
 10
65.792296776
 20
398.8464317874
 30
0.0
 11
65.792296776
 21
397.8464317874
 31
0.0
  0
LINE
  5
1E3
330
75
100
AcDbEntity
  8
$DDT_AUDIT_GENERATED_(154)
  6
Continuous
 62
     7
100
AcDbLine
 10
65.792296776
 20
397.8464317874
 30
0.0
 11
64.792296776
 21
397.8464317874
 31
0.0
  0
LINE
  5
1E4
330
75
100
AcDbEntity
  8
$DDT_AUDIT_GENERATED_(154)
  6
Continuous
 62
     7
100
AcDbLine
 10
64.792296776
 20
397.8464317874
 30
0.0
 11
64.792296776
 21
398.8464317874
 31
0.0
  0
LINE
  5
1E5
330
75
100
AcDbEntity
  8
$DDT_AUDIT_GENERATED_(154)
  6
Continuous
 62
     7
100
AcDbLine
 10
64.792296776
 20
398.8464317874
 30
0.0
 11
65.792296776
 21
398.8464317874
 31
0.0
  0
LINE
  5
1E6
330
75
100
AcDbEntity
  8
$DDT_AUDIT_GENERATED_(154)
  6
Continuous
 62
     7
100
AcDbLine
 10
65.792296776
 20
397.6464317874
 30
0.0
 11
65.792296776
 21
396.6464317874
 31
0.0
  0
LINE
  5
1E7
330
75
100
AcDbEntity
  8
$DDT_AUDIT_GENERATED_(154)
  6
Continuous
 62
     7
100
AcDbLine
 10
65.792296776
 20
396.6464317874
 30
0.0
 11
64.792296776
 21
396.6464317874
 31
0.0
  0
LINE
  5
1E8
330
75
100
AcDbEntity
  8
$DDT_AUDIT_GENERATED_(154)
  6
Continuous
 62
     7
100
AcDbLine
 10
64.792296776
 20
396.6464317874
 30
0.0
 11
64.792296776
 21
397.6464317874
 31
0.0
  0
LINE
  5
1E9
330
75
100
AcDbEntity
  8
$DDT_AUDIT_GENERATED_(154)
  6
Continuous
 62
     7
100
AcDbLine
 10
64.792296776
 20
397.6464317874
 30
0.0
 11
65.792296776
 21
397.6464317874
 31
0.0
  0
LINE
  5
1EA
330
75
100
AcDbEntity
  8
$DDT_AUDIT_GENERATED_(154)
  6
Continuous
 62
     7
100
AcDbLine
 10
65.792296776
 20
396.4464317874
 30
0.0
 11
65.792296776
 21
395.4464317874
 31
0.0
  0
LINE
  5
1EB
330
75
100
AcDbEntity
  8
$DDT_AUDIT_GENERATED_(154)
  6
Continuous
 62
     7
100
AcDbLine
 10
65.792296776
 20
395.4464317874
 30
0.0
 11
64.792296776
 21
395.4464317874
 31
0.0
  0
LINE
  5
1EC
330
75
100
AcDbEntity
  8
$DDT_AUDIT_GENERATED_(154)
  6
Continuous
 62
     7
100
AcDbLine
 10
64.792296776
 20
395.4464317874
 30
0.0
 11
64.792296776
 21
396.4464317874
 31
0.0
  0
LINE
  5
1ED
330
75
100
AcDbEntity
  8
$DDT_AUDIT_GENERATED_(154)
  6
Continuous
 62
     7
100
AcDbLine
 10
64.792296776
 20
396.4464317874
 30
0.0
 11
65.792296776
 21
396.4464317874
 31
0.0
  0
LINE
  5
1EE
330
75
100
AcDbEntity
  8
$DDT_AUDIT_GENERATED_(154)
  6
Continuous
 62
     7
100
AcDbLine
 10
66.992296776
 20
400.0464317874
 30
0.0
 11
66.992296776
 21
399.0464317874
 31
0.0
  0
LINE
  5
1EF
330
75
100
AcDbEntity
  8
$DDT_AUDIT_GENERATED_(154)
  6
Continuous
 62
     7
100
AcDbLine
 10
66.992296776
 20
399.0464317874
 30
0.0
 11
65.992296776
 21
399.0464317874
 31
0.0
  0
LINE
  5
1F0
330
75
100
AcDbEntity
  8
$DDT_AUDIT_GENERATED_(154)
  6
Continuous
 62
     7
100
AcDbLine
 10
65.992296776
 20
399.0464317874
 30
0.0
 11
65.992296776
 21
400.0464317874
 31
0.0
  0
LINE
  5
1F1
330
75
100
AcDbEntity
  8
$DDT_AUDIT_GENERATED_(154)
  6
Continuous
 62
     7
100
AcDbLine
 10
66.992296776
 20
398.8464317874
 30
0.0
 11
66.992296776
 21
397.8464317874
 31
0.0
  0
LINE
  5
1F2
330
75
100
AcDbEntity
  8
$DDT_AUDIT_GENERATED_(154)
  6
Continuous
 62
     7
100
AcDbLine
 10
66.992296776
 20
397.8464317874
 30
0.0
 11
65.992296776
 21
397.8464317874
 31
0.0
  0
LINE
  5
1F3
330
75
100
AcDbEntity
  8
$DDT_AUDIT_GENERATED_(154)
  6
Continuous
 62
     7
100
AcDbLine
 10
65.992296776
 20
397.8464317874
 30
0.0
 11
65.992296776
 21
398.8464317874
 31
0.0
  0
LINE
  5
1F4
330
75
100
AcDbEntity
  8
$DDT_AUDIT_GENERATED_(154)
  6
Continuous
 62
     7
100
AcDbLine
 10
65.992296776
 20
398.8464317874
 30
0.0
 11
66.992296776
 21
398.8464317874
 31
0.0
  0
LINE
  5
1F5
330
75
100
AcDbEntity
  8
$DDT_AUDIT_GENERATED_(154)
  6
Continuous
 62
     7
100
AcDbLine
 10
66.992296776
 20
397.6464317874
 30
0.0
 11
66.992296776
 21
396.6464317874
 31
0.0
  0
LINE
  5
1F6
330
75
100
AcDbEntity
  8
$DDT_AUDIT_GENERATED_(154)
  6
Continuous
 62
     7
100
AcDbLine
 10
66.992296776
 20
396.6464317874
 30
0.0
 11
65.992296776
 21
396.6464317874
 31
0.0
  0
LINE
  5
1F7
330
75
100
AcDbEntity
  8
$DDT_AUDIT_GENERATED_(154)
  6
Continuous
 62
     7
100
AcDbLine
 10
65.992296776
 20
396.6464317874
 30
0.0
 11
65.992296776
 21
397.6464317874
 31
0.0
  0
LINE
  5
1F8
330
75
100
AcDbEntity
  8
$DDT_AUDIT_GENERATED_(154)
  6
Continuous
 62
     7
100
AcDbLine
 10
65.992296776
 20
397.6464317874
 30
0.0
 11
66.992296776
 21
397.6464317874
 31
0.0
  0
LINE
  5
1F9
330
75
100
AcDbEntity
  8
$DDT_AUDIT_GENERATED_(154)
  6
Continuous
 62
     7
100
AcDbLine
 10
67.527131322
 20
399.0464317874
 30
0.0
 11
67.192296776
 21
399.0464317874
 31
0.0
  0
LINE
  5
1FA
330
75
100
AcDbEntity
  8
$DDT_AUDIT_GENERATED_(154)
  6
Continuous
 62
     7
100
AcDbLine
 10
67.192296776
 20
399.0464317874
 30
0.0
 11
67.192296776
 21
400.0464317874
 31
0.0
  0
LINE
  5
1FB
330
75
100
AcDbEntity
  8
$DDT_AUDIT_GENERATED_(154)
  6
Continuous
 62
     7
100
AcDbLine
 10
67.3652454319
 20
397.8464317874
 30
0.0
 11
67.192296776
 21
397.8464317874
 31
0.0
  0
LINE
  5
1FC
330
75
100
AcDbEntity
  8
$DDT_AUDIT_GENERATED_(154)
  6
Continuous
 62
     7
100
AcDbLine
 10
67.192296776
 20
397.8464317874
 30
0.0
 11
67.192296776
 21
398.8464317874
 31
0.0
  0
LINE
  5
1FD
330
75
100
AcDbEntity
  8
$DDT_AUDIT_GENERATED_(154)
  6
Continuous
 62
     7
100
AcDbLine
 10
67.192296776
 20
398.8464317874
 30
0.0
 11
67.512546164
 21
398.8464317874
 31
0.0
  0
LINE
  5
1FE
330
75
100
AcDbEntity
  8
$DDT_AUDIT_GENERATED_(154)
  6
Continuous
 62
     7
100
AcDbLine
 10
67.192296776
 20
397.1689331018
 30
0.0
 11
67.192296776
 21
397.6464317874
 31
0.0
  0
LINE
  5
1FF
330
75
100
AcDbEntity
  8
$DDT_AUDIT_GENERATED_(154)
  6
Continuous
 62
     7
100
AcDbLine
 10
67.192296776
 20
397.6464317874
 30
0.0
 11
67.3205282126
 21
397.6464317874
 31
0.0
  0
LINE
  5
200
330
75
100
AcDbEntity
  8
$DDT_AUDIT_GENERATED_(154)
  6
Continuous
 62
     7
100
AcDbLine
 10
66.4513819131
 20
395.4464317874
 30
0.0
 11
65.992296776
 21
395.4464317874
 31
0.0
  0
LINE
  5
201
330
75
100
AcDbEntity
  8
$DDT_AUDIT_GENERATED_(154)
  6
Continuous
 62
     7
100
AcDbLine
 10
65.992296776
 20
395.4464317874
 30
0.0
 11
65.992296776
 21
396.4464317874
 31
0.0
  0
LINE
  5
202
330
75
100
AcDbEntity
  8
$DDT_AUDIT_GENERATED_(154)
  6
Continuous
 62
     7
100
AcDbLine
 10
65.992296776
 20
396.4464317874
 30
0.0
 11
66.9377202437
 21
396.4464317874
 31
0.0
  0
LINE
  5
203
330
75
100
AcDbEntity
  8
$DDT_AUDIT_GENERATED_(154)
  6
Continuous
 62
     7
100
AcDbLine
 10
65.6146776567
 20
394.2464317874
 30
0.0
 11
64.792296776
 21
394.2464317874
 31
0.0
  0
LINE
  5
204
330
75
100
AcDbEntity
  8
$DDT_AUDIT_GENERATED_(154)
  6
Continuous
 62
     7
100
AcDbLine
 10
64.792296776
 20
394.2464317874
 30
0.0
 11
64.792296776
 21
395.2464317874
 31
0.0
  0
LINE
  5
205
330
75
100
AcDbEntity
  8
$DDT_AUDIT_GENERATED_(154)
  6
Continuous
 62
     7
100
AcDbLine
 10
64.792296776
 20
395.2464317874
 30
0.0
 11
65.792296776
 21
395.2464317874
 31
0.0
  0
LINE
  5
206
330
75
100
AcDbEntity
  8
$DDT_AUDIT_GENERATED_(154)
  6
Continuous
 62
     7
100
AcDbLine
 10
65.792296776
 20
395.2464317874
 30
0.0
 11
65.792296776
 21
394.4658314291
 31
0.0
  0
LINE
  5
207
330
75
100
AcDbEntity
  8
$DDT_AUDIT_GENERATED_(154)
  6
Continuous
 62
     7
100
AcDbLine
 10
65.992296776
 20
394.7326494907
 30
0.0
 11
65.992296776
 21
395.2464317874
 31
0.0
  0
LINE
  5
208
330
75
100
AcDbEntity
  8
$DDT_AUDIT_GENERATED_(154)
  6
Continuous
 62
     7
100
AcDbLine
 10
65.992296776
 20
395.2464317874
 30
0.0
 11
66.3330708812
 21
395.2464317874
 31
0.0
  0
LINE
  5
209
330
75
100
AcDbEntity
  8
$DDT_AUDIT_GENERATED_(154)
  6
Continuous
 62
     7
100
AcDbLine
 10
64.3728971342
 20
393.0464317874
 30
0.0
 11
63.592296776
 21
393.0464317874
 31
0.0
  0
LINE
  5
20A
330
75
100
AcDbEntity
  8
$DDT_AUDIT_GENERATED_(154)
  6
Continuous
 62
     7
100
AcDbLine
 10
63.592296776
 20
393.0464317874
 30
0.0
 11
63.592296776
 21
394.0464317874
 31
0.0
  0
LINE
  5
20B
330
75
100
AcDbEntity
  8
$DDT_AUDIT_GENERATED_(154)
  6
Continuous
 62
     7
100
AcDbLine
 10
63.592296776
 20
394.0464317874
 30
0.0
 11
64.592296776
 21
394.0464317874
 31
0.0
  0
LINE
  5
20C
330
75
100
AcDbEntity
  8
$DDT_AUDIT_GENERATED_(154)
  6
Continuous
 62
     7
100
AcDbLine
 10
64.592296776
 20
394.0464317874
 30
0.0
 11
64.592296776
 21
393.2240509067
 31
0.0
  0
LINE
  5
20D
330
75
100
AcDbEntity
  8
$DDT_AUDIT_GENERATED_(154)
  6
Continuous
 62
     7
100
AcDbLine
 10
64.792296776
 20
393.3972448492
 30
0.0
 11
64.792296776
 21
394.0464317874
 31
0.0
  0
LINE
  5
20E
330
75
100
AcDbEntity
  8
$DDT_AUDIT_GENERATED_(154)
  6
Continuous
 62
     7
100
AcDbLine
 10
64.792296776
 20
394.0464317874
 30
0.0
 11
65.4414837141
 21
394.0464317874
 31
0.0
  0
LINE
  5
20F
330
75
100
AcDbEntity
  8
$DDT_AUDIT_GENERATED_(154)
  6
Continuous
 62
     7
100
AcDbLine
 10
62.192296776
 20
392.8464317874
 30
0.0
 11
62.192296776
 21
391.8464317874
 31
0.0
  0
LINE
  5
210
330
75
100
AcDbEntity
  8
$DDT_AUDIT_GENERATED_(154)
  6
Continuous
 62
     7
100
AcDbLine
 10
62.192296776
 20
391.8464317874
 30
0.0
 11
61.192296776
 21
391.8464317874
 31
0.0
  0
LINE
  5
211
330
75
100
AcDbEntity
  8
$DDT_AUDIT_GENERATED_(154)
  6
Continuous
 62
     7
100
AcDbLine
 10
61.192296776
 20
391.8464317874
 30
0.0
 11
61.192296776
 21
392.8464317874
 31
0.0
  0
LINE
  5
212
330
75
100
AcDbEntity
  8
$DDT_AUDIT_GENERATED_(154)
  6
Continuous
 62
     7
100
AcDbLine
 10
61.192296776
 20
392.8464317874
 30
0.0
 11
62.192296776
 21
392.8464317874
 31
0.0
  0
LINE
  5
213
330
75
100
AcDbEntity
  8
$DDT_AUDIT_GENERATED_(154)
  6
Continuous
 62
     7
100
AcDbLine
 10
62.392296776
 20
391.9010083197
 30
0.0
 11
62.392296776
 21
392.8464317874
 31
0.0
  0
LINE
  5
214
330
75
100
AcDbEntity
  8
$DDT_AUDIT_GENERATED_(154)
  6
Continuous
 62
     7
100
AcDbLine
 10
62.392296776
 20
392.8464317874
 30
0.0
 11
63.392296776
 21
392.8464317874
 31
0.0
  0
LINE
  5
215
330
75
100
AcDbEntity
  8
$DDT_AUDIT_GENERATED_(154)
  6
Continuous
 62
     7
100
AcDbLine
 10
63.392296776
 20
392.8464317874
 30
0.0
 11
63.392296776
 21
392.3873466503
 31
0.0
  0
LINE
  5
216
330
75
100
AcDbEntity
  8
$DDT_AUDIT_GENERATED_(154)
  6
Continuous
 62
     7
100
AcDbLine
 10
63.592296776
 20
392.5056576822
 30
0.0
 11
63.592296776
 21
392.8464317874
 31
0.0
  0
LINE
  5
217
330
75
100
AcDbEntity
  8
$DDT_AUDIT_GENERATED_(154)
  6
Continuous
 62
     7
100
AcDbLine
 10
63.592296776
 20
392.8464317874
 30
0.0
 11
64.1060790727
 21
392.8464317874
 31
0.0
  0
LINE
  5
218
330
75
100
AcDbEntity
  8
$DDT_AUDIT_GENERATED_(154)
  6
Continuous
 62
     7
100
AcDbLine
 10
58.792296776
 20
391.6464317874
 30
0.0
 11
59.792296776
 21
391.6464317874
 31
0.0
  0
LINE
  5
219
330
75
100
AcDbEntity
  8
$DDT_AUDIT_GENERATED_(154)
  6
Continuous
 62
     7
100
AcDbLine
 10
59.792296776
 20
391.6464317874
 30
0.0
 11
59.792296776
 21
391.3115972414
 31
0.0
  0
LINE
  5
21A
330
75
100
AcDbEntity
  8
$DDT_AUDIT_GENERATED_(154)
  6
Continuous
 62
     7
100
AcDbLine
 10
59.992296776
 20
391.3261823994
 30
0.0
 11
59.992296776
 21
391.6464317874
 31
0.0
  0
LINE
  5
21B
330
75
100
AcDbEntity
  8
$DDT_AUDIT_GENERATED_(154)
  6
Continuous
 62
     7
100
AcDbLine
 10
59.992296776
 20
391.6464317874
 30
0.0
 11
60.992296776
 21
391.6464317874
 31
0.0
  0
LINE
  5
21C
330
75
100
AcDbEntity
  8
$DDT_AUDIT_GENERATED_(154)
  6
Continuous
 62
     7
100
AcDbLine
 10
60.992296776
 20
391.6464317874
 30
0.0
 11
60.992296776
 21
391.4734831315
 31
0.0
  0
LINE
  5
21D
330
75
100
AcDbEntity
  8
$DDT_AUDIT_GENERATED_(154)
  6
Continuous
 62
     7
100
AcDbLine
 10
61.192296776
 20
391.5182003507
 30
0.0
 11
61.192296776
 21
391.6464317874
 31
0.0
  0
LINE
  5
21E
330
75
100
AcDbEntity
  8
$DDT_AUDIT_GENERATED_(154)
  6
Continuous
 62
     7
100
AcDbLine
 10
61.192296776
 20
391.6464317874
 30
0.0
 11
61.6697954616
 21
391.6464317874
 31
0.0
  0
LINE
  5
21F
330
75
100
AcDbEntity
  8
$DDT_AUDIT_GENERATED_(154)
  6
Continuous
 62
     7
100
AcDbLine
 10
58.792296776
 20
399.0464317874
 30
0.0
 11
58.792296776
 21
400.0464317874
 31
0.0
  0
LINE
  5
220
330
75
100
AcDbEntity
  8
$DDT_AUDIT_GENERATED_(154)
  6
Continuous
 62
     7
100
AcDbLine
 10
58.592296776
 20
399.0464317874
 30
0.0
 11
57.592296776
 21
399.0464317874
 31
0.0
  0
LINE
  5
221
330
75
100
AcDbEntity
  8
$DDT_AUDIT_GENERATED_(154)
  6
Continuous
 62
     7
100
AcDbLine
 10
57.592296776
 20
399.0464317874
 30
0.0
 11
57.592296776
 21
400.0464317874
 31
0.0
  0
LINE
  5
222
330
75
100
AcDbEntity
  8
$DDT_AUDIT_GENERATED_(154)
  6
Continuous
 62
     7
100
AcDbLine
 10
58.592296776
 20
400.0464317874
 30
0.0
 11
58.592296776
 21
399.0464317874
 31
0.0
  0
LINE
  5
223
330
75
100
AcDbEntity
  8
$DDT_AUDIT_GENERATED_(154)
  6
Continuous
 62
     7
100
AcDbLine
 10
57.392296776
 20
399.0464317874
 30
0.0
 11
56.392296776
 21
399.0464317874
 31
0.0
  0
LINE
  5
224
330
75
100
AcDbEntity
  8
$DDT_AUDIT_GENERATED_(154)
  6
Continuous
 62
     7
100
AcDbLine
 10
56.392296776
 20
399.0464317874
 30
0.0
 11
56.392296776
 21
400.0464317874
 31
0.0
  0
LINE
  5
225
330
75
100
AcDbEntity
  8
$DDT_AUDIT_GENERATED_(154)
  6
Continuous
 62
     7
100
AcDbLine
 10
57.392296776
 20
400.0464317874
 30
0.0
 11
57.392296776
 21
399.0464317874
 31
0.0
  0
LINE
  5
226
330
75
100
AcDbEntity
  8
$DDT_AUDIT_GENERATED_(154)
  6
Continuous
 62
     7
100
AcDbLine
 10
56.192296776
 20
399.0464317874
 30
0.0
 11
55.192296776
 21
399.0464317874
 31
0.0
  0
LINE
  5
227
330
75
100
AcDbEntity
  8
$DDT_AUDIT_GENERATED_(154)
  6
Continuous
 62
     7
100
AcDbLine
 10
55.192296776
 20
399.0464317874
 30
0.0
 11
55.192296776
 21
400.0464317874
 31
0.0
  0
LINE
  5
228
330
75
100
AcDbEntity
  8
$DDT_AUDIT_GENERATED_(154)
  6
Continuous
 62
     7
100
AcDbLine
 10
56.192296776
 20
400.0464317874
 30
0.0
 11
56.192296776
 21
399.0464317874
 31
0.0
  0
LINE
  5
229
330
75
100
AcDbEntity
  8
$DDT_AUDIT_GENERATED_(154)
  6
Continuous
 62
     7
100
AcDbLine
 10
54.992296776
 20
399.0464317874
 30
0.0
 11
53.992296776
 21
399.0464317874
 31
0.0
  0
LINE
  5
22A
330
75
100
AcDbEntity
  8
$DDT_AUDIT_GENERATED_(154)
  6
Continuous
 62
     7
100
AcDbLine
 10
53.992296776
 20
399.0464317874
 30
0.0
 11
53.992296776
 21
400.0464317874
 31
0.0
  0
LINE
  5
22B
330
75
100
AcDbEntity
  8
$DDT_AUDIT_GENERATED_(154)
  6
Continuous
 62
     7
100
AcDbLine
 10
54.992296776
 20
400.0464317874
 30
0.0
 11
54.992296776
 21
399.0464317874
 31
0.0
  0
LINE
  5
22C
330
75
100
AcDbEntity
  8
$DDT_AUDIT_GENERATED_(154)
  6
Continuous
 62
     7
100
AcDbLine
 10
53.792296776
 20
399.0464317874
 30
0.0
 11
52.792296776
 21
399.0464317874
 31
0.0
  0
LINE
  5
22D
330
75
100
AcDbEntity
  8
$DDT_AUDIT_GENERATED_(154)
  6
Continuous
 62
     7
100
AcDbLine
 10
52.792296776
 20
399.0464317874
 30
0.0
 11
52.792296776
 21
400.0464317874
 31
0.0
  0
LINE
  5
22E
330
75
100
AcDbEntity
  8
$DDT_AUDIT_GENERATED_(154)
  6
Continuous
 62
     7
100
AcDbLine
 10
53.792296776
 20
400.0464317874
 30
0.0
 11
53.792296776
 21
399.0464317874
 31
0.0
  0
LINE
  5
22F
330
75
100
AcDbEntity
  8
$DDT_AUDIT_GENERATED_(154)
  6
Continuous
 62
     7
100
AcDbLine
 10
51.592296776
 20
399.0464317874
 30
0.0
 11
51.592296776
 21
400.0464317874
 31
0.0
  0
LINE
  5
230
330
75
100
AcDbEntity
  8
$DDT_AUDIT_GENERATED_(154)
  6
Continuous
 62
     7
100
AcDbLine
 10
52.592296776
 20
399.0464317874
 30
0.0
 11
51.592296776
 21
399.0464317874
 31
0.0
  0
LINE
  5
231
330
75
100
AcDbEntity
  8
$DDT_AUDIT_GENERATED_(154)
  6
Continuous
 62
     7
100
AcDbLine
 10
52.592296776
 20
400.0464317874
 30
0.0
 11
52.592296776
 21
399.0464317874
 31
0.0
  0
LINE
  5
232
330
75
100
AcDbEntity
  8
$DDT_AUDIT_GENERATED_(154)
  6
Continuous
 62
     7
100
AcDbLine
 10
58.792296776
 20
397.8464317874
 30
0.0
 11
58.792296776
 21
398.8464317874
 31
0.0
  0
LINE
  5
233
330
75
100
AcDbEntity
  8
$DDT_AUDIT_GENERATED_(154)
  6
Continuous
 62
     7
100
AcDbLine
 10
58.592296776
 20
397.8464317874
 30
0.0
 11
57.592296776
 21
397.8464317874
 31
0.0
  0
LINE
  5
234
330
75
100
AcDbEntity
  8
$DDT_AUDIT_GENERATED_(154)
  6
Continuous
 62
     7
100
AcDbLine
 10
57.592296776
 20
397.8464317874
 30
0.0
 11
57.592296776
 21
398.8464317874
 31
0.0
  0
LINE
  5
235
330
75
100
AcDbEntity
  8
$DDT_AUDIT_GENERATED_(154)
  6
Continuous
 62
     7
100
AcDbLine
 10
57.592296776
 20
398.8464317874
 30
0.0
 11
58.592296776
 21
398.8464317874
 31
0.0
  0
LINE
  5
236
330
75
100
AcDbEntity
  8
$DDT_AUDIT_GENERATED_(154)
  6
Continuous
 62
     7
100
AcDbLine
 10
58.592296776
 20
398.8464317874
 30
0.0
 11
58.592296776
 21
397.8464317874
 31
0.0
  0
LINE
  5
237
330
75
100
AcDbEntity
  8
$DDT_AUDIT_GENERATED_(154)
  6
Continuous
 62
     7
100
AcDbLine
 10
57.392296776
 20
397.8464317874
 30
0.0
 11
56.392296776
 21
397.8464317874
 31
0.0
  0
LINE
  5
238
330
75
100
AcDbEntity
  8
$DDT_AUDIT_GENERATED_(154)
  6
Continuous
 62
     7
100
AcDbLine
 10
56.392296776
 20
397.8464317874
 30
0.0
 11
56.392296776
 21
398.8464317874
 31
0.0
  0
LINE
  5
239
330
75
100
AcDbEntity
  8
$DDT_AUDIT_GENERATED_(154)
  6
Continuous
 62
     7
100
AcDbLine
 10
56.392296776
 20
398.8464317874
 30
0.0
 11
57.392296776
 21
398.8464317874
 31
0.0
  0
LINE
  5
23A
330
75
100
AcDbEntity
  8
$DDT_AUDIT_GENERATED_(154)
  6
Continuous
 62
     7
100
AcDbLine
 10
57.392296776
 20
398.8464317874
 30
0.0
 11
57.392296776
 21
397.8464317874
 31
0.0
  0
LINE
  5
23B
330
75
100
AcDbEntity
  8
$DDT_AUDIT_GENERATED_(154)
  6
Continuous
 62
     7
100
AcDbLine
 10
56.192296776
 20
397.8464317874
 30
0.0
 11
55.192296776
 21
397.8464317874
 31
0.0
  0
LINE
  5
23C
330
75
100
AcDbEntity
  8
$DDT_AUDIT_GENERATED_(154)
  6
Continuous
 62
     7
100
AcDbLine
 10
55.192296776
 20
397.8464317874
 30
0.0
 11
55.192296776
 21
398.8464317874
 31
0.0
  0
LINE
  5
23D
330
75
100
AcDbEntity
  8
$DDT_AUDIT_GENERATED_(154)
  6
Continuous
 62
     7
100
AcDbLine
 10
55.192296776
 20
398.8464317874
 30
0.0
 11
56.192296776
 21
398.8464317874
 31
0.0
  0
LINE
  5
23E
330
75
100
AcDbEntity
  8
$DDT_AUDIT_GENERATED_(154)
  6
Continuous
 62
     7
100
AcDbLine
 10
56.192296776
 20
398.8464317874
 30
0.0
 11
56.192296776
 21
397.8464317874
 31
0.0
  0
LINE
  5
23F
330
75
100
AcDbEntity
  8
$DDT_AUDIT_GENERATED_(154)
  6
Continuous
 62
     7
100
AcDbLine
 10
54.992296776
 20
397.8464317874
 30
0.0
 11
53.992296776
 21
397.8464317874
 31
0.0
  0
LINE
  5
240
330
75
100
AcDbEntity
  8
$DDT_AUDIT_GENERATED_(154)
  6
Continuous
 62
     7
100
AcDbLine
 10
53.992296776
 20
397.8464317874
 30
0.0
 11
53.992296776
 21
398.8464317874
 31
0.0
  0
LINE
  5
241
330
75
100
AcDbEntity
  8
$DDT_AUDIT_GENERATED_(154)
  6
Continuous
 62
     7
100
AcDbLine
 10
53.992296776
 20
398.8464317874
 30
0.0
 11
54.992296776
 21
398.8464317874
 31
0.0
  0
LINE
  5
242
330
75
100
AcDbEntity
  8
$DDT_AUDIT_GENERATED_(154)
  6
Continuous
 62
     7
100
AcDbLine
 10
54.992296776
 20
398.8464317874
 30
0.0
 11
54.992296776
 21
397.8464317874
 31
0.0
  0
LINE
  5
243
330
75
100
AcDbEntity
  8
$DDT_AUDIT_GENERATED_(154)
  6
Continuous
 62
     7
100
AcDbLine
 10
53.792296776
 20
397.8464317874
 30
0.0
 11
52.792296776
 21
397.8464317874
 31
0.0
  0
LINE
  5
244
330
75
100
AcDbEntity
  8
$DDT_AUDIT_GENERATED_(154)
  6
Continuous
 62
     7
100
AcDbLine
 10
52.792296776
 20
397.8464317874
 30
0.0
 11
52.792296776
 21
398.8464317874
 31
0.0
  0
LINE
  5
245
330
75
100
AcDbEntity
  8
$DDT_AUDIT_GENERATED_(154)
  6
Continuous
 62
     7
100
AcDbLine
 10
52.792296776
 20
398.8464317874
 30
0.0
 11
53.792296776
 21
398.8464317874
 31
0.0
  0
LINE
  5
246
330
75
100
AcDbEntity
  8
$DDT_AUDIT_GENERATED_(154)
  6
Continuous
 62
     7
100
AcDbLine
 10
53.792296776
 20
398.8464317874
 30
0.0
 11
53.792296776
 21
397.8464317874
 31
0.0
  0
LINE
  5
247
330
75
100
AcDbEntity
  8
$DDT_AUDIT_GENERATED_(154)
  6
Continuous
 62
     7
100
AcDbLine
 10
52.592296776
 20
397.8464317874
 30
0.0
 11
51.592296776
 21
397.8464317874
 31
0.0
  0
LINE
  5
248
330
75
100
AcDbEntity
  8
$DDT_AUDIT_GENERATED_(154)
  6
Continuous
 62
     7
100
AcDbLine
 10
51.592296776
 20
397.8464317874
 30
0.0
 11
51.592296776
 21
398.8464317874
 31
0.0
  0
LINE
  5
249
330
75
100
AcDbEntity
  8
$DDT_AUDIT_GENERATED_(154)
  6
Continuous
 62
     7
100
AcDbLine
 10
51.592296776
 20
398.8464317874
 30
0.0
 11
52.592296776
 21
398.8464317874
 31
0.0
  0
LINE
  5
24A
330
75
100
AcDbEntity
  8
$DDT_AUDIT_GENERATED_(154)
  6
Continuous
 62
     7
100
AcDbLine
 10
52.592296776
 20
398.8464317874
 30
0.0
 11
52.592296776
 21
397.8464317874
 31
0.0
  0
LINE
  5
24B
330
75
100
AcDbEntity
  8
$DDT_AUDIT_GENERATED_(154)
  6
Continuous
 62
     7
100
AcDbLine
 10
58.792296776
 20
396.6464317874
 30
0.0
 11
58.792296776
 21
397.6464317874
 31
0.0
  0
LINE
  5
24C
330
75
100
AcDbEntity
  8
$DDT_AUDIT_GENERATED_(154)
  6
Continuous
 62
     7
100
AcDbLine
 10
58.592296776
 20
396.6464317874
 30
0.0
 11
57.592296776
 21
396.6464317874
 31
0.0
  0
LINE
  5
24D
330
75
100
AcDbEntity
  8
$DDT_AUDIT_GENERATED_(154)
  6
Continuous
 62
     7
100
AcDbLine
 10
57.592296776
 20
396.6464317874
 30
0.0
 11
57.592296776
 21
397.6464317874
 31
0.0
  0
LINE
  5
24E
330
75
100
AcDbEntity
  8
$DDT_AUDIT_GENERATED_(154)
  6
Continuous
 62
     7
100
AcDbLine
 10
57.592296776
 20
397.6464317874
 30
0.0
 11
58.592296776
 21
397.6464317874
 31
0.0
  0
LINE
  5
24F
330
75
100
AcDbEntity
  8
$DDT_AUDIT_GENERATED_(154)
  6
Continuous
 62
     7
100
AcDbLine
 10
58.592296776
 20
397.6464317874
 30
0.0
 11
58.592296776
 21
396.6464317874
 31
0.0
  0
LINE
  5
250
330
75
100
AcDbEntity
  8
$DDT_AUDIT_GENERATED_(154)
  6
Continuous
 62
     7
100
AcDbLine
 10
57.392296776
 20
396.6464317874
 30
0.0
 11
56.392296776
 21
396.6464317874
 31
0.0
  0
LINE
  5
251
330
75
100
AcDbEntity
  8
$DDT_AUDIT_GENERATED_(154)
  6
Continuous
 62
     7
100
AcDbLine
 10
56.392296776
 20
396.6464317874
 30
0.0
 11
56.392296776
 21
397.6464317874
 31
0.0
  0
LINE
  5
252
330
75
100
AcDbEntity
  8
$DDT_AUDIT_GENERATED_(154)
  6
Continuous
 62
     7
100
AcDbLine
 10
56.392296776
 20
397.6464317874
 30
0.0
 11
57.392296776
 21
397.6464317874
 31
0.0
  0
LINE
  5
253
330
75
100
AcDbEntity
  8
$DDT_AUDIT_GENERATED_(154)
  6
Continuous
 62
     7
100
AcDbLine
 10
57.392296776
 20
397.6464317874
 30
0.0
 11
57.392296776
 21
396.6464317874
 31
0.0
  0
LINE
  5
254
330
75
100
AcDbEntity
  8
$DDT_AUDIT_GENERATED_(154)
  6
Continuous
 62
     7
100
AcDbLine
 10
56.192296776
 20
396.6464317874
 30
0.0
 11
55.192296776
 21
396.6464317874
 31
0.0
  0
LINE
  5
255
330
75
100
AcDbEntity
  8
$DDT_AUDIT_GENERATED_(154)
  6
Continuous
 62
     7
100
AcDbLine
 10
55.192296776
 20
396.6464317874
 30
0.0
 11
55.192296776
 21
397.6464317874
 31
0.0
  0
LINE
  5
256
330
75
100
AcDbEntity
  8
$DDT_AUDIT_GENERATED_(154)
  6
Continuous
 62
     7
100
AcDbLine
 10
55.192296776
 20
397.6464317874
 30
0.0
 11
56.192296776
 21
397.6464317874
 31
0.0
  0
LINE
  5
257
330
75
100
AcDbEntity
  8
$DDT_AUDIT_GENERATED_(154)
  6
Continuous
 62
     7
100
AcDbLine
 10
56.192296776
 20
397.6464317874
 30
0.0
 11
56.192296776
 21
396.6464317874
 31
0.0
  0
LINE
  5
258
330
75
100
AcDbEntity
  8
$DDT_AUDIT_GENERATED_(154)
  6
Continuous
 62
     7
100
AcDbLine
 10
54.992296776
 20
396.6464317874
 30
0.0
 11
53.992296776
 21
396.6464317874
 31
0.0
  0
LINE
  5
259
330
75
100
AcDbEntity
  8
$DDT_AUDIT_GENERATED_(154)
  6
Continuous
 62
     7
100
AcDbLine
 10
53.992296776
 20
396.6464317874
 30
0.0
 11
53.992296776
 21
397.6464317874
 31
0.0
  0
LINE
  5
25A
330
75
100
AcDbEntity
  8
$DDT_AUDIT_GENERATED_(154)
  6
Continuous
 62
     7
100
AcDbLine
 10
53.992296776
 20
397.6464317874
 30
0.0
 11
54.992296776
 21
397.6464317874
 31
0.0
  0
LINE
  5
25B
330
75
100
AcDbEntity
  8
$DDT_AUDIT_GENERATED_(154)
  6
Continuous
 62
     7
100
AcDbLine
 10
54.992296776
 20
397.6464317874
 30
0.0
 11
54.992296776
 21
396.6464317874
 31
0.0
  0
LINE
  5
25C
330
75
100
AcDbEntity
  8
$DDT_AUDIT_GENERATED_(154)
  6
Continuous
 62
     7
100
AcDbLine
 10
53.792296776
 20
396.6464317874
 30
0.0
 11
52.792296776
 21
396.6464317874
 31
0.0
  0
LINE
  5
25D
330
75
100
AcDbEntity
  8
$DDT_AUDIT_GENERATED_(154)
  6
Continuous
 62
     7
100
AcDbLine
 10
52.792296776
 20
396.6464317874
 30
0.0
 11
52.792296776
 21
397.6464317874
 31
0.0
  0
LINE
  5
25E
330
75
100
AcDbEntity
  8
$DDT_AUDIT_GENERATED_(154)
  6
Continuous
 62
     7
100
AcDbLine
 10
52.792296776
 20
397.6464317874
 30
0.0
 11
53.792296776
 21
397.6464317874
 31
0.0
  0
LINE
  5
25F
330
75
100
AcDbEntity
  8
$DDT_AUDIT_GENERATED_(154)
  6
Continuous
 62
     7
100
AcDbLine
 10
53.792296776
 20
397.6464317874
 30
0.0
 11
53.792296776
 21
396.6464317874
 31
0.0
  0
LINE
  5
260
330
75
100
AcDbEntity
  8
$DDT_AUDIT_GENERATED_(154)
  6
Continuous
 62
     7
100
AcDbLine
 10
58.792296776
 20
395.4464317874
 30
0.0
 11
58.792296776
 21
396.4464317874
 31
0.0
  0
LINE
  5
261
330
75
100
AcDbEntity
  8
$DDT_AUDIT_GENERATED_(154)
  6
Continuous
 62
     7
100
AcDbLine
 10
58.592296776
 20
395.4464317874
 30
0.0
 11
57.592296776
 21
395.4464317874
 31
0.0
  0
LINE
  5
262
330
75
100
AcDbEntity
  8
$DDT_AUDIT_GENERATED_(154)
  6
Continuous
 62
     7
100
AcDbLine
 10
57.592296776
 20
395.4464317874
 30
0.0
 11
57.592296776
 21
396.4464317874
 31
0.0
  0
LINE
  5
263
330
75
100
AcDbEntity
  8
$DDT_AUDIT_GENERATED_(154)
  6
Continuous
 62
     7
100
AcDbLine
 10
57.592296776
 20
396.4464317874
 30
0.0
 11
58.592296776
 21
396.4464317874
 31
0.0
  0
LINE
  5
264
330
75
100
AcDbEntity
  8
$DDT_AUDIT_GENERATED_(154)
  6
Continuous
 62
     7
100
AcDbLine
 10
58.592296776
 20
396.4464317874
 30
0.0
 11
58.592296776
 21
395.4464317874
 31
0.0
  0
LINE
  5
265
330
75
100
AcDbEntity
  8
$DDT_AUDIT_GENERATED_(154)
  6
Continuous
 62
     7
100
AcDbLine
 10
57.392296776
 20
395.4464317874
 30
0.0
 11
56.392296776
 21
395.4464317874
 31
0.0
  0
LINE
  5
266
330
75
100
AcDbEntity
  8
$DDT_AUDIT_GENERATED_(154)
  6
Continuous
 62
     7
100
AcDbLine
 10
56.392296776
 20
395.4464317874
 30
0.0
 11
56.392296776
 21
396.4464317874
 31
0.0
  0
LINE
  5
267
330
75
100
AcDbEntity
  8
$DDT_AUDIT_GENERATED_(154)
  6
Continuous
 62
     7
100
AcDbLine
 10
56.392296776
 20
396.4464317874
 30
0.0
 11
57.392296776
 21
396.4464317874
 31
0.0
  0
LINE
  5
268
330
75
100
AcDbEntity
  8
$DDT_AUDIT_GENERATED_(154)
  6
Continuous
 62
     7
100
AcDbLine
 10
57.392296776
 20
396.4464317874
 30
0.0
 11
57.392296776
 21
395.4464317874
 31
0.0
  0
LINE
  5
269
330
75
100
AcDbEntity
  8
$DDT_AUDIT_GENERATED_(154)
  6
Continuous
 62
     7
100
AcDbLine
 10
56.192296776
 20
395.4464317874
 30
0.0
 11
55.192296776
 21
395.4464317874
 31
0.0
  0
LINE
  5
26A
330
75
100
AcDbEntity
  8
$DDT_AUDIT_GENERATED_(154)
  6
Continuous
 62
     7
100
AcDbLine
 10
55.192296776
 20
395.4464317874
 30
0.0
 11
55.192296776
 21
396.4464317874
 31
0.0
  0
LINE
  5
26B
330
75
100
AcDbEntity
  8
$DDT_AUDIT_GENERATED_(154)
  6
Continuous
 62
     7
100
AcDbLine
 10
55.192296776
 20
396.4464317874
 30
0.0
 11
56.192296776
 21
396.4464317874
 31
0.0
  0
LINE
  5
26C
330
75
100
AcDbEntity
  8
$DDT_AUDIT_GENERATED_(154)
  6
Continuous
 62
     7
100
AcDbLine
 10
56.192296776
 20
396.4464317874
 30
0.0
 11
56.192296776
 21
395.4464317874
 31
0.0
  0
LINE
  5
26D
330
75
100
AcDbEntity
  8
$DDT_AUDIT_GENERATED_(154)
  6
Continuous
 62
     7
100
AcDbLine
 10
54.992296776
 20
395.4464317874
 30
0.0
 11
53.992296776
 21
395.4464317874
 31
0.0
  0
LINE
  5
26E
330
75
100
AcDbEntity
  8
$DDT_AUDIT_GENERATED_(154)
  6
Continuous
 62
     7
100
AcDbLine
 10
53.992296776
 20
395.4464317874
 30
0.0
 11
53.992296776
 21
396.4464317874
 31
0.0
  0
LINE
  5
26F
330
75
100
AcDbEntity
  8
$DDT_AUDIT_GENERATED_(154)
  6
Continuous
 62
     7
100
AcDbLine
 10
53.992296776
 20
396.4464317874
 30
0.0
 11
54.992296776
 21
396.4464317874
 31
0.0
  0
LINE
  5
270
330
75
100
AcDbEntity
  8
$DDT_AUDIT_GENERATED_(154)
  6
Continuous
 62
     7
100
AcDbLine
 10
54.992296776
 20
396.4464317874
 30
0.0
 11
54.992296776
 21
395.4464317874
 31
0.0
  0
LINE
  5
271
330
75
100
AcDbEntity
  8
$DDT_AUDIT_GENERATED_(154)
  6
Continuous
 62
     7
100
AcDbLine
 10
52.792296776
 20
395.4464317874
 30
0.0
 11
52.792296776
 21
396.4464317874
 31
0.0
  0
LINE
  5
272
330
75
100
AcDbEntity
  8
$DDT_AUDIT_GENERATED_(154)
  6
Continuous
 62
     7
100
AcDbLine
 10
53.792296776
 20
395.4464317874
 30
0.0
 11
52.792296776
 21
395.4464317874
 31
0.0
  0
LINE
  5
273
330
75
100
AcDbEntity
  8
$DDT_AUDIT_GENERATED_(154)
  6
Continuous
 62
     7
100
AcDbLine
 10
52.792296776
 20
396.4464317874
 30
0.0
 11
53.792296776
 21
396.4464317874
 31
0.0
  0
LINE
  5
274
330
75
100
AcDbEntity
  8
$DDT_AUDIT_GENERATED_(154)
  6
Continuous
 62
     7
100
AcDbLine
 10
53.792296776
 20
396.4464317874
 30
0.0
 11
53.792296776
 21
395.4464317874
 31
0.0
  0
LINE
  5
275
330
75
100
AcDbEntity
  8
$DDT_AUDIT_GENERATED_(154)
  6
Continuous
 62
     7
100
AcDbLine
 10
58.792296776
 20
394.2464317874
 30
0.0
 11
58.792296776
 21
395.2464317874
 31
0.0
  0
LINE
  5
276
330
75
100
AcDbEntity
  8
$DDT_AUDIT_GENERATED_(154)
  6
Continuous
 62
     7
100
AcDbLine
 10
58.592296776
 20
394.2464317874
 30
0.0
 11
57.592296776
 21
394.2464317874
 31
0.0
  0
LINE
  5
277
330
75
100
AcDbEntity
  8
$DDT_AUDIT_GENERATED_(154)
  6
Continuous
 62
     7
100
AcDbLine
 10
57.592296776
 20
394.2464317874
 30
0.0
 11
57.592296776
 21
395.2464317874
 31
0.0
  0
LINE
  5
278
330
75
100
AcDbEntity
  8
$DDT_AUDIT_GENERATED_(154)
  6
Continuous
 62
     7
100
AcDbLine
 10
57.592296776
 20
395.2464317874
 30
0.0
 11
58.592296776
 21
395.2464317874
 31
0.0
  0
LINE
  5
279
330
75
100
AcDbEntity
  8
$DDT_AUDIT_GENERATED_(154)
  6
Continuous
 62
     7
100
AcDbLine
 10
58.592296776
 20
395.2464317874
 30
0.0
 11
58.592296776
 21
394.2464317874
 31
0.0
  0
LINE
  5
27A
330
75
100
AcDbEntity
  8
$DDT_AUDIT_GENERATED_(154)
  6
Continuous
 62
     7
100
AcDbLine
 10
57.392296776
 20
394.2464317874
 30
0.0
 11
56.392296776
 21
394.2464317874
 31
0.0
  0
LINE
  5
27B
330
75
100
AcDbEntity
  8
$DDT_AUDIT_GENERATED_(154)
  6
Continuous
 62
     7
100
AcDbLine
 10
56.392296776
 20
394.2464317874
 30
0.0
 11
56.392296776
 21
395.2464317874
 31
0.0
  0
LINE
  5
27C
330
75
100
AcDbEntity
  8
$DDT_AUDIT_GENERATED_(154)
  6
Continuous
 62
     7
100
AcDbLine
 10
56.392296776
 20
395.2464317874
 30
0.0
 11
57.392296776
 21
395.2464317874
 31
0.0
  0
LINE
  5
27D
330
75
100
AcDbEntity
  8
$DDT_AUDIT_GENERATED_(154)
  6
Continuous
 62
     7
100
AcDbLine
 10
57.392296776
 20
395.2464317874
 30
0.0
 11
57.392296776
 21
394.2464317874
 31
0.0
  0
LINE
  5
27E
330
75
100
AcDbEntity
  8
$DDT_AUDIT_GENERATED_(154)
  6
Continuous
 62
     7
100
AcDbLine
 10
56.192296776
 20
394.2464317874
 30
0.0
 11
55.192296776
 21
394.2464317874
 31
0.0
  0
LINE
  5
27F
330
75
100
AcDbEntity
  8
$DDT_AUDIT_GENERATED_(154)
  6
Continuous
 62
     7
100
AcDbLine
 10
55.192296776
 20
394.2464317874
 30
0.0
 11
55.192296776
 21
395.2464317874
 31
0.0
  0
LINE
  5
280
330
75
100
AcDbEntity
  8
$DDT_AUDIT_GENERATED_(154)
  6
Continuous
 62
     7
100
AcDbLine
 10
55.192296776
 20
395.2464317874
 30
0.0
 11
56.192296776
 21
395.2464317874
 31
0.0
  0
LINE
  5
281
330
75
100
AcDbEntity
  8
$DDT_AUDIT_GENERATED_(154)
  6
Continuous
 62
     7
100
AcDbLine
 10
56.192296776
 20
395.2464317874
 30
0.0
 11
56.192296776
 21
394.2464317874
 31
0.0
  0
LINE
  5
282
330
75
100
AcDbEntity
  8
$DDT_AUDIT_GENERATED_(154)
  6
Continuous
 62
     7
100
AcDbLine
 10
54.992296776
 20
394.2464317874
 30
0.0
 11
53.992296776
 21
394.2464317874
 31
0.0
  0
LINE
  5
283
330
75
100
AcDbEntity
  8
$DDT_AUDIT_GENERATED_(154)
  6
Continuous
 62
     7
100
AcDbLine
 10
53.992296776
 20
394.2464317874
 30
0.0
 11
53.992296776
 21
395.2464317874
 31
0.0
  0
LINE
  5
284
330
75
100
AcDbEntity
  8
$DDT_AUDIT_GENERATED_(154)
  6
Continuous
 62
     7
100
AcDbLine
 10
53.992296776
 20
395.2464317874
 30
0.0
 11
54.992296776
 21
395.2464317874
 31
0.0
  0
LINE
  5
285
330
75
100
AcDbEntity
  8
$DDT_AUDIT_GENERATED_(154)
  6
Continuous
 62
     7
100
AcDbLine
 10
54.992296776
 20
395.2464317874
 30
0.0
 11
54.992296776
 21
394.2464317874
 31
0.0
  0
LINE
  5
286
330
75
100
AcDbEntity
  8
$DDT_AUDIT_GENERATED_(154)
  6
Continuous
 62
     7
100
AcDbLine
 10
58.792296776
 20
393.0464317874
 30
0.0
 11
58.792296776
 21
394.0464317874
 31
0.0
  0
LINE
  5
287
330
75
100
AcDbEntity
  8
$DDT_AUDIT_GENERATED_(154)
  6
Continuous
 62
     7
100
AcDbLine
 10
58.592296776
 20
393.0464317874
 30
0.0
 11
57.592296776
 21
393.0464317874
 31
0.0
  0
LINE
  5
288
330
75
100
AcDbEntity
  8
$DDT_AUDIT_GENERATED_(154)
  6
Continuous
 62
     7
100
AcDbLine
 10
57.592296776
 20
393.0464317874
 30
0.0
 11
57.592296776
 21
394.0464317874
 31
0.0
  0
LINE
  5
289
330
75
100
AcDbEntity
  8
$DDT_AUDIT_GENERATED_(154)
  6
Continuous
 62
     7
100
AcDbLine
 10
57.592296776
 20
394.0464317874
 30
0.0
 11
58.592296776
 21
394.0464317874
 31
0.0
  0
LINE
  5
28A
330
75
100
AcDbEntity
  8
$DDT_AUDIT_GENERATED_(154)
  6
Continuous
 62
     7
100
AcDbLine
 10
58.592296776
 20
394.0464317874
 30
0.0
 11
58.592296776
 21
393.0464317874
 31
0.0
  0
LINE
  5
28B
330
75
100
AcDbEntity
  8
$DDT_AUDIT_GENERATED_(154)
  6
Continuous
 62
     7
100
AcDbLine
 10
57.392296776
 20
393.0464317874
 30
0.0
 11
56.392296776
 21
393.0464317874
 31
0.0
  0
LINE
  5
28C
330
75
100
AcDbEntity
  8
$DDT_AUDIT_GENERATED_(154)
  6
Continuous
 62
     7
100
AcDbLine
 10
56.392296776
 20
393.0464317874
 30
0.0
 11
56.392296776
 21
394.0464317874
 31
0.0
  0
LINE
  5
28D
330
75
100
AcDbEntity
  8
$DDT_AUDIT_GENERATED_(154)
  6
Continuous
 62
     7
100
AcDbLine
 10
56.392296776
 20
394.0464317874
 30
0.0
 11
57.392296776
 21
394.0464317874
 31
0.0
  0
LINE
  5
28E
330
75
100
AcDbEntity
  8
$DDT_AUDIT_GENERATED_(154)
  6
Continuous
 62
     7
100
AcDbLine
 10
57.392296776
 20
394.0464317874
 30
0.0
 11
57.392296776
 21
393.0464317874
 31
0.0
  0
LINE
  5
28F
330
75
100
AcDbEntity
  8
$DDT_AUDIT_GENERATED_(154)
  6
Continuous
 62
     7
100
AcDbLine
 10
56.192296776
 20
393.0464317874
 30
0.0
 11
55.192296776
 21
393.0464317874
 31
0.0
  0
LINE
  5
290
330
75
100
AcDbEntity
  8
$DDT_AUDIT_GENERATED_(154)
  6
Continuous
 62
     7
100
AcDbLine
 10
55.192296776
 20
393.0464317874
 30
0.0
 11
55.192296776
 21
394.0464317874
 31
0.0
  0
LINE
  5
291
330
75
100
AcDbEntity
  8
$DDT_AUDIT_GENERATED_(154)
  6
Continuous
 62
     7
100
AcDbLine
 10
55.192296776
 20
394.0464317874
 30
0.0
 11
56.192296776
 21
394.0464317874
 31
0.0
  0
LINE
  5
292
330
75
100
AcDbEntity
  8
$DDT_AUDIT_GENERATED_(154)
  6
Continuous
 62
     7
100
AcDbLine
 10
56.192296776
 20
394.0464317874
 30
0.0
 11
56.192296776
 21
393.0464317874
 31
0.0
  0
LINE
  5
293
330
75
100
AcDbEntity
  8
$DDT_AUDIT_GENERATED_(154)
  6
Continuous
 62
     7
100
AcDbLine
 10
58.792296776
 20
391.8464317874
 30
0.0
 11
58.792296776
 21
392.8464317874
 31
0.0
  0
LINE
  5
294
330
75
100
AcDbEntity
  8
$DDT_AUDIT_GENERATED_(154)
  6
Continuous
 62
     7
100
AcDbLine
 10
58.592296776
 20
391.8464317874
 30
0.0
 11
57.592296776
 21
391.8464317874
 31
0.0
  0
LINE
  5
295
330
75
100
AcDbEntity
  8
$DDT_AUDIT_GENERATED_(154)
  6
Continuous
 62
     7
100
AcDbLine
 10
57.592296776
 20
391.8464317874
 30
0.0
 11
57.592296776
 21
392.8464317874
 31
0.0
  0
LINE
  5
296
330
75
100
AcDbEntity
  8
$DDT_AUDIT_GENERATED_(154)
  6
Continuous
 62
     7
100
AcDbLine
 10
57.592296776
 20
392.8464317874
 30
0.0
 11
58.592296776
 21
392.8464317874
 31
0.0
  0
LINE
  5
297
330
75
100
AcDbEntity
  8
$DDT_AUDIT_GENERATED_(154)
  6
Continuous
 62
     7
100
AcDbLine
 10
58.592296776
 20
392.8464317874
 30
0.0
 11
58.592296776
 21
391.8464317874
 31
0.0
  0
LINE
  5
298
330
75
100
AcDbEntity
  8
$DDT_AUDIT_GENERATED_(154)
  6
Continuous
 62
     7
100
AcDbLine
 10
57.392296776
 20
391.8464317874
 30
0.0
 11
56.392296776
 21
391.8464317874
 31
0.0
  0
LINE
  5
299
330
75
100
AcDbEntity
  8
$DDT_AUDIT_GENERATED_(154)
  6
Continuous
 62
     7
100
AcDbLine
 10
56.392296776
 20
391.8464317874
 30
0.0
 11
56.392296776
 21
392.8464317874
 31
0.0
  0
LINE
  5
29A
330
75
100
AcDbEntity
  8
$DDT_AUDIT_GENERATED_(154)
  6
Continuous
 62
     7
100
AcDbLine
 10
56.392296776
 20
392.8464317874
 30
0.0
 11
57.392296776
 21
392.8464317874
 31
0.0
  0
LINE
  5
29B
330
75
100
AcDbEntity
  8
$DDT_AUDIT_GENERATED_(154)
  6
Continuous
 62
     7
100
AcDbLine
 10
57.392296776
 20
392.8464317874
 30
0.0
 11
57.392296776
 21
391.8464317874
 31
0.0
  0
LINE
  5
29C
330
75
100
AcDbEntity
  8
$DDT_AUDIT_GENERATED_(154)
  6
Continuous
 62
     7
100
AcDbLine
 10
58.792296776
 20
391.3115972414
 30
0.0
 11
58.792296776
 21
391.6464317874
 31
0.0
  0
LINE
  5
29D
330
75
100
AcDbEntity
  8
$DDT_AUDIT_GENERATED_(154)
  6
Continuous
 62
     7
100
AcDbLine
 10
57.592296776
 20
391.4734831315
 30
0.0
 11
57.592296776
 21
391.6464317874
 31
0.0
  0
LINE
  5
29E
330
75
100
AcDbEntity
  8
$DDT_AUDIT_GENERATED_(154)
  6
Continuous
 62
     7
100
AcDbLine
 10
57.592296776
 20
391.6464317874
 30
0.0
 11
58.592296776
 21
391.6464317874
 31
0.0
  0
LINE
  5
29F
330
75
100
AcDbEntity
  8
$DDT_AUDIT_GENERATED_(154)
  6
Continuous
 62
     7
100
AcDbLine
 10
58.592296776
 20
391.6464317874
 30
0.0
 11
58.592296776
 21
391.3261823994
 31
0.0
  0
LINE
  5
2A0
330
75
100
AcDbEntity
  8
$DDT_AUDIT_GENERATED_(154)
  6
Continuous
 62
     7
100
AcDbLine
 10
56.9147980904
 20
391.6464317874
 30
0.0
 11
57.392296776
 21
391.6464317874
 31
0.0
  0
LINE
  5
2A1
330
75
100
AcDbEntity
  8
$DDT_AUDIT_GENERATED_(154)
  6
Continuous
 62
     7
100
AcDbLine
 10
57.392296776
 20
391.6464317874
 30
0.0
 11
57.392296776
 21
391.5182003507
 31
0.0
  0
LINE
  5
2A2
330
75
100
AcDbEntity
  8
$DDT_AUDIT_GENERATED_(154)
  6
Continuous
 62
     7
100
AcDbLine
 10
55.192296776
 20
392.3873466503
 30
0.0
 11
55.192296776
 21
392.8464317874
 31
0.0
  0
LINE
  5
2A3
330
75
100
AcDbEntity
  8
$DDT_AUDIT_GENERATED_(154)
  6
Continuous
 62
     7
100
AcDbLine
 10
55.192296776
 20
392.8464317874
 30
0.0
 11
56.192296776
 21
392.8464317874
 31
0.0
  0
LINE
  5
2A4
330
75
100
AcDbEntity
  8
$DDT_AUDIT_GENERATED_(154)
  6
Continuous
 62
     7
100
AcDbLine
 10
56.192296776
 20
392.8464317874
 30
0.0
 11
56.192296776
 21
391.9010083197
 31
0.0
  0
LINE
  5
2A5
330
75
100
AcDbEntity
  8
$DDT_AUDIT_GENERATED_(154)
  6
Continuous
 62
     7
100
AcDbLine
 10
53.992296776
 20
393.2240509067
 30
0.0
 11
53.992296776
 21
394.0464317874
 31
0.0
  0
LINE
  5
2A6
330
75
100
AcDbEntity
  8
$DDT_AUDIT_GENERATED_(154)
  6
Continuous
 62
     7
100
AcDbLine
 10
53.992296776
 20
394.0464317874
 30
0.0
 11
54.992296776
 21
394.0464317874
 31
0.0
  0
LINE
  5
2A7
330
75
100
AcDbEntity
  8
$DDT_AUDIT_GENERATED_(154)
  6
Continuous
 62
     7
100
AcDbLine
 10
54.992296776
 20
394.0464317874
 30
0.0
 11
54.992296776
 21
393.0464317874
 31
0.0
  0
LINE
  5
2A8
330
75
100
AcDbEntity
  8
$DDT_AUDIT_GENERATED_(154)
  6
Continuous
 62
     7
100
AcDbLine
 10
54.992296776
 20
393.0464317874
 30
0.0
 11
54.2116964178
 21
393.0464317874
 31
0.0
  0
LINE
  5
2A9
330
75
100
AcDbEntity
  8
$DDT_AUDIT_GENERATED_(154)
  6
Continuous
 62
     7
100
AcDbLine
 10
54.4785144793
 20
392.8464317874
 30
0.0
 11
54.992296776
 21
392.8464317874
 31
0.0
  0
LINE
  5
2AA
330
75
100
AcDbEntity
  8
$DDT_AUDIT_GENERATED_(154)
  6
Continuous
 62
     7
100
AcDbLine
 10
54.992296776
 20
392.8464317874
 30
0.0
 11
54.992296776
 21
392.5056576822
 31
0.0
  0
LINE
  5
2AB
330
75
100
AcDbEntity
  8
$DDT_AUDIT_GENERATED_(154)
  6
Continuous
 62
     7
100
AcDbLine
 10
52.792296776
 20
394.4658314291
 30
0.0
 11
52.792296776
 21
395.2464317874
 31
0.0
  0
LINE
  5
2AC
330
75
100
AcDbEntity
  8
$DDT_AUDIT_GENERATED_(154)
  6
Continuous
 62
     7
100
AcDbLine
 10
52.792296776
 20
395.2464317874
 30
0.0
 11
53.792296776
 21
395.2464317874
 31
0.0
  0
LINE
  5
2AD
330
75
100
AcDbEntity
  8
$DDT_AUDIT_GENERATED_(154)
  6
Continuous
 62
     7
100
AcDbLine
 10
53.792296776
 20
395.2464317874
 30
0.0
 11
53.792296776
 21
394.2464317874
 31
0.0
  0
LINE
  5
2AE
330
75
100
AcDbEntity
  8
$DDT_AUDIT_GENERATED_(154)
  6
Continuous
 62
     7
100
AcDbLine
 10
53.792296776
 20
394.2464317874
 30
0.0
 11
52.9699158954
 21
394.2464317874
 31
0.0
  0
LINE
  5
2AF
330
75
100
AcDbEntity
  8
$DDT_AUDIT_GENERATED_(154)
  6
Continuous
 62
     7
100
AcDbLine
 10
53.1431098379
 20
394.0464317874
 30
0.0
 11
53.792296776
 21
394.0464317874
 31
0.0
  0
LINE
  5
2B0
330
75
100
AcDbEntity
  8
$DDT_AUDIT_GENERATED_(154)
  6
Continuous
 62
     7
100
AcDbLine
 10
53.792296776
 20
394.0464317874
 30
0.0
 11
53.792296776
 21
393.3972448492
 31
0.0
  0
LINE
  5
2B1
330
75
100
AcDbEntity
  8
$DDT_AUDIT_GENERATED_(154)
  6
Continuous
 62
     7
100
AcDbLine
 10
52.592296776
 20
396.6464317874
 30
0.0
 11
51.592296776
 21
396.6464317874
 31
0.0
  0
LINE
  5
2B2
330
75
100
AcDbEntity
  8
$DDT_AUDIT_GENERATED_(154)
  6
Continuous
 62
     7
100
AcDbLine
 10
51.592296776
 20
396.6464317874
 30
0.0
 11
51.592296776
 21
397.6464317874
 31
0.0
  0
LINE
  5
2B3
330
75
100
AcDbEntity
  8
$DDT_AUDIT_GENERATED_(154)
  6
Continuous
 62
     7
100
AcDbLine
 10
51.592296776
 20
397.6464317874
 30
0.0
 11
52.592296776
 21
397.6464317874
 31
0.0
  0
LINE
  5
2B4
330
75
100
AcDbEntity
  8
$DDT_AUDIT_GENERATED_(154)
  6
Continuous
 62
     7
100
AcDbLine
 10
52.592296776
 20
397.6464317874
 30
0.0
 11
52.592296776
 21
396.6464317874
 31
0.0
  0
LINE
  5
2B5
330
75
100
AcDbEntity
  8
$DDT_AUDIT_GENERATED_(154)
  6
Continuous
 62
     7
100
AcDbLine
 10
51.6468733083
 20
396.4464317874
 30
0.0
 11
52.592296776
 21
396.4464317874
 31
0.0
  0
LINE
  5
2B6
330
75
100
AcDbEntity
  8
$DDT_AUDIT_GENERATED_(154)
  6
Continuous
 62
     7
100
AcDbLine
 10
52.592296776
 20
396.4464317874
 30
0.0
 11
52.592296776
 21
395.4464317874
 31
0.0
  0
LINE
  5
2B7
330
75
100
AcDbEntity
  8
$DDT_AUDIT_GENERATED_(154)
  6
Continuous
 62
     7
100
AcDbLine
 10
52.592296776
 20
395.4464317874
 30
0.0
 11
52.1332116389
 21
395.4464317874
 31
0.0
  0
LINE
  5
2B8
330
75
100
AcDbEntity
  8
$DDT_AUDIT_GENERATED_(154)
  6
Continuous
 62
     7
100
AcDbLine
 10
52.2515226709
 20
395.2464317874
 30
0.0
 11
52.592296776
 21
395.2464317874
 31
0.0
  0
LINE
  5
2B9
330
75
100
AcDbEntity
  8
$DDT_AUDIT_GENERATED_(154)
  6
Continuous
 62
     7
100
AcDbLine
 10
52.592296776
 20
395.2464317874
 30
0.0
 11
52.592296776
 21
394.7326494907
 31
0.0
  0
LINE
  5
2BA
330
75
100
AcDbEntity
  8
$DDT_AUDIT_GENERATED_(154)
  6
Continuous
 62
     7
100
AcDbLine
 10
51.392296776
 20
400.0464317874
 30
0.0
 11
51.392296776
 21
399.0464317874
 31
0.0
  0
LINE
  5
2BB
330
75
100
AcDbEntity
  8
$DDT_AUDIT_GENERATED_(154)
  6
Continuous
 62
     7
100
AcDbLine
 10
51.392296776
 20
399.0464317874
 30
0.0
 11
51.05746223
 21
399.0464317874
 31
0.0
  0
LINE
  5
2BC
330
75
100
AcDbEntity
  8
$DDT_AUDIT_GENERATED_(154)
  6
Continuous
 62
     7
100
AcDbLine
 10
51.0720473881
 20
398.8464317874
 30
0.0
 11
51.392296776
 21
398.8464317874
 31
0.0
  0
LINE
  5
2BD
330
75
100
AcDbEntity
  8
$DDT_AUDIT_GENERATED_(154)
  6
Continuous
 62
     7
100
AcDbLine
 10
51.392296776
 20
398.8464317874
 30
0.0
 11
51.392296776
 21
397.8464317874
 31
0.0
  0
LINE
  5
2BE
330
75
100
AcDbEntity
  8
$DDT_AUDIT_GENERATED_(154)
  6
Continuous
 62
     7
100
AcDbLine
 10
51.392296776
 20
397.8464317874
 30
0.0
 11
51.2193481202
 21
397.8464317874
 31
0.0
  0
LINE
  5
2BF
330
75
100
AcDbEntity
  8
$DDT_AUDIT_GENERATED_(154)
  6
Continuous
 62
     7
100
AcDbLine
 10
51.2640653394
 20
397.6464317874
 30
0.0
 11
51.392296776
 21
397.6464317874
 31
0.0
  0
LINE
  5
2C0
330
75
100
AcDbEntity
  8
$DDT_AUDIT_GENERATED_(154)
  6
Continuous
 62
     7
100
AcDbLine
 10
51.392296776
 20
397.6464317874
 30
0.0
 11
51.392296776
 21
397.1689331018
 31
0.0
  0
LINE
  5
2C1
330
75
100
AcDbEntity
  8
$DDT_AUDIT_GENERATED_(154)
  6
Continuous
 62
     7
100
AcDbLine
 10
58.792296776
 20
400.0464317874
 30
0.0
 11
59.792296776
 21
400.0464317874
 31
0.0
  0
LINE
  5
2C2
330
75
100
AcDbEntity
  8
$DDT_AUDIT_GENERATED_(154)
  6
Continuous
 62
     7
100
AcDbLine
 10
58.792296776
 20
400.2464317874
 30
0.0
 11
58.792296776
 21
401.2464317874
 31
0.0
  0
LINE
  5
2C3
330
75
100
AcDbEntity
  8
$DDT_AUDIT_GENERATED_(154)
  6
Continuous
 62
     7
100
AcDbLine
 10
58.792296776
 20
401.2464317874
 30
0.0
 11
59.792296776
 21
401.2464317874
 31
0.0
  0
LINE
  5
2C4
330
75
100
AcDbEntity
  8
$DDT_AUDIT_GENERATED_(154)
  6
Continuous
 62
     7
100
AcDbLine
 10
59.792296776
 20
400.2464317874
 30
0.0
 11
58.792296776
 21
400.2464317874
 31
0.0
  0
LINE
  5
2C5
330
75
100
AcDbEntity
  8
$DDT_AUDIT_GENERATED_(154)
  6
Continuous
 62
     7
100
AcDbLine
 10
58.792296776
 20
401.4464317874
 30
0.0
 11
58.792296776
 21
402.4464317874
 31
0.0
  0
LINE
  5
2C6
330
75
100
AcDbEntity
  8
$DDT_AUDIT_GENERATED_(154)
  6
Continuous
 62
     7
100
AcDbLine
 10
58.792296776
 20
402.4464317874
 30
0.0
 11
59.792296776
 21
402.4464317874
 31
0.0
  0
LINE
  5
2C7
330
75
100
AcDbEntity
  8
$DDT_AUDIT_GENERATED_(154)
  6
Continuous
 62
     7
100
AcDbLine
 10
59.792296776
 20
401.4464317874
 30
0.0
 11
58.792296776
 21
401.4464317874
 31
0.0
  0
LINE
  5
2C8
330
75
100
AcDbEntity
  8
$DDT_AUDIT_GENERATED_(154)
  6
Continuous
 62
     7
100
AcDbLine
 10
58.792296776
 20
402.6464317874
 30
0.0
 11
58.792296776
 21
403.6464317874
 31
0.0
  0
LINE
  5
2C9
330
75
100
AcDbEntity
  8
$DDT_AUDIT_GENERATED_(154)
  6
Continuous
 62
     7
100
AcDbLine
 10
58.792296776
 20
403.6464317874
 30
0.0
 11
59.792296776
 21
403.6464317874
 31
0.0
  0
LINE
  5
2CA
330
75
100
AcDbEntity
  8
$DDT_AUDIT_GENERATED_(154)
  6
Continuous
 62
     7
100
AcDbLine
 10
59.792296776
 20
402.6464317874
 30
0.0
 11
58.792296776
 21
402.6464317874
 31
0.0
  0
LINE
  5
2CB
330
75
100
AcDbEntity
  8
$DDT_AUDIT_GENERATED_(154)
  6
Continuous
 62
     7
100
AcDbLine
 10
58.792296776
 20
403.8464317874
 30
0.0
 11
58.792296776
 21
404.8464317874
 31
0.0
  0
LINE
  5
2CC
330
75
100
AcDbEntity
  8
$DDT_AUDIT_GENERATED_(154)
  6
Continuous
 62
     7
100
AcDbLine
 10
58.792296776
 20
404.8464317874
 30
0.0
 11
59.792296776
 21
404.8464317874
 31
0.0
  0
LINE
  5
2CD
330
75
100
AcDbEntity
  8
$DDT_AUDIT_GENERATED_(154)
  6
Continuous
 62
     7
100
AcDbLine
 10
59.792296776
 20
403.8464317874
 30
0.0
 11
58.792296776
 21
403.8464317874
 31
0.0
  0
LINE
  5
2CE
330
75
100
AcDbEntity
  8
$DDT_AUDIT_GENERATED_(154)
  6
Continuous
 62
     7
100
AcDbLine
 10
58.792296776
 20
405.0464317874
 30
0.0
 11
58.792296776
 21
406.0464317874
 31
0.0
  0
LINE
  5
2CF
330
75
100
AcDbEntity
  8
$DDT_AUDIT_GENERATED_(154)
  6
Continuous
 62
     7
100
AcDbLine
 10
58.792296776
 20
406.0464317874
 30
0.0
 11
59.792296776
 21
406.0464317874
 31
0.0
  0
LINE
  5
2D0
330
75
100
AcDbEntity
  8
$DDT_AUDIT_GENERATED_(154)
  6
Continuous
 62
     7
100
AcDbLine
 10
59.792296776
 20
405.0464317874
 30
0.0
 11
58.792296776
 21
405.0464317874
 31
0.0
  0
LINE
  5
2D1
330
75
100
AcDbEntity
  8
$DDT_AUDIT_GENERATED_(154)
  6
Continuous
 62
     7
100
AcDbLine
 10
58.792296776
 20
407.2464317874
 30
0.0
 11
59.792296776
 21
407.2464317874
 31
0.0
  0
LINE
  5
2D2
330
75
100
AcDbEntity
  8
$DDT_AUDIT_GENERATED_(154)
  6
Continuous
 62
     7
100
AcDbLine
 10
58.792296776
 20
406.2464317874
 30
0.0
 11
58.792296776
 21
407.2464317874
 31
0.0
  0
LINE
  5
2D3
330
75
100
AcDbEntity
  8
$DDT_AUDIT_GENERATED_(154)
  6
Continuous
 62
     7
100
AcDbLine
 10
59.792296776
 20
406.2464317874
 30
0.0
 11
58.792296776
 21
406.2464317874
 31
0.0
  0
LINE
  5
2D4
330
75
100
AcDbEntity
  8
$DDT_AUDIT_GENERATED_(154)
  6
Continuous
 62
     7
100
AcDbLine
 10
57.592296776
 20
400.0464317874
 30
0.0
 11
58.592296776
 21
400.0464317874
 31
0.0
  0
LINE
  5
2D5
330
75
100
AcDbEntity
  8
$DDT_AUDIT_GENERATED_(154)
  6
Continuous
 62
     7
100
AcDbLine
 10
57.592296776
 20
400.2464317874
 30
0.0
 11
57.592296776
 21
401.2464317874
 31
0.0
  0
LINE
  5
2D6
330
75
100
AcDbEntity
  8
$DDT_AUDIT_GENERATED_(154)
  6
Continuous
 62
     7
100
AcDbLine
 10
57.592296776
 20
401.2464317874
 30
0.0
 11
58.592296776
 21
401.2464317874
 31
0.0
  0
LINE
  5
2D7
330
75
100
AcDbEntity
  8
$DDT_AUDIT_GENERATED_(154)
  6
Continuous
 62
     7
100
AcDbLine
 10
58.592296776
 20
401.2464317874
 30
0.0
 11
58.592296776
 21
400.2464317874
 31
0.0
  0
LINE
  5
2D8
330
75
100
AcDbEntity
  8
$DDT_AUDIT_GENERATED_(154)
  6
Continuous
 62
     7
100
AcDbLine
 10
58.592296776
 20
400.2464317874
 30
0.0
 11
57.592296776
 21
400.2464317874
 31
0.0
  0
LINE
  5
2D9
330
75
100
AcDbEntity
  8
$DDT_AUDIT_GENERATED_(154)
  6
Continuous
 62
     7
100
AcDbLine
 10
57.592296776
 20
401.4464317874
 30
0.0
 11
57.592296776
 21
402.4464317874
 31
0.0
  0
LINE
  5
2DA
330
75
100
AcDbEntity
  8
$DDT_AUDIT_GENERATED_(154)
  6
Continuous
 62
     7
100
AcDbLine
 10
57.592296776
 20
402.4464317874
 30
0.0
 11
58.592296776
 21
402.4464317874
 31
0.0
  0
LINE
  5
2DB
330
75
100
AcDbEntity
  8
$DDT_AUDIT_GENERATED_(154)
  6
Continuous
 62
     7
100
AcDbLine
 10
58.592296776
 20
402.4464317874
 30
0.0
 11
58.592296776
 21
401.4464317874
 31
0.0
  0
LINE
  5
2DC
330
75
100
AcDbEntity
  8
$DDT_AUDIT_GENERATED_(154)
  6
Continuous
 62
     7
100
AcDbLine
 10
58.592296776
 20
401.4464317874
 30
0.0
 11
57.592296776
 21
401.4464317874
 31
0.0
  0
LINE
  5
2DD
330
75
100
AcDbEntity
  8
$DDT_AUDIT_GENERATED_(154)
  6
Continuous
 62
     7
100
AcDbLine
 10
57.592296776
 20
402.6464317874
 30
0.0
 11
57.592296776
 21
403.6464317874
 31
0.0
  0
LINE
  5
2DE
330
75
100
AcDbEntity
  8
$DDT_AUDIT_GENERATED_(154)
  6
Continuous
 62
     7
100
AcDbLine
 10
57.592296776
 20
403.6464317874
 30
0.0
 11
58.592296776
 21
403.6464317874
 31
0.0
  0
LINE
  5
2DF
330
75
100
AcDbEntity
  8
$DDT_AUDIT_GENERATED_(154)
  6
Continuous
 62
     7
100
AcDbLine
 10
58.592296776
 20
403.6464317874
 30
0.0
 11
58.592296776
 21
402.6464317874
 31
0.0
  0
LINE
  5
2E0
330
75
100
AcDbEntity
  8
$DDT_AUDIT_GENERATED_(154)
  6
Continuous
 62
     7
100
AcDbLine
 10
58.592296776
 20
402.6464317874
 30
0.0
 11
57.592296776
 21
402.6464317874
 31
0.0
  0
LINE
  5
2E1
330
75
100
AcDbEntity
  8
$DDT_AUDIT_GENERATED_(154)
  6
Continuous
 62
     7
100
AcDbLine
 10
57.592296776
 20
403.8464317874
 30
0.0
 11
57.592296776
 21
404.8464317874
 31
0.0
  0
LINE
  5
2E2
330
75
100
AcDbEntity
  8
$DDT_AUDIT_GENERATED_(154)
  6
Continuous
 62
     7
100
AcDbLine
 10
57.592296776
 20
404.8464317874
 30
0.0
 11
58.592296776
 21
404.8464317874
 31
0.0
  0
LINE
  5
2E3
330
75
100
AcDbEntity
  8
$DDT_AUDIT_GENERATED_(154)
  6
Continuous
 62
     7
100
AcDbLine
 10
58.592296776
 20
404.8464317874
 30
0.0
 11
58.592296776
 21
403.8464317874
 31
0.0
  0
LINE
  5
2E4
330
75
100
AcDbEntity
  8
$DDT_AUDIT_GENERATED_(154)
  6
Continuous
 62
     7
100
AcDbLine
 10
58.592296776
 20
403.8464317874
 30
0.0
 11
57.592296776
 21
403.8464317874
 31
0.0
  0
LINE
  5
2E5
330
75
100
AcDbEntity
  8
$DDT_AUDIT_GENERATED_(154)
  6
Continuous
 62
     7
100
AcDbLine
 10
57.592296776
 20
405.0464317874
 30
0.0
 11
57.592296776
 21
406.0464317874
 31
0.0
  0
LINE
  5
2E6
330
75
100
AcDbEntity
  8
$DDT_AUDIT_GENERATED_(154)
  6
Continuous
 62
     7
100
AcDbLine
 10
57.592296776
 20
406.0464317874
 30
0.0
 11
58.592296776
 21
406.0464317874
 31
0.0
  0
LINE
  5
2E7
330
75
100
AcDbEntity
  8
$DDT_AUDIT_GENERATED_(154)
  6
Continuous
 62
     7
100
AcDbLine
 10
58.592296776
 20
406.0464317874
 30
0.0
 11
58.592296776
 21
405.0464317874
 31
0.0
  0
LINE
  5
2E8
330
75
100
AcDbEntity
  8
$DDT_AUDIT_GENERATED_(154)
  6
Continuous
 62
     7
100
AcDbLine
 10
58.592296776
 20
405.0464317874
 30
0.0
 11
57.592296776
 21
405.0464317874
 31
0.0
  0
LINE
  5
2E9
330
75
100
AcDbEntity
  8
$DDT_AUDIT_GENERATED_(154)
  6
Continuous
 62
     7
100
AcDbLine
 10
57.592296776
 20
406.2464317874
 30
0.0
 11
57.592296776
 21
407.2464317874
 31
0.0
  0
LINE
  5
2EA
330
75
100
AcDbEntity
  8
$DDT_AUDIT_GENERATED_(154)
  6
Continuous
 62
     7
100
AcDbLine
 10
57.592296776
 20
407.2464317874
 30
0.0
 11
58.592296776
 21
407.2464317874
 31
0.0
  0
LINE
  5
2EB
330
75
100
AcDbEntity
  8
$DDT_AUDIT_GENERATED_(154)
  6
Continuous
 62
     7
100
AcDbLine
 10
58.592296776
 20
407.2464317874
 30
0.0
 11
58.592296776
 21
406.2464317874
 31
0.0
  0
LINE
  5
2EC
330
75
100
AcDbEntity
  8
$DDT_AUDIT_GENERATED_(154)
  6
Continuous
 62
     7
100
AcDbLine
 10
58.592296776
 20
406.2464317874
 30
0.0
 11
57.592296776
 21
406.2464317874
 31
0.0
  0
LINE
  5
2ED
330
75
100
AcDbEntity
  8
$DDT_AUDIT_GENERATED_(154)
  6
Continuous
 62
     7
100
AcDbLine
 10
56.392296776
 20
400.0464317874
 30
0.0
 11
57.392296776
 21
400.0464317874
 31
0.0
  0
LINE
  5
2EE
330
75
100
AcDbEntity
  8
$DDT_AUDIT_GENERATED_(154)
  6
Continuous
 62
     7
100
AcDbLine
 10
56.392296776
 20
400.2464317874
 30
0.0
 11
56.392296776
 21
401.2464317874
 31
0.0
  0
LINE
  5
2EF
330
75
100
AcDbEntity
  8
$DDT_AUDIT_GENERATED_(154)
  6
Continuous
 62
     7
100
AcDbLine
 10
56.392296776
 20
401.2464317874
 30
0.0
 11
57.392296776
 21
401.2464317874
 31
0.0
  0
LINE
  5
2F0
330
75
100
AcDbEntity
  8
$DDT_AUDIT_GENERATED_(154)
  6
Continuous
 62
     7
100
AcDbLine
 10
57.392296776
 20
401.2464317874
 30
0.0
 11
57.392296776
 21
400.2464317874
 31
0.0
  0
LINE
  5
2F1
330
75
100
AcDbEntity
  8
$DDT_AUDIT_GENERATED_(154)
  6
Continuous
 62
     7
100
AcDbLine
 10
57.392296776
 20
400.2464317874
 30
0.0
 11
56.392296776
 21
400.2464317874
 31
0.0
  0
LINE
  5
2F2
330
75
100
AcDbEntity
  8
$DDT_AUDIT_GENERATED_(154)
  6
Continuous
 62
     7
100
AcDbLine
 10
56.392296776
 20
401.4464317874
 30
0.0
 11
56.392296776
 21
402.4464317874
 31
0.0
  0
LINE
  5
2F3
330
75
100
AcDbEntity
  8
$DDT_AUDIT_GENERATED_(154)
  6
Continuous
 62
     7
100
AcDbLine
 10
56.392296776
 20
402.4464317874
 30
0.0
 11
57.392296776
 21
402.4464317874
 31
0.0
  0
LINE
  5
2F4
330
75
100
AcDbEntity
  8
$DDT_AUDIT_GENERATED_(154)
  6
Continuous
 62
     7
100
AcDbLine
 10
57.392296776
 20
402.4464317874
 30
0.0
 11
57.392296776
 21
401.4464317874
 31
0.0
  0
LINE
  5
2F5
330
75
100
AcDbEntity
  8
$DDT_AUDIT_GENERATED_(154)
  6
Continuous
 62
     7
100
AcDbLine
 10
57.392296776
 20
401.4464317874
 30
0.0
 11
56.392296776
 21
401.4464317874
 31
0.0
  0
LINE
  5
2F6
330
75
100
AcDbEntity
  8
$DDT_AUDIT_GENERATED_(154)
  6
Continuous
 62
     7
100
AcDbLine
 10
56.392296776
 20
402.6464317874
 30
0.0
 11
56.392296776
 21
403.6464317874
 31
0.0
  0
LINE
  5
2F7
330
75
100
AcDbEntity
  8
$DDT_AUDIT_GENERATED_(154)
  6
Continuous
 62
     7
100
AcDbLine
 10
56.392296776
 20
403.6464317874
 30
0.0
 11
57.392296776
 21
403.6464317874
 31
0.0
  0
LINE
  5
2F8
330
75
100
AcDbEntity
  8
$DDT_AUDIT_GENERATED_(154)
  6
Continuous
 62
     7
100
AcDbLine
 10
57.392296776
 20
403.6464317874
 30
0.0
 11
57.392296776
 21
402.6464317874
 31
0.0
  0
LINE
  5
2F9
330
75
100
AcDbEntity
  8
$DDT_AUDIT_GENERATED_(154)
  6
Continuous
 62
     7
100
AcDbLine
 10
57.392296776
 20
402.6464317874
 30
0.0
 11
56.392296776
 21
402.6464317874
 31
0.0
  0
LINE
  5
2FA
330
75
100
AcDbEntity
  8
$DDT_AUDIT_GENERATED_(154)
  6
Continuous
 62
     7
100
AcDbLine
 10
56.392296776
 20
403.8464317874
 30
0.0
 11
56.392296776
 21
404.8464317874
 31
0.0
  0
LINE
  5
2FB
330
75
100
AcDbEntity
  8
$DDT_AUDIT_GENERATED_(154)
  6
Continuous
 62
     7
100
AcDbLine
 10
56.392296776
 20
404.8464317874
 30
0.0
 11
57.392296776
 21
404.8464317874
 31
0.0
  0
LINE
  5
2FC
330
75
100
AcDbEntity
  8
$DDT_AUDIT_GENERATED_(154)
  6
Continuous
 62
     7
100
AcDbLine
 10
57.392296776
 20
404.8464317874
 30
0.0
 11
57.392296776
 21
403.8464317874
 31
0.0
  0
LINE
  5
2FD
330
75
100
AcDbEntity
  8
$DDT_AUDIT_GENERATED_(154)
  6
Continuous
 62
     7
100
AcDbLine
 10
57.392296776
 20
403.8464317874
 30
0.0
 11
56.392296776
 21
403.8464317874
 31
0.0
  0
LINE
  5
2FE
330
75
100
AcDbEntity
  8
$DDT_AUDIT_GENERATED_(154)
  6
Continuous
 62
     7
100
AcDbLine
 10
56.392296776
 20
405.0464317874
 30
0.0
 11
56.392296776
 21
406.0464317874
 31
0.0
  0
LINE
  5
2FF
330
75
100
AcDbEntity
  8
$DDT_AUDIT_GENERATED_(154)
  6
Continuous
 62
     7
100
AcDbLine
 10
56.392296776
 20
406.0464317874
 30
0.0
 11
57.392296776
 21
406.0464317874
 31
0.0
  0
LINE
  5
300
330
75
100
AcDbEntity
  8
$DDT_AUDIT_GENERATED_(154)
  6
Continuous
 62
     7
100
AcDbLine
 10
57.392296776
 20
406.0464317874
 30
0.0
 11
57.392296776
 21
405.0464317874
 31
0.0
  0
LINE
  5
301
330
75
100
AcDbEntity
  8
$DDT_AUDIT_GENERATED_(154)
  6
Continuous
 62
     7
100
AcDbLine
 10
57.392296776
 20
405.0464317874
 30
0.0
 11
56.392296776
 21
405.0464317874
 31
0.0
  0
LINE
  5
302
330
75
100
AcDbEntity
  8
$DDT_AUDIT_GENERATED_(154)
  6
Continuous
 62
     7
100
AcDbLine
 10
55.192296776
 20
400.0464317874
 30
0.0
 11
56.192296776
 21
400.0464317874
 31
0.0
  0
LINE
  5
303
330
75
100
AcDbEntity
  8
$DDT_AUDIT_GENERATED_(154)
  6
Continuous
 62
     7
100
AcDbLine
 10
55.192296776
 20
400.2464317874
 30
0.0
 11
55.192296776
 21
401.2464317874
 31
0.0
  0
LINE
  5
304
330
75
100
AcDbEntity
  8
$DDT_AUDIT_GENERATED_(154)
  6
Continuous
 62
     7
100
AcDbLine
 10
55.192296776
 20
401.2464317874
 30
0.0
 11
56.192296776
 21
401.2464317874
 31
0.0
  0
LINE
  5
305
330
75
100
AcDbEntity
  8
$DDT_AUDIT_GENERATED_(154)
  6
Continuous
 62
     7
100
AcDbLine
 10
56.192296776
 20
401.2464317874
 30
0.0
 11
56.192296776
 21
400.2464317874
 31
0.0
  0
LINE
  5
306
330
75
100
AcDbEntity
  8
$DDT_AUDIT_GENERATED_(154)
  6
Continuous
 62
     7
100
AcDbLine
 10
56.192296776
 20
400.2464317874
 30
0.0
 11
55.192296776
 21
400.2464317874
 31
0.0
  0
LINE
  5
307
330
75
100
AcDbEntity
  8
$DDT_AUDIT_GENERATED_(154)
  6
Continuous
 62
     7
100
AcDbLine
 10
55.192296776
 20
401.4464317874
 30
0.0
 11
55.192296776
 21
402.4464317874
 31
0.0
  0
LINE
  5
308
330
75
100
AcDbEntity
  8
$DDT_AUDIT_GENERATED_(154)
  6
Continuous
 62
     7
100
AcDbLine
 10
55.192296776
 20
402.4464317874
 30
0.0
 11
56.192296776
 21
402.4464317874
 31
0.0
  0
LINE
  5
309
330
75
100
AcDbEntity
  8
$DDT_AUDIT_GENERATED_(154)
  6
Continuous
 62
     7
100
AcDbLine
 10
56.192296776
 20
402.4464317874
 30
0.0
 11
56.192296776
 21
401.4464317874
 31
0.0
  0
LINE
  5
30A
330
75
100
AcDbEntity
  8
$DDT_AUDIT_GENERATED_(154)
  6
Continuous
 62
     7
100
AcDbLine
 10
56.192296776
 20
401.4464317874
 30
0.0
 11
55.192296776
 21
401.4464317874
 31
0.0
  0
LINE
  5
30B
330
75
100
AcDbEntity
  8
$DDT_AUDIT_GENERATED_(154)
  6
Continuous
 62
     7
100
AcDbLine
 10
55.192296776
 20
402.6464317874
 30
0.0
 11
55.192296776
 21
403.6464317874
 31
0.0
  0
LINE
  5
30C
330
75
100
AcDbEntity
  8
$DDT_AUDIT_GENERATED_(154)
  6
Continuous
 62
     7
100
AcDbLine
 10
55.192296776
 20
403.6464317874
 30
0.0
 11
56.192296776
 21
403.6464317874
 31
0.0
  0
LINE
  5
30D
330
75
100
AcDbEntity
  8
$DDT_AUDIT_GENERATED_(154)
  6
Continuous
 62
     7
100
AcDbLine
 10
56.192296776
 20
403.6464317874
 30
0.0
 11
56.192296776
 21
402.6464317874
 31
0.0
  0
LINE
  5
30E
330
75
100
AcDbEntity
  8
$DDT_AUDIT_GENERATED_(154)
  6
Continuous
 62
     7
100
AcDbLine
 10
56.192296776
 20
402.6464317874
 30
0.0
 11
55.192296776
 21
402.6464317874
 31
0.0
  0
LINE
  5
30F
330
75
100
AcDbEntity
  8
$DDT_AUDIT_GENERATED_(154)
  6
Continuous
 62
     7
100
AcDbLine
 10
55.192296776
 20
403.8464317874
 30
0.0
 11
55.192296776
 21
404.8464317874
 31
0.0
  0
LINE
  5
310
330
75
100
AcDbEntity
  8
$DDT_AUDIT_GENERATED_(154)
  6
Continuous
 62
     7
100
AcDbLine
 10
55.192296776
 20
404.8464317874
 30
0.0
 11
56.192296776
 21
404.8464317874
 31
0.0
  0
LINE
  5
311
330
75
100
AcDbEntity
  8
$DDT_AUDIT_GENERATED_(154)
  6
Continuous
 62
     7
100
AcDbLine
 10
56.192296776
 20
404.8464317874
 30
0.0
 11
56.192296776
 21
403.8464317874
 31
0.0
  0
LINE
  5
312
330
75
100
AcDbEntity
  8
$DDT_AUDIT_GENERATED_(154)
  6
Continuous
 62
     7
100
AcDbLine
 10
56.192296776
 20
403.8464317874
 30
0.0
 11
55.192296776
 21
403.8464317874
 31
0.0
  0
LINE
  5
313
330
75
100
AcDbEntity
  8
$DDT_AUDIT_GENERATED_(154)
  6
Continuous
 62
     7
100
AcDbLine
 10
55.192296776
 20
406.0464317874
 30
0.0
 11
56.192296776
 21
406.0464317874
 31
0.0
  0
LINE
  5
314
330
75
100
AcDbEntity
  8
$DDT_AUDIT_GENERATED_(154)
  6
Continuous
 62
     7
100
AcDbLine
 10
55.192296776
 20
405.0464317874
 30
0.0
 11
55.192296776
 21
406.0464317874
 31
0.0
  0
LINE
  5
315
330
75
100
AcDbEntity
  8
$DDT_AUDIT_GENERATED_(154)
  6
Continuous
 62
     7
100
AcDbLine
 10
56.192296776
 20
406.0464317874
 30
0.0
 11
56.192296776
 21
405.0464317874
 31
0.0
  0
LINE
  5
316
330
75
100
AcDbEntity
  8
$DDT_AUDIT_GENERATED_(154)
  6
Continuous
 62
     7
100
AcDbLine
 10
56.192296776
 20
405.0464317874
 30
0.0
 11
55.192296776
 21
405.0464317874
 31
0.0
  0
LINE
  5
317
330
75
100
AcDbEntity
  8
$DDT_AUDIT_GENERATED_(154)
  6
Continuous
 62
     7
100
AcDbLine
 10
53.992296776
 20
400.0464317874
 30
0.0
 11
54.992296776
 21
400.0464317874
 31
0.0
  0
LINE
  5
318
330
75
100
AcDbEntity
  8
$DDT_AUDIT_GENERATED_(154)
  6
Continuous
 62
     7
100
AcDbLine
 10
53.992296776
 20
400.2464317874
 30
0.0
 11
53.992296776
 21
401.2464317874
 31
0.0
  0
LINE
  5
319
330
75
100
AcDbEntity
  8
$DDT_AUDIT_GENERATED_(154)
  6
Continuous
 62
     7
100
AcDbLine
 10
53.992296776
 20
401.2464317874
 30
0.0
 11
54.992296776
 21
401.2464317874
 31
0.0
  0
LINE
  5
31A
330
75
100
AcDbEntity
  8
$DDT_AUDIT_GENERATED_(154)
  6
Continuous
 62
     7
100
AcDbLine
 10
54.992296776
 20
401.2464317874
 30
0.0
 11
54.992296776
 21
400.2464317874
 31
0.0
  0
LINE
  5
31B
330
75
100
AcDbEntity
  8
$DDT_AUDIT_GENERATED_(154)
  6
Continuous
 62
     7
100
AcDbLine
 10
54.992296776
 20
400.2464317874
 30
0.0
 11
53.992296776
 21
400.2464317874
 31
0.0
  0
LINE
  5
31C
330
75
100
AcDbEntity
  8
$DDT_AUDIT_GENERATED_(154)
  6
Continuous
 62
     7
100
AcDbLine
 10
53.992296776
 20
401.4464317874
 30
0.0
 11
53.992296776
 21
402.4464317874
 31
0.0
  0
LINE
  5
31D
330
75
100
AcDbEntity
  8
$DDT_AUDIT_GENERATED_(154)
  6
Continuous
 62
     7
100
AcDbLine
 10
53.992296776
 20
402.4464317874
 30
0.0
 11
54.992296776
 21
402.4464317874
 31
0.0
  0
LINE
  5
31E
330
75
100
AcDbEntity
  8
$DDT_AUDIT_GENERATED_(154)
  6
Continuous
 62
     7
100
AcDbLine
 10
54.992296776
 20
402.4464317874
 30
0.0
 11
54.992296776
 21
401.4464317874
 31
0.0
  0
LINE
  5
31F
330
75
100
AcDbEntity
  8
$DDT_AUDIT_GENERATED_(154)
  6
Continuous
 62
     7
100
AcDbLine
 10
54.992296776
 20
401.4464317874
 30
0.0
 11
53.992296776
 21
401.4464317874
 31
0.0
  0
LINE
  5
320
330
75
100
AcDbEntity
  8
$DDT_AUDIT_GENERATED_(154)
  6
Continuous
 62
     7
100
AcDbLine
 10
53.992296776
 20
402.6464317874
 30
0.0
 11
53.992296776
 21
403.6464317874
 31
0.0
  0
LINE
  5
321
330
75
100
AcDbEntity
  8
$DDT_AUDIT_GENERATED_(154)
  6
Continuous
 62
     7
100
AcDbLine
 10
53.992296776
 20
403.6464317874
 30
0.0
 11
54.992296776
 21
403.6464317874
 31
0.0
  0
LINE
  5
322
330
75
100
AcDbEntity
  8
$DDT_AUDIT_GENERATED_(154)
  6
Continuous
 62
     7
100
AcDbLine
 10
54.992296776
 20
403.6464317874
 30
0.0
 11
54.992296776
 21
402.6464317874
 31
0.0
  0
LINE
  5
323
330
75
100
AcDbEntity
  8
$DDT_AUDIT_GENERATED_(154)
  6
Continuous
 62
     7
100
AcDbLine
 10
54.992296776
 20
402.6464317874
 30
0.0
 11
53.992296776
 21
402.6464317874
 31
0.0
  0
LINE
  5
324
330
75
100
AcDbEntity
  8
$DDT_AUDIT_GENERATED_(154)
  6
Continuous
 62
     7
100
AcDbLine
 10
53.992296776
 20
403.8464317874
 30
0.0
 11
53.992296776
 21
404.8464317874
 31
0.0
  0
LINE
  5
325
330
75
100
AcDbEntity
  8
$DDT_AUDIT_GENERATED_(154)
  6
Continuous
 62
     7
100
AcDbLine
 10
53.992296776
 20
404.8464317874
 30
0.0
 11
54.992296776
 21
404.8464317874
 31
0.0
  0
LINE
  5
326
330
75
100
AcDbEntity
  8
$DDT_AUDIT_GENERATED_(154)
  6
Continuous
 62
     7
100
AcDbLine
 10
54.992296776
 20
404.8464317874
 30
0.0
 11
54.992296776
 21
403.8464317874
 31
0.0
  0
LINE
  5
327
330
75
100
AcDbEntity
  8
$DDT_AUDIT_GENERATED_(154)
  6
Continuous
 62
     7
100
AcDbLine
 10
54.992296776
 20
403.8464317874
 30
0.0
 11
53.992296776
 21
403.8464317874
 31
0.0
  0
LINE
  5
328
330
75
100
AcDbEntity
  8
$DDT_AUDIT_GENERATED_(154)
  6
Continuous
 62
     7
100
AcDbLine
 10
52.792296776
 20
400.0464317874
 30
0.0
 11
53.792296776
 21
400.0464317874
 31
0.0
  0
LINE
  5
329
330
75
100
AcDbEntity
  8
$DDT_AUDIT_GENERATED_(154)
  6
Continuous
 62
     7
100
AcDbLine
 10
52.792296776
 20
400.2464317874
 30
0.0
 11
52.792296776
 21
401.2464317874
 31
0.0
  0
LINE
  5
32A
330
75
100
AcDbEntity
  8
$DDT_AUDIT_GENERATED_(154)
  6
Continuous
 62
     7
100
AcDbLine
 10
52.792296776
 20
401.2464317874
 30
0.0
 11
53.792296776
 21
401.2464317874
 31
0.0
  0
LINE
  5
32B
330
75
100
AcDbEntity
  8
$DDT_AUDIT_GENERATED_(154)
  6
Continuous
 62
     7
100
AcDbLine
 10
53.792296776
 20
401.2464317874
 30
0.0
 11
53.792296776
 21
400.2464317874
 31
0.0
  0
LINE
  5
32C
330
75
100
AcDbEntity
  8
$DDT_AUDIT_GENERATED_(154)
  6
Continuous
 62
     7
100
AcDbLine
 10
53.792296776
 20
400.2464317874
 30
0.0
 11
52.792296776
 21
400.2464317874
 31
0.0
  0
LINE
  5
32D
330
75
100
AcDbEntity
  8
$DDT_AUDIT_GENERATED_(154)
  6
Continuous
 62
     7
100
AcDbLine
 10
52.792296776
 20
401.4464317874
 30
0.0
 11
52.792296776
 21
402.4464317874
 31
0.0
  0
LINE
  5
32E
330
75
100
AcDbEntity
  8
$DDT_AUDIT_GENERATED_(154)
  6
Continuous
 62
     7
100
AcDbLine
 10
52.792296776
 20
402.4464317874
 30
0.0
 11
53.792296776
 21
402.4464317874
 31
0.0
  0
LINE
  5
32F
330
75
100
AcDbEntity
  8
$DDT_AUDIT_GENERATED_(154)
  6
Continuous
 62
     7
100
AcDbLine
 10
53.792296776
 20
402.4464317874
 30
0.0
 11
53.792296776
 21
401.4464317874
 31
0.0
  0
LINE
  5
330
330
75
100
AcDbEntity
  8
$DDT_AUDIT_GENERATED_(154)
  6
Continuous
 62
     7
100
AcDbLine
 10
53.792296776
 20
401.4464317874
 30
0.0
 11
52.792296776
 21
401.4464317874
 31
0.0
  0
LINE
  5
331
330
75
100
AcDbEntity
  8
$DDT_AUDIT_GENERATED_(154)
  6
Continuous
 62
     7
100
AcDbLine
 10
52.792296776
 20
402.6464317874
 30
0.0
 11
52.792296776
 21
403.6464317874
 31
0.0
  0
LINE
  5
332
330
75
100
AcDbEntity
  8
$DDT_AUDIT_GENERATED_(154)
  6
Continuous
 62
     7
100
AcDbLine
 10
52.792296776
 20
403.6464317874
 30
0.0
 11
53.792296776
 21
403.6464317874
 31
0.0
  0
LINE
  5
333
330
75
100
AcDbEntity
  8
$DDT_AUDIT_GENERATED_(154)
  6
Continuous
 62
     7
100
AcDbLine
 10
53.792296776
 20
403.6464317874
 30
0.0
 11
53.792296776
 21
402.6464317874
 31
0.0
  0
LINE
  5
334
330
75
100
AcDbEntity
  8
$DDT_AUDIT_GENERATED_(154)
  6
Continuous
 62
     7
100
AcDbLine
 10
53.792296776
 20
402.6464317874
 30
0.0
 11
52.792296776
 21
402.6464317874
 31
0.0
  0
LINE
  5
335
330
75
100
AcDbEntity
  8
$DDT_AUDIT_GENERATED_(154)
  6
Continuous
 62
     7
100
AcDbLine
 10
51.592296776
 20
400.0464317874
 30
0.0
 11
52.592296776
 21
400.0464317874
 31
0.0
  0
LINE
  5
336
330
75
100
AcDbEntity
  8
$DDT_AUDIT_GENERATED_(154)
  6
Continuous
 62
     7
100
AcDbLine
 10
51.592296776
 20
400.2464317874
 30
0.0
 11
51.592296776
 21
401.2464317874
 31
0.0
  0
LINE
  5
337
330
75
100
AcDbEntity
  8
$DDT_AUDIT_GENERATED_(154)
  6
Continuous
 62
     7
100
AcDbLine
 10
51.592296776
 20
401.2464317874
 30
0.0
 11
52.592296776
 21
401.2464317874
 31
0.0
  0
LINE
  5
338
330
75
100
AcDbEntity
  8
$DDT_AUDIT_GENERATED_(154)
  6
Continuous
 62
     7
100
AcDbLine
 10
52.592296776
 20
401.2464317874
 30
0.0
 11
52.592296776
 21
400.2464317874
 31
0.0
  0
LINE
  5
339
330
75
100
AcDbEntity
  8
$DDT_AUDIT_GENERATED_(154)
  6
Continuous
 62
     7
100
AcDbLine
 10
52.592296776
 20
400.2464317874
 30
0.0
 11
51.592296776
 21
400.2464317874
 31
0.0
  0
LINE
  5
33A
330
75
100
AcDbEntity
  8
$DDT_AUDIT_GENERATED_(154)
  6
Continuous
 62
     7
100
AcDbLine
 10
51.592296776
 20
401.4464317874
 30
0.0
 11
51.592296776
 21
402.4464317874
 31
0.0
  0
LINE
  5
33B
330
75
100
AcDbEntity
  8
$DDT_AUDIT_GENERATED_(154)
  6
Continuous
 62
     7
100
AcDbLine
 10
51.592296776
 20
402.4464317874
 30
0.0
 11
52.592296776
 21
402.4464317874
 31
0.0
  0
LINE
  5
33C
330
75
100
AcDbEntity
  8
$DDT_AUDIT_GENERATED_(154)
  6
Continuous
 62
     7
100
AcDbLine
 10
52.592296776
 20
402.4464317874
 30
0.0
 11
52.592296776
 21
401.4464317874
 31
0.0
  0
LINE
  5
33D
330
75
100
AcDbEntity
  8
$DDT_AUDIT_GENERATED_(154)
  6
Continuous
 62
     7
100
AcDbLine
 10
52.592296776
 20
401.4464317874
 30
0.0
 11
51.592296776
 21
401.4464317874
 31
0.0
  0
LINE
  5
33E
330
75
100
AcDbEntity
  8
$DDT_AUDIT_GENERATED_(154)
  6
Continuous
 62
     7
100
AcDbLine
 10
51.05746223
 20
400.0464317874
 30
0.0
 11
51.392296776
 21
400.0464317874
 31
0.0
  0
LINE
  5
33F
330
75
100
AcDbEntity
  8
$DDT_AUDIT_GENERATED_(154)
  6
Continuous
 62
     7
100
AcDbLine
 10
51.2193481202
 20
401.2464317874
 30
0.0
 11
51.392296776
 21
401.2464317874
 31
0.0
  0
LINE
  5
340
330
75
100
AcDbEntity
  8
$DDT_AUDIT_GENERATED_(154)
  6
Continuous
 62
     7
100
AcDbLine
 10
51.392296776
 20
401.2464317874
 30
0.0
 11
51.392296776
 21
400.2464317874
 31
0.0
  0
LINE
  5
341
330
75
100
AcDbEntity
  8
$DDT_AUDIT_GENERATED_(154)
  6
Continuous
 62
     7
100
AcDbLine
 10
51.392296776
 20
400.2464317874
 30
0.0
 11
51.0720473881
 21
400.2464317874
 31
0.0
  0
LINE
  5
342
330
75
100
AcDbEntity
  8
$DDT_AUDIT_GENERATED_(154)
  6
Continuous
 62
     7
100
AcDbLine
 10
51.392296776
 20
401.923930473
 30
0.0
 11
51.392296776
 21
401.4464317874
 31
0.0
  0
LINE
  5
343
330
75
100
AcDbEntity
  8
$DDT_AUDIT_GENERATED_(154)
  6
Continuous
 62
     7
100
AcDbLine
 10
51.392296776
 20
401.4464317874
 30
0.0
 11
51.2640653394
 21
401.4464317874
 31
0.0
  0
LINE
  5
344
330
75
100
AcDbEntity
  8
$DDT_AUDIT_GENERATED_(154)
  6
Continuous
 62
     7
100
AcDbLine
 10
52.1332116389
 20
403.6464317874
 30
0.0
 11
52.592296776
 21
403.6464317874
 31
0.0
  0
LINE
  5
345
330
75
100
AcDbEntity
  8
$DDT_AUDIT_GENERATED_(154)
  6
Continuous
 62
     7
100
AcDbLine
 10
52.592296776
 20
403.6464317874
 30
0.0
 11
52.592296776
 21
402.6464317874
 31
0.0
  0
LINE
  5
346
330
75
100
AcDbEntity
  8
$DDT_AUDIT_GENERATED_(154)
  6
Continuous
 62
     7
100
AcDbLine
 10
52.592296776
 20
402.6464317874
 30
0.0
 11
51.6468733083
 21
402.6464317874
 31
0.0
  0
LINE
  5
347
330
75
100
AcDbEntity
  8
$DDT_AUDIT_GENERATED_(154)
  6
Continuous
 62
     7
100
AcDbLine
 10
52.9699158954
 20
404.8464317874
 30
0.0
 11
53.792296776
 21
404.8464317874
 31
0.0
  0
LINE
  5
348
330
75
100
AcDbEntity
  8
$DDT_AUDIT_GENERATED_(154)
  6
Continuous
 62
     7
100
AcDbLine
 10
53.792296776
 20
404.8464317874
 30
0.0
 11
53.792296776
 21
403.8464317874
 31
0.0
  0
LINE
  5
349
330
75
100
AcDbEntity
  8
$DDT_AUDIT_GENERATED_(154)
  6
Continuous
 62
     7
100
AcDbLine
 10
53.792296776
 20
403.8464317874
 30
0.0
 11
52.792296776
 21
403.8464317874
 31
0.0
  0
LINE
  5
34A
330
75
100
AcDbEntity
  8
$DDT_AUDIT_GENERATED_(154)
  6
Continuous
 62
     7
100
AcDbLine
 10
52.792296776
 20
403.8464317874
 30
0.0
 11
52.792296776
 21
404.6270321456
 31
0.0
  0
LINE
  5
34B
330
75
100
AcDbEntity
  8
$DDT_AUDIT_GENERATED_(154)
  6
Continuous
 62
     7
100
AcDbLine
 10
52.592296776
 20
404.3602140841
 30
0.0
 11
52.592296776
 21
403.8464317874
 31
0.0
  0
LINE
  5
34C
330
75
100
AcDbEntity
  8
$DDT_AUDIT_GENERATED_(154)
  6
Continuous
 62
     7
100
AcDbLine
 10
52.592296776
 20
403.8464317874
 30
0.0
 11
52.2515226709
 21
403.8464317874
 31
0.0
  0
LINE
  5
34D
330
75
100
AcDbEntity
  8
$DDT_AUDIT_GENERATED_(154)
  6
Continuous
 62
     7
100
AcDbLine
 10
54.2116964178
 20
406.0464317874
 30
0.0
 11
54.992296776
 21
406.0464317874
 31
0.0
  0
LINE
  5
34E
330
75
100
AcDbEntity
  8
$DDT_AUDIT_GENERATED_(154)
  6
Continuous
 62
     7
100
AcDbLine
 10
54.992296776
 20
406.0464317874
 30
0.0
 11
54.992296776
 21
405.0464317874
 31
0.0
  0
LINE
  5
34F
330
75
100
AcDbEntity
  8
$DDT_AUDIT_GENERATED_(154)
  6
Continuous
 62
     7
100
AcDbLine
 10
54.992296776
 20
405.0464317874
 30
0.0
 11
53.992296776
 21
405.0464317874
 31
0.0
  0
LINE
  5
350
330
75
100
AcDbEntity
  8
$DDT_AUDIT_GENERATED_(154)
  6
Continuous
 62
     7
100
AcDbLine
 10
53.992296776
 20
405.0464317874
 30
0.0
 11
53.992296776
 21
405.868812668
 31
0.0
  0
LINE
  5
351
330
75
100
AcDbEntity
  8
$DDT_AUDIT_GENERATED_(154)
  6
Continuous
 62
     7
100
AcDbLine
 10
53.792296776
 20
405.6956187255
 30
0.0
 11
53.792296776
 21
405.0464317874
 31
0.0
  0
LINE
  5
352
330
75
100
AcDbEntity
  8
$DDT_AUDIT_GENERATED_(154)
  6
Continuous
 62
     7
100
AcDbLine
 10
53.792296776
 20
405.0464317874
 30
0.0
 11
53.1431098379
 21
405.0464317874
 31
0.0
  0
LINE
  5
353
330
75
100
AcDbEntity
  8
$DDT_AUDIT_GENERATED_(154)
  6
Continuous
 62
     7
100
AcDbLine
 10
56.392296776
 20
406.2464317874
 30
0.0
 11
56.392296776
 21
407.2464317874
 31
0.0
  0
LINE
  5
354
330
75
100
AcDbEntity
  8
$DDT_AUDIT_GENERATED_(154)
  6
Continuous
 62
     7
100
AcDbLine
 10
56.392296776
 20
407.2464317874
 30
0.0
 11
57.392296776
 21
407.2464317874
 31
0.0
  0
LINE
  5
355
330
75
100
AcDbEntity
  8
$DDT_AUDIT_GENERATED_(154)
  6
Continuous
 62
     7
100
AcDbLine
 10
57.392296776
 20
407.2464317874
 30
0.0
 11
57.392296776
 21
406.2464317874
 31
0.0
  0
LINE
  5
356
330
75
100
AcDbEntity
  8
$DDT_AUDIT_GENERATED_(154)
  6
Continuous
 62
     7
100
AcDbLine
 10
57.392296776
 20
406.2464317874
 30
0.0
 11
56.392296776
 21
406.2464317874
 31
0.0
  0
LINE
  5
357
330
75
100
AcDbEntity
  8
$DDT_AUDIT_GENERATED_(154)
  6
Continuous
 62
     7
100
AcDbLine
 10
56.192296776
 20
407.191855255
 30
0.0
 11
56.192296776
 21
406.2464317874
 31
0.0
  0
LINE
  5
358
330
75
100
AcDbEntity
  8
$DDT_AUDIT_GENERATED_(154)
  6
Continuous
 62
     7
100
AcDbLine
 10
56.192296776
 20
406.2464317874
 30
0.0
 11
55.192296776
 21
406.2464317874
 31
0.0
  0
LINE
  5
359
330
75
100
AcDbEntity
  8
$DDT_AUDIT_GENERATED_(154)
  6
Continuous
 62
     7
100
AcDbLine
 10
55.192296776
 20
406.2464317874
 30
0.0
 11
55.192296776
 21
406.7055169245
 31
0.0
  0
LINE
  5
35A
330
75
100
AcDbEntity
  8
$DDT_AUDIT_GENERATED_(154)
  6
Continuous
 62
     7
100
AcDbLine
 10
54.992296776
 20
406.5872058925
 30
0.0
 11
54.992296776
 21
406.2464317874
 31
0.0
  0
LINE
  5
35B
330
75
100
AcDbEntity
  8
$DDT_AUDIT_GENERATED_(154)
  6
Continuous
 62
     7
100
AcDbLine
 10
54.992296776
 20
406.2464317874
 30
0.0
 11
54.4785144793
 21
406.2464317874
 31
0.0
  0
LINE
  5
35C
330
75
100
AcDbEntity
  8
$DDT_AUDIT_GENERATED_(154)
  6
Continuous
 62
     7
100
AcDbLine
 10
59.792296776
 20
407.4464317874
 30
0.0
 11
58.792296776
 21
407.4464317874
 31
0.0
  0
LINE
  5
35D
330
75
100
AcDbEntity
  8
$DDT_AUDIT_GENERATED_(154)
  6
Continuous
 62
     7
100
AcDbLine
 10
58.792296776
 20
407.4464317874
 30
0.0
 11
58.792296776
 21
407.7812663334
 31
0.0
  0
LINE
  5
35E
330
75
100
AcDbEntity
  8
$DDT_AUDIT_GENERATED_(154)
  6
Continuous
 62
     7
100
AcDbLine
 10
58.592296776
 20
407.7666811753
 30
0.0
 11
58.592296776
 21
407.4464317874
 31
0.0
  0
LINE
  5
35F
330
75
100
AcDbEntity
  8
$DDT_AUDIT_GENERATED_(154)
  6
Continuous
 62
     7
100
AcDbLine
 10
58.592296776
 20
407.4464317874
 30
0.0
 11
57.592296776
 21
407.4464317874
 31
0.0
  0
LINE
  5
360
330
75
100
AcDbEntity
  8
$DDT_AUDIT_GENERATED_(154)
  6
Continuous
 62
     7
100
AcDbLine
 10
57.592296776
 20
407.4464317874
 30
0.0
 11
57.592296776
 21
407.6193804432
 31
0.0
  0
LINE
  5
361
330
75
100
AcDbEntity
  8
$DDT_AUDIT_GENERATED_(154)
  6
Continuous
 62
     7
100
AcDbLine
 10
57.392296776
 20
407.574663224
 30
0.0
 11
57.392296776
 21
407.4464317874
 31
0.0
  0
LINE
  5
362
330
75
100
AcDbEntity
  8
$DDT_AUDIT_GENERATED_(154)
  6
Continuous
 62
     7
100
AcDbLine
 10
57.392296776
 20
407.4464317874
 30
0.0
 11
56.9147980904
 21
407.4464317874
 31
0.0
  0
LINE
  5
363
330
75
100
AcDbEntity
  8
$DDT_AUDIT_GENERATED_(154)
  6
Continuous
 62
     7
100
AcDbLine
 10
59.992296776
 20
400.0464317874
 30
0.0
 11
60.992296776
 21
400.0464317874
 31
0.0
  0
LINE
  5
364
330
75
100
AcDbEntity
  8
$DDT_AUDIT_GENERATED_(154)
  6
Continuous
 62
     7
100
AcDbLine
 10
61.192296776
 20
400.0464317874
 30
0.0
 11
62.192296776
 21
400.0464317874
 31
0.0
  0
LINE
  5
365
330
75
100
AcDbEntity
  8
$DDT_AUDIT_GENERATED_(154)
  6
Continuous
 62
     7
100
AcDbLine
 10
62.392296776
 20
400.0464317874
 30
0.0
 11
63.392296776
 21
400.0464317874
 31
0.0
  0
LINE
  5
366
330
75
100
AcDbEntity
  8
$DDT_AUDIT_GENERATED_(154)
  6
Continuous
 62
     7
100
AcDbLine
 10
63.592296776
 20
400.0464317874
 30
0.0
 11
64.592296776
 21
400.0464317874
 31
0.0
  0
LINE
  5
367
330
75
100
AcDbEntity
  8
$DDT_AUDIT_GENERATED_(154)
  6
Continuous
 62
     7
100
AcDbLine
 10
64.792296776
 20
400.0464317874
 30
0.0
 11
65.792296776
 21
400.0464317874
 31
0.0
  0
LINE
  5
368
330
75
100
AcDbEntity
  8
$DDT_AUDIT_GENERATED_(154)
  6
Continuous
 62
     7
100
AcDbLine
 10
65.992296776
 20
400.0464317874
 30
0.0
 11
66.992296776
 21
400.0464317874
 31
0.0
  0
LINE
  5
369
330
75
100
AcDbEntity
  8
$DDT_AUDIT_GENERATED_(154)
  6
Continuous
 62
     7
100
AcDbLine
 10
59.792296776
 20
401.2464317874
 30
0.0
 11
59.792296776
 21
400.2464317874
 31
0.0
  0
LINE
  5
36A
330
75
100
AcDbEntity
  8
$DDT_AUDIT_GENERATED_(154)
  6
Continuous
 62
     7
100
AcDbLine
 10
59.992296776
 20
401.2464317874
 30
0.0
 11
60.992296776
 21
401.2464317874
 31
0.0
  0
LINE
  5
36B
330
75
100
AcDbEntity
  8
$DDT_AUDIT_GENERATED_(154)
  6
Continuous
 62
     7
100
AcDbLine
 10
60.992296776
 20
401.2464317874
 30
0.0
 11
60.992296776
 21
400.2464317874
 31
0.0
  0
LINE
  5
36C
330
75
100
AcDbEntity
  8
$DDT_AUDIT_GENERATED_(154)
  6
Continuous
 62
     7
100
AcDbLine
 10
60.992296776
 20
400.2464317874
 30
0.0
 11
59.992296776
 21
400.2464317874
 31
0.0
  0
LINE
  5
36D
330
75
100
AcDbEntity
  8
$DDT_AUDIT_GENERATED_(154)
  6
Continuous
 62
     7
100
AcDbLine
 10
59.992296776
 20
400.2464317874
 30
0.0
 11
59.992296776
 21
401.2464317874
 31
0.0
  0
LINE
  5
36E
330
75
100
AcDbEntity
  8
$DDT_AUDIT_GENERATED_(154)
  6
Continuous
 62
     7
100
AcDbLine
 10
61.192296776
 20
401.2464317874
 30
0.0
 11
62.192296776
 21
401.2464317874
 31
0.0
  0
LINE
  5
36F
330
75
100
AcDbEntity
  8
$DDT_AUDIT_GENERATED_(154)
  6
Continuous
 62
     7
100
AcDbLine
 10
62.192296776
 20
401.2464317874
 30
0.0
 11
62.192296776
 21
400.2464317874
 31
0.0
  0
LINE
  5
370
330
75
100
AcDbEntity
  8
$DDT_AUDIT_GENERATED_(154)
  6
Continuous
 62
     7
100
AcDbLine
 10
62.192296776
 20
400.2464317874
 30
0.0
 11
61.192296776
 21
400.2464317874
 31
0.0
  0
LINE
  5
371
330
75
100
AcDbEntity
  8
$DDT_AUDIT_GENERATED_(154)
  6
Continuous
 62
     7
100
AcDbLine
 10
61.192296776
 20
400.2464317874
 30
0.0
 11
61.192296776
 21
401.2464317874
 31
0.0
  0
LINE
  5
372
330
75
100
AcDbEntity
  8
$DDT_AUDIT_GENERATED_(154)
  6
Continuous
 62
     7
100
AcDbLine
 10
62.392296776
 20
401.2464317874
 30
0.0
 11
63.392296776
 21
401.2464317874
 31
0.0
  0
LINE
  5
373
330
75
100
AcDbEntity
  8
$DDT_AUDIT_GENERATED_(154)
  6
Continuous
 62
     7
100
AcDbLine
 10
63.392296776
 20
401.2464317874
 30
0.0
 11
63.392296776
 21
400.2464317874
 31
0.0
  0
LINE
  5
374
330
75
100
AcDbEntity
  8
$DDT_AUDIT_GENERATED_(154)
  6
Continuous
 62
     7
100
AcDbLine
 10
63.392296776
 20
400.2464317874
 30
0.0
 11
62.392296776
 21
400.2464317874
 31
0.0
  0
LINE
  5
375
330
75
100
AcDbEntity
  8
$DDT_AUDIT_GENERATED_(154)
  6
Continuous
 62
     7
100
AcDbLine
 10
62.392296776
 20
400.2464317874
 30
0.0
 11
62.392296776
 21
401.2464317874
 31
0.0
  0
LINE
  5
376
330
75
100
AcDbEntity
  8
$DDT_AUDIT_GENERATED_(154)
  6
Continuous
 62
     7
100
AcDbLine
 10
63.592296776
 20
401.2464317874
 30
0.0
 11
64.592296776
 21
401.2464317874
 31
0.0
  0
LINE
  5
377
330
75
100
AcDbEntity
  8
$DDT_AUDIT_GENERATED_(154)
  6
Continuous
 62
     7
100
AcDbLine
 10
64.592296776
 20
401.2464317874
 30
0.0
 11
64.592296776
 21
400.2464317874
 31
0.0
  0
LINE
  5
378
330
75
100
AcDbEntity
  8
$DDT_AUDIT_GENERATED_(154)
  6
Continuous
 62
     7
100
AcDbLine
 10
64.592296776
 20
400.2464317874
 30
0.0
 11
63.592296776
 21
400.2464317874
 31
0.0
  0
LINE
  5
379
330
75
100
AcDbEntity
  8
$DDT_AUDIT_GENERATED_(154)
  6
Continuous
 62
     7
100
AcDbLine
 10
63.592296776
 20
400.2464317874
 30
0.0
 11
63.592296776
 21
401.2464317874
 31
0.0
  0
LINE
  5
37A
330
75
100
AcDbEntity
  8
$DDT_AUDIT_GENERATED_(154)
  6
Continuous
 62
     7
100
AcDbLine
 10
64.792296776
 20
401.2464317874
 30
0.0
 11
65.792296776
 21
401.2464317874
 31
0.0
  0
LINE
  5
37B
330
75
100
AcDbEntity
  8
$DDT_AUDIT_GENERATED_(154)
  6
Continuous
 62
     7
100
AcDbLine
 10
65.792296776
 20
401.2464317874
 30
0.0
 11
65.792296776
 21
400.2464317874
 31
0.0
  0
LINE
  5
37C
330
75
100
AcDbEntity
  8
$DDT_AUDIT_GENERATED_(154)
  6
Continuous
 62
     7
100
AcDbLine
 10
65.792296776
 20
400.2464317874
 30
0.0
 11
64.792296776
 21
400.2464317874
 31
0.0
  0
LINE
  5
37D
330
75
100
AcDbEntity
  8
$DDT_AUDIT_GENERATED_(154)
  6
Continuous
 62
     7
100
AcDbLine
 10
64.792296776
 20
400.2464317874
 30
0.0
 11
64.792296776
 21
401.2464317874
 31
0.0
  0
LINE
  5
37E
330
75
100
AcDbEntity
  8
$DDT_AUDIT_GENERATED_(154)
  6
Continuous
 62
     7
100
AcDbLine
 10
65.992296776
 20
401.2464317874
 30
0.0
 11
66.992296776
 21
401.2464317874
 31
0.0
  0
LINE
  5
37F
330
75
100
AcDbEntity
  8
$DDT_AUDIT_GENERATED_(154)
  6
Continuous
 62
     7
100
AcDbLine
 10
66.992296776
 20
401.2464317874
 30
0.0
 11
66.992296776
 21
400.2464317874
 31
0.0
  0
LINE
  5
380
330
75
100
AcDbEntity
  8
$DDT_AUDIT_GENERATED_(154)
  6
Continuous
 62
     7
100
AcDbLine
 10
66.992296776
 20
400.2464317874
 30
0.0
 11
65.992296776
 21
400.2464317874
 31
0.0
  0
LINE
  5
381
330
75
100
AcDbEntity
  8
$DDT_AUDIT_GENERATED_(154)
  6
Continuous
 62
     7
100
AcDbLine
 10
65.992296776
 20
400.2464317874
 30
0.0
 11
65.992296776
 21
401.2464317874
 31
0.0
  0
LINE
  5
382
330
75
100
AcDbEntity
  8
$DDT_AUDIT_GENERATED_(154)
  6
Continuous
 62
     7
100
AcDbLine
 10
59.792296776
 20
402.4464317874
 30
0.0
 11
59.792296776
 21
401.4464317874
 31
0.0
  0
LINE
  5
383
330
75
100
AcDbEntity
  8
$DDT_AUDIT_GENERATED_(154)
  6
Continuous
 62
     7
100
AcDbLine
 10
59.992296776
 20
402.4464317874
 30
0.0
 11
60.992296776
 21
402.4464317874
 31
0.0
  0
LINE
  5
384
330
75
100
AcDbEntity
  8
$DDT_AUDIT_GENERATED_(154)
  6
Continuous
 62
     7
100
AcDbLine
 10
60.992296776
 20
402.4464317874
 30
0.0
 11
60.992296776
 21
401.4464317874
 31
0.0
  0
LINE
  5
385
330
75
100
AcDbEntity
  8
$DDT_AUDIT_GENERATED_(154)
  6
Continuous
 62
     7
100
AcDbLine
 10
60.992296776
 20
401.4464317874
 30
0.0
 11
59.992296776
 21
401.4464317874
 31
0.0
  0
LINE
  5
386
330
75
100
AcDbEntity
  8
$DDT_AUDIT_GENERATED_(154)
  6
Continuous
 62
     7
100
AcDbLine
 10
59.992296776
 20
401.4464317874
 30
0.0
 11
59.992296776
 21
402.4464317874
 31
0.0
  0
LINE
  5
387
330
75
100
AcDbEntity
  8
$DDT_AUDIT_GENERATED_(154)
  6
Continuous
 62
     7
100
AcDbLine
 10
61.192296776
 20
402.4464317874
 30
0.0
 11
62.192296776
 21
402.4464317874
 31
0.0
  0
LINE
  5
388
330
75
100
AcDbEntity
  8
$DDT_AUDIT_GENERATED_(154)
  6
Continuous
 62
     7
100
AcDbLine
 10
62.192296776
 20
402.4464317874
 30
0.0
 11
62.192296776
 21
401.4464317874
 31
0.0
  0
LINE
  5
389
330
75
100
AcDbEntity
  8
$DDT_AUDIT_GENERATED_(154)
  6
Continuous
 62
     7
100
AcDbLine
 10
62.192296776
 20
401.4464317874
 30
0.0
 11
61.192296776
 21
401.4464317874
 31
0.0
  0
LINE
  5
38A
330
75
100
AcDbEntity
  8
$DDT_AUDIT_GENERATED_(154)
  6
Continuous
 62
     7
100
AcDbLine
 10
61.192296776
 20
401.4464317874
 30
0.0
 11
61.192296776
 21
402.4464317874
 31
0.0
  0
LINE
  5
38B
330
75
100
AcDbEntity
  8
$DDT_AUDIT_GENERATED_(154)
  6
Continuous
 62
     7
100
AcDbLine
 10
62.392296776
 20
402.4464317874
 30
0.0
 11
63.392296776
 21
402.4464317874
 31
0.0
  0
LINE
  5
38C
330
75
100
AcDbEntity
  8
$DDT_AUDIT_GENERATED_(154)
  6
Continuous
 62
     7
100
AcDbLine
 10
63.392296776
 20
402.4464317874
 30
0.0
 11
63.392296776
 21
401.4464317874
 31
0.0
  0
LINE
  5
38D
330
75
100
AcDbEntity
  8
$DDT_AUDIT_GENERATED_(154)
  6
Continuous
 62
     7
100
AcDbLine
 10
63.392296776
 20
401.4464317874
 30
0.0
 11
62.392296776
 21
401.4464317874
 31
0.0
  0
LINE
  5
38E
330
75
100
AcDbEntity
  8
$DDT_AUDIT_GENERATED_(154)
  6
Continuous
 62
     7
100
AcDbLine
 10
62.392296776
 20
401.4464317874
 30
0.0
 11
62.392296776
 21
402.4464317874
 31
0.0
  0
LINE
  5
38F
330
75
100
AcDbEntity
  8
$DDT_AUDIT_GENERATED_(154)
  6
Continuous
 62
     7
100
AcDbLine
 10
63.592296776
 20
402.4464317874
 30
0.0
 11
64.592296776
 21
402.4464317874
 31
0.0
  0
LINE
  5
390
330
75
100
AcDbEntity
  8
$DDT_AUDIT_GENERATED_(154)
  6
Continuous
 62
     7
100
AcDbLine
 10
64.592296776
 20
402.4464317874
 30
0.0
 11
64.592296776
 21
401.4464317874
 31
0.0
  0
LINE
  5
391
330
75
100
AcDbEntity
  8
$DDT_AUDIT_GENERATED_(154)
  6
Continuous
 62
     7
100
AcDbLine
 10
64.592296776
 20
401.4464317874
 30
0.0
 11
63.592296776
 21
401.4464317874
 31
0.0
  0
LINE
  5
392
330
75
100
AcDbEntity
  8
$DDT_AUDIT_GENERATED_(154)
  6
Continuous
 62
     7
100
AcDbLine
 10
63.592296776
 20
401.4464317874
 30
0.0
 11
63.592296776
 21
402.4464317874
 31
0.0
  0
LINE
  5
393
330
75
100
AcDbEntity
  8
$DDT_AUDIT_GENERATED_(154)
  6
Continuous
 62
     7
100
AcDbLine
 10
64.792296776
 20
402.4464317874
 30
0.0
 11
65.792296776
 21
402.4464317874
 31
0.0
  0
LINE
  5
394
330
75
100
AcDbEntity
  8
$DDT_AUDIT_GENERATED_(154)
  6
Continuous
 62
     7
100
AcDbLine
 10
65.792296776
 20
402.4464317874
 30
0.0
 11
65.792296776
 21
401.4464317874
 31
0.0
  0
LINE
  5
395
330
75
100
AcDbEntity
  8
$DDT_AUDIT_GENERATED_(154)
  6
Continuous
 62
     7
100
AcDbLine
 10
65.792296776
 20
401.4464317874
 30
0.0
 11
64.792296776
 21
401.4464317874
 31
0.0
  0
LINE
  5
396
330
75
100
AcDbEntity
  8
$DDT_AUDIT_GENERATED_(154)
  6
Continuous
 62
     7
100
AcDbLine
 10
64.792296776
 20
401.4464317874
 30
0.0
 11
64.792296776
 21
402.4464317874
 31
0.0
  0
LINE
  5
397
330
75
100
AcDbEntity
  8
$DDT_AUDIT_GENERATED_(154)
  6
Continuous
 62
     7
100
AcDbLine
 10
59.792296776
 20
403.6464317874
 30
0.0
 11
59.792296776
 21
402.6464317874
 31
0.0
  0
LINE
  5
398
330
75
100
AcDbEntity
  8
$DDT_AUDIT_GENERATED_(154)
  6
Continuous
 62
     7
100
AcDbLine
 10
59.992296776
 20
403.6464317874
 30
0.0
 11
60.992296776
 21
403.6464317874
 31
0.0
  0
LINE
  5
399
330
75
100
AcDbEntity
  8
$DDT_AUDIT_GENERATED_(154)
  6
Continuous
 62
     7
100
AcDbLine
 10
60.992296776
 20
403.6464317874
 30
0.0
 11
60.992296776
 21
402.6464317874
 31
0.0
  0
LINE
  5
39A
330
75
100
AcDbEntity
  8
$DDT_AUDIT_GENERATED_(154)
  6
Continuous
 62
     7
100
AcDbLine
 10
60.992296776
 20
402.6464317874
 30
0.0
 11
59.992296776
 21
402.6464317874
 31
0.0
  0
LINE
  5
39B
330
75
100
AcDbEntity
  8
$DDT_AUDIT_GENERATED_(154)
  6
Continuous
 62
     7
100
AcDbLine
 10
59.992296776
 20
402.6464317874
 30
0.0
 11
59.992296776
 21
403.6464317874
 31
0.0
  0
LINE
  5
39C
330
75
100
AcDbEntity
  8
$DDT_AUDIT_GENERATED_(154)
  6
Continuous
 62
     7
100
AcDbLine
 10
61.192296776
 20
403.6464317874
 30
0.0
 11
62.192296776
 21
403.6464317874
 31
0.0
  0
LINE
  5
39D
330
75
100
AcDbEntity
  8
$DDT_AUDIT_GENERATED_(154)
  6
Continuous
 62
     7
100
AcDbLine
 10
62.192296776
 20
403.6464317874
 30
0.0
 11
62.192296776
 21
402.6464317874
 31
0.0
  0
LINE
  5
39E
330
75
100
AcDbEntity
  8
$DDT_AUDIT_GENERATED_(154)
  6
Continuous
 62
     7
100
AcDbLine
 10
62.192296776
 20
402.6464317874
 30
0.0
 11
61.192296776
 21
402.6464317874
 31
0.0
  0
LINE
  5
39F
330
75
100
AcDbEntity
  8
$DDT_AUDIT_GENERATED_(154)
  6
Continuous
 62
     7
100
AcDbLine
 10
61.192296776
 20
402.6464317874
 30
0.0
 11
61.192296776
 21
403.6464317874
 31
0.0
  0
LINE
  5
3A0
330
75
100
AcDbEntity
  8
$DDT_AUDIT_GENERATED_(154)
  6
Continuous
 62
     7
100
AcDbLine
 10
62.392296776
 20
403.6464317874
 30
0.0
 11
63.392296776
 21
403.6464317874
 31
0.0
  0
LINE
  5
3A1
330
75
100
AcDbEntity
  8
$DDT_AUDIT_GENERATED_(154)
  6
Continuous
 62
     7
100
AcDbLine
 10
63.392296776
 20
403.6464317874
 30
0.0
 11
63.392296776
 21
402.6464317874
 31
0.0
  0
LINE
  5
3A2
330
75
100
AcDbEntity
  8
$DDT_AUDIT_GENERATED_(154)
  6
Continuous
 62
     7
100
AcDbLine
 10
63.392296776
 20
402.6464317874
 30
0.0
 11
62.392296776
 21
402.6464317874
 31
0.0
  0
LINE
  5
3A3
330
75
100
AcDbEntity
  8
$DDT_AUDIT_GENERATED_(154)
  6
Continuous
 62
     7
100
AcDbLine
 10
62.392296776
 20
402.6464317874
 30
0.0
 11
62.392296776
 21
403.6464317874
 31
0.0
  0
LINE
  5
3A4
330
75
100
AcDbEntity
  8
$DDT_AUDIT_GENERATED_(154)
  6
Continuous
 62
     7
100
AcDbLine
 10
63.592296776
 20
403.6464317874
 30
0.0
 11
64.592296776
 21
403.6464317874
 31
0.0
  0
LINE
  5
3A5
330
75
100
AcDbEntity
  8
$DDT_AUDIT_GENERATED_(154)
  6
Continuous
 62
     7
100
AcDbLine
 10
64.592296776
 20
403.6464317874
 30
0.0
 11
64.592296776
 21
402.6464317874
 31
0.0
  0
LINE
  5
3A6
330
75
100
AcDbEntity
  8
$DDT_AUDIT_GENERATED_(154)
  6
Continuous
 62
     7
100
AcDbLine
 10
64.592296776
 20
402.6464317874
 30
0.0
 11
63.592296776
 21
402.6464317874
 31
0.0
  0
LINE
  5
3A7
330
75
100
AcDbEntity
  8
$DDT_AUDIT_GENERATED_(154)
  6
Continuous
 62
     7
100
AcDbLine
 10
63.592296776
 20
402.6464317874
 30
0.0
 11
63.592296776
 21
403.6464317874
 31
0.0
  0
LINE
  5
3A8
330
75
100
AcDbEntity
  8
$DDT_AUDIT_GENERATED_(154)
  6
Continuous
 62
     7
100
AcDbLine
 10
65.792296776
 20
403.6464317874
 30
0.0
 11
65.792296776
 21
402.6464317874
 31
0.0
  0
LINE
  5
3A9
330
75
100
AcDbEntity
  8
$DDT_AUDIT_GENERATED_(154)
  6
Continuous
 62
     7
100
AcDbLine
 10
64.792296776
 20
403.6464317874
 30
0.0
 11
65.792296776
 21
403.6464317874
 31
0.0
  0
LINE
  5
3AA
330
75
100
AcDbEntity
  8
$DDT_AUDIT_GENERATED_(154)
  6
Continuous
 62
     7
100
AcDbLine
 10
65.792296776
 20
402.6464317874
 30
0.0
 11
64.792296776
 21
402.6464317874
 31
0.0
  0
LINE
  5
3AB
330
75
100
AcDbEntity
  8
$DDT_AUDIT_GENERATED_(154)
  6
Continuous
 62
     7
100
AcDbLine
 10
64.792296776
 20
402.6464317874
 30
0.0
 11
64.792296776
 21
403.6464317874
 31
0.0
  0
LINE
  5
3AC
330
75
100
AcDbEntity
  8
$DDT_AUDIT_GENERATED_(154)
  6
Continuous
 62
     7
100
AcDbLine
 10
59.792296776
 20
404.8464317874
 30
0.0
 11
59.792296776
 21
403.8464317874
 31
0.0
  0
LINE
  5
3AD
330
75
100
AcDbEntity
  8
$DDT_AUDIT_GENERATED_(154)
  6
Continuous
 62
     7
100
AcDbLine
 10
59.992296776
 20
404.8464317874
 30
0.0
 11
60.992296776
 21
404.8464317874
 31
0.0
  0
LINE
  5
3AE
330
75
100
AcDbEntity
  8
$DDT_AUDIT_GENERATED_(154)
  6
Continuous
 62
     7
100
AcDbLine
 10
60.992296776
 20
404.8464317874
 30
0.0
 11
60.992296776
 21
403.8464317874
 31
0.0
  0
LINE
  5
3AF
330
75
100
AcDbEntity
  8
$DDT_AUDIT_GENERATED_(154)
  6
Continuous
 62
     7
100
AcDbLine
 10
60.992296776
 20
403.8464317874
 30
0.0
 11
59.992296776
 21
403.8464317874
 31
0.0
  0
LINE
  5
3B0
330
75
100
AcDbEntity
  8
$DDT_AUDIT_GENERATED_(154)
  6
Continuous
 62
     7
100
AcDbLine
 10
59.992296776
 20
403.8464317874
 30
0.0
 11
59.992296776
 21
404.8464317874
 31
0.0
  0
LINE
  5
3B1
330
75
100
AcDbEntity
  8
$DDT_AUDIT_GENERATED_(154)
  6
Continuous
 62
     7
100
AcDbLine
 10
61.192296776
 20
404.8464317874
 30
0.0
 11
62.192296776
 21
404.8464317874
 31
0.0
  0
LINE
  5
3B2
330
75
100
AcDbEntity
  8
$DDT_AUDIT_GENERATED_(154)
  6
Continuous
 62
     7
100
AcDbLine
 10
62.192296776
 20
404.8464317874
 30
0.0
 11
62.192296776
 21
403.8464317874
 31
0.0
  0
LINE
  5
3B3
330
75
100
AcDbEntity
  8
$DDT_AUDIT_GENERATED_(154)
  6
Continuous
 62
     7
100
AcDbLine
 10
62.192296776
 20
403.8464317874
 30
0.0
 11
61.192296776
 21
403.8464317874
 31
0.0
  0
LINE
  5
3B4
330
75
100
AcDbEntity
  8
$DDT_AUDIT_GENERATED_(154)
  6
Continuous
 62
     7
100
AcDbLine
 10
61.192296776
 20
403.8464317874
 30
0.0
 11
61.192296776
 21
404.8464317874
 31
0.0
  0
LINE
  5
3B5
330
75
100
AcDbEntity
  8
$DDT_AUDIT_GENERATED_(154)
  6
Continuous
 62
     7
100
AcDbLine
 10
62.392296776
 20
404.8464317874
 30
0.0
 11
63.392296776
 21
404.8464317874
 31
0.0
  0
LINE
  5
3B6
330
75
100
AcDbEntity
  8
$DDT_AUDIT_GENERATED_(154)
  6
Continuous
 62
     7
100
AcDbLine
 10
63.392296776
 20
404.8464317874
 30
0.0
 11
63.392296776
 21
403.8464317874
 31
0.0
  0
LINE
  5
3B7
330
75
100
AcDbEntity
  8
$DDT_AUDIT_GENERATED_(154)
  6
Continuous
 62
     7
100
AcDbLine
 10
63.392296776
 20
403.8464317874
 30
0.0
 11
62.392296776
 21
403.8464317874
 31
0.0
  0
LINE
  5
3B8
330
75
100
AcDbEntity
  8
$DDT_AUDIT_GENERATED_(154)
  6
Continuous
 62
     7
100
AcDbLine
 10
62.392296776
 20
403.8464317874
 30
0.0
 11
62.392296776
 21
404.8464317874
 31
0.0
  0
LINE
  5
3B9
330
75
100
AcDbEntity
  8
$DDT_AUDIT_GENERATED_(154)
  6
Continuous
 62
     7
100
AcDbLine
 10
63.592296776
 20
404.8464317874
 30
0.0
 11
64.592296776
 21
404.8464317874
 31
0.0
  0
LINE
  5
3BA
330
75
100
AcDbEntity
  8
$DDT_AUDIT_GENERATED_(154)
  6
Continuous
 62
     7
100
AcDbLine
 10
64.592296776
 20
404.8464317874
 30
0.0
 11
64.592296776
 21
403.8464317874
 31
0.0
  0
LINE
  5
3BB
330
75
100
AcDbEntity
  8
$DDT_AUDIT_GENERATED_(154)
  6
Continuous
 62
     7
100
AcDbLine
 10
64.592296776
 20
403.8464317874
 30
0.0
 11
63.592296776
 21
403.8464317874
 31
0.0
  0
LINE
  5
3BC
330
75
100
AcDbEntity
  8
$DDT_AUDIT_GENERATED_(154)
  6
Continuous
 62
     7
100
AcDbLine
 10
63.592296776
 20
403.8464317874
 30
0.0
 11
63.592296776
 21
404.8464317874
 31
0.0
  0
LINE
  5
3BD
330
75
100
AcDbEntity
  8
$DDT_AUDIT_GENERATED_(154)
  6
Continuous
 62
     7
100
AcDbLine
 10
59.792296776
 20
406.0464317874
 30
0.0
 11
59.792296776
 21
405.0464317874
 31
0.0
  0
LINE
  5
3BE
330
75
100
AcDbEntity
  8
$DDT_AUDIT_GENERATED_(154)
  6
Continuous
 62
     7
100
AcDbLine
 10
59.992296776
 20
406.0464317874
 30
0.0
 11
60.992296776
 21
406.0464317874
 31
0.0
  0
LINE
  5
3BF
330
75
100
AcDbEntity
  8
$DDT_AUDIT_GENERATED_(154)
  6
Continuous
 62
     7
100
AcDbLine
 10
60.992296776
 20
406.0464317874
 30
0.0
 11
60.992296776
 21
405.0464317874
 31
0.0
  0
LINE
  5
3C0
330
75
100
AcDbEntity
  8
$DDT_AUDIT_GENERATED_(154)
  6
Continuous
 62
     7
100
AcDbLine
 10
60.992296776
 20
405.0464317874
 30
0.0
 11
59.992296776
 21
405.0464317874
 31
0.0
  0
LINE
  5
3C1
330
75
100
AcDbEntity
  8
$DDT_AUDIT_GENERATED_(154)
  6
Continuous
 62
     7
100
AcDbLine
 10
59.992296776
 20
405.0464317874
 30
0.0
 11
59.992296776
 21
406.0464317874
 31
0.0
  0
LINE
  5
3C2
330
75
100
AcDbEntity
  8
$DDT_AUDIT_GENERATED_(154)
  6
Continuous
 62
     7
100
AcDbLine
 10
61.192296776
 20
406.0464317874
 30
0.0
 11
62.192296776
 21
406.0464317874
 31
0.0
  0
LINE
  5
3C3
330
75
100
AcDbEntity
  8
$DDT_AUDIT_GENERATED_(154)
  6
Continuous
 62
     7
100
AcDbLine
 10
62.192296776
 20
406.0464317874
 30
0.0
 11
62.192296776
 21
405.0464317874
 31
0.0
  0
LINE
  5
3C4
330
75
100
AcDbEntity
  8
$DDT_AUDIT_GENERATED_(154)
  6
Continuous
 62
     7
100
AcDbLine
 10
62.192296776
 20
405.0464317874
 30
0.0
 11
61.192296776
 21
405.0464317874
 31
0.0
  0
LINE
  5
3C5
330
75
100
AcDbEntity
  8
$DDT_AUDIT_GENERATED_(154)
  6
Continuous
 62
     7
100
AcDbLine
 10
61.192296776
 20
405.0464317874
 30
0.0
 11
61.192296776
 21
406.0464317874
 31
0.0
  0
LINE
  5
3C6
330
75
100
AcDbEntity
  8
$DDT_AUDIT_GENERATED_(154)
  6
Continuous
 62
     7
100
AcDbLine
 10
62.392296776
 20
406.0464317874
 30
0.0
 11
63.392296776
 21
406.0464317874
 31
0.0
  0
LINE
  5
3C7
330
75
100
AcDbEntity
  8
$DDT_AUDIT_GENERATED_(154)
  6
Continuous
 62
     7
100
AcDbLine
 10
63.392296776
 20
406.0464317874
 30
0.0
 11
63.392296776
 21
405.0464317874
 31
0.0
  0
LINE
  5
3C8
330
75
100
AcDbEntity
  8
$DDT_AUDIT_GENERATED_(154)
  6
Continuous
 62
     7
100
AcDbLine
 10
63.392296776
 20
405.0464317874
 30
0.0
 11
62.392296776
 21
405.0464317874
 31
0.0
  0
LINE
  5
3C9
330
75
100
AcDbEntity
  8
$DDT_AUDIT_GENERATED_(154)
  6
Continuous
 62
     7
100
AcDbLine
 10
62.392296776
 20
405.0464317874
 30
0.0
 11
62.392296776
 21
406.0464317874
 31
0.0
  0
LINE
  5
3CA
330
75
100
AcDbEntity
  8
$DDT_AUDIT_GENERATED_(154)
  6
Continuous
 62
     7
100
AcDbLine
 10
59.792296776
 20
407.2464317874
 30
0.0
 11
59.792296776
 21
406.2464317874
 31
0.0
  0
LINE
  5
3CB
330
75
100
AcDbEntity
  8
$DDT_AUDIT_GENERATED_(154)
  6
Continuous
 62
     7
100
AcDbLine
 10
59.992296776
 20
407.2464317874
 30
0.0
 11
60.992296776
 21
407.2464317874
 31
0.0
  0
LINE
  5
3CC
330
75
100
AcDbEntity
  8
$DDT_AUDIT_GENERATED_(154)
  6
Continuous
 62
     7
100
AcDbLine
 10
60.992296776
 20
407.2464317874
 30
0.0
 11
60.992296776
 21
406.2464317874
 31
0.0
  0
LINE
  5
3CD
330
75
100
AcDbEntity
  8
$DDT_AUDIT_GENERATED_(154)
  6
Continuous
 62
     7
100
AcDbLine
 10
60.992296776
 20
406.2464317874
 30
0.0
 11
59.992296776
 21
406.2464317874
 31
0.0
  0
LINE
  5
3CE
330
75
100
AcDbEntity
  8
$DDT_AUDIT_GENERATED_(154)
  6
Continuous
 62
     7
100
AcDbLine
 10
59.992296776
 20
406.2464317874
 30
0.0
 11
59.992296776
 21
407.2464317874
 31
0.0
  0
LINE
  5
3CF
330
75
100
AcDbEntity
  8
$DDT_AUDIT_GENERATED_(154)
  6
Continuous
 62
     7
100
AcDbLine
 10
61.192296776
 20
407.2464317874
 30
0.0
 11
62.192296776
 21
407.2464317874
 31
0.0
  0
LINE
  5
3D0
330
75
100
AcDbEntity
  8
$DDT_AUDIT_GENERATED_(154)
  6
Continuous
 62
     7
100
AcDbLine
 10
62.192296776
 20
407.2464317874
 30
0.0
 11
62.192296776
 21
406.2464317874
 31
0.0
  0
LINE
  5
3D1
330
75
100
AcDbEntity
  8
$DDT_AUDIT_GENERATED_(154)
  6
Continuous
 62
     7
100
AcDbLine
 10
62.192296776
 20
406.2464317874
 30
0.0
 11
61.192296776
 21
406.2464317874
 31
0.0
  0
LINE
  5
3D2
330
75
100
AcDbEntity
  8
$DDT_AUDIT_GENERATED_(154)
  6
Continuous
 62
     7
100
AcDbLine
 10
61.192296776
 20
406.2464317874
 30
0.0
 11
61.192296776
 21
407.2464317874
 31
0.0
  0
LINE
  5
3D3
330
75
100
AcDbEntity
  8
$DDT_AUDIT_GENERATED_(154)
  6
Continuous
 62
     7
100
AcDbLine
 10
59.792296776
 20
407.7812663334
 30
0.0
 11
59.792296776
 21
407.4464317874
 31
0.0
  0
LINE
  5
3D4
330
75
100
AcDbEntity
  8
$DDT_AUDIT_GENERATED_(154)
  6
Continuous
 62
     7
100
AcDbLine
 10
60.992296776
 20
407.6193804432
 30
0.0
 11
60.992296776
 21
407.4464317874
 31
0.0
  0
LINE
  5
3D5
330
75
100
AcDbEntity
  8
$DDT_AUDIT_GENERATED_(154)
  6
Continuous
 62
     7
100
AcDbLine
 10
60.992296776
 20
407.4464317874
 30
0.0
 11
59.992296776
 21
407.4464317874
 31
0.0
  0
LINE
  5
3D6
330
75
100
AcDbEntity
  8
$DDT_AUDIT_GENERATED_(154)
  6
Continuous
 62
     7
100
AcDbLine
 10
59.992296776
 20
407.4464317874
 30
0.0
 11
59.992296776
 21
407.7666811753
 31
0.0
  0
LINE
  5
3D7
330
75
100
AcDbEntity
  8
$DDT_AUDIT_GENERATED_(154)
  6
Continuous
 62
     7
100
AcDbLine
 10
61.6697954616
 20
407.4464317874
 30
0.0
 11
61.192296776
 21
407.4464317874
 31
0.0
  0
LINE
  5
3D8
330
75
100
AcDbEntity
  8
$DDT_AUDIT_GENERATED_(154)
  6
Continuous
 62
     7
100
AcDbLine
 10
61.192296776
 20
407.4464317874
 30
0.0
 11
61.192296776
 21
407.574663224
 31
0.0
  0
LINE
  5
3D9
330
75
100
AcDbEntity
  8
$DDT_AUDIT_GENERATED_(154)
  6
Continuous
 62
     7
100
AcDbLine
 10
63.392296776
 20
406.7055169245
 30
0.0
 11
63.392296776
 21
406.2464317874
 31
0.0
  0
LINE
  5
3DA
330
75
100
AcDbEntity
  8
$DDT_AUDIT_GENERATED_(154)
  6
Continuous
 62
     7
100
AcDbLine
 10
63.392296776
 20
406.2464317874
 30
0.0
 11
62.392296776
 21
406.2464317874
 31
0.0
  0
LINE
  5
3DB
330
75
100
AcDbEntity
  8
$DDT_AUDIT_GENERATED_(154)
  6
Continuous
 62
     7
100
AcDbLine
 10
62.392296776
 20
406.2464317874
 30
0.0
 11
62.392296776
 21
407.191855255
 31
0.0
  0
LINE
  5
3DC
330
75
100
AcDbEntity
  8
$DDT_AUDIT_GENERATED_(154)
  6
Continuous
 62
     7
100
AcDbLine
 10
64.592296776
 20
405.868812668
 30
0.0
 11
64.592296776
 21
405.0464317874
 31
0.0
  0
LINE
  5
3DD
330
75
100
AcDbEntity
  8
$DDT_AUDIT_GENERATED_(154)
  6
Continuous
 62
     7
100
AcDbLine
 10
64.592296776
 20
405.0464317874
 30
0.0
 11
63.592296776
 21
405.0464317874
 31
0.0
  0
LINE
  5
3DE
330
75
100
AcDbEntity
  8
$DDT_AUDIT_GENERATED_(154)
  6
Continuous
 62
     7
100
AcDbLine
 10
63.592296776
 20
405.0464317874
 30
0.0
 11
63.592296776
 21
406.0464317874
 31
0.0
  0
LINE
  5
3DF
330
75
100
AcDbEntity
  8
$DDT_AUDIT_GENERATED_(154)
  6
Continuous
 62
     7
100
AcDbLine
 10
63.592296776
 20
406.0464317874
 30
0.0
 11
64.3728971342
 21
406.0464317874
 31
0.0
  0
LINE
  5
3E0
330
75
100
AcDbEntity
  8
$DDT_AUDIT_GENERATED_(154)
  6
Continuous
 62
     7
100
AcDbLine
 10
64.1060790727
 20
406.2464317874
 30
0.0
 11
63.592296776
 21
406.2464317874
 31
0.0
  0
LINE
  5
3E1
330
75
100
AcDbEntity
  8
$DDT_AUDIT_GENERATED_(154)
  6
Continuous
 62
     7
100
AcDbLine
 10
63.592296776
 20
406.2464317874
 30
0.0
 11
63.592296776
 21
406.5872058925
 31
0.0
  0
LINE
  5
3E2
330
75
100
AcDbEntity
  8
$DDT_AUDIT_GENERATED_(154)
  6
Continuous
 62
     7
100
AcDbLine
 10
65.792296776
 20
404.6270321456
 30
0.0
 11
65.792296776
 21
403.8464317874
 31
0.0
  0
LINE
  5
3E3
330
75
100
AcDbEntity
  8
$DDT_AUDIT_GENERATED_(154)
  6
Continuous
 62
     7
100
AcDbLine
 10
65.792296776
 20
403.8464317874
 30
0.0
 11
64.792296776
 21
403.8464317874
 31
0.0
  0
LINE
  5
3E4
330
75
100
AcDbEntity
  8
$DDT_AUDIT_GENERATED_(154)
  6
Continuous
 62
     7
100
AcDbLine
 10
64.792296776
 20
403.8464317874
 30
0.0
 11
64.792296776
 21
404.8464317874
 31
0.0
  0
LINE
  5
3E5
330
75
100
AcDbEntity
  8
$DDT_AUDIT_GENERATED_(154)
  6
Continuous
 62
     7
100
AcDbLine
 10
64.792296776
 20
404.8464317874
 30
0.0
 11
65.6146776567
 21
404.8464317874
 31
0.0
  0
LINE
  5
3E6
330
75
100
AcDbEntity
  8
$DDT_AUDIT_GENERATED_(154)
  6
Continuous
 62
     7
100
AcDbLine
 10
65.4414837141
 20
405.0464317874
 30
0.0
 11
64.792296776
 21
405.0464317874
 31
0.0
  0
LINE
  5
3E7
330
75
100
AcDbEntity
  8
$DDT_AUDIT_GENERATED_(154)
  6
Continuous
 62
     7
100
AcDbLine
 10
64.792296776
 20
405.0464317874
 30
0.0
 11
64.792296776
 21
405.6956187255
 31
0.0
  0
LINE
  5
3E8
330
75
100
AcDbEntity
  8
$DDT_AUDIT_GENERATED_(154)
  6
Continuous
 62
     7
100
AcDbLine
 10
65.992296776
 20
402.4464317874
 30
0.0
 11
66.992296776
 21
402.4464317874
 31
0.0
  0
LINE
  5
3E9
330
75
100
AcDbEntity
  8
$DDT_AUDIT_GENERATED_(154)
  6
Continuous
 62
     7
100
AcDbLine
 10
66.992296776
 20
402.4464317874
 30
0.0
 11
66.992296776
 21
401.4464317874
 31
0.0
  0
LINE
  5
3EA
330
75
100
AcDbEntity
  8
$DDT_AUDIT_GENERATED_(154)
  6
Continuous
 62
     7
100
AcDbLine
 10
66.992296776
 20
401.4464317874
 30
0.0
 11
65.992296776
 21
401.4464317874
 31
0.0
  0
LINE
  5
3EB
330
75
100
AcDbEntity
  8
$DDT_AUDIT_GENERATED_(154)
  6
Continuous
 62
     7
100
AcDbLine
 10
65.992296776
 20
401.4464317874
 30
0.0
 11
65.992296776
 21
402.4464317874
 31
0.0
  0
LINE
  5
3EC
330
75
100
AcDbEntity
  8
$DDT_AUDIT_GENERATED_(154)
  6
Continuous
 62
     7
100
AcDbLine
 10
66.9377202437
 20
402.6464317874
 30
0.0
 11
65.992296776
 21
402.6464317874
 31
0.0
  0
LINE
  5
3ED
330
75
100
AcDbEntity
  8
$DDT_AUDIT_GENERATED_(154)
  6
Continuous
 62
     7
100
AcDbLine
 10
65.992296776
 20
402.6464317874
 30
0.0
 11
65.992296776
 21
403.6464317874
 31
0.0
  0
LINE
  5
3EE
330
75
100
AcDbEntity
  8
$DDT_AUDIT_GENERATED_(154)
  6
Continuous
 62
     7
100
AcDbLine
 10
65.992296776
 20
403.6464317874
 30
0.0
 11
66.4513819131
 21
403.6464317874
 31
0.0
  0
LINE
  5
3EF
330
75
100
AcDbEntity
  8
$DDT_AUDIT_GENERATED_(154)
  6
Continuous
 62
     7
100
AcDbLine
 10
66.3330708812
 20
403.8464317874
 30
0.0
 11
65.992296776
 21
403.8464317874
 31
0.0
  0
LINE
  5
3F0
330
75
100
AcDbEntity
  8
$DDT_AUDIT_GENERATED_(154)
  6
Continuous
 62
     7
100
AcDbLine
 10
65.992296776
 20
403.8464317874
 30
0.0
 11
65.992296776
 21
404.3602140841
 31
0.0
  0
LINE
  5
3F1
330
75
100
AcDbEntity
  8
$DDT_AUDIT_GENERATED_(154)
  6
Continuous
 62
     7
100
AcDbLine
 10
67.192296776
 20
400.0464317874
 30
0.0
 11
67.527131322
 21
400.0464317874
 31
0.0
  0
LINE
  5
3F2
330
75
100
AcDbEntity
  8
$DDT_AUDIT_GENERATED_(154)
  6
Continuous
 62
     7
100
AcDbLine
 10
67.512546164
 20
400.2464317874
 30
0.0
 11
67.192296776
 21
400.2464317874
 31
0.0
  0
LINE
  5
3F3
330
75
100
AcDbEntity
  8
$DDT_AUDIT_GENERATED_(154)
  6
Continuous
 62
     7
100
AcDbLine
 10
67.192296776
 20
400.2464317874
 30
0.0
 11
67.192296776
 21
401.2464317874
 31
0.0
  0
LINE
  5
3F4
330
75
100
AcDbEntity
  8
$DDT_AUDIT_GENERATED_(154)
  6
Continuous
 62
     7
100
AcDbLine
 10
67.192296776
 20
401.2464317874
 30
0.0
 11
67.3652454319
 21
401.2464317874
 31
0.0
  0
LINE
  5
3F5
330
75
100
AcDbEntity
  8
$DDT_AUDIT_GENERATED_(154)
  6
Continuous
 62
     7
100
AcDbLine
 10
67.3205282126
 20
401.4464317874
 30
0.0
 11
67.192296776
 21
401.4464317874
 31
0.0
  0
LINE
  5
3F6
330
75
100
AcDbEntity
  8
$DDT_AUDIT_GENERATED_(154)
  6
Continuous
 62
     7
100
AcDbLine
 10
67.192296776
 20
401.4464317874
 30
0.0
 11
67.192296776
 21
401.923930473
 31
0.0
  0
ARC
  5
3F7
330
75
100
AcDbEntity
  8
$DDT_AUDIT_GENERATED_(154)
  6
Continuous
 62
     7
100
AcDbCircle
 10
59.292296776
 20
399.5464317874
 30
0.0
 40
0.7499999999999966
100
AcDbArc
 50
248.9605302187
 51
291.0394697813
  0
ARC
  5
3F8
330
75
100
AcDbEntity
  8
$DDT_AUDIT_GENERATED_(154)
  6
Continuous
 62
     7
100
AcDbCircle
 10
59.292296776
 20
399.5464317874
 30
0.0
 40
0.7499999999999963
100
AcDbArc
 50
338.9605302187
 51
21.0394697813
  0
ARC
  5
3F9
330
75
100
AcDbEntity
  8
$DDT_AUDIT_GENERATED_(154)
  6
Continuous
 62
     7
100
AcDbCircle
 10
59.292296776
 20
399.5464317874
 30
0.0
 40
0.7499999999999958
100
AcDbArc
 50
158.9605302187
 51
201.0394697813
  0
ARC
  5
3FA
330
75
100
AcDbEntity
  8
$DDT_AUDIT_GENERATED_(154)
  6
Continuous
 62
     7
100
AcDbCircle
 10
59.292296776
 20
399.5464317874
 30
0.0
 40
0.7499999999999966
100
AcDbArc
 50
68.9605302187
 51
111.0394697813
  0
ENDBLK
  5
3FC
330
75
100
AcDbEntity
  8
0
100
AcDbBlockEnd
  0
BLOCK
  5
469
330
3FD
100
AcDbEntity
  8
0
100
AcDbBlockBegin
  2
SE1
 70
     0
 10
0.0
 20
0.0
 30
0.0
  3
SE1
  1

  0
LINE
  5
3FF
330
3FD
100
AcDbEntity
  8
$DDT_AUDIT_GENERATED_(77)
  6
Continuous
 62
     7
100
AcDbLine
 10
302.573132656
 20
413.0464317874
 30
0.0
 11
302.573132656
 21
386.0464317874
 31
0.0
  0
ARC
  5
400
330
3FD
100
AcDbEntity
  8
$DDT_AUDIT_GENERATED_(77)
  6
Continuous
 62
     7
100
AcDbCircle
 10
272.3134181979
 20
399.5464324074
 30
0.0
 40
35.8777811206733
100
AcDbArc
 50
148.9598035058
 51
211.0402087121
  0
SPLINE
  5
401
330
3FD
100
AcDbEntity
  8
$DDT_AUDIT_GENERATED_(77)
  6
Continuous
 62
     7
100
AcDbSpline
210
0.0
220
0.0
230
1.0
 70
     8
 71
     3
 72
    28
 73
    24
 74
     0
 42
0.000000000164648
 43
0.0000000001
 40
0.5008255756291006
 40
0.5008255756291006
 40
0.5008255756291006
 40
0.5008255756291006
 40
0.5312499999999989
 40
0.5312499999999989
 40
0.5624999999999988
 40
0.5624999999999988
 40
0.6249999999999988
 40
0.6249999999999988
 40
0.6874999999999989
 40
0.6874999999999989
 40
0.7499999999999989
 40
0.7499999999999989
 40
0.8124999999999989
 40
0.8124999999999989
 40
0.8437499999999991
 40
0.8437499999999991
 40
0.8749999999999992
 40
0.8749999999999992
 40
0.9062499999999994
 40
0.9062499999999994
 40
0.9374999999999997
 40
0.9374999999999997
 40
1.0
 40
1.0
 40
1.0
 40
1.0
 10
246.5731136650067
 20
413.0464097867457
 30
0.0
 10
246.5718500655325
 20
413.0448938392147
 30
0.0
 10
246.4945354050101
 20
412.9508749378627
 30
0.0
 10
246.2031608970122
 20
412.589821184163
 30
0.0
 10
245.9835180171071
 20
412.3155969315018
 30
0.0
 10
245.1741419627198
 20
411.269707153044
 30
0.0
 10
244.4339547540098
 20
410.2785510659241
 30
0.0
 10
242.9116921892006
 20
407.8904371884535
 30
0.0
 10
242.116257816436
 20
406.4761192775595
 30
0.0
 10
240.8842927211643
 20
403.2884495930053
 30
0.0
 10
240.4522526541499
 20
401.4454266278011
 30
0.0
 10
240.4434579309377
 20
397.7098063773113
 30
0.0
 10
240.8617690670198
 20
395.8797274975547
 30
0.0
 10
241.7848306114714
 20
393.466253037669
 30
0.0
 10
242.1433599606006
 20
392.7001912330879
 30
0.0
 10
242.8840448875729
 20
391.2927814964711
 30
0.0
 10
243.2686343207506
 20
390.6442823924851
 30
0.0
 10
244.0313326611425
 20
389.4442247558908
 30
0.0
 10
244.4115028576295
 20
388.8908703660417
 30
0.0
 10
245.1043888533832
 20
387.924152631837
 30
0.0
 10
245.4211704082464
 20
387.5044907222633
 30
0.0
 10
246.2352843496637
 20
386.4508941100595
 30
0.0
 10
246.5731326559622
 20
386.0464317873705
 30
0.0
 10
246.5731326559622
 20
386.0464317873705
 30
0.0
  0
LINE
  5
402
330
3FD
100
AcDbEntity
  8
$DDT_AUDIT_GENERATED_(77)
  6
Continuous
 62
     7
100
AcDbLine
 10
241.573132656
 20
322.0464317874
 30
0.0
 11
189.573132656
 21
322.0464317874
 31
0.0
  0
LINE
  5
403
330
3FD
100
AcDbEntity
  8
$DDT_AUDIT_GENERATED_(77)
  6
Continuous
 62
     7
100
AcDbLine
 10
240.0728623837
 20
444.0464317874
 30
0.0
 11
191.0734029282
 21
444.0464317874
 31
0.0
  0
LINE
  5
404
330
3FD
100
AcDbEntity
  8
$DDT_AUDIT_GENERATED_(77)
  6
Continuous
 62
     7
100
AcDbLine
 10
241.573132656
 20
436.4464317874
 30
0.0
 11
189.573132656
 21
436.4464317874
 31
0.0
  0
ARC
  5
405
330
3FD
100
AcDbEntity
  8
$DDT_AUDIT_GENERATED_(77)
  6
Continuous
 62
     7
100
AcDbCircle
 10
-83.4924043934
 20
366.7959471036
 30
0.0
 40
273.1951302986272
100
AcDbArc
 50
358.2351496066
 51
1.7648569602
  0
LINE
  5
406
330
3FD
100
AcDbEntity
  8
$DDT_AUDIT_GENERATED_(77)
  6
Continuous
 62
     7
100
AcDbLine
 10
246.573132656
 20
386.0464317874
 30
0.0
 11
302.573132656
 21
386.0464317874
 31
0.0
  0
LINE
  5
407
330
3FD
100
AcDbEntity
  8
$DDT_AUDIT_GENERATED_(77)
  6
Continuous
 62
     7
100
AcDbLine
 10
302.573132656
 20
413.0464317874
 30
0.0
 11
246.5425859305
 21
413.0464317874
 31
0.0
  0
LINE
  5
408
330
3FD
100
AcDbEntity
  8
$DDT_AUDIT_GENERATED_(77)
  6
Continuous
 62
     7
100
AcDbLine
 10
189.573132656
 20
358.3942298439
 30
0.0
 11
189.573132656
 21
322.0464317874
 31
0.0
  0
LINE
  5
409
330
3FD
100
AcDbEntity
  8
$DDT_AUDIT_GENERATED_(77)
  6
Continuous
 62
     7
100
AcDbLine
 10
189.573132656
 20
436.4464317874
 30
0.0
 11
189.573132656
 21
375.2097271594
 31
0.0
  0
LINE
  5
40A
330
3FD
100
AcDbEntity
  8
$DDT_AUDIT_GENERATED_(77)
  6
Continuous
 62
     7
100
AcDbLine
 10
241.573132656
 20
418.0087615434
 30
0.0
 11
241.573132656
 21
436.4464317874
 31
0.0
  0
LINE
  5
40B
330
3FD
100
AcDbEntity
  8
$DDT_AUDIT_GENERATED_(77)
  6
Continuous
 62
     7
100
AcDbLine
 10
241.573132656
 20
322.0464317874
 30
0.0
 11
241.573132656
 21
381.0464317874
 31
0.0
  0
ARC
  5
40C
330
3FD
100
AcDbEntity
  8
$DDT_AUDIT_GENERATED_(77)
  6
Continuous
 62
     7
100
AcDbCircle
 10
246.5591466356
 20
381.0531215929
 30
0.0
 40
4.983285869284815
100
AcDbArc
 50
89.8352080461
 51
180.034546226
  0
ARC
  5
40D
330
3FD
100
AcDbEntity
  8
$DDT_AUDIT_GENERATED_(77)
  6
Continuous
 62
     7
100
AcDbCircle
 10
246.5600993756
 20
418.0386175501
 30
0.0
 40
4.982916609269609
100
AcDbArc
 50
180.3828966972
 51
269.782700021
  0
ARC
  5
40E
330
3FD
100
AcDbEntity
  8
$DDT_AUDIT_GENERATED_(77)
  6
Continuous
 62
     7
100
AcDbCircle
 10
221.573132656
 20
436.4464317874
 30
0.0
 40
20.0
100
AcDbArc
 50
0.0
 51
22.3336826578
  0
ARC
  5
40F
330
3FD
100
AcDbEntity
  8
$DDT_AUDIT_GENERATED_(77)
  6
Continuous
 62
     7
100
AcDbCircle
 10
209.573132656
 20
436.4464317874
 30
0.0
 40
20.0
100
AcDbArc
 50
157.6663173422
 51
180.0
  0
ARC
  5
410
330
3FD
100
AcDbEntity
  8
$DDT_AUDIT_GENERATED_(80)
  6
Continuous
 62
     7
100
AcDbCircle
 10
215.573132656
 20
434.2464317874
 30
0.0
 40
26.3
100
AcDbArc
 50
156.7550890484
 51
157.1411943503
  0
ARC
  5
411
330
3FD
100
AcDbEntity
  8
$DDT_AUDIT_GENERATED_(80)
  6
Continuous
 62
     7
100
AcDbCircle
 10
215.573132656
 20
434.2464317874
 30
0.0
 40
26.3
100
AcDbArc
 50
22.8588056497
 51
23.2973738156
  0
ARC
  5
412
330
3FD
100
AcDbEntity
  8
$DDT_AUDIT_GENERATED_(80)
  6
Continuous
 62
     7
100
AcDbCircle
 10
191.6150442514
 20
444.3464317874
 30
0.0
 40
0.300000000000001
100
AcDbArc
 50
157.1411943503
 51
270.0
  0
ARC
  5
413
330
3FD
100
AcDbEntity
  8
$DDT_AUDIT_GENERATED_(80)
  6
Continuous
 62
     7
100
AcDbCircle
 10
239.5312210605
 20
444.3464317874
 30
0.0
 40
0.2999999999999999
100
AcDbArc
 50
270.0
 51
22.8588056497
  0
ARC
  5
414
330
3FD
100
AcDbEntity
  8
$DDT_AUDIT_GENERATED_(87)
  6
Continuous
 62
     7
100
AcDbCircle
 10
266.7441733418
 20
468.8856150332
 30
0.0
 40
24.65208759747843
100
AcDbArc
 50
180.5847453038
 51
197.1163338514
  0
SPLINE
  5
415
330
3FD
100
AcDbEntity
  8
$DDT_AUDIT_GENERATED_(87)
  6
Continuous
 62
     7
100
AcDbSpline
210
0.0
220
0.0
230
1.0
 70
     8
 71
     3
 72
    10
 73
     6
 74
     0
 42
0.0000000117640003
 43
0.0000000001
 40
0.7601615892693965
 40
0.7601615892693965
 40
0.7601615892693965
 40
0.7601615892693965
 40
0.7661049251072994
 40
0.8446484472851208
 40
0.8754738703513139
 40
0.8754738703513139
 40
0.8754738703513139
 40
0.8754738703513139
 10
290.3610225880025
 20
461.7385532205739
 30
0.0
 10
290.3598229601507
 20
461.7367096595467
 30
0.0
 10
290.3429804852897
 20
461.7108266077107
 30
0.0
 10
290.3241024495446
 20
461.6818159901254
 30
0.0
 10
290.3108675134242
 20
461.661473287213
 30
0.0
 10
290.3075626786049
 20
461.6563935177105
 30
0.0
  0
SPLINE
  5
416
330
3FD
100
AcDbEntity
  8
$DDT_AUDIT_GENERATED_(87)
  6
Continuous
 62
     7
100
AcDbSpline
210
0.0
220
0.0
230
1.0
 70
    12
 71
     3
 72
     8
 73
     4
 74
     0
 42
0.0000000835163957
 43
0.0000000001
 40
0.0
 40
0.0
 40
0.0
 40
0.0
 40
0.2499862074911195
 40
0.2499862074911195
 40
0.2499862074911195
 40
0.2499862074911195
 10
296.8486168813899
 20
465.2029290669214
 30
0.0
 41
1.085510102775451
 10
296.8549976560498
 20
465.2009619337145
 30
0.0
 41
1.057406819227594
 10
296.8631885376292
 20
465.2048844893343
 30
0.0
 41
1.036230739488441
 10
296.8731349439875
 20
465.2149822760646
 30
0.0
 41
1.021981863557992
  0
ARC
  5
417
330
3FD
100
AcDbEntity
  8
$DDT_AUDIT_GENERATED_(87)
  6
Continuous
 62
     7
100
AcDbCircle
 10
295.5329254166
 20
460.8995934636
 30
0.0
 40
4.499971260473162
100
AcDbArc
 50
72.9996379031
 51
144.9999674825
  0
LINE
  5
418
330
3FD
100
AcDbEntity
  8
$DDT_AUDIT_GENERATED_(87)
  6
Continuous
 62
     7
100
AcDbLine
 10
308.4766803281
 20
461.6478965361
 30
0.0
 11
299.406133983
 21
464.4210227301
 31
0.0
  0
LINE
  5
419
330
3FD
100
AcDbEntity
  8
$DDT_AUDIT_GENERATED_(87)
  6
Continuous
 62
     7
100
AcDbLine
 10
308.4766803436
 20
461.647896587
 30
0.0
 11
308.6228660939
 21
461.6261502957
 31
0.0
  0
ARC
  5
41A
330
3FD
100
AcDbEntity
  8
$DDT_AUDIT_GENERATED_(87)
  6
Continuous
 62
     7
100
AcDbCircle
 10
1591.6302948341
 20
-383.2507475916
 30
0.0
 40
1551.550517780028
100
AcDbArc
 50
147.0056173393
 51
147.0069626212
  0
SPLINE
  5
41B
330
3FD
100
AcDbEntity
  8
$DDT_AUDIT_GENERATED_(87)
  6
Continuous
 62
     7
100
AcDbSpline
210
0.0
220
0.0
230
1.0
 70
    12
 71
     3
 72
     8
 73
     4
 74
     0
 42
0.0000000200278708
 43
0.0000000001
 40
0.0
 40
0.0
 40
0.0
 40
0.0
 40
1.0
 40
1.0
 40
1.0
 40
1.0
 10
290.6974372963799
 20
461.8392606745114
 30
0.0
 41
1.083818232287146
 10
290.6026496972704
 20
461.7039610047683
 30
0.0
 41
0.9891934929322519
 10
290.4555232979402
 20
461.6261331404472
 30
0.0
 41
0.9746871334362714
 10
290.2878612870998
 20
461.6260954295813
 30
0.0
 41
1.040299153799205
  0
LINE
  5
41C
330
3FD
100
AcDbEntity
  8
$DDT_AUDIT_GENERATED_(87)
  6
Continuous
 62
     7
100
AcDbLine
 10
291.8467662242
 20
463.4806730349
 30
0.0
 11
290.6974369635
 21
461.8392609076
 31
0.0
  0
SPLINE
  5
41D
330
3FD
100
AcDbEntity
  8
$DDT_AUDIT_GENERATED_(87)
  6
Continuous
 62
     7
100
AcDbSpline
210
0.0
220
0.0
230
1.0
 70
    12
 71
     3
 72
     8
 73
     4
 74
     0
 42
0.0000000115410488
 43
0.0000000001
 40
0.0
 40
0.0
 40
0.0
 40
0.0
 40
1.0
 40
1.0
 40
1.0
 40
1.0
 10
313.9394165985299
 20
461.6260828775114
 30
0.0
 41
1.163241909710307
 10
314.2286624279798
 20
461.6261199874859
 30
0.0
 41
0.9428664966082878
 10
314.4342674537701
 20
461.8289654849322
 30
0.0
 41
0.9456200097088856
 10
314.4393404431798
 20
462.1173226854214
 30
0.0
 41
1.1715024490121
  0
ARC
  5
41E
330
3FD
100
AcDbEntity
  8
$DDT_AUDIT_GENERATED_(87)
  6
Continuous
 62
     7
100
AcDbCircle
 10
314.3054891959
 20
357.4318364519
 30
0.0
 40
111.194487797882
100
AcDbArc
 50
89.8724890864
 51
90.130168156
  0
LINE
  5
41F
330
3FD
100
AcDbEntity
  8
$DDT_AUDIT_GENERATED_(87)
  6
Continuous
 62
     7
100
AcDbLine
 10
314.4393404432
 20
462.1173226854
 30
0.0
 11
314.5529506869
 21
468.6260488887
 31
0.0
  0
LINE
  5
420
330
3FD
100
AcDbEntity
  8
$DDT_AUDIT_GENERATED_(87)
  6
Continuous
 62
     7
100
AcDbLine
 10
314.5529506869
 20
468.6260488887
 30
0.0
 11
314.4393404432
 21
475.1347750918
 31
0.0
  0
SPLINE
  5
421
330
3FD
100
AcDbEntity
  8
$DDT_AUDIT_GENERATED_(87)
  6
Continuous
 62
     7
100
AcDbSpline
210
0.0
220
0.0
230
1.0
 70
    12
 71
     3
 72
     8
 73
     4
 74
     0
 42
0.0000000115410488
 43
0.0000000001
 40
0.0
 40
0.0
 40
0.0
 40
0.0
 40
1.0
 40
1.0
 40
1.0
 40
1.0
 10
313.9394165985299
 20
475.6260148996714
 30
0.0
 41
1.163241909714717
 10
314.2286624279804
 20
475.6259777897014
 30
0.0
 41
0.9428664966080142
 10
314.4342674537705
 20
475.4231322922539
 30
0.0
 41
0.9456200097073847
 10
314.4393404431798
 20
475.1347750917614
 30
0.0
 41
1.171502449012828
  0
SPLINE
  5
422
330
3FD
100
AcDbEntity
  8
$DDT_AUDIT_GENERATED_(87)
  6
Continuous
 62
     7
100
AcDbSpline
210
0.0
220
0.0
230
1.0
 70
    12
 71
     3
 72
     8
 73
     4
 74
     0
 42
0.0000000068781946
 43
0.0000000001
 40
0.7582001791541375
 40
0.7582001791541375
 40
0.7582001791541375
 40
0.7582001791541375
 40
1.0
 40
1.0
 40
1.0
 40
1.0
 10
242.0344386517247
 20
476.2185568092353
 30
0.0
 41
1.041619494674793
 10
241.9862274031044
 20
476.3276023526326
 30
0.0
 41
1.067595065100484
 10
241.9589116417812
 20
476.4415920966168
 30
0.0
 41
1.105729545627255
 10
241.951285400463
 20
476.5564399579749
 30
0.0
 41
1.156022936255108
  0
LINE
  5
423
330
3FD
100
AcDbEntity
  8
$DDT_AUDIT_GENERATED_(87)
  6
Continuous
 62
     7
100
AcDbLine
 10
241.9520691303
 20
476.5600454966
 30
0.0
 11
241.9520339715
 21
476.5598837491
 31
0.0
  0
LINE
  5
424
330
3FD
100
AcDbEntity
  8
$DDT_AUDIT_GENERATED_(87)
  6
Continuous
 62
     7
100
AcDbLine
 10
241.9512994495
 20
476.5565045904
 30
0.0
 11
241.9512854005
 21
476.556439958
 31
0.0
  0
SPLINE
  5
425
330
3FD
100
AcDbEntity
  8
$DDT_AUDIT_GENERATED_(87)
  6
Continuous
 62
     7
100
AcDbSpline
210
0.0
220
0.0
230
1.0
 70
    12
 71
     3
 72
     8
 73
     4
 74
     0
 42
0.0000000059999937
 43
0.0000000001
 40
0.0
 40
0.0
 40
0.0
 40
0.0
 40
1.0
 40
1.0
 40
1.0
 40
1.0
 10
242.9498887078998
 20
475.6260489020414
 30
0.0
 41
1.156022824850154
 10
242.3943325674518
 20
475.6260488885889
 30
0.0
 41
0.947992392103969
 10
241.9887378916761
 20
476.0057008137808
 30
0.0
 41
0.9479923917167488
 10
241.9520691303099
 20
476.5600454966113
 30
0.0
 41
1.156022823688493
  0
ARC
  5
426
330
3FD
100
AcDbEntity
  8
$DDT_AUDIT_GENERATED_(87)
  6
Continuous
 62
     7
100
AcDbCircle
 10
242.9491371179
 20
476.6229525095
 30
0.0
 40
1.000065973932087
100
AcDbArc
 50
183.8134516705
 51
269.9959535936
  0
SPLINE
  5
427
330
3FD
100
AcDbEntity
  8
$DDT_AUDIT_GENERATED_(87)
  6
Continuous
 62
     7
100
AcDbSpline
210
0.0
220
0.0
230
1.0
 70
    12
 71
     3
 72
     8
 73
     4
 74
     0
 42
0.0000000060029151
 43
0.0000000001
 40
0.0
 40
0.0
 40
0.0
 40
0.0
 40
1.0
 40
1.0
 40
1.0
 40
1.0
 10
242.9488301523899
 20
475.6219788373114
 30
0.0
 41
1.15595598511205
 10
242.393422899037
 20
475.6221261866844
 30
0.0
 41
0.9480146747126801
 10
241.9878813475061
 20
476.0015153800603
 30
0.0
 41
0.9480146716293834
 10
241.9510603120899
 20
476.5554050443814
 30
0.0
 41
1.15595597586216
  0
ARC
  5
428
330
3FD
100
AcDbEntity
  8
$DDT_AUDIT_GENERATED_(87)
  6
Continuous
 62
     7
100
AcDbCircle
 10
243.184095948
 20
460.6300781532
 30
0.0
 40
1.00011220443311
100
AcDbArc
 50
90.0084969705
 51
179.4597473537
  0
SPLINE
  5
429
330
3FD
100
AcDbEntity
  8
$DDT_AUDIT_GENERATED_(87)
  6
Continuous
 62
     7
100
AcDbSpline
210
0.0
220
0.0
230
1.0
 70
    12
 71
     3
 72
     8
 73
     4
 74
     0
 42
0.0000000057322536
 43
0.0000000001
 40
0.0
 40
0.0
 40
0.0
 40
0.0
 40
1.0
 40
1.0
 40
1.0
 40
1.0
 10
243.1842522897399
 20
461.6292294689713
 30
0.0
 41
1.169339172434779
 10
242.602638380482
 20
461.6290811589481
 30
0.0
 41
0.9435118857325443
 10
242.1895537452865
 20
461.2197319359701
 30
0.0
 41
0.9435536168986844
 10
242.184328432241
 20
460.6384093344148
 30
0.0
 41
1.169464365933199
  0
SPLINE
  5
42A
330
3FD
100
AcDbEntity
  8
$DDT_AUDIT_GENERATED_(87)
  6
Continuous
 62
     7
100
AcDbSpline
210
0.0
220
0.0
230
1.0
 70
    12
 71
     3
 72
     8
 73
     4
 74
     0
 42
0.0000000066797767
 43
0.0000000001
 40
0.0
 40
0.0
 40
0.0
 40
0.0
 40
0.2197852000164472
 40
0.2197852000164472
 40
0.2197852000164472
 40
0.2197852000164472
 10
243.1852727233899
 20
461.6260488870414
 30
0.0
 41
1.169463865655228
 10
243.0775433562203
 20
461.6260488873273
 30
0.0
 41
1.119802999541798
 10
242.9691997115604
 20
461.6087822653826
 30
0.0
 41
1.081056856813201
 10
242.863542336426
 20
461.5728802128298
 30
0.0
 41
1.053225437469439
  0
SPLINE
  5
42B
330
3FD
100
AcDbEntity
  8
$DDT_AUDIT_GENERATED_(87)
  6
Continuous
 62
     7
100
AcDbSpline
210
0.0
220
0.0
230
1.0
 70
    12
 71
     3
 72
     8
 73
     4
 74
     0
 42
0.0000000066531413
 43
0.0000000001
 40
0.7651452163361113
 40
0.7651452163361113
 40
0.7651452163361113
 40
0.7651452163361113
 40
1.0
 40
1.0
 40
1.0
 40
1.0
 10
242.2493429310722
 20
460.9782355219216
 30
0.0
 41
1.047654584897159
 10
242.2071421889607
 20
460.8660877913852
 30
0.0
 41
1.07579490587451
 10
242.1863184259313
 20
460.750237966185
 30
0.0
 41
1.116397999317771
 10
242.1853107994098
 20
460.6347754241013
 30
0.0
 41
1.169463865226941
  0
ARC
  5
42C
330
3FD
100
AcDbEntity
  8
$DDT_AUDIT_GENERATED_(87)
  6
Continuous
 62
     7
100
AcDbCircle
 10
-2931.6434353907
 20
443.8872966673
 30
0.0
 40
3162.31000286162
100
AcDbArc
 50
0.4482294745
 51
0.7153676906
  0
LINE
  5
42D
330
3FD
100
AcDbEntity
  8
$DDT_AUDIT_GENERATED_(87)
  6
Continuous
 62
     7
100
AcDbLine
 10
230.5698003569
 20
468.6260488909
 30
0.0
 11
241.1363665923
 21
468.6262452449
 31
0.0
  0
ARC
  5
42E
330
3FD
100
AcDbEntity
  8
$DDT_AUDIT_GENERATED_(87)
  6
Continuous
 62
     7
100
AcDbCircle
 10
277.8911690233
 20
455.7995431297
 30
0.0
 40
35.93025744236844
100
AcDbArc
 50
173.7219373021
 51
185.2780963752
  0
LINE
  5
42F
330
3FD
100
AcDbEntity
  8
$DDT_AUDIT_GENERATED_(87)
  6
Continuous
 62
     7
100
AcDbLine
 10
230.8070280113
 20
444.9312846132
 30
0.0
 11
230.5698003569
 21
468.6260488909
 31
0.0
  0
LINE
  5
430
330
3FD
100
AcDbEntity
  8
$DDT_AUDIT_GENERATED_(87)
  6
Continuous
 62
     7
100
AcDbLine
 10
230.6349812091
 20
444.6260488886
 30
0.0
 11
241.7472139623
 21
444.6260488886
 31
0.0
  0
LINE
  5
431
330
3FD
100
AcDbEntity
  8
$DDT_AUDIT_GENERATED_(87)
  6
Continuous
 62
     7
100
AcDbLine
 10
242.1763914251
 20
459.72864986
 30
0.0
 11
242.1774754829
 21
459.7369369786
 31
0.0
  0
LINE
  5
432
330
3FD
100
AcDbEntity
  8
$DDT_AUDIT_GENERATED_(87)
  6
Continuous
 62
     7
100
AcDbLine
 10
242.1141906452
 20
452.4852128498
 30
0.0
 11
242.1132590859
 21
452.4943559131
 31
0.0
  0
LINE
  5
433
330
3FD
100
AcDbEntity
  8
$DDT_AUDIT_GENERATED_(87)
  6
Continuous
 62
     7
100
AcDbLine
 10
189.2582328992
 20
444.6260488886
 30
0.0
 11
230.6349812091
 21
444.6260488886
 31
0.0
  0
ARC
  5
434
330
3FD
100
AcDbEntity
  8
$DDT_AUDIT_GENERATED_(87)
  6
Continuous
 62
     7
100
AcDbCircle
 10
240.7038405489
 20
483.3546916594
 30
0.0
 40
0.7996932680168088
100
AcDbArc
 50
3.1581001536
 51
87.8714251926
  0
ARC
  5
435
330
3FD
100
AcDbEntity
  8
$DDT_AUDIT_GENERATED_(87)
  6
Continuous
 62
     7
100
AcDbCircle
 10
240.7026975531
 20
483.3545483874
 30
0.0
 40
0.7998430680649622
100
AcDbArc
 50
3.1674408208
 51
87.8592190283
  0
LINE
  5
436
330
3FD
100
AcDbEntity
  8
$DDT_AUDIT_GENERATED_(87)
  6
Continuous
 62
     7
100
AcDbLine
 10
308.6228661535
 20
461.6260488886
 30
0.0
 11
313.9394165985
 21
461.6260488886
 31
0.0
  0
LINE
  5
437
330
3FD
100
AcDbEntity
  8
$DDT_AUDIT_GENERATED_(87)
  6
Continuous
 62
     7
100
AcDbLine
 10
243.1852727234
 20
461.6260488886
 30
0.0
 11
290.2878612881
 21
461.6260488886
 31
0.0
  0
LINE
  5
438
330
3FD
100
AcDbEntity
  8
$DDT_AUDIT_GENERATED_(87)
  6
Continuous
 62
     7
100
AcDbLine
 10
313.9394165985
 20
475.6260488886
 30
0.0
 11
242.9498887079
 21
475.6260488886
 31
0.0
  0
LINE
  5
439
330
3FD
100
AcDbEntity
  8
$DDT_AUDIT_GENERATED_(87)
  6
Continuous
 62
     7
100
AcDbLine
 10
296.7920738556
 20
465.2398154109
 30
0.0
 11
299.3216983793
 21
464.4664302957
 31
0.0
  0
LINE
  5
43A
330
3FD
100
AcDbEntity
  8
$DDT_AUDIT_GENERATED_(87)
  6
Continuous
 62
     7
100
AcDbLine
 10
290.6894404009
 20
461.9013908029
 30
0.0
 11
290.6649392739
 21
461.9276783043
 31
0.0
  0
SPLINE
  5
43B
330
3FD
100
AcDbEntity
  8
$DDT_AUDIT_GENERATED_(87)
  6
Continuous
 62
     7
100
AcDbSpline
210
0.0
220
0.0
230
1.0
 70
     8
 71
     3
 72
     8
 73
     4
 74
     0
 42
0.0000000537506118
 43
0.0000000001
 40
0.0
 40
0.0
 40
0.0
 40
0.0
 40
1.0
 40
1.0
 40
1.0
 40
1.0
 10
290.3238496397274
 20
461.6606291500307
 30
0.0
 10
290.3499203004902
 20
461.6529044983494
 30
0.0
 10
290.4094894333979
 20
461.6646189277962
 30
0.0
 10
290.5025570384505
 20
461.6957724383714
 30
0.0
  0
LINE
  5
43C
330
3FD
100
AcDbEntity
  8
$DDT_AUDIT_GENERATED_(87)
  6
Continuous
 62
     7
100
AcDbLine
 10
290.4265211373
 20
461.7482942489
 30
0.0
 11
290.6040252454
 21
461.7387526614
 31
0.0
  0
LINE
  5
43D
330
3FD
100
AcDbEntity
  8
$DDT_AUDIT_GENERATED_(87)
  6
Continuous
 62
     7
100
AcDbLine
 10
290.7267015389
 20
461.9147821156
 30
0.0
 11
291.7911260508
 21
463.434107214
 31
0.0
  0
SPLINE
  5
43E
330
3FD
100
AcDbEntity
  8
$DDT_AUDIT_GENERATED_(87)
  6
Continuous
 62
     7
100
AcDbSpline
210
0.0
220
0.0
230
1.0
 70
     8
 71
     3
 72
     8
 73
     4
 74
     0
 42
0.0000000014482757
 43
0.0000000001
 40
0.0
 40
0.0
 40
0.0
 40
0.0
 40
1.0
 40
1.0
 40
1.0
 40
1.0
 10
241.9530904566931
 20
476.5433816532851
 30
0.0
 10
241.7994068210065
 20
478.6906598878068
 30
0.0
 10
241.6485128222068
 20
480.9872726375847
 30
0.0
 10
241.5004084602938
 20
483.4332199026188
 30
0.0
  0
ARC
  5
43F
330
3FD
100
AcDbEntity
  8
$DDT_AUDIT_GENERATED_(87)
  6
Continuous
 62
     7
100
AcDbCircle
 10
241.7482113972
 20
444.9260488886
 30
0.0
 40
0.2999999999999999
100
AcDbArc
 50
270.0000001337
 51
359.5000000024
  0
LINE
  5
440
330
3FD
100
AcDbEntity
  8
$DDT_AUDIT_GENERATED_(87)
  6
Continuous
 62
     7
100
AcDbLine
 10
242.1774756159
 20
459.7369522125
 30
0.0
 11
242.1853108003
 21
460.6347754241
 31
0.0
  0
LINE
  5
441
330
3FD
100
AcDbEntity
  8
$DDT_AUDIT_GENERATED_(87)
  6
Continuous
 62
     7
100
AcDbLine
 10
242.0481999741
 20
444.923430928
 30
0.0
 11
242.1141908719
 21
452.4852388315
 31
0.0
  0
LINE
  5
442
330
3FD
100
AcDbEntity
  8
$DDT_AUDIT_GENERATED_(87)
  6
Continuous
 62
     7
100
AcDbLine
 10
189.6292177024
 20
483.3693603949
 30
0.0
 11
188.9582785939
 21
444.9312846107
 31
0.0
  0
ARC
  5
443
330
3FD
100
AcDbEntity
  8
$DDT_AUDIT_GENERATED_(87)
  6
Continuous
 62
     7
100
AcDbCircle
 10
189.2582329024
 20
444.9260488886
 30
0.0
 40
0.2999999999982951
100
AcDbArc
 50
178.9999999617
 51
269.9999993936
  0
ARC
  5
444
330
3FD
100
AcDbEntity
  8
$DDT_AUDIT_GENERATED_(87)
  6
Continuous
 62
     7
100
AcDbCircle
 10
190.4290958585
 20
483.3553984697
 30
0.0
 40
0.8000000000009597
100
AcDbArc
 50
92.1463222463
 51
179.0
  0
ARC
  5
445
330
3FD
100
AcDbEntity
  8
$DDT_AUDIT_GENERATED_(87)
  6
Continuous
 62
     7
100
AcDbCircle
 10
215.5529506845
 20
-186.979253536
 30
0.0
 40
671.6053024246
100
AcDbArc
 50
87.8512944805
 51
92.1464164328
  0
LINE
  5
447
330
3FD
100
AcDbEntity
  8
$DDT_AUDIT_GENERATED_(446)
  6
Continuous
 62
     7
100
AcDbLine
 10
167.2498830121
 20
389.3968008354
 30
0.0
 11
167.2498830121
 21
385.3968008354
 31
0.0
  0
LINE
  5
448
330
3FD
100
AcDbEntity
  8
$DDT_AUDIT_GENERATED_(446)
  6
Continuous
 62
     7
100
AcDbLine
 10
180.6998830121
 20
389.3968008354
 30
0.0
 11
167.2498830121
 21
389.3968008354
 31
0.0
  0
LINE
  5
449
330
3FD
100
AcDbEntity
  8
$DDT_AUDIT_GENERATED_(446)
  6
Continuous
 62
     7
100
AcDbLine
 10
167.2498830121
 20
385.3968008354
 30
0.0
 11
180.6998830121
 21
385.3968008354
 31
0.0
  0
ARC
  5
44A
330
3FD
100
AcDbEntity
  8
$DDT_AUDIT_GENERATED_(446)
  6
Continuous
 62
     7
100
AcDbCircle
 10
180.6998830121
 20
384.3968008354
 30
0.0
 40
1.000000000000001
100
AcDbArc
 50
18.0
 51
90.0
  0
ARC
  5
44B
330
3FD
100
AcDbEntity
  8
$DDT_AUDIT_GENERATED_(446)
  6
Continuous
 62
     7
100
AcDbCircle
 10
180.6998830121
 20
384.3968008354
 30
0.0
 40
5.0
100
AcDbArc
 50
18.0
 51
90.0
  0
LINE
  5
44C
330
3FD
100
AcDbEntity
  8
$DDT_AUDIT_GENERATED_(446)
  6
Continuous
 62
     7
100
AcDbLine
 10
189.6259869183
 20
373.10541768
 30
0.0
 11
185.4551655936
 21
385.9418858073
 31
0.0
  0
LINE
  5
44D
330
3FD
100
AcDbEntity
  8
$DDT_AUDIT_GENERATED_(446)
  6
Continuous
 62
     7
100
AcDbLine
 10
181.6509395284
 20
384.7058178298
 30
0.0
 11
189.6259760402
 21
360.1611792492
 31
0.0
  0
LINE
  5
44E
330
3FD
100
AcDbEntity
  8
04352_GEH_USE_00
  6
Continuous
 62
     7
100
AcDbLine
 10
317.2093204237
 20
386.7964317874
 30
0.0
 11
317.2093204237
 21
412.2964317874
 31
0.0
  0
LINE
  5
44F
330
3FD
100
AcDbEntity
  8
04352_GEH_USE_00
  6
Continuous
 62
     7
100
AcDbLine
 10
309.2093204237
 20
395.2380098025
 30
0.0
 11
309.2093204237
 21
386.7964317874
 31
0.0
  0
LINE
  5
450
330
3FD
100
AcDbEntity
  8
04352_GEH_USE_00
  6
Continuous
 62
     7
100
AcDbLine
 10
307.7343204237
 20
388.2714317874
 30
0.0
 11
307.7343204237
 21
410.8214317874
 31
0.0
  0
LINE
  5
451
330
3FD
100
AcDbEntity
  8
04352_GEH_USE_00
  6
Continuous
 62
     7
100
AcDbLine
 10
311.2093204237
 20
395.2380098025
 30
0.0
 11
311.2093204237
 21
403.8548537723
 31
0.0
  0
LINE
  5
452
330
3FD
100
AcDbEntity
  8
04352_GEH_USE_00
  6
Continuous
 62
     7
100
AcDbLine
 10
311.2093204237
 20
403.8548537723
 30
0.0
 11
309.2093204237
 21
403.8548537723
 31
0.0
  0
LINE
  5
453
330
3FD
100
AcDbEntity
  8
04352_GEH_USE_00
  6
Continuous
 62
     7
100
AcDbLine
 10
309.2093204237
 20
395.2380098025
 30
0.0
 11
311.2093204237
 21
395.2380098025
 31
0.0
  0
SPLINE
  5
454
330
3FD
100
AcDbEntity
  8
04352_GEH_USE_00
  6
Continuous
 62
     7
100
AcDbSpline
210
0.0
220
0.0
230
1.0
 70
     8
 71
     3
 72
    16
 73
    12
 74
     0
 42
0.00000000113719
 43
0.0000000001
 40
0.0
 40
0.0
 40
0.0
 40
0.0
 40
0.25
 40
0.25
 40
0.5
 40
0.5
 40
0.625
 40
0.625
 40
0.75
 40
0.75
 40
1.0
 40
1.0
 40
1.0
 40
1.0
 10
309.2093204237316
 20
403.854853772274
 30
0.0
 10
308.9756090165404
 20
403.163226895397
 30
0.0
 10
308.7845257464465
 20
402.4470385478672
 30
0.0
 10
308.5268958899388
 20
401.0056133951782
 30
0.0
 10
308.4591994701636
 20
400.2785539423721
 30
0.0
 10
308.4593811455004
 20
399.1774009534954
 30
0.0
 10
308.4765571182437
 20
398.8072882690791
 30
0.0
 10
308.5435271563167
 20
398.0765992375332
 30
0.0
 10
308.5931880493936
 20
397.7146762470687
 30
0.0
 10
308.7864856715065
 20
396.6382807845332
 30
0.0
 10
308.9744128117221
 20
395.9331766323681
 30
0.0
 10
309.2093204237316
 20
395.238009802467
 30
0.0
  0
LINE
  5
455
330
3FD
100
AcDbEntity
  8
04352_GEH_USE_00
  6
Continuous
 62
     7
100
AcDbLine
 10
309.2093204237
 20
403.8548537723
 30
0.0
 11
309.2093204237
 21
412.2964317874
 31
0.0
  0
LINE
  5
456
330
3FD
100
AcDbEntity
  8
04352_GEH_USE_00
  6
Continuous
 62
     7
100
AcDbLine
 10
317.2093204237
 20
412.2964317874
 30
0.0
 11
309.2093204237
 21
412.2964317874
 31
0.0
  0
LINE
  5
457
330
3FD
100
AcDbEntity
  8
04352_GEH_USE_00
  6
Continuous
 62
     7
100
AcDbLine
 10
309.2093204237
 20
386.7964317874
 30
0.0
 11
317.2093204237
 21
386.7964317874
 31
0.0
  0
LINE
  5
458
330
3FD
100
AcDbEntity
  8
04352_GEH_USE_00
  6
Continuous
 62
     7
100
AcDbLine
 10
309.2093204237
 20
412.2964317874
 30
0.0
 11
307.7343204237
 21
410.8214317874
 31
0.0
  0
LINE
  5
459
330
3FD
100
AcDbEntity
  8
04352_GEH_USE_00
  6
Continuous
 62
     7
100
AcDbLine
 10
307.7343204237
 20
388.2714317874
 30
0.0
 11
309.2093204237
 21
386.7964317874
 31
0.0
  0
LINE
  5
45A
330
3FD
100
AcDbEntity
  8
04352_GEH_USE_00
  6
Continuous
 62
     7
100
AcDbLine
 10
307.7343204237
 20
410.8214317874
 30
0.0
 11
302.573132656
 21
410.8214317874
 31
0.0
  0
LINE
  5
45B
330
3FD
100
AcDbEntity
  8
04352_GEH_USE_00
  6
Continuous
 62
     7
100
AcDbLine
 10
302.573132656
 20
388.2714317874
 30
0.0
 11
307.7343204237
 21
388.2714317874
 31
0.0
  0
LINE
  5
45C
330
3FD
100
AcDbEntity
  8
02636038_GEHÄUSE
  6
Continuous
 62
     7
100
AcDbLine
 10
324.4093204237
 20
388.7964317874
 30
0.0
 11
324.4093204237
 21
410.2964317874
 31
0.0
  0
SPLINE
  5
45D
330
3FD
100
AcDbEntity
  8
02636038_GEHÄUSE
  6
Continuous
 62
     7
100
AcDbSpline
210
0.0
220
0.0
230
1.0
 70
     8
 71
     3
 72
    10
 73
     6
 74
     0
 42
0.0000000019260148
 43
0.0000000001
 40
0.0
 40
0.0
 40
0.0
 40
0.0
 40
0.5
 40
0.5
 40
1.0
 40
1.0
 40
1.0
 40
1.0
 10
324.0917777756773
 20
402.132935218646
 30
0.0
 10
324.2057344726623
 20
401.2706203694981
 30
0.0
 10
324.2649929683789
 20
400.4083760976297
 30
0.0
 10
324.264972741868
 20
398.6840405028776
 30
0.0
 10
324.2056956163432
 20
397.8219491779338
 30
0.0
 10
324.0917777756773
 20
396.9599283560949
 30
0.0
  0
LINE
  5
45E
330
3FD
100
AcDbEntity
  8
02636038_GEHÄUSE
  6
Continuous
 62
     7
100
AcDbLine
 10
321.4093204237
 20
403.8172630882
 30
0.0
 11
321.4093204237
 21
395.2756004866
 31
0.0
  0
LINE
  5
45F
330
3FD
100
AcDbEntity
  8
02636038_GEHÄUSE
  6
Continuous
 62
     7
100
AcDbLine
 10
321.4093204237
 20
403.8172630882
 30
0.0
 11
323.2257523719
 21
403.8172630882
 31
0.0
  0
SPLINE
  5
460
330
3FD
100
AcDbEntity
  8
02636038_GEHÄUSE
  6
Continuous
 62
     7
100
AcDbSpline
210
0.0
220
0.0
230
1.0
 70
     8
 71
     3
 72
    14
 73
    10
 74
     0
 42
0.0000000049320844
 43
0.0000000001
 40
0.0
 40
0.0
 40
0.0
 40
0.0
 40
0.1249999999999997
 40
0.1249999999999997
 40
0.2499999999999994
 40
0.2499999999999994
 40
0.4999999999999996
 40
0.4999999999999996
 40
1.0
 40
1.0
 40
1.0
 40
1.0
 10
323.2257523718928
 20
403.817263088183
 30
0.0
 10
323.3101775628581
 20
403.817263088183
 30
0.0
 10
323.3942196853286
 20
403.785088020772
 30
0.0
 10
323.5333991858155
 20
403.6892680457947
 30
0.0
 10
323.5924197111402
 20
403.6261217303846
 30
0.0
 10
323.7435320177665
 20
403.4237763215014
 30
0.0
 10
323.8149221675278
 20
403.2677884276854
 30
0.0
 10
323.9862773211881
 20
402.7969952614465
 30
0.0
 10
324.0480114507669
 20
402.4641167363745
 30
0.0
 10
324.0917777756773
 20
402.132935218646
 30
0.0
  0
SPLINE
  5
461
330
3FD
100
AcDbEntity
  8
02636038_GEHÄUSE
  6
Continuous
 62
     7
100
AcDbSpline
210
0.0
220
0.0
230
1.0
 70
     8
 71
     3
 72
    14
 73
    10
 74
     0
 42
0.0000000049319876
 43
0.0000000001
 40
0.0
 40
0.0
 40
0.0
 40
0.0
 40
0.4999999999999996
 40
0.4999999999999996
 40
0.7499999999999993
 40
0.7499999999999993
 40
0.8749999999999997
 40
0.8749999999999997
 40
1.0
 40
1.0
 40
1.0
 40
1.0
 10
324.0917777756773
 20
396.9599283560949
 30
0.0
 10
324.0478236523929
 20
396.627325760616
 30
0.0
 10
323.9867571352136
 20
396.2970284059241
 30
0.0
 10
323.8144579215073
 20
395.8238788906
 30
0.0
 10
323.7434436141687
 20
395.6692762573007
 30
0.0
 10
323.5935368207872
 20
395.4680856524002
 30
0.0
 10
323.5344333775372
 20
395.4044791586464
 30
0.0
 10
323.3947291118763
 20
395.3079565343946
 30
0.0
 10
323.3105778652501
 20
395.2756004865556
 30
0.0
 10
323.2257523718928
 20
395.2756004865579
 30
0.0
  0
LINE
  5
462
330
3FD
100
AcDbEntity
  8
02636038_GEHÄUSE
  6
Continuous
 62
     7
100
AcDbLine
 10
323.2257523719
 20
395.2756004866
 30
0.0
 11
321.4093204237
 21
395.2756004866
 31
0.0
  0
LINE
  5
463
330
3FD
100
AcDbEntity
  8
02636038_GEHÄUSE
  6
Continuous
 62
     7
100
AcDbLine
 10
324.0917777757
 20
388.2464317874
 30
0.0
 11
324.4093204237
 21
388.7964317874
 31
0.0
  0
LINE
  5
464
330
3FD
100
AcDbEntity
  8
02636038_GEHÄUSE
  6
Continuous
 62
     7
100
AcDbLine
 10
324.4093204237
 20
410.2964317874
 30
0.0
 11
324.0917777757
 21
410.8464317874
 31
0.0
  0
ARC
  5
465
330
3FD
100
AcDbEntity
  8
02636038_GEHÄUSE
  6
Continuous
 62
     7
100
AcDbCircle
 10
323.2257523719
 20
410.3464317874
 30
0.0
 40
1.000000000000004
100
AcDbArc
 50
30.0
 51
90.0
  0
ARC
  5
466
330
3FD
100
AcDbEntity
  8
02636038_GEHÄUSE
  6
Continuous
 62
     7
100
AcDbCircle
 10
323.2257523719
 20
388.7464317874
 30
0.0
 40
1.000000000000001
100
AcDbArc
 50
270.0
 51
330.0
  0
LINE
  5
467
330
3FD
100
AcDbEntity
  8
02636038_GEHÄUSE
  6
Continuous
 62
     7
100
AcDbLine
 10
317.2093204237
 20
387.7464317874
 30
0.0
 11
323.2257523719
 21
387.7464317874
 31
0.0
  0
LINE
  5
468
330
3FD
100
AcDbEntity
  8
02636038_GEHÄUSE
  6
Continuous
 62
     7
100
AcDbLine
 10
323.2257523719
 20
411.3464317874
 30
0.0
 11
317.2093204237
 21
411.3464317874
 31
0.0
  0
ENDBLK
  5
46A
330
3FD
100
AcDbEntity
  8
0
100
AcDbBlockEnd
  0
BLOCK
  5
4C8
330
46B
100
AcDbEntity
  8
0
100
AcDbBlockBegin
  2
SE2
 70
     0
 10
0.0
 20
0.0
 30
0.0
  3
SE2
  1

  0
LINE
  5
46D
330
46B
100
AcDbEntity
  8
$DDT_AUDIT_GENERATED_(77)
  6
Continuous
 62
     7
100
AcDbLine
 10
45.792296776
 20
128.1861877678
 30
0.0
 11
52.292296776
 21
128.1861877678
 31
0.0
  0
LINE
  5
46E
330
46B
100
AcDbEntity
  8
$DDT_AUDIT_GENERATED_(77)
  6
Continuous
 62
     7
100
AcDbLine
 10
66.292296776
 20
128.1861877678
 30
0.0
 11
72.792296776
 21
128.1861877678
 31
0.0
  0
LINE
  5
46F
330
46B
100
AcDbEntity
  8
$DDT_AUDIT_GENERATED_(77)
  6
Continuous
 62
     7
100
AcDbLine
 10
45.792296776
 20
190.2995240691
 30
0.0
 11
45.792296776
 21
128.1861877678
 31
0.0
  0
LINE
  5
470
330
46B
100
AcDbEntity
  8
$DDT_AUDIT_GENERATED_(77)
  6
Continuous
 62
     7
100
AcDbLine
 10
72.792296776
 20
128.1861877678
 30
0.0
 11
72.792296776
 21
190.3028718186
 31
0.0
  0
ARC
  5
471
330
46B
100
AcDbEntity
  8
$DDT_AUDIT_GENERATED_(77)
  6
Continuous
 62
     7
100
AcDbCircle
 10
77.7761184172
 20
190.3233948887
 30
0.0
 40
4.980163258377805
100
AcDbArc
 50
151.3088597037
 51
180.238319467
  0
ARC
  5
472
330
46B
100
AcDbEntity
  8
$DDT_AUDIT_GENERATED_(77)
  6
Continuous
 62
     7
100
AcDbCircle
 10
40.8054266695
 20
190.3212260678
 30
0.0
 40
4.983767135785891
100
AcDbArc
 50
359.7529402164
 51
28.6642681806
  0
ARC
  5
473
330
46B
100
AcDbEntity
  8
$DDT_AUDIT_GENERATED_(87)
  6
Continuous
 62
     7
100
AcDbCircle
 10
57.5678957241
 20
7.2128743858
 30
0.0
 40
109.6205932366243
100
AcDbArc
 50
92.6924294335
 51
92.7230138565
  0
ARC
  5
474
330
46B
100
AcDbEntity
  8
$DDT_AUDIT_GENERATED_(87)
  6
Continuous
 62
     7
100
AcDbCircle
 10
57.5614896103
 20
7.6081216379
 30
0.0
 40
109.2254963913342
100
AcDbArc
 50
92.701223611
 51
92.7650777225
  0
ARC
  5
475
330
46B
100
AcDbEntity
  8
$DDT_AUDIT_GENERATED_(87)
  6
Continuous
 62
     7
100
AcDbCircle
 10
59.2925539731
 20
214.792425425
 30
0.0
 40
26.9829937103956
100
AcDbArc
 50
269.5527118135
 51
269.9994538668
  0
LINE
  5
476
330
46B
100
AcDbEntity
  8
$DDT_AUDIT_GENERATED_(87)
  6
Continuous
 62
     7
100
AcDbLine
 10
59.0536251022
 20
187.8104902713
 30
0.0
 11
59.0819078212
 21
187.8102539365
 31
0.0
  0
ARC
  5
477
330
46B
100
AcDbEntity
  8
$DDT_AUDIT_GENERATED_(87)
  6
Continuous
 62
     7
100
AcDbCircle
 10
59.6322454583
 20
219.5312644448
 30
0.0
 40
31.72605105659601
100
AcDbArc
 50
256.6232142299
 51
268.9549805418
  0
ARC
  5
478
330
46B
100
AcDbEntity
  8
$DDT_AUDIT_GENERATED_(87)
  6
Continuous
 62
     7
100
AcDbCircle
 10
58.9887281029
 20
219.2577295735
 30
0.0
 40
31.45191384140381
100
AcDbArc
 50
270.9878451577
 51
283.4274243782
  0
LINE
  5
479
330
46B
100
AcDbEntity
  8
$DDT_AUDIT_GENERATED_(87)
  6
Continuous
 62
     7
100
AcDbLine
 10
59.5026842981
 20
187.8102539336
 30
0.0
 11
59.5309697486
 21
187.8104902719
 31
0.0
  0
ARC
  5
47A
330
46B
100
AcDbEntity
  8
$DDT_AUDIT_GENERATED_(87)
  6
Continuous
 62
     7
100
AcDbCircle
 10
59.292152302
 20
214.7635820464
 30
0.0
 40
26.95415033098398
100
AcDbArc
 50
270.0003071049
 51
270.4475272149
  0
ARC
  5
47B
330
46B
100
AcDbEntity
  8
$DDT_AUDIT_GENERATED_(87)
  6
Continuous
 62
     7
100
AcDbCircle
 10
61.0166968788
 20
7.2128159199
 30
0.0
 40
109.6206516804056
100
AcDbArc
 50
87.2415447206
 51
87.307571505
  0
ARC
  5
47C
330
46B
100
AcDbEntity
  8
$DDT_AUDIT_GENERATED_(87)
  6
Continuous
 62
     7
100
AcDbCircle
 10
65.7921702131
 20
116.7064483788
 30
0.0
 40
0.5000786833084662
100
AcDbArc
 50
269.9767098234
 51
0.0
  0
ARC
  5
47D
330
46B
100
AcDbEntity
  8
$DDT_AUDIT_GENERATED_(87)
  6
Continuous
 62
     7
100
AcDbCircle
 10
52.7924233389
 20
116.7064483788
 30
0.0
 40
0.5000786833086303
100
AcDbArc
 50
179.9998552264
 51
270.0232901766
  0
LINE
  5
47E
330
46B
100
AcDbEntity
  8
$DDT_AUDIT_GENERATED_(87)
  6
Continuous
 62
     7
100
AcDbLine
 10
52.792626616
 20
116.2063697368
 30
0.0
 11
65.791966936
 21
116.2063697368
 31
0.0
  0
ARC
  5
47F
330
46B
100
AcDbEntity
  8
$DDT_AUDIT_GENERATED_(87)
  6
Continuous
 62
     7
100
AcDbCircle
 10
70.4436961171
 20
188.154262043
 30
0.0
 40
10.94641867622139
100
AcDbArc
 50
176.5737565663
 51
181.8009048623
  0
ARC
  5
480
330
46B
100
AcDbEntity
  8
$DDT_AUDIT_GENERATED_(87)
  6
Continuous
 62
     7
100
AcDbCircle
 10
59.2922001395
 20
223.0665005557
 30
0.0
 40
34.25924926239807
100
AcDbArc
 50
270.0001616166
 51
270.3875544859
  0
LINE
  5
481
330
46B
100
AcDbEntity
  8
$DDT_AUDIT_GENERATED_(87)
  6
Continuous
 62
     7
100
AcDbLine
 10
59.292296776
 20
187.8094317158
 30
0.0
 11
59.292296776
 21
188.8072512934
 31
0.0
  0
ARC
  5
482
330
46B
100
AcDbEntity
  8
$DDT_AUDIT_GENERATED_(87)
  6
Continuous
 62
     7
100
AcDbCircle
 10
59.2925121398
 20
223.1019047018
 30
0.0
 40
34.29465340904574
100
AcDbArc
 50
269.6126475246
 51
269.9996401936
  0
ARC
  5
483
330
46B
100
AcDbEntity
  8
$DDT_AUDIT_GENERATED_(87)
  6
Continuous
 62
     7
100
AcDbCircle
 10
49.6868862813
 20
188.1093108198
 30
0.0
 40
9.399781498571597
100
AcDbArc
 50
358.1768098129
 51
4.2629616147
  0
LINE
  5
484
330
46B
100
AcDbEntity
  8
$DDT_AUDIT_GENERATED_(87)
  6
Continuous
 62
     7
100
AcDbLine
 10
59.0295466122
 20
188.8082236652
 30
0.0
 11
59.0606621903
 21
188.8080467484
 31
0.0
  0
ARC
  5
485
330
46B
100
AcDbEntity
  8
$DDT_AUDIT_GENERATED_(87)
  6
Continuous
 62
     7
100
AcDbCircle
 10
49.4063767688
 20
188.1547072052
 30
0.0
 40
9.653387297665205
100
AcDbArc
 50
357.9565349778
 51
3.8852488374
  0
ARC
  5
486
330
46B
100
AcDbEntity
  8
$DDT_AUDIT_GENERATED_(87)
  6
Continuous
 62
     7
100
AcDbCircle
 10
59.6460791894
 20
228.8290696842
 30
0.0
 40
40.02555822108054
100
AcDbArc
 50
258.3766003323
 51
269.1174115548
  0
ARC
  5
487
330
46B
100
AcDbEntity
  8
$DDT_AUDIT_GENERATED_(87)
  6
Continuous
 62
     7
100
AcDbCircle
 10
51.2923207982
 20
188.6671489724
 30
0.0
 40
0.9999844934896007
100
AcDbArc
 50
359.9510151028
 51
41.6977773728
  0
ARC
  5
488
330
46B
100
AcDbEntity
  8
$DDT_AUDIT_GENERATED_(87)
  6
Continuous
 62
     7
100
AcDbCircle
 10
51.2923207982
 20
188.6671489724
 30
0.0
 40
0.9999844934896007
100
AcDbArc
 50
41.6977773728
 51
73.1722813198
  0
SPLINE
  5
489
330
46B
100
AcDbEntity
  8
$DDT_AUDIT_GENERATED_(87)
  6
Continuous
 62
     7
100
AcDbSpline
210
0.0
220
0.0
230
1.0
 70
    12
 71
     3
 72
     8
 73
     4
 74
     0
 42
0.0000000073718534
 43
0.0000000001
 40
0.0001737810494943
 40
0.0001737810494943
 40
0.0001737810494943
 40
0.0001737810494943
 40
0.7408855918030284
 40
0.7408855918030284
 40
0.7408855918030284
 40
0.7408855918030284
 10
52.29230410386437
 20
188.6661679000027
 30
0.0
 41
1.063977230445337
 10
52.29154343394111
 20
189.0006485804835
 30
0.0
 41
0.9809873720541282
 10
52.13580663825971
 20
189.2970827153873
 30
0.0
 41
0.9787369800461986
 10
51.85998216176403
 20
189.4879920560898
 30
0.0
 41
1.057226054421548
  0
ARC
  5
48A
330
46B
100
AcDbEntity
  8
$DDT_AUDIT_GENERATED_(87)
  6
Continuous
 62
     7
100
AcDbCircle
 10
67.2878900812
 20
188.6688248258
 30
0.0
 40
0.9956085948015648
100
AcDbArc
 50
163.9339620178
 51
180.1626262058
  0
ARC
  5
48B
330
46B
100
AcDbEntity
  8
$DDT_AUDIT_GENERATED_(87)
  6
Continuous
 62
     7
100
AcDbCircle
 10
58.9697953822
 20
228.6159283542
 30
0.0
 40
39.81196500482215
100
AcDbArc
 50
270.8423025016
 51
281.6417347038
  0
ARC
  5
48C
330
46B
100
AcDbEntity
  8
$DDT_AUDIT_GENERATED_(87)
  6
Continuous
 62
     7
100
AcDbCircle
 10
68.2259436141
 20
188.0998293568
 30
0.0
 40
8.699787972592455
100
AcDbArc
 50
175.3291523309
 51
181.9059046234
  0
LINE
  5
48D
330
46B
100
AcDbEntity
  8
$DDT_AUDIT_GENERATED_(87)
  6
Continuous
 62
     7
100
AcDbLine
 10
59.5239318546
 20
188.8079985731
 30
0.0
 11
59.5550465238
 21
188.8082718388
 31
0.0
  0
ARC
  5
48E
330
46B
100
AcDbEntity
  8
$DDT_AUDIT_GENERATED_(87)
  6
Continuous
 62
     7
100
AcDbCircle
 10
114.6798334916
 20
189.5730106481
 30
0.0
 40
55.16120666534172
100
AcDbArc
 50
180.3271999935
 51
180.7946033528
  0
ARC
  5
48F
330
46B
100
AcDbEntity
  8
$DDT_AUDIT_GENERATED_(87)
  6
Continuous
 62
     7
100
AcDbCircle
 10
3.9106587678
 20
189.5729326201
 30
0.0
 40
55.15530760665335
100
AcDbArc
 50
359.2053927114
 51
359.6728454395
  0
ARC
  5
490
330
46B
100
AcDbEntity
  8
$DDT_AUDIT_GENERATED_(87)
  6
Continuous
 62
     7
100
AcDbCircle
 10
59.6417580692
 20
216.1112869417
 30
0.0
 40
27.40531007352849
100
AcDbArc
 50
216.1307600729
 51
223.7150283787
  0
LINE
  5
491
330
46B
100
AcDbEntity
  8
$DDT_AUDIT_GENERATED_(87)
  6
Continuous
 62
     7
100
AcDbLine
 10
37.5071788998
 20
199.9522659869
 30
0.0
 11
37.5072167633
 21
199.9522924991
 31
0.0
  0
LINE
  5
492
330
46B
100
AcDbEntity
  8
$DDT_AUDIT_GENERATED_(87)
  6
Continuous
 62
     7
100
AcDbLine
 10
81.0774142148
 20
199.9522662884
 30
0.0
 11
81.0773767865
 21
199.9522924959
 31
0.0
  0
ARC
  5
493
330
46B
100
AcDbEntity
  8
$DDT_AUDIT_GENERATED_(87)
  6
Continuous
 62
     7
100
AcDbCircle
 10
58.9433401444
 20
216.1103195315
 30
0.0
 40
27.4043321918231
100
AcDbArc
 50
316.2857930227
 51
323.8702514135
  0
ARC
  5
494
330
46B
100
AcDbEntity
  8
$DDT_AUDIT_GENERATED_(87)
  6
Continuous
 62
     7
100
AcDbCircle
 10
59.292296776
 20
215.2063697392
 30
0.0
 40
26.59467209065
100
AcDbArc
 50
324.9999999985
 51
215.0
  0
LINE
  5
495
330
46B
100
AcDbEntity
  8
$DDT_AUDIT_GENERATED_(87)
  6
Continuous
 62
     7
100
AcDbLine
 10
59.5127551128
 20
190.0267447106
 30
0.0
 11
59.5195262905
 21
189.2580023087
 31
0.0
  0
LINE
  5
496
330
46B
100
AcDbEntity
  8
$DDT_AUDIT_GENERATED_(87)
  6
Continuous
 62
     7
100
AcDbLine
 10
59.292296776
 20
190.0257775926
 30
0.0
 11
59.2922967759
 21
189.2570010859
 31
0.0
  0
ARC
  5
497
330
46B
100
AcDbEntity
  8
$DDT_AUDIT_GENERATED_(87)
  6
Continuous
 62
     7
100
AcDbCircle
 10
-476.5688411077
 20
194.3602203567
 30
0.0
 40
535.6582085848869
100
AcDbArc
 50
359.4542415089
 51
359.5364720122
  0
LINE
  5
498
330
46B
100
AcDbEntity
  8
$DDT_AUDIT_GENERATED_(87)
  6
Continuous
 62
     7
100
AcDbLine
 10
52.292296776
 20
188.6658683151
 30
0.0
 11
52.292296776
 21
116.7039496424
 31
0.0
  0
LINE
  5
499
330
46B
100
AcDbEntity
  8
$DDT_AUDIT_GENERATED_(87)
  6
Continuous
 62
     7
100
AcDbLine
 10
66.292296776
 20
116.7039496424
 30
0.0
 11
66.292296776
 21
188.6655841227
 31
0.0
  0
SPLINE
  5
49A
330
46B
100
AcDbEntity
  8
$DDT_AUDIT_GENERATED_(87)
  6
Continuous
 62
     7
100
AcDbSpline
210
0.0
220
0.0
230
1.0
 70
     8
 71
     3
 72
     8
 73
     4
 74
     0
 42
0.0000000320787446
 43
0.0000000001
 40
0.0
 40
0.0
 40
0.0
 40
0.0
 40
1.0
 40
1.0
 40
1.0
 40
1.0
 10
66.22387041972385
 20
116.4632309667726
 30
0.0
 10
66.27337935685543
 20
116.548872977901
 30
0.0
 10
66.25528399229802
 20
116.6362273143598
 30
0.0
 10
66.16958432605166
 20
116.7252939761488
 30
0.0
  0
SPLINE
  5
49B
330
46B
100
AcDbEntity
  8
$DDT_AUDIT_GENERATED_(87)
  6
Continuous
 62
     7
100
AcDbSpline
210
0.0
220
0.0
230
1.0
 70
     8
 71
     3
 72
     8
 73
     4
 74
     0
 42
0.00000003099723
 43
0.0000000001
 40
0.0
 40
0.0
 40
0.0
 40
0.0
 40
1.0
 40
1.0
 40
1.0
 40
1.0
 10
52.41969809354834
 20
116.7338851646011
 30
0.0
 10
52.32981016323622
 20
116.6389884824658
 30
0.0
 10
52.3101919024483
 20
116.5487105716316
 30
0.0
 10
52.36084331118456
 20
116.4630514320984
 30
0.0
  0
ARC
  5
49C
330
46B
100
AcDbEntity
  8
$DDT_AUDIT_GENERATED_(87)
  6
Continuous
 62
     7
100
AcDbCircle
 10
51.2650602377
 20
188.6247097138
 30
0.0
 40
1.04834442748955
100
AcDbArc
 50
42.4388471658
 51
72.7580882823
  0
SPLINE
  5
49D
330
46B
100
AcDbEntity
  8
$DDT_AUDIT_GENERATED_(87)
  6
Continuous
 62
     7
100
AcDbSpline
210
0.0
220
0.0
230
1.0
 70
     8
 71
     3
 72
     8
 73
     4
 74
     0
 42
0.0000000158886238
 43
0.0000000001
 40
0.0
 40
0.0
 40
0.0
 40
0.0
 40
0.0323015413281849
 40
0.0323015413281849
 40
0.0323015413281849
 40
0.0323015413281849
 10
51.85891205183365
 20
189.4864577342612
 30
0.0
 10
51.86463989735022
 20
189.4826405216319
 30
0.0
 10
51.87025470777297
 20
189.4788760004091
 30
0.0
 10
51.87579368547352
 20
189.4751300977246
 30
0.0
  0
ARC
  5
49E
330
46B
100
AcDbEntity
  8
$DDT_AUDIT_GENERATED_(87)
  6
Continuous
 62
     7
100
AcDbCircle
 10
67.2857215522
 20
188.6783534132
 30
0.0
 40
0.9872255997291294
100
AcDbArc
 50
106.279393728
 51
164.4451365388
  0
ARC
  5
49F
330
46B
100
AcDbEntity
  8
$DDT_AUDIT_GENERATED_(87)
  6
Continuous
 62
     7
100
AcDbCircle
 10
59.3939689979
 20
214.9960914692
 30
0.0
 40
26.37501765402442
100
AcDbArc
 50
283.860994889
 51
304.2728039498
  0
ARC
  5
4A0
330
46B
100
AcDbEntity
  8
$DDT_AUDIT_GENERATED_(87)
  6
Continuous
 62
     7
100
AcDbCircle
 10
59.2028174646
 20
215.022929147
 30
0.0
 40
26.40406211098525
100
AcDbArc
 50
235.7381270767
 51
256.1213331503
  0
ARC
  5
4A1
330
46B
100
AcDbEntity
  8
$DDT_AUDIT_GENERATED_(87)
  6
Continuous
 62
     7
100
AcDbCircle
 10
64.2439367903
 20
220.4951983453
 30
0.0
 40
33.77934525100697
100
AcDbArc
 50
223.6950030435
 51
234.8044526767
  0
ARC
  5
4A2
330
46B
100
AcDbEntity
  8
$DDT_AUDIT_GENERATED_(87)
  6
Continuous
 62
     7
100
AcDbCircle
 10
54.3198646142
 20
220.5191793024
 30
0.0
 40
33.81094565817558
100
AcDbArc
 50
305.2009203337
 51
316.3000186351
  0
LINE
  5
4A3
330
46B
100
AcDbEntity
  8
$DDT_AUDIT_GENERATED_(446)
  6
Continuous
 62
     7
100
AcDbLine
 10
57.292296776
 20
263.5094374116
 30
0.0
 11
61.292296776
 21
263.5094374116
 31
0.0
  0
LINE
  5
4A4
330
46B
100
AcDbEntity
  8
$DDT_AUDIT_GENERATED_(446)
  6
Continuous
 62
     7
100
AcDbLine
 10
61.292296776
 20
250.0594374116
 30
0.0
 11
61.292296776
 21
263.5094374116
 31
0.0
  0
LINE
  5
4A5
330
46B
100
AcDbEntity
  8
$DDT_AUDIT_GENERATED_(446)
  6
Continuous
 62
     7
100
AcDbLine
 10
57.292296776
 20
263.5094374116
 30
0.0
 11
57.292296776
 21
250.0594374116
 31
0.0
  0
LINE
  5
4A6
330
46B
100
AcDbEntity
  8
$DDT_AUDIT_GENERATED_(446)
  6
Continuous
 62
     7
100
AcDbLine
 10
57.292296776
 20
250.0594374116
 30
0.0
 11
57.292296776
 21
247.2062678627
 31
0.0
  0
LINE
  5
4A7
330
46B
100
AcDbEntity
  8
$DDT_AUDIT_GENERATED_(446)
  6
Continuous
 62
     7
100
AcDbLine
 10
61.292296776
 20
247.2062678627
 30
0.0
 11
61.292296776
 21
250.0594374116
 31
0.0
  0
LINE
  5
4A8
330
46B
100
AcDbEntity
  8
$DDT_AUDIT_GENERATED_(446)
  6
Continuous
 62
     7
100
AcDbLine
 10
61.292296776
 20
241.7257321676
 30
0.0
 11
61.292296776
 21
247.2062678627
 31
0.0
  0
LINE
  5
4A9
330
46B
100
AcDbEntity
  8
$DDT_AUDIT_GENERATED_(446)
  6
Continuous
 62
     7
100
AcDbLine
 10
57.292296776
 20
247.2062678627
 30
0.0
 11
57.292296776
 21
241.7257321676
 31
0.0
  0
LINE
  5
4AA
330
46B
100
AcDbEntity
  8
04352_GEH_USE_00
  6
Continuous
 62
     7
100
AcDbLine
 10
46.542296776
 20
113.55
 30
0.0
 11
72.042296776
 21
113.55
 31
0.0
  0
LINE
  5
4AB
330
46B
100
AcDbEntity
  8
04352_GEH_USE_00
  6
Continuous
 62
     7
100
AcDbLine
 10
48.017296776
 20
123.025
 30
0.0
 11
52.292296776
 21
123.025
 31
0.0
  0
LINE
  5
4AC
330
46B
100
AcDbEntity
  8
04352_GEH_USE_00
  6
Continuous
 62
     7
100
AcDbLine
 10
66.292296776
 20
123.025
 30
0.0
 11
70.567296776
 21
123.025
 31
0.0
  0
LINE
  5
4AD
330
46B
100
AcDbEntity
  8
04352_GEH_USE_00
  6
Continuous
 62
     7
100
AcDbLine
 10
46.542296776
 20
119.55
 30
0.0
 11
47.292296776
 21
119.55
 31
0.0
  0
LINE
  5
4AE
330
46B
100
AcDbEntity
  8
04352_GEH_USE_00
  6
Continuous
 62
     7
100
AcDbLine
 10
47.292296776
 20
119.55
 30
0.0
 11
47.292296776
 21
121.55
 31
0.0
  0
LINE
  5
4AF
330
46B
100
AcDbEntity
  8
04352_GEH_USE_00
  6
Continuous
 62
     7
100
AcDbLine
 10
47.292296776
 20
121.55
 30
0.0
 11
47.292296776
 21
122.2999998367
 31
0.0
  0
LINE
  5
4B0
330
46B
100
AcDbEntity
  8
04352_GEH_USE_00
  6
Continuous
 62
     7
100
AcDbLine
 10
71.292296776
 20
121.55
 30
0.0
 11
66.292296776
 21
121.55
 31
0.0
  0
LINE
  5
4B1
330
46B
100
AcDbEntity
  8
04352_GEH_USE_00
  6
Continuous
 62
     7
100
AcDbLine
 10
52.292296776
 20
121.55
 30
0.0
 11
47.292296776
 21
121.55
 31
0.0
  0
LINE
  5
4B2
330
46B
100
AcDbEntity
  8
04352_GEH_USE_00
  6
Continuous
 62
     7
100
AcDbLine
 10
71.292296776
 20
119.55
 30
0.0
 11
72.042296776
 21
119.55
 31
0.0
  0
LINE
  5
4B3
330
46B
100
AcDbEntity
  8
04352_GEH_USE_00
  6
Continuous
 62
     7
100
AcDbLine
 10
71.292296776
 20
121.55
 30
0.0
 11
71.292296776
 21
119.55
 31
0.0
  0
LINE
  5
4B4
330
46B
100
AcDbEntity
  8
04352_GEH_USE_00
  6
Continuous
 62
     7
100
AcDbLine
 10
71.292296776
 20
121.55
 30
0.0
 11
71.292296776
 21
122.2999998367
 31
0.0
  0
LINE
  5
4B5
330
46B
100
AcDbEntity
  8
04352_GEH_USE_00
  6
Continuous
 62
     7
100
AcDbLine
 10
72.042296776
 20
113.55
 30
0.0
 11
72.042296776
 21
119.55
 31
0.0
  0
LINE
  5
4B6
330
46B
100
AcDbEntity
  8
04352_GEH_USE_00
  6
Continuous
 62
     7
100
AcDbLine
 10
46.542296776
 20
119.55
 30
0.0
 11
46.542296776
 21
113.55
 31
0.0
  0
LINE
  5
4B7
330
46B
100
AcDbEntity
  8
04352_GEH_USE_00
  6
Continuous
 62
     7
100
AcDbLine
 10
71.292296776
 20
122.3
 30
0.0
 11
70.567296776
 21
123.025
 31
0.0
  0
LINE
  5
4B8
330
46B
100
AcDbEntity
  8
04352_GEH_USE_00
  6
Continuous
 62
     7
100
AcDbLine
 10
48.017296776
 20
123.025
 30
0.0
 11
47.292296776
 21
122.3
 31
0.0
  0
LINE
  5
4B9
330
46B
100
AcDbEntity
  8
04352_GEH_USE_00
  6
Continuous
 62
     7
100
AcDbLine
 10
70.567296776
 20
123.025
 30
0.0
 11
70.567296776
 21
128.1861877678
 31
0.0
  0
LINE
  5
4BA
330
46B
100
AcDbEntity
  8
04352_GEH_USE_00
  6
Continuous
 62
     7
100
AcDbLine
 10
48.017296776
 20
128.1861877678
 30
0.0
 11
48.017296776
 21
123.025
 31
0.0
  0
LINE
  5
4BB
330
46B
100
AcDbEntity
  8
02636038_GEHÄUSE
  6
Continuous
 62
     7
100
AcDbLine
 10
70.042296776
 20
106.35
 30
0.0
 11
48.542296776
 21
106.35
 31
0.0
  0
LINE
  5
4BC
330
46B
100
AcDbEntity
  8
02636038_GEHÄUSE
  6
Continuous
 62
     7
100
AcDbLine
 10
70.292296776
 20
106.6675426481
 30
0.0
 11
70.292296776
 21
106.4943375686
 31
0.0
  0
LINE
  5
4BD
330
46B
100
AcDbEntity
  8
02636038_GEHÄUSE
  6
Continuous
 62
     7
100
AcDbLine
 10
71.092296776
 20
109.35
 30
0.0
 11
70.292296776
 21
109.35
 31
0.0
  0
LINE
  5
4BE
330
46B
100
AcDbEntity
  8
02636038_GEHÄUSE
  6
Continuous
 62
     7
100
AcDbLine
 10
70.292296776
 20
106.6675426481
 30
0.0
 11
70.292296776
 21
107.5335680518
 31
0.0
  0
LINE
  5
4BF
330
46B
100
AcDbEntity
  8
02636038_GEHÄUSE
  6
Continuous
 62
     7
100
AcDbLine
 10
70.292296776
 20
107.5335680518
 30
0.0
 11
70.292296776
 21
109.35
 31
0.0
  0
LINE
  5
4C0
330
46B
100
AcDbEntity
  8
02636038_GEHÄUSE
  6
Continuous
 62
     7
100
AcDbLine
 10
48.292296776
 20
106.6675426481
 30
0.0
 11
48.292296776
 21
106.4943375686
 31
0.0
  0
LINE
  5
4C1
330
46B
100
AcDbEntity
  8
02636038_GEHÄUSE
  6
Continuous
 62
     7
100
AcDbLine
 10
47.492296776
 20
109.35
 30
0.0
 11
48.292296776
 21
109.35
 31
0.0
  0
LINE
  5
4C2
330
46B
100
AcDbEntity
  8
02636038_GEHÄUSE
  6
Continuous
 62
     7
100
AcDbLine
 10
48.292296776
 20
109.35
 30
0.0
 11
48.292296776
 21
107.5335680518
 31
0.0
  0
LINE
  5
4C3
330
46B
100
AcDbEntity
  8
02636038_GEHÄUSE
  6
Continuous
 62
     7
100
AcDbLine
 10
48.292296776
 20
107.5335680518
 30
0.0
 11
48.292296776
 21
106.6675426481
 31
0.0
  0
LINE
  5
4C4
330
46B
100
AcDbEntity
  8
02636038_GEHÄUSE
  6
Continuous
 62
     7
100
AcDbLine
 10
48.292296776
 20
106.4943375673
 30
0.0
 11
48.542296776
 21
106.35
 31
0.0
  0
LINE
  5
4C5
330
46B
100
AcDbEntity
  8
02636038_GEHÄUSE
  6
Continuous
 62
     7
100
AcDbLine
 10
70.042296776
 20
106.35
 30
0.0
 11
70.292296776
 21
106.4943375673
 31
0.0
  0
LINE
  5
4C6
330
46B
100
AcDbEntity
  8
02636038_GEHÄUSE
  6
Continuous
 62
     7
100
AcDbLine
 10
47.492296776
 20
113.55
 30
0.0
 11
47.492296776
 21
109.35
 31
0.0
  0
LINE
  5
4C7
330
46B
100
AcDbEntity
  8
02636038_GEHÄUSE
  6
Continuous
 62
     7
100
AcDbLine
 10
71.092296776
 20
109.35
 30
0.0
 11
71.092296776
 21
113.55
 31
0.0
  0
ENDBLK
  5
4C9
330
46B
100
AcDbEntity
  8
0
100
AcDbBlockEnd
  0
ENDSEC
  0
SECTION
  2
ENTITIES
  0
INSERT
  5
5F
330
1F
100
AcDbEntity
  8
Default
100
AcDbBlockReference
  2
SEANNOT_GROUP
 10
0.0
 20
0.0
 30
0.0
  0
INSERT
  5
66
330
1F
100
AcDbEntity
  8
Default
100
AcDbBlockReference
  2
SEANNOT_GROUP1
 10
0.0
 20
0.0
 30
0.0
  0
INSERT
  5
6C
330
1F
100
AcDbEntity
  8
Default
100
AcDbBlockReference
  2
SEANNOT_GROUP2
 10
0.0
 20
0.0
 30
0.0
  0
INSERT
  5
76
330
1F
100
AcDbEntity
  8
Default
100
AcDbBlockReference
  2
SE
 10
0.0
 20
0.0
 30
0.0
  0
INSERT
  5
3FE
330
1F
100
AcDbEntity
  8
Default
100
AcDbBlockReference
  2
SE1
 10
0.0
 20
0.0
 30
0.0
  0
INSERT
  5
46C
330
1F
100
AcDbEntity
  8
Default
100
AcDbBlockReference
  2
SE2
 10
0.0
 20
0.0
 30
0.0
  0
TEXT
  5
4CB
330
1F
100
AcDbEntity
  8
Default
  6
Continuous
 62
     7
100
AcDbText
 10
5.9362635081
 20
53.4225120485
 30
0.0
 40
10.0
  1
Grohe AG^J
  7
SEACAD_seiso_ttf
 11
5.9362635081
 21
63.4225120485
 31
0.0
100
AcDbText
 73
     3
  0
TEXT
  5
4CC
330
1F
100
AcDbEntity
  8
Default
  6
Continuous
 62
     7
100
AcDbText
 10
5.9362635081
 20
37.0588756849
 30
0.0
 40
10.0
  1
 
  7
SEACAD_seiso_ttf
 11
5.9362635081
 21
47.0588756849
 31
0.0
100
AcDbText
 73
     3
  0
TEXT
  5
4CD
330
1F
100
AcDbEntity
  8
Default
  6
Continuous
 62
     7
100
AcDbText
 10
5.9362635081
 20
20.6952393213
 30
0.0
 40
10.0
  1
ecn: 
  7
SEACAD_seiso_ttf
 11
5.9362635081
 21
30.6952393213
 31
0.0
100
AcDbText
 73
     3
  0
TEXT
  5
4CE
330
1F
100
AcDbEntity
  8
Default
  6
Continuous
 62
     7
100
AcDbText
 10
5.9362635081
 20
4.3316029576
 30
0.0
 40
10.0
  1
unit: mm
  7
SEACAD_seiso_ttf
 11
5.9362635081
 21
14.3316029576
 31
0.0
100
AcDbText
 73
     3
  0
LINE
  5
4CF
330
1F
100
AcDbEntity
  8
Default
  6
Continuous
 62
     7
100
AcDbLine
 10
0.0
 20
0.0
 30
0.0
 11
100.0
 21
0.0
 31
0.0
  0
LINE
  5
4D0
330
1F
100
AcDbEntity
  8
Default
  6
Continuous
 62
     7
100
AcDbLine
 10
0.0
 20
0.0
 30
0.0
 11
0.0
 21
100.0
 31
0.0
  0
TEXT
  5
4D1
330
1F
100
AcDbEntity
  8
Default
  6
Continuous
 62
     7
100
AcDbText
 10
24.3923665681
 20
-18.2375342018
 30
0.0
 40
10.0
  1
100 mm
  7
SEACAD_seiso_ttf
 11
24.3923665681
 21
-8.2375342018
 31
0.0
100
AcDbText
 73
     3
  0
TEXT
  5
4D2
330
1F
100
AcDbEntity
  8
Default
  6
Continuous
 62
     7
100
AcDbText
 10
-7.6150308803
 20
24.6231930421
 30
0.0
 40
10.0
  1
100 mm
 50
90.0
  7
SEACAD_seiso_ttf
 11
-17.6150308803
 21
24.6231930421
 31
0.0
100
AcDbText
 73
     3
  0
TEXT
  5
4D3
330
1F
100
AcDbEntity
  8
Default
  6
Continuous
 62
     7
100
AcDbText
 10
28.4878128572
 20
20.0907663715
 30
0.0
 40
10.0
  1
212686
  7
SEACAD_seiso_ttf
 11
28.4878128572
 21
30.0907663715
 31
0.0
100
AcDbText
 73
     3
  0
TEXT
  5
4D4
330
1F
100
AcDbEntity
  8
Default
  6
Continuous
 62
     7
100
AcDbText
 10
5.9012241913
 20
36.7242780188
 30
0.0
 40
10.0
  1
33603000
  7
SEACAD_seiso_ttf
 11
5.9012241913
 21
46.7242780188
 31
0.0
100
AcDbText
 73
     3
  0
ENDSEC
  0
SECTION
  2
OBJECTS
  0
DICTIONARY
  5
C
330
0
100
AcDbDictionary
281
     1
  3
ACAD_GROUP
350
D
  3
ACAD_LAYOUT
350
1A
  3
ACAD_MLEADERSTYLE
350
4D8
  3
ACAD_MLINESTYLE
350
17
  3
ACAD_PLOTSETTINGS
350
19
  3
ACAD_PLOTSTYLENAME
350
E
  3
ACAD_SCALELIST
350
3B
  3
ACAD_TABLESTYLE
350
4D7
  3
ACAD_VISUALSTYLE
350
2A
  3
AcDbVariableDictionary
350
4D5
  0
DICTIONARY
  5
D
102
{ACAD_REACTORS
330
C
102
}
330
C
100
AcDbDictionary
281
     1
  0
DICTIONARY
  5
1A
102
{ACAD_REACTORS
330
C
102
}
330
C
100
AcDbDictionary
281
     1
  3
Layout1
350
1E
  3
Model
350
22
  0
DICTIONARY
  5
4D8
102
{ACAD_REACTORS
330
C
102
}
330
C
100
AcDbDictionary
281
     1
  0
DICTIONARY
  5
17
102
{ACAD_REACTORS
330
C
102
}
330
C
100
AcDbDictionary
281
     1
  3
Standard
350
18
  0
DICTIONARY
  5
19
102
{ACAD_REACTORS
330
C
102
}
330
C
100
AcDbDictionary
281
     1
  0
ACDBDICTIONARYWDFLT
  5
E
102
{ACAD_REACTORS
330
C
102
}
330
C
100
AcDbDictionary
281
     1
  3
Normal
350
F
100
AcDbDictionaryWithDefault
340
F
  0
DICTIONARY
  5
3B
102
{ACAD_REACTORS
330
C
102
}
330
C
100
AcDbDictionary
281
     1
  3
A0
350
3C
  3
A1
350
3D
  3
A2
350
3E
  3
A3
350
3F
  3
A4
350
40
  3
A5
350
41
  3
A6
350
42
  3
A7
350
43
  3
A8
350
44
  3
A9
350
45
  3
B0
350
46
  3
B1
350
47
  3
B2
350
48
  3
B3
350
49
  3
B4
350
4A
  3
B5
350
4B
  3
B6
350
4C
  3
B7
350
4D
  3
B8
350
4E
  3
B9
350
4F
  3
C0
350
50
  3
C1
350
51
  3
C2
350
52
  3
C3
350
53
  3
C4
350
54
  3
C5
350
55
  3
C6
350
56
  3
C7
350
57
  3
C8
350
58
  3
C9
350
59
  3
D0
350
5A
  3
D1
350
5B
  3
D2
350
5C
  0
DICTIONARY
  5
4D7
102
{ACAD_REACTORS
330
C
102
}
330
C
100
AcDbDictionary
281
     1
  0
DICTIONARY
  5
2A
102
{ACAD_REACTORS
330
C
102
}
330
C
100
AcDbDictionary
281
     1
  3
2dWireframe
350
2F
  3
3D Hidden
350
31
  3
3dWireframe
350
30
  3
Basic
350
32
  3
Brighten
350
36
  3
ColorChange
350
3A
  3
Conceptual
350
34
  3
Dim
350
35
  3
Facepattern
350
39
  3
Flat
350
2B
  3
FlatWithEdges
350
2C
  3
Gouraud
350
2D
  3
GouraudWithEdges
350
2E
  3
Linepattern
350
38
  3
Realistic
350
33
  3
Thicken
350
37
  0
DICTIONARY
  5
4D5
102
{ACAD_REACTORS
330
C
102
}
330
C
100
AcDbDictionary
281
     1
  3
CANNOSCALE
350
4D6
  3
PSOLHEIGHT
350
4DA
  3
PSOLWIDTH
350
4D9
  0
LAYOUT
  5
1E
102
{ACAD_REACTORS
330
1A
102
}
330
1A
100
AcDbPlotSettings
  1

  2
none_device
  4

  6

 40
0.0
 41
0.0
 42
0.0
 43
0.0
 44
0.0
 45
0.0
 46
0.0
 47
0.0
 48
0.0
 49
0.0
140
0.0
141
0.0
142
1.0
143
1.0
 70
   688
 72
     0
 73
     0
 74
     5
  7

 75
    16
147
1.0
148
0.0
149
0.0
100
AcDbLayout
  1
Layout1
 70
     1
 71
     1
 10
0.0
 20
0.0
 11
1682.0
 21
2378.0
 12
0.0
 22
0.0
 32
0.0
 14
0.0
 24
0.0
 34
0.0
 15
1682.0
 25
2378.0
 35
0.0
146
0.0
 13
0.0
 23
0.0
 33
0.0
 16
1.0
 26
0.0
 36
0.0
 17
0.0
 27
1.0
 37
0.0
 76
     0
330
1B
  0
LAYOUT
  5
22
102
{ACAD_REACTORS
330
1A
102
}
330
1A
100
AcDbPlotSettings
  1

  2
none_device
  4

  6

 40
0.0
 41
0.0
 42
0.0
 43
0.0
 44
0.0
 45
0.0
 46
0.0
 47
0.0
 48
0.0
 49
0.0
140
0.0
141
0.0
142
1.0
143
1.0
 70
  1712
 72
     0
 73
     0
 74
     0
  7

 75
     0
147
1.0
148
0.0
149
0.0
100
AcDbLayout
  1
Model
 70
     1
 71
     0
 10
0.0
 20
0.0
 11
1682.0
 21
2378.0
 12
0.0
 22
0.0
 32
0.0
 14
0.0
 24
0.0
 34
0.0
 15
1682.0
 25
2378.0
 35
0.0
146
0.0
 13
0.0
 23
0.0
 33
0.0
 16
1.0
 26
0.0
 36
0.0
 17
0.0
 27
1.0
 37
0.0
 76
     0
330
1F
331
29
  0
MLINESTYLE
  5
18
102
{ACAD_REACTORS
330
17
102
}
330
17
100
AcDbMlineStyle
  2
Standard
 70
     0
  3

 62
   256
 51
90.0
 52
90.0
 71
     2
 49
0.5
 62
   256
  6
BYLAYER
 49
-0.5
 62
   256
  6
BYLAYER
  0
ACDBPLACEHOLDER
  5
F
102
{ACAD_REACTORS
330
E
102
}
330
E
  0
SCALE
  5
3C
102
{ACAD_REACTORS
330
3B
102
}
330
3B
100
AcDbScale
 70
     0
300
1:1
140
1.0
141
1.0
290
     1
  0
SCALE
  5
3D
102
{ACAD_REACTORS
330
3B
102
}
330
3B
100
AcDbScale
 70
     0
300
1:2
140
1.0
141
2.0
290
     0
  0
SCALE
  5
3E
102
{ACAD_REACTORS
330
3B
102
}
330
3B
100
AcDbScale
 70
     0
300
1:4
140
1.0
141
4.0
290
     0
  0
SCALE
  5
3F
102
{ACAD_REACTORS
330
3B
102
}
330
3B
100
AcDbScale
 70
     0
300
1:5
140
1.0
141
5.0
290
     0
  0
SCALE
  5
40
102
{ACAD_REACTORS
330
3B
102
}
330
3B
100
AcDbScale
 70
     0
300
1:8
140
1.0
141
8.0
290
     0
  0
SCALE
  5
41
102
{ACAD_REACTORS
330
3B
102
}
330
3B
100
AcDbScale
 70
     0
300
1:10
140
1.0
141
10.0
290
     0
  0
SCALE
  5
42
102
{ACAD_REACTORS
330
3B
102
}
330
3B
100
AcDbScale
 70
     0
300
1:16
140
1.0
141
16.0
290
     0
  0
SCALE
  5
43
102
{ACAD_REACTORS
330
3B
102
}
330
3B
100
AcDbScale
 70
     0
300
1:20
140
1.0
141
20.0
290
     0
  0
SCALE
  5
44
102
{ACAD_REACTORS
330
3B
102
}
330
3B
100
AcDbScale
 70
     0
300
1:30
140
1.0
141
30.0
290
     0
  0
SCALE
  5
45
102
{ACAD_REACTORS
330
3B
102
}
330
3B
100
AcDbScale
 70
     0
300
1:40
140
1.0
141
40.0
290
     0
  0
SCALE
  5
46
102
{ACAD_REACTORS
330
3B
102
}
330
3B
100
AcDbScale
 70
     0
300
1:50
140
1.0
141
50.0
290
     0
  0
SCALE
  5
47
102
{ACAD_REACTORS
330
3B
102
}
330
3B
100
AcDbScale
 70
     0
300
1:100
140
1.0
141
100.0
290
     0
  0
SCALE
  5
48
102
{ACAD_REACTORS
330
3B
102
}
330
3B
100
AcDbScale
 70
     0
300
2:1
140
2.0
141
1.0
290
     0
  0
SCALE
  5
49
102
{ACAD_REACTORS
330
3B
102
}
330
3B
100
AcDbScale
 70
     0
300
4:1
140
4.0
141
1.0
290
     0
  0
SCALE
  5
4A
102
{ACAD_REACTORS
330
3B
102
}
330
3B
100
AcDbScale
 70
     0
300
8:1
140
8.0
141
1.0
290
     0
  0
SCALE
  5
4B
102
{ACAD_REACTORS
330
3B
102
}
330
3B
100
AcDbScale
 70
     0
300
10:1
140
10.0
141
1.0
290
     0
  0
SCALE
  5
4C
102
{ACAD_REACTORS
330
3B
102
}
330
3B
100
AcDbScale
 70
     0
300
100:1
140
100.0
141
1.0
290
     0
  0
SCALE
  5
4D
102
{ACAD_REACTORS
330
3B
102
}
330
3B
100
AcDbScale
 70
     0
300
1/128" = 1'-0"
140
0.0078125
141
12.0
290
     0
  0
SCALE
  5
4E
102
{ACAD_REACTORS
330
3B
102
}
330
3B
100
AcDbScale
 70
     0
300
1/64" = 1'-0"
140
0.015625
141
12.0
290
     0
  0
SCALE
  5
4F
102
{ACAD_REACTORS
330
3B
102
}
330
3B
100
AcDbScale
 70
     0
300
1/32" = 1'-0"
140
0.03125
141
12.0
290
     0
  0
SCALE
  5
50
102
{ACAD_REACTORS
330
3B
102
}
330
3B
100
AcDbScale
 70
     0
300
1/16" = 1'-0"
140
0.0625
141
12.0
290
     0
  0
SCALE
  5
51
102
{ACAD_REACTORS
330
3B
102
}
330
3B
100
AcDbScale
 70
     0
300
3/32" = 1'-0"
140
0.09375
141
12.0
290
     0
  0
SCALE
  5
52
102
{ACAD_REACTORS
330
3B
102
}
330
3B
100
AcDbScale
 70
     0
300
1/8" = 1'-0"
140
0.125
141
12.0
290
     0
  0
SCALE
  5
53
102
{ACAD_REACTORS
330
3B
102
}
330
3B
100
AcDbScale
 70
     0
300
3/16" = 1'-0"
140
0.1875
141
12.0
290
     0
  0
SCALE
  5
54
102
{ACAD_REACTORS
330
3B
102
}
330
3B
100
AcDbScale
 70
     0
300
1/4" = 1'-0"
140
0.25
141
12.0
290
     0
  0
SCALE
  5
55
102
{ACAD_REACTORS
330
3B
102
}
330
3B
100
AcDbScale
 70
     0
300
3/8" = 1'-0"
140
0.375
141
12.0
290
     0
  0
SCALE
  5
56
102
{ACAD_REACTORS
330
3B
102
}
330
3B
100
AcDbScale
 70
     0
300
1/2" = 1'-0"
140
0.5
141
12.0
290
     0
  0
SCALE
  5
57
102
{ACAD_REACTORS
330
3B
102
}
330
3B
100
AcDbScale
 70
     0
300
3/4" = 1'-0"
140
0.75
141
12.0
290
     0
  0
SCALE
  5
58
102
{ACAD_REACTORS
330
3B
102
}
330
3B
100
AcDbScale
 70
     0
300
1" = 1'-0"
140
1.0
141
12.0
290
     0
  0
SCALE
  5
59
102
{ACAD_REACTORS
330
3B
102
}
330
3B
100
AcDbScale
 70
     0
300
1-1/2" = 1'-0"
140
1.5
141
12.0
290
     0
  0
SCALE
  5
5A
102
{ACAD_REACTORS
330
3B
102
}
330
3B
100
AcDbScale
 70
     0
300
3" = 1'-0"
140
3.0
141
12.0
290
     0
  0
SCALE
  5
5B
102
{ACAD_REACTORS
330
3B
102
}
330
3B
100
AcDbScale
 70
     0
300
6" = 1'-0"
140
6.0
141
12.0
290
     0
  0
SCALE
  5
5C
102
{ACAD_REACTORS
330
3B
102
}
330
3B
100
AcDbScale
 70
     0
300
1'-0" = 1'-0"
140
12.0
141
12.0
290
     0
  0
VISUALSTYLE
  5
2F
102
{ACAD_REACTORS
330
2A
102
}
330
2A
100
AcDbVisualStyle
  2
2dWireframe
 70
     4
 71
     0
 72
     2
 73
     0
 90
        0
 40
-0.6
 41
-30.0
 62
     5
 63
     7
 74
     1
 91
        4
 64
     7
 65
   257
 75
     1
175
     1
 42
1.0
 92
        0
 66
   257
 43
1.0
 76
     1
 77
     6
 78
     2
 67
     7
 79
     5
170
     0
171
     0
290
     0
174
     0
 93
        1
 44
0.0
173
     0
291
     0
 45
0.0
1001
ACAD
1000
AcDbSavedByObjectVersion
1070
     0
  0
VISUALSTYLE
  5
31
102
{ACAD_REACTORS
330
2A
102
}
330
2A
100
AcDbVisualStyle
  2
3D Hidden
 70
     6
 71
     1
 72
     2
 73
     2
 90
        0
 40
-0.6
 41
-30.0
 62
     5
 63
     7
 74
     2
 91
        2
 64
     7
 65
   257
 75
     2
175
     1
 42
40.0
 92
        0
 66
   257
 43
1.0
 76
     1
 77
     6
 78
     2
 67
     7
 79
     3
170
     0
171
     0
290
     0
174
     0
 93
        1
 44
0.0
173
     0
291
     0
 45
0.0
1001
ACAD
1000
AcDbSavedByObjectVersion
1070
     0
  0
VISUALSTYLE
  5
30
102
{ACAD_REACTORS
330
2A
102
}
330
2A
100
AcDbVisualStyle
  2
3dWireframe
 70
     5
 71
     0
 72
     2
 73
     0
 90
        0
 40
-0.6
 41
-30.0
 62
     5
 63
     7
 74
     1
 91
        4
 64
     7
 65
   257
 75
     1
175
     1
 42
1.0
 92
        0
 66
   257
 43
1.0
 76
     1
 77
     6
 78
     2
 67
     7
 79
     5
170
     0
171
     0
290
     0
174
     0
 93
        1
 44
0.0
173
     0
291
     0
 45
0.0
1001
ACAD
1000
AcDbSavedByObjectVersion
1070
     0
  0
VISUALSTYLE
  5
32
102
{ACAD_REACTORS
330
2A
102
}
330
2A
100
AcDbVisualStyle
  2
Basic
 70
     7
 71
     1
 72
     0
 73
     1
 90
        0
 40
-0.6
 41
-30.0
 62
     5
 63
     7
 74
     0
 91
        4
 64
     7
 65
   257
 75
     1
175
     1
 42
1.0
 92
        8
 66
     7
 43
1.0
 76
     1
 77
     6
 78
     2
 67
     7
 79
     5
170
     0
171
     0
290
     0
174
     0
 93
        1
 44
0.0
173
     0
291
     1
 45
0.0
1001
ACAD
1000
AcDbSavedByObjectVersion
1070
     0
  0
VISUALSTYLE
  5
36
102
{ACAD_REACTORS
330
2A
102
}
330
2A
100
AcDbVisualStyle
  2
Brighten
 70
    12
 71
     2
 72
     2
 73
     0
 90
        0
 40
-0.6
 41
-30.0
 62
     5
 63
     7
 74
     1
 91
        4
 64
     7
 65
   257
 75
     1
175
     1
 42
1.0
 92
        8
 66
     7
 43
1.0
 76
     1
 77
     6
 78
     2
 67
     7
 79
     5
170
     0
171
     0
290
     0
174
     0
 93
        1
 44
50.0
173
     0
291
     1
 45
0.0
1001
ACAD
1000
AcDbSavedByObjectVersion
1070
     0
  0
VISUALSTYLE
  5
3A
102
{ACAD_REACTORS
330
2A
102
}
330
2A
100
AcDbVisualStyle
  2
ColorChange
 70
    16
 71
     2
 72
     2
 73
     3
 90
        0
 40
-0.6
 41
-30.0
 62
     5
 63
     8
 74
     1
 91
        4
 64
     7
 65
   257
 75
     1
175
     1
 42
1.0
 92
        8
 66
     8
 43
1.0
 76
     1
 77
     6
 78
     2
 67
     7
 79
     5
170
     0
171
     0
290
     0
174
     0
 93
        1
 44
0.0
173
     0
291
     1
 45
0.0
1001
ACAD
1000
AcDbSavedByObjectVersion
1070
     0
  0
VISUALSTYLE
  5
34
102
{ACAD_REACTORS
330
2A
102
}
330
2A
100
AcDbVisualStyle
  2
Conceptual
 70
     9
 71
     3
 72
     2
 73
     0
 90
        0
 40
-0.6
 41
-30.0
 62
     5
 63
     7
 74
     2
 91
        2
 64
     7
 65
   257
 75
     1
175
     1
 42
40.0
 92
        8
 66
     7
 43
1.0
 76
     1
 77
     6
 78
     2
 67
     7
 79
     3
170
     0
171
     0
290
     0
174
     0
 93
        1
 44
0.0
173
     0
291
     0
 45
0.0
1001
ACAD
1000
AcDbSavedByObjectVersion
1070
     0
  0
VISUALSTYLE
  5
35
102
{ACAD_REACTORS
330
2A
102
}
330
2A
100
AcDbVisualStyle
  2
Dim
 70
    11
 71
     2
 72
     2
 73
     0
 90
        0
 40
-0.6
 41
-30.0
 62
     5
 63
     7
 74
     1
 91
        4
 64
     7
 65
   257
 75
     1
175
     1
 42
1.0
 92
        8
 66
     7
 43
1.0
 76
     1
 77
     6
 78
     2
 67
     7
 79
     5
170
     0
171
     0
290
     0
174
     0
 93
        1
 44
-50.0
173
     0
291
     1
 45
0.0
1001
ACAD
1000
AcDbSavedByObjectVersion
1070
     0
  0
VISUALSTYLE
  5
39
102
{ACAD_REACTORS
330
2A
102
}
330
2A
100
AcDbVisualStyle
  2
Facepattern
 70
    15
 71
     2
 72
     2
 73
     0
 90
        0
 40
-0.6
 41
-30.0
 62
     5
 63
     7
 74
     1
 91
        4
 64
     7
 65
   257
 75
     1
175
     1
 42
1.0
 92
        8
 66
     7
 43
1.0
 76
     1
 77
     6
 78
     2
 67
     7
 79
     5
170
     0
171
     0
290
     0
174
     0
 93
        1
 44
0.0
173
     0
291
     1
 45
0.0
1001
ACAD
1000
AcDbSavedByObjectVersion
1070
     0
  0
VISUALSTYLE
  5
2B
102
{ACAD_REACTORS
330
2A
102
}
330
2A
100
AcDbVisualStyle
  2
Flat
 70
     0
 71
     2
 72
     1
 73
     1
 90
        2
 40
-0.6
 41
30.0
 62
     5
 63
     7
 74
     0
 91
        4
 64
     7
 65
   257
 75
     1
175
     1
 42
1.0
 92
        8
 66
     7
 43
1.0
 76
     1
 77
     6
 78
     2
 67
     7
 79
     5
170
     0
171
     0
290
     0
174
     0
 93
       13
 44
0.0
173
     0
291
     1
 45
0.0
1001
ACAD
1000
AcDbSavedByObjectVersion
1070
     0
  0
VISUALSTYLE
  5
2C
102
{ACAD_REACTORS
330
2A
102
}
330
2A
100
AcDbVisualStyle
  2
FlatWithEdges
 70
     1
 71
     2
 72
     1
 73
     1
 90
        2
 40
-0.6
 41
30.0
 62
     5
 63
     7
 74
     1
 91
        4
 64
     7
 65
   257
 75
     1
175
     1
 42
1.0
 92
        0
 66
   257
 43
1.0
 76
     1
 77
     6
 78
     2
 67
     7
 79
     5
170
     0
171
     0
290
     0
174
     0
 93
       13
 44
0.0
173
     0
291
     1
 45
0.0
1001
ACAD
1000
AcDbSavedByObjectVersion
1070
     0
  0
VISUALSTYLE
  5
2D
102
{ACAD_REACTORS
330
2A
102
}
330
2A
100
AcDbVisualStyle
  2
Gouraud
 70
     2
 71
     2
 72
     2
 73
     1
 90
        2
 40
-0.6
 41
30.0
 62
     5
 63
     7
 74
     0
 91
        4
 64
     7
 65
   257
 75
     1
175
     1
 42
1.0
 92
        0
 66
     7
 43
1.0
 76
     1
 77
     6
 78
     2
 67
     7
 79
     5
170
     0
171
     0
290
     0
174
     0
 93
       13
 44
0.0
173
     0
291
     1
 45
0.0
1001
ACAD
1000
AcDbSavedByObjectVersion
1070
     0
  0
VISUALSTYLE
  5
2E
102
{ACAD_REACTORS
330
2A
102
}
330
2A
100
AcDbVisualStyle
  2
GouraudWithEdges
 70
     3
 71
     2
 72
     2
 73
     1
 90
        2
 40
-0.6
 41
30.0
 62
     5
 63
     7
 74
     1
 91
        4
 64
     7
 65
   257
 75
     1
175
     1
 42
1.0
 92
        0
 66
   257
 43
1.0
 76
     1
 77
     6
 78
     2
 67
     7
 79
     5
170
     0
171
     0
290
     0
174
     0
 93
       13
 44
0.0
173
     0
291
     1
 45
0.0
1001
ACAD
1000
AcDbSavedByObjectVersion
1070
     0
  0
VISUALSTYLE
  5
38
102
{ACAD_REACTORS
330
2A
102
}
330
2A
100
AcDbVisualStyle
  2
Linepattern
 70
    14
 71
     2
 72
     2
 73
     0
 90
        0
 40
-0.6
 41
-30.0
 62
     5
 63
     7
 74
     1
 91
        4
 64
     7
 65
   257
 75
     7
175
     7
 42
1.0
 92
        8
 66
     7
 43
1.0
 76
     1
 77
     6
 78
     2
 67
     7
 79
     5
170
     0
171
     0
290
     0
174
     0
 93
        1
 44
0.0
173
     0
291
     1
 45
0.0
1001
ACAD
1000
AcDbSavedByObjectVersion
1070
     0
  0
VISUALSTYLE
  5
33
102
{ACAD_REACTORS
330
2A
102
}
330
2A
100
AcDbVisualStyle
  2
Realistic
 70
     8
 71
     2
 72
     2
 73
     0
 90
        0
 40
-0.6
 41
-30.0
 62
     5
 63
     7
 74
     1
 91
        0
 64
     7
 65
   257
 75
     1
175
     1
 42
1.0
 92
        8
 66
     8
 43
1.0
 76
     1
 77
     6
 78
     2
 67
     7
 79
     5
170
     0
171
     0
290
     0
174
     0
 93
       13
 44
0.0
173
     0
291
     0
 45
0.0
1001
ACAD
1000
AcDbSavedByObjectVersion
1070
     0
  0
VISUALSTYLE
  5
37
102
{ACAD_REACTORS
330
2A
102
}
330
2A
100
AcDbVisualStyle
  2
Thicken
 70
    13
 71
     2
 72
     2
 73
     0
 90
        0
 40
-0.6
 41
-30.0
 62
     5
 63
     7
 74
     1
 91
        4
 64
     7
 65
   257
 75
     1
175
     1
 42
1.0
 92
       12
 66
     7
 43
1.0
 76
     1
 77
     6
 78
     2
 67
     7
 79
     5
170
     0
171
     0
290
     0
174
     0
 93
        1
 44
0.0
173
     0
291
     1
 45
0.0
1001
ACAD
1000
AcDbSavedByObjectVersion
1070
     0
  0
DICTIONARYVAR
  5
4D6
102
{ACAD_REACTORS
330
4D5
102
}
330
4D5
100
DictionaryVariables
280
     0
  1
1:1
  0
DICTIONARYVAR
  5
4DA
102
{ACAD_REACTORS
330
4D5
102
}
330
4D5
100
DictionaryVariables
280
     0
  1
80.000000
  0
DICTIONARYVAR
  5
4D9
102
{ACAD_REACTORS
330
4D5
102
}
330
4D5
100
DictionaryVariables
280
     0
  1
5.000000
  0
ENDSEC
  0
EOF
