  0
SECTION
  2
HEADER
  9
$ACADVER
  1
AC1015
  9
$ACADMAINTVER
 70
     6
  9
$DWGCODEPAGE
  3
ANSI_1252
  9
$INSBASE
 10
0.0
 20
0.0
 30
0.0
  9
$EXTMIN
 10
0.0
 20
0.0
 30
0.0
  9
$EXTMAX
 10
1682.0
 20
2378.0
 30
0.0
  9
$LIMMIN
 10
0.0
 20
0.0
  9
$LIMMAX
 10
1682.0
 20
2378.0
  9
$ORTHOMODE
 70
     0
  9
$REGENMODE
 70
     1
  9
$FILLMODE
 70
     1
  9
$QTEXTMODE
 70
     0
  9
$MIRRTEXT
 70
     1
  9
$LTSCALE
 40
1.0
  9
$ATTMODE
 70
     1
  9
$TEXTSIZE
 40
2.5
  9
$TRACEWID
 40
1.0
  9
$TEXTSTYLE
  7
Standard
  9
$CLAYER
  8
0
  9
$CELTYPE
  6
ByLayer
  9
$CECOLOR
 62
   256
  9
$CELTSCALE
 40
1.0
  9
$DISPSILH
 70
     0
  9
$DIMSCALE
 40
1.0
  9
$DIMASZ
 40
2.5
  9
$DIMEXO
 40
0.625
  9
$DIMDLI
 40
3.75
  9
$DIMRND
 40
0.0
  9
$DIMDLE
 40
0.0
  9
$DIMEXE
 40
1.25
  9
$DIMTP
 40
0.0
  9
$DIMTM
 40
0.0
  9
$DIMTXT
 40
2.5
  9
$DIMCEN
 40
2.5
  9
$DIMTSZ
 40
0.0
  9
$DIMTOL
 70
     0
  9
$DIMLIM
 70
     0
  9
$DIMTIH
 70
     0
  9
$DIMTOH
 70
     0
  9
$DIMSE1
 70
     0
  9
$DIMSE2
 70
     0
  9
$DIMTAD
 70
     1
  9
$DIMZIN
 70
     8
  9
$DIMBLK
  1

  9
$DIMASO
 70
     1
  9
$DIMSHO
 70
     1
  9
$DIMPOST
  1

  9
$DIMAPOST
  1

  9
$DIMALT
 70
     0
  9
$DIMALTD
 70
     3
  9
$DIMALTF
 40
0.0393700787
  9
$DIMLFAC
 40
1.0
  9
$DIMTOFL
 70
     1
  9
$DIMTVP
 40
0.0
  9
$DIMTIX
 70
     0
  9
$DIMSOXD
 70
     0
  9
$DIMSAH
 70
     0
  9
$DIMBLK1
  1

  9
$DIMBLK2
  1

  9
$DIMSTYLE
  2
ISO-25
  9
$DIMCLRD
 70
     0
  9
$DIMCLRE
 70
     0
  9
$DIMCLRT
 70
     0
  9
$DIMTFAC
 40
1.0
  9
$DIMGAP
 40
0.625
  9
$DIMJUST
 70
     0
  9
$DIMSD1
 70
     0
  9
$DIMSD2
 70
     0
  9
$DIMTOLJ
 70
     0
  9
$DIMTZIN
 70
     8
  9
$DIMALTZ
 70
     0
  9
$DIMALTTZ
 70
     0
  9
$DIMUPT
 70
     0
  9
$DIMDEC
 70
     2
  9
$DIMTDEC
 70
     2
  9
$DIMALTU
 70
     2
  9
$DIMALTTD
 70
     3
  9
$DIMTXSTY
  7
Standard
  9
$DIMAUNIT
 70
     0
  9
$DIMADEC
 70
     0
  9
$DIMALTRND
 40
0.0
  9
$DIMAZIN
 70
     0
  9
$DIMDSEP
 70
    44
  9
$DIMATFIT
 70
     3
  9
$DIMFRAC
 70
     0
  9
$DIMLDRBLK
  1

  9
$DIMLUNIT
 70
     2
  9
$DIMLWD
 70
    -2
  9
$DIMLWE
 70
    -2
  9
$DIMTMOVE
 70
     0
  9
$LUNITS
 70
     2
  9
$LUPREC
 70
     4
  9
$SKETCHINC
 40
1.0
  9
$FILLETRAD
 40
10.0
  9
$AUNITS
 70
     0
  9
$AUPREC
 70
     0
  9
$MENU
  1
.
  9
$ELEVATION
 40
0.0
  9
$PELEVATION
 40
0.0
  9
$THICKNESS
 40
0.0
  9
$LIMCHECK
 70
     0
  9
$CHAMFERA
 40
10.0
  9
$CHAMFERB
 40
10.0
  9
$CHAMFERC
 40
20.0
  9
$CHAMFERD
 40
0.0
  9
$SKPOLY
 70
     0
  9
$TDCREATE
 40
2455509.566135764
  9
$TDUCREATE
 40
2455509.524469097
  9
$TDUPDATE
 40
2455509.566135775
  9
$TDUUPDATE
 40
2455509.524469109
  9
$TDINDWG
 40
0.0000000116
  9
$TDUSRTIMER
 40
0.0000000116
  9
$USRTIMER
 70
     1
  9
$ANGBASE
 50
0.0
  9
$ANGDIR
 70
     0
  9
$PDMODE
 70
     0
  9
$PDSIZE
 40
0.0
  9
$PLINEWID
 40
0.0
  9
$SPLFRAME
 70
     0
  9
$SPLINETYPE
 70
     6
  9
$SPLINESEGS
 70
     8
  9
$HANDSEED
  5
240
  9
$SURFTAB1
 70
     6
  9
$SURFTAB2
 70
     6
  9
$SURFTYPE
 70
     6
  9
$SURFU
 70
     6
  9
$SURFV
 70
     6
  9
$UCSBASE
  2

  9
$UCSNAME
  2

  9
$UCSORG
 10
0.0
 20
0.0
 30
0.0
  9
$UCSXDIR
 10
1.0
 20
0.0
 30
0.0
  9
$UCSYDIR
 10
0.0
 20
1.0
 30
0.0
  9
$UCSORTHOREF
  2

  9
$UCSORTHOVIEW
 70
     0
  9
$UCSORGTOP
 10
0.0
 20
0.0
 30
0.0
  9
$UCSORGBOTTOM
 10
0.0
 20
0.0
 30
0.0
  9
$UCSORGLEFT
 10
0.0
 20
0.0
 30
0.0
  9
$UCSORGRIGHT
 10
0.0
 20
0.0
 30
0.0
  9
$UCSORGFRONT
 10
0.0
 20
0.0
 30
0.0
  9
$UCSORGBACK
 10
0.0
 20
0.0
 30
0.0
  9
$PUCSBASE
  2

  9
$PUCSNAME
  2

  9
$PUCSORG
 10
0.0
 20
0.0
 30
0.0
  9
$PUCSXDIR
 10
1.0
 20
0.0
 30
0.0
  9
$PUCSYDIR
 10
0.0
 20
1.0
 30
0.0
  9
$PUCSORTHOREF
  2

  9
$PUCSORTHOVIEW
 70
     0
  9
$PUCSORGTOP
 10
0.0
 20
0.0
 30
0.0
  9
$PUCSORGBOTTOM
 10
0.0
 20
0.0
 30
0.0
  9
$PUCSORGLEFT
 10
0.0
 20
0.0
 30
0.0
  9
$PUCSORGRIGHT
 10
0.0
 20
0.0
 30
0.0
  9
$PUCSORGFRONT
 10
0.0
 20
0.0
 30
0.0
  9
$PUCSORGBACK
 10
0.0
 20
0.0
 30
0.0
  9
$USERI1
 70
     0
  9
$USERI2
 70
     0
  9
$USERI3
 70
     0
  9
$USERI4
 70
     0
  9
$USERI5
 70
     0
  9
$USERR1
 40
0.0
  9
$USERR2
 40
0.0
  9
$USERR3
 40
0.0
  9
$USERR4
 40
0.0
  9
$USERR5
 40
0.0
  9
$WORLDVIEW
 70
     1
  9
$SHADEDGE
 70
     3
  9
$SHADEDIF
 70
    70
  9
$TILEMODE
 70
     1
  9
$MAXACTVP
 70
    64
  9
$PINSBASE
 10
0.0
 20
0.0
 30
0.0
  9
$PLIMCHECK
 70
     0
  9
$PEXTMIN
 10
0.0
 20
0.0
 30
0.0
  9
$PEXTMAX
 10
1682.0
 20
2378.0
 30
0.0
  9
$PLIMMIN
 10
0.0
 20
0.0
  9
$PLIMMAX
 10
1682.0
 20
2378.0
  9
$UNITMODE
 70
     0
  9
$VISRETAIN
 70
     1
  9
$PLINEGEN
 70
     0
  9
$PSLTSCALE
 70
     1
  9
$TREEDEPTH
 70
  3020
  9
$CMLSTYLE
  2
Standard
  9
$CMLJUST
 70
     0
  9
$CMLSCALE
 40
20.0
  9
$PROXYGRAPHICS
 70
     1
  9
$MEASUREMENT
 70
     1
  9
$CELWEIGHT
370
    -1
  9
$ENDCAPS
280
     0
  9
$JOINSTYLE
280
     0
  9
$LWDISPLAY
290
     0
  9
$INSUNITS
 70
     4
  9
$HYPERLINKBASE
  1

  9
$STYLESHEET
  1

  9
$XEDIT
290
     1
  9
$CEPSNTYPE
380
     0
  9
$PSTYLEMODE
290
     1
  9
$FINGERPRINTGUID
  2
{B3BE0C66-350D-4E0E-9218-FD19A6AACF37}
  9
$VERSIONGUID
  2
{FAEB1C32-E019-11D5-929B-00C0DF256EC4}
  9
$EXTNAMES
290
     1
  9
$PSVPSCALE
 40
0.0
  9
$OLESTARTUP
290
     0
  0
ENDSEC
  0
SECTION
  2
CLASSES
  0
CLASS
  1
ACDBDICTIONARYWDFLT
  2
AcDbDictionaryWithDefault
  3
ObjectDBX Classes
 90
        0
280
     0
281
     0
  0
CLASS
  1
VISUALSTYLE
  2
AcDbVisualStyle
  3
ObjectDBX Classes
 90
     4095
280
     0
281
     0
  0
CLASS
  1
SCALE
  2
AcDbScale
  3
ObjectDBX Classes
 90
     1153
280
     0
281
     0
  0
CLASS
  1
DICTIONARYVAR
  2
AcDbDictionaryVar
  3
ObjectDBX Classes
 90
        0
280
     0
281
     0
  0
CLASS
  1
ACDBPLACEHOLDER
  2
AcDbPlaceHolder
  3
ObjectDBX Classes
 90
        0
280
     0
281
     0
  0
CLASS
  1
LAYOUT
  2
AcDbLayout
  3
ObjectDBX Classes
 90
        0
280
     0
281
     0
  0
ENDSEC
  0
SECTION
  2
TABLES
  0
TABLE
  2
VPORT
  5
8
330
0
100
AcDbSymbolTable
 70
     1
  0
VPORT
  5
29
330
8
100
AcDbSymbolTableRecord
100
AcDbViewportTableRecord
  2
*Active
 70
     0
 10
0.0
 20
0.0
 11
1.0
 21
1.0
 12
344.1869158879
 22
148.5
 13
0.0
 23
0.0
 14
10.0
 24
10.0
 15
10.0
 25
10.0
 16
0.0
 26
0.0
 36
1.0
 17
0.0
 27
0.0
 37
0.0
 40
297.0
 41
1.9729729729
 42
50.0
 43
0.0
 44
0.0
 50
0.0
 51
0.0
 71
     0
 72
   100
 73
     1
 74
     3
 75
     0
 76
     0
 77
     0
 78
     0
281
     0
 65
     1
110
0.0
120
0.0
130
0.0
111
1.0
121
0.0
131
0.0
112
0.0
122
1.0
132
0.0
 79
     0
146
0.0
  0
ENDTAB
  0
TABLE
  2
LTYPE
  5
5
330
0
100
AcDbSymbolTable
 70
     2
  0
LTYPE
  5
14
330
5
100
AcDbSymbolTableRecord
100
AcDbLinetypeTableRecord
  2
ByBlock
 70
     0
  3

 72
    65
 73
     0
 40
0.0
  0
LTYPE
  5
15
330
5
100
AcDbSymbolTableRecord
100
AcDbLinetypeTableRecord
  2
ByLayer
 70
     0
  3

 72
    65
 73
     0
 40
0.0
  0
LTYPE
  5
16
330
5
100
AcDbSymbolTableRecord
100
AcDbLinetypeTableRecord
  2
Continuous
 70
     0
  3
Solid line
 72
    65
 73
     0
 40
0.0
  0
LTYPE
  5
60
330
5
100
AcDbSymbolTableRecord
100
AcDbLinetypeTableRecord
  2
CENTER2
 70
     0
  3
Center (.5x) ___ _ ___ _ ___ _ ___ _ ___ _ ___
 72
    65
 73
     4
 40
28.575
 49
19.05
 74
     4
 75
     0
340
0
 46
0.0
 50
0.0
 44
0.0
 45
0.0
 49
-3.175
 74
     4
 75
     0
340
0
 46
0.0
 50
0.0
 44
0.0
 45
0.0
 49
3.175
 74
     4
 75
     0
340
0
 46
0.0
 50
0.0
 44
0.0
 45
0.0
 49
-3.175
 74
     4
 75
     0
340
0
 46
0.0
 50
0.0
 44
0.0
 45
0.0
  0
ENDTAB
  0
TABLE
  2
LAYER
  5
2
330
0
100
AcDbSymbolTable
 70
    13
  0
LAYER
  5
10
330
2
100
AcDbSymbolTableRecord
100
AcDbLayerTableRecord
  2
0
 70
     0
 62
     7
  6
Continuous
370
    -3
390
F
  0
LAYER
  5
5D
330
2
100
AcDbSymbolTableRecord
100
AcDbLayerTableRecord
  2
Default
 70
     0
 62
     7
  6
Continuous
370
    -3
390
F
  0
LAYER
  5
77
330
2
100
AcDbSymbolTableRecord
100
AcDbLayerTableRecord
  2
$DDT_AUDIT_GENERATED_(77)
 70
     0
 62
     7
  6
Continuous
370
    -3
390
F
  0
LAYER
  5
81
330
2
100
AcDbSymbolTableRecord
100
AcDbLayerTableRecord
  2
$DDT_AUDIT_GENERATED_(81)
 70
     0
 62
     7
  6
Continuous
370
    -3
390
F
  0
LAYER
  5
8F
330
2
100
AcDbSymbolTableRecord
100
AcDbLayerTableRecord
  2
$DDT_AUDIT_GENERATED_(8F)
 70
     0
 62
     7
  6
Continuous
370
    -3
390
F
  0
LAYER
  5
99
330
2
100
AcDbSymbolTableRecord
100
AcDbLayerTableRecord
  2
$DDT_AUDIT_GENERATED_(99)
 70
     0
 62
     7
  6
Continuous
370
    -3
390
F
  0
LAYER
  5
A1
330
2
100
AcDbSymbolTableRecord
100
AcDbLayerTableRecord
  2
$DDT_AUDIT_GENERATED_(A1)
 70
     0
 62
     7
  6
Continuous
370
    -3
390
F
  0
LAYER
  5
A9
330
2
100
AcDbSymbolTableRecord
100
AcDbLayerTableRecord
  2
$DDT_AUDIT_GENERATED_(A9)
 70
     0
 62
     7
  6
Continuous
370
    -3
390
F
  0
LAYER
  5
B3
330
2
100
AcDbSymbolTableRecord
100
AcDbLayerTableRecord
  2
$DDT_AUDIT_GENERATED_(B3)
 70
     0
 62
     7
  6
Continuous
370
    -3
390
F
  0
LAYER
  5
D5
330
2
100
AcDbSymbolTableRecord
100
AcDbLayerTableRecord
  2
$DDT_AUDIT_GENERATED_(D5)
 70
     0
 62
     7
  6
Continuous
370
    -3
390
F
  0
LAYER
  5
D8
330
2
100
AcDbSymbolTableRecord
100
AcDbLayerTableRecord
  2
$DDT_AUDIT_GENERATED_(D8)
 70
     0
 62
     7
  6
Continuous
370
    -3
390
F
  0
LAYER
  5
E4
330
2
100
AcDbSymbolTableRecord
100
AcDbLayerTableRecord
  2
$DDT_AUDIT_GENERATED_(E4)
 70
     0
 62
     7
  6
Continuous
370
    -3
390
F
  0
LAYER
  5
1D3
330
2
100
AcDbSymbolTableRecord
100
AcDbLayerTableRecord
  2
$DDT_AUDIT_GENERATED_(1D3)
 70
     0
 62
     7
  6
Continuous
370
    -3
390
F
  0
ENDTAB
  0
TABLE
  2
STYLE
  5
3
330
0
100
AcDbSymbolTable
 70
     2
  0
STYLE
  5
11
330
3
100
AcDbSymbolTableRecord
100
AcDbTextStyleTableRecord
  2
Standard
 70
     0
 40
0.0
 41
1.0
 50
0.0
 71
     0
 42
2.5
  3
txt
  4

  0
STYLE
  5
22F
330
3
100
AcDbSymbolTableRecord
100
AcDbTextStyleTableRecord
  2
SEACAD_seiso_ttf
 70
     0
 40
0.0
 41
1.0
 50
0.0
 71
     0
 42
0.2
  3
seiso.ttf
  4

  0
ENDTAB
  0
TABLE
  2
VIEW
  5
6
330
0
100
AcDbSymbolTable
 70
     0
  0
ENDTAB
  0
TABLE
  2
UCS
  5
7
330
0
100
AcDbSymbolTable
 70
     0
  0
ENDTAB
  0
TABLE
  2
APPID
  5
9
330
0
100
AcDbSymbolTable
 70
     1
  0
APPID
  5
12
330
9
100
AcDbSymbolTableRecord
100
AcDbRegAppTableRecord
  2
ACAD
 70
     0
  0
ENDTAB
  0
TABLE
  2
DIMSTYLE
  5
A
330
0
100
AcDbSymbolTable
 70
     1
100
AcDbDimStyleTable
  0
DIMSTYLE
105
27
330
A
100
AcDbSymbolTableRecord
100
AcDbDimStyleTableRecord
  2
ISO-25
 70
     0
 41
2.5
 42
0.625
 43
3.75
 44
1.25
 73
     0
 74
     0
 77
     1
 78
     8
140
2.5
141
2.5
143
0.0393700787
147
0.625
171
     3
172
     1
271
     2
272
     2
274
     3
278
    44
283
     0
284
     8
340
11
  0
ENDTAB
  0
TABLE
  2
BLOCK_RECORD
  5
1
330
0
100
AcDbSymbolTable
 70
     7
  0
BLOCK_RECORD
  5
1F
330
1
100
AcDbSymbolTableRecord
100
AcDbBlockTableRecord
  2
*Model_Space
340
22
  0
BLOCK_RECORD
  5
1B
330
1
100
AcDbSymbolTableRecord
100
AcDbBlockTableRecord
  2
*Paper_Space
340
1E
  0
BLOCK_RECORD
  5
5E
330
1
100
AcDbSymbolTableRecord
100
AcDbBlockTableRecord
  2
SEANNOT_GROUP
340
0
102
{BLKREFS
331
5F
102
}
  0
BLOCK_RECORD
  5
65
330
1
100
AcDbSymbolTableRecord
100
AcDbBlockTableRecord
  2
SEANNOT_GROUP1
340
0
102
{BLKREFS
331
66
102
}
  0
BLOCK_RECORD
  5
6B
330
1
100
AcDbSymbolTableRecord
100
AcDbBlockTableRecord
  2
SEANNOT_GROUP2
340
0
102
{BLKREFS
331
6C
102
}
  0
BLOCK_RECORD
  5
75
330
1
100
AcDbSymbolTableRecord
100
AcDbBlockTableRecord
  2
SE
340
0
102
{BLKREFS
331
76
102
}
  0
BLOCK_RECORD
  5
196
330
1
100
AcDbSymbolTableRecord
100
AcDbBlockTableRecord
  2
SE1
340
0
102
{BLKREFS
331
197
102
}
  0
BLOCK_RECORD
  5
200
330
1
100
AcDbSymbolTableRecord
100
AcDbBlockTableRecord
  2
SE2
340
0
102
{BLKREFS
331
201
102
}
  0
ENDTAB
  0
ENDSEC
  0
SECTION
  2
BLOCKS
  0
BLOCK
  5
20
330
1F
100
AcDbEntity
  8
0
100
AcDbBlockBegin
  2
*Model_Space
 70
     0
 10
0.0
 20
0.0
 30
0.0
  3
*Model_Space
  1

  0
ENDBLK
  5
21
330
1F
100
AcDbEntity
  8
0
100
AcDbBlockEnd
  0
BLOCK
  5
1C
330
1B
100
AcDbEntity
 67
     1
  8
0
100
AcDbBlockBegin
  2
*Paper_Space
 70
     0
 10
0.0
 20
0.0
 30
0.0
  3
*Paper_Space
  1

  0
ENDBLK
  5
1D
330
1B
100
AcDbEntity
 67
     1
  8
0
100
AcDbBlockEnd
  0
BLOCK
  5
63
330
5E
100
AcDbEntity
  8
0
100
AcDbBlockBegin
  2
SEANNOT_GROUP
 70
     0
 10
0.0
 20
0.0
 30
0.0
  3
SEANNOT_GROUP
  1

  0
LINE
  5
61
330
5E
100
AcDbEntity
  8
Default
  6
CENTER2
 62
     7
100
AcDbLine
 10
225.9707408665
 20
493.8583521385
 30
0.0
 11
185.9707417606
 21
493.8583521385
 31
0.0
  0
LINE
  5
62
330
5E
100
AcDbEntity
  8
Default
  6
CENTER2
 62
     7
100
AcDbLine
 10
205.9707413136
 20
513.8583516915
 30
0.0
 11
205.9707413136
 21
473.8583525856
 31
0.0
  0
ENDBLK
  5
64
330
5E
100
AcDbEntity
  8
0
100
AcDbBlockEnd
  0
BLOCK
  5
69
330
65
100
AcDbEntity
  8
0
100
AcDbBlockBegin
  2
SEANNOT_GROUP1
 70
     0
 10
0.0
 20
0.0
 30
0.0
  3
SEANNOT_GROUP1
  1

  0
LINE
  5
67
330
65
100
AcDbEntity
  8
Default
  6
CENTER2
 62
     7
100
AcDbLine
 10
410.4381576023
 20
493.8583521385
 30
0.0
 11
370.4381584964
 21
493.8583521385
 31
0.0
  0
LINE
  5
68
330
65
100
AcDbEntity
  8
Default
  6
CENTER2
 62
     7
100
AcDbLine
 10
390.4381580493
 20
513.8583516915
 30
0.0
 11
390.4381580493
 21
473.8583525856
 31
0.0
  0
ENDBLK
  5
6A
330
65
100
AcDbEntity
  8
0
100
AcDbBlockEnd
  0
BLOCK
  5
73
330
6B
100
AcDbEntity
  8
0
100
AcDbBlockBegin
  2
SEANNOT_GROUP2
 70
     0
 10
0.0
 20
0.0
 30
0.0
  3
SEANNOT_GROUP2
  1

  0
LINE
  5
6D
330
6B
100
AcDbEntity
  8
Default
  6
CENTER2
 62
     7
100
AcDbLine
 10
225.952666205
 20
340.16483857
 30
0.0
 11
185.9526670991
 21
340.16483857
 31
0.0
  0
LINE
  5
6E
330
6B
100
AcDbEntity
  8
Default
  6
CENTER2
 62
     7
100
AcDbLine
 10
205.9526666521
 20
360.1648381229
 30
0.0
 11
205.9526666521
 21
320.164839017
 31
0.0
  0
LINE
  5
6F
330
6B
100
AcDbEntity
  8
Default
  6
CENTER2
 62
     7
100
AcDbLine
 10
230.9526660933
 20
340.16483857
 30
0.0
 11
236.7204569197
 21
340.16483857
 31
0.0
  0
LINE
  5
70
330
6B
100
AcDbEntity
  8
Default
  6
CENTER2
 62
     7
100
AcDbLine
 10
205.9526666521
 20
365.1648380112
 30
0.0
 11
205.9526666521
 21
370.9326288376
 31
0.0
  0
LINE
  5
71
330
6B
100
AcDbEntity
  8
Default
  6
CENTER2
 62
     7
100
AcDbLine
 10
180.9526672109
 20
340.16483857
 30
0.0
 11
175.1848763844
 21
340.16483857
 31
0.0
  0
LINE
  5
72
330
6B
100
AcDbEntity
  8
Default
  6
CENTER2
 62
     7
100
AcDbLine
 10
205.9526666521
 20
315.1648391288
 30
0.0
 11
205.9526666521
 21
309.3970483023
 31
0.0
  0
ENDBLK
  5
74
330
6B
100
AcDbEntity
  8
0
100
AcDbBlockEnd
  0
BLOCK
  5
194
330
75
100
AcDbEntity
  8
0
100
AcDbBlockBegin
  2
SE
 70
     0
 10
0.0
 20
0.0
 30
0.0
  3
SE
  1

  0
LINE
  5
78
330
75
100
AcDbEntity
  8
$DDT_AUDIT_GENERATED_(77)
  6
Continuous
 62
     7
100
AcDbLine
 10
230.9707413136
 20
493.8583521385
 30
0.0
 11
180.9707413136
 21
493.8583521385
 31
0.0
  0
ARC
  5
79
330
75
100
AcDbEntity
  8
$DDT_AUDIT_GENERATED_(77)
  6
Continuous
 62
     7
100
AcDbCircle
 10
157.8225581654
 20
518.8583520859
 30
0.0
 40
25.99042166249628
100
AcDbArc
 50
328.4481725622
 51
31.5518329409
  0
ARC
  5
7A
330
75
100
AcDbEntity
  8
$DDT_AUDIT_GENERATED_(77)
  6
Continuous
 62
     7
100
AcDbCircle
 10
230.9707413136
 20
542.8583521385
 30
0.0
 40
1.000000000000001
100
AcDbArc
 50
0.0
 51
90.0
  0
ARC
  5
7B
330
75
100
AcDbEntity
  8
$DDT_AUDIT_GENERATED_(77)
  6
Continuous
 62
     7
100
AcDbCircle
 10
180.9707413136
 20
542.8583521385
 30
0.0
 40
1.000000000000001
100
AcDbArc
 50
90.0
 51
180.0
  0
ARC
  5
7C
330
75
100
AcDbEntity
  8
$DDT_AUDIT_GENERATED_(77)
  6
Continuous
 62
     7
100
AcDbCircle
 10
230.9707413136
 20
494.8583521385
 30
0.0
 40
1.0
100
AcDbArc
 50
270.0
 51
0.0
  0
ARC
  5
7D
330
75
100
AcDbEntity
  8
$DDT_AUDIT_GENERATED_(77)
  6
Continuous
 62
     7
100
AcDbCircle
 10
180.9707413136
 20
494.8583521385
 30
0.0
 40
1.000000000000001
100
AcDbArc
 50
180.0
 51
270.0
  0
LINE
  5
7E
330
75
100
AcDbEntity
  8
$DDT_AUDIT_GENERATED_(77)
  6
Continuous
 62
     7
100
AcDbLine
 10
231.9707413136
 20
494.8583521385
 30
0.0
 11
231.9707413136
 21
542.8583521385
 31
0.0
  0
LINE
  5
7F
330
75
100
AcDbEntity
  8
$DDT_AUDIT_GENERATED_(77)
  6
Continuous
 62
     7
100
AcDbLine
 10
179.9707413136
 20
505.2615822425
 30
0.0
 11
179.9707413136
 21
494.8583521385
 31
0.0
  0
LINE
  5
80
330
75
100
AcDbEntity
  8
$DDT_AUDIT_GENERATED_(77)
  6
Continuous
 62
     7
100
AcDbLine
 10
179.9707413136
 20
542.8583521385
 30
0.0
 11
179.9707413136
 21
532.4583521385
 31
0.0
  0
LINE
  5
82
330
75
100
AcDbEntity
  8
$DDT_AUDIT_GENERATED_(81)
  6
Continuous
 62
     7
100
AcDbLine
 10
177.4742026783
 20
505.3583521385
 30
0.0
 11
177.4742026783
 21
532.3583521385
 31
0.0
  0
LINE
  5
83
330
75
100
AcDbEntity
  8
$DDT_AUDIT_GENERATED_(81)
  6
Continuous
 62
     7
100
AcDbLine
 10
163.9742026783
 20
569.3583521385
 30
0.0
 11
136.9742026783
 21
569.3583521385
 31
0.0
  0
LINE
  5
84
330
75
100
AcDbEntity
  8
$DDT_AUDIT_GENERATED_(81)
  6
Continuous
 62
     7
100
AcDbLine
 10
137.4742026783
 20
569.8583521385
 30
0.0
 11
163.4742026783
 21
569.8583521385
 31
0.0
  0
ARC
  5
85
330
75
100
AcDbEntity
  8
$DDT_AUDIT_GENERATED_(81)
  6
Continuous
 62
     7
100
AcDbCircle
 10
168.9742026783
 20
537.3583521385
 30
0.0
 40
5.000000000000004
100
AcDbArc
 50
180.0
 51
270.0
  0
ARC
  5
86
330
75
100
AcDbEntity
  8
$DDT_AUDIT_GENERATED_(81)
  6
Continuous
 62
     7
100
AcDbCircle
 10
168.9742026783
 20
537.3583521385
 30
0.0
 40
32.0
100
AcDbArc
 50
180.0
 51
270.0
  0
LINE
  5
87
330
75
100
AcDbEntity
  8
$DDT_AUDIT_GENERATED_(81)
  6
Continuous
 62
     7
100
AcDbLine
 10
136.9742026783
 20
569.3583521385
 30
0.0
 11
136.9742026783
 21
537.3583521385
 31
0.0
  0
LINE
  5
88
330
75
100
AcDbEntity
  8
$DDT_AUDIT_GENERATED_(81)
  6
Continuous
 62
     7
100
AcDbLine
 10
163.9742026783
 20
537.3583521385
 30
0.0
 11
163.9742026783
 21
569.3583521385
 31
0.0
  0
LINE
  5
89
330
75
100
AcDbEntity
  8
$DDT_AUDIT_GENERATED_(81)
  6
Continuous
 62
     7
100
AcDbLine
 10
168.9742026783
 20
505.3583521385
 30
0.0
 11
177.4742026783
 21
505.3583521385
 31
0.0
  0
LINE
  5
8A
330
75
100
AcDbEntity
  8
$DDT_AUDIT_GENERATED_(81)
  6
Continuous
 62
     7
100
AcDbLine
 10
177.4742026783
 20
532.3583521385
 30
0.0
 11
168.9742026783
 21
532.3583521385
 31
0.0
  0
LINE
  5
8B
330
75
100
AcDbEntity
  8
$DDT_AUDIT_GENERATED_(81)
  6
Continuous
 62
     7
100
AcDbLine
 10
177.4742026783
 20
505.4083521385
 30
0.0
 11
180.0488754062
 21
505.4083521385
 31
0.0
  0
LINE
  5
8C
330
75
100
AcDbEntity
  8
$DDT_AUDIT_GENERATED_(81)
  6
Continuous
 62
     7
100
AcDbLine
 10
180.0488714562
 20
532.3083521385
 30
0.0
 11
177.4742026783
 21
532.3083521385
 31
0.0
  0
LINE
  5
8D
330
75
100
AcDbEntity
  8
$DDT_AUDIT_GENERATED_(81)
  6
Continuous
 62
     7
100
AcDbLine
 10
163.9742026783
 20
569.3583521385
 30
0.0
 11
163.4742026783
 21
569.8583521385
 31
0.0
  0
LINE
  5
8E
330
75
100
AcDbEntity
  8
$DDT_AUDIT_GENERATED_(81)
  6
Continuous
 62
     7
100
AcDbLine
 10
137.4742026783
 20
569.8583521385
 30
0.0
 11
136.9742026783
 21
569.3583521385
 31
0.0
  0
LINE
  5
90
330
75
100
AcDbEntity
  8
$DDT_AUDIT_GENERATED_(8F)
  6
Continuous
 62
     7
100
AcDbLine
 10
179.9707413136
 20
577.9583521385
 30
0.0
 11
231.9707413136
 21
577.9583521385
 31
0.0
  0
LINE
  5
91
330
75
100
AcDbEntity
  8
$DDT_AUDIT_GENERATED_(8F)
  6
Continuous
 62
     7
100
AcDbLine
 10
179.9707413136
 20
544.3583521385
 30
0.0
 11
231.9707413136
 21
544.3583521385
 31
0.0
  0
LINE
  5
92
330
75
100
AcDbEntity
  8
$DDT_AUDIT_GENERATED_(8F)
  6
Continuous
 62
     7
100
AcDbLine
 10
231.4707413136
 20
543.8583521385
 30
0.0
 11
180.4707413136
 21
543.8583521385
 31
0.0
  0
ARC
  5
93
330
75
100
AcDbEntity
  8
$DDT_AUDIT_GENERATED_(8F)
  6
Continuous
 62
     7
100
AcDbCircle
 10
205.9707413136
 20
577.9583521385
 30
0.0
 40
26.0
100
AcDbArc
 50
156.1884391681
 51
180.0
  0
ARC
  5
94
330
75
100
AcDbEntity
  8
$DDT_AUDIT_GENERATED_(8F)
  6
Continuous
 62
     7
100
AcDbCircle
 10
205.9707413136
 20
577.9583521385
 30
0.0
 40
26.00000000000001
100
AcDbArc
 50
0.0
 51
23.8336747235
  0
LINE
  5
95
330
75
100
AcDbEntity
  8
$DDT_AUDIT_GENERATED_(8F)
  6
Continuous
 62
     7
100
AcDbLine
 10
179.9707413136
 20
577.9583521385
 30
0.0
 11
179.9707413136
 21
544.3583521385
 31
0.0
  0
LINE
  5
96
330
75
100
AcDbEntity
  8
$DDT_AUDIT_GENERATED_(8F)
  6
Continuous
 62
     7
100
AcDbLine
 10
231.9707413136
 20
544.3583521385
 30
0.0
 11
231.9707413136
 21
577.9583521385
 31
0.0
  0
LINE
  5
97
330
75
100
AcDbEntity
  8
$DDT_AUDIT_GENERATED_(8F)
  6
Continuous
 62
     7
100
AcDbLine
 10
179.9707413136
 20
544.3583521385
 30
0.0
 11
180.4707413136
 21
543.8583521385
 31
0.0
  0
LINE
  5
98
330
75
100
AcDbEntity
  8
$DDT_AUDIT_GENERATED_(8F)
  6
Continuous
 62
     7
100
AcDbLine
 10
231.4707413136
 20
543.8583521385
 30
0.0
 11
231.9707413136
 21
544.3583521385
 31
0.0
  0
ELLIPSE
  5
9A
330
75
100
AcDbEntity
  8
$DDT_AUDIT_GENERATED_(99)
  6
Continuous
 62
     7
100
AcDbEllipse
 10
150.4742026783
 20
708.6726158111
 30
0.0
 11
11.5
 21
0.0
 31
0.0
210
0.0
220
0.0
230
1.0
 40
0.1736481777
 41
0.0
 42
3.141592653589793
  0
ELLIPSE
  5
9B
330
75
100
AcDbEntity
  8
$DDT_AUDIT_GENERATED_(99)
  6
Continuous
 62
     7
100
AcDbEllipse
 10
150.4742026783
 20
709.2357800877
 30
0.0
 11
11.5
 21
0.0
 31
0.0
210
0.0
220
0.0
230
1.0
 40
0.1736481777
 41
0.0
 42
3.141592653589793
  0
ELLIPSE
  5
9C
330
75
100
AcDbEntity
  8
$DDT_AUDIT_GENERATED_(99)
  6
Continuous
 62
     7
100
AcDbEllipse
 10
150.4742026783
 20
710.6422313172
 30
0.0
 11
10.50000000000001
 21
0.0
 31
0.0
210
0.0
220
0.0
230
1.0
 40
0.1736481777
 41
0.12378133152078
 42
3.017811322068948
  0
LINE
  5
9D
330
75
100
AcDbEntity
  8
$DDT_AUDIT_GENERATED_(99)
  6
Continuous
 62
     7
100
AcDbLine
 10
138.9742026783
 20
709.2357800877
 30
0.0
 11
138.9742026783
 21
708.6726158111
 31
0.0
  0
LINE
  5
9E
330
75
100
AcDbEntity
  8
$DDT_AUDIT_GENERATED_(99)
  6
Continuous
 62
     7
100
AcDbLine
 10
161.9742026783
 20
708.6726158111
 30
0.0
 11
161.9742026783
 21
709.2357800877
 31
0.0
  0
LINE
  5
9F
330
75
100
AcDbEntity
  8
$DDT_AUDIT_GENERATED_(99)
  6
Continuous
 62
     7
100
AcDbLine
 10
161.8862146554
 20
709.4823349793
 30
0.0
 11
160.8938657878
 21
710.867346653
 31
0.0
  0
LINE
  5
A0
330
75
100
AcDbEntity
  8
$DDT_AUDIT_GENERATED_(99)
  6
Continuous
 62
     7
100
AcDbLine
 10
140.0545395687
 20
710.867346653
 30
0.0
 11
139.0621907011
 21
709.4823349793
 31
0.0
  0
LINE
  5
A2
330
75
100
AcDbEntity
  8
$DDT_AUDIT_GENERATED_(A1)
  6
Continuous
 62
     7
100
AcDbLine
 10
140.4742026783
 20
574.9583521385
 30
0.0
 11
160.4742026783
 21
574.9583521385
 31
0.0
  0
LINE
  5
A3
330
75
100
AcDbEntity
  8
$DDT_AUDIT_GENERATED_(A1)
  6
Continuous
 62
     7
100
AcDbLine
 10
137.7242026783
 20
571.9687869527
 30
0.0
 11
137.7242026783
 21
569.8583521385
 31
0.0
  0
LINE
  5
A4
330
75
100
AcDbEntity
  8
$DDT_AUDIT_GENERATED_(A1)
  6
Continuous
 62
     7
100
AcDbLine
 10
163.2242026783
 20
569.8583521385
 30
0.0
 11
163.2242026783
 21
571.9687869527
 31
0.0
  0
ARC
  5
A5
330
75
100
AcDbEntity
  8
$DDT_AUDIT_GENERATED_(A1)
  6
Continuous
 62
     7
100
AcDbCircle
 10
140.7242026783
 20
571.9687869527
 30
0.0
 40
3.000000000000002
100
AcDbArc
 50
94.7801918472
 51
180.0
  0
ARC
  5
A6
330
75
100
AcDbEntity
  8
$DDT_AUDIT_GENERATED_(A1)
  6
Continuous
 62
     7
100
AcDbCircle
 10
160.2242026783
 20
571.9687869527
 30
0.0
 40
2.999999999999996
100
AcDbArc
 50
0.0
 51
85.2198081528
  0
LINE
  5
A7
330
75
100
AcDbEntity
  8
$DDT_AUDIT_GENERATED_(A1)
  6
Continuous
 62
     7
100
AcDbLine
 10
140.4742026783
 20
575.0683521385
 30
0.0
 11
140.4742026783
 21
574.9583521385
 31
0.0
  0
LINE
  5
A8
330
75
100
AcDbEntity
  8
$DDT_AUDIT_GENERATED_(A1)
  6
Continuous
 62
     7
100
AcDbLine
 10
160.4742026783
 20
574.9583521385
 30
0.0
 11
160.4742026783
 21
575.0683521385
 31
0.0
  0
LINE
  5
AA
330
75
100
AcDbEntity
  8
$DDT_AUDIT_GENERATED_(A9)
  6
Continuous
 62
     7
100
AcDbLine
 10
139.9742026783
 20
575.0683521385
 30
0.0
 11
160.9742026783
 21
575.0683521385
 31
0.0
  0
ELLIPSE
  5
AB
330
75
100
AcDbEntity
  8
$DDT_AUDIT_GENERATED_(A9)
  6
Continuous
 62
     7
100
AcDbEllipse
 10
150.4742026783
 20
710.6422313172
 30
0.0
 11
10.50000000000001
 21
0.0
 31
0.0
210
0.0
220
0.0
230
1.0
 40
0.1736481777
 41
0.12378133152078
 42
3.017811322069013
  0
LINE
  5
AC
330
75
100
AcDbEntity
  8
$DDT_AUDIT_GENERATED_(A9)
  6
Continuous
 62
     7
100
AcDbLine
 10
139.9742026783
 20
691.896882659
 30
0.0
 11
139.9742026783
 21
575.0683521385
 31
0.0
  0
LINE
  5
AD
330
75
100
AcDbEntity
  8
$DDT_AUDIT_GENERATED_(A9)
  6
Continuous
 62
     7
100
AcDbLine
 10
160.9742026783
 20
575.0683521385
 30
0.0
 11
160.9742026783
 21
691.8875624802
 31
0.0
  0
ARC
  5
AE
330
75
100
AcDbEntity
  8
$DDT_AUDIT_GENERATED_(A9)
  6
Continuous
 62
     7
100
AcDbCircle
 10
150.4742026783
 20
805.5683521385
 30
0.0
 40
10.5
100
AcDbArc
 50
0.0
 51
180.0
  0
LINE
  5
AF
330
75
100
AcDbEntity
  8
$DDT_AUDIT_GENERATED_(A9)
  6
Continuous
 62
     7
100
AcDbLine
 10
139.9742026783
 20
805.5683521385
 30
0.0
 11
139.9742026783
 21
714.2564757707
 31
0.0
  0
LINE
  5
B0
330
75
100
AcDbEntity
  8
$DDT_AUDIT_GENERATED_(A9)
  6
Continuous
 62
     7
100
AcDbLine
 10
160.9742026783
 20
714.2564757707
 30
0.0
 11
160.9742026783
 21
805.5683521385
 31
0.0
  0
LINE
  5
B1
330
75
100
AcDbEntity
  8
$DDT_AUDIT_GENERATED_(A9)
  6
Continuous
 62
     7
100
AcDbLine
 10
160.9742026783
 20
710.7552212355
 30
0.0
 11
160.9742026783
 21
714.2564757707
 31
0.0
  0
LINE
  5
B2
330
75
100
AcDbEntity
  8
$DDT_AUDIT_GENERATED_(A9)
  6
Continuous
 62
     7
100
AcDbLine
 10
139.9742026783
 20
714.2564757707
 30
0.0
 11
139.9742026783
 21
710.7552212355
 31
0.0
  0
ARC
  5
B4
330
75
100
AcDbEntity
  8
$DDT_AUDIT_GENERATED_(B3)
  6
Continuous
 62
     7
100
AcDbCircle
 10
205.9971348791
 20
471.3083547084
 30
0.0
 40
155.3554941272323
100
AcDbArc
 50
85.7358707509
 51
94.2790608963
  0
SPLINE
  5
B5
330
75
100
AcDbEntity
  8
$DDT_AUDIT_GENERATED_(B3)
  6
Continuous
 62
     7
100
AcDbSpline
210
0.0
220
0.0
230
1.0
 70
     8
 71
     3
 72
    10
 73
     6
 74
     0
 42
0.0000000021357142
 43
0.0000000001
 40
0.470722066616904
 40
0.470722066616904
 40
0.470722066616904
 40
0.470722066616904
 40
0.4999999999999993
 40
0.4999999999999993
 40
0.5051379723181025
 40
0.5051379723181025
 40
0.5051379723181025
 40
0.5051379723181025
 10
192.5989939310777
 20
631.1291173431788
 30
0.0
 10
192.6460814384199
 20
631.1392613337034
 30
0.0
 10
192.6915690470417
 20
631.1458864413881
 30
0.0
 10
192.743153247562
 20
631.1496801450024
 30
0.0
 10
192.7508078153699
 20
631.1501417020241
 30
0.0
 10
192.7584168489128
 20
631.1504990953036
 30
0.0
  0
SPLINE
  5
B6
330
75
100
AcDbEntity
  8
$DDT_AUDIT_GENERATED_(B3)
  6
Continuous
 62
     7
100
AcDbSpline
210
0.0
220
0.0
230
1.0
 70
     8
 71
     3
 72
    10
 73
     6
 74
     0
 42
0.0000000016207354
 43
0.0000000001
 40
0.5051379723181025
 40
0.5051379723181025
 40
0.5051379723181025
 40
0.5051379723181025
 40
0.7499999999999997
 40
0.7499999999999997
 40
1.0
 40
1.0
 40
1.0
 40
1.0
 10
192.7584168489128
 20
631.1504990953036
 30
0.0
 10
193.1210430498041
 20
631.1675315037511
 30
0.0
 10
193.3802508792545
 20
630.9479850510639
 30
0.0
 10
193.899813625584
 20
630.1669624245022
 30
0.0
 10
194.1670331366162
 20
629.6000458949375
 30
0.0
 10
194.5460792829993
 20
628.911697200833
 30
0.0
  0
SPLINE
  5
B7
330
75
100
AcDbEntity
  8
$DDT_AUDIT_GENERATED_(B3)
  6
Continuous
 62
     7
100
AcDbSpline
210
0.0
220
0.0
230
1.0
 70
     8
 71
     3
 72
    10
 73
     6
 74
     0
 42
0.0000000015156012
 43
0.0000000001
 40
0.0
 40
0.0
 40
0.0
 40
0.0
 40
0.5000000000000001
 40
0.5000000000000001
 40
0.5011737843542092
 40
0.5011737843542092
 40
0.5011737843542092
 40
0.5011737843542092
 10
217.4072336028661
 20
628.9147661868857
 30
0.0
 10
218.1786945530516
 20
630.2951499560636
 30
0.0
 10
218.488701257898
 20
631.201567611558
 30
0.0
 10
219.2505135532042
 20
631.1453859761959
 30
0.0
 10
219.2523003807655
 20
631.1452489595301
 30
0.0
 10
219.2540898178222
 20
631.1451064990566
 30
0.0
  0
SPLINE
  5
B8
330
75
100
AcDbEntity
  8
$DDT_AUDIT_GENERATED_(B3)
  6
Continuous
 62
     7
100
AcDbSpline
210
0.0
220
0.0
230
1.0
 70
     8
 71
     3
 72
     8
 73
     4
 74
     0
 42
0.0000000020817559
 43
0.0000000001
 40
0.5011737843542092
 40
0.5011737843542092
 40
0.5011737843542092
 40
0.5011737843542092
 40
0.5307886105983085
 40
0.5307886105983085
 40
0.5307886105983085
 40
0.5307886105983085
 10
219.2540898178222
 20
631.1451064990566
 30
0.0
 10
219.2992376912977
 20
631.1415121913342
 30
0.0
 10
219.3460466744199
 20
631.1344525542917
 30
0.0
 10
219.3945178232092
 20
631.1237911589153
 30
0.0
  0
ARC
  5
B9
330
75
100
AcDbEntity
  8
$DDT_AUDIT_GENERATED_(B3)
  6
Continuous
 62
     7
100
AcDbCircle
 10
205.9951103658
 20
491.4482933802
 30
0.0
 40
137.9393624122378
100
AcDbArc
 50
85.2543297591
 51
94.7610535365
  0
ARC
  5
BA
330
75
100
AcDbEntity
  8
$DDT_AUDIT_GENERATED_(B3)
  6
Continuous
 62
     7
100
AcDbCircle
 10
206.0638840869
 20
650.6117377004
 30
0.0
 40
31.02463462611714
100
AcDbArc
 50
235.7832167387
 51
304.0566035105
  0
ARC
  5
BB
330
75
100
AcDbEntity
  8
$DDT_AUDIT_GENERATED_(B3)
  6
Continuous
 62
     7
100
AcDbCircle
 10
-0.7139352524
 20
588.3637632364
 30
0.0
 40
233.9346676165146
100
AcDbArc
 50
0.0945255217
 51
6.5164940976
  0
ARC
  5
BC
330
75
100
AcDbEntity
  8
$DDT_AUDIT_GENERATED_(B3)
  6
Continuous
 62
     7
100
AcDbCircle
 10
412.6290046647
 20
588.464450079
 30
0.0
 40
233.9082370866635
100
AcDbArc
 50
179.6288691733
 51
179.859061459
  0
ARC
  5
BD
330
75
100
AcDbEntity
  8
$DDT_AUDIT_GENERATED_(B3)
  6
Continuous
 62
     7
100
AcDbCircle
 10
181.462344734
 20
614.6577064936
 30
0.0
 40
1.262544813039338
100
AcDbArc
 50
168.6576195891
 51
172.5119936479
  0
SPLINE
  5
BE
330
75
100
AcDbEntity
  8
$DDT_AUDIT_GENERATED_(B3)
  6
Continuous
 62
     7
100
AcDbSpline
210
0.0
220
0.0
230
1.0
 70
     8
 71
     3
 72
     8
 73
     4
 74
     0
 42
0.0000000061786551
 43
0.0000000001
 40
0.6047010326420391
 40
0.6047010326420391
 40
0.6047010326420391
 40
0.6047010326420391
 40
0.6384258562871067
 40
0.6384258562871067
 40
0.6384258562871067
 40
0.6384258562871067
 10
227.48948887534
 20
622.7129079479507
 30
0.0
 10
227.4768792096274
 20
622.726026048459
 30
0.0
 10
227.4638834629258
 20
622.738761020615
 30
0.0
 10
227.4505184342616
 20
622.7511025162744
 30
0.0
  0
LINE
  5
BF
330
75
100
AcDbEntity
  8
$DDT_AUDIT_GENERATED_(B3)
  6
Continuous
 62
     7
100
AcDbLine
 10
205.9355797438
 20
604.1730456726
 30
0.0
 11
205.9044931821
 21
604.1724892204
 31
0.0
  0
SPLINE
  5
C0
330
75
100
AcDbEntity
  8
$DDT_AUDIT_GENERATED_(B3)
  6
Continuous
 62
     7
100
AcDbSpline
210
0.0
220
0.0
230
1.0
 70
     8
 71
     3
 72
    14
 73
    10
 74
     0
 42
0.000000000946717
 43
0.0000000001
 40
0.0
 40
0.0
 40
0.0
 40
0.0
 40
0.25
 40
0.25
 40
0.5
 40
0.5
 40
0.75
 40
0.75
 40
1.0
 40
1.0
 40
1.0
 40
1.0
 10
205.9364676765676
 20
597.4248009115871
 30
0.0
 10
205.0656954176401
 20
597.4333200163074
 30
0.0
 10
204.2296089962744
 20
597.8380332383913
 30
0.0
 10
203.068603257745
 20
599.1035061798964
 30
0.0
 10
202.7333467219126
 20
599.9611340571913
 30
0.0
 10
202.708857151582
 20
601.6702128424301
 30
0.0
 10
203.0224331506191
 20
602.5249804221268
 30
0.0
 10
204.1964816928474
 20
603.7775273668
 30
0.0
 10
205.034270620074
 20
604.152780286113
 30
0.0
 10
205.9044931821296
 20
604.1724892203699
 30
0.0
  0
SPLINE
  5
C1
330
75
100
AcDbEntity
  8
$DDT_AUDIT_GENERATED_(B3)
  6
Continuous
 62
     7
100
AcDbSpline
210
0.0
220
0.0
230
1.0
 70
     8
 71
     3
 72
    14
 73
    10
 74
     0
 42
0.000000000930417
 43
0.0000000001
 40
0.0
 40
0.0
 40
0.0
 40
0.0
 40
0.25
 40
0.25
 40
0.5
 40
0.5
 40
0.75
 40
0.75
 40
1.0
 40
1.0
 40
1.0
 40
1.0
 10
205.9355797438243
 20
604.1729906999877
 30
0.0
 10
206.8206224354346
 20
604.1846901698764
 30
0.0
 10
207.6873719287935
 20
603.8250290441239
 30
0.0
 10
208.9019378853185
 20
602.5765051201486
 30
0.0
 10
209.2309613069274
 20
601.7036528675088
 30
0.0
 10
209.2100110282808
 20
599.9680640053474
 30
0.0
 10
208.866554996275
 20
599.0950521620391
 30
0.0
 10
207.6756493394551
 20
597.8161947306083
 30
0.0
 10
206.8223517319163
 20
597.4161388037871
 30
0.0
 10
205.9364676765676
 20
597.4248009115871
 30
0.0
  0
LINE
  5
C2
330
75
100
AcDbEntity
  8
$DDT_AUDIT_GENERATED_(B3)
  6
Continuous
 62
     7
100
AcDbLine
 10
232.9204146939
 20
588.4493488413
 30
0.0
 11
205.9381679901
 21
588.4493488431
 31
0.0
  0
LINE
  5
C3
330
75
100
AcDbEntity
  8
$DDT_AUDIT_GENERATED_(B3)
  6
Continuous
 62
     7
100
AcDbLine
 10
205.9381679901
 20
588.4493488431
 30
0.0
 11
179.0209360751
 21
588.4493488431
 31
0.0
  0
ARC
  5
C4
330
75
100
AcDbEntity
  8
$DDT_AUDIT_GENERATED_(B3)
  6
Continuous
 62
     7
100
AcDbCircle
 10
232.9204144538
 20
588.7493486031
 30
0.0
 40
0.2999997618202841
100
AcDbArc
 50
270.000045855
 51
0.0679077835
  0
ARC
  5
C5
330
75
100
AcDbEntity
  8
$DDT_AUDIT_GENERATED_(B3)
  6
Continuous
 62
     7
100
AcDbCircle
 10
179.0209412739
 20
588.7493488138
 30
0.0
 40
0.2999999707117028
100
AcDbArc
 50
179.9321346544
 51
269.9999944537
  0
ARC
  5
C6
330
75
100
AcDbEntity
  8
$DDT_AUDIT_GENERATED_(B3)
  6
Continuous
 62
     7
100
AcDbCircle
 10
409.3744810202
 20
588.6487127619
 30
0.0
 40
230.6533693240143
100
AcDbArc
 50
173.5767407174
 51
179.8996387317
  0
ARC
  5
C7
330
75
100
AcDbEntity
  8
$DDT_AUDIT_GENERATED_(B3)
  6
Continuous
 62
     7
100
AcDbCircle
 10
205.9403175676
 20
567.5147009219
 30
0.0
 40
64.9835633357855
100
AcDbArc
 50
78.2542627784
 51
101.7157680523
  0
ARC
  5
C8
330
75
100
AcDbEntity
  8
$DDT_AUDIT_GENERATED_(B3)
  6
Continuous
 62
     7
100
AcDbCircle
 10
5.6593304304
 20
588.7989129203
 30
0.0
 40
227.5536481997808
100
AcDbArc
 50
0.0830339852
 51
6.4865743425
  0
LINE
  5
C9
330
75
100
AcDbEntity
  8
$DDT_AUDIT_GENERATED_(B3)
  6
Continuous
 62
     7
100
AcDbLine
 10
178.7215213424
 20
589.0756934115
 30
0.0
 11
178.7211018689
 21
588.7496817654
 31
0.0
  0
ARC
  5
CA
330
75
100
AcDbEntity
  8
$DDT_AUDIT_GENERATED_(B3)
  6
Continuous
 62
     7
100
AcDbCircle
 10
218.3049846152
 20
612.7197354615
 30
0.0
 40
13.58808819738102
100
AcDbArc
 50
9.6446064097
 51
47.6407363273
  0
ARC
  5
CB
330
75
100
AcDbEntity
  8
$DDT_AUDIT_GENERATED_(B3)
  6
Continuous
 62
     7
100
AcDbCircle
 10
193.6947068213
 20
612.6553141744
 30
0.0
 40
13.66590635680682
100
AcDbArc
 50
131.8085223474
 51
170.5089644773
  0
SPLINE
  5
CC
330
75
100
AcDbEntity
  8
$DDT_AUDIT_GENERATED_(B3)
  6
Continuous
 62
     7
100
AcDbSpline
210
0.0
220
0.0
230
1.0
 70
     8
 71
     3
 72
    17
 73
    13
 74
     0
 42
0.0000000018105297
 43
0.0000000001
 40
0.0
 40
0.0
 40
0.0
 40
0.0
 40
0.1221032562568778
 40
0.2529615136456111
 40
0.3662270366309069
 40
0.4668702436441577
 40
0.5745569593420954
 40
0.6713860798454241
 40
0.7613044251709007
 40
0.8441421938288334
 40
0.93204210981117
 40
1.0
 40
1.0
 40
1.0
 40
1.0
 10
227.4924619801137
 20
622.7162536375607
 30
0.0
 10
227.2548498522053
 20
622.9556323394002
 30
0.0
 10
226.8414728603731
 20
623.3723284289634
 30
0.0
 10
226.1983650663154
 20
623.9894310675852
 30
0.0
 10
225.6425032098833
 20
624.5250328015359
 30
0.0
 10
225.1652565192098
 20
624.9931602010323
 30
0.0
 10
224.7616632601314
 20
625.4064205087893
 30
0.0
 10
224.4168390315133
 20
625.7757281499006
 30
0.0
 10
224.1505471548004
 20
626.0800712746586
 30
0.0
 10
223.942058192757
 20
626.3401232588413
 30
0.0
 10
223.8077882304522
 20
626.5293129999849
 30
0.0
 10
223.7331160743153
 20
626.6509402068169
 30
0.0
 10
223.6958763075924
 20
626.7125144969465
 30
0.0
  0
ARC
  5
CD
330
75
100
AcDbEntity
  8
$DDT_AUDIT_GENERATED_(B3)
  6
Continuous
 62
     7
100
AcDbCircle
 10
167.3437500605
 20
643.1334771635
 30
0.0
 40
26.6440308243869
100
AcDbArc
 50
310.3348223884
 51
321.9203644272
  0
SPLINE
  5
CE
330
75
100
AcDbEntity
  8
$DDT_AUDIT_GENERATED_(B3)
  6
Continuous
 62
     7
100
AcDbSpline
210
0.0
220
0.0
230
1.0
 70
     8
 71
     3
 72
    16
 73
    12
 74
     0
 42
0.0000000044778275
 43
0.0000000001
 40
0.0
 40
0.0
 40
0.0
 40
0.0
 40
0.0016481713122562
 40
0.1174935394922777
 40
0.2166778490246393
 40
0.3180611980386495
 40
0.4464960769507916
 40
0.5650042717782873
 40
0.6743228507365608
 40
0.7760571848340235
 40
0.8438528643471646
 40
0.8438528643471646
 40
0.8438528643471646
 40
0.8438528643471646
 10
218.4620383388001
 20
626.7110907707611
 30
0.0
 10
218.4632855150892
 20
626.7132064401557
 30
0.0
 10
218.5400032939731
 20
626.8433444037223
 30
0.0
 10
218.6716507605563
 20
627.0923215048155
 30
0.0
 10
218.830417725209
 20
627.3940158910078
 30
0.0
 10
218.9807264321741
 20
627.683599097711
 30
0.0
 10
219.1183007878897
 20
627.943225743281
 30
0.0
 10
219.2362660662107
 20
628.151345889455
 30
0.0
 10
219.3211862418039
 20
628.2853928975219
 30
0.0
 10
219.3681329592362
 20
628.3468050403592
 30
0.0
 10
219.3762984352514
 20
628.3569221723252
 30
0.0
 10
219.3764245106041
 20
628.3569294823506
 30
0.0
  0
SPLINE
  5
CF
330
75
100
AcDbEntity
  8
$DDT_AUDIT_GENERATED_(B3)
  6
Continuous
 62
     7
100
AcDbSpline
210
0.0
220
0.0
230
1.0
 70
     8
 71
     3
 72
    18
 73
    14
 74
     0
 42
0.0000000015597405
 43
0.0000000001
 40
0.0
 40
0.0
 40
0.0
 40
0.0
 40
0.078916050020354
 40
0.174398513202733
 40
0.258965571977316
 40
0.3468568623708713
 40
0.4497475773487443
 40
0.5555020720121383
 40
0.664777797374255
 40
0.7775482848354913
 40
0.8752085625961935
 40
0.9600194382840458
 40
1.0
 40
1.0
 40
1.0
 40
1.0
 10
223.7441098001604
 20
626.6336468682565
 30
0.0
 10
223.6202803395389
 20
626.864226660636
 30
0.0
 10
223.3895642084535
 20
627.2916819829358
 30
0.0
 10
223.0044189794686
 20
627.9131071102622
 30
0.0
 10
222.6263152310702
 20
628.4692198684352
 30
0.0
 10
222.2389624810841
 20
628.9898895174915
 30
0.0
 10
221.8275970770814
 20
629.4845239760605
 30
0.0
 10
221.3898449293
 20
629.9441951446572
 30
0.0
 10
220.9381742488721
 20
630.3463568475468
 30
0.0
 10
220.4877481934281
 20
630.6721151917743
 30
0.0
 10
220.0530511731839
 20
630.9086945459893
 30
0.0
 10
219.6933117367364
 20
631.0559766901931
 30
0.0
 10
219.4877058409903
 20
631.0978203672768
 30
0.0
 10
219.4101029392023
 20
631.1132928047771
 30
0.0
  0
ARC
  5
D0
330
75
100
AcDbEntity
  8
$DDT_AUDIT_GENERATED_(B3)
  6
Continuous
 62
     7
100
AcDbCircle
 10
205.9754758483
 20
640.7129540734
 30
0.0
 40
18.84669868433853
100
AcDbArc
 50
230.1095786192
 51
309.9045021991
  0
SPLINE
  5
D1
330
75
100
AcDbEntity
  8
$DDT_AUDIT_GENERATED_(B3)
  6
Continuous
 62
     7
100
AcDbSpline
210
0.0
220
0.0
230
1.0
 70
     8
 71
     3
 72
    18
 73
    14
 74
     0
 42
0.0000000015748557
 43
0.0000000001
 40
0.0
 40
0.0
 40
0.0
 40
0.0
 40
0.0378477571666811
 40
0.1168327237866225
 40
0.2067866332465414
 40
0.3092514384232566
 40
0.4213331295964187
 40
0.5352290604792661
 40
0.645680833262223
 40
0.7522823217765076
 40
0.8397681318946592
 40
0.9299560391620272
 40
1.0
 40
1.0
 40
1.0
 40
1.0
 10
192.5894617988633
 20
631.1205822301956
 30
0.0
 10
192.5158422704587
 20
631.1062353690289
 30
0.0
 10
192.3229981170534
 20
631.0678890113994
 30
0.0
 10
191.9873096682323
 20
630.9348623324196
 30
0.0
 10
191.5868416095392
 20
630.7249987870216
 30
0.0
 10
191.1590208178806
 20
630.4287759552891
 30
0.0
 10
190.7115604258774
 20
630.0446742823578
 30
0.0
 10
190.2559103427147
 20
629.5759357052768
 30
0.0
 10
189.8047672002854
 20
629.0370591452917
 30
0.0
 10
189.3838479257237
 20
628.4661910099062
 30
0.0
 10
188.9871897926416
 20
627.8704579378278
 30
0.0
 10
188.6256321739387
 20
627.2757307832262
 30
0.0
 10
188.4172002371907
 20
626.8816706198628
 30
0.0
 10
188.3093006082449
 20
626.6767282743835
 30
0.0
  0
SPLINE
  5
D2
330
75
100
AcDbEntity
  8
$DDT_AUDIT_GENERATED_(B3)
  6
Continuous
 62
     7
100
AcDbSpline
210
0.0
220
0.0
230
1.0
 70
     8
 71
     3
 72
    15
 73
    11
 74
     0
 42
0.0000000044376165
 43
0.0000000001
 40
0.1628408744983218
 40
0.1628408744983218
 40
0.1628408744983218
 40
0.1628408744983218
 40
0.178313105446719
 40
0.2778462605483311
 40
0.3813518436918332
 40
0.4922986643843018
 40
0.6124754494863204
 40
0.7427693261361831
 40
0.8831666939818537
 40
1.0
 40
1.0
 40
1.0
 40
1.0
 10
192.5840751043286
 20
628.3711979639215
 30
0.0
 10
192.5841626163719
 20
628.3712081274729
 30
0.0
 10
192.5862716483439
 20
628.3696301447234
 30
0.0
 10
192.6084338536099
 20
628.3423555905799
 30
0.0
 10
192.6755499042879
 20
628.2427938755069
 30
0.0
 10
192.7732665945739
 20
628.0756765748445
 30
0.0
 10
192.902543340533
 20
627.8338457221677
 30
0.0
 10
193.0675252281487
 20
627.5123768249466
 30
0.0
 10
193.2581660826363
 20
627.1359484577794
 30
0.0
 10
193.4064301258359
 20
626.8640019014829
 30
0.0
 10
193.4866450252285
 20
626.7166810058864
 30
0.0
  0
ARC
  5
D3
330
75
100
AcDbEntity
  8
$DDT_AUDIT_GENERATED_(B3)
  6
Continuous
 62
     7
100
AcDbCircle
 10
217.160064494
 20
627.4492608728
 30
0.0
 40
1.500000000000002
100
AcDbArc
 50
307.1905705386
 51
331.3208333456
  0
ARC
  5
D4
330
75
100
AcDbEntity
  8
$DDT_AUDIT_GENERATED_(B3)
  6
Continuous
 62
     7
100
AcDbCircle
 10
194.7937634177
 20
627.4462857074
 30
0.0
 40
1.499999999999994
100
AcDbArc
 50
208.3236641509
 51
232.8337688866
  0
ELLIPSE
  5
D6
330
75
100
AcDbEntity
  8
$DDT_AUDIT_GENERATED_(D5)
  6
Continuous
 62
     7
100
AcDbEllipse
 10
205.9707419558
 20
600.9032442918
 30
0.0
 11
0.0
 21
3.354954444462864
 31
0.0
210
0.0
220
0.0
230
1.0
 40
1.0
 41
4.010336590518263
 42
6.283185307179586
  0
ELLIPSE
  5
D7
330
75
100
AcDbEntity
  8
$DDT_AUDIT_GENERATED_(D5)
  6
Continuous
 62
     7
100
AcDbEllipse
 10
205.9707419558
 20
600.9032442918
 30
0.0
 11
0.0
 21
3.361917017516362
 31
0.0
210
0.0
220
0.0
230
1.0
 40
1.0
 41
0.0
 42
2.261990645688511
  0
ELLIPSE
  5
D9
330
75
100
AcDbEntity
  8
$DDT_AUDIT_GENERATED_(D8)
  6
Continuous
 62
     7
100
AcDbEllipse
 10
150.4742026783
 20
691.9308840099
 30
0.0
 11
10.50000000000001
 21
0.0
 31
0.0
210
0.0
220
0.0
230
1.0
 40
0.1736481777
 41
0.0
 42
3.872172283044836
  0
ELLIPSE
  5
DA
330
75
100
AcDbEntity
  8
$DDT_AUDIT_GENERATED_(D8)
  6
Continuous
 62
     7
100
AcDbEllipse
 10
150.4742026783
 20
691.9308840099
 30
0.0
 11
10.50000000000001
 21
0.0
 31
0.0
210
0.0
220
0.0
230
1.0
 40
0.1736481777
 41
5.552605673377522
 42
6.283185307179586
  0
ELLIPSE
  5
DB
330
75
100
AcDbEntity
  8
$DDT_AUDIT_GENERATED_(D8)
  6
Continuous
 62
     7
100
AcDbEllipse
 10
150.4742026783
 20
691.9308840099
 30
0.0
 11
10.05
 21
0.0
 31
0.0
210
0.0
220
0.0
230
1.0
 40
0.1736481777
 41
5.739952599613749
 42
6.283185307179586
  0
ELLIPSE
  5
DC
330
75
100
AcDbEntity
  8
$DDT_AUDIT_GENERATED_(D8)
  6
Continuous
 62
     7
100
AcDbEllipse
 10
150.4742026783
 20
691.9308840099
 30
0.0
 11
10.05
 21
0.0
 31
0.0
210
0.0
220
0.0
230
1.0
 40
0.1736481777
 41
0.0
 42
3.684825357379534
  0
ELLIPSE
  5
DD
330
75
100
AcDbEntity
  8
$DDT_AUDIT_GENERATED_(D8)
  6
Continuous
 62
     7
100
AcDbEllipse
 10
150.4742026783
 20
708.6726158111
 30
0.0
 11
11.35
 21
0.0
 31
0.0
210
0.0
220
0.0
230
1.0
 40
0.1736481777
 41
0.242579254866827
 42
2.844496853511854
  0
ARC
  5
DE
330
75
100
AcDbEntity
  8
$DDT_AUDIT_GENERATED_(D8)
  6
Continuous
 62
     7
100
AcDbCircle
 10
155.420964918
 20
697.5330196621
 30
0.0
 40
16.44266644425978
100
AcDbArc
 50
179.8103053456
 51
200.361627467
  0
ARC
  5
DF
330
75
100
AcDbEntity
  8
$DDT_AUDIT_GENERATED_(D8)
  6
Continuous
 62
     7
100
AcDbCircle
 10
145.3046506805
 20
697.5545784242
 30
0.0
 40
16.66541958374248
100
AcDbArc
 50
339.8191388982
 51
0.1152769355
  0
LINE
  5
E0
330
75
100
AcDbEntity
  8
$DDT_AUDIT_GENERATED_(D8)
  6
Continuous
 62
     7
100
AcDbLine
 10
161.9742026783
 20
697.5881738419
 30
0.0
 11
161.9742026783
 21
708.5248946482
 31
0.0
  0
LINE
  5
E1
330
75
100
AcDbEntity
  8
$DDT_AUDIT_GENERATED_(D8)
  6
Continuous
 62
     7
100
AcDbLine
 10
138.9742026783
 20
708.5248946482
 30
0.0
 11
138.9742026783
 21
697.5881738419
 31
0.0
  0
SPLINE
  5
E2
330
75
100
AcDbEntity
  8
$DDT_AUDIT_GENERATED_(D8)
  6
Continuous
 62
     7
100
AcDbSpline
210
0.0
220
0.0
230
1.0
 70
     8
 71
     3
 72
    12
 73
     8
 74
     0
 42
0.0000000103977877
 43
0.0000000001
 40
0.0
 40
0.0
 40
0.0
 40
0.0
 40
0.1934092712165917
 40
0.4794474036302977
 40
0.7252582278221872
 40
0.9500827929935279
 40
1.0
 40
1.0
 40
1.0
 40
1.0
 10
139.5534552091577
 20
709.2302951646999
 30
0.0
 10
139.4792896216895
 20
709.1885409022378
 30
0.0
 10
139.3257136556012
 20
709.1001907407267
 30
0.0
 10
139.1448770007891
 20
708.9403678445073
 30
0.0
 10
139.0236367058601
 20
708.7625948774738
 30
0.0
 10
138.9689892128184
 20
708.616434308119
 30
0.0
 10
138.9786417670223
 20
708.5454410524499
 30
0.0
 10
138.9807603826639
 20
708.530342815397
 30
0.0
  0
ARC
  5
E3
330
75
100
AcDbEntity
  8
$DDT_AUDIT_GENERATED_(D8)
  6
Continuous
 62
     7
100
AcDbCircle
 10
161.2430101966
 20
708.4585589696
 30
0.0
 40
0.7341953878252734
100
AcDbArc
 50
5.183830823
 51
61.7621912569
  0
ELLIPSE
  5
E5
330
75
100
AcDbEntity
  8
$DDT_AUDIT_GENERATED_(E4)
  6
Continuous
 62
     7
100
AcDbEllipse
 10
150.4742026783
 20
691.4877205211
 30
0.0
 11
9.000000000000002
 21
0.0
 31
0.0
210
0.0
220
0.0
230
1.0
 40
0.1736481777
 41
0.0
 42
6.283185307179586
  0
ELLIPSE
  5
E6
330
75
100
AcDbEntity
  8
$DDT_AUDIT_GENERATED_(E4)
  6
Continuous
 62
     7
100
AcDbEllipse
 10
150.4742026783
 20
691.4877205211
 30
0.0
 11
5.250000000000004
 21
0.0
 31
0.0
210
0.0
220
0.0
230
1.0
 40
0.1736481777
 41
0.0
 42
6.283185307179586
  0
ELLIPSE
  5
E7
330
75
100
AcDbEntity
  8
$DDT_AUDIT_GENERATED_(E4)
  6
Continuous
 62
     7
100
AcDbEllipse
 10
150.4742026783
 20
691.4877205211
 30
0.0
 11
6.249999999999998
 21
-2.775557561562892E-14
 31
0.0
210
0.0
220
0.0
230
1.0
 40
0.1736481777
 41
0.0
 42
6.283185307179586
  0
ELLIPSE
  5
E8
330
75
100
AcDbEntity
  8
$DDT_AUDIT_GENERATED_(E4)
  6
Continuous
 62
     7
100
AcDbEllipse
 10
150.4742026783
 20
691.4877205211
 30
0.0
 11
2.750000000000003
 21
0.0
 31
0.0
210
0.0
220
0.0
230
1.0
 40
0.1736481777
 41
0.0
 42
6.283185307179586
  0
ELLIPSE
  5
E9
330
75
100
AcDbEntity
  8
$DDT_AUDIT_GENERATED_(E4)
  6
Continuous
 62
     7
100
AcDbEllipse
 10
150.4742026783
 20
691.4877205211
 30
0.0
 11
2.149999999999999
 21
0.0
 31
0.0
210
0.0
220
0.0
230
1.0
 40
0.1736481777
 41
0.0
 42
6.283185307179586
  0
ELLIPSE
  5
EA
330
75
100
AcDbEntity
  8
$DDT_AUDIT_GENERATED_(E4)
  6
Continuous
 62
     7
100
AcDbEllipse
 10
150.4742026783
 20
691.6846820717
 30
0.0
 11
-0.5196299438963575
 21
0.0
 31
0.0
210
0.0
220
0.0
230
1.0
 40
0.1736481777
 41
0.0
 42
6.283185307179586
  0
ELLIPSE
  5
EB
330
75
100
AcDbEntity
  8
$DDT_AUDIT_GENERATED_(E4)
  6
Continuous
 62
     7
100
AcDbEllipse
 10
150.4742026783
 20
691.4877205211
 30
0.0
 11
8.700000000000006
 21
0.0
 31
0.0
210
0.0
220
0.0
230
1.0
 40
0.1736481777
 41
0.0
 42
6.283185307179586
  0
ARC
  5
EC
330
75
100
AcDbEntity
  8
$DDT_AUDIT_GENERATED_(E4)
  6
Continuous
 62
     7
100
AcDbCircle
 10
142.2310795575
 20
691.6846820717
 30
0.0
 40
0.2568762259811989
100
AcDbArc
 50
176.1238526717
 51
183.8761473283
  0
ARC
  5
ED
330
75
100
AcDbEntity
  8
$DDT_AUDIT_GENERATED_(E4)
  6
Continuous
 62
     7
100
AcDbCircle
 10
144.413439165
 20
691.6846820717
 30
0.0
 40
0.1892348465219825
100
AcDbArc
 50
174.7349422714
 51
180.0
  0
ELLIPSE
  5
EE
330
75
100
AcDbEntity
  8
$DDT_AUDIT_GENERATED_(E4)
  6
Continuous
 62
     7
100
AcDbEllipse
 10
150.4742026783
 20
691.6846820717
 30
0.0
 11
-8.500000000024432
 21
-1.165734175856414E-12
 31
0.0
210
0.0
220
0.0
230
1.0
 40
0.1736481777
 41
0.0117649772879327
 42
0.2500344105106342
  0
LINE
  5
EF
330
75
100
AcDbEntity
  8
$DDT_AUDIT_GENERATED_(E4)
  6
Continuous
 62
     7
100
AcDbLine
 10
144.2250027295
 20
691.7020468894
 30
0.0
 11
144.2250027295
 21
691.9574730201
 31
0.0
  0
LINE
  5
F0
330
75
100
AcDbEntity
  8
$DDT_AUDIT_GENERATED_(E4)
  6
Continuous
 62
     7
100
AcDbLine
 10
144.2250027295
 20
691.7020468894
 30
0.0
 11
141.9747909339
 21
691.7020468894
 31
0.0
  0
LINE
  5
F1
330
75
100
AcDbEntity
  8
$DDT_AUDIT_GENERATED_(E4)
  6
Continuous
 62
     7
100
AcDbLine
 10
144.2242026783
 20
691.6673172539
 30
0.0
 11
141.9747909339
 21
691.6673172539
 31
0.0
  0
LINE
  5
F2
330
75
100
AcDbEntity
  8
$DDT_AUDIT_GENERATED_(E4)
  6
Continuous
 62
     7
100
AcDbLine
 10
151.7584168544
 20
691.6287973369
 30
0.0
 11
151.0280652989
 21
691.8484633238
 31
0.0
  0
LINE
  5
F3
330
75
100
AcDbEntity
  8
$DDT_AUDIT_GENERATED_(E4)
  6
Continuous
 62
     7
100
AcDbLine
 10
151.7584168544
 20
691.7871462763
 30
0.0
 11
151.7584168544
 21
691.6287973369
 31
0.0
  0
LINE
  5
F4
330
75
100
AcDbEntity
  8
$DDT_AUDIT_GENERATED_(E4)
  6
Continuous
 62
     7
100
AcDbLine
 10
151.3254041525
 20
691.5853852925
 30
0.0
 11
150.9938326222
 21
691.6851112216
 31
0.0
  0
ELLIPSE
  5
F5
330
75
100
AcDbEntity
  8
$DDT_AUDIT_GENERATED_(E4)
  6
Continuous
 62
     7
100
AcDbEllipse
 10
150.4742026783
 20
691.9282230921
 30
0.0
 11
2.150000000003968
 21
-1.054711873393899E-12
 31
0.0
210
0.0
220
0.0
230
1.0
 40
0.1736481777
 41
-1.163740259645112
 42
-0.9306548427468293
  0
ELLIPSE
  5
F6
330
75
100
AcDbEntity
  8
$DDT_AUDIT_GENERATED_(E4)
  6
Continuous
 62
     7
100
AcDbEllipse
 10
150.4742026783
 20
691.6846820717
 30
0.0
 11
-8.500000000024821
 21
1.165734175856415E-12
 31
0.0
210
0.0
220
0.0
230
1.0
 40
0.1736481777
 41
6.171271403731657
 42
6.271420329891719
  0
ELLIPSE
  5
F7
330
75
100
AcDbEntity
  8
$DDT_AUDIT_GENERATED_(E4)
  6
Continuous
 62
     7
100
AcDbEllipse
 10
150.4742027336
 20
691.6846820691
 30
0.0
 11
-6.250000055365988
 21
2.585376357444602E-9
 31
0.0
210
0.0
220
0.0
230
1.0
 40
0.173648177
 41
-0.2778000692532565
 42
-0.2457987039092657
  0
LINE
  5
F8
330
75
100
AcDbEntity
  8
$DDT_AUDIT_GENERATED_(E4)
  6
Continuous
 62
     7
100
AcDbLine
 10
144.4638209586
 20
691.9823158376
 30
0.0
 11
144.4638209586
 21
692.2672066678
 31
0.0
  0
LINE
  5
F9
330
75
100
AcDbEntity
  8
$DDT_AUDIT_GENERATED_(E4)
  6
Continuous
 62
     7
100
AcDbLine
 10
144.4638209586
 20
691.9823158376
 30
0.0
 11
142.4598267812
 21
692.0755594602
 31
0.0
  0
LINE
  5
FA
330
75
100
AcDbEntity
  8
$DDT_AUDIT_GENERATED_(E4)
  6
Continuous
 62
     7
100
AcDbLine
 10
144.4120571496
 20
691.9487695857
 30
0.0
 11
142.3835378912
 21
692.0431543331
 31
0.0
  0
ELLIPSE
  5
FB
330
75
100
AcDbEntity
  8
$DDT_AUDIT_GENERATED_(E4)
  6
Continuous
 62
     7
100
AcDbEllipse
 10
150.4742026823
 20
691.6846820712
 30
0.0
 11
-6.250000004106193
 21
4.194700142789997E-10
 31
0.0
210
0.0
220
0.0
230
1.0
 40
0.1736481776
 41
-0.5395994581631305
 42
-0.5075980926844421
  0
LINE
  5
FC
330
75
100
AcDbEntity
  8
$DDT_AUDIT_GENERATED_(E4)
  6
Continuous
 62
     7
100
AcDbLine
 10
145.1122367693
 20
692.2423015365
 30
0.0
 11
145.1122367693
 21
692.5912201197
 31
0.0
  0
LINE
  5
FD
330
75
100
AcDbEntity
  8
$DDT_AUDIT_GENERATED_(E4)
  6
Continuous
 62
     7
100
AcDbLine
 10
145.1122367693
 20
692.2423015365
 30
0.0
 11
143.5394569382
 21
692.3999818715
 31
0.0
  0
LINE
  5
FE
330
75
100
AcDbEntity
  8
$DDT_AUDIT_GENERATED_(E4)
  6
Continuous
 62
     7
100
AcDbLine
 10
145.0122367693
 20
692.2122247899
 30
0.0
 11
143.4197736035
 21
692.3718784937
 31
0.0
  0
ELLIPSE
  5
FF
330
75
100
AcDbEntity
  8
$DDT_AUDIT_GENERATED_(E4)
  6
Continuous
 62
     7
100
AcDbEllipse
 10
150.4742026807
 20
691.6846820713
 30
0.0
 11
-6.25000000261125
 21
2.695066392277568E-10
 31
0.0
210
0.0
220
0.0
230
1.0
 40
0.1736481777
 41
-0.8013988459911161
 42
-0.7693974805093573
  0
LINE
  5
100
330
75
100
AcDbEntity
  8
$DDT_AUDIT_GENERATED_(E4)
  6
Continuous
 62
     7
100
AcDbLine
 10
146.1260616956
 20
692.4642863903
 30
0.0
 11
146.1260616956
 21
692.796245324
 31
0.0
  0
LINE
  5
101
330
75
100
AcDbEntity
  8
$DDT_AUDIT_GENERATED_(E4)
  6
Continuous
 62
     7
100
AcDbLine
 10
146.1260616956
 20
692.4642863903
 30
0.0
 11
144.9933683498
 21
692.6609765257
 31
0.0
  0
LINE
  5
102
330
75
100
AcDbEntity
  8
$DDT_AUDIT_GENERATED_(E4)
  6
Continuous
 62
     7
100
AcDbLine
 10
145.9846403394
 20
692.4397288296
 30
0.0
 11
144.8388529277
 21
692.6386927256
 31
0.0
  0
ELLIPSE
  5
103
330
75
100
AcDbEntity
  8
$DDT_AUDIT_GENERATED_(E4)
  6
Continuous
 62
     7
100
AcDbEllipse
 10
150.4742026474
 20
691.684682081
 30
0.0
 11
-6.249999961434188
 21
-4.819339372019726E-9
 31
0.0
210
0.0
220
0.0
230
1.0
 40
0.1736481772
 41
-1.063198236297382
 42
-1.031196870648865
  0
LINE
  5
104
330
75
100
AcDbEntity
  8
$DDT_AUDIT_GENERATED_(E4)
  6
Continuous
 62
     7
100
AcDbLine
 10
147.4362052443
 20
692.6331424982
 30
0.0
 11
147.4362052443
 21
692.9033586976
 31
0.0
  0
LINE
  5
105
330
75
100
AcDbEntity
  8
$DDT_AUDIT_GENERATED_(E4)
  6
Continuous
 62
     7
100
AcDbLine
 10
147.4362052443
 20
692.6331424982
 30
0.0
 11
146.7147605678
 21
692.8501295857
 31
0.0
  0
LINE
  5
106
330
75
100
AcDbEntity
  8
$DDT_AUDIT_GENERATED_(E4)
  6
Continuous
 62
     7
100
AcDbLine
 10
147.2630001635
 20
692.6157776805
 30
0.0
 11
146.5350224425
 21
692.8347296952
 31
0.0
  0
ELLIPSE
  5
107
330
75
100
AcDbEntity
  8
$DDT_AUDIT_GENERATED_(E4)
  6
Continuous
 62
     7
100
AcDbEllipse
 10
150.4742026967
 20
691.6846820597
 30
0.0
 11
-6.250000037914885
 21
3.191336084285013E-9
 31
0.0
210
0.0
220
0.0
230
1.0
 40
0.1736481785
 41
-1.324997620134363
 42
-1.292996254825709
  0
LINE
  5
108
330
75
100
AcDbEntity
  8
$DDT_AUDIT_GENERATED_(E4)
  6
Continuous
 62
     7
100
AcDbLine
 10
148.9533832975
 20
692.7373625955
 30
0.0
 11
148.9533832975
 21
692.9751984373
 31
0.0
  0
LINE
  5
109
330
75
100
AcDbEntity
  8
$DDT_AUDIT_GENERATED_(E4)
  6
Continuous
 62
     7
100
AcDbLine
 10
148.9533832975
 20
692.7373625955
 30
0.0
 11
148.6049388511
 21
692.9631768351
 31
0.0
  0
LINE
  5
10A
330
75
100
AcDbEntity
  8
$DDT_AUDIT_GENERATED_(E4)
  6
Continuous
 62
     7
100
AcDbLine
 10
148.7601981322
 20
692.7283739044
 30
0.0
 11
148.4100058905
 21
692.9553208269
 31
0.0
  0
ARC
  5
10B
330
75
100
AcDbEntity
  8
$DDT_AUDIT_GENERATED_(E4)
  6
Continuous
 62
     7
100
AcDbCircle
 10
150.4742026783
 20
656.7821360468
 30
0.0
 40
35.98784714392077
100
AcDbArc
 50
89.8407911065
 51
90.1592088935
  0
LINE
  5
10C
330
75
100
AcDbEntity
  8
$DDT_AUDIT_GENERATED_(E4)
  6
Continuous
 62
     7
100
AcDbLine
 10
150.5742026783
 20
692.7698442547
 30
0.0
 11
150.5742026783
 21
692.9983598657
 31
0.0
  0
LINE
  5
10D
330
75
100
AcDbEntity
  8
$DDT_AUDIT_GENERATED_(E4)
  6
Continuous
 62
     7
100
AcDbLine
 10
150.3742026783
 20
692.7698442547
 30
0.0
 11
150.3742026783
 21
692.9983598657
 31
0.0
  0
ELLIPSE
  5
10E
330
75
100
AcDbEntity
  8
$DDT_AUDIT_GENERATED_(E4)
  6
Continuous
 62
     7
100
AcDbEllipse
 10
150.474202663
 20
691.6846820617
 30
0.0
 11
6.250000031517197
 21
2.647770891428536E-9
 31
0.0
210
0.0
220
0.0
230
1.0
 40
0.1736481784
 41
1.292996255073782
 42
1.32499762041305
  0
LINE
  5
10F
330
75
100
AcDbEntity
  8
$DDT_AUDIT_GENERATED_(E4)
  6
Continuous
 62
     7
100
AcDbLine
 10
152.1882072243
 20
692.7283739044
 30
0.0
 11
152.5383994661
 21
692.9553208269
 31
0.0
  0
LINE
  5
110
330
75
100
AcDbEntity
  8
$DDT_AUDIT_GENERATED_(E4)
  6
Continuous
 62
     7
100
AcDbLine
 10
151.995022059
 20
692.7373625955
 30
0.0
 11
152.3434665055
 21
692.9631768351
 31
0.0
  0
LINE
  5
111
330
75
100
AcDbEntity
  8
$DDT_AUDIT_GENERATED_(E4)
  6
Continuous
 62
     7
100
AcDbLine
 10
151.995022059
 20
692.7373625955
 30
0.0
 11
151.995022059
 21
692.9751984373
 31
0.0
  0
ELLIPSE
  5
112
330
75
100
AcDbEntity
  8
$DDT_AUDIT_GENERATED_(E4)
  6
Continuous
 62
     7
100
AcDbEllipse
 10
150.4742026624
 20
691.6846820669
 30
0.0
 11
6.250000019837603
 21
2.458172554398175E-9
 31
0.0
210
0.0
220
0.0
230
1.0
 40
0.1736481779
 41
1.031196867325756
 42
1.063198232735065
  0
LINE
  5
113
330
75
100
AcDbEntity
  8
$DDT_AUDIT_GENERATED_(E4)
  6
Continuous
 62
     7
100
AcDbLine
 10
153.685405193
 20
692.6157776805
 30
0.0
 11
154.413382914
 21
692.8347296952
 31
0.0
  0
LINE
  5
114
330
75
100
AcDbEntity
  8
$DDT_AUDIT_GENERATED_(E4)
  6
Continuous
 62
     7
100
AcDbLine
 10
153.5122001123
 20
692.6331424982
 30
0.0
 11
154.2336447888
 21
692.8501295857
 31
0.0
  0
LINE
  5
115
330
75
100
AcDbEntity
  8
$DDT_AUDIT_GENERATED_(E4)
  6
Continuous
 62
     7
100
AcDbLine
 10
153.5122001123
 20
692.6331424982
 30
0.0
 11
153.5122001123
 21
692.9033586976
 31
0.0
  0
ELLIPSE
  5
116
330
75
100
AcDbEntity
  8
$DDT_AUDIT_GENERATED_(E4)
  6
Continuous
 62
     7
100
AcDbEllipse
 10
150.4742026369
 20
691.6846820644
 30
0.0
 11
6.250000043852663
 21
5.271227898617781E-9
 31
0.0
210
0.0
220
0.0
230
1.0
 40
0.1736481777
 41
0.769397478242499
 42
0.8013988435833976
  0
LINE
  5
117
330
75
100
AcDbEntity
  8
$DDT_AUDIT_GENERATED_(E4)
  6
Continuous
 62
     7
100
AcDbLine
 10
154.9637650172
 20
692.4397288296
 30
0.0
 11
156.1095524288
 21
692.6386927256
 31
0.0
  0
LINE
  5
118
330
75
100
AcDbEntity
  8
$DDT_AUDIT_GENERATED_(E4)
  6
Continuous
 62
     7
100
AcDbLine
 10
154.8223436609
 20
692.4642863903
 30
0.0
 11
155.9550370068
 21
692.6609765257
 31
0.0
  0
LINE
  5
119
330
75
100
AcDbEntity
  8
$DDT_AUDIT_GENERATED_(E4)
  6
Continuous
 62
     7
100
AcDbLine
 10
154.8223436609
 20
692.4642863903
 30
0.0
 11
154.8223436609
 21
692.796245324
 31
0.0
  0
ELLIPSE
  5
11A
330
75
100
AcDbEntity
  8
$DDT_AUDIT_GENERATED_(E4)
  6
Continuous
 62
     7
100
AcDbEllipse
 10
150.4742026283
 20
691.6846820667
 30
0.0
 11
6.250000050473083
 21
4.431510713942544E-9
 31
0.0
210
0.0
220
0.0
230
1.0
 40
0.1736481773
 41
0.507598090804869
 42
0.5395994561478908
  0
LINE
  5
11B
330
75
100
AcDbEntity
  8
$DDT_AUDIT_GENERATED_(E4)
  6
Continuous
 62
     7
100
AcDbLine
 10
155.9361685873
 20
692.2122247899
 30
0.0
 11
157.528631753
 21
692.3718784937
 31
0.0
  0
LINE
  5
11C
330
75
100
AcDbEntity
  8
$DDT_AUDIT_GENERATED_(E4)
  6
Continuous
 62
     7
100
AcDbLine
 10
155.8361685873
 20
692.2423015365
 30
0.0
 11
157.4089484183
 21
692.3999818715
 31
0.0
  0
LINE
  5
11D
330
75
100
AcDbEntity
  8
$DDT_AUDIT_GENERATED_(E4)
  6
Continuous
 62
     7
100
AcDbLine
 10
155.8361685873
 20
692.2423015365
 30
0.0
 11
155.8361685873
 21
692.5912201197
 31
0.0
  0
ELLIPSE
  5
11E
330
75
100
AcDbEntity
  8
$DDT_AUDIT_GENERATED_(E4)
  6
Continuous
 62
     7
100
AcDbEllipse
 10
150.4742026224
 20
691.6846820691
 30
0.0
 11
6.250000055858427
 21
2.608163685025033E-9
 31
0.0
210
0.0
220
0.0
230
1.0
 40
0.173648177
 41
0.2457987038997254
 42
0.2778000692423072
  0
LINE
  5
11F
330
75
100
AcDbEntity
  8
$DDT_AUDIT_GENERATED_(E4)
  6
Continuous
 62
     7
100
AcDbLine
 10
156.536348207
 20
691.9487695857
 30
0.0
 11
158.5648674653
 21
692.0431543331
 31
0.0
  0
LINE
  5
120
330
75
100
AcDbEntity
  8
$DDT_AUDIT_GENERATED_(E4)
  6
Continuous
 62
     7
100
AcDbLine
 10
156.4845843979
 20
691.9823158376
 30
0.0
 11
158.4885785753
 21
692.0755594602
 31
0.0
  0
LINE
  5
121
330
75
100
AcDbEntity
  8
$DDT_AUDIT_GENERATED_(E4)
  6
Continuous
 62
     7
100
AcDbLine
 10
156.4845843979
 20
691.9823158376
 30
0.0
 11
156.4845843979
 21
692.2672066678
 31
0.0
  0
ARC
  5
122
330
75
100
AcDbEntity
  8
$DDT_AUDIT_GENERATED_(E4)
  6
Continuous
 62
     7
100
AcDbCircle
 10
158.717325799
 20
691.6846820717
 30
0.0
 40
0.2568762259804411
100
AcDbArc
 50
356.1238526717
 51
3.8761473283
  0
ELLIPSE
  5
123
330
75
100
AcDbEntity
  8
$DDT_AUDIT_GENERATED_(E4)
  6
Continuous
 62
     7
100
AcDbEllipse
 10
150.4742026782
 20
691.6846820717
 30
0.0
 11
8.500000000027242
 21
1.221245327087672E-12
 31
0.0
210
0.0
220
0.0
230
1.0
 40
0.1736481777
 41
0.0117649772879138
 42
0.111913912019186
  0
ARC
  5
124
330
75
100
AcDbEntity
  8
$DDT_AUDIT_GENERATED_(E4)
  6
Continuous
 62
     7
100
AcDbCircle
 10
156.5349661915
 20
691.6846820717
 30
0.0
 40
0.1892348465219825
100
AcDbArc
 50
0.0
 51
5.2650577286
  0
LINE
  5
125
330
75
100
AcDbEntity
  8
$DDT_AUDIT_GENERATED_(E4)
  6
Continuous
 62
     7
100
AcDbLine
 10
156.7242026783
 20
691.6673172539
 30
0.0
 11
158.9736144226
 21
691.6673172539
 31
0.0
  0
LINE
  5
126
330
75
100
AcDbEntity
  8
$DDT_AUDIT_GENERATED_(E4)
  6
Continuous
 62
     7
100
AcDbLine
 10
156.7234026271
 20
691.7020468894
 30
0.0
 11
158.9736144226
 21
691.7020468894
 31
0.0
  0
LINE
  5
127
330
75
100
AcDbEntity
  8
$DDT_AUDIT_GENERATED_(E4)
  6
Continuous
 62
     7
100
AcDbLine
 10
156.7234026271
 20
691.7020468894
 30
0.0
 11
156.7234026271
 21
691.9574730201
 31
0.0
  0
ELLIPSE
  5
128
330
75
100
AcDbEntity
  8
$DDT_AUDIT_GENERATED_(E4)
  6
Continuous
 62
     7
100
AcDbEllipse
 10
150.4742030685
 20
691.6846820536
 30
0.0
 11
8.499999609583336
 21
1.796818249744092E-8
 31
0.0
210
0.0
220
0.0
230
1.0
 40
0.1736481812
 41
-0.2735643716751008
 42
-0.2500344165398456
  0
ELLIPSE
  5
129
330
75
100
AcDbEntity
  8
$DDT_AUDIT_GENERATED_(E4)
  6
Continuous
 62
     7
100
AcDbEllipse
 10
150.4742026782
 20
691.6846820717
 30
0.0
 11
8.500000000023503
 21
-1.137978600240785E-12
 31
0.0
210
0.0
220
0.0
230
1.0
 40
0.1736481777
 41
6.033150896668946
 42
6.27142032989155
  0
LINE
  5
12A
330
75
100
AcDbEntity
  8
$DDT_AUDIT_GENERATED_(E4)
  6
Continuous
 62
     7
100
AcDbLine
 10
158.7098858949
 20
691.3194622639
 30
0.0
 11
158.7098858949
 21
691.6673172539
 31
0.0
  0
LINE
  5
12B
330
75
100
AcDbEntity
  8
$DDT_AUDIT_GENERATED_(E4)
  6
Continuous
 62
     7
100
AcDbLine
 10
156.6918323856
 20
691.3774052871
 30
0.0
 11
158.6581220859
 21
691.285916012
 31
0.0
  0
LINE
  5
12C
330
75
100
AcDbEntity
  8
$DDT_AUDIT_GENERATED_(E4)
  6
Continuous
 62
     7
100
AcDbLine
 10
156.7091940631
 20
691.412552232
 30
0.0
 11
158.7098858949
 21
691.3194622639
 31
0.0
  0
ELLIPSE
  5
12D
330
75
100
AcDbEntity
  8
$DDT_AUDIT_GENERATED_(E4)
  6
Continuous
 62
     7
100
AcDbEllipse
 10
150.4742030856
 20
691.6846820308
 30
0.0
 11
8.499999588431264
 21
3.653125024705162E-8
 31
0.0
210
0.0
220
0.0
230
1.0
 40
0.1736481801
 41
-0.5353637659404793
 42
-0.5118338107132931
  0
ELLIPSE
  5
12E
330
75
100
AcDbEntity
  8
$DDT_AUDIT_GENERATED_(E4)
  6
Continuous
 62
     7
100
AcDbEllipse
 10
150.4742026782
 20
691.6846820717
 30
0.0
 11
8.500000000033863
 21
-1.665334536937735E-12
 31
0.0
210
0.0
220
0.0
230
1.0
 40
0.1736481777
 41
-0.511833798309139
 42
-0.2735643650867088
  0
LINE
  5
12F
330
75
100
AcDbEntity
  8
$DDT_AUDIT_GENERATED_(E4)
  6
Continuous
 62
     7
100
AcDbLine
 10
157.8849091661
 20
690.9617667647
 30
0.0
 11
157.8849091661
 21
691.3218927501
 31
0.0
  0
LINE
  5
130
330
75
100
AcDbEntity
  8
$DDT_AUDIT_GENERATED_(E4)
  6
Continuous
 62
     7
100
AcDbLine
 10
156.2738052677
 20
691.0831869817
 30
0.0
 11
157.7849091661
 21
690.931690018
 31
0.0
  0
LINE
  5
131
330
75
100
AcDbEntity
  8
$DDT_AUDIT_GENERATED_(E4)
  6
Continuous
 62
     7
100
AcDbLine
 10
156.3462368309
 20
691.1160276246
 30
0.0
 11
157.8849091661
 21
690.9617667647
 31
0.0
  0
ELLIPSE
  5
132
330
75
100
AcDbEntity
  8
$DDT_AUDIT_GENERATED_(E4)
  6
Continuous
 62
     7
100
AcDbEllipse
 10
150.4742030122
 20
691.6846820138
 30
0.0
 11
8.499999645790659
 21
4.221550886640557E-8
 31
0.0
210
0.0
220
0.0
230
1.0
 40
0.1736481777
 41
-0.797163155767497
 42
-0.7736332005376667
  0
ELLIPSE
  5
133
330
75
100
AcDbEntity
  8
$DDT_AUDIT_GENERATED_(E4)
  6
Continuous
 62
     7
100
AcDbEllipse
 10
150.4742026782
 20
691.6846820717
 30
0.0
 11
8.500000000024086
 21
-2.137179322403426E-12
 31
0.0
210
0.0
220
0.0
230
1.0
 40
0.1736481777
 41
-0.7736331861082686
 42
-0.5353637528856847
  0
LINE
  5
134
330
75
100
AcDbEntity
  8
$DDT_AUDIT_GENERATED_(E4)
  6
Continuous
 62
     7
100
AcDbLine
 10
156.5549050369
 20
690.653336749
 30
0.0
 11
156.5549050369
 21
691.0550050932
 31
0.0
  0
LINE
  5
135
330
75
100
AcDbEntity
  8
$DDT_AUDIT_GENERATED_(E4)
  6
Continuous
 62
     7
100
AcDbLine
 10
155.3620686518
 20
690.8113554919
 30
0.0
 11
156.4134836807
 21
690.6287791882
 31
0.0
  0
LINE
  5
136
330
75
100
AcDbEntity
  8
$DDT_AUDIT_GENERATED_(E4)
  6
Continuous
 62
     7
100
AcDbLine
 10
155.4851881845
 20
690.839091131
 30
0.0
 11
156.5549050369
 21
690.653336749
 31
0.0
  0
ELLIPSE
  5
137
330
75
100
AcDbEntity
  8
$DDT_AUDIT_GENERATED_(E4)
  6
Continuous
 62
     7
100
AcDbEllipse
 10
150.4742029151
 20
691.6846820005
 30
0.0
 11
8.499999704022876
 21
3.667888215375115E-8
 31
0.0
210
0.0
220
0.0
230
1.0
 40
0.1736481753
 41
-1.058962541624199
 42
-1.035432586392559
  0
ELLIPSE
  5
138
330
75
100
AcDbEntity
  8
$DDT_AUDIT_GENERATED_(E4)
  6
Continuous
 62
     7
100
AcDbEllipse
 10
150.4742026783
 20
691.6846820717
 30
0.0
 11
8.499999999984901
 21
2.192690473634684E-12
 31
0.0
210
0.0
220
0.0
230
1.0
 40
0.1736481777
 41
-1.035432573909347
 42
-0.7971631406860746
  0
LINE
  5
139
330
75
100
AcDbEntity
  8
$DDT_AUDIT_GENERATED_(E4)
  6
Continuous
 62
     7
100
AcDbLine
 10
154.8105110908
 20
690.4151912126
 30
0.0
 11
154.8105110908
 21
690.7061314555
 31
0.0
  0
LINE
  5
13A
330
75
100
AcDbEntity
  8
$DDT_AUDIT_GENERATED_(E4)
  6
Continuous
 62
     7
100
AcDbLine
 10
153.9950069775
 20
690.5910090475
 30
0.0
 11
154.6373060101
 21
690.3978263948
 31
0.0
  0
LINE
  5
13B
330
75
100
AcDbEntity
  8
$DDT_AUDIT_GENERATED_(E4)
  6
Continuous
 62
     7
100
AcDbLine
 10
154.159099232
 20
690.611114707
 30
0.0
 11
154.8105110908
 21
690.4151912126
 31
0.0
  0
ELLIPSE
  5
13C
330
75
100
AcDbEntity
  8
$DDT_AUDIT_GENERATED_(E4)
  6
Continuous
 62
     7
100
AcDbEllipse
 10
150.4742027958
 20
691.6846819957
 30
0.0
 11
8.499999757848666
 21
2.029237888834245E-8
 31
0.0
210
0.0
220
0.0
230
1.0
 40
0.1736481737
 41
-1.320761923690942
 42
-1.297231968486341
  0
ELLIPSE
  5
13D
330
75
100
AcDbEntity
  8
$DDT_AUDIT_GENERATED_(E4)
  6
Continuous
 62
     7
100
AcDbEllipse
 10
150.4742026783
 20
691.6846820717
 30
0.0
 11
8.500000000008862
 21
-1.110223024625157E-12
 31
0.0
210
0.0
220
0.0
230
1.0
 40
0.1736481777
 41
-1.297231961707219
 42
-1.058962528484471
  0
LINE
  5
13E
330
75
100
AcDbEntity
  8
$DDT_AUDIT_GENERATED_(E4)
  6
Continuous
 62
     7
100
AcDbLine
 10
152.7706048925
 20
690.2635593804
 30
0.0
 11
152.7706048925
 21
690.4783325234
 31
0.0
  0
LINE
  5
13F
330
75
100
AcDbEntity
  8
$DDT_AUDIT_GENERATED_(E4)
  6
Continuous
 62
     7
100
AcDbLine
 10
152.2780172328
 20
690.448602614
 30
0.0
 11
152.5774197272
 21
690.2545706893
 31
0.0
  0
LINE
  5
140
330
75
100
AcDbEntity
  8
$DDT_AUDIT_GENERATED_(E4)
  6
Continuous
 62
     7
100
AcDbLine
 10
152.4687680139
 20
690.4591689414
 30
0.0
 11
152.7706048925
 21
690.2635593804
 31
0.0
  0
ARC
  5
141
330
75
100
AcDbEntity
  8
$DDT_AUDIT_GENERATED_(E4)
  6
Continuous
 62
     7
100
AcDbCircle
 10
150.4742026783
 20
739.1549361864
 30
0.0
 40
48.94626362829015
100
AcDbArc
 50
269.8829413828
 51
270.1170586172
  0
ELLIPSE
  5
142
330
75
100
AcDbEntity
  8
$DDT_AUDIT_GENERATED_(E4)
  6
Continuous
 62
     7
100
AcDbEllipse
 10
150.4742026783
 20
691.6846820717
 30
0.0
 11
8.500000000007807
 21
-3.053113317719180E-13
 31
0.0
210
0.0
220
0.0
230
1.0
 40
0.1736481777
 41
4.724153957672981
 42
4.962423390895744
  0
LINE
  5
143
330
75
100
AcDbEntity
  8
$DDT_AUDIT_GENERATED_(E4)
  6
Continuous
 62
     7
100
AcDbLine
 10
150.3742026783
 20
690.4025583381
 30
0.0
 11
150.3742026783
 21
690.208774711
 31
0.0
  0
LINE
  5
144
330
75
100
AcDbEntity
  8
$DDT_AUDIT_GENERATED_(E4)
  6
Continuous
 62
     7
100
AcDbLine
 10
150.5742026783
 20
690.4025583381
 30
0.0
 11
150.5742026783
 21
690.208774711
 31
0.0
  0
ELLIPSE
  5
145
330
75
100
AcDbEntity
  8
$DDT_AUDIT_GENERATED_(E4)
  6
Continuous
 62
     7
100
AcDbEllipse
 10
150.474202565
 20
691.6846819981
 30
0.0
 11
-8.499999766412268
 21
1.960390183519678E-8
 31
0.0
210
0.0
220
0.0
230
1.0
 40
0.1736481738
 41
1.297231968232863
 42
1.320761923415243
  0
ELLIPSE
  5
146
330
75
100
AcDbEntity
  8
$DDT_AUDIT_GENERATED_(E4)
  6
Continuous
 62
     7
100
AcDbEllipse
 10
150.4742026783
 20
691.6846820717
 30
0.0
 11
-8.499999999996511
 21
1.665334536937735E-13
 31
0.0
210
0.0
220
0.0
230
1.0
 40
0.1736481777
 41
1.320761916283845
 42
1.55903134950692
  0
LINE
  5
147
330
75
100
AcDbEntity
  8
$DDT_AUDIT_GENERATED_(E4)
  6
Continuous
 62
     7
100
AcDbLine
 10
148.177800464
 20
690.2635593804
 30
0.0
 11
148.177800464
 21
690.4783325234
 31
0.0
  0
LINE
  5
148
330
75
100
AcDbEntity
  8
$DDT_AUDIT_GENERATED_(E4)
  6
Continuous
 62
     7
100
AcDbLine
 10
148.4796373426
 20
690.4591689414
 30
0.0
 11
148.177800464
 21
690.2635593804
 31
0.0
  0
LINE
  5
149
330
75
100
AcDbEntity
  8
$DDT_AUDIT_GENERATED_(E4)
  6
Continuous
 62
     7
100
AcDbLine
 10
148.6703881237
 20
690.448602614
 30
0.0
 11
148.3709856293
 21
690.2545706893
 31
0.0
  0
ELLIPSE
  5
14A
330
75
100
AcDbEntity
  8
$DDT_AUDIT_GENERATED_(E4)
  6
Continuous
 62
     7
100
AcDbEllipse
 10
150.4742024423
 20
691.6846820006
 30
0.0
 11
-8.499999705043233
 21
3.665687198228795E-8
 31
0.0
210
0.0
220
0.0
230
1.0
 40
0.1736481752
 41
1.035432586353313
 42
1.05896254158271
  0
ELLIPSE
  5
14B
330
75
100
AcDbEntity
  8
$DDT_AUDIT_GENERATED_(E4)
  6
Continuous
 62
     7
100
AcDbEllipse
 10
150.4742026783
 20
691.6846820717
 30
0.0
 11
-8.500000000016286
 21
-1.942890293094024E-12
 31
0.0
210
0.0
220
0.0
230
1.0
 40
0.1736481777
 41
1.058962528484262
 42
1.297231961706839
  0
LINE
  5
14C
330
75
100
AcDbEntity
  8
$DDT_AUDIT_GENERATED_(E4)
  6
Continuous
 62
     7
100
AcDbLine
 10
146.1378942657
 20
690.4151912126
 30
0.0
 11
146.1378942657
 21
690.7061314555
 31
0.0
  0
LINE
  5
14D
330
75
100
AcDbEntity
  8
$DDT_AUDIT_GENERATED_(E4)
  6
Continuous
 62
     7
100
AcDbLine
 10
146.7893061246
 20
690.611114707
 30
0.0
 11
146.1378942657
 21
690.4151912126
 31
0.0
  0
LINE
  5
14E
330
75
100
AcDbEntity
  8
$DDT_AUDIT_GENERATED_(E4)
  6
Continuous
 62
     7
100
AcDbLine
 10
146.953398379
 20
690.5910090475
 30
0.0
 11
146.3110993465
 21
690.3978263948
 31
0.0
  0
ELLIPSE
  5
14F
330
75
100
AcDbEntity
  8
$DDT_AUDIT_GENERATED_(E4)
  6
Continuous
 62
     7
100
AcDbEllipse
 10
150.4742023443
 20
691.6846820136
 30
0.0
 11
-8.499999645820017
 21
4.235833905852360E-8
 31
0.0
210
0.0
220
0.0
230
1.0
 40
0.1736481777
 41
0.7736332005384458
 42
0.7971631557682313
  0
ELLIPSE
  5
150
330
75
100
AcDbEntity
  8
$DDT_AUDIT_GENERATED_(E4)
  6
Continuous
 62
     7
100
AcDbEllipse
 10
150.4742026783
 20
691.6846820717
 30
0.0
 11
-8.499999999984638
 21
2.220446049250313E-12
 31
0.0
210
0.0
220
0.0
230
1.0
 40
0.1736481777
 41
0.7971631406861007
 42
1.035432573909372
  0
LINE
  5
151
330
75
100
AcDbEntity
  8
$DDT_AUDIT_GENERATED_(E4)
  6
Continuous
 62
     7
100
AcDbLine
 10
144.3935003196
 20
690.653336749
 30
0.0
 11
144.3935003196
 21
691.0550050932
 31
0.0
  0
LINE
  5
152
330
75
100
AcDbEntity
  8
$DDT_AUDIT_GENERATED_(E4)
  6
Continuous
 62
     7
100
AcDbLine
 10
145.4632171721
 20
690.839091131
 30
0.0
 11
144.3935003196
 21
690.653336749
 31
0.0
  0
LINE
  5
153
330
75
100
AcDbEntity
  8
$DDT_AUDIT_GENERATED_(E4)
  6
Continuous
 62
     7
100
AcDbLine
 10
145.5863367047
 20
690.8113554919
 30
0.0
 11
144.5349216759
 21
690.6287791882
 31
0.0
  0
ELLIPSE
  5
154
330
75
100
AcDbEntity
  8
$DDT_AUDIT_GENERATED_(E4)
  6
Continuous
 62
     7
100
AcDbEllipse
 10
150.4742022698
 20
691.6846820309
 30
0.0
 11
-8.499999587320277
 21
3.644987089934659E-8
 31
0.0
210
0.0
220
0.0
230
1.0
 40
0.1736481801
 41
0.5118338107412049
 42
0.5353637659702505
  0
ELLIPSE
  5
155
330
75
100
AcDbEntity
  8
$DDT_AUDIT_GENERATED_(E4)
  6
Continuous
 62
     7
100
AcDbEllipse
 10
150.4742026783
 20
691.6846820717
 30
0.0
 11
-8.500000000020686
 21
-1.776356839400250E-12
 31
0.0
210
0.0
220
0.0
230
1.0
 40
0.1736481777
 41
0.53536375288585
 42
0.7736331861084262
  0
LINE
  5
156
330
75
100
AcDbEntity
  8
$DDT_AUDIT_GENERATED_(E4)
  6
Continuous
 62
     7
100
AcDbLine
 10
143.0634961904
 20
690.9617667647
 30
0.0
 11
143.0634961904
 21
691.3218927501
 31
0.0
  0
LINE
  5
157
330
75
100
AcDbEntity
  8
$DDT_AUDIT_GENERATED_(E4)
  6
Continuous
 62
     7
100
AcDbLine
 10
144.6021685257
 20
691.1160276246
 30
0.0
 11
143.0634961904
 21
690.9617667647
 31
0.0
  0
LINE
  5
158
330
75
100
AcDbEntity
  8
$DDT_AUDIT_GENERATED_(E4)
  6
Continuous
 62
     7
100
AcDbLine
 10
144.6746000888
 20
691.0831869817
 30
0.0
 11
143.1634961904
 21
690.931690018
 31
0.0
  0
ELLIPSE
  5
159
330
75
100
AcDbEntity
  8
$DDT_AUDIT_GENERATED_(E4)
  6
Continuous
 62
     7
100
AcDbEllipse
 10
150.4742022232
 20
691.6846820506
 30
0.0
 11
-8.499999544656252
 21
2.097519380406254E-8
 31
0.0
210
0.0
220
0.0
230
1.0
 40
0.1736481818
 41
0.2500344175419322
 42
0.2735643727701863
  0
ELLIPSE
  5
15A
330
75
100
AcDbEntity
  8
$DDT_AUDIT_GENERATED_(E4)
  6
Continuous
 62
     7
100
AcDbEllipse
 10
150.4742026783
 20
691.6846820717
 30
0.0
 11
-8.500000000026958
 21
-2.164934898019055E-12
 31
0.0
210
0.0
220
0.0
230
1.0
 40
0.1736481777
 41
0.2735643650867858
 42
0.5118337983093488
  0
LINE
  5
15B
330
75
100
AcDbEntity
  8
$DDT_AUDIT_GENERATED_(E4)
  6
Continuous
 62
     7
100
AcDbLine
 10
142.2385194616
 20
691.3194622639
 30
0.0
 11
142.2385194616
 21
691.6673172539
 31
0.0
  0
LINE
  5
15C
330
75
100
AcDbEntity
  8
$DDT_AUDIT_GENERATED_(E4)
  6
Continuous
 62
     7
100
AcDbLine
 10
144.2392112935
 20
691.412552232
 30
0.0
 11
142.2385194616
 21
691.3194622639
 31
0.0
  0
LINE
  5
15D
330
75
100
AcDbEntity
  8
$DDT_AUDIT_GENERATED_(E4)
  6
Continuous
 62
     7
100
AcDbLine
 10
144.2565729709
 20
691.3774052871
 30
0.0
 11
142.2902832706
 21
691.285916012
 31
0.0
  0
LINE
  5
15E
330
75
100
AcDbEntity
  8
$DDT_AUDIT_GENERATED_(E4)
  6
Continuous
 62
     7
100
AcDbLine
 10
147.7297765087
 20
691.9247372358
 30
0.0
 11
147.7297765087
 21
691.7150705028
 31
0.0
  0
ELLIPSE
  5
15F
330
75
100
AcDbEntity
  8
$DDT_AUDIT_GENERATED_(E4)
  6
Continuous
 62
     7
100
AcDbEllipse
 10
150.4742026783
 20
691.6846820717
 30
0.0
 11
2.749999999995624
 21
0.0
 31
0.0
210
0.0
220
0.0
230
1.0
 40
0.1736481777
 41
3.077913261332661
 42
3.141592653589793
  0
LINE
  5
160
330
75
100
AcDbEntity
  8
$DDT_AUDIT_GENERATED_(E4)
  6
Continuous
 62
     7
100
AcDbLine
 10
147.7297765087
 20
691.7150705028
 30
0.0
 11
145.3900756368
 21
691.7150705028
 31
0.0
  0
LINE
  5
161
330
75
100
AcDbEntity
  8
$DDT_AUDIT_GENERATED_(E4)
  6
Continuous
 62
     7
100
AcDbLine
 10
147.7242026783
 20
691.6542936406
 30
0.0
 11
145.3125820773
 21
691.6542936406
 31
0.0
  0
LINE
  5
162
330
75
100
AcDbEntity
  8
$DDT_AUDIT_GENERATED_(E4)
  6
Continuous
 62
     7
100
AcDbLine
 10
148.1849598966
 20
692.3081391116
 30
0.0
 11
148.1849598966
 21
691.9492815265
 31
0.0
  0
ELLIPSE
  5
163
330
75
100
AcDbEntity
  8
$DDT_AUDIT_GENERATED_(E4)
  6
Continuous
 62
     7
100
AcDbEllipse
 10
150.4742026784
 20
691.6846820717
 30
0.0
 11
-2.750000000127699
 21
1.371125435412068E-11
 31
0.0
210
0.0
220
0.0
230
1.0
 40
0.1736481777
 41
-0.5872781678413315
 42
-0.4599193833306368
  0
LINE
  5
164
330
75
100
AcDbEntity
  8
$DDT_AUDIT_GENERATED_(E4)
  6
Continuous
 62
     7
100
AcDbLine
 10
148.1849598966
 20
691.9492815265
 30
0.0
 11
146.6180584934
 21
692.1063725149
 31
0.0
  0
LINE
  5
165
330
75
100
AcDbEntity
  8
$DDT_AUDIT_GENERATED_(E4)
  6
Continuous
 62
     7
100
AcDbLine
 10
148.0099598966
 20
691.8966472199
 30
0.0
 11
146.3852916553
 21
692.0595296701
 31
0.0
  0
LINE
  5
166
330
75
100
AcDbEntity
  8
$DDT_AUDIT_GENERATED_(E4)
  6
Continuous
 62
     7
100
AcDbLine
 10
149.2535440392
 20
692.3743894817
 30
0.0
 11
149.2535440392
 21
692.11259334
 31
0.0
  0
ELLIPSE
  5
167
330
75
100
AcDbEntity
  8
$DDT_AUDIT_GENERATED_(E4)
  6
Continuous
 62
     7
100
AcDbEllipse
 10
150.4742026782
 20
691.6846820717
 30
0.0
 11
-2.749999999969624
 21
-3.719247132494274E-12
 31
0.0
210
0.0
220
0.0
230
1.0
 40
0.1736481777
 41
-1.110876943458368
 42
-0.9835181589432178
  0
LINE
  5
168
330
75
100
AcDbEntity
  8
$DDT_AUDIT_GENERATED_(E4)
  6
Continuous
 62
     7
100
AcDbLine
 10
149.2535440392
 20
692.11259334
 30
0.0
 11
148.5182632686
 21
692.3337418745
 31
0.0
  0
LINE
  5
169
330
75
100
AcDbEntity
  8
$DDT_AUDIT_GENERATED_(E4)
  6
Continuous
 62
     7
100
AcDbLine
 10
148.9504351478
 20
692.0822049089
 30
0.0
 11
148.1961280056
 21
692.309075957
 31
0.0
  0
ARC
  5
16A
330
75
100
AcDbEntity
  8
$DDT_AUDIT_GENERATED_(E4)
  6
Continuous
 62
     7
100
AcDbCircle
 10
150.4742026783
 20
676.3567262564
 30
0.0
 40
15.8054892569857
100
AcDbArc
 50
89.3656022836
 51
90.6343977164
  0
LINE
  5
16B
330
75
100
AcDbEntity
  8
$DDT_AUDIT_GENERATED_(E4)
  6
Continuous
 62
     7
100
AcDbLine
 10
150.6492026783
 20
692.1612466748
 30
0.0
 11
150.6492026783
 21
692.3988668392
 31
0.0
  0
LINE
  5
16C
330
75
100
AcDbEntity
  8
$DDT_AUDIT_GENERATED_(E4)
  6
Continuous
 62
     7
100
AcDbLine
 10
150.2992026783
 20
692.1612466748
 30
0.0
 11
150.2992026783
 21
692.3988668392
 31
0.0
  0
ELLIPSE
  5
16D
330
75
100
AcDbEntity
  8
$DDT_AUDIT_GENERATED_(E4)
  6
Continuous
 62
     7
100
AcDbEllipse
 10
150.4742026783
 20
691.6846820717
 30
0.0
 11
2.749999999995902
 21
-4.163336342344337E-13
 31
0.0
210
0.0
220
0.0
230
1.0
 40
0.1736481777
 41
0.9835181589399583
 42
1.11087694345415
  0
LINE
  5
16E
330
75
100
AcDbEntity
  8
$DDT_AUDIT_GENERATED_(E4)
  6
Continuous
 62
     7
100
AcDbLine
 10
151.6948613174
 20
692.3743894817
 30
0.0
 11
151.6948613174
 21
692.11259334
 31
0.0
  0
LINE
  5
16F
330
75
100
AcDbEntity
  8
$DDT_AUDIT_GENERATED_(E4)
  6
Continuous
 62
     7
100
AcDbLine
 10
151.9979702087
 20
692.0822049089
 30
0.0
 11
152.7522773509
 21
692.309075957
 31
0.0
  0
LINE
  5
170
330
75
100
AcDbEntity
  8
$DDT_AUDIT_GENERATED_(E4)
  6
Continuous
 62
     7
100
AcDbLine
 10
151.6948613174
 20
692.11259334
 30
0.0
 11
152.430142088
 21
692.3337418745
 31
0.0
  0
ELLIPSE
  5
171
330
75
100
AcDbEntity
  8
$DDT_AUDIT_GENERATED_(E4)
  6
Continuous
 62
     7
100
AcDbEllipse
 10
150.4742026782
 20
691.6846820717
 30
0.0
 11
2.750000000084011
 21
9.825473767932635E-12
 31
0.0
210
0.0
220
0.0
230
1.0
 40
0.1736481777
 41
0.4599193833342257
 42
0.5872781678460989
  0
LINE
  5
172
330
75
100
AcDbEntity
  8
$DDT_AUDIT_GENERATED_(E4)
  6
Continuous
 62
     7
100
AcDbLine
 10
152.7634454599
 20
692.3081391116
 30
0.0
 11
152.7634454599
 21
691.9492815265
 31
0.0
  0
LINE
  5
173
330
75
100
AcDbEntity
  8
$DDT_AUDIT_GENERATED_(E4)
  6
Continuous
 62
     7
100
AcDbLine
 10
152.9384454599
 20
691.8966472199
 30
0.0
 11
154.5631137012
 21
692.0595296701
 31
0.0
  0
LINE
  5
174
330
75
100
AcDbEntity
  8
$DDT_AUDIT_GENERATED_(E4)
  6
Continuous
 62
     7
100
AcDbLine
 10
152.7634454599
 20
691.9492815265
 30
0.0
 11
154.3303468632
 21
692.1063725149
 31
0.0
  0
ELLIPSE
  5
175
330
75
100
AcDbEntity
  8
$DDT_AUDIT_GENERATED_(E4)
  6
Continuous
 62
     7
100
AcDbEllipse
 10
150.4742026783
 20
691.6846820717
 30
0.0
 11
-2.750000000014567
 21
0.0
 31
0.0
210
0.0
220
0.0
230
1.0
 40
0.1736481777
 41
3.141592653589793
 42
3.205272045846625
  0
LINE
  5
176
330
75
100
AcDbEntity
  8
$DDT_AUDIT_GENERATED_(E4)
  6
Continuous
 62
     7
100
AcDbLine
 10
153.2186288478
 20
691.9247372358
 30
0.0
 11
153.2186288478
 21
691.7150705028
 31
0.0
  0
LINE
  5
177
330
75
100
AcDbEntity
  8
$DDT_AUDIT_GENERATED_(E4)
  6
Continuous
 62
     7
100
AcDbLine
 10
153.2242026783
 20
691.6542936406
 30
0.0
 11
155.6358232792
 21
691.6542936406
 31
0.0
  0
LINE
  5
178
330
75
100
AcDbEntity
  8
$DDT_AUDIT_GENERATED_(E4)
  6
Continuous
 62
     7
100
AcDbLine
 10
153.2186288478
 20
691.7150705028
 30
0.0
 11
155.5583297197
 21
691.7150705028
 31
0.0
  0
ELLIPSE
  5
179
330
75
100
AcDbEntity
  8
$DDT_AUDIT_GENERATED_(E4)
  6
Continuous
 62
     7
100
AcDbEllipse
 10
150.4742026816
 20
691.6846820713
 30
0.0
 11
5.24999999660157
 21
3.061162434647713E-10
 31
0.0
210
0.0
220
0.0
230
1.0
 40
0.1736481777
 41
-0.5569382850420324
 42
-0.4902592664947028
  0
LINE
  5
17A
330
75
100
AcDbEntity
  8
$DDT_AUDIT_GENERATED_(E4)
  6
Continuous
 62
     7
100
AcDbLine
 10
153.1544882482
 20
691.3808783006
 30
0.0
 11
154.9308094387
 21
691.2027917593
 31
0.0
  0
LINE
  5
17B
330
75
100
AcDbEntity
  8
$DDT_AUDIT_GENERATED_(E4)
  6
Continuous
 62
     7
100
AcDbLine
 10
153.2132612822
 20
691.4451650372
 30
0.0
 11
155.1058094387
 21
691.2554260659
 31
0.0
  0
LINE
  5
17C
330
75
100
AcDbEntity
  8
$DDT_AUDIT_GENERATED_(E4)
  6
Continuous
 62
     7
100
AcDbLine
 10
155.1058094387
 20
691.6542936406
 30
0.0
 11
155.1058094387
 21
691.2554260659
 31
0.0
  0
ELLIPSE
  5
17D
330
75
100
AcDbEntity
  8
$DDT_AUDIT_GENERATED_(E4)
  6
Continuous
 62
     7
100
AcDbEllipse
 10
150.47420268
 20
691.6846820711
 30
0.0
 11
5.249999997809771
 21
2.733091530870979E-10
 31
0.0
210
0.0
220
0.0
230
1.0
 40
0.1736481776
 41
-1.080537060622573
 42
-1.01385804207774
  0
LINE
  5
17E
330
75
100
AcDbEntity
  8
$DDT_AUDIT_GENERATED_(E4)
  6
Continuous
 62
     7
100
AcDbLine
 10
152.1747452669
 20
691.1124373237
 30
0.0
 11
152.946189494
 21
690.8804119981
 31
0.0
  0
LINE
  5
17F
330
75
100
AcDbEntity
  8
$DDT_AUDIT_GENERATED_(E4)
  6
Continuous
 62
     7
100
AcDbLine
 10
152.4408895972
 20
691.1539434921
 30
0.0
 11
153.2492983853
 21
690.9108004292
 31
0.0
  0
LINE
  5
180
330
75
100
AcDbEntity
  8
$DDT_AUDIT_GENERATED_(E4)
  6
Continuous
 62
     7
100
AcDbLine
 10
153.2492983853
 20
691.3713730324
 30
0.0
 11
153.2492983853
 21
690.9108004292
 31
0.0
  0
ARC
  5
181
330
75
100
AcDbEntity
  8
$DDT_AUDIT_GENERATED_(E4)
  6
Continuous
 62
     7
100
AcDbCircle
 10
150.4742026783
 20
720.9902797082
 30
0.0
 40
30.2172507059062
100
AcDbArc
 50
269.6681757198
 51
270.3318242802
  0
LINE
  5
182
330
75
100
AcDbEntity
  8
$DDT_AUDIT_GENERATED_(E4)
  6
Continuous
 62
     7
100
AcDbLine
 10
150.2992026783
 20
691.011155918
 30
0.0
 11
150.2992026783
 21
690.7735357535
 31
0.0
  0
LINE
  5
183
330
75
100
AcDbEntity
  8
$DDT_AUDIT_GENERATED_(E4)
  6
Continuous
 62
     7
100
AcDbLine
 10
150.6492026783
 20
691.011155918
 30
0.0
 11
150.6492026783
 21
690.7735357535
 31
0.0
  0
ELLIPSE
  5
184
330
75
100
AcDbEntity
  8
$DDT_AUDIT_GENERATED_(E4)
  6
Continuous
 62
     7
100
AcDbEllipse
 10
150.4742026764
 20
691.6846820711
 30
0.0
 11
-5.249999997662819
 21
2.920441666276474E-10
 31
0.0
210
0.0
220
0.0
230
1.0
 40
0.1736481776
 41
1.013858042088047
 42
1.080537060634413
  0
LINE
  5
185
330
75
100
AcDbEntity
  8
$DDT_AUDIT_GENERATED_(E4)
  6
Continuous
 62
     7
100
AcDbLine
 10
148.5075157593
 20
691.1539434921
 30
0.0
 11
147.6991069713
 21
690.9108004292
 31
0.0
  0
LINE
  5
186
330
75
100
AcDbEntity
  8
$DDT_AUDIT_GENERATED_(E4)
  6
Continuous
 62
     7
100
AcDbLine
 10
148.7736600897
 20
691.1124373237
 30
0.0
 11
148.0022158626
 21
690.8804119981
 31
0.0
  0
LINE
  5
187
330
75
100
AcDbEntity
  8
$DDT_AUDIT_GENERATED_(E4)
  6
Continuous
 62
     7
100
AcDbLine
 10
147.6991069713
 20
691.3713730324
 30
0.0
 11
147.6991069713
 21
690.9108004292
 31
0.0
  0
ELLIPSE
  5
188
330
75
100
AcDbEntity
  8
$DDT_AUDIT_GENERATED_(E4)
  6
Continuous
 62
     7
100
AcDbEllipse
 10
150.4742026775
 20
691.6846820716
 30
0.0
 11
-5.24999999924658
 21
7.172040739078511E-11
 31
0.0
210
0.0
220
0.0
230
1.0
 40
0.1736481777
 41
0.4902592663722756
 42
0.55693828490037
  0
LINE
  5
189
330
75
100
AcDbEntity
  8
$DDT_AUDIT_GENERATED_(E4)
  6
Continuous
 62
     7
100
AcDbLine
 10
147.7351440743
 20
691.4451650372
 30
0.0
 11
145.8425959179
 21
691.2554260659
 31
0.0
  0
LINE
  5
18A
330
75
100
AcDbEntity
  8
$DDT_AUDIT_GENERATED_(E4)
  6
Continuous
 62
     7
100
AcDbLine
 10
147.7939171084
 20
691.3808783006
 30
0.0
 11
146.0175959179
 21
691.2027917593
 31
0.0
  0
LINE
  5
18B
330
75
100
AcDbEntity
  8
$DDT_AUDIT_GENERATED_(E4)
  6
Continuous
 62
     7
100
AcDbLine
 10
145.8425959179
 20
691.6542936406
 30
0.0
 11
145.8425959179
 21
691.2554260659
 31
0.0
  0
LINE
  5
18C
330
75
100
AcDbEntity
  8
$DDT_AUDIT_GENERATED_(E4)
  6
Continuous
 62
     7
100
AcDbLine
 10
141.4742026783
 20
692.7075108034
 30
0.0
 11
141.4742026783
 21
691.4877205211
 31
0.0
  0
LINE
  5
18D
330
75
100
AcDbEntity
  8
$DDT_AUDIT_GENERATED_(E4)
  6
Continuous
 62
     7
100
AcDbLine
 10
159.4742026783
 20
691.4877205211
 30
0.0
 11
159.4742026783
 21
692.7075108034
 31
0.0
  0
LINE
  5
18E
330
75
100
AcDbEntity
  8
$DDT_AUDIT_GENERATED_(E4)
  6
Continuous
 62
     7
100
AcDbLine
 10
144.2242026783
 20
691.6846820717
 30
0.0
 11
144.2242026783
 21
691.4877205211
 31
0.0
  0
LINE
  5
18F
330
75
100
AcDbEntity
  8
$DDT_AUDIT_GENERATED_(E4)
  6
Continuous
 62
     7
100
AcDbLine
 10
156.7242026783
 20
691.4877205211
 30
0.0
 11
156.7242026783
 21
691.6846820717
 31
0.0
  0
LINE
  5
190
330
75
100
AcDbEntity
  8
$DDT_AUDIT_GENERATED_(E4)
  6
Continuous
 62
     7
100
AcDbLine
 10
147.7242026783
 20
691.6846820717
 30
0.0
 11
147.7242026783
 21
691.4877205211
 31
0.0
  0
LINE
  5
191
330
75
100
AcDbEntity
  8
$DDT_AUDIT_GENERATED_(E4)
  6
Continuous
 62
     7
100
AcDbLine
 10
153.2242026783
 20
691.4877205211
 30
0.0
 11
153.2242026783
 21
691.6846820717
 31
0.0
  0
LINE
  5
192
330
75
100
AcDbEntity
  8
$DDT_AUDIT_GENERATED_(E4)
  6
Continuous
 62
     7
100
AcDbLine
 10
149.9545727344
 20
691.8499959319
 30
0.0
 11
149.9545727344
 21
691.6846820717
 31
0.0
  0
LINE
  5
193
330
75
100
AcDbEntity
  8
$DDT_AUDIT_GENERATED_(E4)
  6
Continuous
 62
     7
100
AcDbLine
 10
150.9938326222
 20
691.6846820717
 30
0.0
 11
150.9938326222
 21
691.8499959319
 31
0.0
  0
ENDBLK
  5
195
330
75
100
AcDbEntity
  8
0
100
AcDbBlockEnd
  0
BLOCK
  5
1FE
330
196
100
AcDbEntity
  8
0
100
AcDbBlockBegin
  2
SE1
 70
     0
 10
0.0
 20
0.0
 30
0.0
  3
SE1
  1

  0
LINE
  5
198
330
196
100
AcDbEntity
  8
$DDT_AUDIT_GENERATED_(77)
  6
Continuous
 62
     7
100
AcDbLine
 10
415.4381580493
 20
493.8583521385
 30
0.0
 11
365.4381580493
 21
493.8583521385
 31
0.0
  0
ARC
  5
199
330
196
100
AcDbEntity
  8
$DDT_AUDIT_GENERATED_(77)
  6
Continuous
 62
     7
100
AcDbCircle
 10
390.4381580493
 20
518.8583521385
 30
0.0
 40
13.60000000000001
100
AcDbArc
 50
173.9780752376
 51
0.0
  0
ARC
  5
19A
330
196
100
AcDbEntity
  8
$DDT_AUDIT_GENERATED_(77)
  6
Continuous
 62
     7
100
AcDbCircle
 10
390.4381580493
 20
518.8583521385
 30
0.0
 40
13.60000000000001
100
AcDbArc
 50
0.0
 51
6.614807466
  0
ARC
  5
19B
330
196
100
AcDbEntity
  8
$DDT_AUDIT_GENERATED_(77)
  6
Continuous
 62
     7
100
AcDbCircle
 10
415.4381580493
 20
542.8583521385
 30
0.0
 40
1.000000000000001
100
AcDbArc
 50
0.0
 51
90.0
  0
ARC
  5
19C
330
196
100
AcDbEntity
  8
$DDT_AUDIT_GENERATED_(77)
  6
Continuous
 62
     7
100
AcDbCircle
 10
365.4381580493
 20
542.8583521385
 30
0.0
 40
1.000000000000001
100
AcDbArc
 50
90.0
 51
180.0
  0
ARC
  5
19D
330
196
100
AcDbEntity
  8
$DDT_AUDIT_GENERATED_(77)
  6
Continuous
 62
     7
100
AcDbCircle
 10
415.4381580493
 20
494.8583521385
 30
0.0
 40
1.0
100
AcDbArc
 50
270.0
 51
0.0
  0
ARC
  5
19E
330
196
100
AcDbEntity
  8
$DDT_AUDIT_GENERATED_(77)
  6
Continuous
 62
     7
100
AcDbCircle
 10
365.4381580493
 20
494.8583521385
 30
0.0
 40
1.000000000000001
100
AcDbArc
 50
180.0
 51
270.0
  0
LINE
  5
19F
330
196
100
AcDbEntity
  8
$DDT_AUDIT_GENERATED_(77)
  6
Continuous
 62
     7
100
AcDbLine
 10
416.4381580493
 20
494.8583521385
 30
0.0
 11
416.4381580493
 21
542.8583521385
 31
0.0
  0
LINE
  5
1A0
330
196
100
AcDbEntity
  8
$DDT_AUDIT_GENERATED_(77)
  6
Continuous
 62
     7
100
AcDbLine
 10
364.4381580493
 20
542.8583521385
 30
0.0
 11
364.4381580493
 21
494.8583521385
 31
0.0
  0
ARC
  5
1A1
330
196
100
AcDbEntity
  8
$DDT_AUDIT_GENERATED_(81)
  6
Continuous
 62
     7
100
AcDbCircle
 10
390.4381580493
 20
518.8583521385
 30
0.0
 40
13.5
100
AcDbArc
 50
180.0
 51
0.0
  0
LINE
  5
1A2
330
196
100
AcDbEntity
  8
$DDT_AUDIT_GENERATED_(81)
  6
Continuous
 62
     7
100
AcDbLine
 10
376.9381580493
 20
537.3583521385
 30
0.0
 11
403.9381580493
 21
537.3583521385
 31
0.0
  0
LINE
  5
1A3
330
196
100
AcDbEntity
  8
$DDT_AUDIT_GENERATED_(81)
  6
Continuous
 62
     7
100
AcDbLine
 10
376.9381580493
 20
569.3583521385
 30
0.0
 11
403.9381580493
 21
569.3583521385
 31
0.0
  0
LINE
  5
1A4
330
196
100
AcDbEntity
  8
$DDT_AUDIT_GENERATED_(81)
  6
Continuous
 62
     7
100
AcDbLine
 10
403.4381580493
 20
569.8583521385
 30
0.0
 11
377.4381580493
 21
569.8583521385
 31
0.0
  0
LINE
  5
1A5
330
196
100
AcDbEntity
  8
$DDT_AUDIT_GENERATED_(81)
  6
Continuous
 62
     7
100
AcDbLine
 10
387.6881580493
 20
565.3583521385
 30
0.0
 11
387.6881580493
 21
566.9083521385
 31
0.0
  0
LINE
  5
1A6
330
196
100
AcDbEntity
  8
$DDT_AUDIT_GENERATED_(81)
  6
Continuous
 62
     7
100
AcDbLine
 10
387.6881580493
 20
565.3583521385
 30
0.0
 11
376.9381580493
 21
565.3583521385
 31
0.0
  0
LINE
  5
1A7
330
196
100
AcDbEntity
  8
$DDT_AUDIT_GENERATED_(81)
  6
Continuous
 62
     7
100
AcDbLine
 10
376.9381580493
 20
566.9083521385
 30
0.0
 11
387.6881580493
 21
566.9083521385
 31
0.0
  0
LINE
  5
1A8
330
196
100
AcDbEntity
  8
$DDT_AUDIT_GENERATED_(81)
  6
Continuous
 62
     7
100
AcDbLine
 10
403.9381580493
 20
518.8583521385
 30
0.0
 11
403.9381580493
 21
537.3583521385
 31
0.0
  0
LINE
  5
1A9
330
196
100
AcDbEntity
  8
$DDT_AUDIT_GENERATED_(81)
  6
Continuous
 62
     7
100
AcDbLine
 10
376.9381580493
 20
537.3583521385
 30
0.0
 11
376.9381580493
 21
518.8583521385
 31
0.0
  0
LINE
  5
1AA
330
196
100
AcDbEntity
  8
$DDT_AUDIT_GENERATED_(81)
  6
Continuous
 62
     7
100
AcDbLine
 10
376.9381580493
 20
565.3583521385
 30
0.0
 11
376.9381580493
 21
537.3583521385
 31
0.0
  0
LINE
  5
1AB
330
196
100
AcDbEntity
  8
$DDT_AUDIT_GENERATED_(81)
  6
Continuous
 62
     7
100
AcDbLine
 10
376.9381580493
 20
569.3583521385
 30
0.0
 11
376.9381580493
 21
566.9083521385
 31
0.0
  0
LINE
  5
1AC
330
196
100
AcDbEntity
  8
$DDT_AUDIT_GENERATED_(81)
  6
Continuous
 62
     7
100
AcDbLine
 10
403.9381580493
 20
537.3583521385
 30
0.0
 11
403.9381580493
 21
569.3583521385
 31
0.0
  0
LINE
  5
1AD
330
196
100
AcDbEntity
  8
$DDT_AUDIT_GENERATED_(81)
  6
Continuous
 62
     7
100
AcDbLine
 10
403.9381580493
 20
569.3583521385
 30
0.0
 11
403.4381580493
 21
569.8583521385
 31
0.0
  0
LINE
  5
1AE
330
196
100
AcDbEntity
  8
$DDT_AUDIT_GENERATED_(81)
  6
Continuous
 62
     7
100
AcDbLine
 10
377.4381580493
 20
569.8583521385
 30
0.0
 11
376.9381580493
 21
569.3583521385
 31
0.0
  0
LINE
  5
1AF
330
196
100
AcDbEntity
  8
$DDT_AUDIT_GENERATED_(8F)
  6
Continuous
 62
     7
100
AcDbLine
 10
416.4381580493
 20
577.9583521385
 30
0.0
 11
400.9381580493
 21
577.9583521385
 31
0.0
  0
LINE
  5
1B0
330
196
100
AcDbEntity
  8
$DDT_AUDIT_GENERATED_(8F)
  6
Continuous
 62
     7
100
AcDbLine
 10
379.9381580493
 20
577.9583521385
 30
0.0
 11
364.4381580493
 21
577.9583521385
 31
0.0
  0
LINE
  5
1B1
330
196
100
AcDbEntity
  8
$DDT_AUDIT_GENERATED_(8F)
  6
Continuous
 62
     7
100
AcDbLine
 10
416.4381580493
 20
544.3583521385
 30
0.0
 11
403.9381580493
 21
544.3583521385
 31
0.0
  0
LINE
  5
1B2
330
196
100
AcDbEntity
  8
$DDT_AUDIT_GENERATED_(8F)
  6
Continuous
 62
     7
100
AcDbLine
 10
376.9381580493
 20
544.3583521385
 30
0.0
 11
364.4381580493
 21
544.3583521385
 31
0.0
  0
LINE
  5
1B3
330
196
100
AcDbEntity
  8
$DDT_AUDIT_GENERATED_(8F)
  6
Continuous
 62
     7
100
AcDbLine
 10
415.9381580493
 20
543.8583521385
 30
0.0
 11
403.9381580493
 21
543.8583521385
 31
0.0
  0
LINE
  5
1B4
330
196
100
AcDbEntity
  8
$DDT_AUDIT_GENERATED_(8F)
  6
Continuous
 62
     7
100
AcDbLine
 10
376.9381580493
 20
543.8583521385
 30
0.0
 11
364.9381580493
 21
543.8583521385
 31
0.0
  0
ARC
  5
1B5
330
196
100
AcDbEntity
  8
$DDT_AUDIT_GENERATED_(8F)
  6
Continuous
 62
     7
100
AcDbCircle
 10
390.4381580493
 20
577.9583521385
 30
0.0
 40
26.00000000000001
100
AcDbArc
 50
156.169634418
 51
180.0
  0
ARC
  5
1B6
330
196
100
AcDbEntity
  8
$DDT_AUDIT_GENERATED_(8F)
  6
Continuous
 62
     7
100
AcDbCircle
 10
390.4381580493
 20
577.9583521385
 30
0.0
 40
26.0
100
AcDbArc
 50
0.0
 51
23.8900294857
  0
LINE
  5
1B7
330
196
100
AcDbEntity
  8
$DDT_AUDIT_GENERATED_(8F)
  6
Continuous
 62
     7
100
AcDbLine
 10
364.4381580493
 20
577.9583521385
 30
0.0
 11
364.4381580493
 21
544.3583521385
 31
0.0
  0
LINE
  5
1B8
330
196
100
AcDbEntity
  8
$DDT_AUDIT_GENERATED_(8F)
  6
Continuous
 62
     7
100
AcDbLine
 10
416.4381580493
 20
544.3583521385
 30
0.0
 11
416.4381580493
 21
577.9583521385
 31
0.0
  0
LINE
  5
1B9
330
196
100
AcDbEntity
  8
$DDT_AUDIT_GENERATED_(8F)
  6
Continuous
 62
     7
100
AcDbLine
 10
364.4381580493
 20
544.3583521385
 30
0.0
 11
364.9381580493
 21
543.8583521385
 31
0.0
  0
LINE
  5
1BA
330
196
100
AcDbEntity
  8
$DDT_AUDIT_GENERATED_(8F)
  6
Continuous
 62
     7
100
AcDbLine
 10
415.9381580493
 20
543.8583521385
 30
0.0
 11
416.4381580493
 21
544.3583521385
 31
0.0
  0
LINE
  5
1BB
330
196
100
AcDbEntity
  8
$DDT_AUDIT_GENERATED_(99)
  6
Continuous
 62
     7
100
AcDbLine
 10
622.0692890842
 20
710.6695698543
 30
0.0
 11
599.4187107649
 21
706.675661768
 31
0.0
  0
LINE
  5
1BC
330
196
100
AcDbEntity
  8
$DDT_AUDIT_GENERATED_(99)
  6
Continuous
 62
     7
100
AcDbLine
 10
621.9699880277
 20
711.2327341308
 30
0.0
 11
599.3194097084
 21
707.2388260445
 31
0.0
  0
LINE
  5
1BD
330
196
100
AcDbEntity
  8
$DDT_AUDIT_GENERATED_(99)
  6
Continuous
 62
     7
100
AcDbLine
 10
620.7371849759
 20
712.4655371827
 30
0.0
 11
600.0562221626
 21
708.8189254517
 31
0.0
  0
LINE
  5
1BE
330
196
100
AcDbEntity
  8
$DDT_AUDIT_GENERATED_(99)
  6
Continuous
 62
     7
100
AcDbLine
 10
599.3194097084
 20
707.2388260445
 30
0.0
 11
599.4187107649
 21
706.675661768
 31
0.0
  0
LINE
  5
1BF
330
196
100
AcDbEntity
  8
$DDT_AUDIT_GENERATED_(99)
  6
Continuous
 62
     7
100
AcDbLine
 10
622.0692890842
 20
710.6695698543
 30
0.0
 11
621.9699880277
 21
711.2327341308
 31
0.0
  0
LINE
  5
1C0
330
196
100
AcDbEntity
  8
$DDT_AUDIT_GENERATED_(99)
  6
Continuous
 62
     7
100
AcDbLine
 10
621.9699880277
 20
711.2327341308
 30
0.0
 11
620.7371849759
 21
712.4655371827
 31
0.0
  0
LINE
  5
1C1
330
196
100
AcDbEntity
  8
$DDT_AUDIT_GENERATED_(99)
  6
Continuous
 62
     7
100
AcDbLine
 10
600.0562221626
 20
708.8189254517
 30
0.0
 11
599.3194097084
 21
707.2388260445
 31
0.0
  0
LINE
  5
1C2
330
196
100
AcDbEntity
  8
$DDT_AUDIT_GENERATED_(A1)
  6
Continuous
 62
     7
100
AcDbLine
 10
400.4381580493
 20
574.9583521385
 30
0.0
 11
380.4381580493
 21
574.9583521385
 31
0.0
  0
LINE
  5
1C3
330
196
100
AcDbEntity
  8
$DDT_AUDIT_GENERATED_(A1)
  6
Continuous
 62
     7
100
AcDbLine
 10
377.6881580493
 20
571.9687869527
 30
0.0
 11
377.6881580493
 21
569.8583521385
 31
0.0
  0
LINE
  5
1C4
330
196
100
AcDbEntity
  8
$DDT_AUDIT_GENERATED_(A1)
  6
Continuous
 62
     7
100
AcDbLine
 10
403.1881580493
 20
569.8583521385
 30
0.0
 11
403.1881580493
 21
571.9687869527
 31
0.0
  0
ARC
  5
1C5
330
196
100
AcDbEntity
  8
$DDT_AUDIT_GENERATED_(A1)
  6
Continuous
 62
     7
100
AcDbCircle
 10
380.6881580493
 20
571.9687869527
 30
0.0
 40
3.000000000000016
100
AcDbArc
 50
94.7801918472
 51
180.0
  0
ARC
  5
1C6
330
196
100
AcDbEntity
  8
$DDT_AUDIT_GENERATED_(A1)
  6
Continuous
 62
     7
100
AcDbCircle
 10
400.1881580493
 20
571.9687869527
 30
0.0
 40
2.999999999999997
100
AcDbArc
 50
0.0
 51
85.2198081528
  0
LINE
  5
1C7
330
196
100
AcDbEntity
  8
$DDT_AUDIT_GENERATED_(A1)
  6
Continuous
 62
     7
100
AcDbLine
 10
380.4381580493
 20
575.0683521385
 30
0.0
 11
380.4381580493
 21
574.9583521385
 31
0.0
  0
LINE
  5
1C8
330
196
100
AcDbEntity
  8
$DDT_AUDIT_GENERATED_(A1)
  6
Continuous
 62
     7
100
AcDbLine
 10
400.4381580493
 20
574.9583521385
 30
0.0
 11
400.4381580493
 21
575.0683521385
 31
0.0
  0
LINE
  5
1C9
330
196
100
AcDbEntity
  8
$DDT_AUDIT_GENERATED_(A1)
  6
Continuous
 62
     7
100
AcDbLine
 10
382.9381580493
 20
566.9083521385
 30
0.0
 11
382.9381580493
 21
566.8583521385
 31
0.0
  0
LINE
  5
1CA
330
196
100
AcDbEntity
  8
$DDT_AUDIT_GENERATED_(A9)
  6
Continuous
 62
     7
100
AcDbLine
 10
400.9381580493
 20
575.0683521385
 30
0.0
 11
379.9381580493
 21
575.0683521385
 31
0.0
  0
LINE
  5
1CB
330
196
100
AcDbEntity
  8
$DDT_AUDIT_GENERATED_(A9)
  6
Continuous
 62
     7
100
AcDbLine
 10
600.0562221626
 20
708.8189254517
 30
0.0
 11
620.7371849759
 21
712.4655371827
 31
0.0
  0
LINE
  5
1CC
330
196
100
AcDbEntity
  8
$DDT_AUDIT_GENERATED_(A9)
  6
Continuous
 62
     7
100
AcDbLine
 10
379.9381580493
 20
695.0683521385
 30
0.0
 11
379.9381580493
 21
575.0683521385
 31
0.0
  0
LINE
  5
1CD
330
196
100
AcDbEntity
  8
$DDT_AUDIT_GENERATED_(A9)
  6
Continuous
 62
     7
100
AcDbLine
 10
400.9381580493
 20
575.0683521385
 30
0.0
 11
400.9381580493
 21
695.0683521385
 31
0.0
  0
ARC
  5
1CE
330
196
100
AcDbEntity
  8
$DDT_AUDIT_GENERATED_(A9)
  6
Continuous
 62
     7
100
AcDbCircle
 10
500.9381580493
 20
695.0683521385
 30
0.0
 40
100.0
100
AcDbArc
 50
90.0
 51
180.0
  0
ARC
  5
1CF
330
196
100
AcDbEntity
  8
$DDT_AUDIT_GENERATED_(A9)
  6
Continuous
 62
     7
100
AcDbCircle
 10
500.9381580493
 20
695.0683521385
 30
0.0
 40
100.0
100
AcDbArc
 50
10.0
 51
90.0
  0
ARC
  5
1D0
330
196
100
AcDbEntity
  8
$DDT_AUDIT_GENERATED_(A9)
  6
Continuous
 62
     7
100
AcDbCircle
 10
500.9381580493
 20
695.0683521385
 30
0.0
 40
121.0
100
AcDbArc
 50
10.0
 51
180.0
  0
LINE
  5
1D1
330
196
100
AcDbEntity
  8
$DDT_AUDIT_GENERATED_(A9)
  6
Continuous
 62
     7
100
AcDbLine
 10
620.7371849759
 20
712.4655371827
 30
0.0
 11
620.0998961638
 21
716.0797816362
 31
0.0
  0
LINE
  5
1D2
330
196
100
AcDbEntity
  8
$DDT_AUDIT_GENERATED_(A9)
  6
Continuous
 62
     7
100
AcDbLine
 10
599.4189333506
 20
712.4331699052
 30
0.0
 11
600.0562221626
 21
708.8189254517
 31
0.0
  0
LINE
  5
1D4
330
196
100
AcDbEntity
  8
$DDT_AUDIT_GENERATED_(1D3)
  6
Continuous
 62
     7
100
AcDbLine
 10
386.9405104242
 20
566.8583521385
 30
0.0
 11
376.9381580493
 21
566.8583521385
 31
0.0
  0
LINE
  5
1D5
330
196
100
AcDbEntity
  8
$DDT_AUDIT_GENERATED_(1D3)
  6
Continuous
 62
     7
100
AcDbLine
 10
386.9405104242
 20
566.8583521385
 30
0.0
 11
387.4405104242
 21
566.8583521385
 31
0.0
  0
LINE
  5
1D6
330
196
100
AcDbEntity
  8
$DDT_AUDIT_GENERATED_(1D3)
  6
Continuous
 62
     7
100
AcDbLine
 10
387.4405104242
 20
566.8583521385
 30
0.0
 11
387.6881580493
 21
566.8583521385
 31
0.0
  0
LINE
  5
1D7
330
196
100
AcDbEntity
  8
$DDT_AUDIT_GENERATED_(1D3)
  6
Continuous
 62
     7
100
AcDbLine
 10
386.9405104242
 20
565.3583521385
 30
0.0
 11
376.9381580493
 21
565.3583521385
 31
0.0
  0
LINE
  5
1D8
330
196
100
AcDbEntity
  8
$DDT_AUDIT_GENERATED_(1D3)
  6
Continuous
 62
     7
100
AcDbLine
 10
387.4405104242
 20
566.8583521385
 30
0.0
 11
387.4405104242
 21
565.3583521385
 31
0.0
  0
LINE
  5
1D9
330
196
100
AcDbEntity
  8
$DDT_AUDIT_GENERATED_(1D3)
  6
Continuous
 62
     7
100
AcDbLine
 10
386.9405104242
 20
566.8583521385
 30
0.0
 11
386.9405104242
 21
565.3583521385
 31
0.0
  0
LINE
  5
1DA
330
196
100
AcDbEntity
  8
$DDT_AUDIT_GENERATED_(1D3)
  6
Continuous
 62
     7
100
AcDbLine
 10
376.9381580493
 20
566.8583521385
 30
0.0
 11
376.9381580493
 21
565.3583521385
 31
0.0
  0
LINE
  5
1DB
330
196
100
AcDbEntity
  8
$DDT_AUDIT_GENERATED_(B3)
  6
Continuous
 62
     7
100
AcDbLine
 10
420.1955773168
 20
610.7579971626
 30
0.0
 11
419.6045735076
 21
604.1730456726
 31
0.0
  0
ARC
  5
1DC
330
196
100
AcDbEntity
  8
$DDT_AUDIT_GENERATED_(B3)
  6
Continuous
 62
     7
100
AcDbCircle
 10
454.1998599681
 20
507.6937119432
 30
0.0
 40
123.6271671760389
100
AcDbArc
 50
126.9531202449
 51
137.1597823351
  0
ARC
  5
1DD
330
196
100
AcDbEntity
  8
$DDT_AUDIT_GENERATED_(B3)
  6
Continuous
 62
     7
100
AcDbCircle
 10
455.7312266404
 20
505.9337896731
 30
0.0
 40
125.9514370683106
100
AcDbArc
 50
137.0394122498
 51
137.045745728
  0
ARC
  5
1DE
330
196
100
AcDbEntity
  8
$DDT_AUDIT_GENERATED_(B3)
  6
Continuous
 62
     7
100
AcDbCircle
 10
454.4500391038
 20
448.0375299842
 30
0.0
 40
180.4795307876952
100
AcDbArc
 50
80.9706885241
 51
101.399096235
  0
ARC
  5
1DF
330
196
100
AcDbEntity
  8
$DDT_AUDIT_GENERATED_(B3)
  6
Continuous
 62
     7
100
AcDbCircle
 10
429.9425464547
 20
568.6775920207
 30
0.0
 40
57.37575652065983
100
AcDbArc
 50
101.2188109863
 51
112.1774111036
  0
ARC
  5
1E0
330
196
100
AcDbEntity
  8
$DDT_AUDIT_GENERATED_(B3)
  6
Continuous
 62
     7
100
AcDbCircle
 10
603.6282860431
 20
236.5755315451
 30
0.0
 40
431.9302288530901
100
AcDbArc
 50
116.8886402519
 51
117.9865344361
  0
LINE
  5
1E1
330
196
100
AcDbEntity
  8
$DDT_AUDIT_GENERATED_(B3)
  6
Continuous
 62
     7
100
AcDbLine
 10
363.547621345
 20
591.7589023501
 30
0.0
 11
363.385536772
 21
591.1992983535
 31
0.0
  0
LINE
  5
1E2
330
196
100
AcDbEntity
  8
$DDT_AUDIT_GENERATED_(B3)
  6
Continuous
 62
     7
100
AcDbLine
 10
418.8679109435
 20
597.4248009116
 30
0.0
 11
417.9924994972
 21
590.7769129652
 31
0.0
  0
ARC
  5
1E3
330
196
100
AcDbEntity
  8
$DDT_AUDIT_GENERATED_(B3)
  6
Continuous
 62
     7
100
AcDbCircle
 10
454.2211783201
 20
596.9788927534
 30
0.0
 40
35.3560793681788
100
AcDbArc
 50
170.9783006732
 51
179.2773708704
  0
LINE
  5
1E4
330
196
100
AcDbEntity
  8
$DDT_AUDIT_GENERATED_(B3)
  6
Continuous
 62
     7
100
AcDbLine
 10
379.902194911
 20
588.4493488424
 30
0.0
 11
363.5020836872
 21
588.4493488413
 31
0.0
  0
LINE
  5
1E5
330
196
100
AcDbEntity
  8
$DDT_AUDIT_GENERATED_(B3)
  6
Continuous
 62
     7
100
AcDbLine
 10
417.4229382722
 20
588.4493488431
 30
0.0
 11
400.9476216877
 21
588.4493488431
 31
0.0
  0
LINE
  5
1E6
330
196
100
AcDbEntity
  8
$DDT_AUDIT_GENERATED_(B3)
  6
Continuous
 62
     7
100
AcDbLine
 10
363.2228347878
 20
589.0362442536
 30
0.0
 11
363.3855330483
 21
591.1992958821
 31
0.0
  0
ARC
  5
1E7
330
196
100
AcDbEntity
  8
$DDT_AUDIT_GENERATED_(B3)
  6
Continuous
 62
     7
100
AcDbCircle
 10
363.5020836982
 20
588.7493488312
 30
0.0
 40
0.2999999898532431
100
AcDbArc
 50
176.3442532186
 51
269.9999978883
  0
ARC
  5
1E8
330
196
100
AcDbEntity
  8
$DDT_AUDIT_GENERATED_(B3)
  6
Continuous
 62
     7
100
AcDbCircle
 10
417.4229382038
 20
588.7493487273
 30
0.0
 40
0.2999998841848927
100
AcDbArc
 50
270.0000130664
 51
351.7846247624
  0
LINE
  5
1E9
330
196
100
AcDbEntity
  8
$DDT_AUDIT_GENERATED_(B3)
  6
Continuous
 62
     7
100
AcDbLine
 10
363.213027183
 20
588.9283413718
 30
0.0
 11
363.2028205493
 21
588.7684845947
 31
0.0
  0
SPLINE
  5
1EA
330
196
100
AcDbEntity
  8
$DDT_AUDIT_GENERATED_(B3)
  6
Continuous
 62
     7
100
AcDbSpline
210
0.0
220
0.0
230
1.0
 70
     8
 71
     3
 72
    17
 73
    13
 74
     0
 42
0.0000000000726649
 43
0.0000000001
 40
0.0
 40
0.0
 40
0.0
 40
0.0
 40
0.0633734589752615
 40
0.1330972584163961
 40
0.2022776331337977
 40
0.2708133988344692
 40
0.3385070397126762
 40
0.4051195439579976
 40
0.4704203056705236
 40
0.5342319766338883
 40
0.5841532958870308
 40
0.6289950920379614
 40
0.6289950920379614
 40
0.6289950920379614
 40
0.6289950920379614
 10
486.4014035817962
 20
629.3855455542007
 30
0.0
 10
483.2380863401704
 20
629.8440080240624
 30
0.0
 10
477.6307963040153
 20
630.6428654469954
 30
0.0
 10
468.2156435769208
 20
631.632939885932
 30
0.0
 10
458.7777215401626
 20
632.2998962988282
 30
0.0
 10
449.3469999674075
 20
632.585685857115
 30
0.0
 10
440.0474400674767
 20
632.4375283481377
 30
0.0
 10
430.9110801198038
 20
631.806295890494
 30
0.0
 10
422.0066729404055
 20
630.641764511792
 30
0.0
 10
413.953513737934
 20
629.0090296224577
 30
0.0
 10
406.9449815534682
 20
627.0539554697073
 30
0.0
 10
402.8447974600139
 20
625.6055554936581
 30
0.0
 10
400.9310997297948
 20
624.8525032190391
 30
0.0
  0
SPLINE
  5
1EB
330
196
100
AcDbEntity
  8
$DDT_AUDIT_GENERATED_(B3)
  6
Continuous
 62
     7
100
AcDbSpline
210
0.0
220
0.0
230
1.0
 70
     8
 71
     3
 72
    13
 73
     9
 74
     0
 42
0.0000000000726311
 43
0.0000000001
 40
0.8069907968200302
 40
0.8069907968200302
 40
0.8069907968200302
 40
0.8069907968200302
 40
0.8134222862004546
 40
0.8518785579235012
 40
0.890417678166689
 40
0.9292167092184823
 40
0.9684477940645467
 40
1.0
 40
1.0
 40
1.0
 40
1.0
 10
379.9193866244206
 20
612.4869260957819
 30
0.0
 10
379.6944912961964
 20
612.2961052592253
 30
0.0
 10
378.1337164132348
 20
610.953968160245
 30
0.0
 10
375.3501908079203
 20
608.3264789601104
 30
0.0
 10
371.7849351916528
 20
604.3731723607694
 30
0.0
 10
368.5529435948486
 20
600.1488382768094
 30
0.0
 10
365.7405110496435
 20
595.8464688783371
 30
0.0
 10
364.326456220656
 20
593.1792470665946
 30
0.0
 10
363.5878286724795
 20
591.7696430962343
 30
0.0
  0
LINE
  5
1EC
330
196
100
AcDbEntity
  8
$DDT_AUDIT_GENERATED_(B3)
  6
Continuous
 62
     7
100
AcDbLine
 10
479.8263974993
 20
622.0273266066
 30
0.0
 11
487.037337467
 21
626.6303587707
 31
0.0
  0
SPLINE
  5
1ED
330
196
100
AcDbEntity
  8
$DDT_AUDIT_GENERATED_(B3)
  6
Continuous
 62
     7
100
AcDbSpline
210
0.0
220
0.0
230
1.0
 70
     8
 71
     3
 72
    16
 73
    12
 74
     0
 42
0.0000000001900921
 43
0.0000000001
 40
0.0
 40
0.0
 40
0.0
 40
0.0
 40
0.0126116868155775
 40
0.1374033630426704
 40
0.2674334520602354
 40
0.4045778221153454
 40
0.5206560176110255
 40
0.6433603330901615
 40
0.7735611460961054
 40
0.9120982505624312
 40
1.0
 40
1.0
 40
1.0
 40
1.0
 10
426.9609205177319
 20
619.5797954503531
 30
0.0
 10
427.1855882786606
 20
619.6725585857183
 30
0.0
 10
429.2916713981926
 20
620.5404610764236
 30
0.0
 10
433.9922752728351
 20
621.7864310848586
 30
0.0
 10
440.6674200413236
 20
623.1107877078686
 30
0.0
 10
447.3777754261495
 20
623.7873161640773
 30
0.0
 10
453.9564796627998
 20
624.0051872977676
 30
0.0
 10
460.4346039884616
 20
623.8601725020516
 30
0.0
 10
467.2348548927147
 20
623.3756639877157
 30
0.0
 10
473.5964849253547
 20
622.6760694832989
 30
0.0
 10
477.2532260276115
 20
622.119209172727
 30
0.0
 10
478.9274858568745
 20
621.8604956822572
 30
0.0
  0
ARC
  5
1EE
330
196
100
AcDbEntity
  8
$DDT_AUDIT_GENERATED_(B3)
  6
Continuous
 62
     7
100
AcDbCircle
 10
430.4456703778
 20
609.9398031695
 30
0.0
 40
10.2810641846306
100
AcDbArc
 50
109.8720948446
 51
175.4286089587
  0
LINE
  5
1EF
330
196
100
AcDbEntity
  8
$DDT_AUDIT_GENERATED_(B3)
  6
Continuous
 62
     7
100
AcDbLine
 10
417.9173755655
 20
590.1048094999
 30
0.0
 11
418.0105023053
 21
590.7621888964
 31
0.0
  0
LINE
  5
1F0
330
196
100
AcDbEntity
  8
$DDT_AUDIT_GENERATED_(B3)
  6
Continuous
 62
     7
100
AcDbLine
 10
417.7192895783
 20
588.7065253224
 30
0.0
 11
417.9173755655
 21
590.1048094999
 31
0.0
  0
ARC
  5
1F1
330
196
100
AcDbEntity
  8
$DDT_AUDIT_GENERATED_(B3)
  6
Continuous
 62
     7
100
AcDbCircle
 10
479.1980123343
 20
623.2454279076
 30
0.0
 40
1.367054810492379
100
AcDbArc
 50
258.9259913673
 51
302.5810823848
  0
ARC
  5
1F2
330
196
100
AcDbEntity
  8
$DDT_AUDIT_GENERATED_(B3)
  6
Continuous
 62
     7
100
AcDbCircle
 10
486.258200446
 20
627.9073063703
 30
0.0
 40
1.494881489719464
100
AcDbArc
 50
301.3338158614
 51
84.5050608706
  0
LINE
  5
1F3
330
196
100
AcDbEntity
  8
$DDT_AUDIT_GENERATED_(D5)
  6
Continuous
 62
     7
100
AcDbLine
 10
419.0521447943
 20
601.2204333338
 30
0.0
 11
419.6439799594
 21
604.2651613093
 31
0.0
  0
LINE
  5
1F4
330
196
100
AcDbEntity
  8
$DDT_AUDIT_GENERATED_(D8)
  6
Continuous
 62
     7
100
AcDbLine
 10
603.3555375383
 20
690.1075781444
 30
0.0
 11
624.0365003515
 21
693.7541898754
 31
0.0
  0
ARC
  5
1F5
330
196
100
AcDbEntity
  8
$DDT_AUDIT_GENERATED_(D8)
  6
Continuous
 62
     7
100
AcDbCircle
 10
618.1149287514
 20
698.5432388191
 30
0.0
 40
16.9999999999998
100
AcDbArc
 50
190.0
 51
209.7499227956
  0
ARC
  5
1F6
330
196
100
AcDbEntity
  8
$DDT_AUDIT_GENERATED_(D8)
  6
Continuous
 62
     7
100
AcDbCircle
 10
607.2820434683
 20
696.6331088647
 30
0.0
 40
16.99999999999983
100
AcDbArc
 50
350.2500772044
 51
10.0
  0
LINE
  5
1F7
330
196
100
AcDbEntity
  8
$DDT_AUDIT_GENERATED_(D8)
  6
Continuous
 62
     7
100
AcDbLine
 10
624.0237752695
 20
699.5851278851
 30
0.0
 11
622.0953363109
 21
710.5218486914
 31
0.0
  0
LINE
  5
1F8
330
196
100
AcDbEntity
  8
$DDT_AUDIT_GENERATED_(D8)
  6
Continuous
 62
     7
100
AcDbLine
 10
599.4447579916
 20
706.527940605
 30
0.0
 11
601.3731969502
 21
695.5912197987
 31
0.0
  0
ARC
  5
1F9
330
196
100
AcDbEntity
  8
$DDT_AUDIT_GENERATED_(D8)
  6
Continuous
 62
     7
100
AcDbCircle
 10
621.9476151479
 20
710.4958014647
 30
0.0
 40
0.1499999999999763
100
AcDbArc
 50
10.0
 51
100.0
  0
ARC
  5
1FA
330
196
100
AcDbEntity
  8
$DDT_AUDIT_GENERATED_(D8)
  6
Continuous
 62
     7
100
AcDbCircle
 10
599.5924791545
 20
706.5539878317
 30
0.0
 40
0.1499999999999763
100
AcDbArc
 50
100.0
 51
190.0
  0
LINE
  5
1FB
330
196
100
AcDbEntity
  8
$DDT_AUDIT_GENERATED_(E4)
  6
Continuous
 62
     7
100
AcDbLine
 10
622.637430402
 20
693.0505541201
 30
0.0
 11
604.9108908477
 21
689.9248869221
 31
0.0
  0
LINE
  5
1FC
330
196
100
AcDbEntity
  8
$DDT_AUDIT_GENERATED_(E4)
  6
Continuous
 62
     7
100
AcDbLine
 10
604.8327491678
 20
690.3680504109
 30
0.0
 11
604.9108908477
 21
689.9248869221
 31
0.0
  0
LINE
  5
1FD
330
196
100
AcDbEntity
  8
$DDT_AUDIT_GENERATED_(E4)
  6
Continuous
 62
     7
100
AcDbLine
 10
622.637430402
 20
693.0505541201
 30
0.0
 11
622.559288722
 21
693.4937176089
 31
0.0
  0
ENDBLK
  5
1FF
330
196
100
AcDbEntity
  8
0
100
AcDbBlockEnd
  0
BLOCK
  5
22D
330
200
100
AcDbEntity
  8
0
100
AcDbBlockBegin
  2
SE2
 70
     0
 10
0.0
 20
0.0
 30
0.0
  3
SE2
  1

  0
LINE
  5
202
330
200
100
AcDbEntity
  8
$DDT_AUDIT_GENERATED_(81)
  6
Continuous
 62
     7
100
AcDbLine
 10
177.4742026783
 20
353.6971174466
 30
0.0
 11
177.4742026783
 21
326.6971174466
 31
0.0
  0
ARC
  5
203
330
200
100
AcDbEntity
  8
$DDT_AUDIT_GENERATED_(81)
  6
Continuous
 62
     7
100
AcDbCircle
 10
150.4742026783
 20
340.1971174466
 30
0.0
 40
13.5
100
AcDbArc
 50
321.057558731
 51
0.0
  0
ARC
  5
204
330
200
100
AcDbEntity
  8
$DDT_AUDIT_GENERATED_(81)
  6
Continuous
 62
     7
100
AcDbCircle
 10
150.4742026783
 20
340.1971174466
 30
0.0
 40
13.5
100
AcDbArc
 50
0.0
 51
218.942441269
  0
ARC
  5
205
330
200
100
AcDbEntity
  8
$DDT_AUDIT_GENERATED_(81)
  6
Continuous
 62
     7
100
AcDbCircle
 10
150.4742026783
 20
340.1971174466
 30
0.0
 40
13.0
100
AcDbArc
 50
0.0
 51
216.1289274719
  0
ARC
  5
206
330
200
100
AcDbEntity
  8
$DDT_AUDIT_GENERATED_(81)
  6
Continuous
 62
     7
100
AcDbCircle
 10
150.4742026783
 20
340.1971174466
 30
0.0
 40
13.0
100
AcDbArc
 50
323.8710725281
 51
0.0
  0
LINE
  5
207
330
200
100
AcDbEntity
  8
$DDT_AUDIT_GENERATED_(81)
  6
Continuous
 62
     7
100
AcDbLine
 10
160.9742026783
 20
326.6971174466
 30
0.0
 11
168.9742026783
 21
326.6971174466
 31
0.0
  0
LINE
  5
208
330
200
100
AcDbEntity
  8
$DDT_AUDIT_GENERATED_(81)
  6
Continuous
 62
     7
100
AcDbLine
 10
168.9742026783
 20
353.6971174466
 30
0.0
 11
150.4742026783
 21
353.6971174466
 31
0.0
  0
LINE
  5
209
330
200
100
AcDbEntity
  8
$DDT_AUDIT_GENERATED_(81)
  6
Continuous
 62
     7
100
AcDbLine
 10
168.9742026783
 20
326.6971174466
 30
0.0
 11
177.4742026783
 21
326.6971174466
 31
0.0
  0
LINE
  5
20A
330
200
100
AcDbEntity
  8
$DDT_AUDIT_GENERATED_(81)
  6
Continuous
 62
     7
100
AcDbLine
 10
177.4742026783
 20
353.6971174466
 30
0.0
 11
168.9742026783
 21
353.6971174466
 31
0.0
  0
LINE
  5
20B
330
200
100
AcDbEntity
  8
$DDT_AUDIT_GENERATED_(81)
  6
Continuous
 62
     7
100
AcDbLine
 10
177.4742026783
 20
326.7471174466
 30
0.0
 11
181.6134265495
 21
326.7471174466
 31
0.0
  0
LINE
  5
20C
330
200
100
AcDbEntity
  8
$DDT_AUDIT_GENERATED_(81)
  6
Continuous
 62
     7
100
AcDbLine
 10
182.3065205241
 20
353.6471174466
 30
0.0
 11
177.4742026783
 21
353.6471174466
 31
0.0
  0
ELLIPSE
  5
20D
330
200
100
AcDbEntity
  8
$DDT_AUDIT_GENERATED_(99)
  6
Continuous
 62
     7
100
AcDbEllipse
 10
150.4742026783
 20
119.8912755714
 30
0.0
 11
-11.50000000000002
 21
5.273559366969494E-13
 31
0.0
210
0.0
220
0.0
230
1.0
 40
0.984807753
 41
0.0
 42
3.141592653589793
  0
ELLIPSE
  5
20E
330
200
100
AcDbEntity
  8
$DDT_AUDIT_GENERATED_(99)
  6
Continuous
 62
     7
100
AcDbEllipse
 10
150.4742026783
 20
119.9905766279
 30
0.0
 11
-11.50000000000002
 21
5.273559366969494E-13
 31
0.0
210
0.0
220
0.0
230
1.0
 40
0.984807753
 41
0.0
 42
3.561704131732295
  0
ELLIPSE
  5
20F
330
200
100
AcDbEntity
  8
$DDT_AUDIT_GENERATED_(99)
  6
Continuous
 62
     7
100
AcDbEllipse
 10
150.4742026783
 20
119.9905766279
 30
0.0
 11
-11.50000000000002
 21
5.273559366969494E-13
 31
0.0
210
0.0
220
0.0
230
1.0
 40
0.984807753
 41
5.863073829037126
 42
6.283185307179586
  0
ELLIPSE
  5
210
330
200
100
AcDbEntity
  8
$DDT_AUDIT_GENERATED_(99)
  6
Continuous
 62
     7
100
AcDbEllipse
 10
150.4742026783
 20
120.2385719268
 30
0.0
 11
-10.50000000000004
 21
8.604228440844963E-13
 31
0.0
210
0.0
220
0.0
230
1.0
 40
0.984807753
 41
0.0
 42
3.141592653589793
  0
LINE
  5
211
330
200
100
AcDbEntity
  8
$DDT_AUDIT_GENERATED_(99)
  6
Continuous
 62
     7
100
AcDbLine
 10
138.9742026783
 20
119.9905766279
 30
0.0
 11
138.9742026783
 21
119.8912755714
 31
0.0
  0
LINE
  5
212
330
200
100
AcDbEntity
  8
$DDT_AUDIT_GENERATED_(99)
  6
Continuous
 62
     7
100
AcDbLine
 10
161.9742026783
 20
119.8912755714
 30
0.0
 11
161.9742026783
 21
119.9905766279
 31
0.0
  0
ARC
  5
213
330
200
100
AcDbEntity
  8
$DDT_AUDIT_GENERATED_(A1)
  6
Continuous
 62
     7
100
AcDbCircle
 10
150.4742026783
 20
340.1971174466
 30
0.0
 40
12.75
100
AcDbArc
 50
0.0
 51
214.56032178
  0
ARC
  5
214
330
200
100
AcDbEntity
  8
$DDT_AUDIT_GENERATED_(A1)
  6
Continuous
 62
     7
100
AcDbCircle
 10
150.4742026783
 20
340.1971174466
 30
0.0
 40
12.75
100
AcDbArc
 50
325.43967822
 51
0.0
  0
ARC
  5
215
330
200
100
AcDbEntity
  8
$DDT_AUDIT_GENERATED_(A9)
  6
Continuous
 62
     7
100
AcDbCircle
 10
150.4742026783
 20
340.1971174466
 30
0.0
 40
10.5
100
AcDbArc
 50
0.0
 51
180.0
  0
ELLIPSE
  5
216
330
200
100
AcDbEntity
  8
$DDT_AUDIT_GENERATED_(A9)
  6
Continuous
 62
     7
100
AcDbEllipse
 10
150.4742026783
 20
120.2385719268
 30
0.0
 11
-10.49999999999995
 21
-1.804112415015880E-12
 31
0.0
210
0.0
220
0.0
230
1.0
 40
0.984807753
 41
0.0
 42
3.141592653589616
  0
LINE
  5
217
330
200
100
AcDbEntity
  8
$DDT_AUDIT_GENERATED_(A9)
  6
Continuous
 62
     7
100
AcDbLine
 10
139.9742026783
 20
340.1971174466
 30
0.0
 11
139.9742026783
 21
120.8758607388
 31
0.0
  0
LINE
  5
218
330
200
100
AcDbEntity
  8
$DDT_AUDIT_GENERATED_(A9)
  6
Continuous
 62
     7
100
AcDbLine
 10
160.9742026783
 20
120.8758607388
 30
0.0
 11
160.9742026783
 21
340.1971174466
 31
0.0
  0
LINE
  5
219
330
200
100
AcDbEntity
  8
$DDT_AUDIT_GENERATED_(A9)
  6
Continuous
 62
     7
100
AcDbLine
 10
160.9742026783
 20
120.2385719268
 30
0.0
 11
160.9742026783
 21
120.8758607388
 31
0.0
  0
LINE
  5
21A
330
200
100
AcDbEntity
  8
$DDT_AUDIT_GENERATED_(A9)
  6
Continuous
 62
     7
100
AcDbLine
 10
139.9742026783
 20
120.8758607388
 30
0.0
 11
139.9742026783
 21
120.2385719268
 31
0.0
  0
ARC
  5
21B
330
200
100
AcDbEntity
  8
$DDT_AUDIT_GENERATED_(B3)
  6
Continuous
 62
     7
100
AcDbCircle
 10
154.0005015606
 20
303.7771574836
 30
0.0
 40
35.54753523036488
100
AcDbArc
 50
29.6099490843
 51
30.5686736001
  0
ARC
  5
21C
330
200
100
AcDbEntity
  8
$DDT_AUDIT_GENERATED_(B3)
  6
Continuous
 62
     7
100
AcDbCircle
 10
205.9649882221
 20
340.1594586754
 30
0.0
 40
27.24405615978917
100
AcDbArc
 50
179.9522749342
 51
180.9613972312
  0
ARC
  5
21D
330
200
100
AcDbEntity
  8
$DDT_AUDIT_GENERATED_(B3)
  6
Continuous
 62
     7
100
AcDbCircle
 10
205.9924966081
 20
340.1610203006
 30
0.0
 40
27.27156328150935
100
AcDbArc
 50
89.9767490354
 51
179.9556039455
  0
ARC
  5
21E
330
200
100
AcDbEntity
  8
$DDT_AUDIT_GENERATED_(B3)
  6
Continuous
 62
     7
100
AcDbCircle
 10
205.9763439601
 20
340.159492867
 30
0.0
 40
27.24410402899326
100
AcDbArc
 50
358.9031908261
 51
359.9095018982
  0
ARC
  5
21F
330
200
100
AcDbEntity
  8
$DDT_AUDIT_GENERATED_(B3)
  6
Continuous
 62
     7
100
AcDbCircle
 10
205.9526666521
 20
340.16483857
 30
0.0
 40
27.26779026765003
100
AcDbArc
 50
359.8983479658
 51
89.8930540326
  0
ARC
  5
220
330
200
100
AcDbEntity
  8
$DDT_AUDIT_GENERATED_(B3)
  6
Continuous
 62
     7
100
AcDbCircle
 10
211.7679661233
 20
340.2839741743
 30
0.0
 40
33.04647723229141
100
AcDbArc
 50
181.0084438667
 51
217.1036764165
  0
ARC
  5
221
330
200
100
AcDbEntity
  8
$DDT_AUDIT_GENERATED_(B3)
  6
Continuous
 62
     7
100
AcDbCircle
 10
200.2858872923
 20
340.2493032467
 30
0.0
 40
32.93352496096507
100
AcDbArc
 50
323.4062007443
 51
358.9351460072
  0
ARC
  5
222
330
200
100
AcDbEntity
  8
$DDT_AUDIT_GENERATED_(B3)
  6
Continuous
 62
     7
100
AcDbCircle
 10
252.2387039752
 20
307.439516851
 30
0.0
 40
28.73605346724618
100
AcDbArc
 50
149.3912719867
 51
170.4643299887
  0
ARC
  5
223
330
200
100
AcDbEntity
  8
$DDT_AUDIT_GENERATED_(B3)
  6
Continuous
 62
     7
100
AcDbCircle
 10
160.0058833333
 20
307.3769318096
 30
0.0
 40
28.52873309837293
100
AcDbArc
 50
9.429997942
 51
30.477030894
  0
ARC
  5
224
330
200
100
AcDbEntity
  8
$DDT_AUDIT_GENERATED_(B3)
  6
Continuous
 62
     7
100
AcDbCircle
 10
773.0268674586
 20
234.9998862811
 30
0.0
 40
554.5214015850083
100
AcDbArc
 50
171.9973738175
 51
178.6906929942
  0
ARC
  5
225
330
200
100
AcDbEntity
  8
$DDT_AUDIT_GENERATED_(B3)
  6
Continuous
 62
     7
100
AcDbCircle
 10
-370.6121958731
 20
234.9137954794
 30
0.0
 40
564.0606958919665
100
AcDbArc
 50
1.2964027167
 51
7.8598395166
  0
ARC
  5
226
330
200
100
AcDbEntity
  8
$DDT_AUDIT_GENERATED_(B3)
  6
Continuous
 62
     7
100
AcDbCircle
 10
217.160064494
 20
247.7736024696
 30
0.0
 40
1.499999999999964
100
AcDbArc
 50
301.806075378
 51
356.0320288251
  0
ARC
  5
227
330
200
100
AcDbEntity
  8
$DDT_AUDIT_GENERATED_(B3)
  6
Continuous
 62
     7
100
AcDbCircle
 10
194.7937634177
 20
247.7771604669
 30
0.0
 40
1.49999999999999
100
AcDbArc
 50
183.915220045
 51
238.1782809328
  0
ARC
  5
228
330
200
100
AcDbEntity
  8
$DDT_AUDIT_GENERATED_(B3)
  6
Continuous
 62
     7
100
AcDbCircle
 10
205.978397219
 20
264.4118383494
 30
0.0
 40
21.5360146304793
100
AcDbArc
 50
236.2291984625
 51
303.7565999912
  0
ELLIPSE
  5
229
330
200
100
AcDbEntity
  8
$DDT_AUDIT_GENERATED_(D8)
  6
Continuous
 62
     7
100
AcDbEllipse
 10
150.4742026783
 20
119.8652283448
 30
0.0
 11
11.49999999999999
 21
-6.383782391594650E-13
 31
0.0
210
0.0
220
0.0
230
1.0
 40
0.984807753
 41
3.141592653589793
 42
6.283185307179586
  0
ARC
  5
22A
330
200
100
AcDbEntity
  8
$DDT_AUDIT_GENERATED_(D8)
  6
Continuous
 62
     7
100
AcDbCircle
 10
150.4758494058
 20
117.8486907666
 30
0.0
 40
11.49869076658056
100
AcDbArc
 50
179.552276055
 51
0.4389828868
  0
LINE
  5
22B
330
200
100
AcDbEntity
  8
$DDT_AUDIT_GENERATED_(D8)
  6
Continuous
 62
     7
100
AcDbLine
 10
161.9742026783
 20
117.9367893861
 30
0.0
 11
161.9742026783
 21
119.8652283448
 31
0.0
  0
LINE
  5
22C
330
200
100
AcDbEntity
  8
$DDT_AUDIT_GENERATED_(D8)
  6
Continuous
 62
     7
100
AcDbLine
 10
138.9742026783
 20
119.8652283448
 30
0.0
 11
138.9742026783
 21
117.9367893861
 31
0.0
  0
ENDBLK
  5
22E
330
200
100
AcDbEntity
  8
0
100
AcDbBlockEnd
  0
ENDSEC
  0
SECTION
  2
ENTITIES
  0
INSERT
  5
5F
330
1F
100
AcDbEntity
  8
Default
100
AcDbBlockReference
  2
SEANNOT_GROUP
 10
0.0
 20
0.0
 30
0.0
  0
INSERT
  5
66
330
1F
100
AcDbEntity
  8
Default
100
AcDbBlockReference
  2
SEANNOT_GROUP1
 10
0.0
 20
0.0
 30
0.0
  0
INSERT
  5
6C
330
1F
100
AcDbEntity
  8
Default
100
AcDbBlockReference
  2
SEANNOT_GROUP2
 10
0.0
 20
0.0
 30
0.0
  0
INSERT
  5
76
330
1F
100
AcDbEntity
  8
Default
100
AcDbBlockReference
  2
SE
 10
0.0
 20
0.0
 30
0.0
  0
INSERT
  5
197
330
1F
100
AcDbEntity
  8
Default
100
AcDbBlockReference
  2
SE1
 10
0.0
 20
0.0
 30
0.0
  0
INSERT
  5
201
330
1F
100
AcDbEntity
  8
Default
100
AcDbBlockReference
  2
SE2
 10
0.0
 20
0.0
 30
0.0
  0
TEXT
  5
230
330
1F
100
AcDbEntity
  8
Default
  6
Continuous
 62
     7
100
AcDbText
 10
5.9362635081
 20
53.4225120485
 30
0.0
 40
10.0
  1
Grohe AG^J
  7
SEACAD_seiso_ttf
 11
5.9362635081
 21
63.4225120485
 31
0.0
100
AcDbText
 73
     3
  0
TEXT
  5
231
330
1F
100
AcDbEntity
  8
Default
  6
Continuous
 62
     7
100
AcDbText
 10
5.9362635081
 20
37.0588756849
 30
0.0
 40
10.0
  1
 
  7
SEACAD_seiso_ttf
 11
5.9362635081
 21
47.0588756849
 31
0.0
100
AcDbText
 73
     3
  0
TEXT
  5
232
330
1F
100
AcDbEntity
  8
Default
  6
Continuous
 62
     7
100
AcDbText
 10
5.9362635081
 20
20.6952393213
 30
0.0
 40
10.0
  1
ecn: 
  7
SEACAD_seiso_ttf
 11
5.9362635081
 21
30.6952393213
 31
0.0
100
AcDbText
 73
     3
  0
TEXT
  5
233
330
1F
100
AcDbEntity
  8
Default
  6
Continuous
 62
     7
100
AcDbText
 10
5.9362635081
 20
4.3316029576
 30
0.0
 40
10.0
  1
unit: mm
  7
SEACAD_seiso_ttf
 11
5.9362635081
 21
14.3316029576
 31
0.0
100
AcDbText
 73
     3
  0
LINE
  5
234
330
1F
100
AcDbEntity
  8
Default
  6
Continuous
 62
     7
100
AcDbLine
 10
0.0
 20
0.0
 30
0.0
 11
100.0
 21
0.0
 31
0.0
  0
LINE
  5
235
330
1F
100
AcDbEntity
  8
Default
  6
Continuous
 62
     7
100
AcDbLine
 10
0.0
 20
0.0
 30
0.0
 11
0.0
 21
100.0
 31
0.0
  0
TEXT
  5
236
330
1F
100
AcDbEntity
  8
Default
  6
Continuous
 62
     7
100
AcDbText
 10
24.3923665681
 20
-18.2375342018
 30
0.0
 40
10.0
  1
100 mm
  7
SEACAD_seiso_ttf
 11
24.3923665681
 21
-8.2375342018
 31
0.0
100
AcDbText
 73
     3
  0
TEXT
  5
237
330
1F
100
AcDbEntity
  8
Default
  6
Continuous
 62
     7
100
AcDbText
 10
-7.6150308803
 20
24.6231930421
 30
0.0
 40
10.0
  1
100 mm
 50
90.0
  7
SEACAD_seiso_ttf
 11
-17.6150308803
 21
24.6231930421
 31
0.0
100
AcDbText
 73
     3
  0
TEXT
  5
238
330
1F
100
AcDbEntity
  8
Default
  6
Continuous
 62
     7
100
AcDbText
 10
28.4878128572
 20
20.0907663715
 30
0.0
 40
10.0
  1
217916
  7
SEACAD_seiso_ttf
 11
28.4878128572
 21
30.0907663715
 31
0.0
100
AcDbText
 73
     3
  0
TEXT
  5
239
330
1F
100
AcDbEntity
  8
Default
  6
Continuous
 62
     7
100
AcDbText
 10
5.9012241913
 20
36.7242780188
 30
0.0
 40
10.0
  1
33202001
  7
SEACAD_seiso_ttf
 11
5.9012241913
 21
46.7242780188
 31
0.0
100
AcDbText
 73
     3
  0
ENDSEC
  0
SECTION
  2
OBJECTS
  0
DICTIONARY
  5
C
330
0
100
AcDbDictionary
281
     1
  3
ACAD_GROUP
350
D
  3
ACAD_LAYOUT
350
1A
  3
ACAD_MLEADERSTYLE
350
23D
  3
ACAD_MLINESTYLE
350
17
  3
ACAD_PLOTSETTINGS
350
19
  3
ACAD_PLOTSTYLENAME
350
E
  3
ACAD_SCALELIST
350
3B
  3
ACAD_TABLESTYLE
350
23C
  3
ACAD_VISUALSTYLE
350
2A
  3
AcDbVariableDictionary
350
23A
  0
DICTIONARY
  5
D
102
{ACAD_REACTORS
330
C
102
}
330
C
100
AcDbDictionary
281
     1
  0
DICTIONARY
  5
1A
102
{ACAD_REACTORS
330
C
102
}
330
C
100
AcDbDictionary
281
     1
  3
Layout1
350
1E
  3
Model
350
22
  0
DICTIONARY
  5
23D
102
{ACAD_REACTORS
330
C
102
}
330
C
100
AcDbDictionary
281
     1
  0
DICTIONARY
  5
17
102
{ACAD_REACTORS
330
C
102
}
330
C
100
AcDbDictionary
281
     1
  3
Standard
350
18
  0
DICTIONARY
  5
19
102
{ACAD_REACTORS
330
C
102
}
330
C
100
AcDbDictionary
281
     1
  0
ACDBDICTIONARYWDFLT
  5
E
102
{ACAD_REACTORS
330
C
102
}
330
C
100
AcDbDictionary
281
     1
  3
Normal
350
F
100
AcDbDictionaryWithDefault
340
F
  0
DICTIONARY
  5
3B
102
{ACAD_REACTORS
330
C
102
}
330
C
100
AcDbDictionary
281
     1
  3
A0
350
3C
  3
A1
350
3D
  3
A2
350
3E
  3
A3
350
3F
  3
A4
350
40
  3
A5
350
41
  3
A6
350
42
  3
A7
350
43
  3
A8
350
44
  3
A9
350
45
  3
B0
350
46
  3
B1
350
47
  3
B2
350
48
  3
B3
350
49
  3
B4
350
4A
  3
B5
350
4B
  3
B6
350
4C
  3
B7
350
4D
  3
B8
350
4E
  3
B9
350
4F
  3
C0
350
50
  3
C1
350
51
  3
C2
350
52
  3
C3
350
53
  3
C4
350
54
  3
C5
350
55
  3
C6
350
56
  3
C7
350
57
  3
C8
350
58
  3
C9
350
59
  3
D0
350
5A
  3
D1
350
5B
  3
D2
350
5C
  0
DICTIONARY
  5
23C
102
{ACAD_REACTORS
330
C
102
}
330
C
100
AcDbDictionary
281
     1
  0
DICTIONARY
  5
2A
102
{ACAD_REACTORS
330
C
102
}
330
C
100
AcDbDictionary
281
     1
  3
2dWireframe
350
2F
  3
3D Hidden
350
31
  3
3dWireframe
350
30
  3
Basic
350
32
  3
Brighten
350
36
  3
ColorChange
350
3A
  3
Conceptual
350
34
  3
Dim
350
35
  3
Facepattern
350
39
  3
Flat
350
2B
  3
FlatWithEdges
350
2C
  3
Gouraud
350
2D
  3
GouraudWithEdges
350
2E
  3
Linepattern
350
38
  3
Realistic
350
33
  3
Thicken
350
37
  0
DICTIONARY
  5
23A
102
{ACAD_REACTORS
330
C
102
}
330
C
100
AcDbDictionary
281
     1
  3
CANNOSCALE
350
23B
  3
PSOLHEIGHT
350
23F
  3
PSOLWIDTH
350
23E
  0
LAYOUT
  5
1E
102
{ACAD_REACTORS
330
1A
102
}
330
1A
100
AcDbPlotSettings
  1

  2
none_device
  4

  6

 40
0.0
 41
0.0
 42
0.0
 43
0.0
 44
0.0
 45
0.0
 46
0.0
 47
0.0
 48
0.0
 49
0.0
140
0.0
141
0.0
142
1.0
143
1.0
 70
   688
 72
     0
 73
     0
 74
     5
  7

 75
    16
147
1.0
148
0.0
149
0.0
100
AcDbLayout
  1
Layout1
 70
     1
 71
     1
 10
0.0
 20
0.0
 11
1682.0
 21
2378.0
 12
0.0
 22
0.0
 32
0.0
 14
0.0
 24
0.0
 34
0.0
 15
1682.0
 25
2378.0
 35
0.0
146
0.0
 13
0.0
 23
0.0
 33
0.0
 16
1.0
 26
0.0
 36
0.0
 17
0.0
 27
1.0
 37
0.0
 76
     0
330
1B
  0
LAYOUT
  5
22
102
{ACAD_REACTORS
330
1A
102
}
330
1A
100
AcDbPlotSettings
  1

  2
none_device
  4

  6

 40
0.0
 41
0.0
 42
0.0
 43
0.0
 44
0.0
 45
0.0
 46
0.0
 47
0.0
 48
0.0
 49
0.0
140
0.0
141
0.0
142
1.0
143
1.0
 70
  1712
 72
     0
 73
     0
 74
     0
  7

 75
     0
147
1.0
148
0.0
149
0.0
100
AcDbLayout
  1
Model
 70
     1
 71
     0
 10
0.0
 20
0.0
 11
1682.0
 21
2378.0
 12
0.0
 22
0.0
 32
0.0
 14
0.0
 24
0.0
 34
0.0
 15
1682.0
 25
2378.0
 35
0.0
146
0.0
 13
0.0
 23
0.0
 33
0.0
 16
1.0
 26
0.0
 36
0.0
 17
0.0
 27
1.0
 37
0.0
 76
     0
330
1F
331
29
  0
MLINESTYLE
  5
18
102
{ACAD_REACTORS
330
17
102
}
330
17
100
AcDbMlineStyle
  2
Standard
 70
     0
  3

 62
   256
 51
90.0
 52
90.0
 71
     2
 49
0.5
 62
   256
  6
BYLAYER
 49
-0.5
 62
   256
  6
BYLAYER
  0
ACDBPLACEHOLDER
  5
F
102
{ACAD_REACTORS
330
E
102
}
330
E
  0
SCALE
  5
3C
102
{ACAD_REACTORS
330
3B
102
}
330
3B
100
AcDbScale
 70
     0
300
1:1
140
1.0
141
1.0
290
     1
  0
SCALE
  5
3D
102
{ACAD_REACTORS
330
3B
102
}
330
3B
100
AcDbScale
 70
     0
300
1:2
140
1.0
141
2.0
290
     0
  0
SCALE
  5
3E
102
{ACAD_REACTORS
330
3B
102
}
330
3B
100
AcDbScale
 70
     0
300
1:4
140
1.0
141
4.0
290
     0
  0
SCALE
  5
3F
102
{ACAD_REACTORS
330
3B
102
}
330
3B
100
AcDbScale
 70
     0
300
1:5
140
1.0
141
5.0
290
     0
  0
SCALE
  5
40
102
{ACAD_REACTORS
330
3B
102
}
330
3B
100
AcDbScale
 70
     0
300
1:8
140
1.0
141
8.0
290
     0
  0
SCALE
  5
41
102
{ACAD_REACTORS
330
3B
102
}
330
3B
100
AcDbScale
 70
     0
300
1:10
140
1.0
141
10.0
290
     0
  0
SCALE
  5
42
102
{ACAD_REACTORS
330
3B
102
}
330
3B
100
AcDbScale
 70
     0
300
1:16
140
1.0
141
16.0
290
     0
  0
SCALE
  5
43
102
{ACAD_REACTORS
330
3B
102
}
330
3B
100
AcDbScale
 70
     0
300
1:20
140
1.0
141
20.0
290
     0
  0
SCALE
  5
44
102
{ACAD_REACTORS
330
3B
102
}
330
3B
100
AcDbScale
 70
     0
300
1:30
140
1.0
141
30.0
290
     0
  0
SCALE
  5
45
102
{ACAD_REACTORS
330
3B
102
}
330
3B
100
AcDbScale
 70
     0
300
1:40
140
1.0
141
40.0
290
     0
  0
SCALE
  5
46
102
{ACAD_REACTORS
330
3B
102
}
330
3B
100
AcDbScale
 70
     0
300
1:50
140
1.0
141
50.0
290
     0
  0
SCALE
  5
47
102
{ACAD_REACTORS
330
3B
102
}
330
3B
100
AcDbScale
 70
     0
300
1:100
140
1.0
141
100.0
290
     0
  0
SCALE
  5
48
102
{ACAD_REACTORS
330
3B
102
}
330
3B
100
AcDbScale
 70
     0
300
2:1
140
2.0
141
1.0
290
     0
  0
SCALE
  5
49
102
{ACAD_REACTORS
330
3B
102
}
330
3B
100
AcDbScale
 70
     0
300
4:1
140
4.0
141
1.0
290
     0
  0
SCALE
  5
4A
102
{ACAD_REACTORS
330
3B
102
}
330
3B
100
AcDbScale
 70
     0
300
8:1
140
8.0
141
1.0
290
     0
  0
SCALE
  5
4B
102
{ACAD_REACTORS
330
3B
102
}
330
3B
100
AcDbScale
 70
     0
300
10:1
140
10.0
141
1.0
290
     0
  0
SCALE
  5
4C
102
{ACAD_REACTORS
330
3B
102
}
330
3B
100
AcDbScale
 70
     0
300
100:1
140
100.0
141
1.0
290
     0
  0
SCALE
  5
4D
102
{ACAD_REACTORS
330
3B
102
}
330
3B
100
AcDbScale
 70
     0
300
1/128" = 1'-0"
140
0.0078125
141
12.0
290
     0
  0
SCALE
  5
4E
102
{ACAD_REACTORS
330
3B
102
}
330
3B
100
AcDbScale
 70
     0
300
1/64" = 1'-0"
140
0.015625
141
12.0
290
     0
  0
SCALE
  5
4F
102
{ACAD_REACTORS
330
3B
102
}
330
3B
100
AcDbScale
 70
     0
300
1/32" = 1'-0"
140
0.03125
141
12.0
290
     0
  0
SCALE
  5
50
102
{ACAD_REACTORS
330
3B
102
}
330
3B
100
AcDbScale
 70
     0
300
1/16" = 1'-0"
140
0.0625
141
12.0
290
     0
  0
SCALE
  5
51
102
{ACAD_REACTORS
330
3B
102
}
330
3B
100
AcDbScale
 70
     0
300
3/32" = 1'-0"
140
0.09375
141
12.0
290
     0
  0
SCALE
  5
52
102
{ACAD_REACTORS
330
3B
102
}
330
3B
100
AcDbScale
 70
     0
300
1/8" = 1'-0"
140
0.125
141
12.0
290
     0
  0
SCALE
  5
53
102
{ACAD_REACTORS
330
3B
102
}
330
3B
100
AcDbScale
 70
     0
300
3/16" = 1'-0"
140
0.1875
141
12.0
290
     0
  0
SCALE
  5
54
102
{ACAD_REACTORS
330
3B
102
}
330
3B
100
AcDbScale
 70
     0
300
1/4" = 1'-0"
140
0.25
141
12.0
290
     0
  0
SCALE
  5
55
102
{ACAD_REACTORS
330
3B
102
}
330
3B
100
AcDbScale
 70
     0
300
3/8" = 1'-0"
140
0.375
141
12.0
290
     0
  0
SCALE
  5
56
102
{ACAD_REACTORS
330
3B
102
}
330
3B
100
AcDbScale
 70
     0
300
1/2" = 1'-0"
140
0.5
141
12.0
290
     0
  0
SCALE
  5
57
102
{ACAD_REACTORS
330
3B
102
}
330
3B
100
AcDbScale
 70
     0
300
3/4" = 1'-0"
140
0.75
141
12.0
290
     0
  0
SCALE
  5
58
102
{ACAD_REACTORS
330
3B
102
}
330
3B
100
AcDbScale
 70
     0
300
1" = 1'-0"
140
1.0
141
12.0
290
     0
  0
SCALE
  5
59
102
{ACAD_REACTORS
330
3B
102
}
330
3B
100
AcDbScale
 70
     0
300
1-1/2" = 1'-0"
140
1.5
141
12.0
290
     0
  0
SCALE
  5
5A
102
{ACAD_REACTORS
330
3B
102
}
330
3B
100
AcDbScale
 70
     0
300
3" = 1'-0"
140
3.0
141
12.0
290
     0
  0
SCALE
  5
5B
102
{ACAD_REACTORS
330
3B
102
}
330
3B
100
AcDbScale
 70
     0
300
6" = 1'-0"
140
6.0
141
12.0
290
     0
  0
SCALE
  5
5C
102
{ACAD_REACTORS
330
3B
102
}
330
3B
100
AcDbScale
 70
     0
300
1'-0" = 1'-0"
140
12.0
141
12.0
290
     0
  0
VISUALSTYLE
  5
2F
102
{ACAD_REACTORS
330
2A
102
}
330
2A
100
AcDbVisualStyle
  2
2dWireframe
 70
     4
 71
     0
 72
     2
 73
     0
 90
        0
 40
-0.6
 41
-30.0
 62
     5
 63
     7
 74
     1
 91
        4
 64
     7
 65
   257
 75
     1
175
     1
 42
1.0
 92
        0
 66
   257
 43
1.0
 76
     1
 77
     6
 78
     2
 67
     7
 79
     5
170
     0
171
     0
290
     0
174
     0
 93
        1
 44
0.0
173
     0
291
     0
 45
0.0
1001
ACAD
1000
AcDbSavedByObjectVersion
1070
     0
  0
VISUALSTYLE
  5
31
102
{ACAD_REACTORS
330
2A
102
}
330
2A
100
AcDbVisualStyle
  2
3D Hidden
 70
     6
 71
     1
 72
     2
 73
     2
 90
        0
 40
-0.6
 41
-30.0
 62
     5
 63
     7
 74
     2
 91
        2
 64
     7
 65
   257
 75
     2
175
     1
 42
40.0
 92
        0
 66
   257
 43
1.0
 76
     1
 77
     6
 78
     2
 67
     7
 79
     3
170
     0
171
     0
290
     0
174
     0
 93
        1
 44
0.0
173
     0
291
     0
 45
0.0
1001
ACAD
1000
AcDbSavedByObjectVersion
1070
     0
  0
VISUALSTYLE
  5
30
102
{ACAD_REACTORS
330
2A
102
}
330
2A
100
AcDbVisualStyle
  2
3dWireframe
 70
     5
 71
     0
 72
     2
 73
     0
 90
        0
 40
-0.6
 41
-30.0
 62
     5
 63
     7
 74
     1
 91
        4
 64
     7
 65
   257
 75
     1
175
     1
 42
1.0
 92
        0
 66
   257
 43
1.0
 76
     1
 77
     6
 78
     2
 67
     7
 79
     5
170
     0
171
     0
290
     0
174
     0
 93
        1
 44
0.0
173
     0
291
     0
 45
0.0
1001
ACAD
1000
AcDbSavedByObjectVersion
1070
     0
  0
VISUALSTYLE
  5
32
102
{ACAD_REACTORS
330
2A
102
}
330
2A
100
AcDbVisualStyle
  2
Basic
 70
     7
 71
     1
 72
     0
 73
     1
 90
        0
 40
-0.6
 41
-30.0
 62
     5
 63
     7
 74
     0
 91
        4
 64
     7
 65
   257
 75
     1
175
     1
 42
1.0
 92
        8
 66
     7
 43
1.0
 76
     1
 77
     6
 78
     2
 67
     7
 79
     5
170
     0
171
     0
290
     0
174
     0
 93
        1
 44
0.0
173
     0
291
     1
 45
0.0
1001
ACAD
1000
AcDbSavedByObjectVersion
1070
     0
  0
VISUALSTYLE
  5
36
102
{ACAD_REACTORS
330
2A
102
}
330
2A
100
AcDbVisualStyle
  2
Brighten
 70
    12
 71
     2
 72
     2
 73
     0
 90
        0
 40
-0.6
 41
-30.0
 62
     5
 63
     7
 74
     1
 91
        4
 64
     7
 65
   257
 75
     1
175
     1
 42
1.0
 92
        8
 66
     7
 43
1.0
 76
     1
 77
     6
 78
     2
 67
     7
 79
     5
170
     0
171
     0
290
     0
174
     0
 93
        1
 44
50.0
173
     0
291
     1
 45
0.0
1001
ACAD
1000
AcDbSavedByObjectVersion
1070
     0
  0
VISUALSTYLE
  5
3A
102
{ACAD_REACTORS
330
2A
102
}
330
2A
100
AcDbVisualStyle
  2
ColorChange
 70
    16
 71
     2
 72
     2
 73
     3
 90
        0
 40
-0.6
 41
-30.0
 62
     5
 63
     8
 74
     1
 91
        4
 64
     7
 65
   257
 75
     1
175
     1
 42
1.0
 92
        8
 66
     8
 43
1.0
 76
     1
 77
     6
 78
     2
 67
     7
 79
     5
170
     0
171
     0
290
     0
174
     0
 93
        1
 44
0.0
173
     0
291
     1
 45
0.0
1001
ACAD
1000
AcDbSavedByObjectVersion
1070
     0
  0
VISUALSTYLE
  5
34
102
{ACAD_REACTORS
330
2A
102
}
330
2A
100
AcDbVisualStyle
  2
Conceptual
 70
     9
 71
     3
 72
     2
 73
     0
 90
        0
 40
-0.6
 41
-30.0
 62
     5
 63
     7
 74
     2
 91
        2
 64
     7
 65
   257
 75
     1
175
     1
 42
40.0
 92
        8
 66
     7
 43
1.0
 76
     1
 77
     6
 78
     2
 67
     7
 79
     3
170
     0
171
     0
290
     0
174
     0
 93
        1
 44
0.0
173
     0
291
     0
 45
0.0
1001
ACAD
1000
AcDbSavedByObjectVersion
1070
     0
  0
VISUALSTYLE
  5
35
102
{ACAD_REACTORS
330
2A
102
}
330
2A
100
AcDbVisualStyle
  2
Dim
 70
    11
 71
     2
 72
     2
 73
     0
 90
        0
 40
-0.6
 41
-30.0
 62
     5
 63
     7
 74
     1
 91
        4
 64
     7
 65
   257
 75
     1
175
     1
 42
1.0
 92
        8
 66
     7
 43
1.0
 76
     1
 77
     6
 78
     2
 67
     7
 79
     5
170
     0
171
     0
290
     0
174
     0
 93
        1
 44
-50.0
173
     0
291
     1
 45
0.0
1001
ACAD
1000
AcDbSavedByObjectVersion
1070
     0
  0
VISUALSTYLE
  5
39
102
{ACAD_REACTORS
330
2A
102
}
330
2A
100
AcDbVisualStyle
  2
Facepattern
 70
    15
 71
     2
 72
     2
 73
     0
 90
        0
 40
-0.6
 41
-30.0
 62
     5
 63
     7
 74
     1
 91
        4
 64
     7
 65
   257
 75
     1
175
     1
 42
1.0
 92
        8
 66
     7
 43
1.0
 76
     1
 77
     6
 78
     2
 67
     7
 79
     5
170
     0
171
     0
290
     0
174
     0
 93
        1
 44
0.0
173
     0
291
     1
 45
0.0
1001
ACAD
1000
AcDbSavedByObjectVersion
1070
     0
  0
VISUALSTYLE
  5
2B
102
{ACAD_REACTORS
330
2A
102
}
330
2A
100
AcDbVisualStyle
  2
Flat
 70
     0
 71
     2
 72
     1
 73
     1
 90
        2
 40
-0.6
 41
30.0
 62
     5
 63
     7
 74
     0
 91
        4
 64
     7
 65
   257
 75
     1
175
     1
 42
1.0
 92
        8
 66
     7
 43
1.0
 76
     1
 77
     6
 78
     2
 67
     7
 79
     5
170
     0
171
     0
290
     0
174
     0
 93
       13
 44
0.0
173
     0
291
     1
 45
0.0
1001
ACAD
1000
AcDbSavedByObjectVersion
1070
     0
  0
VISUALSTYLE
  5
2C
102
{ACAD_REACTORS
330
2A
102
}
330
2A
100
AcDbVisualStyle
  2
FlatWithEdges
 70
     1
 71
     2
 72
     1
 73
     1
 90
        2
 40
-0.6
 41
30.0
 62
     5
 63
     7
 74
     1
 91
        4
 64
     7
 65
   257
 75
     1
175
     1
 42
1.0
 92
        0
 66
   257
 43
1.0
 76
     1
 77
     6
 78
     2
 67
     7
 79
     5
170
     0
171
     0
290
     0
174
     0
 93
       13
 44
0.0
173
     0
291
     1
 45
0.0
1001
ACAD
1000
AcDbSavedByObjectVersion
1070
     0
  0
VISUALSTYLE
  5
2D
102
{ACAD_REACTORS
330
2A
102
}
330
2A
100
AcDbVisualStyle
  2
Gouraud
 70
     2
 71
     2
 72
     2
 73
     1
 90
        2
 40
-0.6
 41
30.0
 62
     5
 63
     7
 74
     0
 91
        4
 64
     7
 65
   257
 75
     1
175
     1
 42
1.0
 92
        0
 66
     7
 43
1.0
 76
     1
 77
     6
 78
     2
 67
     7
 79
     5
170
     0
171
     0
290
     0
174
     0
 93
       13
 44
0.0
173
     0
291
     1
 45
0.0
1001
ACAD
1000
AcDbSavedByObjectVersion
1070
     0
  0
VISUALSTYLE
  5
2E
102
{ACAD_REACTORS
330
2A
102
}
330
2A
100
AcDbVisualStyle
  2
GouraudWithEdges
 70
     3
 71
     2
 72
     2
 73
     1
 90
        2
 40
-0.6
 41
30.0
 62
     5
 63
     7
 74
     1
 91
        4
 64
     7
 65
   257
 75
     1
175
     1
 42
1.0
 92
        0
 66
   257
 43
1.0
 76
     1
 77
     6
 78
     2
 67
     7
 79
     5
170
     0
171
     0
290
     0
174
     0
 93
       13
 44
0.0
173
     0
291
     1
 45
0.0
1001
ACAD
1000
AcDbSavedByObjectVersion
1070
     0
  0
VISUALSTYLE
  5
38
102
{ACAD_REACTORS
330
2A
102
}
330
2A
100
AcDbVisualStyle
  2
Linepattern
 70
    14
 71
     2
 72
     2
 73
     0
 90
        0
 40
-0.6
 41
-30.0
 62
     5
 63
     7
 74
     1
 91
        4
 64
     7
 65
   257
 75
     7
175
     7
 42
1.0
 92
        8
 66
     7
 43
1.0
 76
     1
 77
     6
 78
     2
 67
     7
 79
     5
170
     0
171
     0
290
     0
174
     0
 93
        1
 44
0.0
173
     0
291
     1
 45
0.0
1001
ACAD
1000
AcDbSavedByObjectVersion
1070
     0
  0
VISUALSTYLE
  5
33
102
{ACAD_REACTORS
330
2A
102
}
330
2A
100
AcDbVisualStyle
  2
Realistic
 70
     8
 71
     2
 72
     2
 73
     0
 90
        0
 40
-0.6
 41
-30.0
 62
     5
 63
     7
 74
     1
 91
        0
 64
     7
 65
   257
 75
     1
175
     1
 42
1.0
 92
        8
 66
     8
 43
1.0
 76
     1
 77
     6
 78
     2
 67
     7
 79
     5
170
     0
171
     0
290
     0
174
     0
 93
       13
 44
0.0
173
     0
291
     0
 45
0.0
1001
ACAD
1000
AcDbSavedByObjectVersion
1070
     0
  0
VISUALSTYLE
  5
37
102
{ACAD_REACTORS
330
2A
102
}
330
2A
100
AcDbVisualStyle
  2
Thicken
 70
    13
 71
     2
 72
     2
 73
     0
 90
        0
 40
-0.6
 41
-30.0
 62
     5
 63
     7
 74
     1
 91
        4
 64
     7
 65
   257
 75
     1
175
     1
 42
1.0
 92
       12
 66
     7
 43
1.0
 76
     1
 77
     6
 78
     2
 67
     7
 79
     5
170
     0
171
     0
290
     0
174
     0
 93
        1
 44
0.0
173
     0
291
     1
 45
0.0
1001
ACAD
1000
AcDbSavedByObjectVersion
1070
     0
  0
DICTIONARYVAR
  5
23B
102
{ACAD_REACTORS
330
23A
102
}
330
23A
100
DictionaryVariables
280
     0
  1
1:1
  0
DICTIONARYVAR
  5
23F
102
{ACAD_REACTORS
330
23A
102
}
330
23A
100
DictionaryVariables
280
     0
  1
80.000000
  0
DICTIONARYVAR
  5
23E
102
{ACAD_REACTORS
330
23A
102
}
330
23A
100
DictionaryVariables
280
     0
  1
5.000000
  0
ENDSEC
  0
EOF
