  0
SECTION
  2
HEADER
  9
$ACADVER
  1
AC1015
  9
$ACADMAINTVER
 70
     6
  9
$DWGCODEPAGE
  3
ANSI_1252
  9
$INSBASE
 10
0.0
 20
0.0
 30
0.0
  9
$EXTMIN
 10
0.0
 20
0.0
 30
0.0
  9
$EXTMAX
 10
1682.0
 20
2378.0
 30
0.0
  9
$LIMMIN
 10
0.0
 20
0.0
  9
$LIMMAX
 10
1682.0
 20
2378.0
  9
$ORTHOMODE
 70
     0
  9
$REGENMODE
 70
     1
  9
$FILLMODE
 70
     1
  9
$QTEXTMODE
 70
     0
  9
$MIRRTEXT
 70
     1
  9
$LTSCALE
 40
1.0
  9
$ATTMODE
 70
     1
  9
$TEXTSIZE
 40
2.5
  9
$TRACEWID
 40
1.0
  9
$TEXTSTYLE
  7
Standard
  9
$CLAYER
  8
0
  9
$CELTYPE
  6
ByLayer
  9
$CECOLOR
 62
   256
  9
$CELTSCALE
 40
1.0
  9
$DISPSILH
 70
     0
  9
$DIMSCALE
 40
1.0
  9
$DIMASZ
 40
2.5
  9
$DIMEXO
 40
0.625
  9
$DIMDLI
 40
3.75
  9
$DIMRND
 40
0.0
  9
$DIMDLE
 40
0.0
  9
$DIMEXE
 40
1.25
  9
$DIMTP
 40
0.0
  9
$DIMTM
 40
0.0
  9
$DIMTXT
 40
2.5
  9
$DIMCEN
 40
2.5
  9
$DIMTSZ
 40
0.0
  9
$DIMTOL
 70
     0
  9
$DIMLIM
 70
     0
  9
$DIMTIH
 70
     0
  9
$DIMTOH
 70
     0
  9
$DIMSE1
 70
     0
  9
$DIMSE2
 70
     0
  9
$DIMTAD
 70
     1
  9
$DIMZIN
 70
     8
  9
$DIMBLK
  1

  9
$DIMASO
 70
     1
  9
$DIMSHO
 70
     1
  9
$DIMPOST
  1

  9
$DIMAPOST
  1

  9
$DIMALT
 70
     0
  9
$DIMALTD
 70
     3
  9
$DIMALTF
 40
0.0393700787
  9
$DIMLFAC
 40
1.0
  9
$DIMTOFL
 70
     1
  9
$DIMTVP
 40
0.0
  9
$DIMTIX
 70
     0
  9
$DIMSOXD
 70
     0
  9
$DIMSAH
 70
     0
  9
$DIMBLK1
  1

  9
$DIMBLK2
  1

  9
$DIMSTYLE
  2
ISO-25
  9
$DIMCLRD
 70
     0
  9
$DIMCLRE
 70
     0
  9
$DIMCLRT
 70
     0
  9
$DIMTFAC
 40
1.0
  9
$DIMGAP
 40
0.625
  9
$DIMJUST
 70
     0
  9
$DIMSD1
 70
     0
  9
$DIMSD2
 70
     0
  9
$DIMTOLJ
 70
     0
  9
$DIMTZIN
 70
     8
  9
$DIMALTZ
 70
     0
  9
$DIMALTTZ
 70
     0
  9
$DIMUPT
 70
     0
  9
$DIMDEC
 70
     2
  9
$DIMTDEC
 70
     2
  9
$DIMALTU
 70
     2
  9
$DIMALTTD
 70
     3
  9
$DIMTXSTY
  7
Standard
  9
$DIMAUNIT
 70
     0
  9
$DIMADEC
 70
     0
  9
$DIMALTRND
 40
0.0
  9
$DIMAZIN
 70
     0
  9
$DIMDSEP
 70
    44
  9
$DIMATFIT
 70
     3
  9
$DIMFRAC
 70
     0
  9
$DIMLDRBLK
  1

  9
$DIMLUNIT
 70
     2
  9
$DIMLWD
 70
    -2
  9
$DIMLWE
 70
    -2
  9
$DIMTMOVE
 70
     0
  9
$LUNITS
 70
     2
  9
$LUPREC
 70
     4
  9
$SKETCHINC
 40
1.0
  9
$FILLETRAD
 40
10.0
  9
$AUNITS
 70
     0
  9
$AUPREC
 70
     0
  9
$MENU
  1
.
  9
$ELEVATION
 40
0.0
  9
$PELEVATION
 40
0.0
  9
$THICKNESS
 40
0.0
  9
$LIMCHECK
 70
     0
  9
$CHAMFERA
 40
10.0
  9
$CHAMFERB
 40
10.0
  9
$CHAMFERC
 40
20.0
  9
$CHAMFERD
 40
0.0
  9
$SKPOLY
 70
     0
  9
$TDCREATE
 40
2455505.418494873
  9
$TDUCREATE
 40
2455505.376828206
  9
$TDUPDATE
 40
2455505.418494884
  9
$TDUUPDATE
 40
2455505.376828217
  9
$TDINDWG
 40
0.0000000116
  9
$TDUSRTIMER
 40
0.0000000116
  9
$USRTIMER
 70
     1
  9
$ANGBASE
 50
0.0
  9
$ANGDIR
 70
     0
  9
$PDMODE
 70
     0
  9
$PDSIZE
 40
0.0
  9
$PLINEWID
 40
0.0
  9
$SPLFRAME
 70
     0
  9
$SPLINETYPE
 70
     6
  9
$SPLINESEGS
 70
     8
  9
$HANDSEED
  5
40B
  9
$SURFTAB1
 70
     6
  9
$SURFTAB2
 70
     6
  9
$SURFTYPE
 70
     6
  9
$SURFU
 70
     6
  9
$SURFV
 70
     6
  9
$UCSBASE
  2

  9
$UCSNAME
  2

  9
$UCSORG
 10
0.0
 20
0.0
 30
0.0
  9
$UCSXDIR
 10
1.0
 20
0.0
 30
0.0
  9
$UCSYDIR
 10
0.0
 20
1.0
 30
0.0
  9
$UCSORTHOREF
  2

  9
$UCSORTHOVIEW
 70
     0
  9
$UCSORGTOP
 10
0.0
 20
0.0
 30
0.0
  9
$UCSORGBOTTOM
 10
0.0
 20
0.0
 30
0.0
  9
$UCSORGLEFT
 10
0.0
 20
0.0
 30
0.0
  9
$UCSORGRIGHT
 10
0.0
 20
0.0
 30
0.0
  9
$UCSORGFRONT
 10
0.0
 20
0.0
 30
0.0
  9
$UCSORGBACK
 10
0.0
 20
0.0
 30
0.0
  9
$PUCSBASE
  2

  9
$PUCSNAME
  2

  9
$PUCSORG
 10
0.0
 20
0.0
 30
0.0
  9
$PUCSXDIR
 10
1.0
 20
0.0
 30
0.0
  9
$PUCSYDIR
 10
0.0
 20
1.0
 30
0.0
  9
$PUCSORTHOREF
  2

  9
$PUCSORTHOVIEW
 70
     0
  9
$PUCSORGTOP
 10
0.0
 20
0.0
 30
0.0
  9
$PUCSORGBOTTOM
 10
0.0
 20
0.0
 30
0.0
  9
$PUCSORGLEFT
 10
0.0
 20
0.0
 30
0.0
  9
$PUCSORGRIGHT
 10
0.0
 20
0.0
 30
0.0
  9
$PUCSORGFRONT
 10
0.0
 20
0.0
 30
0.0
  9
$PUCSORGBACK
 10
0.0
 20
0.0
 30
0.0
  9
$USERI1
 70
     0
  9
$USERI2
 70
     0
  9
$USERI3
 70
     0
  9
$USERI4
 70
     0
  9
$USERI5
 70
     0
  9
$USERR1
 40
0.0
  9
$USERR2
 40
0.0
  9
$USERR3
 40
0.0
  9
$USERR4
 40
0.0
  9
$USERR5
 40
0.0
  9
$WORLDVIEW
 70
     1
  9
$SHADEDGE
 70
     3
  9
$SHADEDIF
 70
    70
  9
$TILEMODE
 70
     1
  9
$MAXACTVP
 70
    64
  9
$PINSBASE
 10
0.0
 20
0.0
 30
0.0
  9
$PLIMCHECK
 70
     0
  9
$PEXTMIN
 10
0.0
 20
0.0
 30
0.0
  9
$PEXTMAX
 10
1682.0
 20
2378.0
 30
0.0
  9
$PLIMMIN
 10
0.0
 20
0.0
  9
$PLIMMAX
 10
1682.0
 20
2378.0
  9
$UNITMODE
 70
     0
  9
$VISRETAIN
 70
     1
  9
$PLINEGEN
 70
     0
  9
$PSLTSCALE
 70
     1
  9
$TREEDEPTH
 70
  3020
  9
$CMLSTYLE
  2
Standard
  9
$CMLJUST
 70
     0
  9
$CMLSCALE
 40
20.0
  9
$PROXYGRAPHICS
 70
     1
  9
$MEASUREMENT
 70
     1
  9
$CELWEIGHT
370
    -1
  9
$ENDCAPS
280
     0
  9
$JOINSTYLE
280
     0
  9
$LWDISPLAY
290
     0
  9
$INSUNITS
 70
     4
  9
$HYPERLINKBASE
  1

  9
$STYLESHEET
  1

  9
$XEDIT
290
     1
  9
$CEPSNTYPE
380
     0
  9
$PSTYLEMODE
290
     1
  9
$FINGERPRINTGUID
  2
{71072D0D-CED6-43A4-BF25-F043955ADEFF}
  9
$VERSIONGUID
  2
{FAEB1C32-E019-11D5-929B-00C0DF256EC4}
  9
$EXTNAMES
290
     1
  9
$PSVPSCALE
 40
0.0
  9
$OLESTARTUP
290
     0
  0
ENDSEC
  0
SECTION
  2
CLASSES
  0
CLASS
  1
ACDBDICTIONARYWDFLT
  2
AcDbDictionaryWithDefault
  3
ObjectDBX Classes
 90
        0
280
     0
281
     0
  0
CLASS
  1
VISUALSTYLE
  2
AcDbVisualStyle
  3
ObjectDBX Classes
 90
     4095
280
     0
281
     0
  0
CLASS
  1
SCALE
  2
AcDbScale
  3
ObjectDBX Classes
 90
     1153
280
     0
281
     0
  0
CLASS
  1
DICTIONARYVAR
  2
AcDbDictionaryVar
  3
ObjectDBX Classes
 90
        0
280
     0
281
     0
  0
CLASS
  1
ACDBPLACEHOLDER
  2
AcDbPlaceHolder
  3
ObjectDBX Classes
 90
        0
280
     0
281
     0
  0
CLASS
  1
LAYOUT
  2
AcDbLayout
  3
ObjectDBX Classes
 90
        0
280
     0
281
     0
  0
ENDSEC
  0
SECTION
  2
TABLES
  0
TABLE
  2
VPORT
  5
8
330
0
100
AcDbSymbolTable
 70
     1
  0
VPORT
  5
29
330
8
100
AcDbSymbolTableRecord
100
AcDbViewportTableRecord
  2
*Active
 70
     0
 10
0.0
 20
0.0
 11
1.0
 21
1.0
 12
344.1869158879
 22
148.5
 13
0.0
 23
0.0
 14
10.0
 24
10.0
 15
10.0
 25
10.0
 16
0.0
 26
0.0
 36
1.0
 17
0.0
 27
0.0
 37
0.0
 40
297.0
 41
1.9729729729
 42
50.0
 43
0.0
 44
0.0
 50
0.0
 51
0.0
 71
     0
 72
   100
 73
     1
 74
     3
 75
     0
 76
     0
 77
     0
 78
     0
281
     0
 65
     1
110
0.0
120
0.0
130
0.0
111
1.0
121
0.0
131
0.0
112
0.0
122
1.0
132
0.0
 79
     0
146
0.0
  0
ENDTAB
  0
TABLE
  2
LTYPE
  5
5
330
0
100
AcDbSymbolTable
 70
     2
  0
LTYPE
  5
14
330
5
100
AcDbSymbolTableRecord
100
AcDbLinetypeTableRecord
  2
ByBlock
 70
     0
  3

 72
    65
 73
     0
 40
0.0
  0
LTYPE
  5
15
330
5
100
AcDbSymbolTableRecord
100
AcDbLinetypeTableRecord
  2
ByLayer
 70
     0
  3

 72
    65
 73
     0
 40
0.0
  0
LTYPE
  5
16
330
5
100
AcDbSymbolTableRecord
100
AcDbLinetypeTableRecord
  2
Continuous
 70
     0
  3
Solid line
 72
    65
 73
     0
 40
0.0
  0
LTYPE
  5
60
330
5
100
AcDbSymbolTableRecord
100
AcDbLinetypeTableRecord
  2
CENTER2
 70
     0
  3
Center (.5x) ___ _ ___ _ ___ _ ___ _ ___ _ ___
 72
    65
 73
     4
 40
28.575
 49
19.05
 74
     4
 75
     0
340
0
 46
0.0
 50
0.0
 44
0.0
 45
0.0
 49
-3.175
 74
     4
 75
     0
340
0
 46
0.0
 50
0.0
 44
0.0
 45
0.0
 49
3.175
 74
     4
 75
     0
340
0
 46
0.0
 50
0.0
 44
0.0
 45
0.0
 49
-3.175
 74
     4
 75
     0
340
0
 46
0.0
 50
0.0
 44
0.0
 45
0.0
  0
ENDTAB
  0
TABLE
  2
LAYER
  5
2
330
0
100
AcDbSymbolTable
 70
    10
  0
LAYER
  5
10
330
2
100
AcDbSymbolTableRecord
100
AcDbLayerTableRecord
  2
0
 70
     0
 62
     7
  6
Continuous
370
    -3
390
F
  0
LAYER
  5
5D
330
2
100
AcDbSymbolTableRecord
100
AcDbLayerTableRecord
  2
Default
 70
     0
 62
     7
  6
Continuous
370
    -3
390
F
  0
LAYER
  5
77
330
2
100
AcDbSymbolTableRecord
100
AcDbLayerTableRecord
  2
$DDT_AUDIT_GENERATED_(77)
 70
     0
 62
     7
  6
Continuous
370
    -3
390
F
  0
LAYER
  5
8A
330
2
100
AcDbSymbolTableRecord
100
AcDbLayerTableRecord
  2
02636038_GEHÄUSE
 70
     0
 62
     7
  6
Continuous
370
    -3
390
F
  0
LAYER
  5
9C
330
2
100
AcDbSymbolTableRecord
100
AcDbLayerTableRecord
  2
$DDT_AUDIT_GENERATED_(9C)
 70
     0
 62
     7
  6
Continuous
370
    -3
390
F
  0
LAYER
  5
333
330
2
100
AcDbSymbolTableRecord
100
AcDbLayerTableRecord
  2
$DDT_AUDIT_GENERATED_(333)
 70
     0
 62
     7
  6
Continuous
370
    -3
390
F
  0
LAYER
  5
34C
330
2
100
AcDbSymbolTableRecord
100
AcDbLayerTableRecord
  2
$DDT_AUDIT_GENERATED_(34C)
 70
     0
 62
     7
  6
Continuous
370
    -3
390
F
  0
LAYER
  5
350
330
2
100
AcDbSymbolTableRecord
100
AcDbLayerTableRecord
  2
$DDT_AUDIT_GENERATED_(350)
 70
     0
 62
     7
  6
Continuous
370
    -3
390
F
  0
LAYER
  5
3BF
330
2
100
AcDbSymbolTableRecord
100
AcDbLayerTableRecord
  2
$DDT_AUDIT_GENERATED_(3BF)
 70
     0
 62
     7
  6
Continuous
370
    -3
390
F
  0
LAYER
  5
3C7
330
2
100
AcDbSymbolTableRecord
100
AcDbLayerTableRecord
  2
$DDT_AUDIT_GENERATED_(3C7)
 70
     0
 62
     7
  6
Continuous
370
    -3
390
F
  0
ENDTAB
  0
TABLE
  2
STYLE
  5
3
330
0
100
AcDbSymbolTable
 70
     2
  0
STYLE
  5
11
330
3
100
AcDbSymbolTableRecord
100
AcDbTextStyleTableRecord
  2
Standard
 70
     0
 40
0.0
 41
1.0
 50
0.0
 71
     0
 42
2.5
  3
txt
  4

  0
STYLE
  5
3FA
330
3
100
AcDbSymbolTableRecord
100
AcDbTextStyleTableRecord
  2
SEACAD_seiso_ttf
 70
     0
 40
0.0
 41
1.0
 50
0.0
 71
     0
 42
0.2
  3
seiso.ttf
  4

  0
ENDTAB
  0
TABLE
  2
VIEW
  5
6
330
0
100
AcDbSymbolTable
 70
     0
  0
ENDTAB
  0
TABLE
  2
UCS
  5
7
330
0
100
AcDbSymbolTable
 70
     0
  0
ENDTAB
  0
TABLE
  2
APPID
  5
9
330
0
100
AcDbSymbolTable
 70
     1
  0
APPID
  5
12
330
9
100
AcDbSymbolTableRecord
100
AcDbRegAppTableRecord
  2
ACAD
 70
     0
  0
ENDTAB
  0
TABLE
  2
DIMSTYLE
  5
A
330
0
100
AcDbSymbolTable
 70
     1
100
AcDbDimStyleTable
  0
DIMSTYLE
105
27
330
A
100
AcDbSymbolTableRecord
100
AcDbDimStyleTableRecord
  2
ISO-25
 70
     0
 41
2.5
 42
0.625
 43
3.75
 44
1.25
 73
     0
 74
     0
 77
     1
 78
     8
140
2.5
141
2.5
143
0.0393700787
147
0.625
171
     3
172
     1
271
     2
272
     2
274
     3
278
    44
283
     0
284
     8
340
11
  0
ENDTAB
  0
TABLE
  2
BLOCK_RECORD
  5
1
330
0
100
AcDbSymbolTable
 70
     7
  0
BLOCK_RECORD
  5
1F
330
1
100
AcDbSymbolTableRecord
100
AcDbBlockTableRecord
  2
*Model_Space
340
22
  0
BLOCK_RECORD
  5
1B
330
1
100
AcDbSymbolTableRecord
100
AcDbBlockTableRecord
  2
*Paper_Space
340
1E
  0
BLOCK_RECORD
  5
5E
330
1
100
AcDbSymbolTableRecord
100
AcDbBlockTableRecord
  2
SEANNOT_GROUP
340
0
102
{BLKREFS
331
5F
102
}
  0
BLOCK_RECORD
  5
65
330
1
100
AcDbSymbolTableRecord
100
AcDbBlockTableRecord
  2
SEANNOT_GROUP1
340
0
102
{BLKREFS
331
66
102
}
  0
BLOCK_RECORD
  5
6F
330
1
100
AcDbSymbolTableRecord
100
AcDbBlockTableRecord
  2
SEANNOT_GROUP2
340
0
102
{BLKREFS
331
70
102
}
  0
BLOCK_RECORD
  5
75
330
1
100
AcDbSymbolTableRecord
100
AcDbBlockTableRecord
  2
SE
340
0
102
{BLKREFS
331
76
102
}
  0
BLOCK_RECORD
  5
355
330
1
100
AcDbSymbolTableRecord
100
AcDbBlockTableRecord
  2
SE1
340
0
102
{BLKREFS
331
356
102
}
  0
BLOCK_RECORD
  5
3D4
330
1
100
AcDbSymbolTableRecord
100
AcDbBlockTableRecord
  2
SE2
340
0
102
{BLKREFS
331
3D5
102
}
  0
ENDTAB
  0
ENDSEC
  0
SECTION
  2
BLOCKS
  0
BLOCK
  5
20
330
1F
100
AcDbEntity
  8
0
100
AcDbBlockBegin
  2
*Model_Space
 70
     0
 10
0.0
 20
0.0
 30
0.0
  3
*Model_Space
  1

  0
ENDBLK
  5
21
330
1F
100
AcDbEntity
  8
0
100
AcDbBlockEnd
  0
BLOCK
  5
1C
330
1B
100
AcDbEntity
 67
     1
  8
0
100
AcDbBlockBegin
  2
*Paper_Space
 70
     0
 10
0.0
 20
0.0
 30
0.0
  3
*Paper_Space
  1

  0
ENDBLK
  5
1D
330
1B
100
AcDbEntity
 67
     1
  8
0
100
AcDbBlockEnd
  0
BLOCK
  5
63
330
5E
100
AcDbEntity
  8
0
100
AcDbBlockBegin
  2
SEANNOT_GROUP
 70
     0
 10
0.0
 20
0.0
 30
0.0
  3
SEANNOT_GROUP
  1

  0
LINE
  5
61
330
5E
100
AcDbEntity
  8
Default
  6
CENTER2
 62
     7
100
AcDbLine
 10
84.2067543224
 20
322.3673024199
 30
0.0
 11
44.2067552165
 21
322.3673024199
 31
0.0
  0
LINE
  5
62
330
5E
100
AcDbEntity
  8
Default
  6
CENTER2
 62
     7
100
AcDbLine
 10
64.2067547695
 20
342.3673019729
 30
0.0
 11
64.2067547695
 21
302.3673028669
 31
0.0
  0
ENDBLK
  5
64
330
5E
100
AcDbEntity
  8
0
100
AcDbBlockEnd
  0
BLOCK
  5
6D
330
65
100
AcDbEntity
  8
0
100
AcDbBlockBegin
  2
SEANNOT_GROUP1
 70
     0
 10
0.0
 20
0.0
 30
0.0
  3
SEANNOT_GROUP1
  1

  0
LINE
  5
67
330
65
100
AcDbEntity
  8
Default
  6
CENTER2
 62
     7
100
AcDbLine
 10
64.2067547695
 20
203.1659650372
 30
0.0
 11
64.2067547695
 21
243.1659641431
 31
0.0
  0
LINE
  5
68
330
65
100
AcDbEntity
  8
Default
  6
CENTER2
 62
     7
100
AcDbLine
 10
84.2067543224
 20
223.1659645902
 30
0.0
 11
44.2067552165
 21
223.1659645902
 31
0.0
  0
LINE
  5
69
330
65
100
AcDbEntity
  8
Default
  6
CENTER2
 62
     7
100
AcDbLine
 10
64.2067547695
 20
198.165965149
 30
0.0
 11
64.2067547695
 21
194.280299293
 31
0.0
  0
LINE
  5
6A
330
65
100
AcDbEntity
  8
Default
  6
CENTER2
 62
     7
100
AcDbLine
 10
89.2067542107
 20
223.1659645902
 30
0.0
 11
92.7067547695
 21
223.1659645902
 31
0.0
  0
LINE
  5
6B
330
65
100
AcDbEntity
  8
Default
  6
CENTER2
 62
     7
100
AcDbLine
 10
64.2067547695
 20
248.1659640314
 30
0.0
 11
64.2067547695
 21
252.0516298873
 31
0.0
  0
LINE
  5
6C
330
65
100
AcDbEntity
  8
Default
  6
CENTER2
 62
     7
100
AcDbLine
 10
39.2067553283
 20
223.1659645902
 30
0.0
 11
35.7067547695
 21
223.1659645902
 31
0.0
  0
ENDBLK
  5
6E
330
65
100
AcDbEntity
  8
0
100
AcDbBlockEnd
  0
BLOCK
  5
73
330
6F
100
AcDbEntity
  8
0
100
AcDbBlockBegin
  2
SEANNOT_GROUP2
 70
     0
 10
0.0
 20
0.0
 30
0.0
  3
SEANNOT_GROUP2
  1

  0
LINE
  5
71
330
6F
100
AcDbEntity
  8
Default
  6
CENTER2
 62
     7
100
AcDbLine
 10
213.5709516294
 20
322.3673024199
 30
0.0
 11
173.5709525235
 21
322.3673024199
 31
0.0
  0
LINE
  5
72
330
6F
100
AcDbEntity
  8
Default
  6
CENTER2
 62
     7
100
AcDbLine
 10
193.5709520765
 20
342.3673019729
 30
0.0
 11
193.5709520765
 21
302.3673028669
 31
0.0
  0
ENDBLK
  5
74
330
6F
100
AcDbEntity
  8
0
100
AcDbBlockEnd
  0
BLOCK
  5
353
330
75
100
AcDbEntity
  8
0
100
AcDbBlockBegin
  2
SE
 70
     0
 10
0.0
 20
0.0
 30
0.0
  3
SE
  1

  0
SPLINE
  5
78
330
75
100
AcDbEntity
  8
$DDT_AUDIT_GENERATED_(77)
  6
Continuous
 62
     7
100
AcDbSpline
210
0.0
220
0.0
230
1.0
 70
     8
 71
     3
 72
    31
 73
    27
 74
     0
 42
0.000000000156422
 43
0.0000000001
 40
0.0
 40
0.0
 40
0.0
 40
0.0
 40
0.015182328128083
 40
0.0303895651274856
 40
0.0456946872136216
 40
0.0611692858242271
 40
0.0906504110583367
 40
0.1211635846698962
 40
0.1790498404476679
 40
0.2353152357941106
 40
0.2911187879196698
 40
0.347116992633602
 40
0.4052594280034891
 40
0.4661263789152292
 40
0.5299053216355994
 40
0.5957706291360106
 40
0.6630066955497327
 40
0.7308719674612775
 40
0.7994257829265617
 40
0.8344217537910963
 40
0.8676938397501689
 40
0.9020451629776519
 40
0.9345489184375784
 40
0.9567862673351135
 40
0.9785067126268723
 40
1.0
 40
1.0
 40
1.0
 40
1.0
 10
64.20675476947909
 20
417.1516587288357
 30
0.0
 10
64.541133338081
 20
417.1457281950383
 30
0.0
 10
65.21043907314586
 20
417.1338573975191
 30
0.0
 10
66.21033022161765
 20
417.0375316815107
 30
0.0
 10
67.20374900376666
 20
416.8835458770017
 30
0.0
 10
68.48068357220029
 20
416.6021831885645
 30
0.0
 10
70.0238782324658
 20
416.1130315040109
 30
0.0
 10
72.27611955070299
 20
415.0964900530585
 30
0.0
 10
74.72539999081825
 20
413.453481389033
 30
0.0
 10
77.0789515042819
 20
411.0668067460222
 30
0.0
 10
78.90941585872496
 20
408.3317627550763
 30
0.0
 10
80.27794070876828
 20
405.2427601688755
 30
0.0
 10
81.18920140356917
 20
401.7666666718605
 30
0.0
 10
81.6192723116229
 20
397.8979019048351
 30
0.0
 10
81.51887008570748
 20
393.7290452031253
 30
0.0
 10
80.85724183408684
 20
389.4257358049005
 30
0.0
 10
79.63450381358
 20
385.1660954934501
 30
0.0
 10
77.84097247604235
 20
381.0831388397197
 30
0.0
 10
75.8202789199124
 20
377.9347108758085
 30
0.0
 10
73.86292976431865
 20
375.69672561993
 30
0.0
 10
72.20779222276063
 20
374.196307562419
 30
0.0
 10
70.40914900947436
 20
372.950451852073
 30
0.0
 10
68.65015941731018
 20
372.0913823498266
 30
0.0
 10
67.04982248830373
 20
371.5779643167163
 30
0.0
 10
65.63249541923071
 20
371.2956277572532
 30
0.0
 10
64.68033326972001
 20
371.2607197491956
 30
0.0
 10
64.20675476947909
 20
371.2433574941313
 30
0.0
  0
SPLINE
  5
79
330
75
100
AcDbEntity
  8
$DDT_AUDIT_GENERATED_(77)
  6
Continuous
 62
     7
100
AcDbSpline
210
0.0
220
0.0
230
1.0
 70
     8
 71
     3
 72
    29
 73
    25
 74
     0
 42
0.0000000001563683
 43
0.0000000001
 40
0.0
 40
0.0
 40
0.0
 40
0.0
 40
0.0160331730194177
 40
0.032161633354919
 40
0.0485082718248019
 40
0.0651911584602182
 40
0.097891902234502
 40
0.1323535376217164
 40
0.2006956354657625
 40
0.2690096389016181
 40
0.3370377236917571
 40
0.4038465548393126
 40
0.4698294050446573
 40
0.5337114880125554
 40
0.5946072988289801
 40
0.6527540403282367
 40
0.7089847730616167
 40
0.7646691359299677
 40
0.8210546003774332
 40
0.8788241679746854
 40
0.9093616526644654
 40
0.9388630065605751
 40
0.9696320215748698
 40
1.0
 40
1.0
 40
1.0
 40
1.0
 10
64.20675476947909
 20
371.2433574941313
 30
0.0
 10
63.85364404057182
 20
371.2530171030824
 30
0.0
 10
63.14532399792962
 20
371.272393729347
 30
0.0
 10
62.08728854552756
 20
371.4291154881978
 30
0.0
 10
61.03529510793582
 20
371.6791216131305
 30
0.0
 10
59.6675849204479
 20
372.1406077645786
 30
0.0
 10
58.01069584293442
 20
372.9452022929972
 30
0.0
 10
55.57738687884486
 20
374.6313297269016
 30
0.0
 10
52.97810953963702
 20
377.3297779842175
 30
0.0
 10
50.57224513834382
 20
381.0869105449794
 30
0.0
 10
48.78073621575172
 20
385.1592918709102
 30
0.0
 10
47.56046099159308
 20
389.4151936936083
 30
0.0
 10
46.89706457193704
 20
393.7129340496017
 30
0.0
 10
46.79385471555714
 20
397.8870237424526
 30
0.0
 10
47.2231282194395
 20
401.7586327276099
 30
0.0
 10
48.13523228285822
 20
405.2394958949446
 30
0.0
 10
49.50246846874905
 20
408.3319752263176
 30
0.0
 10
51.33712997410067
 20
411.0684211550092
 30
0.0
 10
53.68763807851443
 20
413.4548707024301
 30
0.0
 10
56.13804080504239
 20
415.0955506313625
 30
0.0
 10
58.38830334596082
 20
416.1133822100059
 30
0.0
 10
60.24417445305665
 20
416.6982073991393
 30
0.0
 10
62.19014396387474
 20
417.0795684270896
 30
0.0
 10
63.53749721780063
 20
417.1277339443844
 30
0.0
 10
64.20675476947909
 20
417.1516587288357
 30
0.0
  0
LINE
  5
7A
330
75
100
AcDbEntity
  8
$DDT_AUDIT_GENERATED_(77)
  6
Continuous
 62
     7
100
AcDbLine
 10
64.2067547695
 20
371.2433574941
 30
0.0
 11
64.2067547697
 21
382.2834178405
 31
0.0
  0
LINE
  5
7B
330
75
100
AcDbEntity
  8
$DDT_AUDIT_GENERATED_(77)
  6
Continuous
 62
     7
100
AcDbLine
 10
64.2067547695
 20
411.2834178405
 30
0.0
 11
64.2067547695
 21
417.1516587288
 31
0.0
  0
ARC
  5
7C
330
75
100
AcDbEntity
  8
$DDT_AUDIT_GENERATED_(77)
  6
Continuous
 62
     7
100
AcDbCircle
 10
64.2067547695
 20
395.6420116203
 30
0.0
 40
13.00999999999999
100
AcDbArc
 50
0.0
 51
212.1773472175
  0
CIRCLE
  5
7D
330
75
100
AcDbEntity
  8
$DDT_AUDIT_GENERATED_(77)
  6
Continuous
 62
     7
100
AcDbCircle
 10
64.2067547695
 20
396.7834178405
 30
0.0
 40
14.49999999999997
  0
LINE
  5
7E
330
75
100
AcDbEntity
  8
$DDT_AUDIT_GENERATED_(77)
  6
Continuous
 62
     7
100
AcDbLine
 10
39.2067547695
 20
322.3673024199
 30
0.0
 11
89.2067547695
 21
322.3673024199
 31
0.0
  0
ELLIPSE
  5
7F
330
75
100
AcDbEntity
  8
$DDT_AUDIT_GENERATED_(77)
  6
Continuous
 62
     7
100
AcDbEllipse
 10
64.2067547695
 20
395.6420116203
 30
0.0
 11
12.25000000000001
 21
0.0
 31
0.0
210
0.0
220
0.0
230
1.0
 40
0.6427876097
 41
0.0
 42
3.413481710702616
  0
ELLIPSE
  5
80
330
75
100
AcDbEntity
  8
$DDT_AUDIT_GENERATED_(77)
  6
Continuous
 62
     7
100
AcDbEllipse
 10
64.2067547695
 20
395.6420116203
 30
0.0
 11
12.25000000000001
 21
0.0
 31
0.0
210
0.0
220
0.0
230
1.0
 40
0.6427876097
 41
6.011296250066763
 42
6.283185307179586
  0
ELLIPSE
  5
81
330
75
100
AcDbEntity
  8
$DDT_AUDIT_GENERATED_(77)
  6
Continuous
 62
     7
100
AcDbEllipse
 10
64.2067547695
 20
397.9401449496
 30
0.0
 11
-12.25
 21
0.0
 31
0.0
210
0.0
220
0.0
230
1.0
 40
0.6427876097
 41
0.1464519715696321
 42
0.2718890571128217
  0
ELLIPSE
  5
82
330
75
100
AcDbEntity
  8
$DDT_AUDIT_GENERATED_(77)
  6
Continuous
 62
     7
100
AcDbEllipse
 10
64.2067547695
 20
397.9401449496
 30
0.0
 11
-12.25
 21
0.0
 31
0.0
210
0.0
220
0.0
230
1.0
 40
0.6427876097
 41
2.869703596476976
 42
2.995140682020169
  0
ELLIPSE
  5
83
330
75
100
AcDbEntity
  8
$DDT_AUDIT_GENERATED_(77)
  6
Continuous
 62
     7
100
AcDbEllipse
 10
64.2067547695
 20
438.4205478008
 30
0.0
 11
-25.0
 21
0.0
 31
0.0
210
0.0
220
0.0
230
1.0
 40
0.1736481777
 41
6.200869757592778
 42
6.283185307179586
  0
ELLIPSE
  5
84
330
75
100
AcDbEntity
  8
$DDT_AUDIT_GENERATED_(77)
  6
Continuous
 62
     7
100
AcDbEllipse
 10
64.2067547695
 20
438.4205478008
 30
0.0
 11
-25.0
 21
0.0
 31
0.0
210
0.0
220
0.0
230
1.0
 40
0.1736481777
 41
0.0
 42
3.223908203176593
  0
ELLIPSE
  5
85
330
75
100
AcDbEntity
  8
$DDT_AUDIT_GENERATED_(77)
  6
Continuous
 62
     7
100
AcDbEllipse
 10
64.2067547695
 20
439.4765113217
 30
0.0
 11
-24.5
 21
0.0
 31
0.0
210
0.0
220
0.0
230
1.0
 40
0.1736481777
 41
0.1496055735653206
 42
2.988391218938137
  0
LINE
  5
86
330
75
100
AcDbEntity
  8
$DDT_AUDIT_GENERATED_(77)
  6
Continuous
 62
     7
100
AcDbLine
 10
39.2067547695
 20
438.4205478008
 30
0.0
 11
39.2067547695
 21
322.3673024199
 31
0.0
  0
LINE
  5
87
330
75
100
AcDbEntity
  8
$DDT_AUDIT_GENERATED_(77)
  6
Continuous
 62
     7
100
AcDbLine
 10
89.2067547695
 20
322.3673024199
 30
0.0
 11
89.2067547695
 21
438.4205478008
 31
0.0
  0
LINE
  5
88
330
75
100
AcDbEntity
  8
$DDT_AUDIT_GENERATED_(77)
  6
Continuous
 62
     7
100
AcDbLine
 10
89.1221044625
 20
438.7774930103
 30
0.0
 11
88.9914788437
 21
439.0524306817
 31
0.0
  0
LINE
  5
89
330
75
100
AcDbEntity
  8
$DDT_AUDIT_GENERATED_(77)
  6
Continuous
 62
     7
100
AcDbLine
 10
39.425161034
 20
439.0590193438
 30
0.0
 11
39.2914050764
 21
438.7774930103
 31
0.0
  0
ELLIPSE
  5
8B
330
75
100
AcDbEntity
  8
02636038_GEHÄUSE
  6
Continuous
 62
     7
100
AcDbEllipse
 10
64.2067547695
 20
390.432909407
 30
0.0
 11
10.02278736572428
 21
0.0
 31
0.0
210
0.0
220
0.0
230
1.0
 40
0.6427876097
 41
0.0
 42
6.283185307179586
  0
ELLIPSE
  5
8C
330
75
100
AcDbEntity
  8
02636038_GEHÄUSE
  6
Continuous
 62
     7
100
AcDbEllipse
 10
64.2067547695
 20
390.432909407
 30
0.0
 11
10.75000000000001
 21
0.0
 31
0.0
210
0.0
220
0.0
230
1.0
 40
0.6427876097
 41
0.0
 42
6.283185307179586
  0
ELLIPSE
  5
8D
330
75
100
AcDbEntity
  8
02636038_GEHÄUSE
  6
Continuous
 62
     7
100
AcDbEllipse
 10
64.2067547695
 20
396.9442871736
 30
0.0
 11
11.8
 21
-1.387778780781446E-14
 31
0.0
210
0.0
220
0.0
230
1.0
 40
0.6427876097
 41
3.00040901592316
 42
3.141592653589793
  0
ELLIPSE
  5
8E
330
75
100
AcDbEntity
  8
02636038_GEHÄUSE
  6
Continuous
 62
     7
100
AcDbEllipse
 10
64.2067547695
 20
396.9442871736
 30
0.0
 11
11.8
 21
-1.387778780781446E-14
 31
0.0
210
0.0
220
0.0
230
1.0
 40
0.6427876097
 41
0.0000000000000018
 42
0.1411836376675685
  0
LINE
  5
8F
330
75
100
AcDbEntity
  8
02636038_GEHÄUSE
  6
Continuous
 62
     7
100
AcDbLine
 10
75.2067547695
 20
389.01358883
 30
0.0
 11
75.2067547695
 21
392.3387335461
 31
0.0
  0
ELLIPSE
  5
90
330
75
100
AcDbEntity
  8
02636038_GEHÄUSE
  6
Continuous
 62
     7
100
AcDbEllipse
 10
64.2067547695
 20
392.7310427364
 30
0.0
 11
-11.80000000000038
 21
6.938893903907228E-14
 31
0.0
210
0.0
220
0.0
230
1.0
 40
0.6427876097
 41
2.771250021498082
 42
3.511935285681508
  0
LINE
  5
91
330
75
100
AcDbEntity
  8
02636038_GEHÄUSE
  6
Continuous
 62
     7
100
AcDbLine
 10
75.2067547695
 20
388.4394201764
 30
0.0
 11
75.2067547695
 21
389.01358883
 31
0.0
  0
LINE
  5
92
330
75
100
AcDbEntity
  8
02636038_GEHÄUSE
  6
Continuous
 62
     7
100
AcDbLine
 10
75.2067547695
 20
392.3387335461
 30
0.0
 11
75.2067547695
 21
394.0848125794
 31
0.0
  0
LINE
  5
93
330
75
100
AcDbEntity
  8
02636038_GEHÄUSE
  6
Continuous
 62
     7
100
AcDbLine
 10
75.2067547695
 20
394.0848125794
 30
0.0
 11
75.2067547695
 21
395.4762801796
 31
0.0
  0
LINE
  5
94
330
75
100
AcDbEntity
  8
02636038_GEHÄUSE
  6
Continuous
 62
     7
100
AcDbLine
 10
53.2067547695
 20
392.3387335461
 30
0.0
 11
53.2067547695
 21
389.01358883
 31
0.0
  0
ELLIPSE
  5
95
330
75
100
AcDbEntity
  8
02636038_GEHÄUSE
  6
Continuous
 62
     7
100
AcDbEllipse
 10
64.2067547695
 20
392.7310427364
 30
0.0
 11
11.79999999999977
 21
-1.942890293094024E-13
 31
0.0
210
0.0
220
0.0
230
1.0
 40
0.6427876097
 41
2.771250021498084
 42
3.511935285681524
  0
LINE
  5
96
330
75
100
AcDbEntity
  8
02636038_GEHÄUSE
  6
Continuous
 62
     7
100
AcDbLine
 10
53.2067547695
 20
395.4762801796
 30
0.0
 11
53.2067547695
 21
394.0848125794
 31
0.0
  0
LINE
  5
97
330
75
100
AcDbEntity
  8
02636038_GEHÄUSE
  6
Continuous
 62
     7
100
AcDbLine
 10
53.2067547695
 20
394.0848125794
 30
0.0
 11
53.2067547695
 21
392.3387335461
 31
0.0
  0
LINE
  5
98
330
75
100
AcDbEntity
  8
02636038_GEHÄUSE
  6
Continuous
 62
     7
100
AcDbLine
 10
53.2067547695
 20
389.01358883
 30
0.0
 11
53.2067547695
 21
388.4394168178
 31
0.0
  0
SPLINE
  5
99
330
75
100
AcDbEntity
  8
02636038_GEHÄUSE
  6
Continuous
 62
     7
100
AcDbSpline
210
0.0
220
0.0
230
1.0
 70
     8
 71
     3
 72
    49
 73
    45
 74
     0
 42
0.0000000003956084
 43
0.0000000001
 40
0.0
 40
0.0
 40
0.0
 40
0.0
 40
0.0025596239098144
 40
0.0262205668865459
 40
0.050039741397092
 40
0.0740076596537679
 40
0.098107291619252
 40
0.1223169233096697
 40
0.1466130189375784
 40
0.1709726367839326
 40
0.1953751407604984
 40
0.219803163397722
 40
0.2442429336033755
 40
0.2686816665042943
 40
0.2931128702289151
 40
0.3175326980662022
 40
0.3419392281585723
 40
0.366332023818815
 40
0.3907117668702937
 40
0.4150799643788944
 40
0.4394387207487925
 40
0.4637905638192443
 40
0.4881383130017241
 40
0.512484978161605
 40
0.5368336641177156
 40
0.5611864975415407
 40
0.5855466335435099
 40
0.6099171525969203
 40
0.6343009776215629
 40
0.6587007694214397
 40
0.6831187893061397
 40
0.7075567166503522
 40
0.7320154080308616
 40
0.7564945845787678
 40
0.7809924367725932
 40
0.8055051434116697
 40
0.8300259675451976
 40
0.8545417969999937
 40
0.8790381245095502
 40
0.9034963913415132
 40
0.9278942152196913
 40
0.9522063166544275
 40
0.976406308262161
 40
1.0
 40
1.0
 40
1.0
 40
1.0
 10
53.20520183305506
 20
388.4457621876527
 30
0.0
 10
53.21442437945029
 20
388.428334818641
 30
0.0
 10
53.29575744839713
 20
388.2748703760487
 30
0.0
 10
53.49960981867505
 20
387.9664510544566
 30
0.0
 10
53.80192480975541
 20
387.5542053016452
 30
0.0
 10
54.14664350895188
 20
387.1508634473606
 30
0.0
 10
54.52451289769396
 20
386.7627902331947
 30
0.0
 10
54.93641370302335
 20
386.3901755138552
 30
0.0
 10
55.38022632754482
 20
386.0347968366258
 30
0.0
 10
55.8544198829407
 20
385.6978809064672
 30
0.0
 10
56.35713074922781
 20
385.3806550625256
 30
0.0
 10
56.8864558194686
 20
385.0841884193911
 30
0.0
 10
57.44039180218153
 20
384.8094458153596
 30
0.0
 10
58.01689441697184
 20
384.5572700388582
 30
0.0
 10
58.61388825956139
 20
384.3283959782434
 30
0.0
 10
59.22929727624952
 20
384.1234558830214
 30
0.0
 10
59.86102213067311
 20
383.9430004108241
 30
0.0
 10
60.50694014842288
 20
383.7875050749061
 30
0.0
 10
61.16490675151834
 20
383.6573740937498
 30
0.0
 10
61.83275734550096
 20
383.5529427233709
 30
0.0
 10
62.50830988885834
 20
383.4744785299042
 30
0.0
 10
63.18936821989403
 20
383.4221819906564
 30
0.0
 10
63.87372607643655
 20
383.3961867497212
 30
0.0
 10
64.5591715316181
 20
383.3965597742463
 30
0.0
 10
65.24348241873072
 20
383.4233011831849
 30
0.0
 10
65.92444156637838
 20
383.4763433763053
 30
0.0
 10
66.59984276236074
 20
383.5555517958649
 30
0.0
 10
67.26750533089047
 20
383.6607279927486
 30
0.0
 10
67.92526898434576
 20
383.7916104155142
 30
0.0
 10
68.57099771960327
 20
383.9478756007973
 30
0.0
 10
69.20258289296645
 20
384.1291391752045
 30
0.0
 10
69.81794527293289
 20
384.3349563322051
 30
0.0
 10
70.4150360123353
 20
384.5648214105266
 30
0.0
 10
70.99183632780243
 20
384.8181657640347
 30
0.0
 10
71.54635690615984
 20
385.0943541401849
 30
0.0
 10
72.07663204838994
 20
385.3926740184036
 30
0.0
 10
72.58070447947254
 20
385.7123181252052
 30
0.0
 10
73.05662315479348
 20
386.0523455307568
 30
0.0
 10
73.50255258300182
 20
386.4117729650114
 30
0.0
 10
73.9164438610141
 20
386.7891652895736
 30
0.0
 10
74.29739518837948
 20
387.1841240014353
 30
0.0
 10
74.64067092516663
 20
387.5916493906522
 30
0.0
 10
74.9543274198001
 20
388.0202479715469
 30
0.0
 10
75.11643466777909
 20
388.288916172274
 30
0.0
 10
75.21039914065982
 20
388.4465203515612
 30
0.0
  0
LINE
  5
9A
330
75
100
AcDbEntity
  8
02636038_GEHÄUSE
  6
Continuous
 62
     7
100
AcDbLine
 10
52.4067547695
 20
396.9442871736
 30
0.0
 11
52.4067547695
 21
392.7310427364
 31
0.0
  0
LINE
  5
9B
330
75
100
AcDbEntity
  8
02636038_GEHÄUSE
  6
Continuous
 62
     7
100
AcDbLine
 10
76.0067547695
 20
392.7310427364
 30
0.0
 11
76.0067547695
 21
396.9442871736
 31
0.0
  0
ELLIPSE
  5
9D
330
75
100
AcDbEntity
  8
$DDT_AUDIT_GENERATED_(9C)
  6
Continuous
 62
     7
100
AcDbEllipse
 10
64.2067547695
 20
390.5095138514
 30
0.0
 11
8.250000000000002
 21
0.0
 31
0.0
210
0.0
220
0.0
230
1.0
 40
0.6427876097
 41
0.0
 42
6.283185307179586
  0
ELLIPSE
  5
9E
330
75
100
AcDbEntity
  8
$DDT_AUDIT_GENERATED_(9C)
  6
Continuous
 62
     7
100
AcDbEllipse
 10
64.2067547695
 20
390.5095138514
 30
0.0
 11
9.400000000000009
 21
0.0
 31
0.0
210
0.0
220
0.0
230
1.0
 40
0.6427876097
 41
0.0
 42
6.283185307179586
  0
LINE
  5
9F
330
75
100
AcDbEntity
  8
$DDT_AUDIT_GENERATED_(9C)
  6
Continuous
 62
     7
100
AcDbLine
 10
54.4227057142
 20
390.4840817834
 30
0.0
 11
54.8281941681
 21
390.2934479904
 31
0.0
  0
ELLIPSE
  5
A0
330
75
100
AcDbEntity
  8
$DDT_AUDIT_GENERATED_(9C)
  6
Continuous
 62
     7
100
AcDbEllipse
 10
64.2067547695
 20
391.409616072
 30
0.0
 11
9.400000000000651
 21
0.0
 31
0.0
210
0.0
220
0.0
230
1.0
 40
0.6427876097
 41
2.942825202823832
 42
3.141592653589793
  0
ELLIPSE
  5
A1
330
75
100
AcDbEntity
  8
$DDT_AUDIT_GENERATED_(9C)
  6
Continuous
 62
     7
100
AcDbEllipse
 10
64.2067547695
 20
391.888393849
 30
0.0
 11
10.02499999999807
 21
0.0
 31
0.0
210
0.0
220
0.0
230
1.0
 40
0.6427876097
 41
3.255751767995188
 42
3.361282931559387
  0
LINE
  5
A2
330
75
100
AcDbEntity
  8
$DDT_AUDIT_GENERATED_(9C)
  6
Continuous
 62
     7
100
AcDbLine
 10
54.9918341607
 20
392.6027168312
 30
0.0
 11
54.8705925497
 21
392.7497054214
 31
0.0
  0
LINE
  5
A3
330
75
100
AcDbEntity
  8
$DDT_AUDIT_GENERATED_(9C)
  6
Continuous
 62
     7
100
AcDbLine
 10
54.9918341607
 20
392.9669526953
 30
0.0
 11
54.9918341607
 21
392.6027168312
 31
0.0
  0
LINE
  5
A4
330
75
100
AcDbEntity
  8
$DDT_AUDIT_GENERATED_(9C)
  6
Continuous
 62
     7
100
AcDbLine
 10
73.4216753783
 20
392.9669526953
 30
0.0
 11
73.4216753783
 21
392.6027168312
 31
0.0
  0
LINE
  5
A5
330
75
100
AcDbEntity
  8
$DDT_AUDIT_GENERATED_(9C)
  6
Continuous
 62
     7
100
AcDbLine
 10
73.5485354559
 20
392.7565170308
 30
0.0
 11
73.4216753783
 21
392.6027168312
 31
0.0
  0
ELLIPSE
  5
A6
330
75
100
AcDbEntity
  8
$DDT_AUDIT_GENERATED_(9C)
  6
Continuous
 62
     7
100
AcDbEllipse
 10
64.2067547695
 20
391.409616072
 30
0.0
 11
-9.399999999997977
 21
2.775557561562891E-14
 31
0.0
210
0.0
220
0.0
230
1.0
 40
0.6427876097
 41
3.141592653589793
 42
3.340360104355784
  0
ELLIPSE
  5
A7
330
75
100
AcDbEntity
  8
$DDT_AUDIT_GENERATED_(9C)
  6
Continuous
 62
     7
100
AcDbEllipse
 10
64.2067547695
 20
391.888393849
 30
0.0
 11
-10.02499999999781
 21
1.387778780781446E-14
 31
0.0
210
0.0
220
0.0
230
1.0
 40
0.6427876097
 41
2.921902375620186
 42
3.027433539184376
  0
LINE
  5
A8
330
75
100
AcDbEntity
  8
$DDT_AUDIT_GENERATED_(9C)
  6
Continuous
 62
     7
100
AcDbLine
 10
73.5853586807
 20
390.2934683518
 30
0.0
 11
73.9908038247
 21
390.4840817834
 31
0.0
  0
LINE
  5
A9
330
75
100
AcDbEntity
  8
$DDT_AUDIT_GENERATED_(9C)
  6
Continuous
 62
     7
100
AcDbLine
 10
64.7067547695
 20
391.2139298778
 30
0.0
 11
64.7067547695
 21
390.5711422681
 31
0.0
  0
LINE
  5
AA
330
75
100
AcDbEntity
  8
$DDT_AUDIT_GENERATED_(9C)
  6
Continuous
 62
     7
100
AcDbLine
 10
64.7067547695
 20
390.5711422681
 30
0.0
 11
63.7067547695
 21
390.5711422681
 31
0.0
  0
LINE
  5
AB
330
75
100
AcDbEntity
  8
$DDT_AUDIT_GENERATED_(9C)
  6
Continuous
 62
     7
100
AcDbLine
 10
64.7067547695
 20
390.4425847461
 30
0.0
 11
64.7067547695
 21
389.7997971364
 31
0.0
  0
LINE
  5
AC
330
75
100
AcDbEntity
  8
$DDT_AUDIT_GENERATED_(9C)
  6
Continuous
 62
     7
100
AcDbLine
 10
64.7067547695
 20
389.7997971364
 30
0.0
 11
63.7067547695
 21
389.7997971364
 31
0.0
  0
LINE
  5
AD
330
75
100
AcDbEntity
  8
$DDT_AUDIT_GENERATED_(9C)
  6
Continuous
 62
     7
100
AcDbLine
 10
63.7067547695
 20
390.4425847461
 30
0.0
 11
64.7067547695
 21
390.4425847461
 31
0.0
  0
LINE
  5
AE
330
75
100
AcDbEntity
  8
$DDT_AUDIT_GENERATED_(9C)
  6
Continuous
 62
     7
100
AcDbLine
 10
64.7067547695
 20
389.6712396145
 30
0.0
 11
64.7067547695
 21
389.0284520048
 31
0.0
  0
LINE
  5
AF
330
75
100
AcDbEntity
  8
$DDT_AUDIT_GENERATED_(9C)
  6
Continuous
 62
     7
100
AcDbLine
 10
64.7067547695
 20
389.0284520048
 30
0.0
 11
63.7067547695
 21
389.0284520048
 31
0.0
  0
LINE
  5
B0
330
75
100
AcDbEntity
  8
$DDT_AUDIT_GENERATED_(9C)
  6
Continuous
 62
     7
100
AcDbLine
 10
63.7067547695
 20
389.6712396145
 30
0.0
 11
64.7067547695
 21
389.6712396145
 31
0.0
  0
LINE
  5
B1
330
75
100
AcDbEntity
  8
$DDT_AUDIT_GENERATED_(9C)
  6
Continuous
 62
     7
100
AcDbLine
 10
64.7067547695
 20
388.8998944829
 30
0.0
 11
64.7067547695
 21
388.2571068732
 31
0.0
  0
LINE
  5
B2
330
75
100
AcDbEntity
  8
$DDT_AUDIT_GENERATED_(9C)
  6
Continuous
 62
     7
100
AcDbLine
 10
64.7067547695
 20
388.2571068732
 30
0.0
 11
63.7067547695
 21
388.2571068732
 31
0.0
  0
LINE
  5
B3
330
75
100
AcDbEntity
  8
$DDT_AUDIT_GENERATED_(9C)
  6
Continuous
 62
     7
100
AcDbLine
 10
63.7067547695
 20
388.8998944829
 30
0.0
 11
64.7067547695
 21
388.8998944829
 31
0.0
  0
LINE
  5
B4
330
75
100
AcDbEntity
  8
$DDT_AUDIT_GENERATED_(9C)
  6
Continuous
 62
     7
100
AcDbLine
 10
64.7067547695
 20
388.1285493513
 30
0.0
 11
64.7067547695
 21
387.4857617416
 31
0.0
  0
LINE
  5
B5
330
75
100
AcDbEntity
  8
$DDT_AUDIT_GENERATED_(9C)
  6
Continuous
 62
     7
100
AcDbLine
 10
64.7067547695
 20
387.4857617416
 30
0.0
 11
63.7067547695
 21
387.4857617416
 31
0.0
  0
LINE
  5
B6
330
75
100
AcDbEntity
  8
$DDT_AUDIT_GENERATED_(9C)
  6
Continuous
 62
     7
100
AcDbLine
 10
63.7067547695
 20
388.1285493513
 30
0.0
 11
64.7067547695
 21
388.1285493513
 31
0.0
  0
LINE
  5
B7
330
75
100
AcDbEntity
  8
$DDT_AUDIT_GENERATED_(9C)
  6
Continuous
 62
     7
100
AcDbLine
 10
64.7067547695
 20
387.3572042196
 30
0.0
 11
64.7067547695
 21
386.71441661
 31
0.0
  0
LINE
  5
B8
330
75
100
AcDbEntity
  8
$DDT_AUDIT_GENERATED_(9C)
  6
Continuous
 62
     7
100
AcDbLine
 10
64.7067547695
 20
386.71441661
 30
0.0
 11
63.7067547695
 21
386.71441661
 31
0.0
  0
LINE
  5
B9
330
75
100
AcDbEntity
  8
$DDT_AUDIT_GENERATED_(9C)
  6
Continuous
 62
     7
100
AcDbLine
 10
63.7067547695
 20
387.3572042196
 30
0.0
 11
64.7067547695
 21
387.3572042196
 31
0.0
  0
LINE
  5
BA
330
75
100
AcDbEntity
  8
$DDT_AUDIT_GENERATED_(9C)
  6
Continuous
 62
     7
100
AcDbLine
 10
64.7067547695
 20
385.9430714783
 30
0.0
 11
63.7067547695
 21
385.9430714783
 31
0.0
  0
LINE
  5
BB
330
75
100
AcDbEntity
  8
$DDT_AUDIT_GENERATED_(9C)
  6
Continuous
 62
     7
100
AcDbLine
 10
64.7067547695
 20
386.585859088
 30
0.0
 11
64.7067547695
 21
385.9430714783
 31
0.0
  0
LINE
  5
BC
330
75
100
AcDbEntity
  8
$DDT_AUDIT_GENERATED_(9C)
  6
Continuous
 62
     7
100
AcDbLine
 10
63.7067547695
 20
386.585859088
 30
0.0
 11
64.7067547695
 21
386.585859088
 31
0.0
  0
LINE
  5
BD
330
75
100
AcDbEntity
  8
$DDT_AUDIT_GENERATED_(9C)
  6
Continuous
 62
     7
100
AcDbLine
 10
65.9067547695
 20
391.2139298778
 30
0.0
 11
65.9067547695
 21
390.5711422681
 31
0.0
  0
LINE
  5
BE
330
75
100
AcDbEntity
  8
$DDT_AUDIT_GENERATED_(9C)
  6
Continuous
 62
     7
100
AcDbLine
 10
65.9067547695
 20
390.5711422681
 30
0.0
 11
64.9067547695
 21
390.5711422681
 31
0.0
  0
LINE
  5
BF
330
75
100
AcDbEntity
  8
$DDT_AUDIT_GENERATED_(9C)
  6
Continuous
 62
     7
100
AcDbLine
 10
64.9067547695
 20
390.5711422681
 30
0.0
 11
64.9067547695
 21
391.2139298778
 31
0.0
  0
LINE
  5
C0
330
75
100
AcDbEntity
  8
$DDT_AUDIT_GENERATED_(9C)
  6
Continuous
 62
     7
100
AcDbLine
 10
65.9067547695
 20
390.4425847461
 30
0.0
 11
65.9067547695
 21
389.7997971364
 31
0.0
  0
LINE
  5
C1
330
75
100
AcDbEntity
  8
$DDT_AUDIT_GENERATED_(9C)
  6
Continuous
 62
     7
100
AcDbLine
 10
65.9067547695
 20
389.7997971364
 30
0.0
 11
64.9067547695
 21
389.7997971364
 31
0.0
  0
LINE
  5
C2
330
75
100
AcDbEntity
  8
$DDT_AUDIT_GENERATED_(9C)
  6
Continuous
 62
     7
100
AcDbLine
 10
64.9067547695
 20
389.7997971364
 30
0.0
 11
64.9067547695
 21
390.4425847461
 31
0.0
  0
LINE
  5
C3
330
75
100
AcDbEntity
  8
$DDT_AUDIT_GENERATED_(9C)
  6
Continuous
 62
     7
100
AcDbLine
 10
64.9067547695
 20
390.4425847461
 30
0.0
 11
65.9067547695
 21
390.4425847461
 31
0.0
  0
LINE
  5
C4
330
75
100
AcDbEntity
  8
$DDT_AUDIT_GENERATED_(9C)
  6
Continuous
 62
     7
100
AcDbLine
 10
65.9067547695
 20
389.6712396145
 30
0.0
 11
65.9067547695
 21
389.0284520048
 31
0.0
  0
LINE
  5
C5
330
75
100
AcDbEntity
  8
$DDT_AUDIT_GENERATED_(9C)
  6
Continuous
 62
     7
100
AcDbLine
 10
65.9067547695
 20
389.0284520048
 30
0.0
 11
64.9067547695
 21
389.0284520048
 31
0.0
  0
LINE
  5
C6
330
75
100
AcDbEntity
  8
$DDT_AUDIT_GENERATED_(9C)
  6
Continuous
 62
     7
100
AcDbLine
 10
64.9067547695
 20
389.0284520048
 30
0.0
 11
64.9067547695
 21
389.6712396145
 31
0.0
  0
LINE
  5
C7
330
75
100
AcDbEntity
  8
$DDT_AUDIT_GENERATED_(9C)
  6
Continuous
 62
     7
100
AcDbLine
 10
64.9067547695
 20
389.6712396145
 30
0.0
 11
65.9067547695
 21
389.6712396145
 31
0.0
  0
LINE
  5
C8
330
75
100
AcDbEntity
  8
$DDT_AUDIT_GENERATED_(9C)
  6
Continuous
 62
     7
100
AcDbLine
 10
65.9067547695
 20
388.8998944829
 30
0.0
 11
65.9067547695
 21
388.2571068732
 31
0.0
  0
LINE
  5
C9
330
75
100
AcDbEntity
  8
$DDT_AUDIT_GENERATED_(9C)
  6
Continuous
 62
     7
100
AcDbLine
 10
65.9067547695
 20
388.2571068732
 30
0.0
 11
64.9067547695
 21
388.2571068732
 31
0.0
  0
LINE
  5
CA
330
75
100
AcDbEntity
  8
$DDT_AUDIT_GENERATED_(9C)
  6
Continuous
 62
     7
100
AcDbLine
 10
64.9067547695
 20
388.2571068732
 30
0.0
 11
64.9067547695
 21
388.8998944829
 31
0.0
  0
LINE
  5
CB
330
75
100
AcDbEntity
  8
$DDT_AUDIT_GENERATED_(9C)
  6
Continuous
 62
     7
100
AcDbLine
 10
64.9067547695
 20
388.8998944829
 30
0.0
 11
65.9067547695
 21
388.8998944829
 31
0.0
  0
LINE
  5
CC
330
75
100
AcDbEntity
  8
$DDT_AUDIT_GENERATED_(9C)
  6
Continuous
 62
     7
100
AcDbLine
 10
65.9067547695
 20
388.1285493513
 30
0.0
 11
65.9067547695
 21
387.4857617416
 31
0.0
  0
LINE
  5
CD
330
75
100
AcDbEntity
  8
$DDT_AUDIT_GENERATED_(9C)
  6
Continuous
 62
     7
100
AcDbLine
 10
65.9067547695
 20
387.4857617416
 30
0.0
 11
64.9067547695
 21
387.4857617416
 31
0.0
  0
LINE
  5
CE
330
75
100
AcDbEntity
  8
$DDT_AUDIT_GENERATED_(9C)
  6
Continuous
 62
     7
100
AcDbLine
 10
64.9067547695
 20
387.4857617416
 30
0.0
 11
64.9067547695
 21
388.1285493513
 31
0.0
  0
LINE
  5
CF
330
75
100
AcDbEntity
  8
$DDT_AUDIT_GENERATED_(9C)
  6
Continuous
 62
     7
100
AcDbLine
 10
64.9067547695
 20
388.1285493513
 30
0.0
 11
65.9067547695
 21
388.1285493513
 31
0.0
  0
LINE
  5
D0
330
75
100
AcDbEntity
  8
$DDT_AUDIT_GENERATED_(9C)
  6
Continuous
 62
     7
100
AcDbLine
 10
65.9067547695
 20
387.3572042196
 30
0.0
 11
65.9067547695
 21
386.71441661
 31
0.0
  0
LINE
  5
D1
330
75
100
AcDbEntity
  8
$DDT_AUDIT_GENERATED_(9C)
  6
Continuous
 62
     7
100
AcDbLine
 10
65.9067547695
 20
386.71441661
 30
0.0
 11
64.9067547695
 21
386.71441661
 31
0.0
  0
LINE
  5
D2
330
75
100
AcDbEntity
  8
$DDT_AUDIT_GENERATED_(9C)
  6
Continuous
 62
     7
100
AcDbLine
 10
64.9067547695
 20
386.71441661
 30
0.0
 11
64.9067547695
 21
387.3572042196
 31
0.0
  0
LINE
  5
D3
330
75
100
AcDbEntity
  8
$DDT_AUDIT_GENERATED_(9C)
  6
Continuous
 62
     7
100
AcDbLine
 10
64.9067547695
 20
387.3572042196
 30
0.0
 11
65.9067547695
 21
387.3572042196
 31
0.0
  0
LINE
  5
D4
330
75
100
AcDbEntity
  8
$DDT_AUDIT_GENERATED_(9C)
  6
Continuous
 62
     7
100
AcDbLine
 10
65.9067547695
 20
386.585859088
 30
0.0
 11
65.9067547695
 21
385.9430714783
 31
0.0
  0
LINE
  5
D5
330
75
100
AcDbEntity
  8
$DDT_AUDIT_GENERATED_(9C)
  6
Continuous
 62
     7
100
AcDbLine
 10
65.9067547695
 20
385.9430714783
 30
0.0
 11
64.9067547695
 21
385.9430714783
 31
0.0
  0
LINE
  5
D6
330
75
100
AcDbEntity
  8
$DDT_AUDIT_GENERATED_(9C)
  6
Continuous
 62
     7
100
AcDbLine
 10
64.9067547695
 20
385.9430714783
 30
0.0
 11
64.9067547695
 21
386.585859088
 31
0.0
  0
LINE
  5
D7
330
75
100
AcDbEntity
  8
$DDT_AUDIT_GENERATED_(9C)
  6
Continuous
 62
     7
100
AcDbLine
 10
64.9067547695
 20
386.585859088
 30
0.0
 11
65.9067547695
 21
386.585859088
 31
0.0
  0
LINE
  5
D8
330
75
100
AcDbEntity
  8
$DDT_AUDIT_GENERATED_(9C)
  6
Continuous
 62
     7
100
AcDbLine
 10
67.1067547695
 20
391.2139298778
 30
0.0
 11
67.1067547695
 21
390.5711422681
 31
0.0
  0
LINE
  5
D9
330
75
100
AcDbEntity
  8
$DDT_AUDIT_GENERATED_(9C)
  6
Continuous
 62
     7
100
AcDbLine
 10
67.1067547695
 20
390.5711422681
 30
0.0
 11
66.1067547695
 21
390.5711422681
 31
0.0
  0
LINE
  5
DA
330
75
100
AcDbEntity
  8
$DDT_AUDIT_GENERATED_(9C)
  6
Continuous
 62
     7
100
AcDbLine
 10
66.1067547695
 20
390.5711422681
 30
0.0
 11
66.1067547695
 21
391.2139298778
 31
0.0
  0
LINE
  5
DB
330
75
100
AcDbEntity
  8
$DDT_AUDIT_GENERATED_(9C)
  6
Continuous
 62
     7
100
AcDbLine
 10
67.1067547695
 20
390.4425847461
 30
0.0
 11
67.1067547695
 21
389.7997971364
 31
0.0
  0
LINE
  5
DC
330
75
100
AcDbEntity
  8
$DDT_AUDIT_GENERATED_(9C)
  6
Continuous
 62
     7
100
AcDbLine
 10
67.1067547695
 20
389.7997971364
 30
0.0
 11
66.1067547695
 21
389.7997971364
 31
0.0
  0
LINE
  5
DD
330
75
100
AcDbEntity
  8
$DDT_AUDIT_GENERATED_(9C)
  6
Continuous
 62
     7
100
AcDbLine
 10
66.1067547695
 20
389.7997971364
 30
0.0
 11
66.1067547695
 21
390.4425847461
 31
0.0
  0
LINE
  5
DE
330
75
100
AcDbEntity
  8
$DDT_AUDIT_GENERATED_(9C)
  6
Continuous
 62
     7
100
AcDbLine
 10
66.1067547695
 20
390.4425847461
 30
0.0
 11
67.1067547695
 21
390.4425847461
 31
0.0
  0
LINE
  5
DF
330
75
100
AcDbEntity
  8
$DDT_AUDIT_GENERATED_(9C)
  6
Continuous
 62
     7
100
AcDbLine
 10
67.1067547695
 20
389.6712396145
 30
0.0
 11
67.1067547695
 21
389.0284520048
 31
0.0
  0
LINE
  5
E0
330
75
100
AcDbEntity
  8
$DDT_AUDIT_GENERATED_(9C)
  6
Continuous
 62
     7
100
AcDbLine
 10
67.1067547695
 20
389.0284520048
 30
0.0
 11
66.1067547695
 21
389.0284520048
 31
0.0
  0
LINE
  5
E1
330
75
100
AcDbEntity
  8
$DDT_AUDIT_GENERATED_(9C)
  6
Continuous
 62
     7
100
AcDbLine
 10
66.1067547695
 20
389.0284520048
 30
0.0
 11
66.1067547695
 21
389.6712396145
 31
0.0
  0
LINE
  5
E2
330
75
100
AcDbEntity
  8
$DDT_AUDIT_GENERATED_(9C)
  6
Continuous
 62
     7
100
AcDbLine
 10
66.1067547695
 20
389.6712396145
 30
0.0
 11
67.1067547695
 21
389.6712396145
 31
0.0
  0
LINE
  5
E3
330
75
100
AcDbEntity
  8
$DDT_AUDIT_GENERATED_(9C)
  6
Continuous
 62
     7
100
AcDbLine
 10
67.1067547695
 20
388.8998944829
 30
0.0
 11
67.1067547695
 21
388.2571068732
 31
0.0
  0
LINE
  5
E4
330
75
100
AcDbEntity
  8
$DDT_AUDIT_GENERATED_(9C)
  6
Continuous
 62
     7
100
AcDbLine
 10
67.1067547695
 20
388.2571068732
 30
0.0
 11
66.1067547695
 21
388.2571068732
 31
0.0
  0
LINE
  5
E5
330
75
100
AcDbEntity
  8
$DDT_AUDIT_GENERATED_(9C)
  6
Continuous
 62
     7
100
AcDbLine
 10
66.1067547695
 20
388.2571068732
 30
0.0
 11
66.1067547695
 21
388.8998944829
 31
0.0
  0
LINE
  5
E6
330
75
100
AcDbEntity
  8
$DDT_AUDIT_GENERATED_(9C)
  6
Continuous
 62
     7
100
AcDbLine
 10
66.1067547695
 20
388.8998944829
 30
0.0
 11
67.1067547695
 21
388.8998944829
 31
0.0
  0
LINE
  5
E7
330
75
100
AcDbEntity
  8
$DDT_AUDIT_GENERATED_(9C)
  6
Continuous
 62
     7
100
AcDbLine
 10
67.1067547695
 20
388.1285493513
 30
0.0
 11
67.1067547695
 21
387.4857617416
 31
0.0
  0
LINE
  5
E8
330
75
100
AcDbEntity
  8
$DDT_AUDIT_GENERATED_(9C)
  6
Continuous
 62
     7
100
AcDbLine
 10
67.1067547695
 20
387.4857617416
 30
0.0
 11
66.1067547695
 21
387.4857617416
 31
0.0
  0
LINE
  5
E9
330
75
100
AcDbEntity
  8
$DDT_AUDIT_GENERATED_(9C)
  6
Continuous
 62
     7
100
AcDbLine
 10
66.1067547695
 20
387.4857617416
 30
0.0
 11
66.1067547695
 21
388.1285493513
 31
0.0
  0
LINE
  5
EA
330
75
100
AcDbEntity
  8
$DDT_AUDIT_GENERATED_(9C)
  6
Continuous
 62
     7
100
AcDbLine
 10
66.1067547695
 20
388.1285493513
 30
0.0
 11
67.1067547695
 21
388.1285493513
 31
0.0
  0
LINE
  5
EB
330
75
100
AcDbEntity
  8
$DDT_AUDIT_GENERATED_(9C)
  6
Continuous
 62
     7
100
AcDbLine
 10
67.1067547695
 20
387.3572042196
 30
0.0
 11
67.1067547695
 21
386.71441661
 31
0.0
  0
LINE
  5
EC
330
75
100
AcDbEntity
  8
$DDT_AUDIT_GENERATED_(9C)
  6
Continuous
 62
     7
100
AcDbLine
 10
67.1067547695
 20
386.71441661
 30
0.0
 11
66.1067547695
 21
386.71441661
 31
0.0
  0
LINE
  5
ED
330
75
100
AcDbEntity
  8
$DDT_AUDIT_GENERATED_(9C)
  6
Continuous
 62
     7
100
AcDbLine
 10
66.1067547695
 20
386.71441661
 30
0.0
 11
66.1067547695
 21
387.3572042196
 31
0.0
  0
LINE
  5
EE
330
75
100
AcDbEntity
  8
$DDT_AUDIT_GENERATED_(9C)
  6
Continuous
 62
     7
100
AcDbLine
 10
66.1067547695
 20
387.3572042196
 30
0.0
 11
67.1067547695
 21
387.3572042196
 31
0.0
  0
LINE
  5
EF
330
75
100
AcDbEntity
  8
$DDT_AUDIT_GENERATED_(9C)
  6
Continuous
 62
     7
100
AcDbLine
 10
68.3067547695
 20
391.2139298778
 30
0.0
 11
68.3067547695
 21
390.5711422681
 31
0.0
  0
LINE
  5
F0
330
75
100
AcDbEntity
  8
$DDT_AUDIT_GENERATED_(9C)
  6
Continuous
 62
     7
100
AcDbLine
 10
68.3067547695
 20
390.5711422681
 30
0.0
 11
67.3067547695
 21
390.5711422681
 31
0.0
  0
LINE
  5
F1
330
75
100
AcDbEntity
  8
$DDT_AUDIT_GENERATED_(9C)
  6
Continuous
 62
     7
100
AcDbLine
 10
67.3067547695
 20
390.5711422681
 30
0.0
 11
67.3067547695
 21
391.2139298778
 31
0.0
  0
LINE
  5
F2
330
75
100
AcDbEntity
  8
$DDT_AUDIT_GENERATED_(9C)
  6
Continuous
 62
     7
100
AcDbLine
 10
68.3067547695
 20
390.4425847461
 30
0.0
 11
68.3067547695
 21
389.7997971364
 31
0.0
  0
LINE
  5
F3
330
75
100
AcDbEntity
  8
$DDT_AUDIT_GENERATED_(9C)
  6
Continuous
 62
     7
100
AcDbLine
 10
68.3067547695
 20
389.7997971364
 30
0.0
 11
67.3067547695
 21
389.7997971364
 31
0.0
  0
LINE
  5
F4
330
75
100
AcDbEntity
  8
$DDT_AUDIT_GENERATED_(9C)
  6
Continuous
 62
     7
100
AcDbLine
 10
67.3067547695
 20
389.7997971364
 30
0.0
 11
67.3067547695
 21
390.4425847461
 31
0.0
  0
LINE
  5
F5
330
75
100
AcDbEntity
  8
$DDT_AUDIT_GENERATED_(9C)
  6
Continuous
 62
     7
100
AcDbLine
 10
67.3067547695
 20
390.4425847461
 30
0.0
 11
68.3067547695
 21
390.4425847461
 31
0.0
  0
LINE
  5
F6
330
75
100
AcDbEntity
  8
$DDT_AUDIT_GENERATED_(9C)
  6
Continuous
 62
     7
100
AcDbLine
 10
68.3067547695
 20
389.6712396145
 30
0.0
 11
68.3067547695
 21
389.0284520048
 31
0.0
  0
LINE
  5
F7
330
75
100
AcDbEntity
  8
$DDT_AUDIT_GENERATED_(9C)
  6
Continuous
 62
     7
100
AcDbLine
 10
68.3067547695
 20
389.0284520048
 30
0.0
 11
67.3067547695
 21
389.0284520048
 31
0.0
  0
LINE
  5
F8
330
75
100
AcDbEntity
  8
$DDT_AUDIT_GENERATED_(9C)
  6
Continuous
 62
     7
100
AcDbLine
 10
67.3067547695
 20
389.0284520048
 30
0.0
 11
67.3067547695
 21
389.6712396145
 31
0.0
  0
LINE
  5
F9
330
75
100
AcDbEntity
  8
$DDT_AUDIT_GENERATED_(9C)
  6
Continuous
 62
     7
100
AcDbLine
 10
67.3067547695
 20
389.6712396145
 30
0.0
 11
68.3067547695
 21
389.6712396145
 31
0.0
  0
LINE
  5
FA
330
75
100
AcDbEntity
  8
$DDT_AUDIT_GENERATED_(9C)
  6
Continuous
 62
     7
100
AcDbLine
 10
68.3067547695
 20
388.8998944829
 30
0.0
 11
68.3067547695
 21
388.2571068732
 31
0.0
  0
LINE
  5
FB
330
75
100
AcDbEntity
  8
$DDT_AUDIT_GENERATED_(9C)
  6
Continuous
 62
     7
100
AcDbLine
 10
68.3067547695
 20
388.2571068732
 30
0.0
 11
67.3067547695
 21
388.2571068732
 31
0.0
  0
LINE
  5
FC
330
75
100
AcDbEntity
  8
$DDT_AUDIT_GENERATED_(9C)
  6
Continuous
 62
     7
100
AcDbLine
 10
67.3067547695
 20
388.2571068732
 30
0.0
 11
67.3067547695
 21
388.8998944829
 31
0.0
  0
LINE
  5
FD
330
75
100
AcDbEntity
  8
$DDT_AUDIT_GENERATED_(9C)
  6
Continuous
 62
     7
100
AcDbLine
 10
67.3067547695
 20
388.8998944829
 30
0.0
 11
68.3067547695
 21
388.8998944829
 31
0.0
  0
LINE
  5
FE
330
75
100
AcDbEntity
  8
$DDT_AUDIT_GENERATED_(9C)
  6
Continuous
 62
     7
100
AcDbLine
 10
68.3067547695
 20
388.1285493513
 30
0.0
 11
68.3067547695
 21
387.4857617416
 31
0.0
  0
LINE
  5
FF
330
75
100
AcDbEntity
  8
$DDT_AUDIT_GENERATED_(9C)
  6
Continuous
 62
     7
100
AcDbLine
 10
68.3067547695
 20
387.4857617416
 30
0.0
 11
67.3067547695
 21
387.4857617416
 31
0.0
  0
LINE
  5
100
330
75
100
AcDbEntity
  8
$DDT_AUDIT_GENERATED_(9C)
  6
Continuous
 62
     7
100
AcDbLine
 10
67.3067547695
 20
387.4857617416
 30
0.0
 11
67.3067547695
 21
388.1285493513
 31
0.0
  0
LINE
  5
101
330
75
100
AcDbEntity
  8
$DDT_AUDIT_GENERATED_(9C)
  6
Continuous
 62
     7
100
AcDbLine
 10
67.3067547695
 20
388.1285493513
 30
0.0
 11
68.3067547695
 21
388.1285493513
 31
0.0
  0
LINE
  5
102
330
75
100
AcDbEntity
  8
$DDT_AUDIT_GENERATED_(9C)
  6
Continuous
 62
     7
100
AcDbLine
 10
68.3067547695
 20
386.71441661
 30
0.0
 11
67.3067547695
 21
386.71441661
 31
0.0
  0
LINE
  5
103
330
75
100
AcDbEntity
  8
$DDT_AUDIT_GENERATED_(9C)
  6
Continuous
 62
     7
100
AcDbLine
 10
68.3067547695
 20
387.3572042196
 30
0.0
 11
68.3067547695
 21
386.71441661
 31
0.0
  0
LINE
  5
104
330
75
100
AcDbEntity
  8
$DDT_AUDIT_GENERATED_(9C)
  6
Continuous
 62
     7
100
AcDbLine
 10
67.3067547695
 20
386.71441661
 30
0.0
 11
67.3067547695
 21
387.3572042196
 31
0.0
  0
LINE
  5
105
330
75
100
AcDbEntity
  8
$DDT_AUDIT_GENERATED_(9C)
  6
Continuous
 62
     7
100
AcDbLine
 10
67.3067547695
 20
387.3572042196
 30
0.0
 11
68.3067547695
 21
387.3572042196
 31
0.0
  0
LINE
  5
106
330
75
100
AcDbEntity
  8
$DDT_AUDIT_GENERATED_(9C)
  6
Continuous
 62
     7
100
AcDbLine
 10
69.5067547695
 20
391.2139298778
 30
0.0
 11
69.5067547695
 21
390.5711422681
 31
0.0
  0
LINE
  5
107
330
75
100
AcDbEntity
  8
$DDT_AUDIT_GENERATED_(9C)
  6
Continuous
 62
     7
100
AcDbLine
 10
69.5067547695
 20
390.5711422681
 30
0.0
 11
68.5067547695
 21
390.5711422681
 31
0.0
  0
LINE
  5
108
330
75
100
AcDbEntity
  8
$DDT_AUDIT_GENERATED_(9C)
  6
Continuous
 62
     7
100
AcDbLine
 10
68.5067547695
 20
390.5711422681
 30
0.0
 11
68.5067547695
 21
391.2139298778
 31
0.0
  0
LINE
  5
109
330
75
100
AcDbEntity
  8
$DDT_AUDIT_GENERATED_(9C)
  6
Continuous
 62
     7
100
AcDbLine
 10
69.5067547695
 20
390.4425847461
 30
0.0
 11
69.5067547695
 21
389.7997971364
 31
0.0
  0
LINE
  5
10A
330
75
100
AcDbEntity
  8
$DDT_AUDIT_GENERATED_(9C)
  6
Continuous
 62
     7
100
AcDbLine
 10
69.5067547695
 20
389.7997971364
 30
0.0
 11
68.5067547695
 21
389.7997971364
 31
0.0
  0
LINE
  5
10B
330
75
100
AcDbEntity
  8
$DDT_AUDIT_GENERATED_(9C)
  6
Continuous
 62
     7
100
AcDbLine
 10
68.5067547695
 20
389.7997971364
 30
0.0
 11
68.5067547695
 21
390.4425847461
 31
0.0
  0
LINE
  5
10C
330
75
100
AcDbEntity
  8
$DDT_AUDIT_GENERATED_(9C)
  6
Continuous
 62
     7
100
AcDbLine
 10
68.5067547695
 20
390.4425847461
 30
0.0
 11
69.5067547695
 21
390.4425847461
 31
0.0
  0
LINE
  5
10D
330
75
100
AcDbEntity
  8
$DDT_AUDIT_GENERATED_(9C)
  6
Continuous
 62
     7
100
AcDbLine
 10
69.5067547695
 20
389.6712396145
 30
0.0
 11
69.5067547695
 21
389.0284520048
 31
0.0
  0
LINE
  5
10E
330
75
100
AcDbEntity
  8
$DDT_AUDIT_GENERATED_(9C)
  6
Continuous
 62
     7
100
AcDbLine
 10
69.5067547695
 20
389.0284520048
 30
0.0
 11
68.5067547695
 21
389.0284520048
 31
0.0
  0
LINE
  5
10F
330
75
100
AcDbEntity
  8
$DDT_AUDIT_GENERATED_(9C)
  6
Continuous
 62
     7
100
AcDbLine
 10
68.5067547695
 20
389.0284520048
 30
0.0
 11
68.5067547695
 21
389.6712396145
 31
0.0
  0
LINE
  5
110
330
75
100
AcDbEntity
  8
$DDT_AUDIT_GENERATED_(9C)
  6
Continuous
 62
     7
100
AcDbLine
 10
68.5067547695
 20
389.6712396145
 30
0.0
 11
69.5067547695
 21
389.6712396145
 31
0.0
  0
LINE
  5
111
330
75
100
AcDbEntity
  8
$DDT_AUDIT_GENERATED_(9C)
  6
Continuous
 62
     7
100
AcDbLine
 10
69.5067547695
 20
388.8998944829
 30
0.0
 11
69.5067547695
 21
388.2571068732
 31
0.0
  0
LINE
  5
112
330
75
100
AcDbEntity
  8
$DDT_AUDIT_GENERATED_(9C)
  6
Continuous
 62
     7
100
AcDbLine
 10
69.5067547695
 20
388.2571068732
 30
0.0
 11
68.5067547695
 21
388.2571068732
 31
0.0
  0
LINE
  5
113
330
75
100
AcDbEntity
  8
$DDT_AUDIT_GENERATED_(9C)
  6
Continuous
 62
     7
100
AcDbLine
 10
68.5067547695
 20
388.2571068732
 30
0.0
 11
68.5067547695
 21
388.8998944829
 31
0.0
  0
LINE
  5
114
330
75
100
AcDbEntity
  8
$DDT_AUDIT_GENERATED_(9C)
  6
Continuous
 62
     7
100
AcDbLine
 10
68.5067547695
 20
388.8998944829
 30
0.0
 11
69.5067547695
 21
388.8998944829
 31
0.0
  0
LINE
  5
115
330
75
100
AcDbEntity
  8
$DDT_AUDIT_GENERATED_(9C)
  6
Continuous
 62
     7
100
AcDbLine
 10
69.5067547695
 20
388.1285493513
 30
0.0
 11
69.5067547695
 21
387.4857617416
 31
0.0
  0
LINE
  5
116
330
75
100
AcDbEntity
  8
$DDT_AUDIT_GENERATED_(9C)
  6
Continuous
 62
     7
100
AcDbLine
 10
69.5067547695
 20
387.4857617416
 30
0.0
 11
68.5067547695
 21
387.4857617416
 31
0.0
  0
LINE
  5
117
330
75
100
AcDbEntity
  8
$DDT_AUDIT_GENERATED_(9C)
  6
Continuous
 62
     7
100
AcDbLine
 10
68.5067547695
 20
387.4857617416
 30
0.0
 11
68.5067547695
 21
388.1285493513
 31
0.0
  0
LINE
  5
118
330
75
100
AcDbEntity
  8
$DDT_AUDIT_GENERATED_(9C)
  6
Continuous
 62
     7
100
AcDbLine
 10
68.5067547695
 20
388.1285493513
 30
0.0
 11
69.5067547695
 21
388.1285493513
 31
0.0
  0
LINE
  5
119
330
75
100
AcDbEntity
  8
$DDT_AUDIT_GENERATED_(9C)
  6
Continuous
 62
     7
100
AcDbLine
 10
70.7067547695
 20
391.2139298778
 30
0.0
 11
70.7067547695
 21
390.5711422681
 31
0.0
  0
LINE
  5
11A
330
75
100
AcDbEntity
  8
$DDT_AUDIT_GENERATED_(9C)
  6
Continuous
 62
     7
100
AcDbLine
 10
70.7067547695
 20
390.5711422681
 30
0.0
 11
69.7067547695
 21
390.5711422681
 31
0.0
  0
LINE
  5
11B
330
75
100
AcDbEntity
  8
$DDT_AUDIT_GENERATED_(9C)
  6
Continuous
 62
     7
100
AcDbLine
 10
69.7067547695
 20
390.5711422681
 30
0.0
 11
69.7067547695
 21
391.2139298778
 31
0.0
  0
LINE
  5
11C
330
75
100
AcDbEntity
  8
$DDT_AUDIT_GENERATED_(9C)
  6
Continuous
 62
     7
100
AcDbLine
 10
70.7067547695
 20
390.4425847461
 30
0.0
 11
70.7067547695
 21
389.7997971364
 31
0.0
  0
LINE
  5
11D
330
75
100
AcDbEntity
  8
$DDT_AUDIT_GENERATED_(9C)
  6
Continuous
 62
     7
100
AcDbLine
 10
70.7067547695
 20
389.7997971364
 30
0.0
 11
69.7067547695
 21
389.7997971364
 31
0.0
  0
LINE
  5
11E
330
75
100
AcDbEntity
  8
$DDT_AUDIT_GENERATED_(9C)
  6
Continuous
 62
     7
100
AcDbLine
 10
69.7067547695
 20
389.7997971364
 30
0.0
 11
69.7067547695
 21
390.4425847461
 31
0.0
  0
LINE
  5
11F
330
75
100
AcDbEntity
  8
$DDT_AUDIT_GENERATED_(9C)
  6
Continuous
 62
     7
100
AcDbLine
 10
69.7067547695
 20
390.4425847461
 30
0.0
 11
70.7067547695
 21
390.4425847461
 31
0.0
  0
LINE
  5
120
330
75
100
AcDbEntity
  8
$DDT_AUDIT_GENERATED_(9C)
  6
Continuous
 62
     7
100
AcDbLine
 10
70.7067547695
 20
389.6712396145
 30
0.0
 11
70.7067547695
 21
389.0284520048
 31
0.0
  0
LINE
  5
121
330
75
100
AcDbEntity
  8
$DDT_AUDIT_GENERATED_(9C)
  6
Continuous
 62
     7
100
AcDbLine
 10
70.7067547695
 20
389.0284520048
 30
0.0
 11
69.7067547695
 21
389.0284520048
 31
0.0
  0
LINE
  5
122
330
75
100
AcDbEntity
  8
$DDT_AUDIT_GENERATED_(9C)
  6
Continuous
 62
     7
100
AcDbLine
 10
69.7067547695
 20
389.0284520048
 30
0.0
 11
69.7067547695
 21
389.6712396145
 31
0.0
  0
LINE
  5
123
330
75
100
AcDbEntity
  8
$DDT_AUDIT_GENERATED_(9C)
  6
Continuous
 62
     7
100
AcDbLine
 10
69.7067547695
 20
389.6712396145
 30
0.0
 11
70.7067547695
 21
389.6712396145
 31
0.0
  0
LINE
  5
124
330
75
100
AcDbEntity
  8
$DDT_AUDIT_GENERATED_(9C)
  6
Continuous
 62
     7
100
AcDbLine
 10
70.7067547695
 20
388.8998944829
 30
0.0
 11
70.7067547695
 21
388.2571068732
 31
0.0
  0
LINE
  5
125
330
75
100
AcDbEntity
  8
$DDT_AUDIT_GENERATED_(9C)
  6
Continuous
 62
     7
100
AcDbLine
 10
70.7067547695
 20
388.2571068732
 30
0.0
 11
69.7067547695
 21
388.2571068732
 31
0.0
  0
LINE
  5
126
330
75
100
AcDbEntity
  8
$DDT_AUDIT_GENERATED_(9C)
  6
Continuous
 62
     7
100
AcDbLine
 10
69.7067547695
 20
388.2571068732
 30
0.0
 11
69.7067547695
 21
388.8998944829
 31
0.0
  0
LINE
  5
127
330
75
100
AcDbEntity
  8
$DDT_AUDIT_GENERATED_(9C)
  6
Continuous
 62
     7
100
AcDbLine
 10
69.7067547695
 20
388.8998944829
 30
0.0
 11
70.7067547695
 21
388.8998944829
 31
0.0
  0
LINE
  5
128
330
75
100
AcDbEntity
  8
$DDT_AUDIT_GENERATED_(9C)
  6
Continuous
 62
     7
100
AcDbLine
 10
71.9067547695
 20
391.2139298778
 30
0.0
 11
71.9067547695
 21
390.5711422681
 31
0.0
  0
LINE
  5
129
330
75
100
AcDbEntity
  8
$DDT_AUDIT_GENERATED_(9C)
  6
Continuous
 62
     7
100
AcDbLine
 10
71.9067547695
 20
390.5711422681
 30
0.0
 11
70.9067547695
 21
390.5711422681
 31
0.0
  0
LINE
  5
12A
330
75
100
AcDbEntity
  8
$DDT_AUDIT_GENERATED_(9C)
  6
Continuous
 62
     7
100
AcDbLine
 10
70.9067547695
 20
390.5711422681
 30
0.0
 11
70.9067547695
 21
391.2139298778
 31
0.0
  0
LINE
  5
12B
330
75
100
AcDbEntity
  8
$DDT_AUDIT_GENERATED_(9C)
  6
Continuous
 62
     7
100
AcDbLine
 10
71.9067547695
 20
390.4425847461
 30
0.0
 11
71.9067547695
 21
389.7997971364
 31
0.0
  0
LINE
  5
12C
330
75
100
AcDbEntity
  8
$DDT_AUDIT_GENERATED_(9C)
  6
Continuous
 62
     7
100
AcDbLine
 10
71.9067547695
 20
389.7997971364
 30
0.0
 11
70.9067547695
 21
389.7997971364
 31
0.0
  0
LINE
  5
12D
330
75
100
AcDbEntity
  8
$DDT_AUDIT_GENERATED_(9C)
  6
Continuous
 62
     7
100
AcDbLine
 10
70.9067547695
 20
389.7997971364
 30
0.0
 11
70.9067547695
 21
390.4425847461
 31
0.0
  0
LINE
  5
12E
330
75
100
AcDbEntity
  8
$DDT_AUDIT_GENERATED_(9C)
  6
Continuous
 62
     7
100
AcDbLine
 10
70.9067547695
 20
390.4425847461
 30
0.0
 11
71.9067547695
 21
390.4425847461
 31
0.0
  0
LINE
  5
12F
330
75
100
AcDbEntity
  8
$DDT_AUDIT_GENERATED_(9C)
  6
Continuous
 62
     7
100
AcDbLine
 10
71.9067547695
 20
389.6712396145
 30
0.0
 11
71.9067547695
 21
389.0284520048
 31
0.0
  0
LINE
  5
130
330
75
100
AcDbEntity
  8
$DDT_AUDIT_GENERATED_(9C)
  6
Continuous
 62
     7
100
AcDbLine
 10
71.9067547695
 20
389.0284520048
 30
0.0
 11
70.9067547695
 21
389.0284520048
 31
0.0
  0
LINE
  5
131
330
75
100
AcDbEntity
  8
$DDT_AUDIT_GENERATED_(9C)
  6
Continuous
 62
     7
100
AcDbLine
 10
70.9067547695
 20
389.0284520048
 30
0.0
 11
70.9067547695
 21
389.6712396145
 31
0.0
  0
LINE
  5
132
330
75
100
AcDbEntity
  8
$DDT_AUDIT_GENERATED_(9C)
  6
Continuous
 62
     7
100
AcDbLine
 10
70.9067547695
 20
389.6712396145
 30
0.0
 11
71.9067547695
 21
389.6712396145
 31
0.0
  0
LINE
  5
133
330
75
100
AcDbEntity
  8
$DDT_AUDIT_GENERATED_(9C)
  6
Continuous
 62
     7
100
AcDbLine
 10
72.4415893155
 20
390.5711422681
 30
0.0
 11
72.4415893155
 21
390.8309076562
 31
0.0
  0
LINE
  5
134
330
75
100
AcDbEntity
  8
$DDT_AUDIT_GENERATED_(9C)
  6
Continuous
 62
     7
100
AcDbLine
 10
72.4415893155
 20
390.5711422681
 30
0.0
 11
72.1067547695
 21
390.5711422681
 31
0.0
  0
LINE
  5
135
330
75
100
AcDbEntity
  8
$DDT_AUDIT_GENERATED_(9C)
  6
Continuous
 62
     7
100
AcDbLine
 10
72.1067547695
 20
390.5711422681
 30
0.0
 11
72.1067547695
 21
391.2139298778
 31
0.0
  0
ELLIPSE
  5
136
330
75
100
AcDbEntity
  8
$DDT_AUDIT_GENERATED_(9C)
  6
Continuous
 62
     7
100
AcDbEllipse
 10
64.2067544509
 20
390.8925360878
 30
0.0
 11
8.250000318619223
 21
-2.538268206730976E-8
 31
0.0
210
0.0
220
0.0
230
1.0
 40
0.6427875974
 41
-0.0849506202681551
 42
-0.060643220884586
  0
LINE
  5
137
330
75
100
AcDbEntity
  8
$DDT_AUDIT_GENERATED_(9C)
  6
Continuous
 62
     7
100
AcDbLine
 10
72.2797034253
 20
389.7997971364
 30
0.0
 11
72.2797034253
 21
390.4425847461
 31
0.0
  0
LINE
  5
138
330
75
100
AcDbEntity
  8
$DDT_AUDIT_GENERATED_(9C)
  6
Continuous
 62
     7
100
AcDbLine
 10
72.2797034253
 20
389.7997971364
 30
0.0
 11
72.1067547695
 21
389.7997971364
 31
0.0
  0
LINE
  5
139
330
75
100
AcDbEntity
  8
$DDT_AUDIT_GENERATED_(9C)
  6
Continuous
 62
     7
100
AcDbLine
 10
72.1067547695
 20
389.7997971364
 30
0.0
 11
72.1067547695
 21
390.4425847461
 31
0.0
  0
LINE
  5
13A
330
75
100
AcDbEntity
  8
$DDT_AUDIT_GENERATED_(9C)
  6
Continuous
 62
     7
100
AcDbLine
 10
72.1067547695
 20
390.4425847461
 30
0.0
 11
72.4270041574
 21
390.4425847461
 31
0.0
  0
ELLIPSE
  5
13B
330
75
100
AcDbEntity
  8
$DDT_AUDIT_GENERATED_(9C)
  6
Continuous
 62
     7
100
AcDbEllipse
 10
64.2067546907
 20
390.8925360842
 30
0.0
 11
8.250000078782113
 21
-1.882564937272235E-8
 31
0.0
210
0.0
220
0.0
230
1.0
 40
0.6427876068
 41
-0.2323890699120819
 42
-0.2075474480353687
  0
LINE
  5
13C
330
75
100
AcDbEntity
  8
$DDT_AUDIT_GENERATED_(9C)
  6
Continuous
 62
     7
100
AcDbLine
 10
72.1067547695
 20
389.3643093758
 30
0.0
 11
72.1067547695
 21
389.6712396145
 31
0.0
  0
LINE
  5
13D
330
75
100
AcDbEntity
  8
$DDT_AUDIT_GENERATED_(9C)
  6
Continuous
 62
     7
100
AcDbLine
 10
72.1067547695
 20
389.6712396145
 30
0.0
 11
72.2349862061
 21
389.6712396145
 31
0.0
  0
ELLIPSE
  5
13E
330
75
100
AcDbEntity
  8
$DDT_AUDIT_GENERATED_(9C)
  6
Continuous
 62
     7
100
AcDbEllipse
 10
64.2067547715
 20
390.8925360725
 30
0.0
 11
8.249999997999938
 21
7.319284067719424E-10
 31
0.0
210
0.0
220
0.0
230
1.0
 40
0.6427876098
 41
-0.385214121765431
 42
-0.2923273932447605
  0
LINE
  5
13F
330
75
100
AcDbEntity
  8
$DDT_AUDIT_GENERATED_(9C)
  6
Continuous
 62
     7
100
AcDbLine
 10
71.3658399066
 20
388.2571068732
 30
0.0
 11
71.3658399066
 21
388.8998944829
 31
0.0
  0
LINE
  5
140
330
75
100
AcDbEntity
  8
$DDT_AUDIT_GENERATED_(9C)
  6
Continuous
 62
     7
100
AcDbLine
 10
71.3658399066
 20
388.2571068732
 30
0.0
 11
70.9067547695
 21
388.2571068732
 31
0.0
  0
LINE
  5
141
330
75
100
AcDbEntity
  8
$DDT_AUDIT_GENERATED_(9C)
  6
Continuous
 62
     7
100
AcDbLine
 10
70.9067547695
 20
388.2571068732
 30
0.0
 11
70.9067547695
 21
388.8998944829
 31
0.0
  0
LINE
  5
142
330
75
100
AcDbEntity
  8
$DDT_AUDIT_GENERATED_(9C)
  6
Continuous
 62
     7
100
AcDbLine
 10
70.9067547695
 20
388.8998944829
 30
0.0
 11
71.8521782371
 21
388.8998944829
 31
0.0
  0
ELLIPSE
  5
143
330
75
100
AcDbEntity
  8
$DDT_AUDIT_GENERATED_(9C)
  6
Continuous
 62
     7
100
AcDbEllipse
 10
64.2067547505
 20
390.8925360821
 30
0.0
 11
8.250000019410539
 21
-1.247663083958628E-8
 31
0.0
210
0.0
220
0.0
230
1.0
 40
0.6427876094
 41
-0.6634394325479152
 42
-0.6230179581917028
  0
LINE
  5
144
330
75
100
AcDbEntity
  8
$DDT_AUDIT_GENERATED_(9C)
  6
Continuous
 62
     7
100
AcDbLine
 10
70.5291356501
 20
387.4857617416
 30
0.0
 11
70.5291356501
 21
388.1285493513
 31
0.0
  0
LINE
  5
145
330
75
100
AcDbEntity
  8
$DDT_AUDIT_GENERATED_(9C)
  6
Continuous
 62
     7
100
AcDbLine
 10
70.5291356501
 20
387.4857617416
 30
0.0
 11
69.7067547695
 21
387.4857617416
 31
0.0
  0
LINE
  5
146
330
75
100
AcDbEntity
  8
$DDT_AUDIT_GENERATED_(9C)
  6
Continuous
 62
     7
100
AcDbLine
 10
69.7067547695
 20
387.4857617416
 30
0.0
 11
69.7067547695
 21
388.1285493513
 31
0.0
  0
LINE
  5
147
330
75
100
AcDbEntity
  8
$DDT_AUDIT_GENERATED_(9C)
  6
Continuous
 62
     7
100
AcDbLine
 10
69.7067547695
 20
388.1285493513
 30
0.0
 11
70.7067547695
 21
388.1285493513
 31
0.0
  0
LINE
  5
148
330
75
100
AcDbEntity
  8
$DDT_AUDIT_GENERATED_(9C)
  6
Continuous
 62
     7
100
AcDbLine
 10
70.7067547695
 20
388.1285493513
 30
0.0
 11
70.7067547695
 21
387.6267891129
 31
0.0
  0
ELLIPSE
  5
149
330
75
100
AcDbEntity
  8
$DDT_AUDIT_GENERATED_(9C)
  6
Continuous
 62
     7
100
AcDbEllipse
 10
64.2067547504
 20
390.8925360801
 30
0.0
 11
8.250000019237463
 21
-1.052881393182048E-8
 31
0.0
210
0.0
220
0.0
230
1.0
 40
0.6427876093
 41
-0.5482706326548463
 42
-0.520103201873507
  0
LINE
  5
14A
330
75
100
AcDbEntity
  8
$DDT_AUDIT_GENERATED_(9C)
  6
Continuous
 62
     7
100
AcDbLine
 10
70.9067547695
 20
387.7982964569
 30
0.0
 11
70.9067547695
 21
388.1285493513
 31
0.0
  0
LINE
  5
14B
330
75
100
AcDbEntity
  8
$DDT_AUDIT_GENERATED_(9C)
  6
Continuous
 62
     7
100
AcDbLine
 10
70.9067547695
 20
388.1285493513
 30
0.0
 11
71.2475288746
 21
388.1285493513
 31
0.0
  0
ELLIPSE
  5
14C
330
75
100
AcDbEntity
  8
$DDT_AUDIT_GENERATED_(9C)
  6
Continuous
 62
     7
100
AcDbEllipse
 10
64.2067546901
 20
390.8925361318
 30
0.0
 11
8.250000086575428
 21
-6.569618460350313E-8
 31
0.0
210
0.0
220
0.0
230
1.0
 40
0.6427876104
 41
-0.873138865051609
 42
-0.8410686619286389
  0
LINE
  5
14D
330
75
100
AcDbEntity
  8
$DDT_AUDIT_GENERATED_(9C)
  6
Continuous
 62
     7
100
AcDbLine
 10
69.2873551277
 20
386.71441661
 30
0.0
 11
69.2873551277
 21
387.3572042196
 31
0.0
  0
LINE
  5
14E
330
75
100
AcDbEntity
  8
$DDT_AUDIT_GENERATED_(9C)
  6
Continuous
 62
     7
100
AcDbLine
 10
69.2873551277
 20
386.71441661
 30
0.0
 11
68.5067547695
 21
386.71441661
 31
0.0
  0
LINE
  5
14F
330
75
100
AcDbEntity
  8
$DDT_AUDIT_GENERATED_(9C)
  6
Continuous
 62
     7
100
AcDbLine
 10
68.5067547695
 20
386.71441661
 30
0.0
 11
68.5067547695
 21
387.3572042196
 31
0.0
  0
LINE
  5
150
330
75
100
AcDbEntity
  8
$DDT_AUDIT_GENERATED_(9C)
  6
Continuous
 62
     7
100
AcDbLine
 10
68.5067547695
 20
387.3572042196
 30
0.0
 11
69.5067547695
 21
387.3572042196
 31
0.0
  0
LINE
  5
151
330
75
100
AcDbEntity
  8
$DDT_AUDIT_GENERATED_(9C)
  6
Continuous
 62
     7
100
AcDbLine
 10
69.5067547695
 20
387.3572042196
 30
0.0
 11
69.5067547695
 21
386.8285879791
 31
0.0
  0
ELLIPSE
  5
152
330
75
100
AcDbEntity
  8
$DDT_AUDIT_GENERATED_(9C)
  6
Continuous
 62
     7
100
AcDbEllipse
 10
64.2067546779
 20
390.8925361238
 30
0.0
 11
8.250000095191171
 21
-6.561420851092237E-8
 31
0.0
210
0.0
220
0.0
230
1.0
 40
0.642787609
 41
-0.729727647361206
 42
-0.6976574442381276
  0
LINE
  5
153
330
75
100
AcDbEntity
  8
$DDT_AUDIT_GENERATED_(9C)
  6
Continuous
 62
     7
100
AcDbLine
 10
69.7067547695
 20
386.9399148994
 30
0.0
 11
69.7067547695
 21
387.3572042196
 31
0.0
  0
LINE
  5
154
330
75
100
AcDbEntity
  8
$DDT_AUDIT_GENERATED_(9C)
  6
Continuous
 62
     7
100
AcDbLine
 10
69.7067547695
 20
387.3572042196
 30
0.0
 11
70.3559417076
 21
387.3572042196
 31
0.0
  0
LINE
  5
155
330
75
100
AcDbEntity
  8
$DDT_AUDIT_GENERATED_(9C)
  6
Continuous
 62
     7
100
AcDbLine
 10
67.1067547695
 20
386.585859088
 30
0.0
 11
67.1067547695
 21
385.9430714783
 31
0.0
  0
LINE
  5
156
330
75
100
AcDbEntity
  8
$DDT_AUDIT_GENERATED_(9C)
  6
Continuous
 62
     7
100
AcDbLine
 10
67.1067547695
 20
385.9430714783
 30
0.0
 11
66.1067547695
 21
385.9430714783
 31
0.0
  0
LINE
  5
157
330
75
100
AcDbEntity
  8
$DDT_AUDIT_GENERATED_(9C)
  6
Continuous
 62
     7
100
AcDbLine
 10
66.1067547695
 20
385.9430714783
 30
0.0
 11
66.1067547695
 21
386.585859088
 31
0.0
  0
LINE
  5
158
330
75
100
AcDbEntity
  8
$DDT_AUDIT_GENERATED_(9C)
  6
Continuous
 62
     7
100
AcDbLine
 10
66.1067547695
 20
386.585859088
 30
0.0
 11
67.1067547695
 21
386.585859088
 31
0.0
  0
ELLIPSE
  5
159
330
75
100
AcDbEntity
  8
$DDT_AUDIT_GENERATED_(9C)
  6
Continuous
 62
     7
100
AcDbEllipse
 10
64.2067546739
 20
390.8925361769
 30
0.0
 11
8.250000118246403
 21
-9.014967938814067E-8
 31
0.0
210
0.0
220
0.0
230
1.0
 40
0.6427876132
 41
-1.05069311136834
 42
-1.022525680870131
  0
LINE
  5
15A
330
75
100
AcDbEntity
  8
$DDT_AUDIT_GENERATED_(9C)
  6
Continuous
 62
     7
100
AcDbLine
 10
67.3067547695
 20
385.9781525971
 30
0.0
 11
67.3067547695
 21
386.585859088
 31
0.0
  0
LINE
  5
15B
330
75
100
AcDbEntity
  8
$DDT_AUDIT_GENERATED_(9C)
  6
Continuous
 62
     7
100
AcDbLine
 10
67.3067547695
 20
386.585859088
 30
0.0
 11
68.3067547695
 21
386.585859088
 31
0.0
  0
LINE
  5
15C
330
75
100
AcDbEntity
  8
$DDT_AUDIT_GENERATED_(9C)
  6
Continuous
 62
     7
100
AcDbLine
 10
68.3067547695
 20
386.585859088
 30
0.0
 11
68.3067547695
 21
386.2907648501
 31
0.0
  0
ELLIPSE
  5
15D
330
75
100
AcDbEntity
  8
$DDT_AUDIT_GENERATED_(9C)
  6
Continuous
 62
     7
100
AcDbEllipse
 10
64.2067547551
 20
390.8925360852
 30
0.0
 11
8.250000016284318
 21
-1.260119786294922E-8
 31
0.0
210
0.0
220
0.0
230
1.0
 40
0.6427876099
 41
-0.9477783652640497
 42
-0.9073568909085346
  0
LINE
  5
15E
330
75
100
AcDbEntity
  8
$DDT_AUDIT_GENERATED_(9C)
  6
Continuous
 62
     7
100
AcDbLine
 10
68.5067547695
 20
386.3668137155
 30
0.0
 11
68.5067547695
 21
386.585859088
 31
0.0
  0
LINE
  5
15F
330
75
100
AcDbEntity
  8
$DDT_AUDIT_GENERATED_(9C)
  6
Continuous
 62
     7
100
AcDbLine
 10
68.5067547695
 20
386.585859088
 30
0.0
 11
69.0205370662
 21
386.585859088
 31
0.0
  0
ELLIPSE
  5
160
330
75
100
AcDbEntity
  8
$DDT_AUDIT_GENERATED_(9C)
  6
Continuous
 62
     7
100
AcDbEllipse
 10
64.2067547471
 20
390.8925362704
 30
0.0
 11
8.250000154775256
 21
-2.433321599770721E-8
 31
0.0
210
0.0
220
0.0
230
1.0
 40
0.6427876216
 41
-1.510153099289867
 42
-1.48584569988936
  0
LINE
  5
161
330
75
100
AcDbEntity
  8
$DDT_AUDIT_GENERATED_(9C)
  6
Continuous
 62
     7
100
AcDbLine
 10
63.7067547695
 20
385.8145139564
 30
0.0
 11
64.7067547695
 21
385.8145139564
 31
0.0
  0
LINE
  5
162
330
75
100
AcDbEntity
  8
$DDT_AUDIT_GENERATED_(9C)
  6
Continuous
 62
     7
100
AcDbLine
 10
64.7067547695
 20
385.8145139564
 30
0.0
 11
64.7067547695
 21
385.5992864589
 31
0.0
  0
ELLIPSE
  5
163
330
75
100
AcDbEntity
  8
$DDT_AUDIT_GENERATED_(9C)
  6
Continuous
 62
     7
100
AcDbEllipse
 10
64.206754706
 20
390.892536256
 30
0.0
 11
8.250000152787903
 21
-6.799308338578669E-8
 31
0.0
210
0.0
220
0.0
230
1.0
 40
0.64278762
 41
-1.363248867045746
 42
-1.338407245486763
  0
LINE
  5
164
330
75
100
AcDbEntity
  8
$DDT_AUDIT_GENERATED_(9C)
  6
Continuous
 62
     7
100
AcDbLine
 10
64.9067547695
 20
385.6086616178
 30
0.0
 11
64.9067547695
 21
385.8145139564
 31
0.0
  0
LINE
  5
165
330
75
100
AcDbEntity
  8
$DDT_AUDIT_GENERATED_(9C)
  6
Continuous
 62
     7
100
AcDbLine
 10
64.9067547695
 20
385.8145139564
 30
0.0
 11
65.9067547695
 21
385.8145139564
 31
0.0
  0
LINE
  5
166
330
75
100
AcDbEntity
  8
$DDT_AUDIT_GENERATED_(9C)
  6
Continuous
 62
     7
100
AcDbLine
 10
65.9067547695
 20
385.8145139564
 30
0.0
 11
65.9067547695
 21
385.7033447033
 31
0.0
  0
ELLIPSE
  5
167
330
75
100
AcDbEntity
  8
$DDT_AUDIT_GENERATED_(9C)
  6
Continuous
 62
     7
100
AcDbEllipse
 10
64.2067547701
 20
390.8925360718
 30
0.0
 11
8.249999999014868
 21
6.089989623703218E-10
 31
0.0
210
0.0
220
0.0
230
1.0
 40
0.6427876096
 41
-1.278468933727682
 42
-1.185582205208957
  0
LINE
  5
168
330
75
100
AcDbEntity
  8
$DDT_AUDIT_GENERATED_(9C)
  6
Continuous
 62
     7
100
AcDbLine
 10
66.1067547695
 20
385.7320883778
 30
0.0
 11
66.1067547695
 21
385.8145139564
 31
0.0
  0
LINE
  5
169
330
75
100
AcDbEntity
  8
$DDT_AUDIT_GENERATED_(9C)
  6
Continuous
 62
     7
100
AcDbLine
 10
66.1067547695
 20
385.8145139564
 30
0.0
 11
66.5842534551
 21
385.8145139564
 31
0.0
  0
LINE
  5
16A
330
75
100
AcDbEntity
  8
$DDT_AUDIT_GENERATED_(9C)
  6
Continuous
 62
     7
100
AcDbLine
 10
63.7067547695
 20
390.5711422681
 30
0.0
 11
63.7067547695
 21
391.2139298778
 31
0.0
  0
LINE
  5
16B
330
75
100
AcDbEntity
  8
$DDT_AUDIT_GENERATED_(9C)
  6
Continuous
 62
     7
100
AcDbLine
 10
63.5067547695
 20
390.5711422681
 30
0.0
 11
62.5067547695
 21
390.5711422681
 31
0.0
  0
LINE
  5
16C
330
75
100
AcDbEntity
  8
$DDT_AUDIT_GENERATED_(9C)
  6
Continuous
 62
     7
100
AcDbLine
 10
62.5067547695
 20
390.5711422681
 30
0.0
 11
62.5067547695
 21
391.2139298778
 31
0.0
  0
LINE
  5
16D
330
75
100
AcDbEntity
  8
$DDT_AUDIT_GENERATED_(9C)
  6
Continuous
 62
     7
100
AcDbLine
 10
63.5067547695
 20
391.2139298778
 30
0.0
 11
63.5067547695
 21
390.5711422681
 31
0.0
  0
LINE
  5
16E
330
75
100
AcDbEntity
  8
$DDT_AUDIT_GENERATED_(9C)
  6
Continuous
 62
     7
100
AcDbLine
 10
62.3067547695
 20
390.5711422681
 30
0.0
 11
61.3067547695
 21
390.5711422681
 31
0.0
  0
LINE
  5
16F
330
75
100
AcDbEntity
  8
$DDT_AUDIT_GENERATED_(9C)
  6
Continuous
 62
     7
100
AcDbLine
 10
61.3067547695
 20
390.5711422681
 30
0.0
 11
61.3067547695
 21
391.2139298778
 31
0.0
  0
LINE
  5
170
330
75
100
AcDbEntity
  8
$DDT_AUDIT_GENERATED_(9C)
  6
Continuous
 62
     7
100
AcDbLine
 10
62.3067547695
 20
391.2139298778
 30
0.0
 11
62.3067547695
 21
390.5711422681
 31
0.0
  0
LINE
  5
171
330
75
100
AcDbEntity
  8
$DDT_AUDIT_GENERATED_(9C)
  6
Continuous
 62
     7
100
AcDbLine
 10
61.1067547695
 20
390.5711422681
 30
0.0
 11
60.1067547695
 21
390.5711422681
 31
0.0
  0
LINE
  5
172
330
75
100
AcDbEntity
  8
$DDT_AUDIT_GENERATED_(9C)
  6
Continuous
 62
     7
100
AcDbLine
 10
60.1067547695
 20
390.5711422681
 30
0.0
 11
60.1067547695
 21
391.2139298778
 31
0.0
  0
LINE
  5
173
330
75
100
AcDbEntity
  8
$DDT_AUDIT_GENERATED_(9C)
  6
Continuous
 62
     7
100
AcDbLine
 10
61.1067547695
 20
391.2139298778
 30
0.0
 11
61.1067547695
 21
390.5711422681
 31
0.0
  0
LINE
  5
174
330
75
100
AcDbEntity
  8
$DDT_AUDIT_GENERATED_(9C)
  6
Continuous
 62
     7
100
AcDbLine
 10
59.9067547695
 20
390.5711422681
 30
0.0
 11
58.9067547695
 21
390.5711422681
 31
0.0
  0
LINE
  5
175
330
75
100
AcDbEntity
  8
$DDT_AUDIT_GENERATED_(9C)
  6
Continuous
 62
     7
100
AcDbLine
 10
58.9067547695
 20
390.5711422681
 30
0.0
 11
58.9067547695
 21
391.2139298778
 31
0.0
  0
LINE
  5
176
330
75
100
AcDbEntity
  8
$DDT_AUDIT_GENERATED_(9C)
  6
Continuous
 62
     7
100
AcDbLine
 10
59.9067547695
 20
391.2139298778
 30
0.0
 11
59.9067547695
 21
390.5711422681
 31
0.0
  0
LINE
  5
177
330
75
100
AcDbEntity
  8
$DDT_AUDIT_GENERATED_(9C)
  6
Continuous
 62
     7
100
AcDbLine
 10
58.7067547695
 20
390.5711422681
 30
0.0
 11
57.7067547695
 21
390.5711422681
 31
0.0
  0
LINE
  5
178
330
75
100
AcDbEntity
  8
$DDT_AUDIT_GENERATED_(9C)
  6
Continuous
 62
     7
100
AcDbLine
 10
57.7067547695
 20
390.5711422681
 30
0.0
 11
57.7067547695
 21
391.2139298778
 31
0.0
  0
LINE
  5
179
330
75
100
AcDbEntity
  8
$DDT_AUDIT_GENERATED_(9C)
  6
Continuous
 62
     7
100
AcDbLine
 10
58.7067547695
 20
391.2139298778
 30
0.0
 11
58.7067547695
 21
390.5711422681
 31
0.0
  0
LINE
  5
17A
330
75
100
AcDbEntity
  8
$DDT_AUDIT_GENERATED_(9C)
  6
Continuous
 62
     7
100
AcDbLine
 10
56.5067547695
 20
390.5711422681
 30
0.0
 11
56.5067547695
 21
391.2139298778
 31
0.0
  0
LINE
  5
17B
330
75
100
AcDbEntity
  8
$DDT_AUDIT_GENERATED_(9C)
  6
Continuous
 62
     7
100
AcDbLine
 10
57.5067547695
 20
390.5711422681
 30
0.0
 11
56.5067547695
 21
390.5711422681
 31
0.0
  0
LINE
  5
17C
330
75
100
AcDbEntity
  8
$DDT_AUDIT_GENERATED_(9C)
  6
Continuous
 62
     7
100
AcDbLine
 10
57.5067547695
 20
391.2139298778
 30
0.0
 11
57.5067547695
 21
390.5711422681
 31
0.0
  0
LINE
  5
17D
330
75
100
AcDbEntity
  8
$DDT_AUDIT_GENERATED_(9C)
  6
Continuous
 62
     7
100
AcDbLine
 10
63.7067547695
 20
389.7997971364
 30
0.0
 11
63.7067547695
 21
390.4425847461
 31
0.0
  0
LINE
  5
17E
330
75
100
AcDbEntity
  8
$DDT_AUDIT_GENERATED_(9C)
  6
Continuous
 62
     7
100
AcDbLine
 10
63.5067547695
 20
389.7997971364
 30
0.0
 11
62.5067547695
 21
389.7997971364
 31
0.0
  0
LINE
  5
17F
330
75
100
AcDbEntity
  8
$DDT_AUDIT_GENERATED_(9C)
  6
Continuous
 62
     7
100
AcDbLine
 10
62.5067547695
 20
389.7997971364
 30
0.0
 11
62.5067547695
 21
390.4425847461
 31
0.0
  0
LINE
  5
180
330
75
100
AcDbEntity
  8
$DDT_AUDIT_GENERATED_(9C)
  6
Continuous
 62
     7
100
AcDbLine
 10
62.5067547695
 20
390.4425847461
 30
0.0
 11
63.5067547695
 21
390.4425847461
 31
0.0
  0
LINE
  5
181
330
75
100
AcDbEntity
  8
$DDT_AUDIT_GENERATED_(9C)
  6
Continuous
 62
     7
100
AcDbLine
 10
63.5067547695
 20
390.4425847461
 30
0.0
 11
63.5067547695
 21
389.7997971364
 31
0.0
  0
LINE
  5
182
330
75
100
AcDbEntity
  8
$DDT_AUDIT_GENERATED_(9C)
  6
Continuous
 62
     7
100
AcDbLine
 10
62.3067547695
 20
389.7997971364
 30
0.0
 11
61.3067547695
 21
389.7997971364
 31
0.0
  0
LINE
  5
183
330
75
100
AcDbEntity
  8
$DDT_AUDIT_GENERATED_(9C)
  6
Continuous
 62
     7
100
AcDbLine
 10
61.3067547695
 20
389.7997971364
 30
0.0
 11
61.3067547695
 21
390.4425847461
 31
0.0
  0
LINE
  5
184
330
75
100
AcDbEntity
  8
$DDT_AUDIT_GENERATED_(9C)
  6
Continuous
 62
     7
100
AcDbLine
 10
61.3067547695
 20
390.4425847461
 30
0.0
 11
62.3067547695
 21
390.4425847461
 31
0.0
  0
LINE
  5
185
330
75
100
AcDbEntity
  8
$DDT_AUDIT_GENERATED_(9C)
  6
Continuous
 62
     7
100
AcDbLine
 10
62.3067547695
 20
390.4425847461
 30
0.0
 11
62.3067547695
 21
389.7997971364
 31
0.0
  0
LINE
  5
186
330
75
100
AcDbEntity
  8
$DDT_AUDIT_GENERATED_(9C)
  6
Continuous
 62
     7
100
AcDbLine
 10
61.1067547695
 20
389.7997971364
 30
0.0
 11
60.1067547695
 21
389.7997971364
 31
0.0
  0
LINE
  5
187
330
75
100
AcDbEntity
  8
$DDT_AUDIT_GENERATED_(9C)
  6
Continuous
 62
     7
100
AcDbLine
 10
60.1067547695
 20
389.7997971364
 30
0.0
 11
60.1067547695
 21
390.4425847461
 31
0.0
  0
LINE
  5
188
330
75
100
AcDbEntity
  8
$DDT_AUDIT_GENERATED_(9C)
  6
Continuous
 62
     7
100
AcDbLine
 10
60.1067547695
 20
390.4425847461
 30
0.0
 11
61.1067547695
 21
390.4425847461
 31
0.0
  0
LINE
  5
189
330
75
100
AcDbEntity
  8
$DDT_AUDIT_GENERATED_(9C)
  6
Continuous
 62
     7
100
AcDbLine
 10
61.1067547695
 20
390.4425847461
 30
0.0
 11
61.1067547695
 21
389.7997971364
 31
0.0
  0
LINE
  5
18A
330
75
100
AcDbEntity
  8
$DDT_AUDIT_GENERATED_(9C)
  6
Continuous
 62
     7
100
AcDbLine
 10
59.9067547695
 20
389.7997971364
 30
0.0
 11
58.9067547695
 21
389.7997971364
 31
0.0
  0
LINE
  5
18B
330
75
100
AcDbEntity
  8
$DDT_AUDIT_GENERATED_(9C)
  6
Continuous
 62
     7
100
AcDbLine
 10
58.9067547695
 20
389.7997971364
 30
0.0
 11
58.9067547695
 21
390.4425847461
 31
0.0
  0
LINE
  5
18C
330
75
100
AcDbEntity
  8
$DDT_AUDIT_GENERATED_(9C)
  6
Continuous
 62
     7
100
AcDbLine
 10
58.9067547695
 20
390.4425847461
 30
0.0
 11
59.9067547695
 21
390.4425847461
 31
0.0
  0
LINE
  5
18D
330
75
100
AcDbEntity
  8
$DDT_AUDIT_GENERATED_(9C)
  6
Continuous
 62
     7
100
AcDbLine
 10
59.9067547695
 20
390.4425847461
 30
0.0
 11
59.9067547695
 21
389.7997971364
 31
0.0
  0
LINE
  5
18E
330
75
100
AcDbEntity
  8
$DDT_AUDIT_GENERATED_(9C)
  6
Continuous
 62
     7
100
AcDbLine
 10
58.7067547695
 20
389.7997971364
 30
0.0
 11
57.7067547695
 21
389.7997971364
 31
0.0
  0
LINE
  5
18F
330
75
100
AcDbEntity
  8
$DDT_AUDIT_GENERATED_(9C)
  6
Continuous
 62
     7
100
AcDbLine
 10
57.7067547695
 20
389.7997971364
 30
0.0
 11
57.7067547695
 21
390.4425847461
 31
0.0
  0
LINE
  5
190
330
75
100
AcDbEntity
  8
$DDT_AUDIT_GENERATED_(9C)
  6
Continuous
 62
     7
100
AcDbLine
 10
57.7067547695
 20
390.4425847461
 30
0.0
 11
58.7067547695
 21
390.4425847461
 31
0.0
  0
LINE
  5
191
330
75
100
AcDbEntity
  8
$DDT_AUDIT_GENERATED_(9C)
  6
Continuous
 62
     7
100
AcDbLine
 10
58.7067547695
 20
390.4425847461
 30
0.0
 11
58.7067547695
 21
389.7997971364
 31
0.0
  0
LINE
  5
192
330
75
100
AcDbEntity
  8
$DDT_AUDIT_GENERATED_(9C)
  6
Continuous
 62
     7
100
AcDbLine
 10
57.5067547695
 20
389.7997971364
 30
0.0
 11
56.5067547695
 21
389.7997971364
 31
0.0
  0
LINE
  5
193
330
75
100
AcDbEntity
  8
$DDT_AUDIT_GENERATED_(9C)
  6
Continuous
 62
     7
100
AcDbLine
 10
56.5067547695
 20
389.7997971364
 30
0.0
 11
56.5067547695
 21
390.4425847461
 31
0.0
  0
LINE
  5
194
330
75
100
AcDbEntity
  8
$DDT_AUDIT_GENERATED_(9C)
  6
Continuous
 62
     7
100
AcDbLine
 10
56.5067547695
 20
390.4425847461
 30
0.0
 11
57.5067547695
 21
390.4425847461
 31
0.0
  0
LINE
  5
195
330
75
100
AcDbEntity
  8
$DDT_AUDIT_GENERATED_(9C)
  6
Continuous
 62
     7
100
AcDbLine
 10
57.5067547695
 20
390.4425847461
 30
0.0
 11
57.5067547695
 21
389.7997971364
 31
0.0
  0
LINE
  5
196
330
75
100
AcDbEntity
  8
$DDT_AUDIT_GENERATED_(9C)
  6
Continuous
 62
     7
100
AcDbLine
 10
63.7067547695
 20
389.0284520048
 30
0.0
 11
63.7067547695
 21
389.6712396145
 31
0.0
  0
LINE
  5
197
330
75
100
AcDbEntity
  8
$DDT_AUDIT_GENERATED_(9C)
  6
Continuous
 62
     7
100
AcDbLine
 10
63.5067547695
 20
389.0284520048
 30
0.0
 11
62.5067547695
 21
389.0284520048
 31
0.0
  0
LINE
  5
198
330
75
100
AcDbEntity
  8
$DDT_AUDIT_GENERATED_(9C)
  6
Continuous
 62
     7
100
AcDbLine
 10
62.5067547695
 20
389.0284520048
 30
0.0
 11
62.5067547695
 21
389.6712396145
 31
0.0
  0
LINE
  5
199
330
75
100
AcDbEntity
  8
$DDT_AUDIT_GENERATED_(9C)
  6
Continuous
 62
     7
100
AcDbLine
 10
62.5067547695
 20
389.6712396145
 30
0.0
 11
63.5067547695
 21
389.6712396145
 31
0.0
  0
LINE
  5
19A
330
75
100
AcDbEntity
  8
$DDT_AUDIT_GENERATED_(9C)
  6
Continuous
 62
     7
100
AcDbLine
 10
63.5067547695
 20
389.6712396145
 30
0.0
 11
63.5067547695
 21
389.0284520048
 31
0.0
  0
LINE
  5
19B
330
75
100
AcDbEntity
  8
$DDT_AUDIT_GENERATED_(9C)
  6
Continuous
 62
     7
100
AcDbLine
 10
62.3067547695
 20
389.0284520048
 30
0.0
 11
61.3067547695
 21
389.0284520048
 31
0.0
  0
LINE
  5
19C
330
75
100
AcDbEntity
  8
$DDT_AUDIT_GENERATED_(9C)
  6
Continuous
 62
     7
100
AcDbLine
 10
61.3067547695
 20
389.0284520048
 30
0.0
 11
61.3067547695
 21
389.6712396145
 31
0.0
  0
LINE
  5
19D
330
75
100
AcDbEntity
  8
$DDT_AUDIT_GENERATED_(9C)
  6
Continuous
 62
     7
100
AcDbLine
 10
61.3067547695
 20
389.6712396145
 30
0.0
 11
62.3067547695
 21
389.6712396145
 31
0.0
  0
LINE
  5
19E
330
75
100
AcDbEntity
  8
$DDT_AUDIT_GENERATED_(9C)
  6
Continuous
 62
     7
100
AcDbLine
 10
62.3067547695
 20
389.6712396145
 30
0.0
 11
62.3067547695
 21
389.0284520048
 31
0.0
  0
LINE
  5
19F
330
75
100
AcDbEntity
  8
$DDT_AUDIT_GENERATED_(9C)
  6
Continuous
 62
     7
100
AcDbLine
 10
61.1067547695
 20
389.0284520048
 30
0.0
 11
60.1067547695
 21
389.0284520048
 31
0.0
  0
LINE
  5
1A0
330
75
100
AcDbEntity
  8
$DDT_AUDIT_GENERATED_(9C)
  6
Continuous
 62
     7
100
AcDbLine
 10
60.1067547695
 20
389.0284520048
 30
0.0
 11
60.1067547695
 21
389.6712396145
 31
0.0
  0
LINE
  5
1A1
330
75
100
AcDbEntity
  8
$DDT_AUDIT_GENERATED_(9C)
  6
Continuous
 62
     7
100
AcDbLine
 10
60.1067547695
 20
389.6712396145
 30
0.0
 11
61.1067547695
 21
389.6712396145
 31
0.0
  0
LINE
  5
1A2
330
75
100
AcDbEntity
  8
$DDT_AUDIT_GENERATED_(9C)
  6
Continuous
 62
     7
100
AcDbLine
 10
61.1067547695
 20
389.6712396145
 30
0.0
 11
61.1067547695
 21
389.0284520048
 31
0.0
  0
LINE
  5
1A3
330
75
100
AcDbEntity
  8
$DDT_AUDIT_GENERATED_(9C)
  6
Continuous
 62
     7
100
AcDbLine
 10
59.9067547695
 20
389.0284520048
 30
0.0
 11
58.9067547695
 21
389.0284520048
 31
0.0
  0
LINE
  5
1A4
330
75
100
AcDbEntity
  8
$DDT_AUDIT_GENERATED_(9C)
  6
Continuous
 62
     7
100
AcDbLine
 10
58.9067547695
 20
389.0284520048
 30
0.0
 11
58.9067547695
 21
389.6712396145
 31
0.0
  0
LINE
  5
1A5
330
75
100
AcDbEntity
  8
$DDT_AUDIT_GENERATED_(9C)
  6
Continuous
 62
     7
100
AcDbLine
 10
58.9067547695
 20
389.6712396145
 30
0.0
 11
59.9067547695
 21
389.6712396145
 31
0.0
  0
LINE
  5
1A6
330
75
100
AcDbEntity
  8
$DDT_AUDIT_GENERATED_(9C)
  6
Continuous
 62
     7
100
AcDbLine
 10
59.9067547695
 20
389.6712396145
 30
0.0
 11
59.9067547695
 21
389.0284520048
 31
0.0
  0
LINE
  5
1A7
330
75
100
AcDbEntity
  8
$DDT_AUDIT_GENERATED_(9C)
  6
Continuous
 62
     7
100
AcDbLine
 10
58.7067547695
 20
389.0284520048
 30
0.0
 11
57.7067547695
 21
389.0284520048
 31
0.0
  0
LINE
  5
1A8
330
75
100
AcDbEntity
  8
$DDT_AUDIT_GENERATED_(9C)
  6
Continuous
 62
     7
100
AcDbLine
 10
57.7067547695
 20
389.0284520048
 30
0.0
 11
57.7067547695
 21
389.6712396145
 31
0.0
  0
LINE
  5
1A9
330
75
100
AcDbEntity
  8
$DDT_AUDIT_GENERATED_(9C)
  6
Continuous
 62
     7
100
AcDbLine
 10
57.7067547695
 20
389.6712396145
 30
0.0
 11
58.7067547695
 21
389.6712396145
 31
0.0
  0
LINE
  5
1AA
330
75
100
AcDbEntity
  8
$DDT_AUDIT_GENERATED_(9C)
  6
Continuous
 62
     7
100
AcDbLine
 10
58.7067547695
 20
389.6712396145
 30
0.0
 11
58.7067547695
 21
389.0284520048
 31
0.0
  0
LINE
  5
1AB
330
75
100
AcDbEntity
  8
$DDT_AUDIT_GENERATED_(9C)
  6
Continuous
 62
     7
100
AcDbLine
 10
63.7067547695
 20
388.2571068732
 30
0.0
 11
63.7067547695
 21
388.8998944829
 31
0.0
  0
LINE
  5
1AC
330
75
100
AcDbEntity
  8
$DDT_AUDIT_GENERATED_(9C)
  6
Continuous
 62
     7
100
AcDbLine
 10
63.5067547695
 20
388.2571068732
 30
0.0
 11
62.5067547695
 21
388.2571068732
 31
0.0
  0
LINE
  5
1AD
330
75
100
AcDbEntity
  8
$DDT_AUDIT_GENERATED_(9C)
  6
Continuous
 62
     7
100
AcDbLine
 10
62.5067547695
 20
388.2571068732
 30
0.0
 11
62.5067547695
 21
388.8998944829
 31
0.0
  0
LINE
  5
1AE
330
75
100
AcDbEntity
  8
$DDT_AUDIT_GENERATED_(9C)
  6
Continuous
 62
     7
100
AcDbLine
 10
62.5067547695
 20
388.8998944829
 30
0.0
 11
63.5067547695
 21
388.8998944829
 31
0.0
  0
LINE
  5
1AF
330
75
100
AcDbEntity
  8
$DDT_AUDIT_GENERATED_(9C)
  6
Continuous
 62
     7
100
AcDbLine
 10
63.5067547695
 20
388.8998944829
 30
0.0
 11
63.5067547695
 21
388.2571068732
 31
0.0
  0
LINE
  5
1B0
330
75
100
AcDbEntity
  8
$DDT_AUDIT_GENERATED_(9C)
  6
Continuous
 62
     7
100
AcDbLine
 10
62.3067547695
 20
388.2571068732
 30
0.0
 11
61.3067547695
 21
388.2571068732
 31
0.0
  0
LINE
  5
1B1
330
75
100
AcDbEntity
  8
$DDT_AUDIT_GENERATED_(9C)
  6
Continuous
 62
     7
100
AcDbLine
 10
61.3067547695
 20
388.2571068732
 30
0.0
 11
61.3067547695
 21
388.8998944829
 31
0.0
  0
LINE
  5
1B2
330
75
100
AcDbEntity
  8
$DDT_AUDIT_GENERATED_(9C)
  6
Continuous
 62
     7
100
AcDbLine
 10
61.3067547695
 20
388.8998944829
 30
0.0
 11
62.3067547695
 21
388.8998944829
 31
0.0
  0
LINE
  5
1B3
330
75
100
AcDbEntity
  8
$DDT_AUDIT_GENERATED_(9C)
  6
Continuous
 62
     7
100
AcDbLine
 10
62.3067547695
 20
388.8998944829
 30
0.0
 11
62.3067547695
 21
388.2571068732
 31
0.0
  0
LINE
  5
1B4
330
75
100
AcDbEntity
  8
$DDT_AUDIT_GENERATED_(9C)
  6
Continuous
 62
     7
100
AcDbLine
 10
61.1067547695
 20
388.2571068732
 30
0.0
 11
60.1067547695
 21
388.2571068732
 31
0.0
  0
LINE
  5
1B5
330
75
100
AcDbEntity
  8
$DDT_AUDIT_GENERATED_(9C)
  6
Continuous
 62
     7
100
AcDbLine
 10
60.1067547695
 20
388.2571068732
 30
0.0
 11
60.1067547695
 21
388.8998944829
 31
0.0
  0
LINE
  5
1B6
330
75
100
AcDbEntity
  8
$DDT_AUDIT_GENERATED_(9C)
  6
Continuous
 62
     7
100
AcDbLine
 10
60.1067547695
 20
388.8998944829
 30
0.0
 11
61.1067547695
 21
388.8998944829
 31
0.0
  0
LINE
  5
1B7
330
75
100
AcDbEntity
  8
$DDT_AUDIT_GENERATED_(9C)
  6
Continuous
 62
     7
100
AcDbLine
 10
61.1067547695
 20
388.8998944829
 30
0.0
 11
61.1067547695
 21
388.2571068732
 31
0.0
  0
LINE
  5
1B8
330
75
100
AcDbEntity
  8
$DDT_AUDIT_GENERATED_(9C)
  6
Continuous
 62
     7
100
AcDbLine
 10
59.9067547695
 20
388.2571068732
 30
0.0
 11
58.9067547695
 21
388.2571068732
 31
0.0
  0
LINE
  5
1B9
330
75
100
AcDbEntity
  8
$DDT_AUDIT_GENERATED_(9C)
  6
Continuous
 62
     7
100
AcDbLine
 10
58.9067547695
 20
388.2571068732
 30
0.0
 11
58.9067547695
 21
388.8998944829
 31
0.0
  0
LINE
  5
1BA
330
75
100
AcDbEntity
  8
$DDT_AUDIT_GENERATED_(9C)
  6
Continuous
 62
     7
100
AcDbLine
 10
58.9067547695
 20
388.8998944829
 30
0.0
 11
59.9067547695
 21
388.8998944829
 31
0.0
  0
LINE
  5
1BB
330
75
100
AcDbEntity
  8
$DDT_AUDIT_GENERATED_(9C)
  6
Continuous
 62
     7
100
AcDbLine
 10
59.9067547695
 20
388.8998944829
 30
0.0
 11
59.9067547695
 21
388.2571068732
 31
0.0
  0
LINE
  5
1BC
330
75
100
AcDbEntity
  8
$DDT_AUDIT_GENERATED_(9C)
  6
Continuous
 62
     7
100
AcDbLine
 10
57.7067547695
 20
388.2571068732
 30
0.0
 11
57.7067547695
 21
388.8998944829
 31
0.0
  0
LINE
  5
1BD
330
75
100
AcDbEntity
  8
$DDT_AUDIT_GENERATED_(9C)
  6
Continuous
 62
     7
100
AcDbLine
 10
58.7067547695
 20
388.2571068732
 30
0.0
 11
57.7067547695
 21
388.2571068732
 31
0.0
  0
LINE
  5
1BE
330
75
100
AcDbEntity
  8
$DDT_AUDIT_GENERATED_(9C)
  6
Continuous
 62
     7
100
AcDbLine
 10
57.7067547695
 20
388.8998944829
 30
0.0
 11
58.7067547695
 21
388.8998944829
 31
0.0
  0
LINE
  5
1BF
330
75
100
AcDbEntity
  8
$DDT_AUDIT_GENERATED_(9C)
  6
Continuous
 62
     7
100
AcDbLine
 10
58.7067547695
 20
388.8998944829
 30
0.0
 11
58.7067547695
 21
388.2571068732
 31
0.0
  0
LINE
  5
1C0
330
75
100
AcDbEntity
  8
$DDT_AUDIT_GENERATED_(9C)
  6
Continuous
 62
     7
100
AcDbLine
 10
63.7067547695
 20
387.4857617416
 30
0.0
 11
63.7067547695
 21
388.1285493513
 31
0.0
  0
LINE
  5
1C1
330
75
100
AcDbEntity
  8
$DDT_AUDIT_GENERATED_(9C)
  6
Continuous
 62
     7
100
AcDbLine
 10
63.5067547695
 20
387.4857617416
 30
0.0
 11
62.5067547695
 21
387.4857617416
 31
0.0
  0
LINE
  5
1C2
330
75
100
AcDbEntity
  8
$DDT_AUDIT_GENERATED_(9C)
  6
Continuous
 62
     7
100
AcDbLine
 10
62.5067547695
 20
387.4857617416
 30
0.0
 11
62.5067547695
 21
388.1285493513
 31
0.0
  0
LINE
  5
1C3
330
75
100
AcDbEntity
  8
$DDT_AUDIT_GENERATED_(9C)
  6
Continuous
 62
     7
100
AcDbLine
 10
62.5067547695
 20
388.1285493513
 30
0.0
 11
63.5067547695
 21
388.1285493513
 31
0.0
  0
LINE
  5
1C4
330
75
100
AcDbEntity
  8
$DDT_AUDIT_GENERATED_(9C)
  6
Continuous
 62
     7
100
AcDbLine
 10
63.5067547695
 20
388.1285493513
 30
0.0
 11
63.5067547695
 21
387.4857617416
 31
0.0
  0
LINE
  5
1C5
330
75
100
AcDbEntity
  8
$DDT_AUDIT_GENERATED_(9C)
  6
Continuous
 62
     7
100
AcDbLine
 10
62.3067547695
 20
387.4857617416
 30
0.0
 11
61.3067547695
 21
387.4857617416
 31
0.0
  0
LINE
  5
1C6
330
75
100
AcDbEntity
  8
$DDT_AUDIT_GENERATED_(9C)
  6
Continuous
 62
     7
100
AcDbLine
 10
61.3067547695
 20
387.4857617416
 30
0.0
 11
61.3067547695
 21
388.1285493513
 31
0.0
  0
LINE
  5
1C7
330
75
100
AcDbEntity
  8
$DDT_AUDIT_GENERATED_(9C)
  6
Continuous
 62
     7
100
AcDbLine
 10
61.3067547695
 20
388.1285493513
 30
0.0
 11
62.3067547695
 21
388.1285493513
 31
0.0
  0
LINE
  5
1C8
330
75
100
AcDbEntity
  8
$DDT_AUDIT_GENERATED_(9C)
  6
Continuous
 62
     7
100
AcDbLine
 10
62.3067547695
 20
388.1285493513
 30
0.0
 11
62.3067547695
 21
387.4857617416
 31
0.0
  0
LINE
  5
1C9
330
75
100
AcDbEntity
  8
$DDT_AUDIT_GENERATED_(9C)
  6
Continuous
 62
     7
100
AcDbLine
 10
61.1067547695
 20
387.4857617416
 30
0.0
 11
60.1067547695
 21
387.4857617416
 31
0.0
  0
LINE
  5
1CA
330
75
100
AcDbEntity
  8
$DDT_AUDIT_GENERATED_(9C)
  6
Continuous
 62
     7
100
AcDbLine
 10
60.1067547695
 20
387.4857617416
 30
0.0
 11
60.1067547695
 21
388.1285493513
 31
0.0
  0
LINE
  5
1CB
330
75
100
AcDbEntity
  8
$DDT_AUDIT_GENERATED_(9C)
  6
Continuous
 62
     7
100
AcDbLine
 10
60.1067547695
 20
388.1285493513
 30
0.0
 11
61.1067547695
 21
388.1285493513
 31
0.0
  0
LINE
  5
1CC
330
75
100
AcDbEntity
  8
$DDT_AUDIT_GENERATED_(9C)
  6
Continuous
 62
     7
100
AcDbLine
 10
61.1067547695
 20
388.1285493513
 30
0.0
 11
61.1067547695
 21
387.4857617416
 31
0.0
  0
LINE
  5
1CD
330
75
100
AcDbEntity
  8
$DDT_AUDIT_GENERATED_(9C)
  6
Continuous
 62
     7
100
AcDbLine
 10
59.9067547695
 20
387.4857617416
 30
0.0
 11
58.9067547695
 21
387.4857617416
 31
0.0
  0
LINE
  5
1CE
330
75
100
AcDbEntity
  8
$DDT_AUDIT_GENERATED_(9C)
  6
Continuous
 62
     7
100
AcDbLine
 10
58.9067547695
 20
387.4857617416
 30
0.0
 11
58.9067547695
 21
388.1285493513
 31
0.0
  0
LINE
  5
1CF
330
75
100
AcDbEntity
  8
$DDT_AUDIT_GENERATED_(9C)
  6
Continuous
 62
     7
100
AcDbLine
 10
58.9067547695
 20
388.1285493513
 30
0.0
 11
59.9067547695
 21
388.1285493513
 31
0.0
  0
LINE
  5
1D0
330
75
100
AcDbEntity
  8
$DDT_AUDIT_GENERATED_(9C)
  6
Continuous
 62
     7
100
AcDbLine
 10
59.9067547695
 20
388.1285493513
 30
0.0
 11
59.9067547695
 21
387.4857617416
 31
0.0
  0
LINE
  5
1D1
330
75
100
AcDbEntity
  8
$DDT_AUDIT_GENERATED_(9C)
  6
Continuous
 62
     7
100
AcDbLine
 10
63.7067547695
 20
386.71441661
 30
0.0
 11
63.7067547695
 21
387.3572042196
 31
0.0
  0
LINE
  5
1D2
330
75
100
AcDbEntity
  8
$DDT_AUDIT_GENERATED_(9C)
  6
Continuous
 62
     7
100
AcDbLine
 10
63.5067547695
 20
386.71441661
 30
0.0
 11
62.5067547695
 21
386.71441661
 31
0.0
  0
LINE
  5
1D3
330
75
100
AcDbEntity
  8
$DDT_AUDIT_GENERATED_(9C)
  6
Continuous
 62
     7
100
AcDbLine
 10
62.5067547695
 20
386.71441661
 30
0.0
 11
62.5067547695
 21
387.3572042196
 31
0.0
  0
LINE
  5
1D4
330
75
100
AcDbEntity
  8
$DDT_AUDIT_GENERATED_(9C)
  6
Continuous
 62
     7
100
AcDbLine
 10
62.5067547695
 20
387.3572042196
 30
0.0
 11
63.5067547695
 21
387.3572042196
 31
0.0
  0
LINE
  5
1D5
330
75
100
AcDbEntity
  8
$DDT_AUDIT_GENERATED_(9C)
  6
Continuous
 62
     7
100
AcDbLine
 10
63.5067547695
 20
387.3572042196
 30
0.0
 11
63.5067547695
 21
386.71441661
 31
0.0
  0
LINE
  5
1D6
330
75
100
AcDbEntity
  8
$DDT_AUDIT_GENERATED_(9C)
  6
Continuous
 62
     7
100
AcDbLine
 10
62.3067547695
 20
386.71441661
 30
0.0
 11
61.3067547695
 21
386.71441661
 31
0.0
  0
LINE
  5
1D7
330
75
100
AcDbEntity
  8
$DDT_AUDIT_GENERATED_(9C)
  6
Continuous
 62
     7
100
AcDbLine
 10
61.3067547695
 20
386.71441661
 30
0.0
 11
61.3067547695
 21
387.3572042196
 31
0.0
  0
LINE
  5
1D8
330
75
100
AcDbEntity
  8
$DDT_AUDIT_GENERATED_(9C)
  6
Continuous
 62
     7
100
AcDbLine
 10
61.3067547695
 20
387.3572042196
 30
0.0
 11
62.3067547695
 21
387.3572042196
 31
0.0
  0
LINE
  5
1D9
330
75
100
AcDbEntity
  8
$DDT_AUDIT_GENERATED_(9C)
  6
Continuous
 62
     7
100
AcDbLine
 10
62.3067547695
 20
387.3572042196
 30
0.0
 11
62.3067547695
 21
386.71441661
 31
0.0
  0
LINE
  5
1DA
330
75
100
AcDbEntity
  8
$DDT_AUDIT_GENERATED_(9C)
  6
Continuous
 62
     7
100
AcDbLine
 10
61.1067547695
 20
386.71441661
 30
0.0
 11
60.1067547695
 21
386.71441661
 31
0.0
  0
LINE
  5
1DB
330
75
100
AcDbEntity
  8
$DDT_AUDIT_GENERATED_(9C)
  6
Continuous
 62
     7
100
AcDbLine
 10
60.1067547695
 20
386.71441661
 30
0.0
 11
60.1067547695
 21
387.3572042196
 31
0.0
  0
LINE
  5
1DC
330
75
100
AcDbEntity
  8
$DDT_AUDIT_GENERATED_(9C)
  6
Continuous
 62
     7
100
AcDbLine
 10
60.1067547695
 20
387.3572042196
 30
0.0
 11
61.1067547695
 21
387.3572042196
 31
0.0
  0
LINE
  5
1DD
330
75
100
AcDbEntity
  8
$DDT_AUDIT_GENERATED_(9C)
  6
Continuous
 62
     7
100
AcDbLine
 10
61.1067547695
 20
387.3572042196
 30
0.0
 11
61.1067547695
 21
386.71441661
 31
0.0
  0
LINE
  5
1DE
330
75
100
AcDbEntity
  8
$DDT_AUDIT_GENERATED_(9C)
  6
Continuous
 62
     7
100
AcDbLine
 10
63.7067547695
 20
385.9430714783
 30
0.0
 11
63.7067547695
 21
386.585859088
 31
0.0
  0
LINE
  5
1DF
330
75
100
AcDbEntity
  8
$DDT_AUDIT_GENERATED_(9C)
  6
Continuous
 62
     7
100
AcDbLine
 10
63.5067547695
 20
385.9430714783
 30
0.0
 11
62.5067547695
 21
385.9430714783
 31
0.0
  0
LINE
  5
1E0
330
75
100
AcDbEntity
  8
$DDT_AUDIT_GENERATED_(9C)
  6
Continuous
 62
     7
100
AcDbLine
 10
62.5067547695
 20
385.9430714783
 30
0.0
 11
62.5067547695
 21
386.585859088
 31
0.0
  0
LINE
  5
1E1
330
75
100
AcDbEntity
  8
$DDT_AUDIT_GENERATED_(9C)
  6
Continuous
 62
     7
100
AcDbLine
 10
62.5067547695
 20
386.585859088
 30
0.0
 11
63.5067547695
 21
386.585859088
 31
0.0
  0
LINE
  5
1E2
330
75
100
AcDbEntity
  8
$DDT_AUDIT_GENERATED_(9C)
  6
Continuous
 62
     7
100
AcDbLine
 10
63.5067547695
 20
386.585859088
 30
0.0
 11
63.5067547695
 21
385.9430714783
 31
0.0
  0
LINE
  5
1E3
330
75
100
AcDbEntity
  8
$DDT_AUDIT_GENERATED_(9C)
  6
Continuous
 62
     7
100
AcDbLine
 10
62.3067547695
 20
385.9430714783
 30
0.0
 11
61.3067547695
 21
385.9430714783
 31
0.0
  0
LINE
  5
1E4
330
75
100
AcDbEntity
  8
$DDT_AUDIT_GENERATED_(9C)
  6
Continuous
 62
     7
100
AcDbLine
 10
61.3067547695
 20
385.9430714783
 30
0.0
 11
61.3067547695
 21
386.585859088
 31
0.0
  0
LINE
  5
1E5
330
75
100
AcDbEntity
  8
$DDT_AUDIT_GENERATED_(9C)
  6
Continuous
 62
     7
100
AcDbLine
 10
61.3067547695
 20
386.585859088
 30
0.0
 11
62.3067547695
 21
386.585859088
 31
0.0
  0
LINE
  5
1E6
330
75
100
AcDbEntity
  8
$DDT_AUDIT_GENERATED_(9C)
  6
Continuous
 62
     7
100
AcDbLine
 10
62.3067547695
 20
386.585859088
 30
0.0
 11
62.3067547695
 21
385.9430714783
 31
0.0
  0
LINE
  5
1E7
330
75
100
AcDbEntity
  8
$DDT_AUDIT_GENERATED_(9C)
  6
Continuous
 62
     7
100
AcDbLine
 10
63.7067547695
 20
385.5992864589
 30
0.0
 11
63.7067547695
 21
385.8145139564
 31
0.0
  0
ELLIPSE
  5
1E8
330
75
100
AcDbEntity
  8
$DDT_AUDIT_GENERATED_(9C)
  6
Continuous
 62
     7
100
AcDbEllipse
 10
64.2067547928
 20
390.8925362778
 30
0.0
 11
-8.250000160593983
 21
-2.561556522451269E-8
 31
0.0
210
0.0
220
0.0
230
1.0
 40
0.642787622
 41
1.485845699736544
 42
1.510153099120074
  0
LINE
  5
1E9
330
75
100
AcDbEntity
  8
$DDT_AUDIT_GENERATED_(9C)
  6
Continuous
 62
     7
100
AcDbLine
 10
62.5067547695
 20
385.7033447033
 30
0.0
 11
62.5067547695
 21
385.8145139564
 31
0.0
  0
LINE
  5
1EA
330
75
100
AcDbEntity
  8
$DDT_AUDIT_GENERATED_(9C)
  6
Continuous
 62
     7
100
AcDbLine
 10
62.5067547695
 20
385.8145139564
 30
0.0
 11
63.5067547695
 21
385.8145139564
 31
0.0
  0
LINE
  5
1EB
330
75
100
AcDbEntity
  8
$DDT_AUDIT_GENERATED_(9C)
  6
Continuous
 62
     7
100
AcDbLine
 10
63.5067547695
 20
385.8145139564
 30
0.0
 11
63.5067547695
 21
385.6086616178
 31
0.0
  0
ELLIPSE
  5
1EC
330
75
100
AcDbEntity
  8
$DDT_AUDIT_GENERATED_(9C)
  6
Continuous
 62
     7
100
AcDbEllipse
 10
64.2067548353
 20
390.8925362616
 30
0.0
 11
-8.250000157661155
 21
-7.035566573776464E-8
 31
0.0
210
0.0
220
0.0
230
1.0
 40
0.6427876203
 41
1.338407245154399
 42
1.363248866699525
  0
LINE
  5
1ED
330
75
100
AcDbEntity
  8
$DDT_AUDIT_GENERATED_(9C)
  6
Continuous
 62
     7
100
AcDbLine
 10
61.8292560839
 20
385.8145139564
 30
0.0
 11
62.3067547695
 21
385.8145139564
 31
0.0
  0
LINE
  5
1EE
330
75
100
AcDbEntity
  8
$DDT_AUDIT_GENERATED_(9C)
  6
Continuous
 62
     7
100
AcDbLine
 10
62.3067547695
 20
385.8145139564
 30
0.0
 11
62.3067547695
 21
385.7320883778
 31
0.0
  0
ELLIPSE
  5
1EF
330
75
100
AcDbEntity
  8
$DDT_AUDIT_GENERATED_(9C)
  6
Continuous
 62
     7
100
AcDbEllipse
 10
64.206754769
 20
390.892536072
 30
0.0
 11
-8.249999999124149
 21
5.409145353851841E-10
 31
0.0
210
0.0
220
0.0
230
1.0
 40
0.6427876096
 41
1.185582205200179
 42
1.278468933717821
  0
LINE
  5
1F0
330
75
100
AcDbEntity
  8
$DDT_AUDIT_GENERATED_(9C)
  6
Continuous
 62
     7
100
AcDbLine
 10
60.1067547695
 20
386.2907648501
 30
0.0
 11
60.1067547695
 21
386.585859088
 31
0.0
  0
LINE
  5
1F1
330
75
100
AcDbEntity
  8
$DDT_AUDIT_GENERATED_(9C)
  6
Continuous
 62
     7
100
AcDbLine
 10
60.1067547695
 20
386.585859088
 30
0.0
 11
61.1067547695
 21
386.585859088
 31
0.0
  0
LINE
  5
1F2
330
75
100
AcDbEntity
  8
$DDT_AUDIT_GENERATED_(9C)
  6
Continuous
 62
     7
100
AcDbLine
 10
61.1067547695
 20
386.585859088
 30
0.0
 11
61.1067547695
 21
385.9781525971
 31
0.0
  0
ELLIPSE
  5
1F3
330
75
100
AcDbEntity
  8
$DDT_AUDIT_GENERATED_(9C)
  6
Continuous
 62
     7
100
AcDbEllipse
 10
64.2067547628
 20
390.8925360672
 30
0.0
 11
-8.24999999243634
 21
5.847031192551811E-9
 31
0.0
210
0.0
220
0.0
230
1.0
 40
0.6427876096
 41
0.907356893326738
 42
0.9477783677680719
  0
LINE
  5
1F4
330
75
100
AcDbEntity
  8
$DDT_AUDIT_GENERATED_(9C)
  6
Continuous
 62
     7
100
AcDbLine
 10
58.9067547695
 20
386.8285879791
 30
0.0
 11
58.9067547695
 21
387.3572042196
 31
0.0
  0
LINE
  5
1F5
330
75
100
AcDbEntity
  8
$DDT_AUDIT_GENERATED_(9C)
  6
Continuous
 62
     7
100
AcDbLine
 10
58.9067547695
 20
387.3572042196
 30
0.0
 11
59.9067547695
 21
387.3572042196
 31
0.0
  0
LINE
  5
1F6
330
75
100
AcDbEntity
  8
$DDT_AUDIT_GENERATED_(9C)
  6
Continuous
 62
     7
100
AcDbLine
 10
59.9067547695
 20
387.3572042196
 30
0.0
 11
59.9067547695
 21
386.71441661
 31
0.0
  0
LINE
  5
1F7
330
75
100
AcDbEntity
  8
$DDT_AUDIT_GENERATED_(9C)
  6
Continuous
 62
     7
100
AcDbLine
 10
59.9067547695
 20
386.71441661
 30
0.0
 11
59.1261544113
 21
386.71441661
 31
0.0
  0
LINE
  5
1F8
330
75
100
AcDbEntity
  8
$DDT_AUDIT_GENERATED_(9C)
  6
Continuous
 62
     7
100
AcDbLine
 10
59.1261544113
 20
386.71441661
 30
0.0
 11
59.1261544113
 21
387.3572042196
 31
0.0
  0
ELLIPSE
  5
1F9
330
75
100
AcDbEntity
  8
$DDT_AUDIT_GENERATED_(9C)
  6
Continuous
 62
     7
100
AcDbEllipse
 10
64.2067547804
 20
390.8925360849
 30
0.0
 11
-8.2500000135345
 21
-1.030825425019088E-8
 31
0.0
210
0.0
220
0.0
230
1.0
 40
0.6427876101
 41
1.022525691365182
 42
1.050693122147304
  0
LINE
  5
1FA
330
75
100
AcDbEntity
  8
$DDT_AUDIT_GENERATED_(9C)
  6
Continuous
 62
     7
100
AcDbLine
 10
59.3929724728
 20
386.585859088
 30
0.0
 11
59.9067547695
 21
386.585859088
 31
0.0
  0
LINE
  5
1FB
330
75
100
AcDbEntity
  8
$DDT_AUDIT_GENERATED_(9C)
  6
Continuous
 62
     7
100
AcDbLine
 10
59.9067547695
 20
386.585859088
 30
0.0
 11
59.9067547695
 21
386.3668137155
 31
0.0
  0
ELLIPSE
  5
1FC
330
75
100
AcDbEntity
  8
$DDT_AUDIT_GENERATED_(9C)
  6
Continuous
 62
     7
100
AcDbEllipse
 10
64.2067546923
 20
390.89253603
 30
0.0
 11
-8.249999919796444
 21
5.531838875860728E-8
 31
0.0
210
0.0
220
0.0
230
1.0
 40
0.6427876103
 41
0.6976574601447302
 42
0.7297276637015274
  0
LINE
  5
1FD
330
75
100
AcDbEntity
  8
$DDT_AUDIT_GENERATED_(9C)
  6
Continuous
 62
     7
100
AcDbLine
 10
57.7067547695
 20
387.6267891129
 30
0.0
 11
57.7067547695
 21
388.1285493513
 31
0.0
  0
LINE
  5
1FE
330
75
100
AcDbEntity
  8
$DDT_AUDIT_GENERATED_(9C)
  6
Continuous
 62
     7
100
AcDbLine
 10
57.7067547695
 20
388.1285493513
 30
0.0
 11
58.7067547695
 21
388.1285493513
 31
0.0
  0
LINE
  5
1FF
330
75
100
AcDbEntity
  8
$DDT_AUDIT_GENERATED_(9C)
  6
Continuous
 62
     7
100
AcDbLine
 10
58.7067547695
 20
388.1285493513
 30
0.0
 11
58.7067547695
 21
387.4857617416
 31
0.0
  0
LINE
  5
200
330
75
100
AcDbEntity
  8
$DDT_AUDIT_GENERATED_(9C)
  6
Continuous
 62
     7
100
AcDbLine
 10
58.7067547695
 20
387.4857617416
 30
0.0
 11
57.8843738888
 21
387.4857617416
 31
0.0
  0
LINE
  5
201
330
75
100
AcDbEntity
  8
$DDT_AUDIT_GENERATED_(9C)
  6
Continuous
 62
     7
100
AcDbLine
 10
57.8843738888
 20
387.4857617416
 30
0.0
 11
57.8843738888
 21
388.1285493513
 31
0.0
  0
ELLIPSE
  5
202
330
75
100
AcDbEntity
  8
$DDT_AUDIT_GENERATED_(9C)
  6
Continuous
 62
     7
100
AcDbEllipse
 10
64.2067548487
 20
390.8925361318
 30
0.0
 11
-8.25000008648634
 21
-6.569583765880793E-8
 31
0.0
210
0.0
220
0.0
230
1.0
 40
0.6427876104
 41
0.8410686619371223
 42
0.8731388650602075
  0
LINE
  5
203
330
75
100
AcDbEntity
  8
$DDT_AUDIT_GENERATED_(9C)
  6
Continuous
 62
     7
100
AcDbLine
 10
58.0575678314
 20
387.3572042196
 30
0.0
 11
58.7067547695
 21
387.3572042196
 31
0.0
  0
LINE
  5
204
330
75
100
AcDbEntity
  8
$DDT_AUDIT_GENERATED_(9C)
  6
Continuous
 62
     7
100
AcDbLine
 10
58.7067547695
 20
387.3572042196
 30
0.0
 11
58.7067547695
 21
386.9399148994
 31
0.0
  0
LINE
  5
205
330
75
100
AcDbEntity
  8
$DDT_AUDIT_GENERATED_(9C)
  6
Continuous
 62
     7
100
AcDbLine
 10
57.5067547695
 20
389.0284520048
 30
0.0
 11
56.5067547695
 21
389.0284520048
 31
0.0
  0
LINE
  5
206
330
75
100
AcDbEntity
  8
$DDT_AUDIT_GENERATED_(9C)
  6
Continuous
 62
     7
100
AcDbLine
 10
56.5067547695
 20
389.0284520048
 30
0.0
 11
56.5067547695
 21
389.6712396145
 31
0.0
  0
LINE
  5
207
330
75
100
AcDbEntity
  8
$DDT_AUDIT_GENERATED_(9C)
  6
Continuous
 62
     7
100
AcDbLine
 10
56.5067547695
 20
389.6712396145
 30
0.0
 11
57.5067547695
 21
389.6712396145
 31
0.0
  0
LINE
  5
208
330
75
100
AcDbEntity
  8
$DDT_AUDIT_GENERATED_(9C)
  6
Continuous
 62
     7
100
AcDbLine
 10
57.5067547695
 20
389.6712396145
 30
0.0
 11
57.5067547695
 21
389.0284520048
 31
0.0
  0
ELLIPSE
  5
209
330
75
100
AcDbEntity
  8
$DDT_AUDIT_GENERATED_(9C)
  6
Continuous
 62
     7
100
AcDbEllipse
 10
64.2067549232
 20
390.8925361313
 30
0.0
 11
-8.250000155449726
 21
-8.565542719551900E-8
 31
0.0
210
0.0
220
0.0
230
1.0
 40
0.6427876063
 41
0.5201031919971952
 42
0.5482706225113719
  0
LINE
  5
20A
330
75
100
AcDbEntity
  8
$DDT_AUDIT_GENERATED_(9C)
  6
Continuous
 62
     7
100
AcDbLine
 10
56.5613313018
 20
388.8998944829
 30
0.0
 11
57.5067547695
 21
388.8998944829
 31
0.0
  0
LINE
  5
20B
330
75
100
AcDbEntity
  8
$DDT_AUDIT_GENERATED_(9C)
  6
Continuous
 62
     7
100
AcDbLine
 10
57.5067547695
 20
388.8998944829
 30
0.0
 11
57.5067547695
 21
388.2571068732
 31
0.0
  0
LINE
  5
20C
330
75
100
AcDbEntity
  8
$DDT_AUDIT_GENERATED_(9C)
  6
Continuous
 62
     7
100
AcDbLine
 10
57.5067547695
 20
388.2571068732
 30
0.0
 11
57.0476696324
 21
388.2571068732
 31
0.0
  0
LINE
  5
20D
330
75
100
AcDbEntity
  8
$DDT_AUDIT_GENERATED_(9C)
  6
Continuous
 62
     7
100
AcDbLine
 10
57.0476696324
 20
388.2571068732
 30
0.0
 11
57.0476696324
 21
388.8998944829
 31
0.0
  0
ELLIPSE
  5
20E
330
75
100
AcDbEntity
  8
$DDT_AUDIT_GENERATED_(9C)
  6
Continuous
 62
     7
100
AcDbEllipse
 10
64.2067547603
 20
390.8925360686
 30
0.0
 11
-8.249999990621907
 21
5.960593130183156E-9
 31
0.0
210
0.0
220
0.0
230
1.0
 40
0.6427876098
 41
0.6230179606081453
 42
0.6634394350502811
  0
LINE
  5
20F
330
75
100
AcDbEntity
  8
$DDT_AUDIT_GENERATED_(9C)
  6
Continuous
 62
     7
100
AcDbLine
 10
57.1659806643
 20
388.1285493513
 30
0.0
 11
57.5067547695
 21
388.1285493513
 31
0.0
  0
LINE
  5
210
330
75
100
AcDbEntity
  8
$DDT_AUDIT_GENERATED_(9C)
  6
Continuous
 62
     7
100
AcDbLine
 10
57.5067547695
 20
388.1285493513
 30
0.0
 11
57.5067547695
 21
387.7982964569
 31
0.0
  0
ELLIPSE
  5
211
330
75
100
AcDbEntity
  8
$DDT_AUDIT_GENERATED_(9C)
  6
Continuous
 62
     7
100
AcDbEllipse
 10
64.2067550572
 20
390.8925360864
 30
0.0
 11
-8.250000287756544
 21
-2.300316881420628E-8
 31
0.0
210
0.0
220
0.0
230
1.0
 40
0.6427875986
 41
0.060643221183239
 42
0.0849506206124014
  0
LINE
  5
212
330
75
100
AcDbEntity
  8
$DDT_AUDIT_GENERATED_(9C)
  6
Continuous
 62
     7
100
AcDbLine
 10
56.3067547695
 20
391.2139298778
 30
0.0
 11
56.3067547695
 21
390.5711422681
 31
0.0
  0
LINE
  5
213
330
75
100
AcDbEntity
  8
$DDT_AUDIT_GENERATED_(9C)
  6
Continuous
 62
     7
100
AcDbLine
 10
56.3067547695
 20
390.5711422681
 30
0.0
 11
55.9719202235
 21
390.5711422681
 31
0.0
  0
LINE
  5
214
330
75
100
AcDbEntity
  8
$DDT_AUDIT_GENERATED_(9C)
  6
Continuous
 62
     7
100
AcDbLine
 10
55.9719202235
 20
390.5711422681
 30
0.0
 11
55.9719202235
 21
390.8309076562
 31
0.0
  0
ELLIPSE
  5
215
330
75
100
AcDbEntity
  8
$DDT_AUDIT_GENERATED_(9C)
  6
Continuous
 62
     7
100
AcDbEllipse
 10
64.2067550758
 20
390.8925361168
 30
0.0
 11
-8.250000306384546
 21
-7.291368897544004E-8
 31
0.0
210
0.0
220
0.0
230
1.0
 40
0.6427875986
 41
0.2075474409869003
 42
0.2323890625126561
  0
LINE
  5
216
330
75
100
AcDbEntity
  8
$DDT_AUDIT_GENERATED_(9C)
  6
Continuous
 62
     7
100
AcDbLine
 10
55.9865053815
 20
390.4425847461
 30
0.0
 11
56.3067547695
 21
390.4425847461
 31
0.0
  0
LINE
  5
217
330
75
100
AcDbEntity
  8
$DDT_AUDIT_GENERATED_(9C)
  6
Continuous
 62
     7
100
AcDbLine
 10
56.3067547695
 20
390.4425847461
 30
0.0
 11
56.3067547695
 21
389.7997971364
 31
0.0
  0
LINE
  5
218
330
75
100
AcDbEntity
  8
$DDT_AUDIT_GENERATED_(9C)
  6
Continuous
 62
     7
100
AcDbLine
 10
56.3067547695
 20
389.7997971364
 30
0.0
 11
56.1338061136
 21
389.7997971364
 31
0.0
  0
LINE
  5
219
330
75
100
AcDbEntity
  8
$DDT_AUDIT_GENERATED_(9C)
  6
Continuous
 62
     7
100
AcDbLine
 10
56.1338061136
 20
389.7997971364
 30
0.0
 11
56.1338061136
 21
390.4425847461
 31
0.0
  0
ELLIPSE
  5
21A
330
75
100
AcDbEntity
  8
$DDT_AUDIT_GENERATED_(9C)
  6
Continuous
 62
     7
100
AcDbEllipse
 10
64.2067547675
 20
390.8925360725
 30
0.0
 11
-8.249999998022838
 21
7.184530748105544E-10
 31
0.0
210
0.0
220
0.0
230
1.0
 40
0.6427876098
 41
0.2923273932433682
 42
0.3852141217638718
  0
LINE
  5
21B
330
75
100
AcDbEntity
  8
$DDT_AUDIT_GENERATED_(9C)
  6
Continuous
 62
     7
100
AcDbLine
 10
56.1785233329
 20
389.6712396145
 30
0.0
 11
56.3067547695
 21
389.6712396145
 31
0.0
  0
LINE
  5
21C
330
75
100
AcDbEntity
  8
$DDT_AUDIT_GENERATED_(9C)
  6
Continuous
 62
     7
100
AcDbLine
 10
56.3067547695
 20
389.6712396145
 30
0.0
 11
56.3067547695
 21
389.3643093758
 31
0.0
  0
LINE
  5
21D
330
75
100
AcDbEntity
  8
$DDT_AUDIT_GENERATED_(9C)
  6
Continuous
 62
     7
100
AcDbLine
 10
63.7067547695
 20
391.2139298778
 30
0.0
 11
64.7067547695
 21
391.2139298778
 31
0.0
  0
LINE
  5
21E
330
75
100
AcDbEntity
  8
$DDT_AUDIT_GENERATED_(9C)
  6
Continuous
 62
     7
100
AcDbLine
 10
63.7067547695
 20
391.3424873997
 30
0.0
 11
63.7067547695
 21
391.9852750094
 31
0.0
  0
LINE
  5
21F
330
75
100
AcDbEntity
  8
$DDT_AUDIT_GENERATED_(9C)
  6
Continuous
 62
     7
100
AcDbLine
 10
63.7067547695
 20
391.9852750094
 30
0.0
 11
64.7067547695
 21
391.9852750094
 31
0.0
  0
LINE
  5
220
330
75
100
AcDbEntity
  8
$DDT_AUDIT_GENERATED_(9C)
  6
Continuous
 62
     7
100
AcDbLine
 10
64.7067547695
 20
391.3424873997
 30
0.0
 11
63.7067547695
 21
391.3424873997
 31
0.0
  0
LINE
  5
221
330
75
100
AcDbEntity
  8
$DDT_AUDIT_GENERATED_(9C)
  6
Continuous
 62
     7
100
AcDbLine
 10
63.7067547695
 20
392.1138325313
 30
0.0
 11
63.7067547695
 21
392.756620141
 31
0.0
  0
LINE
  5
222
330
75
100
AcDbEntity
  8
$DDT_AUDIT_GENERATED_(9C)
  6
Continuous
 62
     7
100
AcDbLine
 10
63.7067547695
 20
392.756620141
 30
0.0
 11
64.7067547695
 21
392.756620141
 31
0.0
  0
LINE
  5
223
330
75
100
AcDbEntity
  8
$DDT_AUDIT_GENERATED_(9C)
  6
Continuous
 62
     7
100
AcDbLine
 10
64.7067547695
 20
392.1138325313
 30
0.0
 11
63.7067547695
 21
392.1138325313
 31
0.0
  0
LINE
  5
224
330
75
100
AcDbEntity
  8
$DDT_AUDIT_GENERATED_(9C)
  6
Continuous
 62
     7
100
AcDbLine
 10
63.7067547695
 20
392.8851776629
 30
0.0
 11
63.7067547695
 21
393.5279652726
 31
0.0
  0
LINE
  5
225
330
75
100
AcDbEntity
  8
$DDT_AUDIT_GENERATED_(9C)
  6
Continuous
 62
     7
100
AcDbLine
 10
63.7067547695
 20
393.5279652726
 30
0.0
 11
64.7067547695
 21
393.5279652726
 31
0.0
  0
LINE
  5
226
330
75
100
AcDbEntity
  8
$DDT_AUDIT_GENERATED_(9C)
  6
Continuous
 62
     7
100
AcDbLine
 10
64.7067547695
 20
392.8851776629
 30
0.0
 11
63.7067547695
 21
392.8851776629
 31
0.0
  0
LINE
  5
227
330
75
100
AcDbEntity
  8
$DDT_AUDIT_GENERATED_(9C)
  6
Continuous
 62
     7
100
AcDbLine
 10
63.7067547695
 20
393.6565227946
 30
0.0
 11
63.7067547695
 21
394.2993104043
 31
0.0
  0
LINE
  5
228
330
75
100
AcDbEntity
  8
$DDT_AUDIT_GENERATED_(9C)
  6
Continuous
 62
     7
100
AcDbLine
 10
63.7067547695
 20
394.2993104043
 30
0.0
 11
64.7067547695
 21
394.2993104043
 31
0.0
  0
LINE
  5
229
330
75
100
AcDbEntity
  8
$DDT_AUDIT_GENERATED_(9C)
  6
Continuous
 62
     7
100
AcDbLine
 10
64.7067547695
 20
393.6565227946
 30
0.0
 11
63.7067547695
 21
393.6565227946
 31
0.0
  0
LINE
  5
22A
330
75
100
AcDbEntity
  8
$DDT_AUDIT_GENERATED_(9C)
  6
Continuous
 62
     7
100
AcDbLine
 10
63.7067547695
 20
394.4278679262
 30
0.0
 11
63.7067547695
 21
395.0706555359
 31
0.0
  0
LINE
  5
22B
330
75
100
AcDbEntity
  8
$DDT_AUDIT_GENERATED_(9C)
  6
Continuous
 62
     7
100
AcDbLine
 10
63.7067547695
 20
395.0706555359
 30
0.0
 11
64.7067547695
 21
395.0706555359
 31
0.0
  0
LINE
  5
22C
330
75
100
AcDbEntity
  8
$DDT_AUDIT_GENERATED_(9C)
  6
Continuous
 62
     7
100
AcDbLine
 10
64.7067547695
 20
394.4278679262
 30
0.0
 11
63.7067547695
 21
394.4278679262
 31
0.0
  0
LINE
  5
22D
330
75
100
AcDbEntity
  8
$DDT_AUDIT_GENERATED_(9C)
  6
Continuous
 62
     7
100
AcDbLine
 10
63.7067547695
 20
395.1992130578
 30
0.0
 11
63.7067547695
 21
395.8027634653
 31
0.0
  0
LINE
  5
22E
330
75
100
AcDbEntity
  8
$DDT_AUDIT_GENERATED_(9C)
  6
Continuous
 62
     7
100
AcDbLine
 10
64.7067547695
 20
395.1992130578
 30
0.0
 11
63.7067547695
 21
395.1992130578
 31
0.0
  0
LINE
  5
22F
330
75
100
AcDbEntity
  8
$DDT_AUDIT_GENERATED_(9C)
  6
Continuous
 62
     7
100
AcDbLine
 10
62.5067547695
 20
391.2139298778
 30
0.0
 11
63.5067547695
 21
391.2139298778
 31
0.0
  0
LINE
  5
230
330
75
100
AcDbEntity
  8
$DDT_AUDIT_GENERATED_(9C)
  6
Continuous
 62
     7
100
AcDbLine
 10
62.5067547695
 20
391.3424873997
 30
0.0
 11
62.5067547695
 21
391.9852750094
 31
0.0
  0
LINE
  5
231
330
75
100
AcDbEntity
  8
$DDT_AUDIT_GENERATED_(9C)
  6
Continuous
 62
     7
100
AcDbLine
 10
62.5067547695
 20
391.9852750094
 30
0.0
 11
63.5067547695
 21
391.9852750094
 31
0.0
  0
LINE
  5
232
330
75
100
AcDbEntity
  8
$DDT_AUDIT_GENERATED_(9C)
  6
Continuous
 62
     7
100
AcDbLine
 10
63.5067547695
 20
391.9852750094
 30
0.0
 11
63.5067547695
 21
391.3424873997
 31
0.0
  0
LINE
  5
233
330
75
100
AcDbEntity
  8
$DDT_AUDIT_GENERATED_(9C)
  6
Continuous
 62
     7
100
AcDbLine
 10
63.5067547695
 20
391.3424873997
 30
0.0
 11
62.5067547695
 21
391.3424873997
 31
0.0
  0
LINE
  5
234
330
75
100
AcDbEntity
  8
$DDT_AUDIT_GENERATED_(9C)
  6
Continuous
 62
     7
100
AcDbLine
 10
62.5067547695
 20
392.1138325313
 30
0.0
 11
62.5067547695
 21
392.756620141
 31
0.0
  0
LINE
  5
235
330
75
100
AcDbEntity
  8
$DDT_AUDIT_GENERATED_(9C)
  6
Continuous
 62
     7
100
AcDbLine
 10
62.5067547695
 20
392.756620141
 30
0.0
 11
63.5067547695
 21
392.756620141
 31
0.0
  0
LINE
  5
236
330
75
100
AcDbEntity
  8
$DDT_AUDIT_GENERATED_(9C)
  6
Continuous
 62
     7
100
AcDbLine
 10
63.5067547695
 20
392.756620141
 30
0.0
 11
63.5067547695
 21
392.1138325313
 31
0.0
  0
LINE
  5
237
330
75
100
AcDbEntity
  8
$DDT_AUDIT_GENERATED_(9C)
  6
Continuous
 62
     7
100
AcDbLine
 10
63.5067547695
 20
392.1138325313
 30
0.0
 11
62.5067547695
 21
392.1138325313
 31
0.0
  0
LINE
  5
238
330
75
100
AcDbEntity
  8
$DDT_AUDIT_GENERATED_(9C)
  6
Continuous
 62
     7
100
AcDbLine
 10
62.5067547695
 20
392.8851776629
 30
0.0
 11
62.5067547695
 21
393.5279652726
 31
0.0
  0
LINE
  5
239
330
75
100
AcDbEntity
  8
$DDT_AUDIT_GENERATED_(9C)
  6
Continuous
 62
     7
100
AcDbLine
 10
62.5067547695
 20
393.5279652726
 30
0.0
 11
63.5067547695
 21
393.5279652726
 31
0.0
  0
LINE
  5
23A
330
75
100
AcDbEntity
  8
$DDT_AUDIT_GENERATED_(9C)
  6
Continuous
 62
     7
100
AcDbLine
 10
63.5067547695
 20
393.5279652726
 30
0.0
 11
63.5067547695
 21
392.8851776629
 31
0.0
  0
LINE
  5
23B
330
75
100
AcDbEntity
  8
$DDT_AUDIT_GENERATED_(9C)
  6
Continuous
 62
     7
100
AcDbLine
 10
63.5067547695
 20
392.8851776629
 30
0.0
 11
62.5067547695
 21
392.8851776629
 31
0.0
  0
LINE
  5
23C
330
75
100
AcDbEntity
  8
$DDT_AUDIT_GENERATED_(9C)
  6
Continuous
 62
     7
100
AcDbLine
 10
62.5067547695
 20
393.6565227946
 30
0.0
 11
62.5067547695
 21
394.2993104043
 31
0.0
  0
LINE
  5
23D
330
75
100
AcDbEntity
  8
$DDT_AUDIT_GENERATED_(9C)
  6
Continuous
 62
     7
100
AcDbLine
 10
62.5067547695
 20
394.2993104043
 30
0.0
 11
63.5067547695
 21
394.2993104043
 31
0.0
  0
LINE
  5
23E
330
75
100
AcDbEntity
  8
$DDT_AUDIT_GENERATED_(9C)
  6
Continuous
 62
     7
100
AcDbLine
 10
63.5067547695
 20
394.2993104043
 30
0.0
 11
63.5067547695
 21
393.6565227946
 31
0.0
  0
LINE
  5
23F
330
75
100
AcDbEntity
  8
$DDT_AUDIT_GENERATED_(9C)
  6
Continuous
 62
     7
100
AcDbLine
 10
63.5067547695
 20
393.6565227946
 30
0.0
 11
62.5067547695
 21
393.6565227946
 31
0.0
  0
LINE
  5
240
330
75
100
AcDbEntity
  8
$DDT_AUDIT_GENERATED_(9C)
  6
Continuous
 62
     7
100
AcDbLine
 10
62.5067547695
 20
394.4278679262
 30
0.0
 11
62.5067547695
 21
395.0706555359
 31
0.0
  0
LINE
  5
241
330
75
100
AcDbEntity
  8
$DDT_AUDIT_GENERATED_(9C)
  6
Continuous
 62
     7
100
AcDbLine
 10
62.5067547695
 20
395.0706555359
 30
0.0
 11
63.5067547695
 21
395.0706555359
 31
0.0
  0
LINE
  5
242
330
75
100
AcDbEntity
  8
$DDT_AUDIT_GENERATED_(9C)
  6
Continuous
 62
     7
100
AcDbLine
 10
63.5067547695
 20
395.0706555359
 30
0.0
 11
63.5067547695
 21
394.4278679262
 31
0.0
  0
LINE
  5
243
330
75
100
AcDbEntity
  8
$DDT_AUDIT_GENERATED_(9C)
  6
Continuous
 62
     7
100
AcDbLine
 10
63.5067547695
 20
394.4278679262
 30
0.0
 11
62.5067547695
 21
394.4278679262
 31
0.0
  0
LINE
  5
244
330
75
100
AcDbEntity
  8
$DDT_AUDIT_GENERATED_(9C)
  6
Continuous
 62
     7
100
AcDbLine
 10
62.5067547695
 20
395.1992130578
 30
0.0
 11
62.5067547695
 21
395.698705221
 31
0.0
  0
LINE
  5
245
330
75
100
AcDbEntity
  8
$DDT_AUDIT_GENERATED_(9C)
  6
Continuous
 62
     7
100
AcDbLine
 10
63.5067547695
 20
395.7933883065
 30
0.0
 11
63.5067547695
 21
395.1992130578
 31
0.0
  0
LINE
  5
246
330
75
100
AcDbEntity
  8
$DDT_AUDIT_GENERATED_(9C)
  6
Continuous
 62
     7
100
AcDbLine
 10
63.5067547695
 20
395.1992130578
 30
0.0
 11
62.5067547695
 21
395.1992130578
 31
0.0
  0
LINE
  5
247
330
75
100
AcDbEntity
  8
$DDT_AUDIT_GENERATED_(9C)
  6
Continuous
 62
     7
100
AcDbLine
 10
61.3067547695
 20
391.2139298778
 30
0.0
 11
62.3067547695
 21
391.2139298778
 31
0.0
  0
LINE
  5
248
330
75
100
AcDbEntity
  8
$DDT_AUDIT_GENERATED_(9C)
  6
Continuous
 62
     7
100
AcDbLine
 10
61.3067547695
 20
391.3424873997
 30
0.0
 11
61.3067547695
 21
391.9852750094
 31
0.0
  0
LINE
  5
249
330
75
100
AcDbEntity
  8
$DDT_AUDIT_GENERATED_(9C)
  6
Continuous
 62
     7
100
AcDbLine
 10
61.3067547695
 20
391.9852750094
 30
0.0
 11
62.3067547695
 21
391.9852750094
 31
0.0
  0
LINE
  5
24A
330
75
100
AcDbEntity
  8
$DDT_AUDIT_GENERATED_(9C)
  6
Continuous
 62
     7
100
AcDbLine
 10
62.3067547695
 20
391.9852750094
 30
0.0
 11
62.3067547695
 21
391.3424873997
 31
0.0
  0
LINE
  5
24B
330
75
100
AcDbEntity
  8
$DDT_AUDIT_GENERATED_(9C)
  6
Continuous
 62
     7
100
AcDbLine
 10
62.3067547695
 20
391.3424873997
 30
0.0
 11
61.3067547695
 21
391.3424873997
 31
0.0
  0
LINE
  5
24C
330
75
100
AcDbEntity
  8
$DDT_AUDIT_GENERATED_(9C)
  6
Continuous
 62
     7
100
AcDbLine
 10
61.3067547695
 20
392.1138325313
 30
0.0
 11
61.3067547695
 21
392.756620141
 31
0.0
  0
LINE
  5
24D
330
75
100
AcDbEntity
  8
$DDT_AUDIT_GENERATED_(9C)
  6
Continuous
 62
     7
100
AcDbLine
 10
61.3067547695
 20
392.756620141
 30
0.0
 11
62.3067547695
 21
392.756620141
 31
0.0
  0
LINE
  5
24E
330
75
100
AcDbEntity
  8
$DDT_AUDIT_GENERATED_(9C)
  6
Continuous
 62
     7
100
AcDbLine
 10
62.3067547695
 20
392.756620141
 30
0.0
 11
62.3067547695
 21
392.1138325313
 31
0.0
  0
LINE
  5
24F
330
75
100
AcDbEntity
  8
$DDT_AUDIT_GENERATED_(9C)
  6
Continuous
 62
     7
100
AcDbLine
 10
62.3067547695
 20
392.1138325313
 30
0.0
 11
61.3067547695
 21
392.1138325313
 31
0.0
  0
LINE
  5
250
330
75
100
AcDbEntity
  8
$DDT_AUDIT_GENERATED_(9C)
  6
Continuous
 62
     7
100
AcDbLine
 10
61.3067547695
 20
392.8851776629
 30
0.0
 11
61.3067547695
 21
393.5279652726
 31
0.0
  0
LINE
  5
251
330
75
100
AcDbEntity
  8
$DDT_AUDIT_GENERATED_(9C)
  6
Continuous
 62
     7
100
AcDbLine
 10
61.3067547695
 20
393.5279652726
 30
0.0
 11
62.3067547695
 21
393.5279652726
 31
0.0
  0
LINE
  5
252
330
75
100
AcDbEntity
  8
$DDT_AUDIT_GENERATED_(9C)
  6
Continuous
 62
     7
100
AcDbLine
 10
62.3067547695
 20
393.5279652726
 30
0.0
 11
62.3067547695
 21
392.8851776629
 31
0.0
  0
LINE
  5
253
330
75
100
AcDbEntity
  8
$DDT_AUDIT_GENERATED_(9C)
  6
Continuous
 62
     7
100
AcDbLine
 10
62.3067547695
 20
392.8851776629
 30
0.0
 11
61.3067547695
 21
392.8851776629
 31
0.0
  0
LINE
  5
254
330
75
100
AcDbEntity
  8
$DDT_AUDIT_GENERATED_(9C)
  6
Continuous
 62
     7
100
AcDbLine
 10
61.3067547695
 20
393.6565227946
 30
0.0
 11
61.3067547695
 21
394.2993104043
 31
0.0
  0
LINE
  5
255
330
75
100
AcDbEntity
  8
$DDT_AUDIT_GENERATED_(9C)
  6
Continuous
 62
     7
100
AcDbLine
 10
61.3067547695
 20
394.2993104043
 30
0.0
 11
62.3067547695
 21
394.2993104043
 31
0.0
  0
LINE
  5
256
330
75
100
AcDbEntity
  8
$DDT_AUDIT_GENERATED_(9C)
  6
Continuous
 62
     7
100
AcDbLine
 10
62.3067547695
 20
394.2993104043
 30
0.0
 11
62.3067547695
 21
393.6565227946
 31
0.0
  0
LINE
  5
257
330
75
100
AcDbEntity
  8
$DDT_AUDIT_GENERATED_(9C)
  6
Continuous
 62
     7
100
AcDbLine
 10
62.3067547695
 20
393.6565227946
 30
0.0
 11
61.3067547695
 21
393.6565227946
 31
0.0
  0
LINE
  5
258
330
75
100
AcDbEntity
  8
$DDT_AUDIT_GENERATED_(9C)
  6
Continuous
 62
     7
100
AcDbLine
 10
61.3067547695
 20
394.4278679262
 30
0.0
 11
61.3067547695
 21
395.0706555359
 31
0.0
  0
LINE
  5
259
330
75
100
AcDbEntity
  8
$DDT_AUDIT_GENERATED_(9C)
  6
Continuous
 62
     7
100
AcDbLine
 10
61.3067547695
 20
395.0706555359
 30
0.0
 11
62.3067547695
 21
395.0706555359
 31
0.0
  0
LINE
  5
25A
330
75
100
AcDbEntity
  8
$DDT_AUDIT_GENERATED_(9C)
  6
Continuous
 62
     7
100
AcDbLine
 10
62.3067547695
 20
395.0706555359
 30
0.0
 11
62.3067547695
 21
394.4278679262
 31
0.0
  0
LINE
  5
25B
330
75
100
AcDbEntity
  8
$DDT_AUDIT_GENERATED_(9C)
  6
Continuous
 62
     7
100
AcDbLine
 10
62.3067547695
 20
394.4278679262
 30
0.0
 11
61.3067547695
 21
394.4278679262
 31
0.0
  0
LINE
  5
25C
330
75
100
AcDbEntity
  8
$DDT_AUDIT_GENERATED_(9C)
  6
Continuous
 62
     7
100
AcDbLine
 10
60.1067547695
 20
391.2139298778
 30
0.0
 11
61.1067547695
 21
391.2139298778
 31
0.0
  0
LINE
  5
25D
330
75
100
AcDbEntity
  8
$DDT_AUDIT_GENERATED_(9C)
  6
Continuous
 62
     7
100
AcDbLine
 10
60.1067547695
 20
391.3424873997
 30
0.0
 11
60.1067547695
 21
391.9852750094
 31
0.0
  0
LINE
  5
25E
330
75
100
AcDbEntity
  8
$DDT_AUDIT_GENERATED_(9C)
  6
Continuous
 62
     7
100
AcDbLine
 10
60.1067547695
 20
391.9852750094
 30
0.0
 11
61.1067547695
 21
391.9852750094
 31
0.0
  0
LINE
  5
25F
330
75
100
AcDbEntity
  8
$DDT_AUDIT_GENERATED_(9C)
  6
Continuous
 62
     7
100
AcDbLine
 10
61.1067547695
 20
391.9852750094
 30
0.0
 11
61.1067547695
 21
391.3424873997
 31
0.0
  0
LINE
  5
260
330
75
100
AcDbEntity
  8
$DDT_AUDIT_GENERATED_(9C)
  6
Continuous
 62
     7
100
AcDbLine
 10
61.1067547695
 20
391.3424873997
 30
0.0
 11
60.1067547695
 21
391.3424873997
 31
0.0
  0
LINE
  5
261
330
75
100
AcDbEntity
  8
$DDT_AUDIT_GENERATED_(9C)
  6
Continuous
 62
     7
100
AcDbLine
 10
60.1067547695
 20
392.1138325313
 30
0.0
 11
60.1067547695
 21
392.756620141
 31
0.0
  0
LINE
  5
262
330
75
100
AcDbEntity
  8
$DDT_AUDIT_GENERATED_(9C)
  6
Continuous
 62
     7
100
AcDbLine
 10
60.1067547695
 20
392.756620141
 30
0.0
 11
61.1067547695
 21
392.756620141
 31
0.0
  0
LINE
  5
263
330
75
100
AcDbEntity
  8
$DDT_AUDIT_GENERATED_(9C)
  6
Continuous
 62
     7
100
AcDbLine
 10
61.1067547695
 20
392.756620141
 30
0.0
 11
61.1067547695
 21
392.1138325313
 31
0.0
  0
LINE
  5
264
330
75
100
AcDbEntity
  8
$DDT_AUDIT_GENERATED_(9C)
  6
Continuous
 62
     7
100
AcDbLine
 10
61.1067547695
 20
392.1138325313
 30
0.0
 11
60.1067547695
 21
392.1138325313
 31
0.0
  0
LINE
  5
265
330
75
100
AcDbEntity
  8
$DDT_AUDIT_GENERATED_(9C)
  6
Continuous
 62
     7
100
AcDbLine
 10
60.1067547695
 20
392.8851776629
 30
0.0
 11
60.1067547695
 21
393.5279652726
 31
0.0
  0
LINE
  5
266
330
75
100
AcDbEntity
  8
$DDT_AUDIT_GENERATED_(9C)
  6
Continuous
 62
     7
100
AcDbLine
 10
60.1067547695
 20
393.5279652726
 30
0.0
 11
61.1067547695
 21
393.5279652726
 31
0.0
  0
LINE
  5
267
330
75
100
AcDbEntity
  8
$DDT_AUDIT_GENERATED_(9C)
  6
Continuous
 62
     7
100
AcDbLine
 10
61.1067547695
 20
393.5279652726
 30
0.0
 11
61.1067547695
 21
392.8851776629
 31
0.0
  0
LINE
  5
268
330
75
100
AcDbEntity
  8
$DDT_AUDIT_GENERATED_(9C)
  6
Continuous
 62
     7
100
AcDbLine
 10
61.1067547695
 20
392.8851776629
 30
0.0
 11
60.1067547695
 21
392.8851776629
 31
0.0
  0
LINE
  5
269
330
75
100
AcDbEntity
  8
$DDT_AUDIT_GENERATED_(9C)
  6
Continuous
 62
     7
100
AcDbLine
 10
60.1067547695
 20
393.6565227946
 30
0.0
 11
60.1067547695
 21
394.2993104043
 31
0.0
  0
LINE
  5
26A
330
75
100
AcDbEntity
  8
$DDT_AUDIT_GENERATED_(9C)
  6
Continuous
 62
     7
100
AcDbLine
 10
60.1067547695
 20
394.2993104043
 30
0.0
 11
61.1067547695
 21
394.2993104043
 31
0.0
  0
LINE
  5
26B
330
75
100
AcDbEntity
  8
$DDT_AUDIT_GENERATED_(9C)
  6
Continuous
 62
     7
100
AcDbLine
 10
61.1067547695
 20
394.2993104043
 30
0.0
 11
61.1067547695
 21
393.6565227946
 31
0.0
  0
LINE
  5
26C
330
75
100
AcDbEntity
  8
$DDT_AUDIT_GENERATED_(9C)
  6
Continuous
 62
     7
100
AcDbLine
 10
61.1067547695
 20
393.6565227946
 30
0.0
 11
60.1067547695
 21
393.6565227946
 31
0.0
  0
LINE
  5
26D
330
75
100
AcDbEntity
  8
$DDT_AUDIT_GENERATED_(9C)
  6
Continuous
 62
     7
100
AcDbLine
 10
60.1067547695
 20
395.0706555359
 30
0.0
 11
61.1067547695
 21
395.0706555359
 31
0.0
  0
LINE
  5
26E
330
75
100
AcDbEntity
  8
$DDT_AUDIT_GENERATED_(9C)
  6
Continuous
 62
     7
100
AcDbLine
 10
60.1067547695
 20
394.4278679262
 30
0.0
 11
60.1067547695
 21
395.0706555359
 31
0.0
  0
LINE
  5
26F
330
75
100
AcDbEntity
  8
$DDT_AUDIT_GENERATED_(9C)
  6
Continuous
 62
     7
100
AcDbLine
 10
61.1067547695
 20
395.0706555359
 30
0.0
 11
61.1067547695
 21
394.4278679262
 31
0.0
  0
LINE
  5
270
330
75
100
AcDbEntity
  8
$DDT_AUDIT_GENERATED_(9C)
  6
Continuous
 62
     7
100
AcDbLine
 10
61.1067547695
 20
394.4278679262
 30
0.0
 11
60.1067547695
 21
394.4278679262
 31
0.0
  0
LINE
  5
271
330
75
100
AcDbEntity
  8
$DDT_AUDIT_GENERATED_(9C)
  6
Continuous
 62
     7
100
AcDbLine
 10
58.9067547695
 20
391.2139298778
 30
0.0
 11
59.9067547695
 21
391.2139298778
 31
0.0
  0
LINE
  5
272
330
75
100
AcDbEntity
  8
$DDT_AUDIT_GENERATED_(9C)
  6
Continuous
 62
     7
100
AcDbLine
 10
58.9067547695
 20
391.3424873997
 30
0.0
 11
58.9067547695
 21
391.9852750094
 31
0.0
  0
LINE
  5
273
330
75
100
AcDbEntity
  8
$DDT_AUDIT_GENERATED_(9C)
  6
Continuous
 62
     7
100
AcDbLine
 10
58.9067547695
 20
391.9852750094
 30
0.0
 11
59.9067547695
 21
391.9852750094
 31
0.0
  0
LINE
  5
274
330
75
100
AcDbEntity
  8
$DDT_AUDIT_GENERATED_(9C)
  6
Continuous
 62
     7
100
AcDbLine
 10
59.9067547695
 20
391.9852750094
 30
0.0
 11
59.9067547695
 21
391.3424873997
 31
0.0
  0
LINE
  5
275
330
75
100
AcDbEntity
  8
$DDT_AUDIT_GENERATED_(9C)
  6
Continuous
 62
     7
100
AcDbLine
 10
59.9067547695
 20
391.3424873997
 30
0.0
 11
58.9067547695
 21
391.3424873997
 31
0.0
  0
LINE
  5
276
330
75
100
AcDbEntity
  8
$DDT_AUDIT_GENERATED_(9C)
  6
Continuous
 62
     7
100
AcDbLine
 10
58.9067547695
 20
392.1138325313
 30
0.0
 11
58.9067547695
 21
392.756620141
 31
0.0
  0
LINE
  5
277
330
75
100
AcDbEntity
  8
$DDT_AUDIT_GENERATED_(9C)
  6
Continuous
 62
     7
100
AcDbLine
 10
58.9067547695
 20
392.756620141
 30
0.0
 11
59.9067547695
 21
392.756620141
 31
0.0
  0
LINE
  5
278
330
75
100
AcDbEntity
  8
$DDT_AUDIT_GENERATED_(9C)
  6
Continuous
 62
     7
100
AcDbLine
 10
59.9067547695
 20
392.756620141
 30
0.0
 11
59.9067547695
 21
392.1138325313
 31
0.0
  0
LINE
  5
279
330
75
100
AcDbEntity
  8
$DDT_AUDIT_GENERATED_(9C)
  6
Continuous
 62
     7
100
AcDbLine
 10
59.9067547695
 20
392.1138325313
 30
0.0
 11
58.9067547695
 21
392.1138325313
 31
0.0
  0
LINE
  5
27A
330
75
100
AcDbEntity
  8
$DDT_AUDIT_GENERATED_(9C)
  6
Continuous
 62
     7
100
AcDbLine
 10
58.9067547695
 20
392.8851776629
 30
0.0
 11
58.9067547695
 21
393.5279652726
 31
0.0
  0
LINE
  5
27B
330
75
100
AcDbEntity
  8
$DDT_AUDIT_GENERATED_(9C)
  6
Continuous
 62
     7
100
AcDbLine
 10
58.9067547695
 20
393.5279652726
 30
0.0
 11
59.9067547695
 21
393.5279652726
 31
0.0
  0
LINE
  5
27C
330
75
100
AcDbEntity
  8
$DDT_AUDIT_GENERATED_(9C)
  6
Continuous
 62
     7
100
AcDbLine
 10
59.9067547695
 20
393.5279652726
 30
0.0
 11
59.9067547695
 21
392.8851776629
 31
0.0
  0
LINE
  5
27D
330
75
100
AcDbEntity
  8
$DDT_AUDIT_GENERATED_(9C)
  6
Continuous
 62
     7
100
AcDbLine
 10
59.9067547695
 20
392.8851776629
 30
0.0
 11
58.9067547695
 21
392.8851776629
 31
0.0
  0
LINE
  5
27E
330
75
100
AcDbEntity
  8
$DDT_AUDIT_GENERATED_(9C)
  6
Continuous
 62
     7
100
AcDbLine
 10
58.9067547695
 20
393.6565227946
 30
0.0
 11
58.9067547695
 21
394.2993104043
 31
0.0
  0
LINE
  5
27F
330
75
100
AcDbEntity
  8
$DDT_AUDIT_GENERATED_(9C)
  6
Continuous
 62
     7
100
AcDbLine
 10
58.9067547695
 20
394.2993104043
 30
0.0
 11
59.9067547695
 21
394.2993104043
 31
0.0
  0
LINE
  5
280
330
75
100
AcDbEntity
  8
$DDT_AUDIT_GENERATED_(9C)
  6
Continuous
 62
     7
100
AcDbLine
 10
59.9067547695
 20
394.2993104043
 30
0.0
 11
59.9067547695
 21
393.6565227946
 31
0.0
  0
LINE
  5
281
330
75
100
AcDbEntity
  8
$DDT_AUDIT_GENERATED_(9C)
  6
Continuous
 62
     7
100
AcDbLine
 10
59.9067547695
 20
393.6565227946
 30
0.0
 11
58.9067547695
 21
393.6565227946
 31
0.0
  0
LINE
  5
282
330
75
100
AcDbEntity
  8
$DDT_AUDIT_GENERATED_(9C)
  6
Continuous
 62
     7
100
AcDbLine
 10
57.7067547695
 20
391.2139298778
 30
0.0
 11
58.7067547695
 21
391.2139298778
 31
0.0
  0
LINE
  5
283
330
75
100
AcDbEntity
  8
$DDT_AUDIT_GENERATED_(9C)
  6
Continuous
 62
     7
100
AcDbLine
 10
57.7067547695
 20
391.3424873997
 30
0.0
 11
57.7067547695
 21
391.9852750094
 31
0.0
  0
LINE
  5
284
330
75
100
AcDbEntity
  8
$DDT_AUDIT_GENERATED_(9C)
  6
Continuous
 62
     7
100
AcDbLine
 10
57.7067547695
 20
391.9852750094
 30
0.0
 11
58.7067547695
 21
391.9852750094
 31
0.0
  0
LINE
  5
285
330
75
100
AcDbEntity
  8
$DDT_AUDIT_GENERATED_(9C)
  6
Continuous
 62
     7
100
AcDbLine
 10
58.7067547695
 20
391.9852750094
 30
0.0
 11
58.7067547695
 21
391.3424873997
 31
0.0
  0
LINE
  5
286
330
75
100
AcDbEntity
  8
$DDT_AUDIT_GENERATED_(9C)
  6
Continuous
 62
     7
100
AcDbLine
 10
58.7067547695
 20
391.3424873997
 30
0.0
 11
57.7067547695
 21
391.3424873997
 31
0.0
  0
LINE
  5
287
330
75
100
AcDbEntity
  8
$DDT_AUDIT_GENERATED_(9C)
  6
Continuous
 62
     7
100
AcDbLine
 10
57.7067547695
 20
392.1138325313
 30
0.0
 11
57.7067547695
 21
392.756620141
 31
0.0
  0
LINE
  5
288
330
75
100
AcDbEntity
  8
$DDT_AUDIT_GENERATED_(9C)
  6
Continuous
 62
     7
100
AcDbLine
 10
57.7067547695
 20
392.756620141
 30
0.0
 11
58.7067547695
 21
392.756620141
 31
0.0
  0
LINE
  5
289
330
75
100
AcDbEntity
  8
$DDT_AUDIT_GENERATED_(9C)
  6
Continuous
 62
     7
100
AcDbLine
 10
58.7067547695
 20
392.756620141
 30
0.0
 11
58.7067547695
 21
392.1138325313
 31
0.0
  0
LINE
  5
28A
330
75
100
AcDbEntity
  8
$DDT_AUDIT_GENERATED_(9C)
  6
Continuous
 62
     7
100
AcDbLine
 10
58.7067547695
 20
392.1138325313
 30
0.0
 11
57.7067547695
 21
392.1138325313
 31
0.0
  0
LINE
  5
28B
330
75
100
AcDbEntity
  8
$DDT_AUDIT_GENERATED_(9C)
  6
Continuous
 62
     7
100
AcDbLine
 10
57.7067547695
 20
392.8851776629
 30
0.0
 11
57.7067547695
 21
393.5279652726
 31
0.0
  0
LINE
  5
28C
330
75
100
AcDbEntity
  8
$DDT_AUDIT_GENERATED_(9C)
  6
Continuous
 62
     7
100
AcDbLine
 10
57.7067547695
 20
393.5279652726
 30
0.0
 11
58.7067547695
 21
393.5279652726
 31
0.0
  0
LINE
  5
28D
330
75
100
AcDbEntity
  8
$DDT_AUDIT_GENERATED_(9C)
  6
Continuous
 62
     7
100
AcDbLine
 10
58.7067547695
 20
393.5279652726
 30
0.0
 11
58.7067547695
 21
392.8851776629
 31
0.0
  0
LINE
  5
28E
330
75
100
AcDbEntity
  8
$DDT_AUDIT_GENERATED_(9C)
  6
Continuous
 62
     7
100
AcDbLine
 10
58.7067547695
 20
392.8851776629
 30
0.0
 11
57.7067547695
 21
392.8851776629
 31
0.0
  0
LINE
  5
28F
330
75
100
AcDbEntity
  8
$DDT_AUDIT_GENERATED_(9C)
  6
Continuous
 62
     7
100
AcDbLine
 10
56.5067547695
 20
391.2139298778
 30
0.0
 11
57.5067547695
 21
391.2139298778
 31
0.0
  0
LINE
  5
290
330
75
100
AcDbEntity
  8
$DDT_AUDIT_GENERATED_(9C)
  6
Continuous
 62
     7
100
AcDbLine
 10
56.5067547695
 20
391.3424873997
 30
0.0
 11
56.5067547695
 21
391.9852750094
 31
0.0
  0
LINE
  5
291
330
75
100
AcDbEntity
  8
$DDT_AUDIT_GENERATED_(9C)
  6
Continuous
 62
     7
100
AcDbLine
 10
56.5067547695
 20
391.9852750094
 30
0.0
 11
57.5067547695
 21
391.9852750094
 31
0.0
  0
LINE
  5
292
330
75
100
AcDbEntity
  8
$DDT_AUDIT_GENERATED_(9C)
  6
Continuous
 62
     7
100
AcDbLine
 10
57.5067547695
 20
391.9852750094
 30
0.0
 11
57.5067547695
 21
391.3424873997
 31
0.0
  0
LINE
  5
293
330
75
100
AcDbEntity
  8
$DDT_AUDIT_GENERATED_(9C)
  6
Continuous
 62
     7
100
AcDbLine
 10
57.5067547695
 20
391.3424873997
 30
0.0
 11
56.5067547695
 21
391.3424873997
 31
0.0
  0
LINE
  5
294
330
75
100
AcDbEntity
  8
$DDT_AUDIT_GENERATED_(9C)
  6
Continuous
 62
     7
100
AcDbLine
 10
56.5067547695
 20
392.1138325313
 30
0.0
 11
56.5067547695
 21
392.4133483191
 31
0.0
  0
LINE
  5
295
330
75
100
AcDbEntity
  8
$DDT_AUDIT_GENERATED_(9C)
  6
Continuous
 62
     7
100
AcDbLine
 10
56.7340480694
 20
392.756620141
 30
0.0
 11
57.5067547695
 21
392.756620141
 31
0.0
  0
LINE
  5
296
330
75
100
AcDbEntity
  8
$DDT_AUDIT_GENERATED_(9C)
  6
Continuous
 62
     7
100
AcDbLine
 10
57.5067547695
 20
392.756620141
 30
0.0
 11
57.5067547695
 21
392.1138325313
 31
0.0
  0
LINE
  5
297
330
75
100
AcDbEntity
  8
$DDT_AUDIT_GENERATED_(9C)
  6
Continuous
 62
     7
100
AcDbLine
 10
57.5067547695
 20
392.1138325313
 30
0.0
 11
56.5067547695
 21
392.1138325313
 31
0.0
  0
LINE
  5
298
330
75
100
AcDbEntity
  8
$DDT_AUDIT_GENERATED_(9C)
  6
Continuous
 62
     7
100
AcDbLine
 10
56.0298633034
 20
391.2139298778
 30
0.0
 11
56.3067547695
 21
391.2139298778
 31
0.0
  0
LINE
  5
299
330
75
100
AcDbEntity
  8
$DDT_AUDIT_GENERATED_(9C)
  6
Continuous
 62
     7
100
AcDbLine
 10
56.2826491584
 20
391.9852750094
 30
0.0
 11
56.3067547695
 21
391.9852750094
 31
0.0
  0
LINE
  5
29A
330
75
100
AcDbEntity
  8
$DDT_AUDIT_GENERATED_(9C)
  6
Continuous
 62
     7
100
AcDbLine
 10
56.3067547695
 20
391.9852750094
 30
0.0
 11
56.3067547695
 21
391.3424873997
 31
0.0
  0
LINE
  5
29B
330
75
100
AcDbEntity
  8
$DDT_AUDIT_GENERATED_(9C)
  6
Continuous
 62
     7
100
AcDbLine
 10
56.3067547695
 20
391.3424873997
 30
0.0
 11
56.0591659649
 21
391.3424873997
 31
0.0
  0
LINE
  5
29C
330
75
100
AcDbEntity
  8
$DDT_AUDIT_GENERATED_(9C)
  6
Continuous
 62
     7
100
AcDbLine
 10
57.4235961311
 20
393.5279652726
 30
0.0
 11
57.5067547695
 21
393.5279652726
 31
0.0
  0
LINE
  5
29D
330
75
100
AcDbEntity
  8
$DDT_AUDIT_GENERATED_(9C)
  6
Continuous
 62
     7
100
AcDbLine
 10
57.5067547695
 20
393.5279652726
 30
0.0
 11
57.5067547695
 21
392.8851776629
 31
0.0
  0
LINE
  5
29E
330
75
100
AcDbEntity
  8
$DDT_AUDIT_GENERATED_(9C)
  6
Continuous
 62
     7
100
AcDbLine
 10
57.5067547695
 20
392.8851776629
 30
0.0
 11
56.830916193
 21
392.8851776629
 31
0.0
  0
LINE
  5
29F
330
75
100
AcDbEntity
  8
$DDT_AUDIT_GENERATED_(9C)
  6
Continuous
 62
     7
100
AcDbLine
 10
58.4360410525
 20
394.2993104043
 30
0.0
 11
58.7067547695
 21
394.2993104043
 31
0.0
  0
LINE
  5
2A0
330
75
100
AcDbEntity
  8
$DDT_AUDIT_GENERATED_(9C)
  6
Continuous
 62
     7
100
AcDbLine
 10
58.7067547695
 20
394.2993104043
 30
0.0
 11
58.7067547695
 21
393.6565227946
 31
0.0
  0
LINE
  5
2A1
330
75
100
AcDbEntity
  8
$DDT_AUDIT_GENERATED_(9C)
  6
Continuous
 62
     7
100
AcDbLine
 10
58.7067547695
 20
393.6565227946
 30
0.0
 11
57.7067547695
 21
393.6565227946
 31
0.0
  0
LINE
  5
2A2
330
75
100
AcDbEntity
  8
$DDT_AUDIT_GENERATED_(9C)
  6
Continuous
 62
     7
100
AcDbLine
 10
57.7067547695
 20
393.6565227946
 30
0.0
 11
57.7067547695
 21
393.7752608114
 31
0.0
  0
LINE
  5
2A3
330
75
100
AcDbEntity
  8
$DDT_AUDIT_GENERATED_(9C)
  6
Continuous
 62
     7
100
AcDbLine
 10
59.9067547695
 20
395.0352362088
 30
0.0
 11
59.9067547695
 21
394.4278679262
 31
0.0
  0
LINE
  5
2A4
330
75
100
AcDbEntity
  8
$DDT_AUDIT_GENERATED_(9C)
  6
Continuous
 62
     7
100
AcDbLine
 10
59.9067547695
 20
394.4278679262
 30
0.0
 11
58.9067547695
 21
394.4278679262
 31
0.0
  0
LINE
  5
2A5
330
75
100
AcDbEntity
  8
$DDT_AUDIT_GENERATED_(9C)
  6
Continuous
 62
     7
100
AcDbLine
 10
58.9067547695
 20
394.4278679262
 30
0.0
 11
58.9067547695
 21
394.5734619452
 31
0.0
  0
LINE
  5
2A6
330
75
100
AcDbEntity
  8
$DDT_AUDIT_GENERATED_(9C)
  6
Continuous
 62
     7
100
AcDbLine
 10
58.7067547695
 20
394.4621350248
 30
0.0
 11
58.7067547695
 21
394.4278679262
 31
0.0
  0
LINE
  5
2A7
330
75
100
AcDbEntity
  8
$DDT_AUDIT_GENERATED_(9C)
  6
Continuous
 62
     7
100
AcDbLine
 10
58.7067547695
 20
394.4278679262
 30
0.0
 11
58.647727329
 21
394.4278679262
 31
0.0
  0
LINE
  5
2A8
330
75
100
AcDbEntity
  8
$DDT_AUDIT_GENERATED_(9C)
  6
Continuous
 62
     7
100
AcDbLine
 10
61.3067547695
 20
395.1992130578
 30
0.0
 11
61.3067547695
 21
395.4740859418
 31
0.0
  0
LINE
  5
2A9
330
75
100
AcDbEntity
  8
$DDT_AUDIT_GENERATED_(9C)
  6
Continuous
 62
     7
100
AcDbLine
 10
62.3067547695
 20
395.6699615465
 30
0.0
 11
62.3067547695
 21
395.1992130578
 31
0.0
  0
LINE
  5
2AA
330
75
100
AcDbEntity
  8
$DDT_AUDIT_GENERATED_(9C)
  6
Continuous
 62
     7
100
AcDbLine
 10
62.3067547695
 20
395.1992130578
 30
0.0
 11
61.3067547695
 21
395.1992130578
 31
0.0
  0
LINE
  5
2AB
330
75
100
AcDbEntity
  8
$DDT_AUDIT_GENERATED_(9C)
  6
Continuous
 62
     7
100
AcDbLine
 10
61.1067547695
 20
395.4238973272
 30
0.0
 11
61.1067547695
 21
395.1992130578
 31
0.0
  0
LINE
  5
2AC
330
75
100
AcDbEntity
  8
$DDT_AUDIT_GENERATED_(9C)
  6
Continuous
 62
     7
100
AcDbLine
 10
61.1067547695
 20
395.1992130578
 30
0.0
 11
60.3554326883
 21
395.1992130578
 31
0.0
  0
LINE
  5
2AD
330
75
100
AcDbEntity
  8
$DDT_AUDIT_GENERATED_(9C)
  6
Continuous
 62
     7
100
AcDbLine
 10
64.9067547695
 20
391.2139298778
 30
0.0
 11
65.9067547695
 21
391.2139298778
 31
0.0
  0
LINE
  5
2AE
330
75
100
AcDbEntity
  8
$DDT_AUDIT_GENERATED_(9C)
  6
Continuous
 62
     7
100
AcDbLine
 10
66.1067547695
 20
391.2139298778
 30
0.0
 11
67.1067547695
 21
391.2139298778
 31
0.0
  0
LINE
  5
2AF
330
75
100
AcDbEntity
  8
$DDT_AUDIT_GENERATED_(9C)
  6
Continuous
 62
     7
100
AcDbLine
 10
67.3067547695
 20
391.2139298778
 30
0.0
 11
68.3067547695
 21
391.2139298778
 31
0.0
  0
LINE
  5
2B0
330
75
100
AcDbEntity
  8
$DDT_AUDIT_GENERATED_(9C)
  6
Continuous
 62
     7
100
AcDbLine
 10
68.5067547695
 20
391.2139298778
 30
0.0
 11
69.5067547695
 21
391.2139298778
 31
0.0
  0
LINE
  5
2B1
330
75
100
AcDbEntity
  8
$DDT_AUDIT_GENERATED_(9C)
  6
Continuous
 62
     7
100
AcDbLine
 10
69.7067547695
 20
391.2139298778
 30
0.0
 11
70.7067547695
 21
391.2139298778
 31
0.0
  0
LINE
  5
2B2
330
75
100
AcDbEntity
  8
$DDT_AUDIT_GENERATED_(9C)
  6
Continuous
 62
     7
100
AcDbLine
 10
70.9067547695
 20
391.2139298778
 30
0.0
 11
71.9067547695
 21
391.2139298778
 31
0.0
  0
LINE
  5
2B3
330
75
100
AcDbEntity
  8
$DDT_AUDIT_GENERATED_(9C)
  6
Continuous
 62
     7
100
AcDbLine
 10
64.7067547695
 20
391.9852750094
 30
0.0
 11
64.7067547695
 21
391.3424873997
 31
0.0
  0
LINE
  5
2B4
330
75
100
AcDbEntity
  8
$DDT_AUDIT_GENERATED_(9C)
  6
Continuous
 62
     7
100
AcDbLine
 10
64.9067547695
 20
391.9852750094
 30
0.0
 11
65.9067547695
 21
391.9852750094
 31
0.0
  0
LINE
  5
2B5
330
75
100
AcDbEntity
  8
$DDT_AUDIT_GENERATED_(9C)
  6
Continuous
 62
     7
100
AcDbLine
 10
65.9067547695
 20
391.9852750094
 30
0.0
 11
65.9067547695
 21
391.3424873997
 31
0.0
  0
LINE
  5
2B6
330
75
100
AcDbEntity
  8
$DDT_AUDIT_GENERATED_(9C)
  6
Continuous
 62
     7
100
AcDbLine
 10
65.9067547695
 20
391.3424873997
 30
0.0
 11
64.9067547695
 21
391.3424873997
 31
0.0
  0
LINE
  5
2B7
330
75
100
AcDbEntity
  8
$DDT_AUDIT_GENERATED_(9C)
  6
Continuous
 62
     7
100
AcDbLine
 10
64.9067547695
 20
391.3424873997
 30
0.0
 11
64.9067547695
 21
391.9852750094
 31
0.0
  0
LINE
  5
2B8
330
75
100
AcDbEntity
  8
$DDT_AUDIT_GENERATED_(9C)
  6
Continuous
 62
     7
100
AcDbLine
 10
66.1067547695
 20
391.9852750094
 30
0.0
 11
67.1067547695
 21
391.9852750094
 31
0.0
  0
LINE
  5
2B9
330
75
100
AcDbEntity
  8
$DDT_AUDIT_GENERATED_(9C)
  6
Continuous
 62
     7
100
AcDbLine
 10
67.1067547695
 20
391.9852750094
 30
0.0
 11
67.1067547695
 21
391.3424873997
 31
0.0
  0
LINE
  5
2BA
330
75
100
AcDbEntity
  8
$DDT_AUDIT_GENERATED_(9C)
  6
Continuous
 62
     7
100
AcDbLine
 10
67.1067547695
 20
391.3424873997
 30
0.0
 11
66.1067547695
 21
391.3424873997
 31
0.0
  0
LINE
  5
2BB
330
75
100
AcDbEntity
  8
$DDT_AUDIT_GENERATED_(9C)
  6
Continuous
 62
     7
100
AcDbLine
 10
66.1067547695
 20
391.3424873997
 30
0.0
 11
66.1067547695
 21
391.9852750094
 31
0.0
  0
LINE
  5
2BC
330
75
100
AcDbEntity
  8
$DDT_AUDIT_GENERATED_(9C)
  6
Continuous
 62
     7
100
AcDbLine
 10
67.3067547695
 20
391.9852750094
 30
0.0
 11
68.3067547695
 21
391.9852750094
 31
0.0
  0
LINE
  5
2BD
330
75
100
AcDbEntity
  8
$DDT_AUDIT_GENERATED_(9C)
  6
Continuous
 62
     7
100
AcDbLine
 10
68.3067547695
 20
391.9852750094
 30
0.0
 11
68.3067547695
 21
391.3424873997
 31
0.0
  0
LINE
  5
2BE
330
75
100
AcDbEntity
  8
$DDT_AUDIT_GENERATED_(9C)
  6
Continuous
 62
     7
100
AcDbLine
 10
68.3067547695
 20
391.3424873997
 30
0.0
 11
67.3067547695
 21
391.3424873997
 31
0.0
  0
LINE
  5
2BF
330
75
100
AcDbEntity
  8
$DDT_AUDIT_GENERATED_(9C)
  6
Continuous
 62
     7
100
AcDbLine
 10
67.3067547695
 20
391.3424873997
 30
0.0
 11
67.3067547695
 21
391.9852750094
 31
0.0
  0
LINE
  5
2C0
330
75
100
AcDbEntity
  8
$DDT_AUDIT_GENERATED_(9C)
  6
Continuous
 62
     7
100
AcDbLine
 10
68.5067547695
 20
391.9852750094
 30
0.0
 11
69.5067547695
 21
391.9852750094
 31
0.0
  0
LINE
  5
2C1
330
75
100
AcDbEntity
  8
$DDT_AUDIT_GENERATED_(9C)
  6
Continuous
 62
     7
100
AcDbLine
 10
69.5067547695
 20
391.9852750094
 30
0.0
 11
69.5067547695
 21
391.3424873997
 31
0.0
  0
LINE
  5
2C2
330
75
100
AcDbEntity
  8
$DDT_AUDIT_GENERATED_(9C)
  6
Continuous
 62
     7
100
AcDbLine
 10
69.5067547695
 20
391.3424873997
 30
0.0
 11
68.5067547695
 21
391.3424873997
 31
0.0
  0
LINE
  5
2C3
330
75
100
AcDbEntity
  8
$DDT_AUDIT_GENERATED_(9C)
  6
Continuous
 62
     7
100
AcDbLine
 10
68.5067547695
 20
391.3424873997
 30
0.0
 11
68.5067547695
 21
391.9852750094
 31
0.0
  0
LINE
  5
2C4
330
75
100
AcDbEntity
  8
$DDT_AUDIT_GENERATED_(9C)
  6
Continuous
 62
     7
100
AcDbLine
 10
69.7067547695
 20
391.9852750094
 30
0.0
 11
70.7067547695
 21
391.9852750094
 31
0.0
  0
LINE
  5
2C5
330
75
100
AcDbEntity
  8
$DDT_AUDIT_GENERATED_(9C)
  6
Continuous
 62
     7
100
AcDbLine
 10
70.7067547695
 20
391.9852750094
 30
0.0
 11
70.7067547695
 21
391.3424873997
 31
0.0
  0
LINE
  5
2C6
330
75
100
AcDbEntity
  8
$DDT_AUDIT_GENERATED_(9C)
  6
Continuous
 62
     7
100
AcDbLine
 10
70.7067547695
 20
391.3424873997
 30
0.0
 11
69.7067547695
 21
391.3424873997
 31
0.0
  0
LINE
  5
2C7
330
75
100
AcDbEntity
  8
$DDT_AUDIT_GENERATED_(9C)
  6
Continuous
 62
     7
100
AcDbLine
 10
69.7067547695
 20
391.3424873997
 30
0.0
 11
69.7067547695
 21
391.9852750094
 31
0.0
  0
LINE
  5
2C8
330
75
100
AcDbEntity
  8
$DDT_AUDIT_GENERATED_(9C)
  6
Continuous
 62
     7
100
AcDbLine
 10
70.9067547695
 20
391.9852750094
 30
0.0
 11
71.9067547695
 21
391.9852750094
 31
0.0
  0
LINE
  5
2C9
330
75
100
AcDbEntity
  8
$DDT_AUDIT_GENERATED_(9C)
  6
Continuous
 62
     7
100
AcDbLine
 10
71.9067547695
 20
391.9852750094
 30
0.0
 11
71.9067547695
 21
391.3424873997
 31
0.0
  0
LINE
  5
2CA
330
75
100
AcDbEntity
  8
$DDT_AUDIT_GENERATED_(9C)
  6
Continuous
 62
     7
100
AcDbLine
 10
71.9067547695
 20
391.3424873997
 30
0.0
 11
70.9067547695
 21
391.3424873997
 31
0.0
  0
LINE
  5
2CB
330
75
100
AcDbEntity
  8
$DDT_AUDIT_GENERATED_(9C)
  6
Continuous
 62
     7
100
AcDbLine
 10
70.9067547695
 20
391.3424873997
 30
0.0
 11
70.9067547695
 21
391.9852750094
 31
0.0
  0
LINE
  5
2CC
330
75
100
AcDbEntity
  8
$DDT_AUDIT_GENERATED_(9C)
  6
Continuous
 62
     7
100
AcDbLine
 10
64.7067547695
 20
392.756620141
 30
0.0
 11
64.7067547695
 21
392.1138325313
 31
0.0
  0
LINE
  5
2CD
330
75
100
AcDbEntity
  8
$DDT_AUDIT_GENERATED_(9C)
  6
Continuous
 62
     7
100
AcDbLine
 10
64.9067547695
 20
392.756620141
 30
0.0
 11
65.9067547695
 21
392.756620141
 31
0.0
  0
LINE
  5
2CE
330
75
100
AcDbEntity
  8
$DDT_AUDIT_GENERATED_(9C)
  6
Continuous
 62
     7
100
AcDbLine
 10
65.9067547695
 20
392.756620141
 30
0.0
 11
65.9067547695
 21
392.1138325313
 31
0.0
  0
LINE
  5
2CF
330
75
100
AcDbEntity
  8
$DDT_AUDIT_GENERATED_(9C)
  6
Continuous
 62
     7
100
AcDbLine
 10
65.9067547695
 20
392.1138325313
 30
0.0
 11
64.9067547695
 21
392.1138325313
 31
0.0
  0
LINE
  5
2D0
330
75
100
AcDbEntity
  8
$DDT_AUDIT_GENERATED_(9C)
  6
Continuous
 62
     7
100
AcDbLine
 10
64.9067547695
 20
392.1138325313
 30
0.0
 11
64.9067547695
 21
392.756620141
 31
0.0
  0
LINE
  5
2D1
330
75
100
AcDbEntity
  8
$DDT_AUDIT_GENERATED_(9C)
  6
Continuous
 62
     7
100
AcDbLine
 10
66.1067547695
 20
392.756620141
 30
0.0
 11
67.1067547695
 21
392.756620141
 31
0.0
  0
LINE
  5
2D2
330
75
100
AcDbEntity
  8
$DDT_AUDIT_GENERATED_(9C)
  6
Continuous
 62
     7
100
AcDbLine
 10
67.1067547695
 20
392.756620141
 30
0.0
 11
67.1067547695
 21
392.1138325313
 31
0.0
  0
LINE
  5
2D3
330
75
100
AcDbEntity
  8
$DDT_AUDIT_GENERATED_(9C)
  6
Continuous
 62
     7
100
AcDbLine
 10
67.1067547695
 20
392.1138325313
 30
0.0
 11
66.1067547695
 21
392.1138325313
 31
0.0
  0
LINE
  5
2D4
330
75
100
AcDbEntity
  8
$DDT_AUDIT_GENERATED_(9C)
  6
Continuous
 62
     7
100
AcDbLine
 10
66.1067547695
 20
392.1138325313
 30
0.0
 11
66.1067547695
 21
392.756620141
 31
0.0
  0
LINE
  5
2D5
330
75
100
AcDbEntity
  8
$DDT_AUDIT_GENERATED_(9C)
  6
Continuous
 62
     7
100
AcDbLine
 10
67.3067547695
 20
392.756620141
 30
0.0
 11
68.3067547695
 21
392.756620141
 31
0.0
  0
LINE
  5
2D6
330
75
100
AcDbEntity
  8
$DDT_AUDIT_GENERATED_(9C)
  6
Continuous
 62
     7
100
AcDbLine
 10
68.3067547695
 20
392.756620141
 30
0.0
 11
68.3067547695
 21
392.1138325313
 31
0.0
  0
LINE
  5
2D7
330
75
100
AcDbEntity
  8
$DDT_AUDIT_GENERATED_(9C)
  6
Continuous
 62
     7
100
AcDbLine
 10
68.3067547695
 20
392.1138325313
 30
0.0
 11
67.3067547695
 21
392.1138325313
 31
0.0
  0
LINE
  5
2D8
330
75
100
AcDbEntity
  8
$DDT_AUDIT_GENERATED_(9C)
  6
Continuous
 62
     7
100
AcDbLine
 10
67.3067547695
 20
392.1138325313
 30
0.0
 11
67.3067547695
 21
392.756620141
 31
0.0
  0
LINE
  5
2D9
330
75
100
AcDbEntity
  8
$DDT_AUDIT_GENERATED_(9C)
  6
Continuous
 62
     7
100
AcDbLine
 10
68.5067547695
 20
392.756620141
 30
0.0
 11
69.5067547695
 21
392.756620141
 31
0.0
  0
LINE
  5
2DA
330
75
100
AcDbEntity
  8
$DDT_AUDIT_GENERATED_(9C)
  6
Continuous
 62
     7
100
AcDbLine
 10
69.5067547695
 20
392.756620141
 30
0.0
 11
69.5067547695
 21
392.1138325313
 31
0.0
  0
LINE
  5
2DB
330
75
100
AcDbEntity
  8
$DDT_AUDIT_GENERATED_(9C)
  6
Continuous
 62
     7
100
AcDbLine
 10
69.5067547695
 20
392.1138325313
 30
0.0
 11
68.5067547695
 21
392.1138325313
 31
0.0
  0
LINE
  5
2DC
330
75
100
AcDbEntity
  8
$DDT_AUDIT_GENERATED_(9C)
  6
Continuous
 62
     7
100
AcDbLine
 10
68.5067547695
 20
392.1138325313
 30
0.0
 11
68.5067547695
 21
392.756620141
 31
0.0
  0
LINE
  5
2DD
330
75
100
AcDbEntity
  8
$DDT_AUDIT_GENERATED_(9C)
  6
Continuous
 62
     7
100
AcDbLine
 10
69.7067547695
 20
392.756620141
 30
0.0
 11
70.7067547695
 21
392.756620141
 31
0.0
  0
LINE
  5
2DE
330
75
100
AcDbEntity
  8
$DDT_AUDIT_GENERATED_(9C)
  6
Continuous
 62
     7
100
AcDbLine
 10
70.7067547695
 20
392.756620141
 30
0.0
 11
70.7067547695
 21
392.1138325313
 31
0.0
  0
LINE
  5
2DF
330
75
100
AcDbEntity
  8
$DDT_AUDIT_GENERATED_(9C)
  6
Continuous
 62
     7
100
AcDbLine
 10
70.7067547695
 20
392.1138325313
 30
0.0
 11
69.7067547695
 21
392.1138325313
 31
0.0
  0
LINE
  5
2E0
330
75
100
AcDbEntity
  8
$DDT_AUDIT_GENERATED_(9C)
  6
Continuous
 62
     7
100
AcDbLine
 10
69.7067547695
 20
392.1138325313
 30
0.0
 11
69.7067547695
 21
392.756620141
 31
0.0
  0
LINE
  5
2E1
330
75
100
AcDbEntity
  8
$DDT_AUDIT_GENERATED_(9C)
  6
Continuous
 62
     7
100
AcDbLine
 10
64.7067547695
 20
393.5279652726
 30
0.0
 11
64.7067547695
 21
392.8851776629
 31
0.0
  0
LINE
  5
2E2
330
75
100
AcDbEntity
  8
$DDT_AUDIT_GENERATED_(9C)
  6
Continuous
 62
     7
100
AcDbLine
 10
64.9067547695
 20
393.5279652726
 30
0.0
 11
65.9067547695
 21
393.5279652726
 31
0.0
  0
LINE
  5
2E3
330
75
100
AcDbEntity
  8
$DDT_AUDIT_GENERATED_(9C)
  6
Continuous
 62
     7
100
AcDbLine
 10
65.9067547695
 20
393.5279652726
 30
0.0
 11
65.9067547695
 21
392.8851776629
 31
0.0
  0
LINE
  5
2E4
330
75
100
AcDbEntity
  8
$DDT_AUDIT_GENERATED_(9C)
  6
Continuous
 62
     7
100
AcDbLine
 10
65.9067547695
 20
392.8851776629
 30
0.0
 11
64.9067547695
 21
392.8851776629
 31
0.0
  0
LINE
  5
2E5
330
75
100
AcDbEntity
  8
$DDT_AUDIT_GENERATED_(9C)
  6
Continuous
 62
     7
100
AcDbLine
 10
64.9067547695
 20
392.8851776629
 30
0.0
 11
64.9067547695
 21
393.5279652726
 31
0.0
  0
LINE
  5
2E6
330
75
100
AcDbEntity
  8
$DDT_AUDIT_GENERATED_(9C)
  6
Continuous
 62
     7
100
AcDbLine
 10
66.1067547695
 20
393.5279652726
 30
0.0
 11
67.1067547695
 21
393.5279652726
 31
0.0
  0
LINE
  5
2E7
330
75
100
AcDbEntity
  8
$DDT_AUDIT_GENERATED_(9C)
  6
Continuous
 62
     7
100
AcDbLine
 10
67.1067547695
 20
393.5279652726
 30
0.0
 11
67.1067547695
 21
392.8851776629
 31
0.0
  0
LINE
  5
2E8
330
75
100
AcDbEntity
  8
$DDT_AUDIT_GENERATED_(9C)
  6
Continuous
 62
     7
100
AcDbLine
 10
67.1067547695
 20
392.8851776629
 30
0.0
 11
66.1067547695
 21
392.8851776629
 31
0.0
  0
LINE
  5
2E9
330
75
100
AcDbEntity
  8
$DDT_AUDIT_GENERATED_(9C)
  6
Continuous
 62
     7
100
AcDbLine
 10
66.1067547695
 20
392.8851776629
 30
0.0
 11
66.1067547695
 21
393.5279652726
 31
0.0
  0
LINE
  5
2EA
330
75
100
AcDbEntity
  8
$DDT_AUDIT_GENERATED_(9C)
  6
Continuous
 62
     7
100
AcDbLine
 10
67.3067547695
 20
393.5279652726
 30
0.0
 11
68.3067547695
 21
393.5279652726
 31
0.0
  0
LINE
  5
2EB
330
75
100
AcDbEntity
  8
$DDT_AUDIT_GENERATED_(9C)
  6
Continuous
 62
     7
100
AcDbLine
 10
68.3067547695
 20
393.5279652726
 30
0.0
 11
68.3067547695
 21
392.8851776629
 31
0.0
  0
LINE
  5
2EC
330
75
100
AcDbEntity
  8
$DDT_AUDIT_GENERATED_(9C)
  6
Continuous
 62
     7
100
AcDbLine
 10
68.3067547695
 20
392.8851776629
 30
0.0
 11
67.3067547695
 21
392.8851776629
 31
0.0
  0
LINE
  5
2ED
330
75
100
AcDbEntity
  8
$DDT_AUDIT_GENERATED_(9C)
  6
Continuous
 62
     7
100
AcDbLine
 10
67.3067547695
 20
392.8851776629
 30
0.0
 11
67.3067547695
 21
393.5279652726
 31
0.0
  0
LINE
  5
2EE
330
75
100
AcDbEntity
  8
$DDT_AUDIT_GENERATED_(9C)
  6
Continuous
 62
     7
100
AcDbLine
 10
68.5067547695
 20
393.5279652726
 30
0.0
 11
69.5067547695
 21
393.5279652726
 31
0.0
  0
LINE
  5
2EF
330
75
100
AcDbEntity
  8
$DDT_AUDIT_GENERATED_(9C)
  6
Continuous
 62
     7
100
AcDbLine
 10
69.5067547695
 20
393.5279652726
 30
0.0
 11
69.5067547695
 21
392.8851776629
 31
0.0
  0
LINE
  5
2F0
330
75
100
AcDbEntity
  8
$DDT_AUDIT_GENERATED_(9C)
  6
Continuous
 62
     7
100
AcDbLine
 10
69.5067547695
 20
392.8851776629
 30
0.0
 11
68.5067547695
 21
392.8851776629
 31
0.0
  0
LINE
  5
2F1
330
75
100
AcDbEntity
  8
$DDT_AUDIT_GENERATED_(9C)
  6
Continuous
 62
     7
100
AcDbLine
 10
68.5067547695
 20
392.8851776629
 30
0.0
 11
68.5067547695
 21
393.5279652726
 31
0.0
  0
LINE
  5
2F2
330
75
100
AcDbEntity
  8
$DDT_AUDIT_GENERATED_(9C)
  6
Continuous
 62
     7
100
AcDbLine
 10
70.7067547695
 20
393.5279652726
 30
0.0
 11
70.7067547695
 21
392.8851776629
 31
0.0
  0
LINE
  5
2F3
330
75
100
AcDbEntity
  8
$DDT_AUDIT_GENERATED_(9C)
  6
Continuous
 62
     7
100
AcDbLine
 10
69.7067547695
 20
393.5279652726
 30
0.0
 11
70.7067547695
 21
393.5279652726
 31
0.0
  0
LINE
  5
2F4
330
75
100
AcDbEntity
  8
$DDT_AUDIT_GENERATED_(9C)
  6
Continuous
 62
     7
100
AcDbLine
 10
70.7067547695
 20
392.8851776629
 30
0.0
 11
69.7067547695
 21
392.8851776629
 31
0.0
  0
LINE
  5
2F5
330
75
100
AcDbEntity
  8
$DDT_AUDIT_GENERATED_(9C)
  6
Continuous
 62
     7
100
AcDbLine
 10
69.7067547695
 20
392.8851776629
 30
0.0
 11
69.7067547695
 21
393.5279652726
 31
0.0
  0
LINE
  5
2F6
330
75
100
AcDbEntity
  8
$DDT_AUDIT_GENERATED_(9C)
  6
Continuous
 62
     7
100
AcDbLine
 10
64.7067547695
 20
394.2993104043
 30
0.0
 11
64.7067547695
 21
393.6565227946
 31
0.0
  0
LINE
  5
2F7
330
75
100
AcDbEntity
  8
$DDT_AUDIT_GENERATED_(9C)
  6
Continuous
 62
     7
100
AcDbLine
 10
64.9067547695
 20
394.2993104043
 30
0.0
 11
65.9067547695
 21
394.2993104043
 31
0.0
  0
LINE
  5
2F8
330
75
100
AcDbEntity
  8
$DDT_AUDIT_GENERATED_(9C)
  6
Continuous
 62
     7
100
AcDbLine
 10
65.9067547695
 20
394.2993104043
 30
0.0
 11
65.9067547695
 21
393.6565227946
 31
0.0
  0
LINE
  5
2F9
330
75
100
AcDbEntity
  8
$DDT_AUDIT_GENERATED_(9C)
  6
Continuous
 62
     7
100
AcDbLine
 10
65.9067547695
 20
393.6565227946
 30
0.0
 11
64.9067547695
 21
393.6565227946
 31
0.0
  0
LINE
  5
2FA
330
75
100
AcDbEntity
  8
$DDT_AUDIT_GENERATED_(9C)
  6
Continuous
 62
     7
100
AcDbLine
 10
64.9067547695
 20
393.6565227946
 30
0.0
 11
64.9067547695
 21
394.2993104043
 31
0.0
  0
LINE
  5
2FB
330
75
100
AcDbEntity
  8
$DDT_AUDIT_GENERATED_(9C)
  6
Continuous
 62
     7
100
AcDbLine
 10
66.1067547695
 20
394.2993104043
 30
0.0
 11
67.1067547695
 21
394.2993104043
 31
0.0
  0
LINE
  5
2FC
330
75
100
AcDbEntity
  8
$DDT_AUDIT_GENERATED_(9C)
  6
Continuous
 62
     7
100
AcDbLine
 10
67.1067547695
 20
394.2993104043
 30
0.0
 11
67.1067547695
 21
393.6565227946
 31
0.0
  0
LINE
  5
2FD
330
75
100
AcDbEntity
  8
$DDT_AUDIT_GENERATED_(9C)
  6
Continuous
 62
     7
100
AcDbLine
 10
67.1067547695
 20
393.6565227946
 30
0.0
 11
66.1067547695
 21
393.6565227946
 31
0.0
  0
LINE
  5
2FE
330
75
100
AcDbEntity
  8
$DDT_AUDIT_GENERATED_(9C)
  6
Continuous
 62
     7
100
AcDbLine
 10
66.1067547695
 20
393.6565227946
 30
0.0
 11
66.1067547695
 21
394.2993104043
 31
0.0
  0
LINE
  5
2FF
330
75
100
AcDbEntity
  8
$DDT_AUDIT_GENERATED_(9C)
  6
Continuous
 62
     7
100
AcDbLine
 10
67.3067547695
 20
394.2993104043
 30
0.0
 11
68.3067547695
 21
394.2993104043
 31
0.0
  0
LINE
  5
300
330
75
100
AcDbEntity
  8
$DDT_AUDIT_GENERATED_(9C)
  6
Continuous
 62
     7
100
AcDbLine
 10
68.3067547695
 20
394.2993104043
 30
0.0
 11
68.3067547695
 21
393.6565227946
 31
0.0
  0
LINE
  5
301
330
75
100
AcDbEntity
  8
$DDT_AUDIT_GENERATED_(9C)
  6
Continuous
 62
     7
100
AcDbLine
 10
68.3067547695
 20
393.6565227946
 30
0.0
 11
67.3067547695
 21
393.6565227946
 31
0.0
  0
LINE
  5
302
330
75
100
AcDbEntity
  8
$DDT_AUDIT_GENERATED_(9C)
  6
Continuous
 62
     7
100
AcDbLine
 10
67.3067547695
 20
393.6565227946
 30
0.0
 11
67.3067547695
 21
394.2993104043
 31
0.0
  0
LINE
  5
303
330
75
100
AcDbEntity
  8
$DDT_AUDIT_GENERATED_(9C)
  6
Continuous
 62
     7
100
AcDbLine
 10
68.5067547695
 20
394.2993104043
 30
0.0
 11
69.5067547695
 21
394.2993104043
 31
0.0
  0
LINE
  5
304
330
75
100
AcDbEntity
  8
$DDT_AUDIT_GENERATED_(9C)
  6
Continuous
 62
     7
100
AcDbLine
 10
69.5067547695
 20
394.2993104043
 30
0.0
 11
69.5067547695
 21
393.6565227946
 31
0.0
  0
LINE
  5
305
330
75
100
AcDbEntity
  8
$DDT_AUDIT_GENERATED_(9C)
  6
Continuous
 62
     7
100
AcDbLine
 10
69.5067547695
 20
393.6565227946
 30
0.0
 11
68.5067547695
 21
393.6565227946
 31
0.0
  0
LINE
  5
306
330
75
100
AcDbEntity
  8
$DDT_AUDIT_GENERATED_(9C)
  6
Continuous
 62
     7
100
AcDbLine
 10
68.5067547695
 20
393.6565227946
 30
0.0
 11
68.5067547695
 21
394.2993104043
 31
0.0
  0
LINE
  5
307
330
75
100
AcDbEntity
  8
$DDT_AUDIT_GENERATED_(9C)
  6
Continuous
 62
     7
100
AcDbLine
 10
64.7067547695
 20
395.0706555359
 30
0.0
 11
64.7067547695
 21
394.4278679262
 31
0.0
  0
LINE
  5
308
330
75
100
AcDbEntity
  8
$DDT_AUDIT_GENERATED_(9C)
  6
Continuous
 62
     7
100
AcDbLine
 10
64.9067547695
 20
395.0706555359
 30
0.0
 11
65.9067547695
 21
395.0706555359
 31
0.0
  0
LINE
  5
309
330
75
100
AcDbEntity
  8
$DDT_AUDIT_GENERATED_(9C)
  6
Continuous
 62
     7
100
AcDbLine
 10
65.9067547695
 20
395.0706555359
 30
0.0
 11
65.9067547695
 21
394.4278679262
 31
0.0
  0
LINE
  5
30A
330
75
100
AcDbEntity
  8
$DDT_AUDIT_GENERATED_(9C)
  6
Continuous
 62
     7
100
AcDbLine
 10
65.9067547695
 20
394.4278679262
 30
0.0
 11
64.9067547695
 21
394.4278679262
 31
0.0
  0
LINE
  5
30B
330
75
100
AcDbEntity
  8
$DDT_AUDIT_GENERATED_(9C)
  6
Continuous
 62
     7
100
AcDbLine
 10
64.9067547695
 20
394.4278679262
 30
0.0
 11
64.9067547695
 21
395.0706555359
 31
0.0
  0
LINE
  5
30C
330
75
100
AcDbEntity
  8
$DDT_AUDIT_GENERATED_(9C)
  6
Continuous
 62
     7
100
AcDbLine
 10
66.1067547695
 20
395.0706555359
 30
0.0
 11
67.1067547695
 21
395.0706555359
 31
0.0
  0
LINE
  5
30D
330
75
100
AcDbEntity
  8
$DDT_AUDIT_GENERATED_(9C)
  6
Continuous
 62
     7
100
AcDbLine
 10
67.1067547695
 20
395.0706555359
 30
0.0
 11
67.1067547695
 21
394.4278679262
 31
0.0
  0
LINE
  5
30E
330
75
100
AcDbEntity
  8
$DDT_AUDIT_GENERATED_(9C)
  6
Continuous
 62
     7
100
AcDbLine
 10
67.1067547695
 20
394.4278679262
 30
0.0
 11
66.1067547695
 21
394.4278679262
 31
0.0
  0
LINE
  5
30F
330
75
100
AcDbEntity
  8
$DDT_AUDIT_GENERATED_(9C)
  6
Continuous
 62
     7
100
AcDbLine
 10
66.1067547695
 20
394.4278679262
 30
0.0
 11
66.1067547695
 21
395.0706555359
 31
0.0
  0
LINE
  5
310
330
75
100
AcDbEntity
  8
$DDT_AUDIT_GENERATED_(9C)
  6
Continuous
 62
     7
100
AcDbLine
 10
67.3067547695
 20
395.0706555359
 30
0.0
 11
68.3067547695
 21
395.0706555359
 31
0.0
  0
LINE
  5
311
330
75
100
AcDbEntity
  8
$DDT_AUDIT_GENERATED_(9C)
  6
Continuous
 62
     7
100
AcDbLine
 10
68.3067547695
 20
395.0706555359
 30
0.0
 11
68.3067547695
 21
394.4278679262
 31
0.0
  0
LINE
  5
312
330
75
100
AcDbEntity
  8
$DDT_AUDIT_GENERATED_(9C)
  6
Continuous
 62
     7
100
AcDbLine
 10
68.3067547695
 20
394.4278679262
 30
0.0
 11
67.3067547695
 21
394.4278679262
 31
0.0
  0
LINE
  5
313
330
75
100
AcDbEntity
  8
$DDT_AUDIT_GENERATED_(9C)
  6
Continuous
 62
     7
100
AcDbLine
 10
67.3067547695
 20
394.4278679262
 30
0.0
 11
67.3067547695
 21
395.0706555359
 31
0.0
  0
LINE
  5
314
330
75
100
AcDbEntity
  8
$DDT_AUDIT_GENERATED_(9C)
  6
Continuous
 62
     7
100
AcDbLine
 10
64.7067547695
 20
395.8027634653
 30
0.0
 11
64.7067547695
 21
395.1992130578
 31
0.0
  0
LINE
  5
315
330
75
100
AcDbEntity
  8
$DDT_AUDIT_GENERATED_(9C)
  6
Continuous
 62
     7
100
AcDbLine
 10
65.9067547695
 20
395.698705221
 30
0.0
 11
65.9067547695
 21
395.1992130578
 31
0.0
  0
LINE
  5
316
330
75
100
AcDbEntity
  8
$DDT_AUDIT_GENERATED_(9C)
  6
Continuous
 62
     7
100
AcDbLine
 10
65.9067547695
 20
395.1992130578
 30
0.0
 11
64.9067547695
 21
395.1992130578
 31
0.0
  0
LINE
  5
317
330
75
100
AcDbEntity
  8
$DDT_AUDIT_GENERATED_(9C)
  6
Continuous
 62
     7
100
AcDbLine
 10
64.9067547695
 20
395.1992130578
 30
0.0
 11
64.9067547695
 21
395.7933883065
 31
0.0
  0
LINE
  5
318
330
75
100
AcDbEntity
  8
$DDT_AUDIT_GENERATED_(9C)
  6
Continuous
 62
     7
100
AcDbLine
 10
67.1067547695
 20
395.4740859418
 30
0.0
 11
67.1067547695
 21
395.1992130578
 31
0.0
  0
LINE
  5
319
330
75
100
AcDbEntity
  8
$DDT_AUDIT_GENERATED_(9C)
  6
Continuous
 62
     7
100
AcDbLine
 10
67.1067547695
 20
395.1992130578
 30
0.0
 11
66.1067547695
 21
395.1992130578
 31
0.0
  0
LINE
  5
31A
330
75
100
AcDbEntity
  8
$DDT_AUDIT_GENERATED_(9C)
  6
Continuous
 62
     7
100
AcDbLine
 10
66.1067547695
 20
395.1992130578
 30
0.0
 11
66.1067547695
 21
395.6699615465
 31
0.0
  0
LINE
  5
31B
330
75
100
AcDbEntity
  8
$DDT_AUDIT_GENERATED_(9C)
  6
Continuous
 62
     7
100
AcDbLine
 10
68.0580768507
 20
395.1992130578
 30
0.0
 11
67.3067547695
 21
395.1992130578
 31
0.0
  0
LINE
  5
31C
330
75
100
AcDbEntity
  8
$DDT_AUDIT_GENERATED_(9C)
  6
Continuous
 62
     7
100
AcDbLine
 10
67.3067547695
 20
395.1992130578
 30
0.0
 11
67.3067547695
 21
395.4238973272
 31
0.0
  0
LINE
  5
31D
330
75
100
AcDbEntity
  8
$DDT_AUDIT_GENERATED_(9C)
  6
Continuous
 62
     7
100
AcDbLine
 10
69.5067547695
 20
394.5734619452
 30
0.0
 11
69.5067547695
 21
394.4278679262
 31
0.0
  0
LINE
  5
31E
330
75
100
AcDbEntity
  8
$DDT_AUDIT_GENERATED_(9C)
  6
Continuous
 62
     7
100
AcDbLine
 10
69.5067547695
 20
394.4278679262
 30
0.0
 11
68.5067547695
 21
394.4278679262
 31
0.0
  0
LINE
  5
31F
330
75
100
AcDbEntity
  8
$DDT_AUDIT_GENERATED_(9C)
  6
Continuous
 62
     7
100
AcDbLine
 10
68.5067547695
 20
394.4278679262
 30
0.0
 11
68.5067547695
 21
395.0352362088
 31
0.0
  0
LINE
  5
320
330
75
100
AcDbEntity
  8
$DDT_AUDIT_GENERATED_(9C)
  6
Continuous
 62
     7
100
AcDbLine
 10
70.7067547695
 20
393.7752608114
 30
0.0
 11
70.7067547695
 21
393.6565227946
 31
0.0
  0
LINE
  5
321
330
75
100
AcDbEntity
  8
$DDT_AUDIT_GENERATED_(9C)
  6
Continuous
 62
     7
100
AcDbLine
 10
70.7067547695
 20
393.6565227946
 30
0.0
 11
69.7067547695
 21
393.6565227946
 31
0.0
  0
LINE
  5
322
330
75
100
AcDbEntity
  8
$DDT_AUDIT_GENERATED_(9C)
  6
Continuous
 62
     7
100
AcDbLine
 10
69.7067547695
 20
393.6565227946
 30
0.0
 11
69.7067547695
 21
394.2993104043
 31
0.0
  0
LINE
  5
323
330
75
100
AcDbEntity
  8
$DDT_AUDIT_GENERATED_(9C)
  6
Continuous
 62
     7
100
AcDbLine
 10
69.7067547695
 20
394.2993104043
 30
0.0
 11
69.9774684864
 21
394.2993104043
 31
0.0
  0
LINE
  5
324
330
75
100
AcDbEntity
  8
$DDT_AUDIT_GENERATED_(9C)
  6
Continuous
 62
     7
100
AcDbLine
 10
69.76578221
 20
394.4278679262
 30
0.0
 11
69.7067547695
 21
394.4278679262
 31
0.0
  0
LINE
  5
325
330
75
100
AcDbEntity
  8
$DDT_AUDIT_GENERATED_(9C)
  6
Continuous
 62
     7
100
AcDbLine
 10
69.7067547695
 20
394.4278679262
 30
0.0
 11
69.7067547695
 21
394.4621350248
 31
0.0
  0
LINE
  5
326
330
75
100
AcDbEntity
  8
$DDT_AUDIT_GENERATED_(9C)
  6
Continuous
 62
     7
100
AcDbLine
 10
70.9067547695
 20
392.756620141
 30
0.0
 11
71.6794614695
 21
392.756620141
 31
0.0
  0
LINE
  5
327
330
75
100
AcDbEntity
  8
$DDT_AUDIT_GENERATED_(9C)
  6
Continuous
 62
     7
100
AcDbLine
 10
71.9067547695
 20
392.4133483191
 30
0.0
 11
71.9067547695
 21
392.1138325313
 31
0.0
  0
LINE
  5
328
330
75
100
AcDbEntity
  8
$DDT_AUDIT_GENERATED_(9C)
  6
Continuous
 62
     7
100
AcDbLine
 10
71.9067547695
 20
392.1138325313
 30
0.0
 11
70.9067547695
 21
392.1138325313
 31
0.0
  0
LINE
  5
329
330
75
100
AcDbEntity
  8
$DDT_AUDIT_GENERATED_(9C)
  6
Continuous
 62
     7
100
AcDbLine
 10
70.9067547695
 20
392.1138325313
 30
0.0
 11
70.9067547695
 21
392.756620141
 31
0.0
  0
LINE
  5
32A
330
75
100
AcDbEntity
  8
$DDT_AUDIT_GENERATED_(9C)
  6
Continuous
 62
     7
100
AcDbLine
 10
71.582593346
 20
392.8851776629
 30
0.0
 11
70.9067547695
 21
392.8851776629
 31
0.0
  0
LINE
  5
32B
330
75
100
AcDbEntity
  8
$DDT_AUDIT_GENERATED_(9C)
  6
Continuous
 62
     7
100
AcDbLine
 10
70.9067547695
 20
392.8851776629
 30
0.0
 11
70.9067547695
 21
393.5279652726
 31
0.0
  0
LINE
  5
32C
330
75
100
AcDbEntity
  8
$DDT_AUDIT_GENERATED_(9C)
  6
Continuous
 62
     7
100
AcDbLine
 10
70.9067547695
 20
393.5279652726
 30
0.0
 11
70.9899134079
 21
393.5279652726
 31
0.0
  0
LINE
  5
32D
330
75
100
AcDbEntity
  8
$DDT_AUDIT_GENERATED_(9C)
  6
Continuous
 62
     7
100
AcDbLine
 10
72.1067547695
 20
391.2139298778
 30
0.0
 11
72.3836462355
 21
391.2139298778
 31
0.0
  0
LINE
  5
32E
330
75
100
AcDbEntity
  8
$DDT_AUDIT_GENERATED_(9C)
  6
Continuous
 62
     7
100
AcDbLine
 10
72.3543435741
 20
391.3424873997
 30
0.0
 11
72.1067547695
 21
391.3424873997
 31
0.0
  0
LINE
  5
32F
330
75
100
AcDbEntity
  8
$DDT_AUDIT_GENERATED_(9C)
  6
Continuous
 62
     7
100
AcDbLine
 10
72.1067547695
 20
391.3424873997
 30
0.0
 11
72.1067547695
 21
391.9852750094
 31
0.0
  0
LINE
  5
330
330
75
100
AcDbEntity
  8
$DDT_AUDIT_GENERATED_(9C)
  6
Continuous
 62
     7
100
AcDbLine
 10
72.1067547695
 20
391.9852750094
 30
0.0
 11
72.1308603806
 21
391.9852750094
 31
0.0
  0
LINE
  5
331
330
75
100
AcDbEntity
  8
$DDT_AUDIT_GENERATED_(9C)
  6
Continuous
 62
     7
100
AcDbLine
 10
73.6067547695
 20
390.5095138514
 30
0.0
 11
73.6067547695
 21
391.409616072
 31
0.0
  0
LINE
  5
332
330
75
100
AcDbEntity
  8
$DDT_AUDIT_GENERATED_(9C)
  6
Continuous
 62
     7
100
AcDbLine
 10
54.8067547695
 20
391.409616072
 30
0.0
 11
54.8067547695
 21
390.5095138514
 31
0.0
  0
ARC
  5
334
330
75
100
AcDbEntity
  8
$DDT_AUDIT_GENERATED_(333)
  6
Continuous
 62
     7
100
AcDbCircle
 10
64.1979325794
 20
459.2244865962
 30
0.0
 40
5.522930680112869
100
AcDbArc
 50
270.194301732
 51
359.8136247642
  0
ARC
  5
335
330
75
100
AcDbEntity
  8
$DDT_AUDIT_GENERATED_(333)
  6
Continuous
 62
     7
100
AcDbCircle
 10
64.2404990645
 20
459.2244865962
 30
0.0
 40
5.522950363478638
100
AcDbArc
 50
180.1918692851
 51
269.7527098454
  0
ARC
  5
336
330
75
100
AcDbEntity
  8
$DDT_AUDIT_GENERATED_(333)
  6
Continuous
 62
     7
100
AcDbCircle
 10
64.2175336913
 20
460.8891212648
 30
0.0
 40
5.507710382137586
100
AcDbArc
 50
354.1311853509
 51
0.0
  0
ARC
  5
337
330
75
100
AcDbEntity
  8
$DDT_AUDIT_GENERATED_(333)
  6
Continuous
 62
     7
100
AcDbCircle
 10
64.2175336913
 20
460.8891212648
 30
0.0
 40
5.507710382137586
100
AcDbArc
 50
0.0
 51
350.29465608
  0
ELLIPSE
  5
338
330
75
100
AcDbEntity
  8
$DDT_AUDIT_GENERATED_(333)
  6
Continuous
 62
     7
100
AcDbEllipse
 10
64.2067547695
 20
473.5799590378
 30
0.0
 11
15.63095570116296
 21
0.0
 31
0.0
210
0.0
220
0.0
230
1.0
 40
0.0261769483
 41
0.3656411333839599
 42
2.7759515202057
  0
ELLIPSE
  5
339
330
75
100
AcDbEntity
  8
$DDT_AUDIT_GENERATED_(333)
  6
Continuous
 62
     7
100
AcDbEllipse
 10
64.2067547695
 20
473.6710500559
 30
0.0
 11
14.33256178698763
 21
0.0
 31
0.0
210
0.0
220
0.0
230
1.0
 40
0.0261769483
 41
0.2719666135135397
 42
2.869626040076246
  0
SPLINE
  5
33A
330
75
100
AcDbEntity
  8
$DDT_AUDIT_GENERATED_(333)
  6
Continuous
 62
     7
100
AcDbSpline
210
0.0
220
0.0
230
1.0
 70
     8
 71
     3
 72
     8
 73
     4
 74
     0
 42
0.0000000033976547
 43
0.0000000001
 40
0.5081747286734709
 40
0.5081747286734709
 40
0.5081747286734709
 40
0.5081747286734709
 40
0.50856004014368
 40
0.50856004014368
 40
0.50856004014368
 40
0.50856004014368
 10
88.81984619018347
 20
472.6068132115814
 30
0.0
 10
88.81959540216614
 20
472.6070907891512
 30
0.0
 10
88.81933878175526
 20
472.6073683326171
 30
0.0
 10
88.81907632808546
 20
472.6076458419993
 30
0.0
  0
SPLINE
  5
33B
330
75
100
AcDbEntity
  8
$DDT_AUDIT_GENERATED_(333)
  6
Continuous
 62
     7
100
AcDbSpline
210
0.0
220
0.0
230
1.0
 70
     8
 71
     3
 72
    20
 73
    16
 74
     0
 42
0.0000000001877216
 43
0.0000000001
 40
0.0
 40
0.0
 40
0.0
 40
0.0
 40
0.0625
 40
0.0625
 40
0.125
 40
0.125
 40
0.1875
 40
0.1875
 40
0.2500000000000001
 40
0.2500000000000001
 40
0.3750000000000001
 40
0.3750000000000001
 40
0.4375000000000001
 40
0.4375000000000001
 40
0.4514117518993195
 40
0.4514117518993195
 40
0.4514117518993195
 40
0.4514117518993195
 10
64.20694383975
 20
473.4267598936134
 30
0.0
 10
65.82581294657025
 20
473.4268355752133
 30
0.0
 10
67.41729901256281
 20
473.4225573636209
 30
0.0
 10
70.54675875327268
 20
473.4061396577183
 30
0.0
 10
72.10140734284322
 20
473.3937657878676
 30
0.0
 10
75.05658602333881
 20
473.361131621873
 30
0.0
 10
76.45661719723142
 20
473.3411630160509
 30
0.0
 10
79.10384272927251
 20
473.2936009651486
 30
0.0
 10
80.35104840146225
 20
473.2658275643178
 30
0.0
 10
83.69943786744757
 20
473.1741512425505
 30
0.0
 10
85.49326398441407
 20
473.0993191689441
 30
0.0
 10
87.2887297369892
 20
472.9755887066672
 30
0.0
 10
87.75006330177379
 20
472.9317498940395
 30
0.0
 10
88.12432857284594
 20
472.8766427122946
 30
0.0
 10
88.18481165853257
 20
472.8665692931928
 30
0.0
 10
88.23767691731148
 20
472.8564544622623
 30
0.0
  0
SPLINE
  5
33C
330
75
100
AcDbEntity
  8
$DDT_AUDIT_GENERATED_(333)
  6
Continuous
 62
     7
100
AcDbSpline
210
0.0
220
0.0
230
1.0
 70
     8
 71
     3
 72
    22
 73
    18
 74
     0
 42
0.0000000001879189
 43
0.0000000001
 40
0.5480016782573409
 40
0.5480016782573409
 40
0.5480016782573409
 40
0.5480016782573409
 40
0.5624999999999998
 40
0.5624999999999998
 40
0.6249999999999998
 40
0.6249999999999998
 40
0.6874999999999997
 40
0.6874999999999997
 40
0.7499999999999997
 40
0.7499999999999997
 40
0.8124999999999998
 40
0.8124999999999998
 40
0.8749999999999998
 40
0.8749999999999998
 40
0.9374999999999999
 40
0.9374999999999999
 40
1.0
 40
1.0
 40
1.0
 40
1.0
 10
40.17010952763518
 20
472.8552591540034
 30
0.0
 10
40.22462235292472
 20
472.8658557200822
 30
0.0
 10
40.28726972288455
 20
472.8763687140687
 30
0.0
 10
40.66276215858458
 20
472.9316156057906
 30
0.0
 10
41.1146376297765
 20
472.9747832163943
 30
0.0
 10
42.31611954294118
 20
473.0577921321723
 30
0.0
 10
43.06805732348042
 20
473.0974848776001
 30
0.0
 10
44.81122973850902
 20
473.1703998299613
 30
0.0
 10
45.80819950432927
 20
473.2040715909532
 30
0.0
 10
48.06537844823641
 20
473.2659447154105
 30
0.0
 10
49.2942873689106
 20
473.2932616605403
 30
0.0
 10
51.9262470849073
 20
473.3406740248616
 30
0.0
 10
53.34813601559225
 20
473.3610199648788
 30
0.0
 10
56.30883477473004
 20
473.3937409256257
 30
0.0
 10
57.83268153595643
 20
473.4059059887649
 30
0.0
 10
60.96755423980714
 20
473.4224594064497
 30
0.0
 10
62.58772912359426
 20
473.4268363371699
 30
0.0
 10
64.20694383975
 20
473.4267598936134
 30
0.0
  0
LINE
  5
33D
330
75
100
AcDbEntity
  8
$DDT_AUDIT_GENERATED_(333)
  6
Continuous
 62
     7
100
AcDbLine
 10
37.827087117
 20
470.45951054
 30
0.0
 11
37.6758471845
 21
440.723005098
 31
0.0
  0
SPLINE
  5
33E
330
75
100
AcDbEntity
  8
$DDT_AUDIT_GENERATED_(333)
  6
Continuous
 62
     7
100
AcDbSpline
210
0.0
220
0.0
230
1.0
 70
     8
 71
     3
 72
    48
 73
    44
 74
     0
 42
0.0000000003625969
 43
0.0000000001
 40
0.0
 40
0.0
 40
0.0
 40
0.0
 40
0.0274677097545129
 40
0.0518784546108635
 40
0.0731867977356874
 40
0.0913650871064797
 40
0.1063985515317587
 40
0.1228529158770526
 40
0.1393774585346785
 40
0.1561714486543257
 40
0.1950855540910281
 40
0.2341095854544259
 40
0.2731473544150624
 40
0.3200029348313514
 40
0.3668570787226819
 40
0.4136953034543835
 40
0.4605316793285256
 40
0.5073851397679442
 40
0.5542656570044346
 40
0.6011555855531643
 40
0.6480311233019845
 40
0.6949015056674483
 40
0.7418792890589263
 40
0.7589373476337019
 40
0.7766129973820326
 40
0.7949083077394745
 40
0.8129173155780091
 40
0.8252416662989944
 40
0.8358763764269826
 40
0.8449892777112792
 40
0.8554289557378126
 40
0.8684722653954392
 40
0.8839580400226068
 40
0.9008410741745819
 40
0.9157653561346176
 40
0.9284731358998504
 40
0.9346338201705597
 40
0.9402810514461899
 40
0.9476023389040904
 40
0.957231801738912
 40
0.9691702387098478
 40
0.9834225227375712
 40
1.0
 40
1.0
 40
1.0
 40
1.0
 10
64.21633773301384
 20
436.457799526515
 30
0.0
 10
64.63243223451386
 20
436.4584769784242
 30
0.0
 10
65.29359792018967
 20
436.4598390811973
 30
0.0
 10
66.31884227519002
 20
436.4695100506374
 30
0.0
 10
67.19060507000408
 20
436.4822184376739
 30
0.0
 10
67.9361943147646
 20
436.4965460019976
 30
0.0
 10
68.6118645060598
 20
436.512188707964
 30
0.0
 10
69.26255509700955
 20
436.5297092552356
 30
0.0
 10
69.93360505913715
 20
436.5504774662635
 30
0.0
 10
70.90175099069553
 20
436.5844110438051
 30
0.0
 10
72.15775715285167
 20
436.6371745113551
 30
0.0
 10
73.67871097510682
 20
436.7162744530712
 30
0.0
 10
75.26496409512154
 20
436.81531555353
 30
0.0
 10
76.89964902316058
 20
436.9371476638664
 30
0.0
 10
78.56188332110479
 20
437.084620301652
 30
0.0
 10
80.14562561137326
 20
437.2499706927184
 30
0.0
 10
81.64278591518622
 20
437.4322497766579
 30
0.0
 10
83.04621014177118
 20
437.6304869612661
 30
0.0
 10
84.34869337279827
 20
437.843660493869
 30
0.0
 10
85.54351148505665
 20
438.070659755512
 30
0.0
 10
86.62319534444715
 20
438.3104747909178
 30
0.0
 10
87.58295536224247
 20
438.5623473409538
 30
0.0
 10
88.24138825686839
 20
438.769396676504
 30
0.0
 10
88.67765182749262
 20
438.9266199578867
 30
0.0
 10
88.94367679632428
 20
439.0304124640274
 30
0.0
 10
89.19598553278311
 20
439.1378387389979
 30
0.0
 10
89.40619519874669
 20
439.2361834850061
 30
0.0
 10
89.5726677831509
 20
439.3209518549475
 30
0.0
 10
89.69697453083396
 20
439.3887337391806
 30
0.0
 10
89.8104006167893
 20
439.4545970221029
 30
0.0
 10
89.92814703779322
 20
439.5277741216651
 30
0.0
 10
90.05988915549626
 20
439.6172033535938
 30
0.0
 10
90.19981376735045
 20
439.723997207973
 30
0.0
 10
90.32867655708324
 20
439.8378768049122
 30
0.0
 10
90.43588440855169
 20
439.949582774076
 30
0.0
 10
90.50809024276481
 20
440.0384281037892
 30
0.0
 10
90.55615241753607
 20
440.1059605123299
 30
0.0
 10
90.59181071528293
 20
440.1609554987921
 30
0.0
 10
90.63095531388198
 20
440.2286672184515
 30
0.0
 10
90.67424912032992
 20
440.3175859038913
 30
0.0
 10
90.71612585446788
 20
440.4298650906936
 30
0.0
 10
90.75004970451596
 20
440.5697900203458
 30
0.0
 10
90.75458321174254
 20
440.6625310977733
 30
0.0
 10
90.75684868297373
 20
440.7219272143373
 30
0.0
  0
LINE
  5
33F
330
75
100
AcDbEntity
  8
$DDT_AUDIT_GENERATED_(333)
  6
Continuous
 62
     7
100
AcDbLine
 10
90.7568283117
 20
440.7229991605
 30
0.0
 11
90.6056953664
 21
470.4384683479
 31
0.0
  0
SPLINE
  5
340
330
75
100
AcDbEntity
  8
$DDT_AUDIT_GENERATED_(333)
  6
Continuous
 62
     7
100
AcDbSpline
210
0.0
220
0.0
230
1.0
 70
     8
 71
     3
 72
    49
 73
    45
 74
     0
 42
0.0000000003625658
 43
0.0000000001
 40
0.0
 40
0.0
 40
0.0
 40
0.0
 40
0.0212041595246767
 40
0.0385696198001333
 40
0.0520695672619036
 40
0.0616939179412424
 40
0.0689500782749575
 40
0.0772062386588637
 40
0.0865862087209358
 40
0.1013151777563668
 40
0.1178915240079197
 40
0.1330727111593188
 40
0.1459077632565412
 40
0.1576536264307359
 40
0.1682095999232253
 40
0.1808769405772234
 40
0.1957103894342951
 40
0.2121608755310053
 40
0.2282817319142081
 40
0.2439146713078405
 40
0.2590765272818998
 40
0.3060421358269917
 40
0.3529596698380824
 40
0.3998602992537693
 40
0.4466446405771755
 40
0.4932893496846116
 40
0.5400563062884405
 40
0.5869268726624253
 40
0.6338103831979771
 40
0.6806330290583674
 40
0.7273479884825846
 40
0.7662651788168215
 40
0.8052309580833185
 40
0.8441100928341851
 40
0.8548189891835936
 40
0.8654161601850489
 40
0.8759014635468388
 40
0.886274671915852
 40
0.8970772790718393
 40
0.9099538543208465
 40
0.9279349168246229
 40
0.9489450969352983
 40
0.972972961610496
 40
1.0
 40
1.0
 40
1.0
 40
1.0
 10
37.67577894170103
 20
440.7242436375203
 30
0.0
 10
37.67959410535405
 20
440.6485292219915
 30
0.0
 10
37.68689759029696
 20
440.5330687601521
 30
0.0
 10
37.73841313561484
 20
440.3645892533376
 30
0.0
 10
37.79544422533066
 20
440.2401920429712
 30
0.0
 10
37.84852170587961
 20
440.1490486804497
 30
0.0
 10
37.89653259055951
 20
440.0777695072787
 30
0.0
 10
37.94730649896235
 20
440.0106158695001
 30
0.0
 10
38.01875692185431
 20
439.9264956154848
 30
0.0
 10
38.11820371336061
 20
439.8249107845047
 30
0.0
 10
38.24632266546614
 20
439.7133676201865
 30
0.0
 10
38.38486855636572
 20
439.6087806494212
 30
0.0
 10
38.52007874327627
 20
439.5177275672812
 30
0.0
 10
38.64818580239921
 20
439.4390179460111
 30
0.0
 10
38.78106237721403
 20
439.3633481853938
 30
0.0
 10
38.93144771775391
 20
439.2836468072462
 30
0.0
 10
39.11527232302375
 20
439.193640932299
 30
0.0
 10
39.32681868504056
 20
439.0984560587742
 30
0.0
 10
39.55745434332421
 20
439.002971309709
 30
0.0
 10
39.79619409217664
 20
438.9114387417473
 30
0.0
 10
40.21440929620647
 20
438.7620264424095
 30
0.0
 10
40.86447631708968
 20
438.5585844862461
 30
0.0
 10
41.82677137548778
 20
438.3067109387249
 30
0.0
 10
42.90787526662773
 20
438.0670075695737
 30
0.0
 10
44.10147017850142
 20
437.840558767774
 30
0.0
 10
45.40145372993425
 20
437.6280777341062
 30
0.0
 10
46.80463853978215
 20
437.430503527219
 30
0.0
 10
48.30350825781992
 20
437.2484064835872
 30
0.0
 10
49.88885288605771
 20
437.0830471332139
 30
0.0
 10
51.55071248941301
 20
436.9357852814361
 30
0.0
 10
53.18258942094091
 20
436.8142362178259
 30
0.0
 10
54.76585376396488
 20
436.7155786156864
 30
0.0
 10
56.28499627573703
 20
436.6367756438463
 30
0.0
 10
57.45972963554063
 20
436.5875396999734
 30
0.0
 10
58.26578739051461
 20
436.5587304878069
 30
0.0
 10
58.6932424308484
 20
436.5445721058611
 30
0.0
 10
59.11769679309132
 20
436.5316064851975
 30
0.0
 10
59.54630826557939
 20
436.5196004546536
 30
0.0
 10
60.00871978582375
 20
436.5078277979516
 30
0.0
 10
60.57597665962074
 20
436.494990449233
 30
0.0
 10
61.28571961785148
 20
436.4815248884136
 30
0.0
 10
62.14591197937071
 20
436.4691555624694
 30
0.0
 10
63.15586274028212
 20
436.4597722258882
 30
0.0
 10
63.80676914878318
 20
436.458454064535
 30
0.0
 10
64.21633773301384
 20
436.457799526515
 30
0.0
  0
LINE
  5
341
330
75
100
AcDbEntity
  8
$DDT_AUDIT_GENERATED_(333)
  6
Continuous
 62
     7
100
AcDbLine
 10
69.7182899977
 20
459.2057391767
 30
0.0
 11
69.7182899977
 21
460.8889719713
 31
0.0
  0
LINE
  5
342
330
75
100
AcDbEntity
  8
$DDT_AUDIT_GENERATED_(333)
  6
Continuous
 62
     7
100
AcDbLine
 10
58.7201275958
 20
460.8889841727
 30
0.0
 11
58.7201275958
 21
459.2057447582
 31
0.0
  0
ARC
  5
343
330
75
100
AcDbEntity
  8
$DDT_AUDIT_GENERATED_(333)
  6
Continuous
 62
     7
100
AcDbCircle
 10
64.2067547695
 20
260.2247160009
 30
0.0
 40
214.0000000000027
100
AcDbArc
 50
93.9113770784
 51
96.307576655
  0
ARC
  5
344
330
75
100
AcDbEntity
  8
$DDT_AUDIT_GENERATED_(333)
  6
Continuous
 62
     7
100
AcDbCircle
 10
64.2067547695
 20
260.2247160009
 30
0.0
 40
214.000000000003
100
AcDbArc
 50
83.692029381
 51
86.0886229216
  0
ARC
  5
345
330
75
100
AcDbEntity
  8
$DDT_AUDIT_GENERATED_(333)
  6
Continuous
 62
     7
100
AcDbCircle
 10
64.2067547695
 20
260.2247160009
 30
0.0
 40
214.0
100
AcDbArc
 50
86.464428203
 51
93.535571797
  0
SPLINE
  5
346
330
75
100
AcDbEntity
  8
$DDT_AUDIT_GENERATED_(333)
  6
Continuous
 62
     7
100
AcDbSpline
210
0.0
220
0.0
230
1.0
 70
     8
 71
     3
 72
     8
 73
     4
 74
     0
 42
0.0000000040860298
 43
0.0000000001
 40
0.0
 40
0.0
 40
0.0
 40
0.0
 40
1.0
 40
1.0
 40
1.0
 40
1.0
 10
39.6078166398619
 20
472.6223966265562
 30
0.0
 10
39.05336968756148
 20
472.0090857008621
 30
0.0
 10
38.50601054839083
 20
471.4041827044462
 30
0.0
 10
37.96573922234995
 20
470.8076876373086
 30
0.0
  0
SPLINE
  5
347
330
75
100
AcDbEntity
  8
$DDT_AUDIT_GENERATED_(333)
  6
Continuous
 62
     7
100
AcDbSpline
210
0.0
220
0.0
230
1.0
 70
     8
 71
     3
 72
     8
 73
     4
 74
     0
 42
0.0000000040349851
 43
0.0000000001
 40
0.0
 40
0.0
 40
0.0
 40
0.0
 40
1.0
 40
1.0
 40
1.0
 40
1.0
 10
90.468554327356
 20
470.7847293633587
 30
0.0
 10
89.92260499154548
 20
471.3874765669366
 30
0.0
 10
89.368317626677
 20
472.0000284383526
 30
0.0
 10
88.80569223275053
 20
472.6223849776066
 30
0.0
  0
ARC
  5
348
330
75
100
AcDbEntity
  8
$DDT_AUDIT_GENERATED_(333)
  6
Continuous
 62
     7
100
AcDbCircle
 10
38.294879382
 20
470.4798843457
 30
0.0
 40
0.4628345241247012
100
AcDbArc
 50
135.0536011428
 51
182.4648981711
  0
ARC
  5
349
330
75
100
AcDbEntity
  8
$DDT_AUDIT_GENERATED_(333)
  6
Continuous
 62
     7
100
AcDbCircle
 10
90.1391775001
 20
470.4591664992
 30
0.0
 40
0.4615705853892849
100
AcDbArc
 50
357.4265022589
 51
44.7221000422
  0
SPLINE
  5
34A
330
75
100
AcDbEntity
  8
$DDT_AUDIT_GENERATED_(333)
  6
Continuous
 62
     7
100
AcDbSpline
210
0.0
220
0.0
230
1.0
 70
     8
 71
     3
 72
    14
 73
    10
 74
     0
 42
0.0000000166691593
 43
0.0000000001
 40
0.0
 40
0.0
 40
0.0
 40
0.0
 40
0.0184345367168337
 40
0.1060962408259339
 40
0.2102375005527461
 40
0.3427538213116144
 40
0.5249636821123859
 40
0.8082984016815304
 40
1.0
 40
1.0
 40
1.0
 40
1.0
 10
88.8082350543867
 20
472.6168443659682
 30
0.0
 10
88.80278770221445
 20
472.6232421280066
 30
0.0
 10
88.77598301372362
 20
472.6547322531749
 30
0.0
 10
88.72265719751108
 20
472.6926376677464
 30
0.0
 10
88.65520640790037
 20
472.7352376178022
 30
0.0
 10
88.58112055868355
 20
472.7686895472829
 30
0.0
 10
88.48808687305443
 20
472.8014584365143
 30
0.0
 10
88.38684400049934
 20
472.828330139641
 30
0.0
 10
88.30667363254003
 20
472.8432725433394
 30
0.0
 10
88.26856351095475
 20
472.8501653103143
 30
0.0
  0
SPLINE
  5
34B
330
75
100
AcDbEntity
  8
$DDT_AUDIT_GENERATED_(333)
  6
Continuous
 62
     7
100
AcDbSpline
210
0.0
220
0.0
230
1.0
 70
     8
 71
     3
 72
    13
 73
     9
 74
     0
 42
0.0000000165474157
 43
0.0000000001
 40
0.0
 40
0.0
 40
0.0
 40
0.0
 40
0.1678417002764188
 40
0.5527732406943575
 40
0.741203032824878
 40
0.8544690913211369
 40
0.9518571439000315
 40
1.0
 40
1.0
 40
1.0
 40
1.0
 10
40.13955159859599
 20
472.8488388337162
 30
0.0
 10
40.10626467585411
 20
472.8428614704926
 30
0.0
 10
40.01236743380291
 20
472.825387769115
 30
0.0
 10
39.902287234111
 20
472.7951057150996
 30
0.0
 10
39.79040608110434
 20
472.7514832643494
 30
0.0
 10
39.71227141788038
 20
472.7072667232992
 30
0.0
 10
39.64972980529223
 20
472.6649773282477
 30
0.0
 10
39.61323312844856
 20
472.6248316765597
 30
0.0
 10
39.59896934621388
 20
472.6091341254706
 30
0.0
  0
ELLIPSE
  5
34D
330
75
100
AcDbEntity
  8
$DDT_AUDIT_GENERATED_(34C)
  6
Continuous
 62
     7
100
AcDbEllipse
 10
64.2067547695
 20
448.8538548219
 30
0.0
 11
1.991990662517987E-14
 21
-3.699434393996504
 31
0.0
210
0.0
220
0.0
230
1.0
 40
0.9055438327
 41
0.0
 42
6.283185307179586
  0
LINE
  5
34E
330
75
100
AcDbEntity
  8
$DDT_AUDIT_GENERATED_(34C)
  6
Continuous
 62
     7
100
AcDbLine
 10
67.5567547695
 20
448.8538548219
 30
0.0
 11
67.5567547695
 21
449.1568380455
 31
0.0
  0
LINE
  5
34F
330
75
100
AcDbEntity
  8
$DDT_AUDIT_GENERATED_(34C)
  6
Continuous
 62
     7
100
AcDbLine
 10
60.8567547695
 20
449.1568380455
 30
0.0
 11
60.8567547695
 21
448.8538548219
 31
0.0
  0
SPLINE
  5
351
330
75
100
AcDbEntity
  8
$DDT_AUDIT_GENERATED_(350)
  6
Continuous
 62
     7
100
AcDbSpline
210
0.0
220
0.0
230
1.0
 70
     8
 71
     3
 72
    41
 73
    37
 74
     0
 42
0.0000000003403056
 43
0.0000000001
 40
0.182271471889076
 40
0.182271471889076
 40
0.182271471889076
 40
0.182271471889076
 40
0.182928973896464
 40
0.2082607093784749
 40
0.2337461564149327
 40
0.2591352785661687
 40
0.2843868075841932
 40
0.3095078542211146
 40
0.3345189511802301
 40
0.3594412717607844
 40
0.3842929221520069
 40
0.4090884180271456
 40
0.4338391206831226
 40
0.4585538611601225
 40
0.4832395114053937
 40
0.5079014462389511
 40
0.5325438994815826
 40
0.5571702331946646
 40
0.581783139937698
 40
0.6063847947537206
 40
0.6309769698239294
 40
0.6555611214713369
 40
0.6801384566454028
 40
0.7047099841155521
 40
0.7292765542064894
 40
0.7538388898951607
 40
0.7783976113546125
 40
0.8029532554970289
 40
0.8275062916797262
 40
0.8520571344539528
 40
0.8766061540274563
 40
0.901153684957803
 40
0.9257000334793363
 40
0.9502454837822487
 40
0.9747903034998419
 40
1.0
 40
1.0
 40
1.0
 40
1.0
 10
40.622723709341
 20
438.6422907876134
 30
0.0
 10
40.62478056294066
 20
438.640667851197
 30
0.0
 10
40.70624903472536
 20
438.5765512789043
 30
0.0
 10
40.88065442616229
 20
438.4521706441802
 30
0.0
 10
41.17657096181139
 20
438.2739244340717
 30
0.0
 10
41.50993953042612
 20
438.1007531516336
 30
0.0
 10
41.8790770529867
 20
437.9327013467617
 30
0.0
 10
42.28316760193593
 20
437.7694709576168
 30
0.0
 10
42.72162387044705
 20
437.6108137066038
 30
0.0
 10
43.19390680659131
 20
437.4565802107488
 30
0.0
 10
43.69944316579051
 20
437.3067131628225
 30
0.0
 10
44.23759337259825
 20
437.1612267924071
 30
0.0
 10
44.8076417543426
 20
437.0201870180893
 30
0.0
 10
45.40879607252848
 20
436.8836956634202
 30
0.0
 10
46.04019064575564
 20
436.7518786889164
 30
0.0
 10
46.70089065049945
 20
436.6248775995682
 30
0.0
 10
47.38989661620203
 20
436.5028431851293
 30
0.0
 10
48.10614874644932
 20
436.3859309285731
 30
0.0
 10
48.84853095873979
 20
436.2742975989513
 30
0.0
 10
49.61587464091484
 20
436.168098687243
 30
0.0
 10
50.40696216170068
 20
436.0674864467744
 30
0.0
 10
51.22053017873885
 20
435.9726083719369
 30
0.0
 10
52.05527279910362
 20
435.8836059985102
 30
0.0
 10
52.9098445901565
 20
435.8006139442699
 30
0.0
 10
53.78286362196653
 20
435.723759128559
 30
0.0
 10
54.67291400596105
 20
435.6531601402452
 30
0.0
 10
55.57855003825355
 20
435.5889266821424
 30
0.0
 10
56.49829416638291
 20
435.5311592257828
 30
0.0
 10
57.43065787873331
 20
435.479948279033
 30
0.0
 10
58.37407698283953
 20
435.4353754242285
 30
0.0
 10
59.32716630416393
 20
435.3975080223454
 30
0.0
 10
60.28778240731967
 20
435.3664177866575
 30
0.0
 10
61.25653443060941
 20
435.3421104865491
 30
0.0
 10
62.22369554412339
 20
435.3247874764511
 30
0.0
 10
63.22704431191168
 20
435.3137704285103
 30
0.0
 10
63.83881078042094
 20
435.3123429469674
 30
0.0
 10
64.20675476947909
 20
435.3116752557725
 30
0.0
  0
SPLINE
  5
352
330
75
100
AcDbEntity
  8
$DDT_AUDIT_GENERATED_(350)
  6
Continuous
 62
     7
100
AcDbSpline
210
0.0
220
0.0
230
1.0
 70
     8
 71
     3
 72
    41
 73
    37
 74
     0
 42
0.0000000003413728
 43
0.0000000001
 40
0.0
 40
0.0
 40
0.0
 40
0.0
 40
0.0129741096742237
 40
0.0376290557877083
 40
0.0622854060166912
 40
0.0869421810935519
 40
0.1115996366615528
 40
0.1362580393748234
 40
0.1609176715204759
 40
0.1855788363272436
 40
0.2102418639939486
 40
0.2349071186755503
 40
0.2595750067198312
 40
0.2842459865225524
 40
0.3089205804700134
 40
0.3335993895739041
 40
0.3582831115871546
 40
0.3829725636383752
 40
0.407668710761407
 40
0.4323727021596332
 40
0.4570859176802716
 40
0.4818100278473525
 40
0.5065470720026238
 40
0.5312995607433622
 40
0.5560706110547209
 40
0.5808641254161943
 40
0.6056850296716803
 40
0.6305395880395297
 40
0.6554358152929431
 40
0.6803839998690303
 40
0.7053973208038857
 40
0.7304924408191922
 40
0.7556896667558609
 40
0.7810114682399997
 40
0.8064760387531913
 40
0.8194885158848946
 40
0.8194885158848946
 40
0.8194885158848946
 40
0.8194885158848946
 10
64.20675476947909
 20
435.3116752557725
 30
0.0
 10
64.39526501761227
 20
435.3118504947777
 30
0.0
 10
64.85968908912332
 20
435.3124408715828
 30
0.0
 10
65.70263031582985
 20
435.3186184165019
 30
0.0
 10
66.67005186582368
 20
435.3325288296267
 30
0.0
 10
67.64179449657884
 20
435.3533953399144
 30
0.0
 10
68.60566270595068
 20
435.381076036314
 30
0.0
 10
69.56291478445709
 20
435.4155555833291
 30
0.0
 10
70.51122338945422
 20
435.4567711154632
 30
0.0
 10
71.44924061813745
 20
435.5046590038272
 30
0.0
 10
72.375378231331
 20
435.5591425428018
 30
0.0
 10
73.28813800332121
 20
435.6201355149815
 30
0.0
 10
74.18602667785352
 20
435.6875415533942
 30
0.0
 10
75.06758223443055
 20
435.7612546891485
 30
0.0
 10
75.93137032632707
 20
435.8411596501198
 30
0.0
 10
76.77598872046697
 20
435.9271323078745
 30
0.0
 10
77.60006961212588
 20
436.0190401837876
 30
0.0
 10
78.40228254357072
 20
436.1167430619501
 30
0.0
 10
79.18133721569146
 20
436.2200937287791
 30
0.0
 10
79.93598641042028
 20
436.3289388792926
 30
0.0
 10
80.66502900139517
 20
436.4431202428081
 30
0.0
 10
81.36731310540652
 20
436.5624760037121
 30
0.0
 10
82.0417394199186
 20
436.6868426254531
 30
0.0
 10
82.6872648086002
 20
436.8160572345559
 30
0.0
 10
83.30290620712228
 20
436.9499607944967
 30
0.0
 10
83.88774492873615
 20
437.0884024102614
 30
0.0
 10
84.44093144048173
 20
437.2312452743265
 30
0.0
 10
84.96169063173652
 20
437.3783750258733
 30
0.0
 10
85.4493274494124
 20
437.5297116946027
 30
0.0
 10
85.90323239775127
 20
437.6852269974577
 30
0.0
 10
86.32288549444769
 20
437.8449695982964
 30
0.0
 10
86.70785516262178
 20
438.0091019146757
 30
0.0
 10
87.05778367635125
 20
438.1779525052223
 30
0.0
 10
87.3723401054179
 20
438.3520850053521
 30
0.0
 10
87.60515938461675
 20
438.5026579939066
 30
0.0
 10
87.73128744857041
 20
438.5959407605533
 30
0.0
 10
87.7723037694223
 20
438.6278153243516
 30
0.0
  0
ENDBLK
  5
354
330
75
100
AcDbEntity
  8
0
100
AcDbBlockEnd
  0
BLOCK
  5
3D2
330
355
100
AcDbEntity
  8
0
100
AcDbBlockBegin
  2
SE1
 70
     0
 10
0.0
 20
0.0
 30
0.0
  3
SE1
  1

  0
SPLINE
  5
357
330
355
100
AcDbEntity
  8
$DDT_AUDIT_GENERATED_(77)
  6
Continuous
 62
     7
100
AcDbSpline
210
0.0
220
0.0
230
1.0
 70
     8
 71
     3
 72
    29
 73
    25
 74
     0
 42
0.0000000002031949
 43
0.0000000001
 40
0.0
 40
0.0
 40
0.0
 40
0.0
 40
0.0160331730194177
 40
0.032161633354919
 40
0.0485082718248019
 40
0.0651911584602182
 40
0.097891902234502
 40
0.1323535376217164
 40
0.2006956354657625
 40
0.2690096389016181
 40
0.3370377236917571
 40
0.4038465548393126
 40
0.4698294050446573
 40
0.5337114880125554
 40
0.5946072988289801
 40
0.6527540403282367
 40
0.7089847730616167
 40
0.7646691359299677
 40
0.8210546003774332
 40
0.8788241679746854
 40
0.9093616526644654
 40
0.9388630065605751
 40
0.9696320215748698
 40
1.0
 40
1.0
 40
1.0
 40
1.0
 10
227.5747845937936
 20
371.2433574941313
 30
0.0
 10
227.5720871659306
 20
371.2530171030824
 30
0.0
 10
227.5666762790259
 20
371.272393729347
 30
0.0
 10
227.5231887494324
 20
371.4291154881978
 30
0.0
 10
227.4542708320819
 20
371.6791216131305
 30
0.0
 10
227.3279722929251
 20
372.1406077645786
 30
0.0
 10
227.109909974209
 20
372.9452022929972
 30
0.0
 10
226.6704851668642
 20
374.6313297269016
 30
0.0
 10
226.0146955923889
 20
377.3297779842175
 30
0.0
 10
225.2528571130449
 20
381.0869105449794
 30
0.0
 10
224.6507670140849
 20
385.1592918709102
 30
0.0
 10
224.3471255226351
 20
389.4151936936083
 30
0.0
 10
224.4693018955637
 20
393.7129340496017
 30
0.0
 10
225.1020653625672
 20
397.8870237424526
 30
0.0
 10
226.2056584937508
 20
401.7586327276099
 30
0.0
 10
227.647836651744
 20
405.2394958949446
 30
0.0
 10
229.2913878929397
 20
408.3319752263176
 30
0.0
 10
231.0210489136016
 20
411.0684211550092
 30
0.0
 10
232.7240782298335
 20
413.4548707024301
 30
0.0
 10
233.997129364283
 20
415.0955506313625
 30
0.0
 10
234.8133868495612
 20
416.1133822100059
 30
0.0
 10
235.2922075165789
 20
416.6982073991393
 30
0.0
 10
235.6090953684447
 20
417.0795684270896
 30
0.0
 10
235.6495580897351
 20
417.1277339443844
 30
0.0
 10
235.6696567399637
 20
417.1516587288357
 30
0.0
  0
SPLINE
  5
358
330
355
100
AcDbEntity
  8
$DDT_AUDIT_GENERATED_(77)
  6
Continuous
 62
     7
100
AcDbSpline
210
0.0
220
0.0
230
1.0
 70
     8
 71
     3
 72
     9
 73
     5
 74
     0
 42
0.0000000031269244
 43
0.0000000001
 40
0.0
 40
0.0
 40
0.0
 40
0.0
 40
0.0169472885695009
 40
0.0235375220987875
 40
0.0235375220987875
 40
0.0235375220987875
 40
0.0235375220987875
 10
240.7318161740367
 20
382.2834178405011
 30
0.0
 10
240.7257077339235
 20
382.2881371586248
 30
0.0
 10
240.7172239258168
 20
382.2946916616753
 30
0.0
 10
240.6836116911047
 20
382.3209872741012
 30
0.0
 10
240.6724686166587
 20
382.3297207318429
 30
0.0
  0
SPLINE
  5
359
330
355
100
AcDbEntity
  8
$DDT_AUDIT_GENERATED_(77)
  6
Continuous
 62
     7
100
AcDbSpline
210
0.0
220
0.0
230
1.0
 70
     8
 71
     3
 72
    36
 73
    32
 74
     0
 42
0.0000000002843504
 43
0.0000000001
 40
0.0
 40
0.0
 40
0.0
 40
0.0
 40
0.0178690306962375
 40
0.0358769027438257
 40
0.0540735921771474
 40
0.0725075393857362
 40
0.1066880984573841
 40
0.1431449157433961
 40
0.2100014192960278
 40
0.2734399836152582
 40
0.3037633361887335
 40
0.3334940693268015
 40
0.3904820109975628
 40
0.444806282739356
 40
0.4967557442003743
 40
0.5225112023013295
 40
0.5481311332527764
 40
0.6014997143732769
 40
0.629783824529619
 40
0.6592452615170415
 40
0.6902193315342019
 40
0.7225172491389636
 40
0.7390085221679024
 40
0.7557433815236544
 40
0.7899792302603302
 40
0.8250838944465201
 40
0.8603111441869272
 40
0.8971530217452107
 40
0.9309282333881129
 40
0.9661066474076659
 40
1.0
 40
1.0
 40
1.0
 40
1.0
 10
240.5936955050247
 20
411.2834178405011
 30
0.0
 10
240.5890766938378
 20
411.2781765540071
 30
0.0
 10
240.5798031835639
 20
411.2676532565212
 30
0.0
 10
240.5052975374719
 20
411.1823867716977
 30
0.0
 10
240.3864745598524
 20
411.0456764864384
 30
0.0
 10
240.1724419107424
 20
410.7982937904581
 30
0.0
 10
239.8005717642711
 20
410.3688250532836
 30
0.0
 10
239.0527224710653
 20
409.4880514509126
 30
0.0
 10
237.8993240995842
 20
408.0834712671896
 30
0.0
 10
236.6175707396336
 20
406.4238952016771
 30
0.0
 10
235.6001471161147
 20
405.0065064123301
 30
0.0
 10
234.6292705703338
 20
403.5816859035673
 30
0.0
 10
233.4871886985901
 20
401.7193134210859
 30
0.0
 10
232.3393392052792
 20
399.3397474611116
 30
0.0
 10
231.7331724948129
 20
397.2183668055559
 30
0.0
 10
231.5778995355037
 20
395.5089976580578
 30
0.0
 10
231.6646595562186
 20
393.7846289721224
 30
0.0
 10
232.1305938965081
 20
392.1006435582643
 30
0.0
 10
232.8774310111179
 20
390.5496037830846
 30
0.0
 10
233.5782005119392
 20
389.4061871970296
 30
0.0
 10
234.3819236981007
 20
388.3083508529597
 30
0.0
 10
235.1100770006178
 20
387.4423098794243
 30
0.0
 10
235.7175858498903
 20
386.7769118655974
 30
0.0
 10
236.3445665383768
 20
386.1226171595468
 30
0.0
 10
237.1382514927859
 20
385.3460633504114
 30
0.0
 10
238.0623965360137
 20
384.499751389694
 30
0.0
 10
238.9374404910689
 20
383.7420266898847
 30
0.0
 10
239.6862707951019
 20
383.1177884090148
 30
0.0
 10
240.2709676915454
 20
382.6465758408073
 30
0.0
 10
240.6565750265063
 20
382.3413416769657
 30
0.0
 10
240.707048808521
 20
382.3024848121898
 30
0.0
 10
240.7318161740367
 20
382.2834178405011
 30
0.0
  0
SPLINE
  5
35A
330
355
100
AcDbEntity
  8
$DDT_AUDIT_GENERATED_(77)
  6
Continuous
 62
     7
100
AcDbSpline
210
0.0
220
0.0
230
1.0
 70
    12
 71
     2
 72
     6
 73
     3
 74
     0
 42
0.0000000004460156
 43
0.0000000001
 40
0.0
 40
0.0
 40
0.0
 40
1.0
 40
1.0
 40
1.0
 10
227.5747845937936
 20
371.2433574941313
 30
0.0
 41
1.0
 10
229.5214451015082
 20
382.2834178405011
 30
0.0
 41
0.7660444431189772
 10
240.7318161740367
 20
382.2834178405011
 30
0.0
 41
1.0
  0
SPLINE
  5
35B
330
355
100
AcDbEntity
  8
$DDT_AUDIT_GENERATED_(77)
  6
Continuous
 62
     7
100
AcDbSpline
210
0.0
220
0.0
230
1.0
 70
    12
 71
     2
 72
     6
 73
     3
 74
     0
 42
0.0000000012576007
 43
0.0000000001
 40
0.0
 40
0.0
 40
0.0
 40
0.1025215874252293
 40
0.1025215874252293
 40
0.1025215874252293
 10
240.5936955050247
 20
411.2834178405011
 30
0.0
 41
1.0
 10
240.1860876355144
 20
411.2834178405011
 30
0.0
 41
0.9633780186971034
 10
239.7838617325739
 20
411.3494367642303
 30
0.0
 41
0.9342651247098668
  0
SPLINE
  5
35C
330
355
100
AcDbEntity
  8
$DDT_AUDIT_GENERATED_(77)
  6
Continuous
 62
     7
100
AcDbSpline
210
0.0
220
0.0
230
1.0
 70
    12
 71
     2
 72
     6
 73
     3
 74
     0
 42
0.0000000012400889
 43
0.0000000001
 40
0.9124896003071068
 40
0.9124896003071068
 40
0.9124896003071068
 40
0.9362827943159168
 40
0.9362827943159168
 40
0.9362827943159168
 10
235.5969990181088
 20
416.4651435063892
 30
0.0
 41
0.9429515169154778
 10
235.6004857310981
 20
416.5610135446651
 30
0.0
 41
0.9499631996935353
 10
235.6076473804436
 20
416.6566792761741
 30
0.0
 41
0.9573793298286711
  0
LINE
  5
35D
330
355
100
AcDbEntity
  8
$DDT_AUDIT_GENERATED_(77)
  6
Continuous
 62
     7
100
AcDbLine
 10
278.8425398407
 20
382.6320116203
 30
0.0
 11
309.85196832
 21
408.6520116203
 31
0.0
  0
LINE
  5
35E
330
355
100
AcDbEntity
  8
$DDT_AUDIT_GENERATED_(77)
  6
Continuous
 62
     7
100
AcDbLine
 10
218.9566173736
 20
322.3673024199
 30
0.0
 11
168.1852867793
 21
322.3673024199
 31
0.0
  0
ARC
  5
35F
330
355
100
AcDbEntity
  8
$DDT_AUDIT_GENERATED_(77)
  6
Continuous
 62
     7
100
AcDbCircle
 10
66.0358707344
 20
392.3412167487
 30
0.0
 40
112.8895895374459
100
AcDbArc
 50
347.1340081945
 51
352.8659784014
  0
LINE
  5
360
330
355
100
AcDbEntity
  8
$DDT_AUDIT_GENERATED_(77)
  6
Continuous
 62
     7
100
AcDbLine
 10
189.4140766106
 20
442.7617522425
 30
0.0
 11
238.6544642612
 21
434.0793433592
 31
0.0
  0
LINE
  5
361
330
355
100
AcDbEntity
  8
$DDT_AUDIT_GENERATED_(77)
  6
Continuous
 62
     7
100
AcDbLine
 10
190.0926753465
 20
443.7308916745
 30
0.0
 11
238.3482552441
 21
435.2221309689
 31
0.0
  0
ARC
  5
362
330
355
100
AcDbEntity
  8
$DDT_AUDIT_GENERATED_(77)
  6
Continuous
 62
     7
100
AcDbCircle
 10
240.5639102052
 20
416.2324439438
 30
0.0
 40
5.062454134516642
100
AcDbArc
 50
261.7374086488
 51
269.2228770995
  0
ARC
  5
363
330
355
100
AcDbEntity
  8
$DDT_AUDIT_GENERATED_(77)
  6
Continuous
 62
     7
100
AcDbCircle
 10
240.7060092537
 20
368.9649502829
 30
0.0
 40
13.42077824713776
100
AcDbArc
 50
165.1920117384
 51
169.3282179221
  0
ARC
  5
364
330
355
100
AcDbEntity
  8
$DDT_AUDIT_GENERATED_(77)
  6
Continuous
 62
     7
100
AcDbCircle
 10
240.3775661502
 20
369.3455966374
 30
0.0
 40
12.92822663372569
100
AcDbArc
 50
90.8251809525
 51
169.174811258
  0
ARC
  5
365
330
355
100
AcDbEntity
  8
$DDT_AUDIT_GENERATED_(77)
  6
Continuous
 62
     7
100
AcDbCircle
 10
240.3180768207
 20
416.0521463042
 30
0.0
 40
4.749579107063355
100
AcDbArc
 50
172.5693951581
 51
267.430604838
  0
LINE
  5
366
330
355
100
AcDbEntity
  8
$DDT_AUDIT_GENERATED_(77)
  6
Continuous
 62
     7
100
AcDbLine
 10
240.731816174
 20
382.2834178405
 30
0.0
 11
277.8847863023
 21
382.2834178405
 31
0.0
  0
LINE
  5
367
330
355
100
AcDbEntity
  8
$DDT_AUDIT_GENERATED_(77)
  6
Continuous
 62
     7
100
AcDbLine
 10
308.8942147816
 20
411.2834178405
 30
0.0
 11
240.593695505
 21
411.2834178405
 31
0.0
  0
ARC
  5
368
330
355
100
AcDbEntity
  8
$DDT_AUDIT_GENERATED_(77)
  6
Continuous
 62
     7
100
AcDbCircle
 10
308.8942147816
 20
409.7934178405
 30
0.0
 40
1.489999999999997
100
AcDbArc
 50
310.0
 51
90.0
  0
ARC
  5
369
330
355
100
AcDbEntity
  8
$DDT_AUDIT_GENERATED_(77)
  6
Continuous
 62
     7
100
AcDbCircle
 10
277.8847863023
 20
383.7734178405
 30
0.0
 40
1.49
100
AcDbArc
 50
269.9796441569
 51
310.0
  0
LINE
  5
36A
330
355
100
AcDbEntity
  8
$DDT_AUDIT_GENERATED_(77)
  6
Continuous
 62
     7
100
AcDbLine
 10
176.0952254661
 20
367.2267938885
 30
0.0
 11
168.1852867793
 21
322.3673024199
 31
0.0
  0
LINE
  5
36B
330
355
100
AcDbEntity
  8
$DDT_AUDIT_GENERATED_(77)
  6
Continuous
 62
     7
100
AcDbLine
 10
189.4140766106
 20
442.7617522425
 30
0.0
 11
178.0480857463
 21
378.3020148917
 31
0.0
  0
LINE
  5
36C
330
355
100
AcDbEntity
  8
$DDT_AUDIT_GENERATED_(77)
  6
Continuous
 62
     7
100
AcDbLine
 10
235.66965674
 20
417.1516587288
 30
0.0
 11
238.6544642612
 21
434.0793433592
 31
0.0
  0
LINE
  5
36D
330
355
100
AcDbEntity
  8
$DDT_AUDIT_GENERATED_(77)
  6
Continuous
 62
     7
100
AcDbLine
 10
218.9566173736
 20
322.3673024199
 30
0.0
 11
227.5747845938
 21
371.2433574941
 31
0.0
  0
LINE
  5
36E
330
355
100
AcDbEntity
  8
$DDT_AUDIT_GENERATED_(77)
  6
Continuous
 62
     7
100
AcDbLine
 10
238.6544642612
 20
434.0793433592
 30
0.0
 11
238.3482552441
 21
435.2221309689
 31
0.0
  0
LINE
  5
36F
330
355
100
AcDbEntity
  8
$DDT_AUDIT_GENERATED_(77)
  6
Continuous
 62
     7
100
AcDbLine
 10
190.0926753465
 20
443.7308916745
 30
0.0
 11
189.4140766106
 21
442.7617522425
 31
0.0
  0
LINE
  5
370
330
355
100
AcDbEntity
  8
02636038_GEHÄUSE
  6
Continuous
 62
     7
100
AcDbLine
 10
306.9531875898
 20
397.3428762112
 30
0.0
 11
290.4832320627
 21
383.5229426029
 31
0.0
  0
SPLINE
  5
371
330
355
100
AcDbEntity
  8
02636038_GEHÄUSE
  6
Continuous
 62
     7
100
AcDbSpline
210
0.0
220
0.0
230
1.0
 70
     8
 71
     3
 72
    10
 73
     6
 74
     0
 42
0.0000000019260148
 43
0.0000000001
 40
0.0
 40
0.0
 40
0.0
 40
0.0
 40
0.5
 40
0.5
 40
1.0
 40
1.0
 40
1.0
 40
1.0
 10
300.4954739271462
 20
392.3387335460759
 30
0.0
 10
299.9081523816003
 20
391.6971523509134
 30
0.0
 10
299.2857255753395
 20
391.0975177750818
 30
0.0
 10
297.9647948735569
 20
389.9891517142401
 30
0.0
 10
297.2662920027974
 20
389.4804190047602
 30
0.0
 10
296.5327207658726
 20
389.0135888300046
 30
0.0
  0
LINE
  5
372
330
355
100
AcDbEntity
  8
02636038_GEHÄUSE
  6
Continuous
 62
     7
100
AcDbLine
 10
300.0614935827
 20
395.4762801796
 30
0.0
 11
293.5182004117
 21
389.9858052932
 31
0.0
  0
LINE
  5
373
330
355
100
AcDbEntity
  8
02636038_GEHÄUSE
  6
Continuous
 62
     7
100
AcDbLine
 10
300.0614935827
 20
395.4762801796
 30
0.0
 11
301.2290735328
 21
394.0848125794
 31
0.0
  0
SPLINE
  5
374
330
355
100
AcDbEntity
  8
02636038_GEHÄUSE
  6
Continuous
 62
     7
100
AcDbSpline
210
0.0
220
0.0
230
1.0
 70
     8
 71
     3
 72
    14
 73
    10
 74
     0
 42
0.0000000049320844
 43
0.0000000001
 40
0.0
 40
0.0
 40
0.0
 40
0.0
 40
0.1249999999999997
 40
0.1249999999999997
 40
0.2499999999999994
 40
0.2499999999999994
 40
0.4999999999999996
 40
0.4999999999999996
 40
1.0
 40
1.0
 40
1.0
 40
1.0
 10
301.2290735327691
 20
394.0848125794329
 30
0.0
 10
301.2833409994669
 20
394.0201391310348
 30
0.0
 10
301.3127147028854
 20
393.9350773954557
 30
0.0
 10
301.3287752019498
 20
393.7668678198358
 30
0.0
 10
301.3183399803222
 20
393.6810658052378
 30
0.0
 10
301.2604675226272
 20
393.4352419407527
 30
0.0
 10
301.1868625670959
 20
393.2802868278287
 30
0.0
 10
300.936359047869
 20
392.8464011505839
 30
0.0
 10
300.7210412370919
 20
392.5851398722223
 30
0.0
 10
300.4954739271462
 20
392.3387335460759
 30
0.0
  0
SPLINE
  5
375
330
355
100
AcDbEntity
  8
02636038_GEHÄUSE
  6
Continuous
 62
     7
100
AcDbSpline
210
0.0
220
0.0
230
1.0
 70
     8
 71
     3
 72
    14
 73
    10
 74
     0
 42
0.0000000049319876
 43
0.0000000001
 40
0.0
 40
0.0
 40
0.0
 40
0.0
 40
0.4999999999999996
 40
0.4999999999999996
 40
0.7499999999999993
 40
0.7499999999999993
 40
0.8749999999999997
 40
0.8749999999999997
 40
1.0
 40
1.0
 40
1.0
 40
1.0
 10
296.5327207658726
 20
389.0135888300046
 30
0.0
 10
296.2496792299971
 20
388.8334668145754
 30
0.0
 10
295.9574039762489
 20
388.667935433613
 30
0.0
 10
295.4841986195415
 20
388.4957896428469
 30
0.0
 10
295.3201190145433
 20
388.450813101256
 30
0.0
 10
295.0696398402579
 20
388.4363255392962
 30
0.0
 10
294.9829234781606
 20
388.4407159374865
 30
0.0
 10
294.8191826872301
 20
388.4856920669527
 30
0.0
 10
294.7403051379108
 20
388.5293575951628
 30
0.0
 10
294.685780361797
 20
388.5943376929854
 30
0.0
  0
LINE
  5
376
330
355
100
AcDbEntity
  8
02636038_GEHÄUSE
  6
Continuous
 62
     7
100
AcDbLine
 10
294.6857803618
 20
388.594337693
 30
0.0
 11
293.5182004117
 21
389.9858052932
 31
0.0
  0
LINE
  5
377
330
355
100
AcDbEntity
  8
02636038_GEHÄUSE
  6
Continuous
 62
     7
100
AcDbLine
 10
289.8577951393
 20
383.4126611986
 30
0.0
 11
290.4832320627
 21
383.5229426029
 31
0.0
  0
LINE
  5
378
330
355
100
AcDbEntity
  8
02636038_GEHÄUSE
  6
Continuous
 62
     7
100
AcDbLine
 10
306.9531875898
 20
397.3428762112
 30
0.0
 11
307.1703995538
 21
397.9396611775
 31
0.0
  0
ARC
  5
379
330
355
100
AcDbEntity
  8
02636038_GEHÄUSE
  6
Continuous
 62
     7
100
AcDbCircle
 10
306.230706933
 20
398.2816813208
 30
0.0
 40
0.9999999999999931
100
AcDbArc
 50
340.0
 51
40.0
  0
ARC
  5
37A
330
355
100
AcDbEntity
  8
02636038_GEHÄUSE
  6
Continuous
 62
     7
100
AcDbCircle
 10
289.6841469616
 20
384.3974689516
 30
0.0
 40
0.9999999999999989
100
AcDbArc
 50
220.0
 51
280.0
  0
LINE
  5
37B
330
355
100
AcDbEntity
  8
02636038_GEHÄUSE
  6
Continuous
 62
     7
100
AcDbLine
 10
285.3079296516
 20
388.057117826
 30
0.0
 11
288.9181025185
 21
383.7546813419
 31
0.0
  0
LINE
  5
37C
330
355
100
AcDbEntity
  8
02636038_GEHÄUSE
  6
Continuous
 62
     7
100
AcDbLine
 10
306.9967513761
 20
398.9244689305
 30
0.0
 11
303.3865785092
 21
403.2269054146
 31
0.0
  0
LINE
  5
37D
330
355
100
AcDbEntity
  8
$DDT_AUDIT_GENERATED_(333)
  6
Continuous
 62
     7
100
AcDbLine
 10
240.4191440852
 20
436.4592706539
 30
0.0
 11
214.5333659164
 21
440.3279261219
 31
0.0
  0
LINE
  5
37E
330
355
100
AcDbEntity
  8
$DDT_AUDIT_GENERATED_(333)
  6
Continuous
 62
     7
100
AcDbLine
 10
214.5333659164
 20
440.3279261219
 30
0.0
 11
188.7223002429
 21
444.1854157327
 31
0.0
  0
LINE
  5
37F
330
355
100
AcDbEntity
  8
$DDT_AUDIT_GENERATED_(333)
  6
Continuous
 62
     7
100
AcDbLine
 10
188.3869291024
 20
444.6470331968
 30
0.0
 11
188.3869069036
 21
444.6470367394
 31
0.0
  0
SPLINE
  5
380
330
355
100
AcDbEntity
  8
$DDT_AUDIT_GENERATED_(333)
  6
Continuous
 62
     7
100
AcDbSpline
210
0.0
220
0.0
230
1.0
 70
     8
 71
     3
 72
    30
 73
    26
 74
     0
 42
0.0000000001884273
 43
0.0000000001
 40
0.0
 40
0.0
 40
0.0
 40
0.0
 40
0.0625000000001051
 40
0.12500000000009
 40
0.1562500000000225
 40
0.187500000000075
 40
0.25000000000006
 40
0.2812499999999925
 40
0.312500000000045
 40
0.37500000000003
 40
0.4062500000000825
 40
0.437500000000015
 40
0.5
 40
0.531250000000053
 40
0.562499999999985
 40
0.62500000000009
 40
0.656250000000023
 40
0.687500000000075
 40
0.75000000000006
 40
0.78125
 40
0.812500000000045
 40
0.87500000000003
 40
0.906250000000083
 40
0.937500000000015
 40
1.0
 40
1.0
 40
1.0
 40
1.0
 10
240.8748454209899
 20
436.8026636876936
 30
0.0
 10
240.874813220674
 20
436.802668489269
 30
0.0
 10
240.5388754129197
 20
436.8527612366122
 30
0.0
 10
239.2947696248185
 20
437.0382868847386
 30
0.0
 10
237.8386567869796
 20
437.2554506933214
 30
0.0
 10
236.0749817406945
 20
437.5185055814832
 30
0.0
 10
233.8744708185023
 20
437.846761310612
 30
0.0
 10
231.3465863222522
 20
438.223928677312
 30
0.0
 10
228.5837643620241
 20
438.6362097113887
 30
0.0
 10
225.5223878426971
 20
439.0931530939671
 30
0.0
 10
222.3075891884303
 20
439.5731384860241
 30
0.0
 10
218.9661248504127
 20
440.0721394026785
 30
0.0
 10
215.5106159020329
 20
440.5883454312238
 30
0.0
 10
212.0986490139082
 20
441.0982358252845
 30
0.0
 10
208.6876609584003
 20
441.6081096580788
 30
0.0
 10
205.3648902715886
 20
442.104998233606
 30
0.0
 10
202.275618366941
 20
442.5671536282272
 30
0.0
 10
199.3151442735577
 20
443.0101587474869
 30
0.0
 10
196.6314769415783
 20
443.4119081840151
 30
0.0
 10
194.3354536045713
 20
443.7557457298261
 30
0.0
 10
192.2768148527669
 20
444.0641021399719
 30
0.0
 10
190.6405914591094
 20
444.3092658892567
 30
0.0
 10
189.4872648777357
 20
444.4821084320186
 30
0.0
 10
188.6441198967527
 20
444.6084799543269
 30
0.0
 10
188.3887153380525
 20
444.6467656041522
 30
0.0
 10
188.3869291024271
 20
444.6470331967599
 30
0.0
  0
LINE
  5
381
330
355
100
AcDbEntity
  8
$DDT_AUDIT_GENERATED_(333)
  6
Continuous
 62
     7
100
AcDbLine
 10
240.874845421
 20
436.8026636877
 30
0.0
 11
241.9756682159
 21
445.163781138
 31
0.0
  0
LINE
  5
382
330
355
100
AcDbEntity
  8
$DDT_AUDIT_GENERATED_(333)
  6
Continuous
 62
     7
100
AcDbLine
 10
244.8569963917
 20
467.0484305561
 30
0.0
 11
245.4142130973
 21
471.2806800116
 31
0.0
  0
SPLINE
  5
383
330
355
100
AcDbEntity
  8
$DDT_AUDIT_GENERATED_(333)
  6
Continuous
 62
     7
100
AcDbSpline
210
0.0
220
0.0
230
1.0
 70
     8
 71
     3
 72
     8
 73
     4
 74
     0
 42
0.0000000100264328
 43
0.0000000001
 40
0.0
 40
0.0
 40
0.0
 40
0.0
 40
0.0076975827671188
 40
0.0076975827671188
 40
0.0076975827671188
 40
0.0076975827671188
 10
188.3869189501557
 20
444.6470346662359
 30
0.0
 10
188.3868469234536
 20
444.6470455760209
 30
0.0
 10
188.3893303746063
 20
444.6466733939752
 30
0.0
 10
188.3943673659541
 20
444.6459184238236
 30
0.0
  0
SPLINE
  5
384
330
355
100
AcDbEntity
  8
$DDT_AUDIT_GENERATED_(333)
  6
Continuous
 62
     7
100
AcDbSpline
210
0.0
220
0.0
230
1.0
 70
     8
 71
     3
 72
     9
 73
     5
 74
     0
 42
0.0000000151110095
 43
0.0000000001
 40
0.1249848017974716
 40
0.1249848017974716
 40
0.1249848017974716
 40
0.1249848017974716
 40
0.5
 40
1.0
 40
1.0
 40
1.0
 40
1.0
 10
240.4983120263398
 20
436.4556379516301
 30
0.0
 10
240.5776192328982
 20
436.4599677989456
 30
0.0
 10
240.7599770532742
 20
436.5248704522699
 30
0.0
 10
240.8610158514348
 20
436.6976878953731
 30
0.0
 10
240.8748454209899
 20
436.8026636876936
 30
0.0
  0
ARC
  5
385
330
355
100
AcDbEntity
  8
$DDT_AUDIT_GENERATED_(333)
  6
Continuous
 62
     7
100
AcDbCircle
 10
188.7814070339
 20
444.5809920889
 30
0.0
 40
0.3999678316159362
100
AcDbArc
 50
170.4960239828
 51
261.5017697769
  0
LINE
  5
386
330
355
100
AcDbEntity
  8
$DDT_AUDIT_GENERATED_(333)
  6
Continuous
 62
     7
100
AcDbLine
 10
244.856996115
 20
467.0484305926
 30
0.0
 11
244.6582014854
 21
465.5385188664
 31
0.0
  0
LINE
  5
387
330
355
100
AcDbEntity
  8
$DDT_AUDIT_GENERATED_(333)
  6
Continuous
 62
     7
100
AcDbLine
 10
243.0196537949
 20
453.0932009164
 30
0.0
 11
242.9301651198
 21
452.4135044877
 31
0.0
  0
ARC
  5
388
330
355
100
AcDbEntity
  8
$DDT_AUDIT_GENERATED_(333)
  6
Continuous
 62
     7
100
AcDbCircle
 10
271.7491258172
 20
455.6412096373
 30
0.0
 40
28.84224178400855
100
AcDbArc
 50
159.9308955484
 51
185.0682853682
  0
ARC
  5
389
330
355
100
AcDbEntity
  8
$DDT_AUDIT_GENERATED_(333)
  6
Continuous
 62
     7
100
AcDbCircle
 10
245.3522122592
 20
465.447145568
 30
0.0
 40
0.699999921157405
100
AcDbArc
 50
172.4995904583
 51
271.4999980534
  0
ARC
  5
38A
330
355
100
AcDbEntity
  8
$DDT_AUDIT_GENERATED_(333)
  6
Continuous
 62
     7
100
AcDbCircle
 10
243.7136645208
 20
453.0018276243
 30
0.0
 40
0.699999975920692
100
AcDbArc
 50
91.4999980534
 51
172.4995904583
  0
SPLINE
  5
38B
330
355
100
AcDbEntity
  8
$DDT_AUDIT_GENERATED_(333)
  6
Continuous
 62
     7
100
AcDbSpline
210
0.0
220
0.0
230
1.0
 70
     8
 71
     3
 72
    16
 73
    12
 74
     0
 42
0.0000000005442506
 43
0.0000000001
 40
0.2666589637957621
 40
0.2666589637957621
 40
0.2666589637957621
 40
0.2666589637957621
 40
0.3750000000000001
 40
0.3750000000000001
 40
0.5000000000000001
 40
0.5000000000000001
 40
0.6250000000000001
 40
0.6250000000000001
 40
0.7500000000000002
 40
0.7500000000000002
 40
0.7659017916483843
 40
0.7659017916483843
 40
0.7659017916483843
 40
0.7659017916483843
 10
309.7659700398431
 20
465.276005459819
 30
0.0
 10
309.7651401884083
 20
465.270078943352
 30
0.0
 10
309.7100536386438
 20
464.9015188488991
 30
0.0
 10
309.4995493129877
 20
463.4953739407439
 30
0.0
 10
309.3322968640761
 20
462.3792781879076
 30
0.0
 10
308.978220716201
 20
460.020988617626
 30
0.0
 10
308.7963215629013
 20
458.811661928369
 30
0.0
 10
308.5184855699223
 20
456.9668571780963
 30
0.0
 10
308.4255565437854
 20
456.3510188499053
 30
0.0
 10
308.4045995523319
 20
456.212470805902
 30
0.0
 10
308.4034334815689
 20
456.2047842179197
 30
0.0
 10
308.4034343337843
 20
456.2048358833429
 30
0.0
  0
LINE
  5
38C
330
355
100
AcDbEntity
  8
$DDT_AUDIT_GENERATED_(333)
  6
Continuous
 62
     7
100
AcDbLine
 10
192.6951656555
 20
470.3938042095
 30
0.0
 11
188.3869189502
 21
444.6470346662
 31
0.0
  0
LINE
  5
38D
330
355
100
AcDbEntity
  8
$DDT_AUDIT_GENERATED_(333)
  6
Continuous
 62
     7
100
AcDbLine
 10
245.414213128
 20
471.2806821398
 30
0.0
 11
245.4142093681
 21
471.2806648844
 31
0.0
  0
ARC
  5
38E
330
355
100
AcDbEntity
  8
$DDT_AUDIT_GENERATED_(333)
  6
Continuous
 62
     7
100
AcDbCircle
 10
203.6138213149
 20
1388.7431102045
 30
0.0
 40
918.41418271612
100
AcDbArc
 50
269.3188179697
 51
272.6086416133
  0
LINE
  5
38F
330
355
100
AcDbEntity
  8
$DDT_AUDIT_GENERATED_(333)
  6
Continuous
 62
     7
100
AcDbLine
 10
194.0360280142
 20
471.8422996166
 30
0.0
 11
192.838328218
 21
470.6683986811
 31
0.0
  0
LINE
  5
390
330
355
100
AcDbEntity
  8
$DDT_AUDIT_GENERATED_(333)
  6
Continuous
 62
     7
100
AcDbLine
 10
245.3084486174
 20
471.6588697196
 30
0.0
 11
244.0383616463
 21
473.2415622858
 31
0.0
  0
ARC
  5
391
330
355
100
AcDbEntity
  8
$DDT_AUDIT_GENERATED_(333)
  6
Continuous
 62
     7
100
AcDbCircle
 10
416.9016659458
 20
-6281.4349688716
 30
0.0
 40
6757.08211604466
100
AcDbArc
 50
91.4688731435
 51
91.8877458558
  0
ARC
  5
392
330
355
100
AcDbEntity
  8
$DDT_AUDIT_GENERATED_(333)
  6
Continuous
 62
     7
100
AcDbCircle
 10
244.9129609455
 20
471.3444000327
 30
0.0
 40
0.5052860188031193
100
AcDbArc
 50
352.7553213513
 51
38.4908430866
  0
ARC
  5
393
330
355
100
AcDbEntity
  8
$DDT_AUDIT_GENERATED_(333)
  6
Continuous
 62
     7
100
AcDbCircle
 10
193.1915063125
 20
470.3096521699
 30
0.0
 40
0.5034221149184785
100
AcDbArc
 50
134.551862277
 51
170.3738886667
  0
ARC
  5
394
330
355
100
AcDbEntity
  8
$DDT_AUDIT_GENERATED_(333)
  6
Continuous
 62
     7
100
AcDbCircle
 10
243.6456405218
 20
472.9234558582
 30
0.0
 40
0.5053925018101297
100
AcDbArc
 50
39.0076766513
 51
84.7894131028
  0
ARC
  5
395
330
355
100
AcDbEntity
  8
$DDT_AUDIT_GENERATED_(333)
  6
Continuous
 62
     7
100
AcDbCircle
 10
194.3875331993
 20
471.4821552016
 30
0.0
 40
0.5032493365987107
100
AcDbArc
 50
98.426630375
 51
134.3044792031
  0
ARC
  5
396
330
355
100
AcDbEntity
  8
$DDT_AUDIT_GENERATED_(333)
  6
Continuous
 62
     7
100
AcDbCircle
 10
190.4020350855
 20
446.4573247233
 30
0.0
 40
0.4013033102814367
100
AcDbArc
 50
325.550712441
 51
350.4594398588
  0
LINE
  5
397
330
355
100
AcDbEntity
  8
$DDT_AUDIT_GENERATED_(333)
  6
Continuous
 62
     7
100
AcDbLine
 10
194.6394863286
 20
469.3495321761
 30
0.0
 11
190.7977877754
 21
446.3908103995
 31
0.0
  0
ARC
  5
398
330
355
100
AcDbEntity
  8
$DDT_AUDIT_GENERATED_(333)
  6
Continuous
 62
     7
100
AcDbCircle
 10
195.6257737841
 20
469.1844961035
 30
0.0
 40
0.9999999250545276
100
AcDbArc
 50
97.9576743154
 51
170.5006692753
  0
LINE
  5
399
330
355
100
AcDbEntity
  8
$DDT_AUDIT_GENERATED_(333)
  6
Continuous
 62
     7
100
AcDbLine
 10
214.5052209397
 20
450.6703115448
 30
0.0
 11
223.8641419315
 21
470.7405823803
 31
0.0
  0
LINE
  5
39A
330
355
100
AcDbEntity
  8
$DDT_AUDIT_GENERATED_(333)
  6
Continuous
 62
     7
100
AcDbLine
 10
233.7128838784
 20
450.2642337137
 30
0.0
 11
235.222670714
 21
453.5019820311
 31
0.0
  0
LINE
  5
39B
330
355
100
AcDbEntity
  8
$DDT_AUDIT_GENERATED_(333)
  6
Continuous
 62
     7
100
AcDbLine
 10
235.222670714
 20
453.5019820311
 30
0.0
 11
238.677614157
 21
460.9111321546
 31
0.0
  0
LINE
  5
39C
330
355
100
AcDbEntity
  8
$DDT_AUDIT_GENERATED_(333)
  6
Continuous
 62
     7
100
AcDbLine
 10
233.893675034
 20
449.6334966125
 30
0.0
 11
233.8941028895
 21
449.6332187599
 31
0.0
  0
LINE
  5
39D
330
355
100
AcDbEntity
  8
$DDT_AUDIT_GENERATED_(333)
  6
Continuous
 62
     7
100
AcDbLine
 10
233.8941028895
 20
449.6332187599
 30
0.0
 11
239.7787452708
 21
445.8116873142
 31
0.0
  0
ARC
  5
39E
330
355
100
AcDbEntity
  8
$DDT_AUDIT_GENERATED_(333)
  6
Continuous
 62
     7
100
AcDbCircle
 10
234.1660219679
 20
450.0528397632
 30
0.0
 40
0.5000215299548937
100
AcDbArc
 50
154.9904260851
 51
236.9978562327
  0
LINE
  5
39F
330
355
100
AcDbEntity
  8
$DDT_AUDIT_GENERATED_(333)
  6
Continuous
 62
     7
100
AcDbLine
 10
240.5851231119
 20
470.9755728788
 30
0.0
 11
228.9420283971
 21
448.1247128748
 31
0.0
  0
ARC
  5
3A0
330
355
100
AcDbEntity
  8
$DDT_AUDIT_GENERATED_(333)
  6
Continuous
 62
     7
100
AcDbCircle
 10
274.4003354279
 20
444.6383381084
 30
0.0
 40
32.41643217180351
100
AcDbArc
 50
167.8527136109
 51
178.8770595937
  0
ARC
  5
3A1
330
355
100
AcDbEntity
  8
$DDT_AUDIT_GENERATED_(333)
  6
Continuous
 62
     7
100
AcDbCircle
 10
274.4003354279
 20
444.6383381084
 30
0.0
 40
32.41643217180351
100
AcDbArc
 50
166.1221283071
 51
166.8283425384
  0
ARC
  5
3A2
330
355
100
AcDbEntity
  8
$DDT_AUDIT_GENERATED_(333)
  6
Continuous
 62
     7
100
AcDbCircle
 10
236.3000638226
 20
459.7021744568
 30
0.0
 40
0.3000000000000008
100
AcDbArc
 50
63.0
 51
153.0
  0
LINE
  5
3A3
330
355
100
AcDbEntity
  8
$DDT_AUDIT_GENERATED_(333)
  6
Continuous
 62
     7
100
AcDbLine
 10
241.8710966471
 20
471.2967487842
 30
0.0
 11
235.1684273711
 21
458.1420196481
 31
0.0
  0
ARC
  5
3A4
330
355
100
AcDbEntity
  8
$DDT_AUDIT_GENERATED_(333)
  6
Continuous
 62
     7
100
AcDbCircle
 10
276.5173136912
 20
445.8247168467
 30
0.0
 40
36.60503065491837
100
AcDbArc
 50
172.6390795368
 51
180.4762476782
  0
LINE
  5
3A5
330
355
100
AcDbEntity
  8
$DDT_AUDIT_GENERATED_(333)
  6
Continuous
 62
     7
100
AcDbLine
 10
239.7796375731
 20
445.8111078464
 30
0.0
 11
239.7787452708
 21
445.8116873142
 31
0.0
  0
ELLIPSE
  5
3A6
330
355
100
AcDbEntity
  8
$DDT_AUDIT_GENERATED_(333)
  6
Continuous
 62
     7
100
AcDbEllipse
 10
239.9208281075
 20
450.5531348417
 30
0.0
 11
-0.2973178455829978
 21
0.04002622512661037
 31
0.0
210
0.0
220
0.0
230
0.9999999999999999
 40
0.0165668796
 41
3.141639094274905
 42
3.311975833621756
  0
ARC
  5
3A7
330
355
100
AcDbEntity
  8
$DDT_AUDIT_GENERATED_(333)
  6
Continuous
 62
     7
100
AcDbCircle
 10
239.6164207416
 20
445.5597364725
 30
0.0
 40
0.2997120313147049
100
AcDbArc
 50
352.4691164879
 51
57.0041120141
  0
LINE
  5
3A8
330
355
100
AcDbEntity
  8
$DDT_AUDIT_GENERATED_(333)
  6
Continuous
 62
     7
100
AcDbLine
 10
237.634383124
 20
459.3590026862
 30
0.0
 11
236.4362609725
 21
459.969476414
 31
0.0
  0
ARC
  5
3A9
330
355
100
AcDbEntity
  8
$DDT_AUDIT_GENERATED_(333)
  6
Continuous
 62
     7
100
AcDbCircle
 10
237.498185974
 20
459.091700729
 30
0.0
 40
0.3000000000000019
100
AcDbArc
 50
335.0
 51
63.0
  0
LINE
  5
3AA
330
355
100
AcDbEntity
  8
$DDT_AUDIT_GENERATED_(333)
  6
Continuous
 62
     7
100
AcDbLine
 10
235.1497464165
 20
458.1103251752
 30
0.0
 11
230.5982817822
 21
451.3703242036
 31
0.0
  0
ARC
  5
3AB
330
355
100
AcDbEntity
  8
$DDT_AUDIT_GENERATED_(333)
  6
Continuous
 62
     7
100
AcDbCircle
 10
234.9011254139
 20
458.2782167981
 30
0.0
 40
0.3000000000000072
100
AcDbArc
 50
325.9691819174
 51
333.0
  0
ARC
  5
3AC
330
355
100
AcDbEntity
  8
$DDT_AUDIT_GENERATED_(333)
  6
Continuous
 62
     7
100
AcDbCircle
 10
230.8469027849
 20
451.2024325807
 30
0.0
 40
0.3000000000000041
100
AcDbArc
 50
145.9691819174
 51
153.0
  0
ARC
  5
3AD
330
355
100
AcDbEntity
  8
$DDT_AUDIT_GENERATED_(333)
  6
Continuous
 62
     7
100
AcDbCircle
 10
188.7895444003
 20
444.5803674487
 30
0.0
 40
0.4005534061138822
100
AcDbArc
 50
170.5816027636
 51
261.4029629322
  0
ARC
  5
3AE
330
355
100
AcDbEntity
  8
$DDT_AUDIT_GENERATED_(333)
  6
Continuous
 62
     7
100
AcDbCircle
 10
240.4785564964
 20
436.8880785184
 30
0.0
 40
0.4328916131048043
100
AcDbArc
 50
262.4564935775
 51
272.6152579174
  0
LINE
  5
3AF
330
355
100
AcDbEntity
  8
$DDT_AUDIT_GENERATED_(333)
  6
Continuous
 62
     7
100
AcDbLine
 10
243.6953578487
 20
453.7015875347
 30
0.0
 11
307.4453984006
 21
455.3709410966
 31
0.0
  0
LINE
  5
3B0
330
355
100
AcDbEntity
  8
$DDT_AUDIT_GENERATED_(333)
  6
Continuous
 62
     7
100
AcDbLine
 10
308.7457640744
 20
466.4069248594
 30
0.0
 11
245.370445769
 21
464.747383745
 31
0.0
  0
SPLINE
  5
3B1
330
355
100
AcDbEntity
  8
$DDT_AUDIT_GENERATED_(333)
  6
Continuous
 62
     7
100
AcDbSpline
210
0.0
220
0.0
230
1.0
 70
     8
 71
     3
 72
    13
 73
     9
 74
     0
 42
0.0000000060970136
 43
0.0000000001
 40
0.0
 40
0.0
 40
0.0
 40
0.0
 40
0.0892271456275941
 40
0.3246333426843455
 40
0.4921275362773812
 40
0.6892804919780563
 40
0.9052716895308344
 40
1.0
 40
1.0
 40
1.0
 40
1.0
 10
309.7704022317449
 20
465.3880992124636
 30
0.0
 10
309.7711850490737
 20
465.4408197983267
 30
0.0
 10
309.7715247822164
 20
465.6049025280532
 30
0.0
 10
309.6805855028441
 20
465.8704623483922
 30
0.0
 10
309.4864201410513
 20
466.1305056051913
 30
0.0
 10
309.2324957515577
 20
466.3144186171759
 30
0.0
 10
308.9589549773931
 20
466.4125820314701
 30
0.0
 10
308.8017593895588
 20
466.3969526086962
 30
0.0
 10
308.7461220912803
 20
466.3907541414175
 30
0.0
  0
SPLINE
  5
3B2
330
355
100
AcDbEntity
  8
$DDT_AUDIT_GENERATED_(333)
  6
Continuous
 62
     7
100
AcDbSpline
210
0.0
220
0.0
230
1.0
 70
     8
 71
     3
 72
    14
 73
    10
 74
     0
 42
0.0000000079213264
 43
0.0000000001
 40
0.0
 40
0.0
 40
0.0
 40
0.0
 40
0.0313529115499593
 40
0.2868873473736056
 40
0.4968500123418247
 40
0.6755203074931332
 40
0.8250563588177932
 40
0.9444221598217812
 40
1.0
 40
1.0
 40
1.0
 40
1.0
 10
307.4442438453402
 20
455.3771229506491
 30
0.0
 10
307.4584695666913
 20
455.3752770704425
 30
0.0
 10
307.5706847724275
 20
455.3609707986136
 30
0.0
 10
307.783808698457
 20
455.4296031604114
 30
0.0
 10
308.0165957535958
 20
455.5569150705495
 30
0.0
 10
308.1810173711086
 20
455.7142985630879
 30
0.0
 10
308.2862966173315
 20
455.8669096951423
 30
0.0
 10
308.3463437531459
 20
455.9924017417292
 30
0.0
 10
308.3661012907435
 20
456.0576409205397
 30
0.0
 10
308.3733219242231
 20
456.0820212321722
 30
0.0
  0
ARC
  5
3B3
330
355
100
AcDbEntity
  8
$DDT_AUDIT_GENERATED_(333)
  6
Continuous
 62
     7
100
AcDbCircle
 10
225.2283730573
 20
260.2247160009
 30
0.0
 40
214.0000000000026
100
AcDbArc
 50
95.6887198732
 51
98.3059821176
  0
ARC
  5
3B4
330
355
100
AcDbEntity
  8
$DDT_AUDIT_GENERATED_(333)
  6
Continuous
 62
     7
100
AcDbCircle
 10
225.2283730573
 20
260.2247160009
 30
0.0
 40
214.000000000003
100
AcDbArc
 50
85.0506505451
 51
87.3112801268
  0
ARC
  5
3B5
330
355
100
AcDbEntity
  8
$DDT_AUDIT_GENERATED_(333)
  6
Continuous
 62
     7
100
AcDbCircle
 10
235.2436138633
 20
473.4896801924
 30
0.0
 40
0.4999999999999699
100
AcDbArc
 50
87.3112801268
 51
91.5
  0
ARC
  5
3B6
330
355
100
AcDbEntity
  8
$DDT_AUDIT_GENERATED_(333)
  6
Continuous
 62
     7
100
AcDbCircle
 10
204.0654319567
 20
472.6732507663
 30
0.0
 40
0.500000000000016
100
AcDbArc
 50
91.5
 51
95.6887198733
  0
LINE
  5
3B7
330
355
100
AcDbEntity
  8
$DDT_AUDIT_GENERATED_(333)
  6
Continuous
 62
     7
100
AcDbLine
 10
235.2305253891
 20
473.9895088549
 30
0.0
 11
204.0523434825
 21
473.1730794288
 31
0.0
  0
ARC
  5
3B8
330
355
100
AcDbEntity
  8
$DDT_AUDIT_GENERATED_(333)
  6
Continuous
 62
     7
100
AcDbCircle
 10
233.9463177382
 20
473.5466498017
 30
0.0
 40
0.4999999999999759
100
AcDbArc
 50
56.4031489454
 51
87.6597641707
  0
ARC
  5
3B9
330
355
100
AcDbEntity
  8
$DDT_AUDIT_GENERATED_(333)
  6
Continuous
 62
     7
100
AcDbCircle
 10
205.3579686235
 20
472.798037534
 30
0.0
 40
0.5000000000000979
100
AcDbArc
 50
95.3402358293
 51
126.5968510546
  0
ARC
  5
3BA
330
355
100
AcDbEntity
  8
$DDT_AUDIT_GENERATED_(333)
  6
Continuous
 62
     7
100
AcDbCircle
 10
225.2283730573
 20
260.2247160009
 30
0.0
 40
214.0
100
AcDbArc
 50
87.6597641705
 51
95.3402358295
  0
SPLINE
  5
3BB
330
355
100
AcDbEntity
  8
$DDT_AUDIT_GENERATED_(333)
  6
Continuous
 62
     7
100
AcDbSpline
210
0.0
220
0.0
230
1.0
 70
     8
 71
     3
 72
     8
 73
     4
 74
     0
 42
0.0000000847211749
 43
0.0000000001
 40
0.4538975384697542
 40
0.4538975384697542
 40
0.4538975384697542
 40
0.4538975384697542
 40
1.0
 40
1.0
 40
1.0
 40
1.0
 10
192.7240822884018
 20
470.4905973210416
 30
0.0
 10
192.7091095082077
 20
470.4577081673187
 30
0.0
 10
192.7029621192291
 20
470.4377789730527
 30
0.0
 10
192.705640121466
 20
470.4308097382433
 30
0.0
  0
ARC
  5
3BC
330
355
100
AcDbEntity
  8
$DDT_AUDIT_GENERATED_(333)
  6
Continuous
 62
     7
100
AcDbCircle
 10
224.7919145435
 20
260.5388501434
 30
0.0
 40
211.6743204889245
100
AcDbArc
 50
97.6009375477
 51
97.957638092
  0
LINE
  5
3BD
330
355
100
AcDbEntity
  8
$DDT_AUDIT_GENERATED_(34C)
  6
Continuous
 62
     7
100
AcDbLine
 10
241.9900824454
 20
445.1544204279
 30
0.0
 11
242.8340477448
 21
452.0279661993
 31
0.0
  0
LINE
  5
3BE
330
355
100
AcDbEntity
  8
$DDT_AUDIT_GENERATED_(34C)
  6
Continuous
 62
     7
100
AcDbLine
 10
239.9267139511
 20
446.613623925
 30
0.0
 11
241.5370884015
 21
445.567834529
 31
0.0
  0
LINE
  5
3C0
330
355
100
AcDbEntity
  8
$DDT_AUDIT_GENERATED_(3BF)
  6
Continuous
 62
     7
100
AcDbLine
 10
156.8392560829
 20
385.1727046892
 30
0.0
 11
156.8392560829
 21
389.1727046892
 31
0.0
  0
LINE
  5
3C1
330
355
100
AcDbEntity
  8
$DDT_AUDIT_GENERATED_(3BF)
  6
Continuous
 62
     7
100
AcDbLine
 10
170.2096284989
 20
389.1727046892
 30
0.0
 11
156.8392560829
 21
389.1727046892
 31
0.0
  0
LINE
  5
3C2
330
355
100
AcDbEntity
  8
$DDT_AUDIT_GENERATED_(3BF)
  6
Continuous
 62
     7
100
AcDbLine
 10
156.8392560829
 20
385.1727046892
 30
0.0
 11
170.2096284989
 21
385.1727046892
 31
0.0
  0
ARC
  5
3C3
330
355
100
AcDbEntity
  8
$DDT_AUDIT_GENERATED_(3BF)
  6
Continuous
 62
     7
100
AcDbCircle
 10
170.2096284989
 20
384.1727046892
 30
0.0
 40
0.999999999999994
100
AcDbArc
 50
18.0
 51
90.0
  0
ARC
  5
3C4
330
355
100
AcDbEntity
  8
$DDT_AUDIT_GENERATED_(3BF)
  6
Continuous
 62
     7
100
AcDbCircle
 10
170.2096284989
 20
384.1727046892
 30
0.0
 40
5.000000000000004
100
AcDbArc
 50
18.0
 51
90.0
  0
LINE
  5
3C5
330
355
100
AcDbEntity
  8
$DDT_AUDIT_GENERATED_(3BF)
  6
Continuous
 62
     7
100
AcDbLine
 10
177.8504928032
 20
376.8368822976
 30
0.0
 11
174.9649110803
 21
385.7177896611
 31
0.0
  0
LINE
  5
3C6
330
355
100
AcDbEntity
  8
$DDT_AUDIT_GENERATED_(3BF)
  6
Continuous
 62
     7
100
AcDbLine
 10
171.1606850152
 20
384.4817216836
 30
0.0
 11
176.3702933684
 21
368.4481958198
 31
0.0
  0
LINE
  5
3C8
330
355
100
AcDbEntity
  8
$DDT_AUDIT_GENERATED_(3C7)
  6
Continuous
 62
     7
100
AcDbLine
 10
236.5178978418
 20
456.2796055704
 30
0.0
 11
234.7074359998
 21
457.4553332378
 31
0.0
  0
LINE
  5
3C9
330
355
100
AcDbEntity
  8
$DDT_AUDIT_GENERATED_(3C7)
  6
Continuous
 62
     7
100
AcDbLine
 10
231.3490600343
 20
452.4821083335
 30
0.0
 11
233.9572684017
 21
450.7883180152
 31
0.0
  0
LINE
  5
3CA
330
355
100
AcDbEntity
  8
$DDT_AUDIT_GENERATED_(3C7)
  6
Continuous
 62
     7
100
AcDbLine
 10
234.3724829932
 20
456.9395508385
 30
0.0
 11
236.1829448353
 21
455.7638231711
 31
0.0
  0
LINE
  5
3CB
330
355
100
AcDbEntity
  8
$DDT_AUDIT_GENERATED_(3C7)
  6
Continuous
 62
     7
100
AcDbLine
 10
231.6840130409
 20
452.9978907328
 30
0.0
 11
234.2922214082
 21
451.3041004144
 31
0.0
  0
LINE
  5
3CC
330
355
100
AcDbEntity
  8
$DDT_AUDIT_GENERATED_(350)
  6
Continuous
 62
     7
100
AcDbLine
 10
231.9002283551
 20
447.6031024079
 30
0.0
 11
200.3863802587
 21
453.1598440932
 31
0.0
  0
ARC
  5
3CD
330
355
100
AcDbEntity
  8
$DDT_AUDIT_GENERATED_(350)
  6
Continuous
 62
     7
100
AcDbCircle
 10
212.5187131541
 20
429.8253953422
 30
0.0
 40
26.30000000000001
100
AcDbArc
 50
117.4713768542
 51
146.4827274493
  0
ARC
  5
3CE
330
355
100
AcDbEntity
  8
$DDT_AUDIT_GENERATED_(350)
  6
Continuous
 62
     7
100
AcDbCircle
 10
212.5187131541
 20
429.8253953422
 30
0.0
 40
26.30000000000001
100
AcDbArc
 50
12.8588056497
 51
15.538405969
  0
ARC
  5
3CF
330
355
100
AcDbEntity
  8
$DDT_AUDIT_GENERATED_(350)
  6
Continuous
 62
     7
100
AcDbCircle
 10
212.5187131541
 20
429.8253953422
 30
0.0
 40
26.30000000000001
100
AcDbArc
 50
16.5190604862
 51
42.5286231458
  0
ARC
  5
3D0
330
355
100
AcDbEntity
  8
$DDT_AUDIT_GENERATED_(350)
  6
Continuous
 62
     7
100
AcDbCircle
 10
190.6784485404
 20
443.9322320394
 30
0.0
 40
0.2999999999999982
100
AcDbArc
 50
179.0990702849
 51
260.0
  0
ARC
  5
3D1
330
355
100
AcDbEntity
  8
$DDT_AUDIT_GENERATED_(350)
  6
Continuous
 62
     7
100
AcDbCircle
 10
237.8666709567
 20
435.6116752558
 30
0.0
 40
0.299999999999996
100
AcDbArc
 50
260.0
 51
12.8588056497
  0
ENDBLK
  5
3D3
330
355
100
AcDbEntity
  8
0
100
AcDbBlockEnd
  0
BLOCK
  5
3F8
330
3D4
100
AcDbEntity
  8
0
100
AcDbBlockBegin
  2
SE2
 70
     0
 10
0.0
 20
0.0
 30
0.0
  3
SE2
  1

  0
ELLIPSE
  5
3D6
330
3D4
100
AcDbEntity
  8
$DDT_AUDIT_GENERATED_(77)
  6
Continuous
 62
     7
100
AcDbEllipse
 10
64.2067547695
 20
223.1659645902
 30
0.0
 11
0.0
 21
-25.38566529714362
 31
0.0
210
0.0
220
0.0
230
1.0
 40
0.984807753
 41
1.570796326794897
 42
3.061507073556115
  0
ELLIPSE
  5
3D7
330
3D4
100
AcDbEntity
  8
$DDT_AUDIT_GENERATED_(77)
  6
Continuous
 62
     7
100
AcDbEllipse
 10
64.2067547695
 20
223.1659645902
 30
0.0
 11
0.0
 21
-25.38566529714362
 31
0.0
210
0.0
220
0.0
230
1.0
 40
0.984807753
 41
3.221678233623471
 42
4.71238898038469
  0
SPLINE
  5
3D8
330
3D4
100
AcDbEntity
  8
$DDT_AUDIT_GENERATED_(77)
  6
Continuous
 62
     7
100
AcDbSpline
210
0.0
220
0.0
230
1.0
 70
     8
 71
     3
 72
    26
 73
    22
 74
     0
 42
0.0000000009783574
 43
0.0000000001
 40
0.0773456119448401
 40
0.0773456119448401
 40
0.0773456119448401
 40
0.0773456119448401
 40
0.1250000000000007
 40
0.1250000000000007
 40
0.2500000000000014
 40
0.2500000000000014
 40
0.3750000000000022
 40
0.3750000000000022
 40
0.4375000000000022
 40
0.4375000000000022
 40
0.4687500000000024
 40
0.4687500000000024
 40
0.5000000000000027
 40
0.5000000000000027
 40
0.5625000000000027
 40
0.5625000000000027
 40
0.6250000000000027
 40
0.6250000000000027
 40
0.7500000000000022
 40
0.7500000000000022
 40
0.8664538781015586
 40
0.8664538781015586
 40
0.8664538781015586
 40
0.8664538781015586
 10
62.19844250633596
 20
240.2520612070258
 30
0.0
 10
62.02872418116013
 20
240.1704153690652
 30
0.0
 10
61.90276889575085
 20
240.0869551456091
 30
0.0
 10
61.5581335909115
 20
239.7933656658568
 30
0.0
 10
61.50694622362833
 20
239.5891726355876
 30
0.0
 10
61.68624522113475
 20
239.2234319579014
 30
0.0
 10
61.90991400075362
 20
239.0544697639566
 30
0.0
 10
62.61323002148572
 20
238.8405576328877
 30
0.0
 10
62.91644455560485
 20
238.7728001191102
 30
0.0
 10
63.58062357531111
 20
238.7047048495975
 30
0.0
 10
63.85045514529943
 20
238.6880978222732
 30
0.0
 10
64.41256666864746
 20
238.6833055521834
 30
0.0
 10
64.69739312141552
 20
238.6956530337648
 30
0.0
 10
65.40262273770287
 20
238.7564468582398
 30
0.0
 10
65.7200758779337
 20
238.8221931604082
 30
0.0
 10
66.21764196447653
 20
238.9628987133045
 30
0.0
 10
66.39319225040578
 20
239.0394115295161
 30
0.0
 10
66.79662876532664
 20
239.2854364801657
 30
0.0
 10
66.89478631631974
 20
239.468064916712
 30
0.0
 10
66.79850013010466
 20
239.8506711792931
 30
0.0
 10
66.62649600488915
 20
240.0565897288003
 30
0.0
 10
66.21017647412823
 20
240.254466213043
 30
0.0
  0
LINE
  5
3D9
330
3D4
100
AcDbEntity
  8
$DDT_AUDIT_GENERATED_(77)
  6
Continuous
 62
     7
100
AcDbLine
 10
49.7067547695
 20
175.6776910788
 30
0.0
 11
49.7067547695
 21
123.3474161247
 31
0.0
  0
LINE
  5
3DA
330
3D4
100
AcDbEntity
  8
$DDT_AUDIT_GENERATED_(77)
  6
Continuous
 62
     7
100
AcDbLine
 10
78.7067547695
 20
123.3474161247
 30
0.0
 11
78.7067547695
 21
175.6711132946
 31
0.0
  0
SPLINE
  5
3DB
330
3D4
100
AcDbEntity
  8
$DDT_AUDIT_GENERATED_(77)
  6
Continuous
 62
     7
100
AcDbSpline
210
0.0
220
0.0
230
1.0
 70
     8
 71
     3
 72
    74
 73
    70
 74
     0
 42
0.0000000002016483
 43
0.0000000001
 40
0.0
 40
0.0
 40
0.0
 40
0.0
 40
0.0072051636459343
 40
0.0269657368278877
 40
0.0466751091996845
 40
0.0662837943772526
 40
0.085746029473879
 40
0.1050180273753952
 40
0.124058567833822
 40
0.142829530669852
 40
0.1612963590609726
 40
0.1794284441674305
 40
0.1971994252152519
 40
0.2145874021632445
 40
0.2315750610833725
 40
0.2481497152358009
 40
0.2643032673873348
 40
0.2800321010886382
 40
0.295336910303591
 40
0.3102224779178603
 40
0.324697414223578
 40
0.3387738665005575
 40
0.3524672103411329
 40
0.3657957324740158
 40
0.3787803136278882
 40
0.3914441185454396
 40
0.4038122987189619
 40
0.4159117118694129
 40
0.4277706607154099
 40
0.4394186522426393
 40
0.450886177529938
 40
0.4622045112381319
 40
0.4734055291223503
 40
0.4845215413742132
 40
0.495585139209893
 40
0.5066290518627009
 40
0.5176849764660673
 40
0.5287756048842216
 40
0.5399332175408826
 40
0.5511896660363971
 40
0.5625762407819942
 40
0.5741235399703079
 40
0.5858613310421873
 40
0.5978184017087285
 40
0.6100223979251922
 40
0.6224996466930548
 40
0.6352749621993784
 40
0.648371434596167
 40
0.6618102016739665
 40
0.6756102047803288
 40
0.6897879315496731
 40
0.7043571493074527
 40
0.7193286343375859
 40
0.7347099034943976
 40
0.7505049558272787
 40
0.7667140328894234
 40
0.7833334071436745
 40
0.8003552082841008
 40
0.8177672972993241
 40
0.8355531976660282
 40
0.8536920921545411
 40
0.8721588923538539
 40
0.8909243862094783
 40
0.9099554666700179
 40
0.9292154420380162
 40
0.9486644259193459
 40
0.9682598018805808
 40
0.9879567551819463
 40
1.0
 40
1.0
 40
1.0
 40
1.0
 10
49.71134550156178
 20
123.3601070566749
 30
0.0
 10
49.70984594134904
 20
123.2411975377257
 30
0.0
 10
49.70555159885578
 20
122.8616746063111
 30
0.0
 10
49.73777012607991
 20
122.1420349512253
 30
0.0
 10
49.80897491882365
 20
121.2638356100043
 30
0.0
 10
49.9217154020128
 20
120.3841868805441
 30
0.0
 10
50.0722913737429
 20
119.5167854577699
 30
0.0
 10
50.26069495607906
 20
118.6617960078911
 30
0.0
 10
50.48567395921103
 20
117.8228069790135
 30
0.0
 10
50.74606222932791
 20
117.0023079916389
 30
0.0
 10
51.04045383523094
 20
116.2028546130427
 30
0.0
 10
51.36731773089478
 20
115.4267365394153
 30
0.0
 10
51.72499870028983
 20
114.6760455400847
 30
0.0
 10
52.11174943783808
 20
113.9526446150784
 30
0.0
 10
52.52575487571602
 20
113.2581691023231
 30
0.0
 10
52.96515805025653
 20
112.5940253896302
 30
0.0
 10
53.42808428612182
 20
111.9613958266431
 30
0.0
 10
53.91266383651136
 20
111.3612470925395
 30
0.0
 10
54.41705236576422
 20
110.7943421000938
 30
0.0
 10
54.93944898897089
 20
110.2612547009247
 30
0.0
 10
55.47811163565466
 20
109.7623866223457
 30
0.0
 10
56.03136962408605
 20
109.2979860148106
 30
0.0
 10
56.59763342355082
 20
108.8681670261145
 30
0.0
 10
57.17540166299663
 20
108.4729298594706
 30
0.0
 10
57.76326550742376
 20
108.1121808318709
 30
0.0
 10
58.35991056893775
 20
107.7857520152044
 30
0.0
 10
58.96411654810703
 20
107.4934201108766
 30
0.0
 10
59.57475481561927
 20
107.2349242737282
 30
0.0
 10
60.19078414758867
 20
107.0099826592362
 30
0.0
 10
60.81124482406351
 20
106.8183075170729
 30
0.0
 10
61.43525129324954
 20
106.6596186934715
 30
0.0
 10
62.06198359652254
 20
106.5336554351964
 30
0.0
 10
62.69067774512793
 20
106.4401864113266
 30
0.0
 10
63.32061523441141
 20
106.3790178867847
 30
0.0
 10
63.95111189435583
 20
106.35
 30
0.0
 10
64.58148657058102
 20
106.3530310088061
 30
0.0
 10
65.21088121928501
 20
106.3880448538291
 30
0.0
 10
65.83844163750827
 20
106.4549793349971
 30
0.0
 10
66.46333514641051
 20
106.5537812215823
 30
0.0
 10
67.08490329575845
 20
106.6844576625207
 30
0.0
 10
67.7024625902226
 20
106.8470619031658
 30
0.0
 10
68.31529316699262
 20
107.0416875363775
 30
0.0
 10
68.92262835098683
 20
107.2684609576355
 30
0.0
 10
69.5236450885736
 20
107.5275320995748
 30
0.0
 10
70.11745543314049
 20
107.8190635366561
 30
0.0
 10
70.70309922828278
 20
108.1432180601274
 30
0.0
 10
71.27953813815947
 20
108.5001448333822
 30
0.0
 10
71.84565117573355
 20
108.8899642530311
 30
0.0
 10
72.40023188580577
 20
109.3127516633004
 30
0.0
 10
72.94198734584862
 20
109.7685201023867
 30
0.0
 10
73.4695391510444
 20
110.2572022995467
 30
0.0
 10
73.98142654692347
 20
110.7786321900856
 30
0.0
 10
74.47611186021182
 20
111.3325262696017
 30
0.0
 10
74.9519883534387
 20
111.9184651665535
 30
0.0
 10
75.40739058872668
 20
112.5358758647543
 30
0.0
 10
75.84060733414026
 20
113.1840150669907
 30
0.0
 10
76.24989696795056
 20
113.8619541861184
 30
0.0
 10
76.63350529119018
 20
114.5685666333588
 30
0.0
 10
76.98968542931948
 20
115.3025174437952
 30
0.0
 10
77.31671994764174
 20
116.0622576878128
 30
0.0
 10
77.61294313348512
 20
116.8460166889784
 30
0.0
 10
77.8767692981938
 20
117.6518210679617
 30
0.0
 10
78.1067022221912
 20
118.4774311193903
 30
0.0
 10
78.30141809220589
 20
119.3206145252683
 30
0.0
 10
78.45956675838315
 20
120.1781566294183
 30
0.0
 10
78.58063815003096
 20
121.0496919887838
 30
0.0
 10
78.66178770428229
 20
121.9233027163584
 30
0.0
 10
78.70361747584732
 20
122.711567230504
 30
0.0
 10
78.70282118962953
 20
123.1557942376562
 30
0.0
 10
78.70204263676011
 20
123.3545563161482
 30
0.0
  0
LINE
  5
3DC
330
3D4
100
AcDbEntity
  8
$DDT_AUDIT_GENERATED_(77)
  6
Continuous
 62
     7
100
AcDbLine
 10
89.2067547695
 20
210.8984374525
 30
0.0
 11
89.2067547695
 21
223.1659645902
 31
0.0
  0
LINE
  5
3DD
330
3D4
100
AcDbEntity
  8
$DDT_AUDIT_GENERATED_(77)
  6
Continuous
 62
     7
100
AcDbLine
 10
39.2067547695
 20
223.1659645902
 30
0.0
 11
39.2067547695
 21
210.8422271417
 31
0.0
  0
ARC
  5
3DE
330
3D4
100
AcDbEntity
  8
$DDT_AUDIT_GENERATED_(333)
  6
Continuous
 62
     7
100
AcDbCircle
 10
63.8976955399
 20
202.1059147551
 30
0.0
 40
26.24577785081167
100
AcDbArc
 50
89.3469028996
 51
181.9522774514
  0
ELLIPSE
  5
3DF
330
3D4
100
AcDbEntity
  8
$DDT_AUDIT_GENERATED_(333)
  6
Continuous
 62
     7
100
AcDbEllipse
 10
64.2067547695
 20
197.0929187724
 30
0.0
 11
15.29721738831375
 21
-8.309672394624101E-11
 31
0.0
210
0.0
220
0.0
230
1.0
 40
0.999657325
 41
0.0
 42
6.283185307179586
  0
ELLIPSE
  5
3E0
330
3D4
100
AcDbEntity
  8
$DDT_AUDIT_GENERATED_(333)
  6
Continuous
 62
     7
100
AcDbEllipse
 10
64.2067547695
 20
197.0941086369
 30
0.0
 11
14.64953724654622
 21
6.097483629119438E-10
 31
0.0
210
0.0
220
0.0
230
1.0
 40
0.999657325
 41
0.0
 42
6.283185307179586
  0
ARC
  5
3E1
330
3D4
100
AcDbEntity
  8
$DDT_AUDIT_GENERATED_(333)
  6
Continuous
 62
     7
100
AcDbCircle
 10
64.1848571675
 20
197.6822256301
 30
0.0
 40
26.35952743277689
100
AcDbArc
 50
147.5438150522
 51
221.8071075088
  0
ARC
  5
3E2
330
3D4
100
AcDbEntity
  8
$DDT_AUDIT_GENERATED_(333)
  6
Continuous
 62
     7
100
AcDbCircle
 10
64.1848571675
 20
197.6822256301
 30
0.0
 40
26.35952743277689
100
AcDbArc
 50
89.9531538438
 51
147.5438150522
  0
ARC
  5
3E3
330
3D4
100
AcDbEntity
  8
$DDT_AUDIT_GENERATED_(333)
  6
Continuous
 62
     7
100
AcDbCircle
 10
63.8068046959
 20
197.6997218364
 30
0.0
 40
25.00436566328835
100
AcDbArc
 50
270.9164970957
 51
89.0835029081
  0
ARC
  5
3E4
330
3D4
100
AcDbEntity
  8
$DDT_AUDIT_GENERATED_(333)
  6
Continuous
 62
     7
100
AcDbCircle
 10
64.2423445758
 20
197.6635298842
 30
0.0
 40
26.23507793570585
100
AcDbArc
 50
269.9439632832
 51
90.056162568
  0
ARC
  5
3E5
330
3D4
100
AcDbEntity
  8
$DDT_AUDIT_GENERATED_(333)
  6
Continuous
 62
     7
100
AcDbCircle
 10
64.6059967129
 20
197.6997218364
 30
0.0
 40
25.00435434663497
100
AcDbArc
 50
90.9148746729
 51
269.0851253309
  0
ARC
  5
3E6
330
3D4
100
AcDbEntity
  8
$DDT_AUDIT_GENERATED_(333)
  6
Continuous
 62
     7
100
AcDbCircle
 10
64.2479122677
 20
197.6822272902
 30
0.0
 40
26.35954263151048
100
AcDbArc
 50
318.0856088761
 51
32.4072774299
  0
LINE
  5
3E7
330
3D4
100
AcDbEntity
  8
$DDT_AUDIT_GENERATED_(333)
  6
Continuous
 62
     7
100
AcDbLine
 10
37.6913108979
 20
201.2124789002
 30
0.0
 11
37.8427955001
 21
196.8299302122
 31
0.0
  0
ARC
  5
3E8
330
3D4
100
AcDbEntity
  8
$DDT_AUDIT_GENERATED_(333)
  6
Continuous
 62
     7
100
AcDbCircle
 10
64.3695886978
 20
201.9710552544
 30
0.0
 40
26.38247658444443
100
AcDbArc
 50
358.4727606143
 51
90.3751089337
  0
LINE
  5
3E9
330
3D4
100
AcDbEntity
  8
$DDT_AUDIT_GENERATED_(333)
  6
Continuous
 62
     7
100
AcDbLine
 10
90.7419413896
 20
201.2231405197
 30
0.0
 11
90.7426933569
 21
201.2679042282
 31
0.0
  0
LINE
  5
3EA
330
3D4
100
AcDbEntity
  8
$DDT_AUDIT_GENERATED_(333)
  6
Continuous
 62
     7
100
AcDbLine
 10
90.5899874994
 20
196.8330412423
 30
0.0
 11
90.7413645764
 21
201.2124791425
 31
0.0
  0
ARC
  5
3EB
330
3D4
100
AcDbEntity
  8
$DDT_AUDIT_GENERATED_(333)
  6
Continuous
 62
     7
100
AcDbCircle
 10
64.0611337575
 20
201.9726544048
 30
0.0
 40
26.38066122455211
100
AcDbArc
 50
89.705201908
 51
181.6008604971
  0
LINE
  5
3EC
330
3D4
100
AcDbEntity
  8
$DDT_AUDIT_GENERATED_(333)
  6
Continuous
 62
     7
100
AcDbLine
 10
58.7201275958
 20
171.902947576
 30
0.0
 11
58.7201275958
 21
108.6393779725
 31
0.0
  0
LINE
  5
3ED
330
3D4
100
AcDbEntity
  8
$DDT_AUDIT_GENERATED_(333)
  6
Continuous
 62
     7
100
AcDbLine
 10
69.7182899977
 20
108.6398459229
 30
0.0
 11
69.7182899977
 21
171.9075830876
 31
0.0
  0
SPLINE
  5
3EE
330
3D4
100
AcDbEntity
  8
$DDT_AUDIT_GENERATED_(333)
  6
Continuous
 62
     7
100
AcDbSpline
210
0.0
220
0.0
230
1.0
 70
     8
 71
     3
 72
    50
 73
    46
 74
     0
 42
0.0000000008043182
 43
0.0000000001
 40
0.0
 40
0.0
 40
0.0
 40
0.0
 40
0.0065740890944983
 40
0.0217097639622996
 40
0.036313403213613
 40
0.0506868017499462
 40
0.0651612603144891
 40
0.080168804336176
 40
0.0963082163247113
 40
0.1143154766927707
 40
0.1362860989113749
 40
0.1650985477044503
 40
0.1971424375141038
 40
0.2266065412029623
 40
0.2576656400632177
 40
0.2871950200040099
 40
0.3157839984170614
 40
0.3436456799938609
 40
0.370883701047178
 40
0.3982453058654442
 40
0.4256535772473285
 40
0.4530727745117117
 40
0.4804359371173105
 40
0.5076741626951383
 40
0.5347300131265905
 40
0.5615645859015914
 40
0.5881035676313853
 40
0.6148612636034619
 40
0.6420957331454813
 40
0.6697653871616384
 40
0.6978224182837226
 40
0.7262373567271957
 40
0.7550456716212244
 40
0.7844265434658454
 40
0.81451224962728
 40
0.8465592449230247
 40
0.87734385212597
 40
0.8980417055182567
 40
0.9160193221426755
 40
0.9322676175468024
 40
0.9475737182993973
 40
0.962424630520754
 40
0.9770690014931063
 40
0.9916307677023201
 40
1.0
 40
1.0
 40
1.0
 40
1.0
 10
58.72615046562314
 20
108.638541775059
 30
0.0
 10
58.72465598532067
 20
108.6057150778448
 30
0.0
 10
58.72097034683171
 20
108.5133662583898
 30
0.0
 10
58.75513832246916
 20
108.3462781664686
 30
0.0
 10
58.82168448090381
 20
108.1640170015613
 30
0.0
 10
58.91463908611794
 20
108.0031370821323
 30
0.0
 10
59.0245281819379
 20
107.8659616257213
 30
0.0
 10
59.14752324054508
 20
107.7496185374746
 30
0.0
 10
59.28157452572331
 20
107.6507893989476
 30
0.0
 10
59.43194125306183
 20
107.5629089715534
 30
0.0
 10
59.61469648669185
 20
107.4781766436146
 30
0.0
 10
59.84101515611329
 20
107.3963399319149
 30
0.0
 10
60.10807819293255
 20
107.3211562764024
 30
0.0
 10
60.40997698509589
 20
107.253300225157
 30
0.0
 10
60.73332752519896
 20
107.1943011352361
 30
0.0
 10
61.08341955437416
 20
107.1422194568126
 30
0.0
 10
61.44756328577557
 20
107.097848380551
 30
0.0
 10
61.82570466220712
 20
107.0604166409988
 30
0.0
 10
62.21805965547763
 20
107.0292715531434
 30
0.0
 10
62.62458519670069
 20
107.0039767599601
 30
0.0
 10
63.04513294386374
 20
106.9844342061054
 30
0.0
 10
63.47545911792245
 20
106.9708042956204
 30
0.0
 10
63.91119983498491
 20
106.9632120607088
 30
0.0
 10
64.3477410442678
 20
106.961738459529
 30
0.0
 10
64.78051924355846
 20
106.9663978001461
 30
0.0
 10
65.20488182261097
 20
106.9771705340516
 30
0.0
 10
65.61920034217944
 20
106.9939621622538
 30
0.0
 10
66.02396931647586
 20
107.0165684621483
 30
0.0
 10
66.41962404667231
 20
107.0450940439787
 30
0.0
 10
66.80362432001125
 20
107.0795894705713
 30
0.0
 10
67.17211662165946
 20
107.1200430160953
 30
0.0
 10
67.52181284822701
 20
107.1665708111083
 30
0.0
 10
67.85049187010681
 20
107.2195636336831
 30
0.0
 10
68.1574499540207
 20
107.2802599384385
 30
0.0
 10
68.44484807741445
 20
107.3510396258057
 30
0.0
 10
68.70959779430434
 20
107.4340815386721
 30
0.0
 10
68.93180099353262
 20
107.5258370806124
 30
0.0
 10
69.11519239997877
 20
107.6259256446382
 30
0.0
 10
69.26221086901948
 20
107.7285612255841
 30
0.0
 10
69.3944770716905
 20
107.8480645690519
 30
0.0
 10
69.51125865004373
 20
107.9882120144273
 30
0.0
 10
69.60852128227131
 20
108.150649386593
 30
0.0
 10
69.67756159509186
 20
108.3305975474067
 30
0.0
 10
69.71494133516899
 20
108.5017037894742
 30
0.0
 10
69.71296299825487
 20
108.5991426952177
 30
0.0
 10
69.71182190336721
 20
108.6410167114511
 30
0.0
  0
ARC
  5
3EF
330
3D4
100
AcDbEntity
  8
$DDT_AUDIT_GENERATED_(333)
  6
Continuous
 62
     7
100
AcDbCircle
 10
64.2332483188
 20
197.6654682212
 30
0.0
 40
26.35186852015366
100
AcDbArc
 50
221.7074988612
 51
269.9422358942
  0
ARC
  5
3F0
330
3D4
100
AcDbEntity
  8
$DDT_AUDIT_GENERATED_(333)
  6
Continuous
 62
     7
100
AcDbCircle
 10
64.1927068363
 20
197.6877102561
 30
0.0
 40
26.37341357335646
100
AcDbArc
 50
270.0517603775
 51
318.1594352801
  0
LINE
  5
3F1
330
3D4
100
AcDbEntity
  8
$DDT_AUDIT_GENERATED_(3BF)
  6
Continuous
 62
     7
100
AcDbLine
 10
62.2067547695
 20
259.8976605837
 30
0.0
 11
66.2067547695
 21
259.8976605837
 31
0.0
  0
LINE
  5
3F2
330
3D4
100
AcDbEntity
  8
$DDT_AUDIT_GENERATED_(3BF)
  6
Continuous
 62
     7
100
AcDbLine
 10
66.2067547695
 20
246.5272881678
 30
0.0
 11
66.2067547695
 21
259.8976605837
 31
0.0
  0
LINE
  5
3F3
330
3D4
100
AcDbEntity
  8
$DDT_AUDIT_GENERATED_(3BF)
  6
Continuous
 62
     7
100
AcDbLine
 10
62.2067547695
 20
259.8976605837
 30
0.0
 11
62.2067547695
 21
246.5272881678
 31
0.0
  0
LINE
  5
3F4
330
3D4
100
AcDbEntity
  8
$DDT_AUDIT_GENERATED_(3BF)
  6
Continuous
 62
     7
100
AcDbLine
 10
62.2067547695
 20
246.5272881678
 30
0.0
 11
62.2067547695
 21
243.6741186189
 31
0.0
  0
LINE
  5
3F5
330
3D4
100
AcDbEntity
  8
$DDT_AUDIT_GENERATED_(3BF)
  6
Continuous
 62
     7
100
AcDbLine
 10
66.2067547695
 20
243.6741186189
 30
0.0
 11
66.2067547695
 21
246.5272881678
 31
0.0
  0
LINE
  5
3F6
330
3D4
100
AcDbEntity
  8
$DDT_AUDIT_GENERATED_(3BF)
  6
Continuous
 62
     7
100
AcDbLine
 10
66.2067547695
 20
238.969637002
 30
0.0
 11
66.2067547695
 21
243.6741186189
 31
0.0
  0
LINE
  5
3F7
330
3D4
100
AcDbEntity
  8
$DDT_AUDIT_GENERATED_(3BF)
  6
Continuous
 62
     7
100
AcDbLine
 10
62.2067547695
 20
243.6741186189
 30
0.0
 11
62.2067547695
 21
238.9711300418
 31
0.0
  0
ENDBLK
  5
3F9
330
3D4
100
AcDbEntity
  8
0
100
AcDbBlockEnd
  0
ENDSEC
  0
SECTION
  2
ENTITIES
  0
INSERT
  5
5F
330
1F
100
AcDbEntity
  8
Default
100
AcDbBlockReference
  2
SEANNOT_GROUP
 10
0.0
 20
0.0
 30
0.0
  0
INSERT
  5
66
330
1F
100
AcDbEntity
  8
Default
100
AcDbBlockReference
  2
SEANNOT_GROUP1
 10
0.0
 20
0.0
 30
0.0
  0
INSERT
  5
70
330
1F
100
AcDbEntity
  8
Default
100
AcDbBlockReference
  2
SEANNOT_GROUP2
 10
0.0
 20
0.0
 30
0.0
  0
INSERT
  5
76
330
1F
100
AcDbEntity
  8
Default
100
AcDbBlockReference
  2
SE
 10
0.0
 20
0.0
 30
0.0
  0
INSERT
  5
356
330
1F
100
AcDbEntity
  8
Default
100
AcDbBlockReference
  2
SE1
 10
0.0
 20
0.0
 30
0.0
  0
INSERT
  5
3D5
330
1F
100
AcDbEntity
  8
Default
100
AcDbBlockReference
  2
SE2
 10
0.0
 20
0.0
 30
0.0
  0
TEXT
  5
3FB
330
1F
100
AcDbEntity
  8
Default
  6
Continuous
 62
     7
100
AcDbText
 10
5.9362635081
 20
53.4225120485
 30
0.0
 40
10.0
  1
Grohe AG^J
  7
SEACAD_seiso_ttf
 11
5.9362635081
 21
63.4225120485
 31
0.0
100
AcDbText
 73
     3
  0
TEXT
  5
3FC
330
1F
100
AcDbEntity
  8
Default
  6
Continuous
 62
     7
100
AcDbText
 10
5.9362635081
 20
37.0588756849
 30
0.0
 40
10.0
  1
 
  7
SEACAD_seiso_ttf
 11
5.9362635081
 21
47.0588756849
 31
0.0
100
AcDbText
 73
     3
  0
TEXT
  5
3FD
330
1F
100
AcDbEntity
  8
Default
  6
Continuous
 62
     7
100
AcDbText
 10
5.9362635081
 20
20.6952393213
 30
0.0
 40
10.0
  1
ecn: 
  7
SEACAD_seiso_ttf
 11
5.9362635081
 21
30.6952393213
 31
0.0
100
AcDbText
 73
     3
  0
TEXT
  5
3FE
330
1F
100
AcDbEntity
  8
Default
  6
Continuous
 62
     7
100
AcDbText
 10
5.9362635081
 20
4.3316029576
 30
0.0
 40
10.0
  1
unit: mm
  7
SEACAD_seiso_ttf
 11
5.9362635081
 21
14.3316029576
 31
0.0
100
AcDbText
 73
     3
  0
LINE
  5
3FF
330
1F
100
AcDbEntity
  8
Default
  6
Continuous
 62
     7
100
AcDbLine
 10
0.0
 20
0.0
 30
0.0
 11
100.0
 21
0.0
 31
0.0
  0
LINE
  5
400
330
1F
100
AcDbEntity
  8
Default
  6
Continuous
 62
     7
100
AcDbLine
 10
0.0
 20
0.0
 30
0.0
 11
0.0
 21
100.0
 31
0.0
  0
TEXT
  5
401
330
1F
100
AcDbEntity
  8
Default
  6
Continuous
 62
     7
100
AcDbText
 10
24.3923665681
 20
-18.2375342018
 30
0.0
 40
10.0
  1
100 mm
  7
SEACAD_seiso_ttf
 11
24.3923665681
 21
-8.2375342018
 31
0.0
100
AcDbText
 73
     3
  0
TEXT
  5
402
330
1F
100
AcDbEntity
  8
Default
  6
Continuous
 62
     7
100
AcDbText
 10
-7.6150308803
 20
24.6231930421
 30
0.0
 40
10.0
  1
100 mm
 50
90.0
  7
SEACAD_seiso_ttf
 11
-17.6150308803
 21
24.6231930421
 31
0.0
100
AcDbText
 73
     3
  0
TEXT
  5
403
330
1F
100
AcDbEntity
  8
Default
  6
Continuous
 62
     7
100
AcDbText
 10
28.4878128572
 20
20.0907663715
 30
0.0
 40
10.0
  1
212521
  7
SEACAD_seiso_ttf
 11
28.4878128572
 21
30.0907663715
 31
0.0
100
AcDbText
 73
     3
  0
TEXT
  5
404
330
1F
100
AcDbEntity
  8
Default
  6
Continuous
 62
     7
100
AcDbText
 10
5.9012241913
 20
36.7242780188
 30
0.0
 40
10.0
  1
32204000
  7
SEACAD_seiso_ttf
 11
5.9012241913
 21
46.7242780188
 31
0.0
100
AcDbText
 73
     3
  0
ENDSEC
  0
SECTION
  2
OBJECTS
  0
DICTIONARY
  5
C
330
0
100
AcDbDictionary
281
     1
  3
ACAD_GROUP
350
D
  3
ACAD_LAYOUT
350
1A
  3
ACAD_MLEADERSTYLE
350
408
  3
ACAD_MLINESTYLE
350
17
  3
ACAD_PLOTSETTINGS
350
19
  3
ACAD_PLOTSTYLENAME
350
E
  3
ACAD_SCALELIST
350
3B
  3
ACAD_TABLESTYLE
350
407
  3
ACAD_VISUALSTYLE
350
2A
  3
AcDbVariableDictionary
350
405
  0
DICTIONARY
  5
D
102
{ACAD_REACTORS
330
C
102
}
330
C
100
AcDbDictionary
281
     1
  0
DICTIONARY
  5
1A
102
{ACAD_REACTORS
330
C
102
}
330
C
100
AcDbDictionary
281
     1
  3
Layout1
350
1E
  3
Model
350
22
  0
DICTIONARY
  5
408
102
{ACAD_REACTORS
330
C
102
}
330
C
100
AcDbDictionary
281
     1
  0
DICTIONARY
  5
17
102
{ACAD_REACTORS
330
C
102
}
330
C
100
AcDbDictionary
281
     1
  3
Standard
350
18
  0
DICTIONARY
  5
19
102
{ACAD_REACTORS
330
C
102
}
330
C
100
AcDbDictionary
281
     1
  0
ACDBDICTIONARYWDFLT
  5
E
102
{ACAD_REACTORS
330
C
102
}
330
C
100
AcDbDictionary
281
     1
  3
Normal
350
F
100
AcDbDictionaryWithDefault
340
F
  0
DICTIONARY
  5
3B
102
{ACAD_REACTORS
330
C
102
}
330
C
100
AcDbDictionary
281
     1
  3
A0
350
3C
  3
A1
350
3D
  3
A2
350
3E
  3
A3
350
3F
  3
A4
350
40
  3
A5
350
41
  3
A6
350
42
  3
A7
350
43
  3
A8
350
44
  3
A9
350
45
  3
B0
350
46
  3
B1
350
47
  3
B2
350
48
  3
B3
350
49
  3
B4
350
4A
  3
B5
350
4B
  3
B6
350
4C
  3
B7
350
4D
  3
B8
350
4E
  3
B9
350
4F
  3
C0
350
50
  3
C1
350
51
  3
C2
350
52
  3
C3
350
53
  3
C4
350
54
  3
C5
350
55
  3
C6
350
56
  3
C7
350
57
  3
C8
350
58
  3
C9
350
59
  3
D0
350
5A
  3
D1
350
5B
  3
D2
350
5C
  0
DICTIONARY
  5
407
102
{ACAD_REACTORS
330
C
102
}
330
C
100
AcDbDictionary
281
     1
  0
DICTIONARY
  5
2A
102
{ACAD_REACTORS
330
C
102
}
330
C
100
AcDbDictionary
281
     1
  3
2dWireframe
350
2F
  3
3D Hidden
350
31
  3
3dWireframe
350
30
  3
Basic
350
32
  3
Brighten
350
36
  3
ColorChange
350
3A
  3
Conceptual
350
34
  3
Dim
350
35
  3
Facepattern
350
39
  3
Flat
350
2B
  3
FlatWithEdges
350
2C
  3
Gouraud
350
2D
  3
GouraudWithEdges
350
2E
  3
Linepattern
350
38
  3
Realistic
350
33
  3
Thicken
350
37
  0
DICTIONARY
  5
405
102
{ACAD_REACTORS
330
C
102
}
330
C
100
AcDbDictionary
281
     1
  3
CANNOSCALE
350
406
  3
PSOLHEIGHT
350
40A
  3
PSOLWIDTH
350
409
  0
LAYOUT
  5
1E
102
{ACAD_REACTORS
330
1A
102
}
330
1A
100
AcDbPlotSettings
  1

  2
none_device
  4

  6

 40
0.0
 41
0.0
 42
0.0
 43
0.0
 44
0.0
 45
0.0
 46
0.0
 47
0.0
 48
0.0
 49
0.0
140
0.0
141
0.0
142
1.0
143
1.0
 70
   688
 72
     0
 73
     0
 74
     5
  7

 75
    16
147
1.0
148
0.0
149
0.0
100
AcDbLayout
  1
Layout1
 70
     1
 71
     1
 10
0.0
 20
0.0
 11
1682.0
 21
2378.0
 12
0.0
 22
0.0
 32
0.0
 14
0.0
 24
0.0
 34
0.0
 15
1682.0
 25
2378.0
 35
0.0
146
0.0
 13
0.0
 23
0.0
 33
0.0
 16
1.0
 26
0.0
 36
0.0
 17
0.0
 27
1.0
 37
0.0
 76
     0
330
1B
  0
LAYOUT
  5
22
102
{ACAD_REACTORS
330
1A
102
}
330
1A
100
AcDbPlotSettings
  1

  2
none_device
  4

  6

 40
0.0
 41
0.0
 42
0.0
 43
0.0
 44
0.0
 45
0.0
 46
0.0
 47
0.0
 48
0.0
 49
0.0
140
0.0
141
0.0
142
1.0
143
1.0
 70
  1712
 72
     0
 73
     0
 74
     0
  7

 75
     0
147
1.0
148
0.0
149
0.0
100
AcDbLayout
  1
Model
 70
     1
 71
     0
 10
0.0
 20
0.0
 11
1682.0
 21
2378.0
 12
0.0
 22
0.0
 32
0.0
 14
0.0
 24
0.0
 34
0.0
 15
1682.0
 25
2378.0
 35
0.0
146
0.0
 13
0.0
 23
0.0
 33
0.0
 16
1.0
 26
0.0
 36
0.0
 17
0.0
 27
1.0
 37
0.0
 76
     0
330
1F
331
29
  0
MLINESTYLE
  5
18
102
{ACAD_REACTORS
330
17
102
}
330
17
100
AcDbMlineStyle
  2
Standard
 70
     0
  3

 62
   256
 51
90.0
 52
90.0
 71
     2
 49
0.5
 62
   256
  6
BYLAYER
 49
-0.5
 62
   256
  6
BYLAYER
  0
ACDBPLACEHOLDER
  5
F
102
{ACAD_REACTORS
330
E
102
}
330
E
  0
SCALE
  5
3C
102
{ACAD_REACTORS
330
3B
102
}
330
3B
100
AcDbScale
 70
     0
300
1:1
140
1.0
141
1.0
290
     1
  0
SCALE
  5
3D
102
{ACAD_REACTORS
330
3B
102
}
330
3B
100
AcDbScale
 70
     0
300
1:2
140
1.0
141
2.0
290
     0
  0
SCALE
  5
3E
102
{ACAD_REACTORS
330
3B
102
}
330
3B
100
AcDbScale
 70
     0
300
1:4
140
1.0
141
4.0
290
     0
  0
SCALE
  5
3F
102
{ACAD_REACTORS
330
3B
102
}
330
3B
100
AcDbScale
 70
     0
300
1:5
140
1.0
141
5.0
290
     0
  0
SCALE
  5
40
102
{ACAD_REACTORS
330
3B
102
}
330
3B
100
AcDbScale
 70
     0
300
1:8
140
1.0
141
8.0
290
     0
  0
SCALE
  5
41
102
{ACAD_REACTORS
330
3B
102
}
330
3B
100
AcDbScale
 70
     0
300
1:10
140
1.0
141
10.0
290
     0
  0
SCALE
  5
42
102
{ACAD_REACTORS
330
3B
102
}
330
3B
100
AcDbScale
 70
     0
300
1:16
140
1.0
141
16.0
290
     0
  0
SCALE
  5
43
102
{ACAD_REACTORS
330
3B
102
}
330
3B
100
AcDbScale
 70
     0
300
1:20
140
1.0
141
20.0
290
     0
  0
SCALE
  5
44
102
{ACAD_REACTORS
330
3B
102
}
330
3B
100
AcDbScale
 70
     0
300
1:30
140
1.0
141
30.0
290
     0
  0
SCALE
  5
45
102
{ACAD_REACTORS
330
3B
102
}
330
3B
100
AcDbScale
 70
     0
300
1:40
140
1.0
141
40.0
290
     0
  0
SCALE
  5
46
102
{ACAD_REACTORS
330
3B
102
}
330
3B
100
AcDbScale
 70
     0
300
1:50
140
1.0
141
50.0
290
     0
  0
SCALE
  5
47
102
{ACAD_REACTORS
330
3B
102
}
330
3B
100
AcDbScale
 70
     0
300
1:100
140
1.0
141
100.0
290
     0
  0
SCALE
  5
48
102
{ACAD_REACTORS
330
3B
102
}
330
3B
100
AcDbScale
 70
     0
300
2:1
140
2.0
141
1.0
290
     0
  0
SCALE
  5
49
102
{ACAD_REACTORS
330
3B
102
}
330
3B
100
AcDbScale
 70
     0
300
4:1
140
4.0
141
1.0
290
     0
  0
SCALE
  5
4A
102
{ACAD_REACTORS
330
3B
102
}
330
3B
100
AcDbScale
 70
     0
300
8:1
140
8.0
141
1.0
290
     0
  0
SCALE
  5
4B
102
{ACAD_REACTORS
330
3B
102
}
330
3B
100
AcDbScale
 70
     0
300
10:1
140
10.0
141
1.0
290
     0
  0
SCALE
  5
4C
102
{ACAD_REACTORS
330
3B
102
}
330
3B
100
AcDbScale
 70
     0
300
100:1
140
100.0
141
1.0
290
     0
  0
SCALE
  5
4D
102
{ACAD_REACTORS
330
3B
102
}
330
3B
100
AcDbScale
 70
     0
300
1/128" = 1'-0"
140
0.0078125
141
12.0
290
     0
  0
SCALE
  5
4E
102
{ACAD_REACTORS
330
3B
102
}
330
3B
100
AcDbScale
 70
     0
300
1/64" = 1'-0"
140
0.015625
141
12.0
290
     0
  0
SCALE
  5
4F
102
{ACAD_REACTORS
330
3B
102
}
330
3B
100
AcDbScale
 70
     0
300
1/32" = 1'-0"
140
0.03125
141
12.0
290
     0
  0
SCALE
  5
50
102
{ACAD_REACTORS
330
3B
102
}
330
3B
100
AcDbScale
 70
     0
300
1/16" = 1'-0"
140
0.0625
141
12.0
290
     0
  0
SCALE
  5
51
102
{ACAD_REACTORS
330
3B
102
}
330
3B
100
AcDbScale
 70
     0
300
3/32" = 1'-0"
140
0.09375
141
12.0
290
     0
  0
SCALE
  5
52
102
{ACAD_REACTORS
330
3B
102
}
330
3B
100
AcDbScale
 70
     0
300
1/8" = 1'-0"
140
0.125
141
12.0
290
     0
  0
SCALE
  5
53
102
{ACAD_REACTORS
330
3B
102
}
330
3B
100
AcDbScale
 70
     0
300
3/16" = 1'-0"
140
0.1875
141
12.0
290
     0
  0
SCALE
  5
54
102
{ACAD_REACTORS
330
3B
102
}
330
3B
100
AcDbScale
 70
     0
300
1/4" = 1'-0"
140
0.25
141
12.0
290
     0
  0
SCALE
  5
55
102
{ACAD_REACTORS
330
3B
102
}
330
3B
100
AcDbScale
 70
     0
300
3/8" = 1'-0"
140
0.375
141
12.0
290
     0
  0
SCALE
  5
56
102
{ACAD_REACTORS
330
3B
102
}
330
3B
100
AcDbScale
 70
     0
300
1/2" = 1'-0"
140
0.5
141
12.0
290
     0
  0
SCALE
  5
57
102
{ACAD_REACTORS
330
3B
102
}
330
3B
100
AcDbScale
 70
     0
300
3/4" = 1'-0"
140
0.75
141
12.0
290
     0
  0
SCALE
  5
58
102
{ACAD_REACTORS
330
3B
102
}
330
3B
100
AcDbScale
 70
     0
300
1" = 1'-0"
140
1.0
141
12.0
290
     0
  0
SCALE
  5
59
102
{ACAD_REACTORS
330
3B
102
}
330
3B
100
AcDbScale
 70
     0
300
1-1/2" = 1'-0"
140
1.5
141
12.0
290
     0
  0
SCALE
  5
5A
102
{ACAD_REACTORS
330
3B
102
}
330
3B
100
AcDbScale
 70
     0
300
3" = 1'-0"
140
3.0
141
12.0
290
     0
  0
SCALE
  5
5B
102
{ACAD_REACTORS
330
3B
102
}
330
3B
100
AcDbScale
 70
     0
300
6" = 1'-0"
140
6.0
141
12.0
290
     0
  0
SCALE
  5
5C
102
{ACAD_REACTORS
330
3B
102
}
330
3B
100
AcDbScale
 70
     0
300
1'-0" = 1'-0"
140
12.0
141
12.0
290
     0
  0
VISUALSTYLE
  5
2F
102
{ACAD_REACTORS
330
2A
102
}
330
2A
100
AcDbVisualStyle
  2
2dWireframe
 70
     4
 71
     0
 72
     2
 73
     0
 90
        0
 40
-0.6
 41
-30.0
 62
     5
 63
     7
 74
     1
 91
        4
 64
     7
 65
   257
 75
     1
175
     1
 42
1.0
 92
        0
 66
   257
 43
1.0
 76
     1
 77
     6
 78
     2
 67
     7
 79
     5
170
     0
171
     0
290
     0
174
     0
 93
        1
 44
0.0
173
     0
291
     0
 45
0.0
1001
ACAD
1000
AcDbSavedByObjectVersion
1070
     0
  0
VISUALSTYLE
  5
31
102
{ACAD_REACTORS
330
2A
102
}
330
2A
100
AcDbVisualStyle
  2
3D Hidden
 70
     6
 71
     1
 72
     2
 73
     2
 90
        0
 40
-0.6
 41
-30.0
 62
     5
 63
     7
 74
     2
 91
        2
 64
     7
 65
   257
 75
     2
175
     1
 42
40.0
 92
        0
 66
   257
 43
1.0
 76
     1
 77
     6
 78
     2
 67
     7
 79
     3
170
     0
171
     0
290
     0
174
     0
 93
        1
 44
0.0
173
     0
291
     0
 45
0.0
1001
ACAD
1000
AcDbSavedByObjectVersion
1070
     0
  0
VISUALSTYLE
  5
30
102
{ACAD_REACTORS
330
2A
102
}
330
2A
100
AcDbVisualStyle
  2
3dWireframe
 70
     5
 71
     0
 72
     2
 73
     0
 90
        0
 40
-0.6
 41
-30.0
 62
     5
 63
     7
 74
     1
 91
        4
 64
     7
 65
   257
 75
     1
175
     1
 42
1.0
 92
        0
 66
   257
 43
1.0
 76
     1
 77
     6
 78
     2
 67
     7
 79
     5
170
     0
171
     0
290
     0
174
     0
 93
        1
 44
0.0
173
     0
291
     0
 45
0.0
1001
ACAD
1000
AcDbSavedByObjectVersion
1070
     0
  0
VISUALSTYLE
  5
32
102
{ACAD_REACTORS
330
2A
102
}
330
2A
100
AcDbVisualStyle
  2
Basic
 70
     7
 71
     1
 72
     0
 73
     1
 90
        0
 40
-0.6
 41
-30.0
 62
     5
 63
     7
 74
     0
 91
        4
 64
     7
 65
   257
 75
     1
175
     1
 42
1.0
 92
        8
 66
     7
 43
1.0
 76
     1
 77
     6
 78
     2
 67
     7
 79
     5
170
     0
171
     0
290
     0
174
     0
 93
        1
 44
0.0
173
     0
291
     1
 45
0.0
1001
ACAD
1000
AcDbSavedByObjectVersion
1070
     0
  0
VISUALSTYLE
  5
36
102
{ACAD_REACTORS
330
2A
102
}
330
2A
100
AcDbVisualStyle
  2
Brighten
 70
    12
 71
     2
 72
     2
 73
     0
 90
        0
 40
-0.6
 41
-30.0
 62
     5
 63
     7
 74
     1
 91
        4
 64
     7
 65
   257
 75
     1
175
     1
 42
1.0
 92
        8
 66
     7
 43
1.0
 76
     1
 77
     6
 78
     2
 67
     7
 79
     5
170
     0
171
     0
290
     0
174
     0
 93
        1
 44
50.0
173
     0
291
     1
 45
0.0
1001
ACAD
1000
AcDbSavedByObjectVersion
1070
     0
  0
VISUALSTYLE
  5
3A
102
{ACAD_REACTORS
330
2A
102
}
330
2A
100
AcDbVisualStyle
  2
ColorChange
 70
    16
 71
     2
 72
     2
 73
     3
 90
        0
 40
-0.6
 41
-30.0
 62
     5
 63
     8
 74
     1
 91
        4
 64
     7
 65
   257
 75
     1
175
     1
 42
1.0
 92
        8
 66
     8
 43
1.0
 76
     1
 77
     6
 78
     2
 67
     7
 79
     5
170
     0
171
     0
290
     0
174
     0
 93
        1
 44
0.0
173
     0
291
     1
 45
0.0
1001
ACAD
1000
AcDbSavedByObjectVersion
1070
     0
  0
VISUALSTYLE
  5
34
102
{ACAD_REACTORS
330
2A
102
}
330
2A
100
AcDbVisualStyle
  2
Conceptual
 70
     9
 71
     3
 72
     2
 73
     0
 90
        0
 40
-0.6
 41
-30.0
 62
     5
 63
     7
 74
     2
 91
        2
 64
     7
 65
   257
 75
     1
175
     1
 42
40.0
 92
        8
 66
     7
 43
1.0
 76
     1
 77
     6
 78
     2
 67
     7
 79
     3
170
     0
171
     0
290
     0
174
     0
 93
        1
 44
0.0
173
     0
291
     0
 45
0.0
1001
ACAD
1000
AcDbSavedByObjectVersion
1070
     0
  0
VISUALSTYLE
  5
35
102
{ACAD_REACTORS
330
2A
102
}
330
2A
100
AcDbVisualStyle
  2
Dim
 70
    11
 71
     2
 72
     2
 73
     0
 90
        0
 40
-0.6
 41
-30.0
 62
     5
 63
     7
 74
     1
 91
        4
 64
     7
 65
   257
 75
     1
175
     1
 42
1.0
 92
        8
 66
     7
 43
1.0
 76
     1
 77
     6
 78
     2
 67
     7
 79
     5
170
     0
171
     0
290
     0
174
     0
 93
        1
 44
-50.0
173
     0
291
     1
 45
0.0
1001
ACAD
1000
AcDbSavedByObjectVersion
1070
     0
  0
VISUALSTYLE
  5
39
102
{ACAD_REACTORS
330
2A
102
}
330
2A
100
AcDbVisualStyle
  2
Facepattern
 70
    15
 71
     2
 72
     2
 73
     0
 90
        0
 40
-0.6
 41
-30.0
 62
     5
 63
     7
 74
     1
 91
        4
 64
     7
 65
   257
 75
     1
175
     1
 42
1.0
 92
        8
 66
     7
 43
1.0
 76
     1
 77
     6
 78
     2
 67
     7
 79
     5
170
     0
171
     0
290
     0
174
     0
 93
        1
 44
0.0
173
     0
291
     1
 45
0.0
1001
ACAD
1000
AcDbSavedByObjectVersion
1070
     0
  0
VISUALSTYLE
  5
2B
102
{ACAD_REACTORS
330
2A
102
}
330
2A
100
AcDbVisualStyle
  2
Flat
 70
     0
 71
     2
 72
     1
 73
     1
 90
        2
 40
-0.6
 41
30.0
 62
     5
 63
     7
 74
     0
 91
        4
 64
     7
 65
   257
 75
     1
175
     1
 42
1.0
 92
        8
 66
     7
 43
1.0
 76
     1
 77
     6
 78
     2
 67
     7
 79
     5
170
     0
171
     0
290
     0
174
     0
 93
       13
 44
0.0
173
     0
291
     1
 45
0.0
1001
ACAD
1000
AcDbSavedByObjectVersion
1070
     0
  0
VISUALSTYLE
  5
2C
102
{ACAD_REACTORS
330
2A
102
}
330
2A
100
AcDbVisualStyle
  2
FlatWithEdges
 70
     1
 71
     2
 72
     1
 73
     1
 90
        2
 40
-0.6
 41
30.0
 62
     5
 63
     7
 74
     1
 91
        4
 64
     7
 65
   257
 75
     1
175
     1
 42
1.0
 92
        0
 66
   257
 43
1.0
 76
     1
 77
     6
 78
     2
 67
     7
 79
     5
170
     0
171
     0
290
     0
174
     0
 93
       13
 44
0.0
173
     0
291
     1
 45
0.0
1001
ACAD
1000
AcDbSavedByObjectVersion
1070
     0
  0
VISUALSTYLE
  5
2D
102
{ACAD_REACTORS
330
2A
102
}
330
2A
100
AcDbVisualStyle
  2
Gouraud
 70
     2
 71
     2
 72
     2
 73
     1
 90
        2
 40
-0.6
 41
30.0
 62
     5
 63
     7
 74
     0
 91
        4
 64
     7
 65
   257
 75
     1
175
     1
 42
1.0
 92
        0
 66
     7
 43
1.0
 76
     1
 77
     6
 78
     2
 67
     7
 79
     5
170
     0
171
     0
290
     0
174
     0
 93
       13
 44
0.0
173
     0
291
     1
 45
0.0
1001
ACAD
1000
AcDbSavedByObjectVersion
1070
     0
  0
VISUALSTYLE
  5
2E
102
{ACAD_REACTORS
330
2A
102
}
330
2A
100
AcDbVisualStyle
  2
GouraudWithEdges
 70
     3
 71
     2
 72
     2
 73
     1
 90
        2
 40
-0.6
 41
30.0
 62
     5
 63
     7
 74
     1
 91
        4
 64
     7
 65
   257
 75
     1
175
     1
 42
1.0
 92
        0
 66
   257
 43
1.0
 76
     1
 77
     6
 78
     2
 67
     7
 79
     5
170
     0
171
     0
290
     0
174
     0
 93
       13
 44
0.0
173
     0
291
     1
 45
0.0
1001
ACAD
1000
AcDbSavedByObjectVersion
1070
     0
  0
VISUALSTYLE
  5
38
102
{ACAD_REACTORS
330
2A
102
}
330
2A
100
AcDbVisualStyle
  2
Linepattern
 70
    14
 71
     2
 72
     2
 73
     0
 90
        0
 40
-0.6
 41
-30.0
 62
     5
 63
     7
 74
     1
 91
        4
 64
     7
 65
   257
 75
     7
175
     7
 42
1.0
 92
        8
 66
     7
 43
1.0
 76
     1
 77
     6
 78
     2
 67
     7
 79
     5
170
     0
171
     0
290
     0
174
     0
 93
        1
 44
0.0
173
     0
291
     1
 45
0.0
1001
ACAD
1000
AcDbSavedByObjectVersion
1070
     0
  0
VISUALSTYLE
  5
33
102
{ACAD_REACTORS
330
2A
102
}
330
2A
100
AcDbVisualStyle
  2
Realistic
 70
     8
 71
     2
 72
     2
 73
     0
 90
        0
 40
-0.6
 41
-30.0
 62
     5
 63
     7
 74
     1
 91
        0
 64
     7
 65
   257
 75
     1
175
     1
 42
1.0
 92
        8
 66
     8
 43
1.0
 76
     1
 77
     6
 78
     2
 67
     7
 79
     5
170
     0
171
     0
290
     0
174
     0
 93
       13
 44
0.0
173
     0
291
     0
 45
0.0
1001
ACAD
1000
AcDbSavedByObjectVersion
1070
     0
  0
VISUALSTYLE
  5
37
102
{ACAD_REACTORS
330
2A
102
}
330
2A
100
AcDbVisualStyle
  2
Thicken
 70
    13
 71
     2
 72
     2
 73
     0
 90
        0
 40
-0.6
 41
-30.0
 62
     5
 63
     7
 74
     1
 91
        4
 64
     7
 65
   257
 75
     1
175
     1
 42
1.0
 92
       12
 66
     7
 43
1.0
 76
     1
 77
     6
 78
     2
 67
     7
 79
     5
170
     0
171
     0
290
     0
174
     0
 93
        1
 44
0.0
173
     0
291
     1
 45
0.0
1001
ACAD
1000
AcDbSavedByObjectVersion
1070
     0
  0
DICTIONARYVAR
  5
406
102
{ACAD_REACTORS
330
405
102
}
330
405
100
DictionaryVariables
280
     0
  1
1:1
  0
DICTIONARYVAR
  5
40A
102
{ACAD_REACTORS
330
405
102
}
330
405
100
DictionaryVariables
280
     0
  1
80.000000
  0
DICTIONARYVAR
  5
409
102
{ACAD_REACTORS
330
405
102
}
330
405
100
DictionaryVariables
280
     0
  1
5.000000
  0
ENDSEC
  0
EOF
