  0
SECTION
  2
HEADER
  9
$ACADVER
  1
AC1009
  9
$DWGCODEPAGE
  3
ansi_1252
  9
$INSBASE
 10
0.0
 20
0.0
 30
0.0
  9
$EXTMIN
 10
1.000000000000000E+20
 20
1.000000000000000E+20
 30
1.000000000000000E+20
  9
$EXTMAX
 10
-1.000000000000000E+20
 20
-1.000000000000000E+20
 30
-1.000000000000000E+20
  9
$LIMMIN
 10
0.0
 20
0.0
  9
$LIMMAX
 10
12.0
 20
9.0
  9
$ORTHOMODE
 70
     0
  9
$REGENMODE
 70
     1
  9
$FILLMODE
 70
     1
  9
$QTEXTMODE
 70
     0
  9
$MIRRTEXT
 70
     1
  9
$DRAGMODE
 70
     2
  9
$LTSCALE
 40
1.0
  9
$OSMODE
 70
    37
  9
$ATTMODE
 70
     1
  9
$TEXTSIZE
 40
0.2
  9
$TRACEWID
 40
0.05
  9
$TEXTSTYLE
  7
STANDARD
  9
$CLAYER
  8
0
  9
$CELTYPE
  6
BYLAYER
  9
$CECOLOR
 62
   256
  9
$DIMSCALE
 40
1.0
  9
$DIMASZ
 40
0.18
  9
$DIMEXO
 40
0.0625
  9
$DIMDLI
 40
0.38
  9
$DIMRND
 40
0.0
  9
$DIMDLE
 40
0.0
  9
$DIMEXE
 40
0.18
  9
$DIMTP
 40
0.0
  9
$DIMTM
 40
0.0
  9
$DIMTXT
 40
0.18
  9
$DIMCEN
 40
0.09
  9
$DIMTSZ
 40
0.0
  9
$DIMTOL
 70
     0
  9
$DIMLIM
 70
     0
  9
$DIMTIH
 70
     1
  9
$DIMTOH
 70
     1
  9
$DIMSE1
 70
     0
  9
$DIMSE2
 70
     0
  9
$DIMTAD
 70
     0
  9
$DIMZIN
 70
     0
  9
$DIMBLK
  1

  9
$DIMASO
 70
     1
  9
$DIMSHO
 70
     1
  9
$DIMPOST
  1

  9
$DIMAPOST
  1

  9
$DIMALT
 70
     0
  9
$DIMALTD
 70
     2
  9
$DIMALTF
 40
25.4
  9
$DIMLFAC
 40
1.0
  9
$DIMTOFL
 70
     0
  9
$DIMTVP
 40
0.0
  9
$DIMTIX
 70
     0
  9
$DIMSOXD
 70
     0
  9
$DIMSAH
 70
     0
  9
$DIMBLK1
  1

  9
$DIMBLK2
  1

  9
$DIMSTYLE
  2
STANDARD
  9
$DIMCLRD
 70
     0
  9
$DIMCLRE
 70
     0
  9
$DIMCLRT
 70
     0
  9
$DIMTFAC
 40
1.0
  9
$DIMGAP
 40
0.09
  9
$LUNITS
 70
     2
  9
$LUPREC
 70
     4
  9
$SKETCHINC
 40
0.1
  9
$FILLETRAD
 40
0.5
  9
$AUNITS
 70
     0
  9
$AUPREC
 70
     0
  9
$MENU
  1
.
  9
$ELEVATION
 40
0.0
  9
$PELEVATION
 40
0.0
  9
$THICKNESS
 40
0.0
  9
$LIMCHECK
 70
     0
  9
$CHAMFERA
 40
0.5
  9
$CHAMFERB
 40
0.5
  9
$SKPOLY
 70
     0
  9
$TDCREATE
 40
2455352.645760625
  9
$TDUPDATE
 40
2455352.645760625
  9
$TDINDWG
 40
0.0000000116
  9
$TDUSRTIMER
 40
0.0000000116
  9
$USRTIMER
 70
     1
  9
$ANGBASE
 50
0.0
  9
$ANGDIR
 70
     0
  9
$PDMODE
 70
     0
  9
$PDSIZE
 40
0.0
  9
$PLINEWID
 40
0.0
  9
$COORDS
 70
     1
  9
$SPLFRAME
 70
     0
  9
$SPLINETYPE
 70
     6
  9
$SPLINESEGS
 70
     8
  9
$ATTDIA
 70
     0
  9
$ATTREQ
 70
     1
  9
$HANDLING
 70
     1
  9
$HANDSEED
  5
914
  9
$SURFTAB1
 70
     6
  9
$SURFTAB2
 70
     6
  9
$SURFTYPE
 70
     6
  9
$SURFU
 70
     6
  9
$SURFV
 70
     6
  9
$UCSNAME
  2

  9
$UCSORG
 10
0.0
 20
0.0
 30
0.0
  9
$UCSXDIR
 10
1.0
 20
0.0
 30
0.0
  9
$UCSYDIR
 10
0.0
 20
1.0
 30
0.0
  9
$PUCSNAME
  2

  9
$PUCSORG
 10
0.0
 20
0.0
 30
0.0
  9
$PUCSXDIR
 10
1.0
 20
0.0
 30
0.0
  9
$PUCSYDIR
 10
0.0
 20
1.0
 30
0.0
  9
$USERI1
 70
     0
  9
$USERI2
 70
     0
  9
$USERI3
 70
     0
  9
$USERI4
 70
     0
  9
$USERI5
 70
     0
  9
$USERR1
 40
0.0
  9
$USERR2
 40
0.0
  9
$USERR3
 40
0.0
  9
$USERR4
 40
0.0
  9
$USERR5
 40
0.0
  9
$WORLDVIEW
 70
     1
  9
$SHADEDGE
 70
     3
  9
$SHADEDIF
 70
    70
  9
$TILEMODE
 70
     1
  9
$MAXACTVP
 70
    64
  9
$PLIMCHECK
 70
     0
  9
$PEXTMIN
 10
1.000000000000000E+20
 20
1.000000000000000E+20
 30
1.000000000000000E+20
  9
$PEXTMAX
 10
-1.000000000000000E+20
 20
-1.000000000000000E+20
 30
-1.000000000000000E+20
  9
$PLIMMIN
 10
0.0
 20
0.0
  9
$PLIMMAX
 10
12.0
 20
9.0
  9
$UNITMODE
 70
     0
  9
$VISRETAIN
 70
     1
  9
$PLINEGEN
 70
     0
  9
$PSLTSCALE
 70
     1
  0
ENDSEC
  0
SECTION
  2
TABLES
  0
TABLE
  2
VPORT
 70
     1
  0
VPORT
  2
*ACTIVE
 70
     0
 10
0.0
 20
0.0
 11
1.0
 21
1.0
 12
0.0
 22
0.0
 13
0.0
 23
0.0
 14
0.5
 24
0.5
 15
0.5
 25
0.5
 16
593.8093872070312
 26
339.2904663085938
 36
593.8093872070312
 17
110.1505126953125
 27
34.74899291992188
 37
199.8485107421875
 40
407.2876704220965
 41
1.972972972850329
 42
50.0
 43
0.0
 44
0.0
 50
0.0
 51
0.0
 71
     0
 72
   100
 73
     1
 74
     3
 75
     0
 76
     0
 77
     0
 78
     0
  0
ENDTAB
  0
TABLE
  2
LTYPE
 70
     1
  0
LTYPE
  2
CONTINUOUS
 70
     0
  3
Solid line
 72
    65
 73
     0
 40
0.0
  0
ENDTAB
  0
TABLE
  2
LAYER
 70
     2
  0
LAYER
  2
0
 70
     0
 62
     7
  6
CONTINUOUS
  0
LAYER
  2
LAYER_1
 70
     0
 62
     7
  6
CONTINUOUS
  0
ENDTAB
  0
TABLE
  2
STYLE
 70
     1
  0
STYLE
  2
STANDARD
 70
     0
 40
0.0
 41
1.0
 50
0.0
 71
     0
 42
0.2
  3
txt
  4

  0
ENDTAB
  0
TABLE
  2
VIEW
 70
     0
  0
ENDTAB
  0
TABLE
  2
UCS
 70
     0
  0
ENDTAB
  0
TABLE
  2
APPID
 70
     1
  0
APPID
  2
ACAD
 70
     0
  0
ENDTAB
  0
TABLE
  2
DIMSTYLE
 70
     1
  0
DIMSTYLE
  2
STANDARD
 70
     0
  3

  4

  5

  6

  7

 40
1.0
 41
0.18
 42
0.0625
 43
0.38
 44
0.18
 45
0.0
 46
0.0
 47
0.0
 48
0.0
140
0.18
141
0.09
142
0.0
143
25.4
144
1.0
145
0.0
146
1.0
147
0.09
 71
     0
 72
     0
 73
     1
 74
     1
 75
     0
 76
     0
 77
     0
 78
     0
170
     0
171
     2
172
     0
173
     0
174
     0
175
     0
176
     0
177
     0
178
     0
  0
ENDTAB
  0
ENDSEC
  0
SECTION
  2
BLOCKS
  0
BLOCK
  8
0
  2
$MODEL_SPACE
 70
     0
 10
0.0
 20
0.0
 30
0.0
  3
$MODEL_SPACE
  1

  0
ENDBLK
  5
21
  8
0
  0
BLOCK
 67
     1
  8
0
  2
$PAPER_SPACE
 70
     0
 10
0.0
 20
0.0
 30
0.0
  3
$PAPER_SPACE
  1

  0
ENDBLK
  5
1D
 67
     1
  8
0
  0
BLOCK
  8
0
  2
E3_NODE
 70
     0
 10
0.0
 20
0.0
 30
0.0
  3
E3_NODE
  1

  0
POLYLINE
  5
3C
  8
0
 62
     9
 66
     1
 10
0.0
 20
0.0
 30
0.0
 70
    64
 71
    12
 72
    10
  0
VERTEX
  5
3D
  8
0
 10
230.1280059814453
 20
-7.0
 30
270.2520141601562
 70
   192
  0
VERTEX
  5
3E
  8
0
 10
211.2940063476562
 20
-12.12399959564209
 30
266.9309997558594
 70
   192
  0
VERTEX
  5
3F
  8
0
 10
218.1880035400391
 20
-14.0
 30
268.1470031738281
 70
   192
  0
VERTEX
  5
40
  8
0
 10
231.9750061035156
 20
0.0
 30
270.5780029296875
 70
   192
  0
VERTEX
  5
41
  8
0
 10
218.1880035400391
 20
14.0
 30
268.1470031738281
 70
   192
  0
VERTEX
  5
42
  8
0
 10
211.2940063476562
 20
12.12399959564209
 30
266.9309997558594
 70
   192
  0
VERTEX
  5
43
  8
0
 10
230.1280059814453
 20
7.0
 30
270.2520141601562
 70
   192
  0
VERTEX
  5
44
  8
0
 10
206.2480010986328
 20
-7.0
 30
266.0419921875
 70
   192
  0
VERTEX
  5
45
  8
0
 10
206.2480010986328
 20
7.0
 30
266.0419921875
 70
   192
  0
VERTEX
  5
46
  8
0
 10
204.3999938964844
 20
0.0
 30
265.7160034179688
 70
   192
  0
VERTEX
  5
47
  8
0
 10
225.0809936523438
 20
12.12399959564209
 30
269.3630065917969
 70
   192
  0
VERTEX
  5
48
  8
0
 10
225.0809936523438
 20
-12.12399959564209
 30
269.3630065917969
 70
   192
  0
VERTEX
  5
49
  8
0
 62
     9
 10
0.0
 20
0.0
 30
0.0
 70
   128
 71
     3
 72
     2
 73
     1
  0
VERTEX
  5
4A
  8
0
 62
     9
 10
0.0
 20
0.0
 30
0.0
 70
   128
 71
     6
 72
     5
 73
     4
  0
VERTEX
  5
4B
  8
0
 62
     9
 10
0.0
 20
0.0
 30
0.0
 70
   128
 71
     7
 72
     4
 73
     5
  0
VERTEX
  5
4C
  8
0
 62
     9
 10
0.0
 20
0.0
 30
0.0
 70
   128
 71
     2
 72
     8
 73
     1
  0
VERTEX
  5
4D
  8
0
 62
     9
 10
0.0
 20
0.0
 30
0.0
 70
   128
 71
    10
 72
     9
 73
     1
  0
VERTEX
  5
4E
  8
0
 62
     9
 10
0.0
 20
0.0
 30
0.0
 70
   128
 71
     5
 72
    11
 73
     7
  0
VERTEX
  5
4F
  8
0
 62
     9
 10
0.0
 20
0.0
 30
0.0
 70
   128
 71
     1
 72
     8
 73
    10
  0
VERTEX
  5
50
  8
0
 62
     9
 10
0.0
 20
0.0
 30
0.0
 70
   128
 71
     4
 72
     1
 73
     9
  0
VERTEX
  5
51
  8
0
 62
     9
 10
0.0
 20
0.0
 30
0.0
 70
   128
 71
     4
 72
     9
 73
     6
  0
VERTEX
  5
52
  8
0
 62
     9
 10
0.0
 20
0.0
 30
0.0
 70
   128
 71
     1
 72
    12
 73
     3
  0
SEQEND
  5
53
  8
0
 62
     9
  0
ENDBLK
  5
57
  8
0
  0
BLOCK
  8
0
  2
E3_NODE_1_
 70
     0
 10
0.0
 20
0.0
 30
0.0
  3
E3_NODE_1_
  1

  0
POLYLINE
  5
59
  8
0
 62
     9
 66
     1
 10
0.0
 20
0.0
 30
0.0
 70
    64
 71
    24
 72
    24
  0
VERTEX
  5
5A
  8
0
 10
232.0269927978516
 20
12.12399959564209
 30
229.9700012207031
 70
   192
  0
VERTEX
  5
5B
  8
0
 10
225.1340026855469
 20
14.0
 30
228.7550048828125
 70
   192
  0
VERTEX
  5
5C
  8
0
 10
218.1880035400391
 20
14.0
 30
268.1470031738281
 70
   192
  0
VERTEX
  5
5D
  8
0
 10
230.1280059814453
 20
7.0
 30
270.2520141601562
 70
   192
  0
VERTEX
  5
5E
  8
0
 10
237.0740051269531
 20
7.0
 30
230.8600006103516
 70
   192
  0
VERTEX
  5
5F
  8
0
 10
231.9750061035156
 20
0.0
 30
270.5780029296875
 70
   192
  0
VERTEX
  5
60
  8
0
 10
238.9210052490234
 20
0.0
 30
231.1860046386719
 70
   192
  0
VERTEX
  5
61
  8
0
 10
237.0740051269531
 20
-7.0
 30
230.8600006103516
 70
   192
  0
VERTEX
  5
62
  8
0
 10
232.0269927978516
 20
-12.12399959564209
 30
229.9700012207031
 70
   192
  0
VERTEX
  5
63
  8
0
 10
230.1280059814453
 20
-7.0
 30
270.2520141601562
 70
   192
  0
VERTEX
  5
64
  8
0
 10
218.1880035400391
 20
-14.0
 30
268.1470031738281
 70
   192
  0
VERTEX
  5
65
  8
0
 10
225.1340026855469
 20
-14.0
 30
228.7550048828125
 70
   192
  0
VERTEX
  5
66
  8
0
 10
211.2940063476562
 20
-12.12399959564209
 30
266.9309997558594
 70
   192
  0
VERTEX
  5
67
  8
0
 10
218.2400054931641
 20
-12.12399959564209
 30
227.5390014648438
 70
   192
  0
VERTEX
  5
68
  8
0
 10
213.1929931640625
 20
-7.0
 30
226.6490020751953
 70
   192
  0
VERTEX
  5
69
  8
0
 10
211.3459930419922
 20
0.0
 30
226.3240051269531
 70
   192
  0
VERTEX
  5
6A
  8
0
 10
206.2480010986328
 20
-7.0
 30
266.0419921875
 70
   192
  0
VERTEX
  5
6B
  8
0
 10
206.2480010986328
 20
7.0
 30
266.0419921875
 70
   192
  0
VERTEX
  5
6C
  8
0
 10
213.1929931640625
 20
7.0
 30
226.6490020751953
 70
   192
  0
VERTEX
  5
6D
  8
0
 10
211.2940063476562
 20
12.12399959564209
 30
266.9309997558594
 70
   192
  0
VERTEX
  5
6E
  8
0
 10
218.2400054931641
 20
12.12399959564209
 30
227.5390014648438
 70
   192
  0
VERTEX
  5
6F
  8
0
 10
204.3999938964844
 20
0.0
 30
265.7160034179688
 70
   192
  0
VERTEX
  5
70
  8
0
 10
225.0809936523438
 20
-12.12399959564209
 30
269.3630065917969
 70
   192
  0
VERTEX
  5
71
  8
0
 10
225.0809936523438
 20
12.12399959564209
 30
269.3630065917969
 70
   192
  0
VERTEX
  5
72
  8
0
 62
     9
 10
0.0
 20
0.0
 30
0.0
 70
   128
 71
     3
 72
     2
 73
     1
  0
VERTEX
  5
73
  8
0
 62
     9
 10
0.0
 20
0.0
 30
0.0
 70
   128
 71
     1
 72
     5
 73
     4
  0
VERTEX
  5
74
  8
0
 62
     9
 10
0.0
 20
0.0
 30
0.0
 70
   128
 71
     5
 72
     7
 73
     6
  0
VERTEX
  5
75
  8
0
 62
     9
 10
0.0
 20
0.0
 30
0.0
 70
   128
 71
     6
 72
     7
 73
     8
  0
VERTEX
  5
76
  8
0
 62
     9
 10
0.0
 20
0.0
 30
0.0
 70
   128
 71
    10
 72
     8
 73
     9
  0
VERTEX
  5
77
  8
0
 62
     9
 10
0.0
 20
0.0
 30
0.0
 70
   128
 71
     9
 72
    12
 73
    11
  0
VERTEX
  5
78
  8
0
 62
     9
 10
0.0
 20
0.0
 30
0.0
 70
   128
 71
    12
 72
    14
 73
    13
  0
VERTEX
  5
79
  8
0
 62
     9
 10
0.0
 20
0.0
 30
0.0
 70
   128
 71
    13
 72
    14
 73
    15
  0
VERTEX
  5
7A
  8
0
 62
     9
 10
0.0
 20
0.0
 30
0.0
 70
   128
 71
    17
 72
    15
 73
    16
  0
VERTEX
  5
7B
  8
0
 62
     9
 10
0.0
 20
0.0
 30
0.0
 70
   128
 71
    16
 72
    19
 73
    18
  0
VERTEX
  5
7C
  8
0
 62
     9
 10
0.0
 20
0.0
 30
0.0
 70
   128
 71
    19
 72
    21
 73
    20
  0
VERTEX
  5
7D
  8
0
 62
     9
 10
0.0
 20
0.0
 30
0.0
 70
   128
 71
    20
 72
    21
 73
     2
  0
VERTEX
  5
7E
  8
0
 62
     9
 10
0.0
 20
0.0
 30
0.0
 70
   128
 71
     2
 72
     3
 73
    20
  0
VERTEX
  5
7F
  8
0
 62
     9
 10
0.0
 20
0.0
 30
0.0
 70
   128
 71
    20
 72
    18
 73
    19
  0
VERTEX
  5
80
  8
0
 62
     9
 10
0.0
 20
0.0
 30
0.0
 70
   128
 71
    18
 72
    22
 73
    16
  0
VERTEX
  5
81
  8
0
 62
     9
 10
0.0
 20
0.0
 30
0.0
 70
   128
 71
    16
 72
    22
 73
    17
  0
VERTEX
  5
82
  8
0
 62
     9
 10
0.0
 20
0.0
 30
0.0
 70
   128
 71
    15
 72
    17
 73
    13
  0
VERTEX
  5
83
  8
0
 62
     9
 10
0.0
 20
0.0
 30
0.0
 70
   128
 71
    13
 72
    11
 73
    12
  0
VERTEX
  5
84
  8
0
 62
     9
 10
0.0
 20
0.0
 30
0.0
 70
   128
 71
    11
 72
    23
 73
     9
  0
VERTEX
  5
85
  8
0
 62
     9
 10
0.0
 20
0.0
 30
0.0
 70
   128
 71
     9
 72
    23
 73
    10
  0
VERTEX
  5
86
  8
0
 62
     9
 10
0.0
 20
0.0
 30
0.0
 70
   128
 71
     8
 72
    10
 73
     6
  0
VERTEX
  5
87
  8
0
 62
     9
 10
0.0
 20
0.0
 30
0.0
 70
   128
 71
     6
 72
     4
 73
     5
  0
VERTEX
  5
88
  8
0
 62
     9
 10
0.0
 20
0.0
 30
0.0
 70
   128
 71
     4
 72
    24
 73
     1
  0
VERTEX
  5
89
  8
0
 62
     9
 10
0.0
 20
0.0
 30
0.0
 70
   128
 71
     1
 72
    24
 73
     3
  0
SEQEND
  5
8A
  8
0
 62
     9
  0
ENDBLK
  5
8D
  8
0
  0
BLOCK
  8
0
  2
E3_NODE_2_
 70
     0
 10
0.0
 20
0.0
 30
0.0
  3
E3_NODE_2_
  1

  0
POLYLINE
  5
8F
  8
0
 62
     9
 66
     1
 10
0.0
 20
0.0
 30
0.0
 70
    64
 71
    12
 72
    10
  0
VERTEX
  5
90
  8
0
 10
232.0269927978516
 20
12.12399959564209
 30
229.9700012207031
 70
   192
  0
VERTEX
  5
91
  8
0
 10
218.2400054931641
 20
-12.12399959564209
 30
227.5390014648438
 70
   192
  0
VERTEX
  5
92
  8
0
 10
213.1929931640625
 20
-7.0
 30
226.6490020751953
 70
   192
  0
VERTEX
  5
93
  8
0
 10
237.0740051269531
 20
-7.0
 30
230.8600006103516
 70
   192
  0
VERTEX
  5
94
  8
0
 10
232.0269927978516
 20
-12.12399959564209
 30
229.9700012207031
 70
   192
  0
VERTEX
  5
95
  8
0
 10
213.1929931640625
 20
7.0
 30
226.6490020751953
 70
   192
  0
VERTEX
  5
96
  8
0
 10
218.2400054931641
 20
12.12399959564209
 30
227.5390014648438
 70
   192
  0
VERTEX
  5
97
  8
0
 10
225.1340026855469
 20
14.0
 30
228.7550048828125
 70
   192
  0
VERTEX
  5
98
  8
0
 10
211.3459930419922
 20
0.0
 30
226.3240051269531
 70
   192
  0
VERTEX
  5
99
  8
0
 10
225.1340026855469
 20
-14.0
 30
228.7550048828125
 70
   192
  0
VERTEX
  5
9A
  8
0
 10
237.0740051269531
 20
7.0
 30
230.8600006103516
 70
   192
  0
VERTEX
  5
9B
  8
0
 10
238.9210052490234
 20
0.0
 30
231.1860046386719
 70
   192
  0
VERTEX
  5
9C
  8
0
 62
     9
 10
0.0
 20
0.0
 30
0.0
 70
   128
 71
     3
 72
     2
 73
     1
  0
VERTEX
  5
9D
  8
0
 62
     9
 10
0.0
 20
0.0
 30
0.0
 70
   128
 71
     5
 72
     4
 73
     1
  0
VERTEX
  5
9E
  8
0
 62
     9
 10
0.0
 20
0.0
 30
0.0
 70
   128
 71
     8
 72
     7
 73
     6
  0
VERTEX
  5
9F
  8
0
 62
     9
 10
0.0
 20
0.0
 30
0.0
 70
   128
 71
     1
 72
     9
 73
     3
  0
VERTEX
  5
A0
  8
0
 62
     9
 10
0.0
 20
0.0
 30
0.0
 70
   128
 71
     1
 72
    10
 73
     5
  0
VERTEX
  5
A1
  8
0
 62
     9
 10
0.0
 20
0.0
 30
0.0
 70
   128
 71
    12
 72
    11
 73
     1
  0
VERTEX
  5
A2
  8
0
 62
     9
 10
0.0
 20
0.0
 30
0.0
 70
   128
 71
     1
 72
     6
 73
     9
  0
VERTEX
  5
A3
  8
0
 62
     9
 10
0.0
 20
0.0
 30
0.0
 70
   128
 71
     1
 72
     4
 73
    12
  0
VERTEX
  5
A4
  8
0
 62
     9
 10
0.0
 20
0.0
 30
0.0
 70
   128
 71
     1
 72
     2
 73
    10
  0
VERTEX
  5
A5
  8
0
 62
     9
 10
0.0
 20
0.0
 30
0.0
 70
   128
 71
     6
 72
     1
 73
     8
  0
SEQEND
  5
A6
  8
0
 62
     9
  0
ENDBLK
  5
A9
  8
0
  0
BLOCK
  8
0
  2
E3_NODE_3_
 70
     0
 10
0.0
 20
0.0
 30
0.0
  3
E3_NODE_3_
  1

  0
POLYLINE
  5
AB
  8
0
 62
     9
 66
     1
 10
0.0
 20
0.0
 30
0.0
 70
    64
 71
    15
 72
    13
  0
VERTEX
  5
AC
  8
0
 10
21.77300071716309
 20
0.0
 30
119.7559967041016
 70
   192
  0
VERTEX
  5
AD
  8
0
 10
17.67300033569336
 20
9.89900016784668
 30
119.7559967041016
 70
   192
  0
VERTEX
  5
AE
  8
0
 10
19.09900093078613
 20
8.229000091552734
 30
272.7409973144531
 70
   192
  0
VERTEX
  5
AF
  8
0
 10
17.37100028991699
 20
9.484999656677246
 30
272.7409973144531
 70
   192
  0
VERTEX
  5
B0
  8
0
 10
7.77299976348877
 20
14.0
 30
119.7559967041016
 70
   192
  0
VERTEX
  5
B1
  8
0
 10
12.09899997711182
 20
13.3149995803833
 30
272.7409973144531
 70
   192
  0
VERTEX
  5
B2
  8
0
 10
7.77299976348877
 20
13.3149995803833
 30
272.7409973144531
 70
   192
  0
VERTEX
  5
B3
  8
0
 10
7.543000221252441
 20
13.9980001449585
 30
119.7559967041016
 70
   192
  0
VERTEX
  5
B4
  8
0
 10
-1.825000047683716
 20
9.484999656677246
 30
272.7409973144531
 70
   192
  0
VERTEX
  5
B5
  8
0
 10
3.447000026702881
 20
13.3149995803833
 30
272.7409973144531
 70
   192
  0
VERTEX
  5
B6
  8
0
 10
-2.125999927520752
 20
9.89900016784668
 30
119.7559967041016
 70
   192
  0
VERTEX
  5
B7
  8
0
 10
-6.22700023651123
 20
0.0
 30
119.7559967041016
 70
   192
  0
VERTEX
  5
B8
  8
0
 10
-6.22700023651123
 20
0.0
 30
272.7409973144531
 70
   192
  0
VERTEX
  5
B9
  8
0
 10
-3.552999973297119
 20
8.229000091552734
 30
272.7409973144531
 70
   192
  0
VERTEX
  5
BA
  8
0
 10
21.77300071716309
 20
0.0
 30
272.7409973144531
 70
   192
  0
VERTEX
  5
BB
  8
0
 62
     9
 10
0.0
 20
0.0
 30
0.0
 70
   128
 71
     3
 72
     2
 73
     1
  0
VERTEX
  5
BC
  8
0
 62
     9
 10
0.0
 20
0.0
 30
0.0
 70
   128
 71
     3
 72
     4
 73
     2
  0
VERTEX
  5
BD
  8
0
 62
     9
 10
0.0
 20
0.0
 30
0.0
 70
   128
 71
     6
 72
     5
 73
     2
  0
VERTEX
  5
BE
  8
0
 62
     9
 10
0.0
 20
0.0
 30
0.0
 70
   128
 71
     6
 72
     7
 73
     5
  0
VERTEX
  5
BF
  8
0
 62
     9
 10
0.0
 20
0.0
 30
0.0
 70
   128
 71
     8
 72
     5
 73
     7
  0
VERTEX
  5
C0
  8
0
 62
     9
 10
0.0
 20
0.0
 30
0.0
 70
   128
 71
    10
 72
     9
 73
     8
  0
VERTEX
  5
C1
  8
0
 62
     9
 10
0.0
 20
0.0
 30
0.0
 70
   128
 71
     7
 72
    10
 73
     8
  0
VERTEX
  5
C2
  8
0
 62
     9
 10
0.0
 20
0.0
 30
0.0
 70
   128
 71
     9
 72
    11
 73
     8
  0
VERTEX
  5
C3
  8
0
 62
     9
 10
0.0
 20
0.0
 30
0.0
 70
   128
 71
    14
 72
    13
 73
    12
  0
VERTEX
  5
C4
  8
0
 62
     9
 10
0.0
 20
0.0
 30
0.0
 70
   128
 71
    12
 72
    11
 73
    14
  0
VERTEX
  5
C5
  8
0
 62
     9
 10
0.0
 20
0.0
 30
0.0
 70
   128
 71
    11
 72
     9
 73
    14
  0
VERTEX
  5
C6
  8
0
 62
     9
 10
0.0
 20
0.0
 30
0.0
 70
   128
 71
     2
 72
     4
 73
     6
  0
VERTEX
  5
C7
  8
0
 62
     9
 10
0.0
 20
0.0
 30
0.0
 70
   128
 71
     1
 72
    15
 73
     3
  0
SEQEND
  5
C8
  8
0
 62
     9
  0
ENDBLK
  5
CB
  8
0
  0
BLOCK
  8
0
  2
E3_NODE_4_
 70
     0
 10
0.0
 20
0.0
 30
0.0
  3
E3_NODE_4_
  1

  0
POLYLINE
  5
CD
  8
0
 62
     9
 66
     1
 10
0.0
 20
0.0
 30
0.0
 70
    64
 71
    15
 72
    13
  0
VERTEX
  5
CE
  8
0
 10
-6.22700023651123
 20
0.0
 30
119.7559967041016
 70
   192
  0
VERTEX
  5
CF
  8
0
 10
-2.125999927520752
 20
-9.89900016784668
 30
119.7559967041016
 70
   192
  0
VERTEX
  5
D0
  8
0
 10
-3.552999973297119
 20
-8.229000091552734
 30
272.7409973144531
 70
   192
  0
VERTEX
  5
D1
  8
0
 10
-1.825000047683716
 20
-9.484999656677246
 30
272.7409973144531
 70
   192
  0
VERTEX
  5
D2
  8
0
 10
7.543000221252441
 20
-13.9980001449585
 30
119.7559967041016
 70
   192
  0
VERTEX
  5
D3
  8
0
 10
3.447000026702881
 20
-13.3149995803833
 30
272.7409973144531
 70
   192
  0
VERTEX
  5
D4
  8
0
 10
7.77299976348877
 20
-13.3149995803833
 30
272.7409973144531
 70
   192
  0
VERTEX
  5
D5
  8
0
 10
17.67300033569336
 20
-9.89900016784668
 30
119.7559967041016
 70
   192
  0
VERTEX
  5
D6
  8
0
 10
17.37100028991699
 20
-9.484999656677246
 30
272.7409973144531
 70
   192
  0
VERTEX
  5
D7
  8
0
 10
12.09899997711182
 20
-13.3149995803833
 30
272.7409973144531
 70
   192
  0
VERTEX
  5
D8
  8
0
 10
7.77299976348877
 20
-14.0
 30
119.7559967041016
 70
   192
  0
VERTEX
  5
D9
  8
0
 10
21.77300071716309
 20
0.0
 30
119.7559967041016
 70
   192
  0
VERTEX
  5
DA
  8
0
 10
21.77300071716309
 20
0.0
 30
272.7409973144531
 70
   192
  0
VERTEX
  5
DB
  8
0
 10
19.09900093078613
 20
-8.229000091552734
 30
272.7409973144531
 70
   192
  0
VERTEX
  5
DC
  8
0
 10
-6.22700023651123
 20
0.0
 30
272.7409973144531
 70
   192
  0
VERTEX
  5
DD
  8
0
 62
     9
 10
0.0
 20
0.0
 30
0.0
 70
   128
 71
     3
 72
     2
 73
     1
  0
VERTEX
  5
DE
  8
0
 62
     9
 10
0.0
 20
0.0
 30
0.0
 70
   128
 71
     3
 72
     4
 73
     2
  0
VERTEX
  5
DF
  8
0
 62
     9
 10
0.0
 20
0.0
 30
0.0
 70
   128
 71
     6
 72
     5
 73
     2
  0
VERTEX
  5
E0
  8
0
 62
     9
 10
0.0
 20
0.0
 30
0.0
 70
   128
 71
     6
 72
     7
 73
     5
  0
VERTEX
  5
E1
  8
0
 62
     9
 10
0.0
 20
0.0
 30
0.0
 70
   128
 71
     2
 72
     4
 73
     6
  0
VERTEX
  5
E2
  8
0
 62
     9
 10
0.0
 20
0.0
 30
0.0
 70
   128
 71
    10
 72
     9
 73
     8
  0
VERTEX
  5
E3
  8
0
 62
     9
 10
0.0
 20
0.0
 30
0.0
 70
   128
 71
     8
 72
    11
 73
    10
  0
VERTEX
  5
E4
  8
0
 62
     9
 10
0.0
 20
0.0
 30
0.0
 70
   128
 71
    14
 72
    13
 73
    12
  0
VERTEX
  5
E5
  8
0
 62
     9
 10
0.0
 20
0.0
 30
0.0
 70
   128
 71
    12
 72
     8
 73
    14
  0
VERTEX
  5
E6
  8
0
 62
     9
 10
0.0
 20
0.0
 30
0.0
 70
   128
 71
     8
 72
     9
 73
    14
  0
VERTEX
  5
E7
  8
0
 62
     9
 10
0.0
 20
0.0
 30
0.0
 70
   128
 71
    11
 72
     7
 73
    10
  0
VERTEX
  5
E8
  8
0
 62
     9
 10
0.0
 20
0.0
 30
0.0
 70
   128
 71
     7
 72
    11
 73
     5
  0
VERTEX
  5
E9
  8
0
 62
     9
 10
0.0
 20
0.0
 30
0.0
 70
   128
 71
     1
 72
    15
 73
     3
  0
SEQEND
  5
EA
  8
0
 62
     9
  0
ENDBLK
  5
ED
  8
0
  0
BLOCK
  8
0
  2
E3_NODE_5_
 70
     0
 10
0.0
 20
0.0
 30
0.0
  3
E3_NODE_5_
  1

  0
POLYLINE
  5
EF
  8
0
 62
     9
 66
     1
 10
0.0
 20
0.0
 30
0.0
 70
    64
 71
    51
 72
    73
  0
VERTEX
  5
F0
  8
0
 10
-3.267999887466431
 20
0.0
 30
298.9989929199219
 70
   192
  0
VERTEX
  5
F1
  8
0
 10
-0.6620000004768372
 20
8.229000091552734
 30
298.4039916992188
 70
   192
  0
VERTEX
  5
F2
  8
0
 10
-3.552999973297119
 20
8.229000091552734
 30
272.7409973144531
 70
   192
  0
VERTEX
  5
F3
  8
0
 10
5.459000110626221
 20
0.0
 30
323.9400024414062
 70
   192
  0
VERTEX
  5
F4
  8
0
 10
7.868000030517578
 20
8.229000091552734
 30
322.7799987792969
 70
   192
  0
VERTEX
  5
F5
  8
0
 10
19.51700019836426
 20
0.0
 30
346.31298828125
 70
   192
  0
VERTEX
  5
F6
  8
0
 10
21.60799980163574
 20
8.229000091552734
 30
344.64599609375
 70
   192
  0
VERTEX
  5
F7
  8
0
 10
38.20100021362305
 20
0.0
 30
364.9979858398438
 70
   192
  0
VERTEX
  5
F8
  8
0
 10
39.86800003051758
 20
8.229000091552734
 30
362.9070129394531
 70
   192
  0
VERTEX
  5
F9
  8
0
 10
60.57500076293945
 20
0.0
 30
379.0559997558594
 70
   192
  0
VERTEX
  5
FA
  8
0
 10
61.73500061035156
 20
8.229000091552734
 30
376.6470031738281
 70
   192
  0
VERTEX
  5
FB
  8
0
 10
85.51599884033203
 20
0.0
 30
387.7829895019531
 70
   192
  0
VERTEX
  5
FC
  8
0
 10
86.11100006103516
 20
8.229000091552734
 30
385.1759948730469
 70
   192
  0
VERTEX
  5
FD
  8
0
 10
111.7730026245117
 20
0.0
 30
390.7409973144531
 70
   192
  0
VERTEX
  5
FE
  8
0
 10
111.7730026245117
 20
8.229000091552734
 30
388.0679931640625
 70
   192
  0
VERTEX
  5
FF
  8
0
 10
-1.825000047683716
 20
9.484999656677246
 30
272.7409973144531
 70
   192
  0
VERTEX
  5
100
  8
0
 10
6.163000106811523
 20
13.3149995803833
 30
296.8460083007812
 70
   192
  0
VERTEX
  5
101
  8
0
 10
3.447000026702881
 20
13.3149995803833
 30
272.7409973144531
 70
   192
  0
VERTEX
  5
102
  8
0
 10
14.17500019073486
 20
13.3149995803833
 30
319.7420043945312
 70
   192
  0
VERTEX
  5
103
  8
0
 10
27.07999992370605
 20
13.3149995803833
 30
340.2820129394531
 70
   192
  0
VERTEX
  5
104
  8
0
 10
44.23300170898438
 20
13.3149995803833
 30
357.4339904785156
 70
   192
  0
VERTEX
  5
105
  8
0
 10
64.77200317382812
 20
13.3149995803833
 30
370.3399963378906
 70
   192
  0
VERTEX
  5
106
  8
0
 10
87.66799926757812
 20
13.3149995803833
 30
378.3519897460938
 70
   192
  0
VERTEX
  5
107
  8
0
 10
111.7730026245117
 20
13.3149995803833
 30
381.0679931640625
 70
   192
  0
VERTEX
  5
108
  8
0
 10
7.77299976348877
 20
13.3149995803833
 30
272.7409973144531
 70
   192
  0
VERTEX
  5
109
  8
0
 10
14.59799957275391
 20
13.3149995803833
 30
294.9209899902344
 70
   192
  0
VERTEX
  5
10A
  8
0
 10
12.09899997711182
 20
13.3149995803833
 30
272.7409973144531
 70
   192
  0
VERTEX
  5
10B
  8
0
 10
21.96999931335449
 20
13.3149995803833
 30
315.9880065917969
 70
   192
  0
VERTEX
  5
10C
  8
0
 10
33.84500122070312
 20
13.3149995803833
 30
334.8869934082031
 70
   192
  0
VERTEX
  5
10D
  8
0
 10
49.62799835205078
 20
13.3149995803833
 30
350.6700134277344
 70
   192
  0
VERTEX
  5
10E
  8
0
 10
68.5260009765625
 20
13.3149995803833
 30
362.5440063476562
 70
   192
  0
VERTEX
  5
10F
  8
0
 10
89.59400177001953
 20
13.3149995803833
 30
369.9159851074219
 70
   192
  0
VERTEX
  5
110
  8
0
 10
111.7730026245117
 20
13.3149995803833
 30
372.4150085449219
 70
   192
  0
VERTEX
  5
111
  8
0
 10
21.42300033569336
 20
8.229000091552734
 30
293.3630065917969
 70
   192
  0
VERTEX
  5
112
  8
0
 10
17.37100028991699
 20
9.484999656677246
 30
272.7409973144531
 70
   192
  0
VERTEX
  5
113
  8
0
 10
19.09900093078613
 20
8.229000091552734
 30
272.7409973144531
 70
   192
  0
VERTEX
  5
114
  8
0
 10
28.27700042724609
 20
8.229000091552734
 30
312.9509887695312
 70
   192
  0
VERTEX
  5
115
  8
0
 10
39.31800079345703
 20
8.229000091552734
 30
330.5230102539062
 70
   192
  0
VERTEX
  5
116
  8
0
 10
53.99200057983398
 20
8.229000091552734
 30
345.1969909667969
 70
   192
  0
VERTEX
  5
117
  8
0
 10
71.56400299072266
 20
8.229000091552734
 30
356.2380065917969
 70
   192
  0
VERTEX
  5
118
  8
0
 10
91.1510009765625
 20
8.229000091552734
 30
363.0920104980469
 70
   192
  0
VERTEX
  5
119
  8
0
 10
111.7730026245117
 20
8.229000091552734
 30
365.4150085449219
 70
   192
  0
VERTEX
  5
11A
  8
0
 10
24.03000068664551
 20
0.0
 30
292.7680053710938
 70
   192
  0
VERTEX
  5
11B
  8
0
 10
21.77300071716309
 20
0.0
 30
272.7409973144531
 70
   192
  0
VERTEX
  5
11C
  8
0
 10
30.68600082397461
 20
0.0
 30
311.7909851074219
 70
   192
  0
VERTEX
  5
11D
  8
0
 10
41.40800094604492
 20
0.0
 30
328.8559875488281
 70
   192
  0
VERTEX
  5
11E
  8
0
 10
55.65900039672852
 20
0.0
 30
343.1059875488281
 70
   192
  0
VERTEX
  5
11F
  8
0
 10
72.7239990234375
 20
0.0
 30
353.8290100097656
 70
   192
  0
VERTEX
  5
120
  8
0
 10
91.74600219726562
 20
0.0
 30
360.4849853515625
 70
   192
  0
VERTEX
  5
121
  8
0
 10
111.7730026245117
 20
0.0
 30
362.7409973144531
 70
   192
  0
VERTEX
  5
122
  8
0
 10
-6.22700023651123
 20
0.0
 30
272.7409973144531
 70
   192
  0
VERTEX
  5
123
  8
0
 62
     9
 10
0.0
 20
0.0
 30
0.0
 70
   128
 71
     3
 72
     2
 73
     1
  0
VERTEX
  5
124
  8
0
 62
     9
 10
0.0
 20
0.0
 30
0.0
 70
   128
 71
     2
 72
     5
 73
     4
  0
VERTEX
  5
125
  8
0
 62
     9
 10
0.0
 20
0.0
 30
0.0
 70
   128
 71
     5
 72
     7
 73
     6
  0
VERTEX
  5
126
  8
0
 62
     9
 10
0.0
 20
0.0
 30
0.0
 70
   128
 71
     9
 72
     8
 73
     6
  0
VERTEX
  5
127
  8
0
 62
     9
 10
0.0
 20
0.0
 30
0.0
 70
   128
 71
    11
 72
    10
 73
     8
  0
VERTEX
  5
128
  8
0
 62
     9
 10
0.0
 20
0.0
 30
0.0
 70
   128
 71
    13
 72
    12
 73
    10
  0
VERTEX
  5
129
  8
0
 62
     9
 10
0.0
 20
0.0
 30
0.0
 70
   128
 71
    15
 72
    14
 73
    12
  0
VERTEX
  5
12A
  8
0
 62
     9
 10
0.0
 20
0.0
 30
0.0
 70
   128
 71
    17
 72
     2
 73
    16
  0
VERTEX
  5
12B
  8
0
 62
     9
 10
0.0
 20
0.0
 30
0.0
 70
   128
 71
    16
 72
    18
 73
    17
  0
VERTEX
  5
12C
  8
0
 62
     9
 10
0.0
 20
0.0
 30
0.0
 70
   128
 71
    19
 72
     5
 73
     2
  0
VERTEX
  5
12D
  8
0
 62
     9
 10
0.0
 20
0.0
 30
0.0
 70
   128
 71
    20
 72
     7
 73
     5
  0
VERTEX
  5
12E
  8
0
 62
     9
 10
0.0
 20
0.0
 30
0.0
 70
   128
 71
    21
 72
     9
 73
     7
  0
VERTEX
  5
12F
  8
0
 62
     9
 10
0.0
 20
0.0
 30
0.0
 70
   128
 71
    22
 72
    11
 73
     9
  0
VERTEX
  5
130
  8
0
 62
     9
 10
0.0
 20
0.0
 30
0.0
 70
   128
 71
    23
 72
    13
 73
    11
  0
VERTEX
  5
131
  8
0
 62
     9
 10
0.0
 20
0.0
 30
0.0
 70
   128
 71
    24
 72
    15
 73
    13
  0
VERTEX
  5
132
  8
0
 62
     9
 10
0.0
 20
0.0
 30
0.0
 70
   128
 71
    26
 72
    17
 73
    25
  0
VERTEX
  5
133
  8
0
 62
     9
 10
0.0
 20
0.0
 30
0.0
 70
   128
 71
    25
 72
    27
 73
    26
  0
VERTEX
  5
134
  8
0
 62
     9
 10
0.0
 20
0.0
 30
0.0
 70
   128
 71
    28
 72
    19
 73
    17
  0
VERTEX
  5
135
  8
0
 62
     9
 10
0.0
 20
0.0
 30
0.0
 70
   128
 71
    29
 72
    20
 73
    19
  0
VERTEX
  5
136
  8
0
 62
     9
 10
0.0
 20
0.0
 30
0.0
 70
   128
 71
    30
 72
    21
 73
    20
  0
VERTEX
  5
137
  8
0
 62
     9
 10
0.0
 20
0.0
 30
0.0
 70
   128
 71
    31
 72
    22
 73
    21
  0
VERTEX
  5
138
  8
0
 62
     9
 10
0.0
 20
0.0
 30
0.0
 70
   128
 71
    32
 72
    23
 73
    22
  0
VERTEX
  5
139
  8
0
 62
     9
 10
0.0
 20
0.0
 30
0.0
 70
   128
 71
    33
 72
    24
 73
    23
  0
VERTEX
  5
13A
  8
0
 62
     9
 10
0.0
 20
0.0
 30
0.0
 70
   128
 71
    35
 72
    34
 73
    26
  0
VERTEX
  5
13B
  8
0
 62
     9
 10
0.0
 20
0.0
 30
0.0
 70
   128
 71
    35
 72
    36
 73
    34
  0
VERTEX
  5
13C
  8
0
 62
     9
 10
0.0
 20
0.0
 30
0.0
 70
   128
 71
    37
 72
    28
 73
    26
  0
VERTEX
  5
13D
  8
0
 62
     9
 10
0.0
 20
0.0
 30
0.0
 70
   128
 71
    38
 72
    29
 73
    28
  0
VERTEX
  5
13E
  8
0
 62
     9
 10
0.0
 20
0.0
 30
0.0
 70
   128
 71
    39
 72
    30
 73
    29
  0
VERTEX
  5
13F
  8
0
 62
     9
 10
0.0
 20
0.0
 30
0.0
 70
   128
 71
    40
 72
    31
 73
    30
  0
VERTEX
  5
140
  8
0
 62
     9
 10
0.0
 20
0.0
 30
0.0
 70
   128
 71
    41
 72
    32
 73
    31
  0
VERTEX
  5
141
  8
0
 62
     9
 10
0.0
 20
0.0
 30
0.0
 70
   128
 71
    41
 72
    42
 73
    33
  0
VERTEX
  5
142
  8
0
 62
     9
 10
0.0
 20
0.0
 30
0.0
 70
   128
 71
    44
 72
    43
 73
    34
  0
VERTEX
  5
143
  8
0
 62
     9
 10
0.0
 20
0.0
 30
0.0
 70
   128
 71
    43
 72
    45
 73
    37
  0
VERTEX
  5
144
  8
0
 62
     9
 10
0.0
 20
0.0
 30
0.0
 70
   128
 71
    45
 72
    46
 73
    38
  0
VERTEX
  5
145
  8
0
 62
     9
 10
0.0
 20
0.0
 30
0.0
 70
   128
 71
    46
 72
    47
 73
    39
  0
VERTEX
  5
146
  8
0
 62
     9
 10
0.0
 20
0.0
 30
0.0
 70
   128
 71
    48
 72
    40
 73
    39
  0
VERTEX
  5
147
  8
0
 62
     9
 10
0.0
 20
0.0
 30
0.0
 70
   128
 71
    49
 72
    41
 73
    40
  0
VERTEX
  5
148
  8
0
 62
     9
 10
0.0
 20
0.0
 30
0.0
 70
   128
 71
    49
 72
    50
 73
    42
  0
VERTEX
  5
149
  8
0
 62
     9
 10
0.0
 20
0.0
 30
0.0
 70
   128
 71
    42
 72
    41
 73
    49
  0
VERTEX
  5
14A
  8
0
 62
     9
 10
0.0
 20
0.0
 30
0.0
 70
   128
 71
    40
 72
    48
 73
    49
  0
VERTEX
  5
14B
  8
0
 62
     9
 10
0.0
 20
0.0
 30
0.0
 70
   128
 71
    39
 72
    47
 73
    48
  0
VERTEX
  5
14C
  8
0
 62
     9
 10
0.0
 20
0.0
 30
0.0
 70
   128
 71
    39
 72
    38
 73
    46
  0
VERTEX
  5
14D
  8
0
 62
     9
 10
0.0
 20
0.0
 30
0.0
 70
   128
 71
    38
 72
    37
 73
    45
  0
VERTEX
  5
14E
  8
0
 62
     9
 10
0.0
 20
0.0
 30
0.0
 70
   128
 71
    37
 72
    34
 73
    43
  0
VERTEX
  5
14F
  8
0
 62
     9
 10
0.0
 20
0.0
 30
0.0
 70
   128
 71
    34
 72
    36
 73
    44
  0
VERTEX
  5
150
  8
0
 62
     9
 10
0.0
 20
0.0
 30
0.0
 70
   128
 71
    33
 72
    32
 73
    41
  0
VERTEX
  5
151
  8
0
 62
     9
 10
0.0
 20
0.0
 30
0.0
 70
   128
 71
    31
 72
    40
 73
    41
  0
VERTEX
  5
152
  8
0
 62
     9
 10
0.0
 20
0.0
 30
0.0
 70
   128
 71
    30
 72
    39
 73
    40
  0
VERTEX
  5
153
  8
0
 62
     9
 10
0.0
 20
0.0
 30
0.0
 70
   128
 71
    29
 72
    38
 73
    39
  0
VERTEX
  5
154
  8
0
 62
     9
 10
0.0
 20
0.0
 30
0.0
 70
   128
 71
    28
 72
    37
 73
    38
  0
VERTEX
  5
155
  8
0
 62
     9
 10
0.0
 20
0.0
 30
0.0
 70
   128
 71
    26
 72
    34
 73
    37
  0
VERTEX
  5
156
  8
0
 62
     9
 10
0.0
 20
0.0
 30
0.0
 70
   128
 71
    26
 72
    27
 73
    35
  0
VERTEX
  5
157
  8
0
 62
     9
 10
0.0
 20
0.0
 30
0.0
 70
   128
 71
    23
 72
    32
 73
    33
  0
VERTEX
  5
158
  8
0
 62
     9
 10
0.0
 20
0.0
 30
0.0
 70
   128
 71
    22
 72
    31
 73
    32
  0
VERTEX
  5
159
  8
0
 62
     9
 10
0.0
 20
0.0
 30
0.0
 70
   128
 71
    21
 72
    30
 73
    31
  0
VERTEX
  5
15A
  8
0
 62
     9
 10
0.0
 20
0.0
 30
0.0
 70
   128
 71
    20
 72
    29
 73
    30
  0
VERTEX
  5
15B
  8
0
 62
     9
 10
0.0
 20
0.0
 30
0.0
 70
   128
 71
    19
 72
    28
 73
    29
  0
VERTEX
  5
15C
  8
0
 62
     9
 10
0.0
 20
0.0
 30
0.0
 70
   128
 71
    17
 72
    26
 73
    28
  0
VERTEX
  5
15D
  8
0
 62
     9
 10
0.0
 20
0.0
 30
0.0
 70
   128
 71
    17
 72
    18
 73
    25
  0
VERTEX
  5
15E
  8
0
 62
     9
 10
0.0
 20
0.0
 30
0.0
 70
   128
 71
    13
 72
    23
 73
    24
  0
VERTEX
  5
15F
  8
0
 62
     9
 10
0.0
 20
0.0
 30
0.0
 70
   128
 71
    11
 72
    22
 73
    23
  0
VERTEX
  5
160
  8
0
 62
     9
 10
0.0
 20
0.0
 30
0.0
 70
   128
 71
     9
 72
    21
 73
    22
  0
VERTEX
  5
161
  8
0
 62
     9
 10
0.0
 20
0.0
 30
0.0
 70
   128
 71
     7
 72
    20
 73
    21
  0
VERTEX
  5
162
  8
0
 62
     9
 10
0.0
 20
0.0
 30
0.0
 70
   128
 71
     5
 72
    19
 73
    20
  0
VERTEX
  5
163
  8
0
 62
     9
 10
0.0
 20
0.0
 30
0.0
 70
   128
 71
     2
 72
    17
 73
    19
  0
VERTEX
  5
164
  8
0
 62
     9
 10
0.0
 20
0.0
 30
0.0
 70
   128
 71
     2
 72
     3
 73
    16
  0
VERTEX
  5
165
  8
0
 62
     9
 10
0.0
 20
0.0
 30
0.0
 70
   128
 71
    12
 72
    13
 73
    15
  0
VERTEX
  5
166
  8
0
 62
     9
 10
0.0
 20
0.0
 30
0.0
 70
   128
 71
    10
 72
    11
 73
    13
  0
VERTEX
  5
167
  8
0
 62
     9
 10
0.0
 20
0.0
 30
0.0
 70
   128
 71
     8
 72
     9
 73
    11
  0
VERTEX
  5
168
  8
0
 62
     9
 10
0.0
 20
0.0
 30
0.0
 70
   128
 71
     6
 72
     7
 73
     9
  0
VERTEX
  5
169
  8
0
 62
     9
 10
0.0
 20
0.0
 30
0.0
 70
   128
 71
     6
 72
     4
 73
     5
  0
VERTEX
  5
16A
  8
0
 62
     9
 10
0.0
 20
0.0
 30
0.0
 70
   128
 71
     4
 72
     1
 73
     2
  0
VERTEX
  5
16B
  8
0
 62
     9
 10
0.0
 20
0.0
 30
0.0
 70
   128
 71
     1
 72
    51
 73
     3
  0
SEQEND
  5
16C
  8
0
 62
     9
  0
ENDBLK
  5
16F
  8
0
  0
BLOCK
  8
0
  2
E3_NODE_6_
 70
     0
 10
0.0
 20
0.0
 30
0.0
  3
E3_NODE_6_
  1

  0
POLYLINE
  5
171
  8
0
 62
     9
 66
     1
 10
0.0
 20
0.0
 30
0.0
 70
    64
 71
    51
 72
    73
  0
VERTEX
  5
172
  8
0
 10
21.42300033569336
 20
-8.229000091552734
 30
293.3630065917969
 70
   192
  0
VERTEX
  5
173
  8
0
 10
19.09900093078613
 20
-8.229000091552734
 30
272.7409973144531
 70
   192
  0
VERTEX
  5
174
  8
0
 10
21.77300071716309
 20
0.0
 30
272.7409973144531
 70
   192
  0
VERTEX
  5
175
  8
0
 10
28.27700042724609
 20
-8.229000091552734
 30
312.9509887695312
 70
   192
  0
VERTEX
  5
176
  8
0
 10
24.03000068664551
 20
0.0
 30
292.7680053710938
 70
   192
  0
VERTEX
  5
177
  8
0
 10
39.31800079345703
 20
-8.229000091552734
 30
330.5230102539062
 70
   192
  0
VERTEX
  5
178
  8
0
 10
30.68600082397461
 20
0.0
 30
311.7909851074219
 70
   192
  0
VERTEX
  5
179
  8
0
 10
53.99200057983398
 20
-8.229000091552734
 30
345.1969909667969
 70
   192
  0
VERTEX
  5
17A
  8
0
 10
41.40800094604492
 20
0.0
 30
328.8559875488281
 70
   192
  0
VERTEX
  5
17B
  8
0
 10
71.56400299072266
 20
-8.229000091552734
 30
356.2380065917969
 70
   192
  0
VERTEX
  5
17C
  8
0
 10
55.65900039672852
 20
0.0
 30
343.1059875488281
 70
   192
  0
VERTEX
  5
17D
  8
0
 10
91.1510009765625
 20
-8.229000091552734
 30
363.0920104980469
 70
   192
  0
VERTEX
  5
17E
  8
0
 10
72.7239990234375
 20
0.0
 30
353.8290100097656
 70
   192
  0
VERTEX
  5
17F
  8
0
 10
111.7730026245117
 20
-8.229000091552734
 30
365.4150085449219
 70
   192
  0
VERTEX
  5
180
  8
0
 10
91.74600219726562
 20
0.0
 30
360.4849853515625
 70
   192
  0
VERTEX
  5
181
  8
0
 10
14.59799957275391
 20
-13.3149995803833
 30
294.9209899902344
 70
   192
  0
VERTEX
  5
182
  8
0
 10
12.09899997711182
 20
-13.3149995803833
 30
272.7409973144531
 70
   192
  0
VERTEX
  5
183
  8
0
 10
17.37100028991699
 20
-9.484999656677246
 30
272.7409973144531
 70
   192
  0
VERTEX
  5
184
  8
0
 10
21.96999931335449
 20
-13.3149995803833
 30
315.9880065917969
 70
   192
  0
VERTEX
  5
185
  8
0
 10
33.84500122070312
 20
-13.3149995803833
 30
334.8869934082031
 70
   192
  0
VERTEX
  5
186
  8
0
 10
49.62799835205078
 20
-13.3149995803833
 30
350.6700134277344
 70
   192
  0
VERTEX
  5
187
  8
0
 10
68.5260009765625
 20
-13.3149995803833
 30
362.5440063476562
 70
   192
  0
VERTEX
  5
188
  8
0
 10
89.59400177001953
 20
-13.3149995803833
 30
369.9159851074219
 70
   192
  0
VERTEX
  5
189
  8
0
 10
111.7730026245117
 20
-13.3149995803833
 30
372.4150085449219
 70
   192
  0
VERTEX
  5
18A
  8
0
 10
7.77299976348877
 20
-13.3149995803833
 30
272.7409973144531
 70
   192
  0
VERTEX
  5
18B
  8
0
 10
6.163000106811523
 20
-13.3149995803833
 30
296.8460083007812
 70
   192
  0
VERTEX
  5
18C
  8
0
 10
3.447000026702881
 20
-13.3149995803833
 30
272.7409973144531
 70
   192
  0
VERTEX
  5
18D
  8
0
 10
14.17500019073486
 20
-13.3149995803833
 30
319.7420043945312
 70
   192
  0
VERTEX
  5
18E
  8
0
 10
27.07999992370605
 20
-13.3149995803833
 30
340.2820129394531
 70
   192
  0
VERTEX
  5
18F
  8
0
 10
44.23300170898438
 20
-13.3149995803833
 30
357.4339904785156
 70
   192
  0
VERTEX
  5
190
  8
0
 10
64.77200317382812
 20
-13.3149995803833
 30
370.3399963378906
 70
   192
  0
VERTEX
  5
191
  8
0
 10
87.66799926757812
 20
-13.3149995803833
 30
378.3519897460938
 70
   192
  0
VERTEX
  5
192
  8
0
 10
-1.825000047683716
 20
-9.484999656677246
 30
272.7409973144531
 70
   192
  0
VERTEX
  5
193
  8
0
 10
-0.6620000004768372
 20
-8.229000091552734
 30
298.4039916992188
 70
   192
  0
VERTEX
  5
194
  8
0
 10
-3.552999973297119
 20
-8.229000091552734
 30
272.7409973144531
 70
   192
  0
VERTEX
  5
195
  8
0
 10
7.868000030517578
 20
-8.229000091552734
 30
322.7799987792969
 70
   192
  0
VERTEX
  5
196
  8
0
 10
21.60799980163574
 20
-8.229000091552734
 30
344.64599609375
 70
   192
  0
VERTEX
  5
197
  8
0
 10
39.86800003051758
 20
-8.229000091552734
 30
362.9070129394531
 70
   192
  0
VERTEX
  5
198
  8
0
 10
61.73500061035156
 20
-8.229000091552734
 30
376.6470031738281
 70
   192
  0
VERTEX
  5
199
  8
0
 10
86.11100006103516
 20
-8.229000091552734
 30
385.1759948730469
 70
   192
  0
VERTEX
  5
19A
  8
0
 10
111.7730026245117
 20
-13.3149995803833
 30
381.0679931640625
 70
   192
  0
VERTEX
  5
19B
  8
0
 10
-3.267999887466431
 20
0.0
 30
298.9989929199219
 70
   192
  0
VERTEX
  5
19C
  8
0
 10
-6.22700023651123
 20
0.0
 30
272.7409973144531
 70
   192
  0
VERTEX
  5
19D
  8
0
 10
5.459000110626221
 20
0.0
 30
323.9400024414062
 70
   192
  0
VERTEX
  5
19E
  8
0
 10
19.51700019836426
 20
0.0
 30
346.31298828125
 70
   192
  0
VERTEX
  5
19F
  8
0
 10
38.20100021362305
 20
0.0
 30
364.9979858398438
 70
   192
  0
VERTEX
  5
1A0
  8
0
 10
60.57500076293945
 20
0.0
 30
379.0559997558594
 70
   192
  0
VERTEX
  5
1A1
  8
0
 10
85.51599884033203
 20
0.0
 30
387.7829895019531
 70
   192
  0
VERTEX
  5
1A2
  8
0
 10
111.7730026245117
 20
-8.229000091552734
 30
388.0679931640625
 70
   192
  0
VERTEX
  5
1A3
  8
0
 10
111.7730026245117
 20
0.0
 30
390.7409973144531
 70
   192
  0
VERTEX
  5
1A4
  8
0
 10
111.7730026245117
 20
0.0
 30
362.7409973144531
 70
   192
  0
VERTEX
  5
1A5
  8
0
 62
     9
 10
0.0
 20
0.0
 30
0.0
 70
   128
 71
     3
 72
     2
 73
     1
  0
VERTEX
  5
1A6
  8
0
 62
     9
 10
0.0
 20
0.0
 30
0.0
 70
   128
 71
     5
 72
     1
 73
     4
  0
VERTEX
  5
1A7
  8
0
 62
     9
 10
0.0
 20
0.0
 30
0.0
 70
   128
 71
     7
 72
     4
 73
     6
  0
VERTEX
  5
1A8
  8
0
 62
     9
 10
0.0
 20
0.0
 30
0.0
 70
   128
 71
     9
 72
     6
 73
     8
  0
VERTEX
  5
1A9
  8
0
 62
     9
 10
0.0
 20
0.0
 30
0.0
 70
   128
 71
    11
 72
     8
 73
    10
  0
VERTEX
  5
1AA
  8
0
 62
     9
 10
0.0
 20
0.0
 30
0.0
 70
   128
 71
    13
 72
    10
 73
    12
  0
VERTEX
  5
1AB
  8
0
 62
     9
 10
0.0
 20
0.0
 30
0.0
 70
   128
 71
    15
 72
    12
 73
    14
  0
VERTEX
  5
1AC
  8
0
 62
     9
 10
0.0
 20
0.0
 30
0.0
 70
   128
 71
    18
 72
    17
 73
    16
  0
VERTEX
  5
1AD
  8
0
 62
     9
 10
0.0
 20
0.0
 30
0.0
 70
   128
 71
    16
 72
     1
 73
    18
  0
VERTEX
  5
1AE
  8
0
 62
     9
 10
0.0
 20
0.0
 30
0.0
 70
   128
 71
    19
 72
     4
 73
     1
  0
VERTEX
  5
1AF
  8
0
 62
     9
 10
0.0
 20
0.0
 30
0.0
 70
   128
 71
    20
 72
     6
 73
     4
  0
VERTEX
  5
1B0
  8
0
 62
     9
 10
0.0
 20
0.0
 30
0.0
 70
   128
 71
    21
 72
     8
 73
     6
  0
VERTEX
  5
1B1
  8
0
 62
     9
 10
0.0
 20
0.0
 30
0.0
 70
   128
 71
    22
 72
    10
 73
     8
  0
VERTEX
  5
1B2
  8
0
 62
     9
 10
0.0
 20
0.0
 30
0.0
 70
   128
 71
    23
 72
    12
 73
    10
  0
VERTEX
  5
1B3
  8
0
 62
     9
 10
0.0
 20
0.0
 30
0.0
 70
   128
 71
    12
 72
    23
 73
    24
  0
VERTEX
  5
1B4
  8
0
 62
     9
 10
0.0
 20
0.0
 30
0.0
 70
   128
 71
    16
 72
    17
 73
    25
  0
VERTEX
  5
1B5
  8
0
 62
     9
 10
0.0
 20
0.0
 30
0.0
 70
   128
 71
    25
 72
    27
 73
    26
  0
VERTEX
  5
1B6
  8
0
 62
     9
 10
0.0
 20
0.0
 30
0.0
 70
   128
 71
    28
 72
    19
 73
    16
  0
VERTEX
  5
1B7
  8
0
 62
     9
 10
0.0
 20
0.0
 30
0.0
 70
   128
 71
    29
 72
    20
 73
    19
  0
VERTEX
  5
1B8
  8
0
 62
     9
 10
0.0
 20
0.0
 30
0.0
 70
   128
 71
    30
 72
    21
 73
    20
  0
VERTEX
  5
1B9
  8
0
 62
     9
 10
0.0
 20
0.0
 30
0.0
 70
   128
 71
    31
 72
    22
 73
    21
  0
VERTEX
  5
1BA
  8
0
 62
     9
 10
0.0
 20
0.0
 30
0.0
 70
   128
 71
    32
 72
    23
 73
    22
  0
VERTEX
  5
1BB
  8
0
 62
     9
 10
0.0
 20
0.0
 30
0.0
 70
   128
 71
    24
 72
    23
 73
    32
  0
VERTEX
  5
1BC
  8
0
 62
     9
 10
0.0
 20
0.0
 30
0.0
 70
   128
 71
    26
 72
    27
 73
    33
  0
VERTEX
  5
1BD
  8
0
 62
     9
 10
0.0
 20
0.0
 30
0.0
 70
   128
 71
    33
 72
    35
 73
    34
  0
VERTEX
  5
1BE
  8
0
 62
     9
 10
0.0
 20
0.0
 30
0.0
 70
   128
 71
    36
 72
    28
 73
    26
  0
VERTEX
  5
1BF
  8
0
 62
     9
 10
0.0
 20
0.0
 30
0.0
 70
   128
 71
    37
 72
    29
 73
    28
  0
VERTEX
  5
1C0
  8
0
 62
     9
 10
0.0
 20
0.0
 30
0.0
 70
   128
 71
    38
 72
    30
 73
    29
  0
VERTEX
  5
1C1
  8
0
 62
     9
 10
0.0
 20
0.0
 30
0.0
 70
   128
 71
    39
 72
    31
 73
    30
  0
VERTEX
  5
1C2
  8
0
 62
     9
 10
0.0
 20
0.0
 30
0.0
 70
   128
 71
    40
 72
    32
 73
    31
  0
VERTEX
  5
1C3
  8
0
 62
     9
 10
0.0
 20
0.0
 30
0.0
 70
   128
 71
    41
 72
    32
 73
    40
  0
VERTEX
  5
1C4
  8
0
 62
     9
 10
0.0
 20
0.0
 30
0.0
 70
   128
 71
    35
 72
    43
 73
    42
  0
VERTEX
  5
1C5
  8
0
 62
     9
 10
0.0
 20
0.0
 30
0.0
 70
   128
 71
    34
 72
    42
 73
    44
  0
VERTEX
  5
1C6
  8
0
 62
     9
 10
0.0
 20
0.0
 30
0.0
 70
   128
 71
    36
 72
    44
 73
    45
  0
VERTEX
  5
1C7
  8
0
 62
     9
 10
0.0
 20
0.0
 30
0.0
 70
   128
 71
    38
 72
    37
 73
    45
  0
VERTEX
  5
1C8
  8
0
 62
     9
 10
0.0
 20
0.0
 30
0.0
 70
   128
 71
    39
 72
    38
 73
    46
  0
VERTEX
  5
1C9
  8
0
 62
     9
 10
0.0
 20
0.0
 30
0.0
 70
   128
 71
    40
 72
    39
 73
    47
  0
VERTEX
  5
1CA
  8
0
 62
     9
 10
0.0
 20
0.0
 30
0.0
 70
   128
 71
    49
 72
    40
 73
    48
  0
VERTEX
  5
1CB
  8
0
 62
     9
 10
0.0
 20
0.0
 30
0.0
 70
   128
 71
    48
 72
    50
 73
    49
  0
VERTEX
  5
1CC
  8
0
 62
     9
 10
0.0
 20
0.0
 30
0.0
 70
   128
 71
    47
 72
    48
 73
    40
  0
VERTEX
  5
1CD
  8
0
 62
     9
 10
0.0
 20
0.0
 30
0.0
 70
   128
 71
    46
 72
    47
 73
    39
  0
VERTEX
  5
1CE
  8
0
 62
     9
 10
0.0
 20
0.0
 30
0.0
 70
   128
 71
    45
 72
    46
 73
    38
  0
VERTEX
  5
1CF
  8
0
 62
     9
 10
0.0
 20
0.0
 30
0.0
 70
   128
 71
    45
 72
    37
 73
    36
  0
VERTEX
  5
1D0
  8
0
 62
     9
 10
0.0
 20
0.0
 30
0.0
 70
   128
 71
    44
 72
    36
 73
    34
  0
VERTEX
  5
1D1
  8
0
 62
     9
 10
0.0
 20
0.0
 30
0.0
 70
   128
 71
    42
 72
    34
 73
    35
  0
VERTEX
  5
1D2
  8
0
 62
     9
 10
0.0
 20
0.0
 30
0.0
 70
   128
 71
    40
 72
    49
 73
    41
  0
VERTEX
  5
1D3
  8
0
 62
     9
 10
0.0
 20
0.0
 30
0.0
 70
   128
 71
    31
 72
    39
 73
    40
  0
VERTEX
  5
1D4
  8
0
 62
     9
 10
0.0
 20
0.0
 30
0.0
 70
   128
 71
    30
 72
    38
 73
    39
  0
VERTEX
  5
1D5
  8
0
 62
     9
 10
0.0
 20
0.0
 30
0.0
 70
   128
 71
    29
 72
    37
 73
    38
  0
VERTEX
  5
1D6
  8
0
 62
     9
 10
0.0
 20
0.0
 30
0.0
 70
   128
 71
    28
 72
    36
 73
    37
  0
VERTEX
  5
1D7
  8
0
 62
     9
 10
0.0
 20
0.0
 30
0.0
 70
   128
 71
    26
 72
    34
 73
    36
  0
VERTEX
  5
1D8
  8
0
 62
     9
 10
0.0
 20
0.0
 30
0.0
 70
   128
 71
    33
 72
    34
 73
    26
  0
VERTEX
  5
1D9
  8
0
 62
     9
 10
0.0
 20
0.0
 30
0.0
 70
   128
 71
    32
 72
    41
 73
    24
  0
VERTEX
  5
1DA
  8
0
 62
     9
 10
0.0
 20
0.0
 30
0.0
 70
   128
 71
    22
 72
    31
 73
    32
  0
VERTEX
  5
1DB
  8
0
 62
     9
 10
0.0
 20
0.0
 30
0.0
 70
   128
 71
    21
 72
    30
 73
    31
  0
VERTEX
  5
1DC
  8
0
 62
     9
 10
0.0
 20
0.0
 30
0.0
 70
   128
 71
    20
 72
    29
 73
    30
  0
VERTEX
  5
1DD
  8
0
 62
     9
 10
0.0
 20
0.0
 30
0.0
 70
   128
 71
    19
 72
    28
 73
    29
  0
VERTEX
  5
1DE
  8
0
 62
     9
 10
0.0
 20
0.0
 30
0.0
 70
   128
 71
    16
 72
    26
 73
    28
  0
VERTEX
  5
1DF
  8
0
 62
     9
 10
0.0
 20
0.0
 30
0.0
 70
   128
 71
    25
 72
    26
 73
    16
  0
VERTEX
  5
1E0
  8
0
 62
     9
 10
0.0
 20
0.0
 30
0.0
 70
   128
 71
    24
 72
    14
 73
    12
  0
VERTEX
  5
1E1
  8
0
 62
     9
 10
0.0
 20
0.0
 30
0.0
 70
   128
 71
    10
 72
    22
 73
    23
  0
VERTEX
  5
1E2
  8
0
 62
     9
 10
0.0
 20
0.0
 30
0.0
 70
   128
 71
     8
 72
    21
 73
    22
  0
VERTEX
  5
1E3
  8
0
 62
     9
 10
0.0
 20
0.0
 30
0.0
 70
   128
 71
     6
 72
    20
 73
    21
  0
VERTEX
  5
1E4
  8
0
 62
     9
 10
0.0
 20
0.0
 30
0.0
 70
   128
 71
     4
 72
    19
 73
    20
  0
VERTEX
  5
1E5
  8
0
 62
     9
 10
0.0
 20
0.0
 30
0.0
 70
   128
 71
     1
 72
    16
 73
    19
  0
VERTEX
  5
1E6
  8
0
 62
     9
 10
0.0
 20
0.0
 30
0.0
 70
   128
 71
     1
 72
     2
 73
    18
  0
VERTEX
  5
1E7
  8
0
 62
     9
 10
0.0
 20
0.0
 30
0.0
 70
   128
 71
    14
 72
    51
 73
    15
  0
VERTEX
  5
1E8
  8
0
 62
     9
 10
0.0
 20
0.0
 30
0.0
 70
   128
 71
    12
 72
    15
 73
    13
  0
VERTEX
  5
1E9
  8
0
 62
     9
 10
0.0
 20
0.0
 30
0.0
 70
   128
 71
    10
 72
    13
 73
    11
  0
VERTEX
  5
1EA
  8
0
 62
     9
 10
0.0
 20
0.0
 30
0.0
 70
   128
 71
     8
 72
    11
 73
     9
  0
VERTEX
  5
1EB
  8
0
 62
     9
 10
0.0
 20
0.0
 30
0.0
 70
   128
 71
     6
 72
     9
 73
     7
  0
VERTEX
  5
1EC
  8
0
 62
     9
 10
0.0
 20
0.0
 30
0.0
 70
   128
 71
     4
 72
     7
 73
     5
  0
VERTEX
  5
1ED
  8
0
 62
     9
 10
0.0
 20
0.0
 30
0.0
 70
   128
 71
     1
 72
     5
 73
     3
  0
SEQEND
  5
1EE
  8
0
 62
     9
  0
ENDBLK
  5
1F1
  8
0
  0
BLOCK
  8
0
  2
E3_NODE_7_
 70
     0
 10
0.0
 20
0.0
 30
0.0
  3
E3_NODE_7_
  1

  0
POLYLINE
  5
1F3
  8
0
 62
     9
 66
     1
 10
0.0
 20
0.0
 30
0.0
 70
    64
 71
    45
 72
    63
  0
VERTEX
  5
1F4
  8
0
 10
111.7730026245117
 20
0.0
 30
390.7409973144531
 70
   192
  0
VERTEX
  5
1F5
  8
0
 10
138.9859924316406
 20
0.0
 30
387.5610046386719
 70
   192
  0
VERTEX
  5
1F6
  8
0
 10
138.3690032958984
 20
8.229000091552734
 30
384.9590148925781
 70
   192
  0
VERTEX
  5
1F7
  8
0
 10
164.7310028076172
 20
0.0
 30
378.1900024414062
 70
   192
  0
VERTEX
  5
1F8
  8
0
 10
163.5319976806641
 20
8.229000091552734
 30
375.8009948730469
 70
   192
  0
VERTEX
  5
1F9
  8
0
 10
187.6219940185547
 20
0.0
 30
363.135009765625
 70
   192
  0
VERTEX
  5
1FA
  8
0
 10
185.9029998779297
 20
8.229000091552734
 30
361.0859985351562
 70
   192
  0
VERTEX
  5
1FB
  8
0
 10
206.4239959716797
 20
0.0
 30
343.2059936523438
 70
   192
  0
VERTEX
  5
1FC
  8
0
 10
204.2790069580078
 20
8.229000091552734
 30
341.6099853515625
 70
   192
  0
VERTEX
  5
1FD
  8
0
 10
220.1230010986328
 20
0.0
 30
319.47900390625
 70
   192
  0
VERTEX
  5
1FE
  8
0
 10
217.6679992675781
 20
8.229000091552734
 30
318.4200134277344
 70
   192
  0
VERTEX
  5
1FF
  8
0
 10
227.9810028076172
 20
0.0
 30
293.2319946289062
 70
   192
  0
VERTEX
  5
200
  8
0
 10
225.3470001220703
 20
8.229000091552734
 30
292.7680053710938
 70
   192
  0
VERTEX
  5
201
  8
0
 10
136.7550048828125
 20
13.3149995803833
 30
378.1480102539062
 70
   192
  0
VERTEX
  5
202
  8
0
 10
111.7730026245117
 20
13.3149995803833
 30
381.0679931640625
 70
   192
  0
VERTEX
  5
203
  8
0
 10
160.3899993896484
 20
13.3149995803833
 30
369.5450134277344
 70
   192
  0
VERTEX
  5
204
  8
0
 10
181.4040069580078
 20
13.3149995803833
 30
355.7239990234375
 70
   192
  0
VERTEX
  5
205
  8
0
 10
198.6640014648438
 20
13.3149995803833
 30
337.4289855957031
 70
   192
  0
VERTEX
  5
206
  8
0
 10
211.2400054931641
 20
13.3149995803833
 30
315.6470031738281
 70
   192
  0
VERTEX
  5
207
  8
0
 10
223.6450042724609
 20
9.484999656677246
 30
292.4679870605469
 70
   192
  0
VERTEX
  5
208
  8
0
 10
218.4539947509766
 20
13.3149995803833
 30
291.552001953125
 70
   192
  0
VERTEX
  5
209
  8
0
 10
134.7599945068359
 20
13.3149995803833
 30
369.72900390625
 70
   192
  0
VERTEX
  5
20A
  8
0
 10
156.5070037841797
 20
13.3149995803833
 30
361.81298828125
 70
   192
  0
VERTEX
  5
20B
  8
0
 10
175.8419952392578
 20
13.3149995803833
 30
349.0960083007812
 70
   192
  0
VERTEX
  5
20C
  8
0
 10
191.7239990234375
 20
13.3149995803833
 30
332.2630004882812
 70
   192
  0
VERTEX
  5
20D
  8
0
 10
203.2949981689453
 20
13.3149995803833
 30
312.2200012207031
 70
   192
  0
VERTEX
  5
20E
  8
0
 10
214.1929931640625
 20
13.3149995803833
 30
290.8009948730469
 70
   192
  0
VERTEX
  5
20F
  8
0
 10
209.9329986572266
 20
13.3149995803833
 30
290.0499877929688
 70
   192
  0
VERTEX
  5
210
  8
0
 10
111.7730026245117
 20
13.3149995803833
 30
372.4150085449219
 70
   192
  0
VERTEX
  5
211
  8
0
 10
133.1450042724609
 20
8.229000091552734
 30
362.9169921875
 70
   192
  0
VERTEX
  5
212
  8
0
 10
153.3650054931641
 20
8.229000091552734
 30
355.5580139160156
 70
   192
  0
VERTEX
  5
213
  8
0
 10
171.3430023193359
 20
8.229000091552734
 30
343.7340087890625
 70
   192
  0
VERTEX
  5
214
  8
0
 10
186.1089935302734
 20
8.229000091552734
 30
328.0820007324219
 70
   192
  0
VERTEX
  5
215
  8
0
 10
196.8679962158203
 20
8.229000091552734
 30
309.447998046875
 70
   192
  0
VERTEX
  5
216
  8
0
 10
204.7409973144531
 20
9.484999656677246
 30
289.1340026855469
 70
   192
  0
VERTEX
  5
217
  8
0
 10
132.5290069580078
 20
0.0
 30
360.3160095214844
 70
   192
  0
VERTEX
  5
218
  8
0
 10
111.7730026245117
 20
0.0
 30
362.7409973144531
 70
   192
  0
VERTEX
  5
219
  8
0
 10
152.1649932861328
 20
0.0
 30
353.1679992675781
 70
   192
  0
VERTEX
  5
21A
  8
0
 10
169.6239929199219
 20
0.0
 30
341.6849975585938
 70
   192
  0
VERTEX
  5
21B
  8
0
 10
183.9640045166016
 20
0.0
 30
326.4859924316406
 70
   192
  0
VERTEX
  5
21C
  8
0
 10
194.4129943847656
 20
0.0
 30
308.3890075683594
 70
   192
  0
VERTEX
  5
21D
  8
0
 10
203.0390014648438
 20
8.229000091552734
 30
288.8340148925781
 70
   192
  0
VERTEX
  5
21E
  8
0
 10
200.406005859375
 20
0.0
 30
288.3699951171875
 70
   192
  0
VERTEX
  5
21F
  8
0
 10
111.7730026245117
 20
8.229000091552734
 30
365.4150085449219
 70
   192
  0
VERTEX
  5
220
  8
0
 10
111.7730026245117
 20
8.229000091552734
 30
388.0679931640625
 70
   192
  0
VERTEX
  5
221
  8
0
 62
     9
 10
0.0
 20
0.0
 30
0.0
 70
   128
 71
     3
 72
     2
 73
     1
  0
VERTEX
  5
222
  8
0
 62
     9
 10
0.0
 20
0.0
 30
0.0
 70
   128
 71
     5
 72
     4
 73
     2
  0
VERTEX
  5
223
  8
0
 62
     9
 10
0.0
 20
0.0
 30
0.0
 70
   128
 71
     5
 72
     7
 73
     6
  0
VERTEX
  5
224
  8
0
 62
     9
 10
0.0
 20
0.0
 30
0.0
 70
   128
 71
     7
 72
     9
 73
     8
  0
VERTEX
  5
225
  8
0
 62
     9
 10
0.0
 20
0.0
 30
0.0
 70
   128
 71
     9
 72
    11
 73
    10
  0
VERTEX
  5
226
  8
0
 62
     9
 10
0.0
 20
0.0
 30
0.0
 70
   128
 71
    13
 72
    12
 73
    10
  0
VERTEX
  5
227
  8
0
 62
     9
 10
0.0
 20
0.0
 30
0.0
 70
   128
 71
    15
 72
    14
 73
     3
  0
VERTEX
  5
228
  8
0
 62
     9
 10
0.0
 20
0.0
 30
0.0
 70
   128
 71
    16
 72
     5
 73
     3
  0
VERTEX
  5
229
  8
0
 62
     9
 10
0.0
 20
0.0
 30
0.0
 70
   128
 71
    17
 72
     7
 73
     5
  0
VERTEX
  5
22A
  8
0
 62
     9
 10
0.0
 20
0.0
 30
0.0
 70
   128
 71
    18
 72
     9
 73
     7
  0
VERTEX
  5
22B
  8
0
 62
     9
 10
0.0
 20
0.0
 30
0.0
 70
   128
 71
    19
 72
    11
 73
     9
  0
VERTEX
  5
22C
  8
0
 62
     9
 10
0.0
 20
0.0
 30
0.0
 70
   128
 71
    19
 72
    21
 73
    20
  0
VERTEX
  5
22D
  8
0
 62
     9
 10
0.0
 20
0.0
 30
0.0
 70
   128
 71
    20
 72
    13
 73
    11
  0
VERTEX
  5
22E
  8
0
 62
     9
 10
0.0
 20
0.0
 30
0.0
 70
   128
 71
    22
 72
    14
 73
    15
  0
VERTEX
  5
22F
  8
0
 62
     9
 10
0.0
 20
0.0
 30
0.0
 70
   128
 71
    23
 72
    16
 73
    14
  0
VERTEX
  5
230
  8
0
 62
     9
 10
0.0
 20
0.0
 30
0.0
 70
   128
 71
    24
 72
    17
 73
    16
  0
VERTEX
  5
231
  8
0
 62
     9
 10
0.0
 20
0.0
 30
0.0
 70
   128
 71
    25
 72
    18
 73
    17
  0
VERTEX
  5
232
  8
0
 62
     9
 10
0.0
 20
0.0
 30
0.0
 70
   128
 71
    26
 72
    19
 73
    18
  0
VERTEX
  5
233
  8
0
 62
     9
 10
0.0
 20
0.0
 30
0.0
 70
   128
 71
    26
 72
    28
 73
    27
  0
VERTEX
  5
234
  8
0
 62
     9
 10
0.0
 20
0.0
 30
0.0
 70
   128
 71
    27
 72
    21
 73
    19
  0
VERTEX
  5
235
  8
0
 62
     9
 10
0.0
 20
0.0
 30
0.0
 70
   128
 71
    30
 72
    22
 73
    29
  0
VERTEX
  5
236
  8
0
 62
     9
 10
0.0
 20
0.0
 30
0.0
 70
   128
 71
    31
 72
    23
 73
    22
  0
VERTEX
  5
237
  8
0
 62
     9
 10
0.0
 20
0.0
 30
0.0
 70
   128
 71
    32
 72
    24
 73
    23
  0
VERTEX
  5
238
  8
0
 62
     9
 10
0.0
 20
0.0
 30
0.0
 70
   128
 71
    33
 72
    25
 73
    24
  0
VERTEX
  5
239
  8
0
 62
     9
 10
0.0
 20
0.0
 30
0.0
 70
   128
 71
    34
 72
    26
 73
    25
  0
VERTEX
  5
23A
  8
0
 62
     9
 10
0.0
 20
0.0
 30
0.0
 70
   128
 71
    35
 72
    26
 73
    34
  0
VERTEX
  5
23B
  8
0
 62
     9
 10
0.0
 20
0.0
 30
0.0
 70
   128
 71
    35
 72
    28
 73
    26
  0
VERTEX
  5
23C
  8
0
 62
     9
 10
0.0
 20
0.0
 30
0.0
 70
   128
 71
    37
 72
    36
 73
    30
  0
VERTEX
  5
23D
  8
0
 62
     9
 10
0.0
 20
0.0
 30
0.0
 70
   128
 71
    38
 72
    31
 73
    30
  0
VERTEX
  5
23E
  8
0
 62
     9
 10
0.0
 20
0.0
 30
0.0
 70
   128
 71
    39
 72
    32
 73
    31
  0
VERTEX
  5
23F
  8
0
 62
     9
 10
0.0
 20
0.0
 30
0.0
 70
   128
 71
    40
 72
    33
 73
    32
  0
VERTEX
  5
240
  8
0
 62
     9
 10
0.0
 20
0.0
 30
0.0
 70
   128
 71
    41
 72
    34
 73
    33
  0
VERTEX
  5
241
  8
0
 62
     9
 10
0.0
 20
0.0
 30
0.0
 70
   128
 71
    43
 72
    42
 73
    34
  0
VERTEX
  5
242
  8
0
 62
     9
 10
0.0
 20
0.0
 30
0.0
 70
   128
 71
    34
 72
    41
 73
    43
  0
VERTEX
  5
243
  8
0
 62
     9
 10
0.0
 20
0.0
 30
0.0
 70
   128
 71
    33
 72
    40
 73
    41
  0
VERTEX
  5
244
  8
0
 62
     9
 10
0.0
 20
0.0
 30
0.0
 70
   128
 71
    32
 72
    39
 73
    40
  0
VERTEX
  5
245
  8
0
 62
     9
 10
0.0
 20
0.0
 30
0.0
 70
   128
 71
    31
 72
    38
 73
    39
  0
VERTEX
  5
246
  8
0
 62
     9
 10
0.0
 20
0.0
 30
0.0
 70
   128
 71
    30
 72
    36
 73
    38
  0
VERTEX
  5
247
  8
0
 62
     9
 10
0.0
 20
0.0
 30
0.0
 70
   128
 71
    30
 72
    44
 73
    37
  0
VERTEX
  5
248
  8
0
 62
     9
 10
0.0
 20
0.0
 30
0.0
 70
   128
 71
    34
 72
    42
 73
    35
  0
VERTEX
  5
249
  8
0
 62
     9
 10
0.0
 20
0.0
 30
0.0
 70
   128
 71
    25
 72
    33
 73
    34
  0
VERTEX
  5
24A
  8
0
 62
     9
 10
0.0
 20
0.0
 30
0.0
 70
   128
 71
    24
 72
    32
 73
    33
  0
VERTEX
  5
24B
  8
0
 62
     9
 10
0.0
 20
0.0
 30
0.0
 70
   128
 71
    23
 72
    31
 73
    32
  0
VERTEX
  5
24C
  8
0
 62
     9
 10
0.0
 20
0.0
 30
0.0
 70
   128
 71
    22
 72
    30
 73
    31
  0
VERTEX
  5
24D
  8
0
 62
     9
 10
0.0
 20
0.0
 30
0.0
 70
   128
 71
    29
 72
    44
 73
    30
  0
VERTEX
  5
24E
  8
0
 62
     9
 10
0.0
 20
0.0
 30
0.0
 70
   128
 71
    27
 72
    19
 73
    26
  0
VERTEX
  5
24F
  8
0
 62
     9
 10
0.0
 20
0.0
 30
0.0
 70
   128
 71
    18
 72
    25
 73
    26
  0
VERTEX
  5
250
  8
0
 62
     9
 10
0.0
 20
0.0
 30
0.0
 70
   128
 71
    17
 72
    24
 73
    25
  0
VERTEX
  5
251
  8
0
 62
     9
 10
0.0
 20
0.0
 30
0.0
 70
   128
 71
    16
 72
    23
 73
    24
  0
VERTEX
  5
252
  8
0
 62
     9
 10
0.0
 20
0.0
 30
0.0
 70
   128
 71
    14
 72
    22
 73
    23
  0
VERTEX
  5
253
  8
0
 62
     9
 10
0.0
 20
0.0
 30
0.0
 70
   128
 71
    15
 72
    29
 73
    22
  0
VERTEX
  5
254
  8
0
 62
     9
 10
0.0
 20
0.0
 30
0.0
 70
   128
 71
    20
 72
    11
 73
    19
  0
VERTEX
  5
255
  8
0
 62
     9
 10
0.0
 20
0.0
 30
0.0
 70
   128
 71
     9
 72
    18
 73
    19
  0
VERTEX
  5
256
  8
0
 62
     9
 10
0.0
 20
0.0
 30
0.0
 70
   128
 71
     7
 72
    17
 73
    18
  0
VERTEX
  5
257
  8
0
 62
     9
 10
0.0
 20
0.0
 30
0.0
 70
   128
 71
     5
 72
    16
 73
    17
  0
VERTEX
  5
258
  8
0
 62
     9
 10
0.0
 20
0.0
 30
0.0
 70
   128
 71
     3
 72
    14
 73
    16
  0
VERTEX
  5
259
  8
0
 62
     9
 10
0.0
 20
0.0
 30
0.0
 70
   128
 71
     3
 72
    45
 73
    15
  0
VERTEX
  5
25A
  8
0
 62
     9
 10
0.0
 20
0.0
 30
0.0
 70
   128
 71
    10
 72
    11
 73
    13
  0
VERTEX
  5
25B
  8
0
 62
     9
 10
0.0
 20
0.0
 30
0.0
 70
   128
 71
    10
 72
     8
 73
     9
  0
VERTEX
  5
25C
  8
0
 62
     9
 10
0.0
 20
0.0
 30
0.0
 70
   128
 71
     8
 72
     6
 73
     7
  0
VERTEX
  5
25D
  8
0
 62
     9
 10
0.0
 20
0.0
 30
0.0
 70
   128
 71
     6
 72
     4
 73
     5
  0
VERTEX
  5
25E
  8
0
 62
     9
 10
0.0
 20
0.0
 30
0.0
 70
   128
 71
     2
 72
     3
 73
     5
  0
VERTEX
  5
25F
  8
0
 62
     9
 10
0.0
 20
0.0
 30
0.0
 70
   128
 71
     1
 72
    45
 73
     3
  0
SEQEND
  5
260
  8
0
 62
     9
  0
ENDBLK
  5
263
  8
0
  0
BLOCK
  8
0
  2
E3_NODE_8_
 70
     0
 10
0.0
 20
0.0
 30
0.0
  3
E3_NODE_8_
  1

  0
POLYLINE
  5
265
  8
0
 62
     9
 66
     1
 10
0.0
 20
0.0
 30
0.0
 70
    64
 71
    45
 72
    63
  0
VERTEX
  5
266
  8
0
 10
111.7730026245117
 20
-8.229000091552734
 30
365.4150085449219
 70
   192
  0
VERTEX
  5
267
  8
0
 10
111.7730026245117
 20
0.0
 30
362.7409973144531
 70
   192
  0
VERTEX
  5
268
  8
0
 10
132.5290069580078
 20
0.0
 30
360.3160095214844
 70
   192
  0
VERTEX
  5
269
  8
0
 10
133.1450042724609
 20
-8.229000091552734
 30
362.9169921875
 70
   192
  0
VERTEX
  5
26A
  8
0
 10
152.1649932861328
 20
0.0
 30
353.1679992675781
 70
   192
  0
VERTEX
  5
26B
  8
0
 10
153.3650054931641
 20
-8.229000091552734
 30
355.5580139160156
 70
   192
  0
VERTEX
  5
26C
  8
0
 10
169.6239929199219
 20
0.0
 30
341.6849975585938
 70
   192
  0
VERTEX
  5
26D
  8
0
 10
171.3430023193359
 20
-8.229000091552734
 30
343.7340087890625
 70
   192
  0
VERTEX
  5
26E
  8
0
 10
183.9640045166016
 20
0.0
 30
326.4859924316406
 70
   192
  0
VERTEX
  5
26F
  8
0
 10
186.1089935302734
 20
-8.229000091552734
 30
328.0820007324219
 70
   192
  0
VERTEX
  5
270
  8
0
 10
194.4129943847656
 20
0.0
 30
308.3890075683594
 70
   192
  0
VERTEX
  5
271
  8
0
 10
196.8679962158203
 20
-8.229000091552734
 30
309.447998046875
 70
   192
  0
VERTEX
  5
272
  8
0
 10
200.406005859375
 20
0.0
 30
288.3699951171875
 70
   192
  0
VERTEX
  5
273
  8
0
 10
111.7730026245117
 20
-13.3149995803833
 30
372.4150085449219
 70
   192
  0
VERTEX
  5
274
  8
0
 10
156.5070037841797
 20
-13.3149995803833
 30
361.81298828125
 70
   192
  0
VERTEX
  5
275
  8
0
 10
175.8419952392578
 20
-13.3149995803833
 30
349.0960083007812
 70
   192
  0
VERTEX
  5
276
  8
0
 10
191.7239990234375
 20
-13.3149995803833
 30
332.2630004882812
 70
   192
  0
VERTEX
  5
277
  8
0
 10
203.2949981689453
 20
-13.3149995803833
 30
312.2200012207031
 70
   192
  0
VERTEX
  5
278
  8
0
 10
203.0390014648438
 20
-8.229000091552734
 30
288.8340148925781
 70
   192
  0
VERTEX
  5
279
  8
0
 10
204.7409973144531
 20
-9.484999656677246
 30
289.1340026855469
 70
   192
  0
VERTEX
  5
27A
  8
0
 10
111.7730026245117
 20
-13.3149995803833
 30
381.0679931640625
 70
   192
  0
VERTEX
  5
27B
  8
0
 10
134.7599945068359
 20
-13.3149995803833
 30
369.72900390625
 70
   192
  0
VERTEX
  5
27C
  8
0
 10
160.3899993896484
 20
-13.3149995803833
 30
369.5450134277344
 70
   192
  0
VERTEX
  5
27D
  8
0
 10
181.4040069580078
 20
-13.3149995803833
 30
355.7239990234375
 70
   192
  0
VERTEX
  5
27E
  8
0
 10
198.6640014648438
 20
-13.3149995803833
 30
337.4289855957031
 70
   192
  0
VERTEX
  5
27F
  8
0
 10
211.2400054931641
 20
-13.3149995803833
 30
315.6470031738281
 70
   192
  0
VERTEX
  5
280
  8
0
 10
214.1929931640625
 20
-13.3149995803833
 30
290.8009948730469
 70
   192
  0
VERTEX
  5
281
  8
0
 10
209.9329986572266
 20
-13.3149995803833
 30
290.0499877929688
 70
   192
  0
VERTEX
  5
282
  8
0
 10
138.3690032958984
 20
-8.229000091552734
 30
384.9590148925781
 70
   192
  0
VERTEX
  5
283
  8
0
 10
111.7730026245117
 20
-8.229000091552734
 30
388.0679931640625
 70
   192
  0
VERTEX
  5
284
  8
0
 10
136.7550048828125
 20
-13.3149995803833
 30
378.1480102539062
 70
   192
  0
VERTEX
  5
285
  8
0
 10
163.5319976806641
 20
-8.229000091552734
 30
375.8009948730469
 70
   192
  0
VERTEX
  5
286
  8
0
 10
185.9029998779297
 20
-8.229000091552734
 30
361.0859985351562
 70
   192
  0
VERTEX
  5
287
  8
0
 10
204.2790069580078
 20
-8.229000091552734
 30
341.6099853515625
 70
   192
  0
VERTEX
  5
288
  8
0
 10
217.6679992675781
 20
-8.229000091552734
 30
318.4200134277344
 70
   192
  0
VERTEX
  5
289
  8
0
 10
223.6450042724609
 20
-9.484999656677246
 30
292.4679870605469
 70
   192
  0
VERTEX
  5
28A
  8
0
 10
218.4539947509766
 20
-13.3149995803833
 30
291.552001953125
 70
   192
  0
VERTEX
  5
28B
  8
0
 10
138.9859924316406
 20
0.0
 30
387.5610046386719
 70
   192
  0
VERTEX
  5
28C
  8
0
 10
111.7730026245117
 20
0.0
 30
390.7409973144531
 70
   192
  0
VERTEX
  5
28D
  8
0
 10
164.7310028076172
 20
0.0
 30
378.1900024414062
 70
   192
  0
VERTEX
  5
28E
  8
0
 10
187.6219940185547
 20
0.0
 30
363.135009765625
 70
   192
  0
VERTEX
  5
28F
  8
0
 10
206.4239959716797
 20
0.0
 30
343.2059936523438
 70
   192
  0
VERTEX
  5
290
  8
0
 10
220.1230010986328
 20
0.0
 30
319.47900390625
 70
   192
  0
VERTEX
  5
291
  8
0
 10
225.3470001220703
 20
-8.229000091552734
 30
292.7680053710938
 70
   192
  0
VERTEX
  5
292
  8
0
 10
227.9810028076172
 20
0.0
 30
293.2319946289062
 70
   192
  0
VERTEX
  5
293
  8
0
 62
     9
 10
0.0
 20
0.0
 30
0.0
 70
   128
 71
     3
 72
     2
 73
     1
  0
VERTEX
  5
294
  8
0
 62
     9
 10
0.0
 20
0.0
 30
0.0
 70
   128
 71
     5
 72
     3
 73
     4
  0
VERTEX
  5
295
  8
0
 62
     9
 10
0.0
 20
0.0
 30
0.0
 70
   128
 71
     7
 72
     5
 73
     6
  0
VERTEX
  5
296
  8
0
 62
     9
 10
0.0
 20
0.0
 30
0.0
 70
   128
 71
     9
 72
     7
 73
     8
  0
VERTEX
  5
297
  8
0
 62
     9
 10
0.0
 20
0.0
 30
0.0
 70
   128
 71
    11
 72
     9
 73
    10
  0
VERTEX
  5
298
  8
0
 62
     9
 10
0.0
 20
0.0
 30
0.0
 70
   128
 71
    13
 72
    11
 73
    12
  0
VERTEX
  5
299
  8
0
 62
     9
 10
0.0
 20
0.0
 30
0.0
 70
   128
 71
     4
 72
     1
 73
    14
  0
VERTEX
  5
29A
  8
0
 62
     9
 10
0.0
 20
0.0
 30
0.0
 70
   128
 71
    15
 72
     6
 73
     4
  0
VERTEX
  5
29B
  8
0
 62
     9
 10
0.0
 20
0.0
 30
0.0
 70
   128
 71
    16
 72
     8
 73
     6
  0
VERTEX
  5
29C
  8
0
 62
     9
 10
0.0
 20
0.0
 30
0.0
 70
   128
 71
    17
 72
    10
 73
     8
  0
VERTEX
  5
29D
  8
0
 62
     9
 10
0.0
 20
0.0
 30
0.0
 70
   128
 71
    18
 72
    12
 73
    10
  0
VERTEX
  5
29E
  8
0
 62
     9
 10
0.0
 20
0.0
 30
0.0
 70
   128
 71
    20
 72
    19
 73
    12
  0
VERTEX
  5
29F
  8
0
 62
     9
 10
0.0
 20
0.0
 30
0.0
 70
   128
 71
    12
 72
    18
 73
    20
  0
VERTEX
  5
2A0
  8
0
 62
     9
 10
0.0
 20
0.0
 30
0.0
 70
   128
 71
    22
 72
    14
 73
    21
  0
VERTEX
  5
2A1
  8
0
 62
     9
 10
0.0
 20
0.0
 30
0.0
 70
   128
 71
    23
 72
    15
 73
    22
  0
VERTEX
  5
2A2
  8
0
 62
     9
 10
0.0
 20
0.0
 30
0.0
 70
   128
 71
    24
 72
    16
 73
    15
  0
VERTEX
  5
2A3
  8
0
 62
     9
 10
0.0
 20
0.0
 30
0.0
 70
   128
 71
    25
 72
    17
 73
    16
  0
VERTEX
  5
2A4
  8
0
 62
     9
 10
0.0
 20
0.0
 30
0.0
 70
   128
 71
    26
 72
    18
 73
    17
  0
VERTEX
  5
2A5
  8
0
 62
     9
 10
0.0
 20
0.0
 30
0.0
 70
   128
 71
    18
 72
    26
 73
    27
  0
VERTEX
  5
2A6
  8
0
 62
     9
 10
0.0
 20
0.0
 30
0.0
 70
   128
 71
    27
 72
    28
 73
    18
  0
VERTEX
  5
2A7
  8
0
 62
     9
 10
0.0
 20
0.0
 30
0.0
 70
   128
 71
    21
 72
    30
 73
    29
  0
VERTEX
  5
2A8
  8
0
 62
     9
 10
0.0
 20
0.0
 30
0.0
 70
   128
 71
    32
 72
    23
 73
    31
  0
VERTEX
  5
2A9
  8
0
 62
     9
 10
0.0
 20
0.0
 30
0.0
 70
   128
 71
    33
 72
    24
 73
    23
  0
VERTEX
  5
2AA
  8
0
 62
     9
 10
0.0
 20
0.0
 30
0.0
 70
   128
 71
    34
 72
    25
 73
    24
  0
VERTEX
  5
2AB
  8
0
 62
     9
 10
0.0
 20
0.0
 30
0.0
 70
   128
 71
    35
 72
    26
 73
    25
  0
VERTEX
  5
2AC
  8
0
 62
     9
 10
0.0
 20
0.0
 30
0.0
 70
   128
 71
    26
 72
    35
 73
    36
  0
VERTEX
  5
2AD
  8
0
 62
     9
 10
0.0
 20
0.0
 30
0.0
 70
   128
 71
    36
 72
    37
 73
    26
  0
VERTEX
  5
2AE
  8
0
 62
     9
 10
0.0
 20
0.0
 30
0.0
 70
   128
 71
    30
 72
    39
 73
    38
  0
VERTEX
  5
2AF
  8
0
 62
     9
 10
0.0
 20
0.0
 30
0.0
 70
   128
 71
    29
 72
    38
 73
    40
  0
VERTEX
  5
2B0
  8
0
 62
     9
 10
0.0
 20
0.0
 30
0.0
 70
   128
 71
    32
 72
    40
 73
    41
  0
VERTEX
  5
2B1
  8
0
 62
     9
 10
0.0
 20
0.0
 30
0.0
 70
   128
 71
    33
 72
    41
 73
    42
  0
VERTEX
  5
2B2
  8
0
 62
     9
 10
0.0
 20
0.0
 30
0.0
 70
   128
 71
    34
 72
    42
 73
    43
  0
VERTEX
  5
2B3
  8
0
 62
     9
 10
0.0
 20
0.0
 30
0.0
 70
   128
 71
    44
 72
    35
 73
    43
  0
VERTEX
  5
2B4
  8
0
 62
     9
 10
0.0
 20
0.0
 30
0.0
 70
   128
 71
    43
 72
    45
 73
    44
  0
VERTEX
  5
2B5
  8
0
 62
     9
 10
0.0
 20
0.0
 30
0.0
 70
   128
 71
    43
 72
    35
 73
    34
  0
VERTEX
  5
2B6
  8
0
 62
     9
 10
0.0
 20
0.0
 30
0.0
 70
   128
 71
    42
 72
    34
 73
    33
  0
VERTEX
  5
2B7
  8
0
 62
     9
 10
0.0
 20
0.0
 30
0.0
 70
   128
 71
    41
 72
    33
 73
    32
  0
VERTEX
  5
2B8
  8
0
 62
     9
 10
0.0
 20
0.0
 30
0.0
 70
   128
 71
    40
 72
    32
 73
    29
  0
VERTEX
  5
2B9
  8
0
 62
     9
 10
0.0
 20
0.0
 30
0.0
 70
   128
 71
    38
 72
    29
 73
    30
  0
VERTEX
  5
2BA
  8
0
 62
     9
 10
0.0
 20
0.0
 30
0.0
 70
   128
 71
    35
 72
    44
 73
    36
  0
VERTEX
  5
2BB
  8
0
 62
     9
 10
0.0
 20
0.0
 30
0.0
 70
   128
 71
    25
 72
    34
 73
    35
  0
VERTEX
  5
2BC
  8
0
 62
     9
 10
0.0
 20
0.0
 30
0.0
 70
   128
 71
    24
 72
    33
 73
    34
  0
VERTEX
  5
2BD
  8
0
 62
     9
 10
0.0
 20
0.0
 30
0.0
 70
   128
 71
    23
 72
    32
 73
    33
  0
VERTEX
  5
2BE
  8
0
 62
     9
 10
0.0
 20
0.0
 30
0.0
 70
   128
 71
    31
 72
    29
 73
    32
  0
VERTEX
  5
2BF
  8
0
 62
     9
 10
0.0
 20
0.0
 30
0.0
 70
   128
 71
    29
 72
    31
 73
    21
  0
VERTEX
  5
2C0
  8
0
 62
     9
 10
0.0
 20
0.0
 30
0.0
 70
   128
 71
    26
 72
    37
 73
    27
  0
VERTEX
  5
2C1
  8
0
 62
     9
 10
0.0
 20
0.0
 30
0.0
 70
   128
 71
    17
 72
    25
 73
    26
  0
VERTEX
  5
2C2
  8
0
 62
     9
 10
0.0
 20
0.0
 30
0.0
 70
   128
 71
    16
 72
    24
 73
    25
  0
VERTEX
  5
2C3
  8
0
 62
     9
 10
0.0
 20
0.0
 30
0.0
 70
   128
 71
    15
 72
    23
 73
    24
  0
VERTEX
  5
2C4
  8
0
 62
     9
 10
0.0
 20
0.0
 30
0.0
 70
   128
 71
    22
 72
    31
 73
    23
  0
VERTEX
  5
2C5
  8
0
 62
     9
 10
0.0
 20
0.0
 30
0.0
 70
   128
 71
    21
 72
    31
 73
    22
  0
VERTEX
  5
2C6
  8
0
 62
     9
 10
0.0
 20
0.0
 30
0.0
 70
   128
 71
    18
 72
    28
 73
    20
  0
VERTEX
  5
2C7
  8
0
 62
     9
 10
0.0
 20
0.0
 30
0.0
 70
   128
 71
    10
 72
    17
 73
    18
  0
VERTEX
  5
2C8
  8
0
 62
     9
 10
0.0
 20
0.0
 30
0.0
 70
   128
 71
     8
 72
    16
 73
    17
  0
VERTEX
  5
2C9
  8
0
 62
     9
 10
0.0
 20
0.0
 30
0.0
 70
   128
 71
     6
 72
    15
 73
    16
  0
VERTEX
  5
2CA
  8
0
 62
     9
 10
0.0
 20
0.0
 30
0.0
 70
   128
 71
     4
 72
    22
 73
    15
  0
VERTEX
  5
2CB
  8
0
 62
     9
 10
0.0
 20
0.0
 30
0.0
 70
   128
 71
    14
 72
    22
 73
     4
  0
VERTEX
  5
2CC
  8
0
 62
     9
 10
0.0
 20
0.0
 30
0.0
 70
   128
 71
    12
 72
    19
 73
    13
  0
VERTEX
  5
2CD
  8
0
 62
     9
 10
0.0
 20
0.0
 30
0.0
 70
   128
 71
    10
 72
    12
 73
    11
  0
VERTEX
  5
2CE
  8
0
 62
     9
 10
0.0
 20
0.0
 30
0.0
 70
   128
 71
     8
 72
    10
 73
     9
  0
VERTEX
  5
2CF
  8
0
 62
     9
 10
0.0
 20
0.0
 30
0.0
 70
   128
 71
     6
 72
     8
 73
     7
  0
VERTEX
  5
2D0
  8
0
 62
     9
 10
0.0
 20
0.0
 30
0.0
 70
   128
 71
     4
 72
     6
 73
     5
  0
VERTEX
  5
2D1
  8
0
 62
     9
 10
0.0
 20
0.0
 30
0.0
 70
   128
 71
     1
 72
     4
 73
     3
  0
SEQEND
  5
2D2
  8
0
 62
     9
  0
ENDBLK
  5
2D5
  8
0
  0
BLOCK
  8
0
  2
E3_NODE_9_
 70
     0
 10
0.0
 20
0.0
 30
0.0
  3
E3_NODE_9_
  1

  0
POLYLINE
  5
2D7
  8
0
 62
     9
 66
     1
 10
0.0
 20
0.0
 30
0.0
 70
    64
 71
    15
 72
    13
  0
VERTEX
  5
2D8
  8
0
 10
204.3999938964844
 20
0.0
 30
265.7160034179688
 70
   192
  0
VERTEX
  5
2D9
  8
0
 10
200.406005859375
 20
0.0
 30
288.3699951171875
 70
   192
  0
VERTEX
  5
2DA
  8
0
 10
203.0390014648438
 20
8.229000091552734
 30
288.8340148925781
 70
   192
  0
VERTEX
  5
2DB
  8
0
 10
208.4389953613281
 20
9.89900016784668
 30
266.4280090332031
 70
   192
  0
VERTEX
  5
2DC
  8
0
 10
204.7409973144531
 20
9.484999656677246
 30
289.1340026855469
 70
   192
  0
VERTEX
  5
2DD
  8
0
 10
209.9329986572266
 20
13.3149995803833
 30
290.0499877929688
 70
   192
  0
VERTEX
  5
2DE
  8
0
 10
218.1880035400391
 20
14.0
 30
268.1470031738281
 70
   192
  0
VERTEX
  5
2DF
  8
0
 10
227.9369964599609
 20
9.89900016784668
 30
269.8659973144531
 70
   192
  0
VERTEX
  5
2E0
  8
0
 10
218.2140045166016
 20
14.0
 30
268.1520080566406
 70
   192
  0
VERTEX
  5
2E1
  8
0
 10
218.4539947509766
 20
13.3149995803833
 30
291.552001953125
 70
   192
  0
VERTEX
  5
2E2
  8
0
 10
214.1929931640625
 20
13.3149995803833
 30
290.8009948730469
 70
   192
  0
VERTEX
  5
2E3
  8
0
 10
231.9750061035156
 20
0.0
 30
270.5780029296875
 70
   192
  0
VERTEX
  5
2E4
  8
0
 10
225.3470001220703
 20
8.229000091552734
 30
292.7680053710938
 70
   192
  0
VERTEX
  5
2E5
  8
0
 10
223.6450042724609
 20
9.484999656677246
 30
292.4679870605469
 70
   192
  0
VERTEX
  5
2E6
  8
0
 10
227.9810028076172
 20
0.0
 30
293.2319946289062
 70
   192
  0
VERTEX
  5
2E7
  8
0
 62
     9
 10
0.0
 20
0.0
 30
0.0
 70
   128
 71
     3
 72
     2
 73
     1
  0
VERTEX
  5
2E8
  8
0
 62
     9
 10
0.0
 20
0.0
 30
0.0
 70
   128
 71
     1
 72
     4
 73
     3
  0
VERTEX
  5
2E9
  8
0
 62
     9
 10
0.0
 20
0.0
 30
0.0
 70
   128
 71
     6
 72
     5
 73
     4
  0
VERTEX
  5
2EA
  8
0
 62
     9
 10
0.0
 20
0.0
 30
0.0
 70
   128
 71
     4
 72
     7
 73
     6
  0
VERTEX
  5
2EB
  8
0
 62
     9
 10
0.0
 20
0.0
 30
0.0
 70
   128
 71
    10
 72
     9
 73
     8
  0
VERTEX
  5
2EC
  8
0
 62
     9
 10
0.0
 20
0.0
 30
0.0
 70
   128
 71
     9
 72
    10
 73
    11
  0
VERTEX
  5
2ED
  8
0
 62
     9
 10
0.0
 20
0.0
 30
0.0
 70
   128
 71
    11
 72
     7
 73
     9
  0
VERTEX
  5
2EE
  8
0
 62
     9
 10
0.0
 20
0.0
 30
0.0
 70
   128
 71
    13
 72
     8
 73
    12
  0
VERTEX
  5
2EF
  8
0
 62
     9
 10
0.0
 20
0.0
 30
0.0
 70
   128
 71
    13
 72
    14
 73
     8
  0
VERTEX
  5
2F0
  8
0
 62
     9
 10
0.0
 20
0.0
 30
0.0
 70
   128
 71
    12
 72
    15
 73
    13
  0
VERTEX
  5
2F1
  8
0
 62
     9
 10
0.0
 20
0.0
 30
0.0
 70
   128
 71
     8
 72
    14
 73
    10
  0
VERTEX
  5
2F2
  8
0
 62
     9
 10
0.0
 20
0.0
 30
0.0
 70
   128
 71
     7
 72
    11
 73
     6
  0
VERTEX
  5
2F3
  8
0
 62
     9
 10
0.0
 20
0.0
 30
0.0
 70
   128
 71
     4
 72
     5
 73
     3
  0
SEQEND
  5
2F4
  8
0
 62
     9
  0
ENDBLK
  5
2F7
  8
0
  0
BLOCK
  8
0
  2
E3_NODE_10_
 70
     0
 10
0.0
 20
0.0
 30
0.0
  3
E3_NODE_10_
  1

  0
POLYLINE
  5
2F9
  8
0
 62
     9
 66
     1
 10
0.0
 20
0.0
 30
0.0
 70
    64
 71
    15
 72
    13
  0
VERTEX
  5
2FA
  8
0
 10
231.9750061035156
 20
0.0
 30
270.5780029296875
 70
   192
  0
VERTEX
  5
2FB
  8
0
 10
227.9810028076172
 20
0.0
 30
293.2319946289062
 70
   192
  0
VERTEX
  5
2FC
  8
0
 10
225.3470001220703
 20
-8.229000091552734
 30
292.7680053710938
 70
   192
  0
VERTEX
  5
2FD
  8
0
 10
227.9369964599609
 20
-9.89900016784668
 30
269.8659973144531
 70
   192
  0
VERTEX
  5
2FE
  8
0
 10
214.1929931640625
 20
-13.3149995803833
 30
290.8009948730469
 70
   192
  0
VERTEX
  5
2FF
  8
0
 10
218.1880035400391
 20
-14.0
 30
268.1470031738281
 70
   192
  0
VERTEX
  5
300
  8
0
 10
218.2140045166016
 20
-14.0
 30
268.1520080566406
 70
   192
  0
VERTEX
  5
301
  8
0
 10
223.6450042724609
 20
-9.484999656677246
 30
292.4679870605469
 70
   192
  0
VERTEX
  5
302
  8
0
 10
218.4539947509766
 20
-13.3149995803833
 30
291.552001953125
 70
   192
  0
VERTEX
  5
303
  8
0
 10
208.4389953613281
 20
-9.89900016784668
 30
266.4280090332031
 70
   192
  0
VERTEX
  5
304
  8
0
 10
209.9329986572266
 20
-13.3149995803833
 30
290.0499877929688
 70
   192
  0
VERTEX
  5
305
  8
0
 10
204.3999938964844
 20
0.0
 30
265.7160034179688
 70
   192
  0
VERTEX
  5
306
  8
0
 10
203.0390014648438
 20
-8.229000091552734
 30
288.8340148925781
 70
   192
  0
VERTEX
  5
307
  8
0
 10
204.7409973144531
 20
-9.484999656677246
 30
289.1340026855469
 70
   192
  0
VERTEX
  5
308
  8
0
 10
200.406005859375
 20
0.0
 30
288.3699951171875
 70
   192
  0
VERTEX
  5
309
  8
0
 62
     9
 10
0.0
 20
0.0
 30
0.0
 70
   128
 71
     3
 72
     2
 73
     1
  0
VERTEX
  5
30A
  8
0
 62
     9
 10
0.0
 20
0.0
 30
0.0
 70
   128
 71
     1
 72
     4
 73
     3
  0
VERTEX
  5
30B
  8
0
 62
     9
 10
0.0
 20
0.0
 30
0.0
 70
   128
 71
     7
 72
     6
 73
     5
  0
VERTEX
  5
30C
  8
0
 62
     9
 10
0.0
 20
0.0
 30
0.0
 70
   128
 71
     9
 72
     8
 73
     7
  0
VERTEX
  5
30D
  8
0
 62
     9
 10
0.0
 20
0.0
 30
0.0
 70
   128
 71
     5
 72
     9
 73
     7
  0
VERTEX
  5
30E
  8
0
 62
     9
 10
0.0
 20
0.0
 30
0.0
 70
   128
 71
     8
 72
     4
 73
     7
  0
VERTEX
  5
30F
  8
0
 62
     9
 10
0.0
 20
0.0
 30
0.0
 70
   128
 71
    11
 72
     6
 73
    10
  0
VERTEX
  5
310
  8
0
 62
     9
 10
0.0
 20
0.0
 30
0.0
 70
   128
 71
    11
 72
     5
 73
     6
  0
VERTEX
  5
311
  8
0
 62
     9
 10
0.0
 20
0.0
 30
0.0
 70
   128
 71
    13
 72
    10
 73
    12
  0
VERTEX
  5
312
  8
0
 62
     9
 10
0.0
 20
0.0
 30
0.0
 70
   128
 71
    13
 72
    14
 73
    10
  0
VERTEX
  5
313
  8
0
 62
     9
 10
0.0
 20
0.0
 30
0.0
 70
   128
 71
    12
 72
    15
 73
    13
  0
VERTEX
  5
314
  8
0
 62
     9
 10
0.0
 20
0.0
 30
0.0
 70
   128
 71
    10
 72
    14
 73
    11
  0
VERTEX
  5
315
  8
0
 62
     9
 10
0.0
 20
0.0
 30
0.0
 70
   128
 71
     4
 72
     8
 73
     3
  0
SEQEND
  5
316
  8
0
 62
     9
  0
ENDBLK
  5
319
  8
0
  0
BLOCK
  8
0
  2
E3_NODE_11_
 70
     0
 10
0.0
 20
0.0
 30
0.0
  3
E3_NODE_11_
  1

  0
POLYLINE
  5
31B
  8
0
 62
     9
 66
     1
 10
0.0
 20
0.0
 30
0.0
 70
    64
 71
     9
 72
     8
  0
VERTEX
  5
31C
  8
0
 10
203.9989929199219
 20
0.0
 30
252.4450073242188
 70
   192
  0
VERTEX
  5
31D
  8
0
 10
205.6080017089844
 20
2.482000112533569
 30
248.3639984130859
 70
   192
  0
VERTEX
  5
31E
  8
0
 10
205.6080017089844
 20
0.0
 30
248.3639984130859
 70
   192
  0
VERTEX
  5
31F
  8
0
 10
204.1150054931641
 20
-2.482000112533569
 30
256.8299865722656
 70
   192
  0
VERTEX
  5
320
  8
0
 10
204.1150054931641
 20
0.0
 30
256.8299865722656
 70
   192
  0
VERTEX
  5
321
  8
0
 10
204.8609924316406
 20
-4.962999820709229
 30
252.5970001220703
 70
   192
  0
VERTEX
  5
322
  8
0
 10
204.1150054931641
 20
2.482000112533569
 30
256.8299865722656
 70
   192
  0
VERTEX
  5
323
  8
0
 10
204.8609924316406
 20
4.962999820709229
 30
252.5970001220703
 70
   192
  0
VERTEX
  5
324
  8
0
 10
205.6080017089844
 20
-2.482000112533569
 30
248.3639984130859
 70
   192
  0
VERTEX
  5
325
  8
0
 62
     9
 10
0.0
 20
0.0
 30
0.0
 70
   128
 71
     3
 72
     2
 73
     1
  0
VERTEX
  5
326
  8
0
 62
     9
 10
0.0
 20
0.0
 30
0.0
 70
   128
 71
     5
 72
     4
 73
     1
  0
VERTEX
  5
327
  8
0
 62
     9
 10
0.0
 20
0.0
 30
0.0
 70
   128
 71
     1
 72
     4
 73
     6
  0
VERTEX
  5
328
  8
0
 62
     9
 10
0.0
 20
0.0
 30
0.0
 70
   128
 71
     1
 72
     7
 73
     5
  0
VERTEX
  5
329
  8
0
 62
     9
 10
0.0
 20
0.0
 30
0.0
 70
   128
 71
     1
 72
     8
 73
     7
  0
VERTEX
  5
32A
  8
0
 62
     9
 10
0.0
 20
0.0
 30
0.0
 70
   128
 71
     1
 72
     2
 73
     8
  0
VERTEX
  5
32B
  8
0
 62
     9
 10
0.0
 20
0.0
 30
0.0
 70
   128
 71
     1
 72
     9
 73
     3
  0
VERTEX
  5
32C
  8
0
 62
     9
 10
0.0
 20
0.0
 30
0.0
 70
   128
 71
     1
 72
     6
 73
     9
  0
SEQEND
  5
32D
  8
0
 62
     9
  0
ENDBLK
  5
330
  8
0
  0
BLOCK
  8
0
  2
E3_NODE_12_
 70
     0
 10
0.0
 20
0.0
 30
0.0
  3
E3_NODE_12_
  1

  0
POLYLINE
  5
332
  8
0
 62
     9
 66
     1
 10
0.0
 20
0.0
 30
0.0
 70
    64
 71
    12
 72
    12
  0
VERTEX
  5
333
  8
0
 10
209.02099609375
 20
-5.0
 30
253.3300018310547
 70
   192
  0
VERTEX
  5
334
  8
0
 10
204.8609924316406
 20
-4.962999820709229
 30
252.5970001220703
 70
   192
  0
VERTEX
  5
335
  8
0
 10
205.6080017089844
 20
-2.482000112533569
 30
248.3639984130859
 70
   192
  0
VERTEX
  5
336
  8
0
 10
209.8899993896484
 20
0.0
 30
248.406005859375
 70
   192
  0
VERTEX
  5
337
  8
0
 10
209.02099609375
 20
5.0
 30
253.3300018310547
 70
   192
  0
VERTEX
  5
338
  8
0
 10
205.6080017089844
 20
2.482000112533569
 30
248.3639984130859
 70
   192
  0
VERTEX
  5
339
  8
0
 10
205.6080017089844
 20
0.0
 30
248.3639984130859
 70
   192
  0
VERTEX
  5
33A
  8
0
 10
204.8609924316406
 20
4.962999820709229
 30
252.5970001220703
 70
   192
  0
VERTEX
  5
33B
  8
0
 10
204.1150054931641
 20
2.482000112533569
 30
256.8299865722656
 70
   192
  0
VERTEX
  5
33C
  8
0
 10
208.1529998779297
 20
0.0
 30
258.2539978027344
 70
   192
  0
VERTEX
  5
33D
  8
0
 10
204.1150054931641
 20
-2.482000112533569
 30
256.8299865722656
 70
   192
  0
VERTEX
  5
33E
  8
0
 10
204.1150054931641
 20
0.0
 30
256.8299865722656
 70
   192
  0
VERTEX
  5
33F
  8
0
 62
     9
 10
0.0
 20
0.0
 30
0.0
 70
   128
 71
     3
 72
     2
 73
     1
  0
VERTEX
  5
340
  8
0
 62
     9
 10
0.0
 20
0.0
 30
0.0
 70
   128
 71
     1
 72
     4
 73
     3
  0
VERTEX
  5
341
  8
0
 62
     9
 10
0.0
 20
0.0
 30
0.0
 70
   128
 71
     6
 72
     4
 73
     5
  0
VERTEX
  5
342
  8
0
 62
     9
 10
0.0
 20
0.0
 30
0.0
 70
   128
 71
     6
 72
     7
 73
     4
  0
VERTEX
  5
343
  8
0
 62
     9
 10
0.0
 20
0.0
 30
0.0
 70
   128
 71
     9
 72
     8
 73
     5
  0
VERTEX
  5
344
  8
0
 62
     9
 10
0.0
 20
0.0
 30
0.0
 70
   128
 71
     5
 72
    10
 73
     9
  0
VERTEX
  5
345
  8
0
 62
     9
 10
0.0
 20
0.0
 30
0.0
 70
   128
 71
    11
 72
    10
 73
     1
  0
VERTEX
  5
346
  8
0
 62
     9
 10
0.0
 20
0.0
 30
0.0
 70
   128
 71
    11
 72
    12
 73
    10
  0
VERTEX
  5
347
  8
0
 62
     9
 10
0.0
 20
0.0
 30
0.0
 70
   128
 71
     1
 72
     2
 73
    11
  0
VERTEX
  5
348
  8
0
 62
     9
 10
0.0
 20
0.0
 30
0.0
 70
   128
 71
    10
 72
    12
 73
     9
  0
VERTEX
  5
349
  8
0
 62
     9
 10
0.0
 20
0.0
 30
0.0
 70
   128
 71
     5
 72
     8
 73
     6
  0
VERTEX
  5
34A
  8
0
 62
     9
 10
0.0
 20
0.0
 30
0.0
 70
   128
 71
     4
 72
     7
 73
     3
  0
SEQEND
  5
34B
  8
0
 62
     9
  0
ENDBLK
  5
34E
  8
0
  0
BLOCK
  8
0
  2
E3_NODE_13_
 70
     0
 10
0.0
 20
0.0
 30
0.0
  3
E3_NODE_13_
  1

  0
POLYLINE
  5
350
  8
0
 62
     9
 66
     1
 10
0.0
 20
0.0
 30
0.0
 70
    64
 71
     9
 72
     7
  0
VERTEX
  5
351
  8
0
 10
34.16600036621094
 20
-4.653999805450439
 30
118.9560012817383
 70
   192
  0
VERTEX
  5
352
  8
0
 10
-1.39300000667572
 20
25.18400001525879
 30
118.9560012817383
 70
   192
  0
VERTEX
  5
353
  8
0
 10
-15.43599987030029
 20
13.39999961853027
 30
118.9560012817383
 70
   192
  0
VERTEX
  5
354
  8
0
 10
30.98299980163574
 20
13.39999961853027
 30
118.9560012817383
 70
   192
  0
VERTEX
  5
355
  8
0
 10
16.93899917602539
 20
25.18400001525879
 30
118.9560012817383
 70
   192
  0
VERTEX
  5
356
  8
0
 10
-9.454000473022461
 20
-20.53000068664551
 30
118.9560012817383
 70
   192
  0
VERTEX
  5
357
  8
0
 10
7.77299976348877
 20
-26.79999923706055
 30
118.9560012817383
 70
   192
  0
VERTEX
  5
358
  8
0
 10
-18.6200008392334
 20
-4.653999805450439
 30
118.9560012817383
 70
   192
  0
VERTEX
  5
359
  8
0
 10
25.0
 20
-20.53000068664551
 30
118.9560012817383
 70
   192
  0
VERTEX
  5
35A
  8
0
 62
     9
 10
0.0
 20
0.0
 30
0.0
 70
   128
 71
     3
 72
     2
 73
     1
  0
VERTEX
  5
35B
  8
0
 62
     9
 10
0.0
 20
0.0
 30
0.0
 70
   128
 71
     5
 72
     4
 73
     1
  0
VERTEX
  5
35C
  8
0
 62
     9
 10
0.0
 20
0.0
 30
0.0
 70
   128
 71
     7
 72
     6
 73
     1
  0
VERTEX
  5
35D
  8
0
 62
     9
 10
0.0
 20
0.0
 30
0.0
 70
   128
 71
     1
 72
     2
 73
     5
  0
VERTEX
  5
35E
  8
0
 62
     9
 10
0.0
 20
0.0
 30
0.0
 70
   128
 71
     6
 72
     8
 73
     1
  0
VERTEX
  5
35F
  8
0
 62
     9
 10
0.0
 20
0.0
 30
0.0
 70
   128
 71
     1
 72
     9
 73
     7
  0
VERTEX
  5
360
  8
0
 62
     9
 10
0.0
 20
0.0
 30
0.0
 70
   128
 71
     1
 72
     8
 73
     3
  0
SEQEND
  5
361
  8
0
 62
     9
  0
ENDBLK
  5
364
  8
0
  0
BLOCK
  8
0
  2
E3_NODE_14_
 70
     0
 10
0.0
 20
0.0
 30
0.0
  3
E3_NODE_14_
  1

  0
POLYLINE
  5
366
  8
0
 62
     9
 66
     1
 10
0.0
 20
0.0
 30
0.0
 70
    64
 71
    69
 72
    71
  0
VERTEX
  5
367
  8
0
 10
-9.454000473022461
 20
-20.53000068664551
 30
118.9560012817383
 70
   192
  0
VERTEX
  5
368
  8
0
 10
-9.454000473022461
 20
-20.53000068664551
 30
8.956000328063965
 70
   192
  0
VERTEX
  5
369
  8
0
 10
7.77299976348877
 20
-26.79999923706055
 30
8.956000328063965
 70
   192
  0
VERTEX
  5
36A
  8
0
 10
-18.6200008392334
 20
-4.653999805450439
 30
118.9560012817383
 70
   192
  0
VERTEX
  5
36B
  8
0
 10
-18.6200008392334
 20
-4.653999805450439
 30
8.956000328063965
 70
   192
  0
VERTEX
  5
36C
  8
0
 10
25.0
 20
-20.53000068664551
 30
118.9560012817383
 70
   192
  0
VERTEX
  5
36D
  8
0
 10
25.0
 20
-20.53000068664551
 30
8.956000328063965
 70
   192
  0
VERTEX
  5
36E
  8
0
 10
34.16600036621094
 20
-4.653999805450439
 30
8.956000328063965
 70
   192
  0
VERTEX
  5
36F
  8
0
 10
7.77299976348877
 20
-26.79999923706055
 30
118.9560012817383
 70
   192
  0
VERTEX
  5
370
  8
0
 10
-15.43599987030029
 20
13.39999961853027
 30
118.9560012817383
 70
   192
  0
VERTEX
  5
371
  8
0
 10
-5.664999961853027
 20
23.1870002746582
 30
90.03800201416016
 70
   192
  0
VERTEX
  5
372
  8
0
 10
-7.355000019073486
 20
21.93600082397461
 30
88.49800109863281
 70
   192
  0
VERTEX
  5
373
  8
0
 10
-1.39300000667572
 20
25.18400001525879
 30
118.9560012817383
 70
   192
  0
VERTEX
  5
374
  8
0
 10
-1.33899998664856
 20
25.05100059509277
 30
92.20500183105469
 70
   192
  0
VERTEX
  5
375
  8
0
 10
-5.103000164031982
 20
23.50399971008301
 30
90.41200256347656
 70
   192
  0
VERTEX
  5
376
  8
0
 10
-10.48600006103516
 20
19.61700057983398
 30
85.64299774169922
 70
   192
  0
VERTEX
  5
377
  8
0
 10
-11.61299991607666
 20
18.50399971008301
 30
84.17500305175781
 70
   192
  0
VERTEX
  5
378
  8
0
 10
-14.51700019836426
 20
14.87899971008301
 30
78.65399932861328
 70
   192
  0
VERTEX
  5
379
  8
0
 10
-14.97200012207031
 20
14.17300033569336
 30
77.29000091552734
 70
   192
  0
VERTEX
  5
37A
  8
0
 10
-15.88300037384033
 20
12.5939998626709
 30
68.3479995727539
 70
   192
  0
VERTEX
  5
37B
  8
0
 10
-15.42800045013428
 20
13.39500045776367
 30
65.79100036621094
 70
   192
  0
VERTEX
  5
37C
  8
0
 10
-15.86900043487549
 20
12.62100028991699
 30
72.71800231933594
 70
   192
  0
VERTEX
  5
37D
  8
0
 10
-15.42300033569336
 20
13.39299964904785
 30
74.98999786376953
 70
   192
  0
VERTEX
  5
37E
  8
0
 10
-15.50800037384033
 20
13.24600028991699
 30
74.55899810791016
 70
   192
  0
VERTEX
  5
37F
  8
0
 10
-15.43599987030029
 20
13.39999961853027
 30
8.956000328063965
 70
   192
  0
VERTEX
  5
380
  8
0
 10
-5.447000026702881
 20
23.3120002746582
 30
50.72600173950195
 70
   192
  0
VERTEX
  5
381
  8
0
 10
-1.350000023841858
 20
25.08499908447266
 30
48.66799926757812
 70
   192
  0
VERTEX
  5
382
  8
0
 10
-7.045000076293945
 20
22.33099937438965
 30
51.89500045776367
 70
   192
  0
VERTEX
  5
383
  8
0
 10
-11.47700023651123
 20
18.64599990844727
 30
56.54499816894531
 70
   192
  0
VERTEX
  5
384
  8
0
 10
-12.75899982452393
 20
17.22500038146973
 30
58.51800155639648
 70
   192
  0
VERTEX
  5
385
  8
0
 10
-15.15900039672852
 20
13.86900043487549
 30
64.2770004272461
 70
   192
  0
VERTEX
  5
386
  8
0
 10
-12.78600025177002
 20
17.18600082397461
 30
58.58499908447266
 70
   192
  0
VERTEX
  5
387
  8
0
 10
16.93899917602539
 20
25.18400001525879
 30
8.956000328063965
 70
   192
  0
VERTEX
  5
388
  8
0
 10
12.31700038909912
 20
26.41200065612793
 30
47.14500045776367
 70
   192
  0
VERTEX
  5
389
  8
0
 10
15.82699966430664
 20
25.36800003051758
 30
48.34000015258789
 70
   192
  0
VERTEX
  5
38A
  8
0
 10
-1.39300000667572
 20
25.18400001525879
 30
8.956000328063965
 70
   192
  0
VERTEX
  5
38B
  8
0
 10
5.629000186920166
 20
26.7140007019043
 30
46.80300140380859
 70
   192
  0
VERTEX
  5
38C
  8
0
 10
11.5290002822876
 20
26.53499984741211
 30
47.00500106811523
 70
   192
  0
VERTEX
  5
38D
  8
0
 10
-0.3389999866485596
 20
25.52199935913086
 30
48.15900039672852
 70
   192
  0
VERTEX
  5
38E
  8
0
 10
-0.1650000065565109
 20
25.59700012207031
 30
48.07199859619141
 70
   192
  0
VERTEX
  5
38F
  8
0
 10
30.98299980163574
 20
13.39999961853027
 30
8.956000328063965
 70
   192
  0
VERTEX
  5
390
  8
0
 10
24.5319995880127
 20
20.91399955749512
 30
53.62699890136719
 70
   192
  0
VERTEX
  5
391
  8
0
 10
28.29199981689453
 20
17.18000030517578
 30
58.61700057983398
 70
   192
  0
VERTEX
  5
392
  8
0
 10
18.39800071716309
 20
24.60400009155273
 30
49.21500015258789
 70
   192
  0
VERTEX
  5
393
  8
0
 10
23.61000061035156
 20
21.62100028991699
 30
52.75699996948242
 70
   192
  0
VERTEX
  5
394
  8
0
 10
28.56999969482422
 20
16.90399932861328
 30
58.98600006103516
 70
   192
  0
VERTEX
  5
395
  8
0
 10
29.60600090026855
 20
15.54300022125244
 30
61.10699844360352
 70
   192
  0
VERTEX
  5
396
  8
0
 10
16.89900016784668
 20
25.04999923706055
 30
48.70500183105469
 70
   192
  0
VERTEX
  5
397
  8
0
 10
34.16600036621094
 20
-4.653999805450439
 30
118.9560012817383
 70
   192
  0
VERTEX
  5
398
  8
0
 10
31.13699913024902
 20
13.11800003051758
 30
74.5739974975586
 70
   192
  0
VERTEX
  5
399
  8
0
 10
30.96999931335449
 20
13.39299964904785
 30
75.21499633789062
 70
   192
  0
VERTEX
  5
39A
  8
0
 10
31.2140007019043
 20
12.99199962615967
 30
74.27799987792969
 70
   192
  0
VERTEX
  5
39B
  8
0
 10
31.52300071716309
 20
12.41699981689453
 30
70.36799621582031
 70
   192
  0
VERTEX
  5
39C
  8
0
 10
31.18400001525879
 20
13.04399967193604
 30
66.45899963378906
 70
   192
  0
VERTEX
  5
39D
  8
0
 10
30.96599960327148
 20
13.39000034332275
 30
65.71900177001953
 70
   192
  0
VERTEX
  5
39E
  8
0
 10
30.98299980163574
 20
13.39999961853027
 30
118.9560012817383
 70
   192
  0
VERTEX
  5
39F
  8
0
 10
19.97699928283691
 20
23.86000061035156
 30
90.83100128173828
 70
   192
  0
VERTEX
  5
3A0
  8
0
 10
16.87899971008301
 20
25.02199935913086
 30
92.1709976196289
 70
   192
  0
VERTEX
  5
3A1
  8
0
 10
26.10499954223633
 20
19.54899978637695
 30
85.55599975585938
 70
   192
  0
VERTEX
  5
3A2
  8
0
 10
22.91600036621094
 20
21.94700050354004
 30
88.51499938964844
 70
   192
  0
VERTEX
  5
3A3
  8
0
 10
27.05599975585938
 20
18.61199951171875
 30
84.32099914550781
 70
   192
  0
VERTEX
  5
3A4
  8
0
 10
21.45999908447266
 20
23.04199981689453
 30
89.86599731445312
 70
   192
  0
VERTEX
  5
3A5
  8
0
 10
30.11000061035156
 20
14.80900001525879
 30
78.5270004272461
 70
   192
  0
VERTEX
  5
3A6
  8
0
 10
16.93899917602539
 20
25.18400001525879
 30
118.9560012817383
 70
   192
  0
VERTEX
  5
3A7
  8
0
 10
8.45300006866455
 20
26.79100036621094
 30
94.19599914550781
 70
   192
  0
VERTEX
  5
3A8
  8
0
 10
7.77299976348877
 20
26.79999923706055
 30
94.20600128173828
 70
   192
  0
VERTEX
  5
3A9
  8
0
 10
14.26900005340576
 20
26.00099945068359
 30
93.30000305175781
 70
   192
  0
VERTEX
  5
3AA
  8
0
 10
6.434999942779541
 20
26.76700019836426
 30
94.16799926757812
 70
   192
  0
VERTEX
  5
3AB
  8
0
 10
0.4000000059604645
 20
25.76600074768066
 30
93.03299713134766
 70
   192
  0
VERTEX
  5
3AC
  8
0
 62
     9
 10
0.0
 20
0.0
 30
0.0
 70
   128
 71
     3
 72
     2
 73
     1
  0
VERTEX
  5
3AD
  8
0
 62
     9
 10
0.0
 20
0.0
 30
0.0
 70
   128
 71
     2
 72
     5
 73
     4
  0
VERTEX
  5
3AE
  8
0
 62
     9
 10
0.0
 20
0.0
 30
0.0
 70
   128
 71
     8
 72
     7
 73
     6
  0
VERTEX
  5
3AF
  8
0
 62
     9
 10
0.0
 20
0.0
 30
0.0
 70
   128
 71
     7
 72
     3
 73
     9
  0
VERTEX
  5
3B0
  8
0
 62
     9
 10
0.0
 20
0.0
 30
0.0
 70
   128
 71
    12
 72
    11
 73
    10
  0
VERTEX
  5
3B1
  8
0
 62
     9
 10
0.0
 20
0.0
 30
0.0
 70
   128
 71
    14
 72
    13
 73
    10
  0
VERTEX
  5
3B2
  8
0
 62
     9
 10
0.0
 20
0.0
 30
0.0
 70
   128
 71
    10
 72
    15
 73
    14
  0
VERTEX
  5
3B3
  8
0
 62
     9
 10
0.0
 20
0.0
 30
0.0
 70
   128
 71
    10
 72
    11
 73
    15
  0
VERTEX
  5
3B4
  8
0
 62
     9
 10
0.0
 20
0.0
 30
0.0
 70
   128
 71
    10
 72
    16
 73
    12
  0
VERTEX
  5
3B5
  8
0
 62
     9
 10
0.0
 20
0.0
 30
0.0
 70
   128
 71
    10
 72
    17
 73
    16
  0
VERTEX
  5
3B6
  8
0
 62
     9
 10
0.0
 20
0.0
 30
0.0
 70
   128
 71
    10
 72
    18
 73
    17
  0
VERTEX
  5
3B7
  8
0
 62
     9
 10
0.0
 20
0.0
 30
0.0
 70
   128
 71
    10
 72
    19
 73
    18
  0
VERTEX
  5
3B8
  8
0
 62
     9
 10
0.0
 20
0.0
 30
0.0
 70
   128
 71
    21
 72
    20
 73
     5
  0
VERTEX
  5
3B9
  8
0
 62
     9
 10
0.0
 20
0.0
 30
0.0
 70
   128
 71
    20
 72
    22
 73
     4
  0
VERTEX
  5
3BA
  8
0
 62
     9
 10
0.0
 20
0.0
 30
0.0
 70
   128
 71
     4
 72
     5
 73
    20
  0
VERTEX
  5
3BB
  8
0
 62
     9
 10
0.0
 20
0.0
 30
0.0
 70
   128
 71
    23
 72
    10
 73
     4
  0
VERTEX
  5
3BC
  8
0
 62
     9
 10
0.0
 20
0.0
 30
0.0
 70
   128
 71
     4
 72
    24
 73
    23
  0
VERTEX
  5
3BD
  8
0
 62
     9
 10
0.0
 20
0.0
 30
0.0
 70
   128
 71
     4
 72
    22
 73
    24
  0
VERTEX
  5
3BE
  8
0
 62
     9
 10
0.0
 20
0.0
 30
0.0
 70
   128
 71
    27
 72
    26
 73
    25
  0
VERTEX
  5
3BF
  8
0
 62
     9
 10
0.0
 20
0.0
 30
0.0
 70
   128
 71
    26
 72
    28
 73
    25
  0
VERTEX
  5
3C0
  8
0
 62
     9
 10
0.0
 20
0.0
 30
0.0
 70
   128
 71
    28
 72
    29
 73
    25
  0
VERTEX
  5
3C1
  8
0
 62
     9
 10
0.0
 20
0.0
 30
0.0
 70
   128
 71
    29
 72
    30
 73
    25
  0
VERTEX
  5
3C2
  8
0
 62
     9
 10
0.0
 20
0.0
 30
0.0
 70
   128
 71
    32
 72
    31
 73
    25
  0
VERTEX
  5
3C3
  8
0
 62
     9
 10
0.0
 20
0.0
 30
0.0
 70
   128
 71
    25
 72
    30
 73
    32
  0
VERTEX
  5
3C4
  8
0
 62
     9
 10
0.0
 20
0.0
 30
0.0
 70
   128
 71
    31
 72
    21
 73
    25
  0
VERTEX
  5
3C5
  8
0
 62
     9
 10
0.0
 20
0.0
 30
0.0
 70
   128
 71
    35
 72
    34
 73
    33
  0
VERTEX
  5
3C6
  8
0
 62
     9
 10
0.0
 20
0.0
 30
0.0
 70
   128
 71
    37
 72
    36
 73
    33
  0
VERTEX
  5
3C7
  8
0
 62
     9
 10
0.0
 20
0.0
 30
0.0
 70
   128
 71
    33
 72
    38
 73
    37
  0
VERTEX
  5
3C8
  8
0
 62
     9
 10
0.0
 20
0.0
 30
0.0
 70
   128
 71
    33
 72
    34
 73
    38
  0
VERTEX
  5
3C9
  8
0
 62
     9
 10
0.0
 20
0.0
 30
0.0
 70
   128
 71
    39
 72
    27
 73
    36
  0
VERTEX
  5
3CA
  8
0
 62
     9
 10
0.0
 20
0.0
 30
0.0
 70
   128
 71
    36
 72
    40
 73
    39
  0
VERTEX
  5
3CB
  8
0
 62
     9
 10
0.0
 20
0.0
 30
0.0
 70
   128
 71
    36
 72
    37
 73
    40
  0
VERTEX
  5
3CC
  8
0
 62
     9
 10
0.0
 20
0.0
 30
0.0
 70
   128
 71
    43
 72
    42
 73
    41
  0
VERTEX
  5
3CD
  8
0
 62
     9
 10
0.0
 20
0.0
 30
0.0
 70
   128
 71
    45
 72
    44
 73
    41
  0
VERTEX
  5
3CE
  8
0
 62
     9
 10
0.0
 20
0.0
 30
0.0
 70
   128
 71
    41
 72
    42
 73
    45
  0
VERTEX
  5
3CF
  8
0
 62
     9
 10
0.0
 20
0.0
 30
0.0
 70
   128
 71
    41
 72
    46
 73
    43
  0
VERTEX
  5
3D0
  8
0
 62
     9
 10
0.0
 20
0.0
 30
0.0
 70
   128
 71
    41
 72
    47
 73
    46
  0
VERTEX
  5
3D1
  8
0
 62
     9
 10
0.0
 20
0.0
 30
0.0
 70
   128
 71
    48
 72
    33
 73
    41
  0
VERTEX
  5
3D2
  8
0
 62
     9
 10
0.0
 20
0.0
 30
0.0
 70
   128
 71
    41
 72
    44
 73
    48
  0
VERTEX
  5
3D3
  8
0
 62
     9
 10
0.0
 20
0.0
 30
0.0
 70
   128
 71
    51
 72
    50
 73
    49
  0
VERTEX
  5
3D4
  8
0
 62
     9
 10
0.0
 20
0.0
 30
0.0
 70
   128
 71
    50
 72
    52
 73
    49
  0
VERTEX
  5
3D5
  8
0
 62
     9
 10
0.0
 20
0.0
 30
0.0
 70
   128
 71
    52
 72
    53
 73
    49
  0
VERTEX
  5
3D6
  8
0
 62
     9
 10
0.0
 20
0.0
 30
0.0
 70
   128
 71
    53
 72
    54
 73
     8
  0
VERTEX
  5
3D7
  8
0
 62
     9
 10
0.0
 20
0.0
 30
0.0
 70
   128
 71
    55
 72
    41
 73
     8
  0
VERTEX
  5
3D8
  8
0
 62
     9
 10
0.0
 20
0.0
 30
0.0
 70
   128
 71
     8
 72
    54
 73
    55
  0
VERTEX
  5
3D9
  8
0
 62
     9
 10
0.0
 20
0.0
 30
0.0
 70
   128
 71
     8
 72
    49
 73
    53
  0
VERTEX
  5
3DA
  8
0
 62
     9
 10
0.0
 20
0.0
 30
0.0
 70
   128
 71
    58
 72
    57
 73
    56
  0
VERTEX
  5
3DB
  8
0
 62
     9
 10
0.0
 20
0.0
 30
0.0
 70
   128
 71
    60
 72
    59
 73
    56
  0
VERTEX
  5
3DC
  8
0
 62
     9
 10
0.0
 20
0.0
 30
0.0
 70
   128
 71
    59
 72
    61
 73
    56
  0
VERTEX
  5
3DD
  8
0
 62
     9
 10
0.0
 20
0.0
 30
0.0
 70
   128
 71
    56
 72
    62
 73
    60
  0
VERTEX
  5
3DE
  8
0
 62
     9
 10
0.0
 20
0.0
 30
0.0
 70
   128
 71
    56
 72
    57
 73
    62
  0
VERTEX
  5
3DF
  8
0
 62
     9
 10
0.0
 20
0.0
 30
0.0
 70
   128
 71
    61
 72
    63
 73
    56
  0
VERTEX
  5
3E0
  8
0
 62
     9
 10
0.0
 20
0.0
 30
0.0
 70
   128
 71
    63
 72
    51
 73
    56
  0
VERTEX
  5
3E1
  8
0
 62
     9
 10
0.0
 20
0.0
 30
0.0
 70
   128
 71
    66
 72
    65
 73
    64
  0
VERTEX
  5
3E2
  8
0
 62
     9
 10
0.0
 20
0.0
 30
0.0
 70
   128
 71
    64
 72
    13
 73
    66
  0
VERTEX
  5
3E3
  8
0
 62
     9
 10
0.0
 20
0.0
 30
0.0
 70
   128
 71
    65
 72
    67
 73
    64
  0
VERTEX
  5
3E4
  8
0
 62
     9
 10
0.0
 20
0.0
 30
0.0
 70
   128
 71
    13
 72
    68
 73
    66
  0
VERTEX
  5
3E5
  8
0
 62
     9
 10
0.0
 20
0.0
 30
0.0
 70
   128
 71
    67
 72
    58
 73
    64
  0
VERTEX
  5
3E6
  8
0
 62
     9
 10
0.0
 20
0.0
 30
0.0
 70
   128
 71
    13
 72
    69
 73
    68
  0
VERTEX
  5
3E7
  8
0
 62
     9
 10
0.0
 20
0.0
 30
0.0
 70
   128
 71
    13
 72
    14
 73
    69
  0
VERTEX
  5
3E8
  8
0
 62
     9
 10
0.0
 20
0.0
 30
0.0
 70
   128
 71
    56
 72
    64
 73
    58
  0
VERTEX
  5
3E9
  8
0
 62
     9
 10
0.0
 20
0.0
 30
0.0
 70
   128
 71
    49
 72
    56
 73
    51
  0
VERTEX
  5
3EA
  8
0
 62
     9
 10
0.0
 20
0.0
 30
0.0
 70
   128
 71
    41
 72
    55
 73
    47
  0
VERTEX
  5
3EB
  8
0
 62
     9
 10
0.0
 20
0.0
 30
0.0
 70
   128
 71
    33
 72
    48
 73
    35
  0
VERTEX
  5
3EC
  8
0
 62
     9
 10
0.0
 20
0.0
 30
0.0
 70
   128
 71
    25
 72
    36
 73
    27
  0
VERTEX
  5
3ED
  8
0
 62
     9
 10
0.0
 20
0.0
 30
0.0
 70
   128
 71
     5
 72
    25
 73
    21
  0
VERTEX
  5
3EE
  8
0
 62
     9
 10
0.0
 20
0.0
 30
0.0
 70
   128
 71
    10
 72
    23
 73
    19
  0
VERTEX
  5
3EF
  8
0
 62
     9
 10
0.0
 20
0.0
 30
0.0
 70
   128
 71
     9
 72
     6
 73
     7
  0
VERTEX
  5
3F0
  8
0
 62
     9
 10
0.0
 20
0.0
 30
0.0
 70
   128
 71
     6
 72
    49
 73
     8
  0
VERTEX
  5
3F1
  8
0
 62
     9
 10
0.0
 20
0.0
 30
0.0
 70
   128
 71
     4
 72
     1
 73
     2
  0
VERTEX
  5
3F2
  8
0
 62
     9
 10
0.0
 20
0.0
 30
0.0
 70
   128
 71
     1
 72
     9
 73
     3
  0
SEQEND
  5
3F3
  8
0
 62
     9
  0
ENDBLK
  5
3F6
  8
0
  0
BLOCK
  8
0
  2
E3_NODE_15_
 70
     0
 10
0.0
 20
0.0
 30
0.0
  3
E3_NODE_15_
  1

  0
POLYLINE
  5
3F8
  8
0
 62
     9
 66
     1
 10
0.0
 20
0.0
 30
0.0
 70
    64
 71
    61
 72
    61
  0
VERTEX
  5
3F9
  8
0
 10
23.03899955749512
 20
58.0
 30
88.6500015258789
 70
   192
  0
VERTEX
  5
3FA
  8
0
 10
19.97699928283691
 20
23.86000061035156
 30
90.83100128173828
 70
   192
  0
VERTEX
  5
3FB
  8
0
 10
21.45999908447266
 20
23.04199981689453
 30
89.86599731445312
 70
   192
  0
VERTEX
  5
3FC
  8
0
 10
14.26900005340576
 20
26.00099945068359
 30
93.30000305175781
 70
   192
  0
VERTEX
  5
3FD
  8
0
 10
16.87899971008301
 20
25.02199935913086
 30
92.1709976196289
 70
   192
  0
VERTEX
  5
3FE
  8
0
 10
7.77299976348877
 20
58.0
 30
94.20600128173828
 70
   192
  0
VERTEX
  5
3FF
  8
0
 10
8.45300006866455
 20
26.79100036621094
 30
94.19599914550781
 70
   192
  0
VERTEX
  5
400
  8
0
 10
7.77299976348877
 20
26.79999923706055
 30
94.20600128173828
 70
   192
  0
VERTEX
  5
401
  8
0
 10
31.16200065612793
 20
58.0
 30
74.58000183105469
 70
   192
  0
VERTEX
  5
402
  8
0
 10
27.05599975585938
 20
18.61199951171875
 30
84.32099914550781
 70
   192
  0
VERTEX
  5
403
  8
0
 10
30.11000061035156
 20
14.80900001525879
 30
78.5270004272461
 70
   192
  0
VERTEX
  5
404
  8
0
 10
26.10499954223633
 20
19.54899978637695
 30
85.55599975585938
 70
   192
  0
VERTEX
  5
405
  8
0
 10
30.96999931335449
 20
13.39299964904785
 30
75.21499633789062
 70
   192
  0
VERTEX
  5
406
  8
0
 10
22.91600036621094
 20
21.94700050354004
 30
88.51499938964844
 70
   192
  0
VERTEX
  5
407
  8
0
 10
28.56999969482422
 20
16.90399932861328
 30
58.98600006103516
 70
   192
  0
VERTEX
  5
408
  8
0
 10
28.29199981689453
 20
17.18000030517578
 30
58.61700057983398
 70
   192
  0
VERTEX
  5
409
  8
0
 10
30.96599960327148
 20
13.39000034332275
 30
65.71900177001953
 70
   192
  0
VERTEX
  5
40A
  8
0
 10
29.60600090026855
 20
15.54300022125244
 30
61.10699844360352
 70
   192
  0
VERTEX
  5
40B
  8
0
 10
31.2140007019043
 20
12.99199962615967
 30
74.27799987792969
 70
   192
  0
VERTEX
  5
40C
  8
0
 10
31.52300071716309
 20
12.41699981689453
 30
70.36799621582031
 70
   192
  0
VERTEX
  5
40D
  8
0
 10
31.18400001525879
 20
13.04399967193604
 30
66.45899963378906
 70
   192
  0
VERTEX
  5
40E
  8
0
 10
31.13699913024902
 20
13.11800003051758
 30
74.5739974975586
 70
   192
  0
VERTEX
  5
40F
  8
0
 10
28.34099960327148
 20
58.0
 30
58.58100128173828
 70
   192
  0
VERTEX
  5
410
  8
0
 10
16.89900016784668
 20
25.04999923706055
 30
48.70500183105469
 70
   192
  0
VERTEX
  5
411
  8
0
 10
15.82699966430664
 20
25.36800003051758
 30
48.34000015258789
 70
   192
  0
VERTEX
  5
412
  8
0
 10
18.39800071716309
 20
24.60400009155273
 30
49.21500015258789
 70
   192
  0
VERTEX
  5
413
  8
0
 10
24.5319995880127
 20
20.91399955749512
 30
53.62699890136719
 70
   192
  0
VERTEX
  5
414
  8
0
 10
23.61000061035156
 20
21.62100028991699
 30
52.75699996948242
 70
   192
  0
VERTEX
  5
415
  8
0
 10
-0.3499999940395355
 20
58.0
 30
48.13800048828125
 70
   192
  0
VERTEX
  5
416
  8
0
 10
5.629000186920166
 20
26.7140007019043
 30
46.80300140380859
 70
   192
  0
VERTEX
  5
417
  8
0
 10
-0.1650000065565109
 20
25.59700012207031
 30
48.07199859619141
 70
   192
  0
VERTEX
  5
418
  8
0
 10
15.89599990844727
 20
58.0
 30
48.13800048828125
 70
   192
  0
VERTEX
  5
419
  8
0
 10
11.5290002822876
 20
26.53499984741211
 30
47.00500106811523
 70
   192
  0
VERTEX
  5
41A
  8
0
 10
12.31700038909912
 20
26.41200065612793
 30
47.14500045776367
 70
   192
  0
VERTEX
  5
41B
  8
0
 10
-12.79500007629395
 20
58.0
 30
58.58100128173828
 70
   192
  0
VERTEX
  5
41C
  8
0
 10
-11.47700023651123
 20
18.64599990844727
 30
56.54499816894531
 70
   192
  0
VERTEX
  5
41D
  8
0
 10
-12.75899982452393
 20
17.22500038146973
 30
58.51800155639648
 70
   192
  0
VERTEX
  5
41E
  8
0
 10
-7.045000076293945
 20
22.33099937438965
 30
51.89500045776367
 70
   192
  0
VERTEX
  5
41F
  8
0
 10
-5.447000026702881
 20
23.3120002746582
 30
50.72600173950195
 70
   192
  0
VERTEX
  5
420
  8
0
 10
-0.3389999866485596
 20
25.52199935913086
 30
48.15900039672852
 70
   192
  0
VERTEX
  5
421
  8
0
 10
-1.350000023841858
 20
25.08499908447266
 30
48.66799926757812
 70
   192
  0
VERTEX
  5
422
  8
0
 10
-15.97700023651123
 20
58.0
 30
70.45600128173828
 70
   192
  0
VERTEX
  5
423
  8
0
 10
-12.78600025177002
 20
17.18600082397461
 30
58.58499908447266
 70
   192
  0
VERTEX
  5
424
  8
0
 10
-15.15900039672852
 20
13.86900043487549
 30
64.2770004272461
 70
   192
  0
VERTEX
  5
425
  8
0
 10
-15.42800045013428
 20
13.39500045776367
 30
65.79100036621094
 70
   192
  0
VERTEX
  5
426
  8
0
 10
-15.86900043487549
 20
12.62100028991699
 30
72.71800231933594
 70
   192
  0
VERTEX
  5
427
  8
0
 10
-15.50800037384033
 20
13.24600028991699
 30
74.55899810791016
 70
   192
  0
VERTEX
  5
428
  8
0
 10
-15.88300037384033
 20
12.5939998626709
 30
68.3479995727539
 70
   192
  0
VERTEX
  5
429
  8
0
 10
-15.61600017547607
 20
58.0
 30
74.58000183105469
 70
   192
  0
VERTEX
  5
42A
  8
0
 10
-10.48600006103516
 20
19.61700057983398
 30
85.64299774169922
 70
   192
  0
VERTEX
  5
42B
  8
0
 10
-7.355000019073486
 20
21.93600082397461
 30
88.49800109863281
 70
   192
  0
VERTEX
  5
42C
  8
0
 10
-15.42300033569336
 20
13.39299964904785
 30
74.98999786376953
 70
   192
  0
VERTEX
  5
42D
  8
0
 10
-14.97200012207031
 20
14.17300033569336
 30
77.29000091552734
 70
   192
  0
VERTEX
  5
42E
  8
0
 10
-14.51700019836426
 20
14.87899971008301
 30
78.65399932861328
 70
   192
  0
VERTEX
  5
42F
  8
0
 10
-11.61299991607666
 20
18.50399971008301
 30
84.17500305175781
 70
   192
  0
VERTEX
  5
430
  8
0
 10
-7.493000030517578
 20
58.0
 30
88.6500015258789
 70
   192
  0
VERTEX
  5
431
  8
0
 10
0.4000000059604645
 20
25.76600074768066
 30
93.03299713134766
 70
   192
  0
VERTEX
  5
432
  8
0
 10
6.434999942779541
 20
26.76700019836426
 30
94.16799926757812
 70
   192
  0
VERTEX
  5
433
  8
0
 10
-5.103000164031982
 20
23.50399971008301
 30
90.41200256347656
 70
   192
  0
VERTEX
  5
434
  8
0
 10
-1.33899998664856
 20
25.05100059509277
 30
92.20500183105469
 70
   192
  0
VERTEX
  5
435
  8
0
 10
-5.664999961853027
 20
23.1870002746582
 30
90.03800201416016
 70
   192
  0
VERTEX
  5
436
  8
0
 62
     9
 10
0.0
 20
0.0
 30
0.0
 70
   128
 71
     3
 72
     2
 73
     1
  0
VERTEX
  5
437
  8
0
 62
     9
 10
0.0
 20
0.0
 30
0.0
 70
   128
 71
     5
 72
     4
 73
     1
  0
VERTEX
  5
438
  8
0
 62
     9
 10
0.0
 20
0.0
 30
0.0
 70
   128
 71
     1
 72
     2
 73
     5
  0
VERTEX
  5
439
  8
0
 62
     9
 10
0.0
 20
0.0
 30
0.0
 70
   128
 71
     4
 72
     7
 73
     6
  0
VERTEX
  5
43A
  8
0
 62
     9
 10
0.0
 20
0.0
 30
0.0
 70
   128
 71
     7
 72
     8
 73
     6
  0
VERTEX
  5
43B
  8
0
 62
     9
 10
0.0
 20
0.0
 30
0.0
 70
   128
 71
     6
 72
     1
 73
     4
  0
VERTEX
  5
43C
  8
0
 62
     9
 10
0.0
 20
0.0
 30
0.0
 70
   128
 71
    11
 72
    10
 73
     9
  0
VERTEX
  5
43D
  8
0
 62
     9
 10
0.0
 20
0.0
 30
0.0
 70
   128
 71
    10
 72
    12
 73
     9
  0
VERTEX
  5
43E
  8
0
 62
     9
 10
0.0
 20
0.0
 30
0.0
 70
   128
 71
     9
 72
    13
 73
    11
  0
VERTEX
  5
43F
  8
0
 62
     9
 10
0.0
 20
0.0
 30
0.0
 70
   128
 71
    14
 72
     1
 73
     9
  0
VERTEX
  5
440
  8
0
 62
     9
 10
0.0
 20
0.0
 30
0.0
 70
   128
 71
     9
 72
    12
 73
    14
  0
VERTEX
  5
441
  8
0
 62
     9
 10
0.0
 20
0.0
 30
0.0
 70
   128
 71
    16
 72
    15
 73
     9
  0
VERTEX
  5
442
  8
0
 62
     9
 10
0.0
 20
0.0
 30
0.0
 70
   128
 71
    18
 72
    17
 73
     9
  0
VERTEX
  5
443
  8
0
 62
     9
 10
0.0
 20
0.0
 30
0.0
 70
   128
 71
     9
 72
    15
 73
    18
  0
VERTEX
  5
444
  8
0
 62
     9
 10
0.0
 20
0.0
 30
0.0
 70
   128
 71
    20
 72
    19
 73
     9
  0
VERTEX
  5
445
  8
0
 62
     9
 10
0.0
 20
0.0
 30
0.0
 70
   128
 71
     9
 72
    21
 73
    20
  0
VERTEX
  5
446
  8
0
 62
     9
 10
0.0
 20
0.0
 30
0.0
 70
   128
 71
    19
 72
    22
 73
     9
  0
VERTEX
  5
447
  8
0
 62
     9
 10
0.0
 20
0.0
 30
0.0
 70
   128
 71
     9
 72
    17
 73
    21
  0
VERTEX
  5
448
  8
0
 62
     9
 10
0.0
 20
0.0
 30
0.0
 70
   128
 71
    25
 72
    24
 73
    23
  0
VERTEX
  5
449
  8
0
 62
     9
 10
0.0
 20
0.0
 30
0.0
 70
   128
 71
    24
 72
    26
 73
    23
  0
VERTEX
  5
44A
  8
0
 62
     9
 10
0.0
 20
0.0
 30
0.0
 70
   128
 71
    27
 72
    16
 73
    23
  0
VERTEX
  5
44B
  8
0
 62
     9
 10
0.0
 20
0.0
 30
0.0
 70
   128
 71
    23
 72
    28
 73
    27
  0
VERTEX
  5
44C
  8
0
 62
     9
 10
0.0
 20
0.0
 30
0.0
 70
   128
 71
    23
 72
    26
 73
    28
  0
VERTEX
  5
44D
  8
0
 62
     9
 10
0.0
 20
0.0
 30
0.0
 70
   128
 71
    31
 72
    30
 73
    29
  0
VERTEX
  5
44E
  8
0
 62
     9
 10
0.0
 20
0.0
 30
0.0
 70
   128
 71
    30
 72
    33
 73
    32
  0
VERTEX
  5
44F
  8
0
 62
     9
 10
0.0
 20
0.0
 30
0.0
 70
   128
 71
    33
 72
    34
 73
    32
  0
VERTEX
  5
450
  8
0
 62
     9
 10
0.0
 20
0.0
 30
0.0
 70
   128
 71
    34
 72
    25
 73
    32
  0
VERTEX
  5
451
  8
0
 62
     9
 10
0.0
 20
0.0
 30
0.0
 70
   128
 71
    32
 72
    29
 73
    30
  0
VERTEX
  5
452
  8
0
 62
     9
 10
0.0
 20
0.0
 30
0.0
 70
   128
 71
    37
 72
    36
 73
    35
  0
VERTEX
  5
453
  8
0
 62
     9
 10
0.0
 20
0.0
 30
0.0
 70
   128
 71
    36
 72
    38
 73
    35
  0
VERTEX
  5
454
  8
0
 62
     9
 10
0.0
 20
0.0
 30
0.0
 70
   128
 71
    38
 72
    39
 73
    35
  0
VERTEX
  5
455
  8
0
 62
     9
 10
0.0
 20
0.0
 30
0.0
 70
   128
 71
    40
 72
    29
 73
    35
  0
VERTEX
  5
456
  8
0
 62
     9
 10
0.0
 20
0.0
 30
0.0
 70
   128
 71
    35
 72
    41
 73
    40
  0
VERTEX
  5
457
  8
0
 62
     9
 10
0.0
 20
0.0
 30
0.0
 70
   128
 71
    35
 72
    39
 73
    41
  0
VERTEX
  5
458
  8
0
 62
     9
 10
0.0
 20
0.0
 30
0.0
 70
   128
 71
    43
 72
    35
 73
    42
  0
VERTEX
  5
459
  8
0
 62
     9
 10
0.0
 20
0.0
 30
0.0
 70
   128
 71
    42
 72
    44
 73
    43
  0
VERTEX
  5
45A
  8
0
 62
     9
 10
0.0
 20
0.0
 30
0.0
 70
   128
 71
    42
 72
    45
 73
    44
  0
VERTEX
  5
45B
  8
0
 62
     9
 10
0.0
 20
0.0
 30
0.0
 70
   128
 71
    47
 72
    46
 73
    42
  0
VERTEX
  5
45C
  8
0
 62
     9
 10
0.0
 20
0.0
 30
0.0
 70
   128
 71
    46
 72
    48
 73
    42
  0
VERTEX
  5
45D
  8
0
 62
     9
 10
0.0
 20
0.0
 30
0.0
 70
   128
 71
    42
 72
    49
 73
    47
  0
VERTEX
  5
45E
  8
0
 62
     9
 10
0.0
 20
0.0
 30
0.0
 70
   128
 71
    51
 72
    50
 73
    49
  0
VERTEX
  5
45F
  8
0
 62
     9
 10
0.0
 20
0.0
 30
0.0
 70
   128
 71
    53
 72
    52
 73
    49
  0
VERTEX
  5
460
  8
0
 62
     9
 10
0.0
 20
0.0
 30
0.0
 70
   128
 71
    49
 72
    54
 73
    53
  0
VERTEX
  5
461
  8
0
 62
     9
 10
0.0
 20
0.0
 30
0.0
 70
   128
 71
    49
 72
    55
 73
    54
  0
VERTEX
  5
462
  8
0
 62
     9
 10
0.0
 20
0.0
 30
0.0
 70
   128
 71
    52
 72
    47
 73
    49
  0
VERTEX
  5
463
  8
0
 62
     9
 10
0.0
 20
0.0
 30
0.0
 70
   128
 71
    49
 72
    50
 73
    55
  0
VERTEX
  5
464
  8
0
 62
     9
 10
0.0
 20
0.0
 30
0.0
 70
   128
 71
    58
 72
    57
 73
    56
  0
VERTEX
  5
465
  8
0
 62
     9
 10
0.0
 20
0.0
 30
0.0
 70
   128
 71
    56
 72
     6
 73
    58
  0
VERTEX
  5
466
  8
0
 62
     9
 10
0.0
 20
0.0
 30
0.0
 70
   128
 71
    60
 72
    59
 73
    56
  0
VERTEX
  5
467
  8
0
 62
     9
 10
0.0
 20
0.0
 30
0.0
 70
   128
 71
    61
 72
    51
 73
    56
  0
VERTEX
  5
468
  8
0
 62
     9
 10
0.0
 20
0.0
 30
0.0
 70
   128
 71
    56
 72
    59
 73
    61
  0
VERTEX
  5
469
  8
0
 62
     9
 10
0.0
 20
0.0
 30
0.0
 70
   128
 71
    56
 72
    57
 73
    60
  0
VERTEX
  5
46A
  8
0
 62
     9
 10
0.0
 20
0.0
 30
0.0
 70
   128
 71
     6
 72
     8
 73
    58
  0
VERTEX
  5
46B
  8
0
 62
     9
 10
0.0
 20
0.0
 30
0.0
 70
   128
 71
    49
 72
    56
 73
    51
  0
VERTEX
  5
46C
  8
0
 62
     9
 10
0.0
 20
0.0
 30
0.0
 70
   128
 71
    42
 72
    48
 73
    45
  0
VERTEX
  5
46D
  8
0
 62
     9
 10
0.0
 20
0.0
 30
0.0
 70
   128
 71
    35
 72
    43
 73
    37
  0
VERTEX
  5
46E
  8
0
 62
     9
 10
0.0
 20
0.0
 30
0.0
 70
   128
 71
    29
 72
    40
 73
    31
  0
VERTEX
  5
46F
  8
0
 62
     9
 10
0.0
 20
0.0
 30
0.0
 70
   128
 71
    23
 72
    32
 73
    25
  0
VERTEX
  5
470
  8
0
 62
     9
 10
0.0
 20
0.0
 30
0.0
 70
   128
 71
     9
 72
    23
 73
    16
  0
VERTEX
  5
471
  8
0
 62
     9
 10
0.0
 20
0.0
 30
0.0
 70
   128
 71
     9
 72
    22
 73
    13
  0
VERTEX
  5
472
  8
0
 62
     9
 10
0.0
 20
0.0
 30
0.0
 70
   128
 71
     1
 72
    14
 73
     3
  0
SEQEND
  5
473
  8
0
 62
     9
  0
ENDBLK
  5
476
  8
0
  0
BLOCK
  8
0
  2
E3_NODE_16_
 70
     0
 10
0.0
 20
0.0
 30
0.0
  3
E3_NODE_16_
  1

  0
POLYLINE
  5
478
  8
0
 62
     9
 66
     1
 10
0.0
 20
0.0
 30
0.0
 70
    64
 71
     9
 72
     7
  0
VERTEX
  5
479
  8
0
 10
34.16600036621094
 20
-4.653999805450439
 30
8.956000328063965
 70
   192
  0
VERTEX
  5
47A
  8
0
 10
-1.39300000667572
 20
25.18400001525879
 30
8.956000328063965
 70
   192
  0
VERTEX
  5
47B
  8
0
 10
16.93899917602539
 20
25.18400001525879
 30
8.956000328063965
 70
   192
  0
VERTEX
  5
47C
  8
0
 10
-18.6200008392334
 20
-4.653999805450439
 30
8.956000328063965
 70
   192
  0
VERTEX
  5
47D
  8
0
 10
25.0
 20
-20.53000068664551
 30
8.956000328063965
 70
   192
  0
VERTEX
  5
47E
  8
0
 10
-15.43599987030029
 20
13.39999961853027
 30
8.956000328063965
 70
   192
  0
VERTEX
  5
47F
  8
0
 10
7.77299976348877
 20
-26.79999923706055
 30
8.956000328063965
 70
   192
  0
VERTEX
  5
480
  8
0
 10
30.98299980163574
 20
13.39999961853027
 30
8.956000328063965
 70
   192
  0
VERTEX
  5
481
  8
0
 10
-9.454000473022461
 20
-20.53000068664551
 30
8.956000328063965
 70
   192
  0
VERTEX
  5
482
  8
0
 62
     9
 10
0.0
 20
0.0
 30
0.0
 70
   128
 71
     3
 72
     2
 73
     1
  0
VERTEX
  5
483
  8
0
 62
     9
 10
0.0
 20
0.0
 30
0.0
 70
   128
 71
     5
 72
     1
 73
     4
  0
VERTEX
  5
484
  8
0
 62
     9
 10
0.0
 20
0.0
 30
0.0
 70
   128
 71
     2
 72
     6
 73
     1
  0
VERTEX
  5
485
  8
0
 62
     9
 10
0.0
 20
0.0
 30
0.0
 70
   128
 71
     4
 72
     7
 73
     5
  0
VERTEX
  5
486
  8
0
 62
     9
 10
0.0
 20
0.0
 30
0.0
 70
   128
 71
     6
 72
     4
 73
     1
  0
VERTEX
  5
487
  8
0
 62
     9
 10
0.0
 20
0.0
 30
0.0
 70
   128
 71
     1
 72
     8
 73
     3
  0
VERTEX
  5
488
  8
0
 62
     9
 10
0.0
 20
0.0
 30
0.0
 70
   128
 71
     4
 72
     9
 73
     7
  0
SEQEND
  5
489
  8
0
 62
     9
  0
ENDBLK
  5
48C
  8
0
  0
BLOCK
  8
0
  2
E3_NODE_17_
 70
     0
 10
0.0
 20
0.0
 30
0.0
  3
E3_NODE_17_
  1

  0
POLYLINE
  5
48E
  8
0
 62
     9
 66
     1
 10
0.0
 20
0.0
 30
0.0
 70
    64
 71
    16
 72
    16
  0
VERTEX
  5
48F
  8
0
 10
229.7480010986328
 20
-5.872000217437744
 30
229.552001953125
 70
   192
  0
VERTEX
  5
490
  8
0
 10
229.5690002441406
 20
-5.706999778747559
 30
229.8110046386719
 70
   192
  0
VERTEX
  5
491
  8
0
 10
232.2760009765625
 20
0.0
 30
230.2879943847656
 70
   192
  0
VERTEX
  5
492
  8
0
 10
223.4909973144531
 20
-7.322000026702881
 30
228.4490051269531
 70
   192
  0
VERTEX
  5
493
  8
0
 10
223.4869995117188
 20
-7.117000102996826
 30
228.7380065917969
 70
   192
  0
VERTEX
  5
494
  8
0
 10
218.4730072021484
 20
-3.257999897003174
 30
227.5639953613281
 70
   192
  0
VERTEX
  5
495
  8
0
 10
218.6100006103516
 20
-3.16700005531311
 30
227.8780059814453
 70
   192
  0
VERTEX
  5
496
  8
0
 10
217.7409973144531
 20
0.0
 30
227.4349975585938
 70
   192
  0
VERTEX
  5
497
  8
0
 10
217.8979949951172
 20
0.0
 30
227.7530059814453
 70
   192
  0
VERTEX
  5
498
  8
0
 10
218.4730072021484
 20
3.257999897003174
 30
227.5639953613281
 70
   192
  0
VERTEX
  5
499
  8
0
 10
218.6100006103516
 20
3.16700005531311
 30
227.8780059814453
 70
   192
  0
VERTEX
  5
49A
  8
0
 10
223.4909973144531
 20
7.322000026702881
 30
228.4490051269531
 70
   192
  0
VERTEX
  5
49B
  8
0
 10
223.4869995117188
 20
7.117000102996826
 30
228.7380065917969
 70
   192
  0
VERTEX
  5
49C
  8
0
 10
229.7480010986328
 20
5.872000217437744
 30
229.552001953125
 70
   192
  0
VERTEX
  5
49D
  8
0
 10
229.5690002441406
 20
5.706999778747559
 30
229.8110046386719
 70
   192
  0
VERTEX
  5
49E
  8
0
 10
232.5319976806641
 20
0.0
 30
230.0429992675781
 70
   192
  0
VERTEX
  5
49F
  8
0
 62
     9
 10
0.0
 20
0.0
 30
0.0
 70
   128
 71
     3
 72
     2
 73
     1
  0
VERTEX
  5
4A0
  8
0
 62
     9
 10
0.0
 20
0.0
 30
0.0
 70
   128
 71
     2
 72
     5
 73
     4
  0
VERTEX
  5
4A1
  8
0
 62
     9
 10
0.0
 20
0.0
 30
0.0
 70
   128
 71
     5
 72
     7
 73
     6
  0
VERTEX
  5
4A2
  8
0
 62
     9
 10
0.0
 20
0.0
 30
0.0
 70
   128
 71
     9
 72
     8
 73
     6
  0
VERTEX
  5
4A3
  8
0
 62
     9
 10
0.0
 20
0.0
 30
0.0
 70
   128
 71
    11
 72
    10
 73
     8
  0
VERTEX
  5
4A4
  8
0
 62
     9
 10
0.0
 20
0.0
 30
0.0
 70
   128
 71
     8
 72
     9
 73
    11
  0
VERTEX
  5
4A5
  8
0
 62
     9
 10
0.0
 20
0.0
 30
0.0
 70
   128
 71
    13
 72
    12
 73
    10
  0
VERTEX
  5
4A6
  8
0
 62
     9
 10
0.0
 20
0.0
 30
0.0
 70
   128
 71
    15
 72
    14
 73
    12
  0
VERTEX
  5
4A7
  8
0
 62
     9
 10
0.0
 20
0.0
 30
0.0
 70
   128
 71
     3
 72
    16
 73
    14
  0
VERTEX
  5
4A8
  8
0
 62
     9
 10
0.0
 20
0.0
 30
0.0
 70
   128
 71
    14
 72
    15
 73
     3
  0
VERTEX
  5
4A9
  8
0
 62
     9
 10
0.0
 20
0.0
 30
0.0
 70
   128
 71
    12
 72
    13
 73
    15
  0
VERTEX
  5
4AA
  8
0
 62
     9
 10
0.0
 20
0.0
 30
0.0
 70
   128
 71
    10
 72
    11
 73
    13
  0
VERTEX
  5
4AB
  8
0
 62
     9
 10
0.0
 20
0.0
 30
0.0
 70
   128
 71
     6
 72
     7
 73
     9
  0
VERTEX
  5
4AC
  8
0
 62
     9
 10
0.0
 20
0.0
 30
0.0
 70
   128
 71
     6
 72
     4
 73
     5
  0
VERTEX
  5
4AD
  8
0
 62
     9
 10
0.0
 20
0.0
 30
0.0
 70
   128
 71
     4
 72
     1
 73
     2
  0
VERTEX
  5
4AE
  8
0
 62
     9
 10
0.0
 20
0.0
 30
0.0
 70
   128
 71
     1
 72
    16
 73
     3
  0
SEQEND
  5
4AF
  8
0
 62
     9
  0
ENDBLK
  5
4B2
  8
0
  0
BLOCK
  8
0
  2
E3_NODE_18_
 70
     0
 10
0.0
 20
0.0
 30
0.0
  3
E3_NODE_18_
  1

  0
POLYLINE
  5
4B4
  8
0
 62
     9
 66
     1
 10
0.0
 20
0.0
 30
0.0
 70
    64
 71
    16
 72
    16
  0
VERTEX
  5
4B5
  8
0
 10
230.1360015869141
 20
-6.297999858856201
 30
229.3070068359375
 70
   192
  0
VERTEX
  5
4B6
  8
0
 10
229.7480010986328
 20
-5.872000217437744
 30
229.552001953125
 70
   192
  0
VERTEX
  5
4B7
  8
0
 10
232.5319976806641
 20
0.0
 30
230.0429992675781
 70
   192
  0
VERTEX
  5
4B8
  8
0
 10
223.4250030517578
 20
-7.853000164031982
 30
228.1239929199219
 70
   192
  0
VERTEX
  5
4B9
  8
0
 10
223.4909973144531
 20
-7.322000026702881
 30
228.4490051269531
 70
   192
  0
VERTEX
  5
4BA
  8
0
 10
218.0429992675781
 20
-3.494999885559082
 30
227.1750030517578
 70
   192
  0
VERTEX
  5
4BB
  8
0
 10
218.4730072021484
 20
-3.257999897003174
 30
227.5639953613281
 70
   192
  0
VERTEX
  5
4BC
  8
0
 10
217.2570037841797
 20
0.0
 30
227.0359954833984
 70
   192
  0
VERTEX
  5
4BD
  8
0
 10
217.7409973144531
 20
0.0
 30
227.4349975585938
 70
   192
  0
VERTEX
  5
4BE
  8
0
 10
218.0429992675781
 20
3.494999885559082
 30
227.1750030517578
 70
   192
  0
VERTEX
  5
4BF
  8
0
 10
218.4730072021484
 20
3.257999897003174
 30
227.5639953613281
 70
   192
  0
VERTEX
  5
4C0
  8
0
 10
223.4250030517578
 20
7.853000164031982
 30
228.1239929199219
 70
   192
  0
VERTEX
  5
4C1
  8
0
 10
223.4909973144531
 20
7.322000026702881
 30
228.4490051269531
 70
   192
  0
VERTEX
  5
4C2
  8
0
 10
230.1360015869141
 20
6.297999858856201
 30
229.3070068359375
 70
   192
  0
VERTEX
  5
4C3
  8
0
 10
229.7480010986328
 20
5.872000217437744
 30
229.552001953125
 70
   192
  0
VERTEX
  5
4C4
  8
0
 10
233.1230010986328
 20
0.0
 30
229.8339996337891
 70
   192
  0
VERTEX
  5
4C5
  8
0
 62
     9
 10
0.0
 20
0.0
 30
0.0
 70
   128
 71
     3
 72
     2
 73
     1
  0
VERTEX
  5
4C6
  8
0
 62
     9
 10
0.0
 20
0.0
 30
0.0
 70
   128
 71
     2
 72
     5
 73
     4
  0
VERTEX
  5
4C7
  8
0
 62
     9
 10
0.0
 20
0.0
 30
0.0
 70
   128
 71
     5
 72
     7
 73
     6
  0
VERTEX
  5
4C8
  8
0
 62
     9
 10
0.0
 20
0.0
 30
0.0
 70
   128
 71
     9
 72
     8
 73
     6
  0
VERTEX
  5
4C9
  8
0
 62
     9
 10
0.0
 20
0.0
 30
0.0
 70
   128
 71
    11
 72
    10
 73
     8
  0
VERTEX
  5
4CA
  8
0
 62
     9
 10
0.0
 20
0.0
 30
0.0
 70
   128
 71
     8
 72
     9
 73
    11
  0
VERTEX
  5
4CB
  8
0
 62
     9
 10
0.0
 20
0.0
 30
0.0
 70
   128
 71
    13
 72
    12
 73
    10
  0
VERTEX
  5
4CC
  8
0
 62
     9
 10
0.0
 20
0.0
 30
0.0
 70
   128
 71
    15
 72
    14
 73
    12
  0
VERTEX
  5
4CD
  8
0
 62
     9
 10
0.0
 20
0.0
 30
0.0
 70
   128
 71
     3
 72
    16
 73
    14
  0
VERTEX
  5
4CE
  8
0
 62
     9
 10
0.0
 20
0.0
 30
0.0
 70
   128
 71
    14
 72
    15
 73
     3
  0
VERTEX
  5
4CF
  8
0
 62
     9
 10
0.0
 20
0.0
 30
0.0
 70
   128
 71
    12
 72
    13
 73
    15
  0
VERTEX
  5
4D0
  8
0
 62
     9
 10
0.0
 20
0.0
 30
0.0
 70
   128
 71
    10
 72
    11
 73
    13
  0
VERTEX
  5
4D1
  8
0
 62
     9
 10
0.0
 20
0.0
 30
0.0
 70
   128
 71
     6
 72
     7
 73
     9
  0
VERTEX
  5
4D2
  8
0
 62
     9
 10
0.0
 20
0.0
 30
0.0
 70
   128
 71
     6
 72
     4
 73
     5
  0
VERTEX
  5
4D3
  8
0
 62
     9
 10
0.0
 20
0.0
 30
0.0
 70
   128
 71
     4
 72
     1
 73
     2
  0
VERTEX
  5
4D4
  8
0
 62
     9
 10
0.0
 20
0.0
 30
0.0
 70
   128
 71
     1
 72
    16
 73
     3
  0
SEQEND
  5
4D5
  8
0
 62
     9
  0
ENDBLK
  5
4D8
  8
0
  0
BLOCK
  8
0
  2
E3_NODE_19_
 70
     0
 10
0.0
 20
0.0
 30
0.0
  3
E3_NODE_19_
  1

  0
POLYLINE
  5
4DA
  8
0
 62
     9
 66
     1
 10
0.0
 20
0.0
 30
0.0
 70
    64
 71
    23
 72
    23
  0
VERTEX
  5
4DB
  8
0
 10
233.1230010986328
 20
0.0
 30
229.8339996337891
 70
   192
  0
VERTEX
  5
4DC
  8
0
 10
233.7579956054688
 20
0.0
 30
229.4920043945312
 70
   192
  0
VERTEX
  5
4DD
  8
0
 10
231.27099609375
 20
-6.096000194549561
 30
229.0529937744141
 70
   192
  0
VERTEX
  5
4DE
  8
0
 10
230.1360015869141
 20
-6.297999858856201
 30
229.3070068359375
 70
   192
  0
VERTEX
  5
4DF
  8
0
 10
230.4409942626953
 20
-6.446000099182129
 30
228.9069976806641
 70
   192
  0
VERTEX
  5
4E0
  8
0
 10
225.2680053710938
 20
-8.621999740600586
 30
227.9949951171875
 70
   192
  0
VERTEX
  5
4E1
  8
0
 10
223.4250030517578
 20
-7.853000164031982
 30
228.1239929199219
 70
   192
  0
VERTEX
  5
4E2
  8
0
 10
223.5800018310547
 20
-7.912000179290771
 30
227.6970062255859
 70
   192
  0
VERTEX
  5
4E3
  8
0
 10
219.2640075683594
 20
-6.096000194549561
 30
226.9360046386719
 70
   192
  0
VERTEX
  5
4E4
  8
0
 10
218.0429992675781
 20
-3.494999885559082
 30
227.1750030517578
 70
   192
  0
VERTEX
  5
4E5
  8
0
 10
217.2570037841797
 20
0.0
 30
227.0359954833984
 70
   192
  0
VERTEX
  5
4E6
  8
0
 10
218.2030029296875
 20
-3.494999885559082
 30
226.7489929199219
 70
   192
  0
VERTEX
  5
4E7
  8
0
 10
216.7769927978516
 20
0.0
 30
226.4980010986328
 70
   192
  0
VERTEX
  5
4E8
  8
0
 10
217.4649963378906
 20
3.398999929428101
 30
226.6190032958984
 70
   192
  0
VERTEX
  5
4E9
  8
0
 10
218.0429992675781
 20
3.494999885559082
 30
227.1750030517578
 70
   192
  0
VERTEX
  5
4EA
  8
0
 10
217.6690063476562
 20
3.704999923706055
 30
226.6549987792969
 70
   192
  0
VERTEX
  5
4EB
  8
0
 10
223.4250030517578
 20
7.853000164031982
 30
228.1239929199219
 70
   192
  0
VERTEX
  5
4EC
  8
0
 10
219.2640075683594
 20
6.096000194549561
 30
226.9360046386719
 70
   192
  0
VERTEX
  5
4ED
  8
0
 10
230.1360015869141
 20
6.297999858856201
 30
229.3070068359375
 70
   192
  0
VERTEX
  5
4EE
  8
0
 10
225.2680053710938
 20
8.621999740600586
 30
227.9949951171875
 70
   192
  0
VERTEX
  5
4EF
  8
0
 10
223.5800018310547
 20
7.912000179290771
 30
227.6970062255859
 70
   192
  0
VERTEX
  5
4F0
  8
0
 10
231.27099609375
 20
6.096000194549561
 30
229.0529937744141
 70
   192
  0
VERTEX
  5
4F1
  8
0
 10
230.4409942626953
 20
6.446000099182129
 30
228.9069976806641
 70
   192
  0
VERTEX
  5
4F2
  8
0
 62
     9
 10
0.0
 20
0.0
 30
0.0
 70
   128
 71
     3
 72
     2
 73
     1
  0
VERTEX
  5
4F3
  8
0
 62
     9
 10
0.0
 20
0.0
 30
0.0
 70
   128
 71
     1
 72
     4
 73
     3
  0
VERTEX
  5
4F4
  8
0
 62
     9
 10
0.0
 20
0.0
 30
0.0
 70
   128
 71
     6
 72
     5
 73
     4
  0
VERTEX
  5
4F5
  8
0
 62
     9
 10
0.0
 20
0.0
 30
0.0
 70
   128
 71
     4
 72
     7
 73
     6
  0
VERTEX
  5
4F6
  8
0
 62
     9
 10
0.0
 20
0.0
 30
0.0
 70
   128
 71
     9
 72
     8
 73
     7
  0
VERTEX
  5
4F7
  8
0
 62
     9
 10
0.0
 20
0.0
 30
0.0
 70
   128
 71
     7
 72
    10
 73
     9
  0
VERTEX
  5
4F8
  8
0
 62
     9
 10
0.0
 20
0.0
 30
0.0
 70
   128
 71
    12
 72
    10
 73
    11
  0
VERTEX
  5
4F9
  8
0
 62
     9
 10
0.0
 20
0.0
 30
0.0
 70
   128
 71
    14
 72
    13
 73
    11
  0
VERTEX
  5
4FA
  8
0
 62
     9
 10
0.0
 20
0.0
 30
0.0
 70
   128
 71
    11
 72
    15
 73
    14
  0
VERTEX
  5
4FB
  8
0
 62
     9
 10
0.0
 20
0.0
 30
0.0
 70
   128
 71
    15
 72
    16
 73
    14
  0
VERTEX
  5
4FC
  8
0
 62
     9
 10
0.0
 20
0.0
 30
0.0
 70
   128
 71
    18
 72
    15
 73
    17
  0
VERTEX
  5
4FD
  8
0
 62
     9
 10
0.0
 20
0.0
 30
0.0
 70
   128
 71
    18
 72
    16
 73
    15
  0
VERTEX
  5
4FE
  8
0
 62
     9
 10
0.0
 20
0.0
 30
0.0
 70
   128
 71
    20
 72
    17
 73
    19
  0
VERTEX
  5
4FF
  8
0
 62
     9
 10
0.0
 20
0.0
 30
0.0
 70
   128
 71
    20
 72
    21
 73
    17
  0
VERTEX
  5
500
  8
0
 62
     9
 10
0.0
 20
0.0
 30
0.0
 70
   128
 71
    22
 72
    19
 73
     1
  0
VERTEX
  5
501
  8
0
 62
     9
 10
0.0
 20
0.0
 30
0.0
 70
   128
 71
    22
 72
    23
 73
    19
  0
VERTEX
  5
502
  8
0
 62
     9
 10
0.0
 20
0.0
 30
0.0
 70
   128
 71
     1
 72
     2
 73
    22
  0
VERTEX
  5
503
  8
0
 62
     9
 10
0.0
 20
0.0
 30
0.0
 70
   128
 71
    19
 72
    23
 73
    20
  0
VERTEX
  5
504
  8
0
 62
     9
 10
0.0
 20
0.0
 30
0.0
 70
   128
 71
    17
 72
    21
 73
    18
  0
VERTEX
  5
505
  8
0
 62
     9
 10
0.0
 20
0.0
 30
0.0
 70
   128
 71
    11
 72
    13
 73
    12
  0
VERTEX
  5
506
  8
0
 62
     9
 10
0.0
 20
0.0
 30
0.0
 70
   128
 71
    10
 72
    12
 73
     9
  0
VERTEX
  5
507
  8
0
 62
     9
 10
0.0
 20
0.0
 30
0.0
 70
   128
 71
     7
 72
     8
 73
     6
  0
VERTEX
  5
508
  8
0
 62
     9
 10
0.0
 20
0.0
 30
0.0
 70
   128
 71
     4
 72
     5
 73
     3
  0
SEQEND
  5
509
  8
0
 62
     9
  0
ENDBLK
  5
50C
  8
0
  0
BLOCK
  8
0
  2
E3_NODE_20_
 70
     0
 10
0.0
 20
0.0
 30
0.0
  3
E3_NODE_20_
  1

  0
POLYLINE
  5
50E
  8
0
 62
     9
 66
     1
 10
0.0
 20
0.0
 30
0.0
 70
    64
 71
    24
 72
    24
  0
VERTEX
  5
50F
  8
0
 10
234.75
 20
0.0
 30
229.3099975585938
 70
   192
  0
VERTEX
  5
510
  8
0
 10
231.9900054931641
 20
-6.764999866485596
 30
228.8240051269531
 70
   192
  0
VERTEX
  5
511
  8
0
 10
231.27099609375
 20
-6.096000194549561
 30
229.0529937744141
 70
   192
  0
VERTEX
  5
512
  8
0
 10
225.3289947509766
 20
-9.567000389099121
 30
227.6490020751953
 70
   192
  0
VERTEX
  5
513
  8
0
 10
225.2680053710938
 20
-8.621999740600586
 30
227.9949951171875
 70
   192
  0
VERTEX
  5
514
  8
0
 10
230.4409942626953
 20
-6.446000099182129
 30
228.9069976806641
 70
   192
  0
VERTEX
  5
515
  8
0
 10
218.6670074462891
 20
-6.764999866485596
 30
226.4739990234375
 70
   192
  0
VERTEX
  5
516
  8
0
 10
219.2640075683594
 20
-6.096000194549561
 30
226.9360046386719
 70
   192
  0
VERTEX
  5
517
  8
0
 10
223.5800018310547
 20
-7.912000179290771
 30
227.6970062255859
 70
   192
  0
VERTEX
  5
518
  8
0
 10
215.9069976806641
 20
0.0
 30
225.9880065917969
 70
   192
  0
VERTEX
  5
519
  8
0
 10
216.7769927978516
 20
0.0
 30
226.4980010986328
 70
   192
  0
VERTEX
  5
51A
  8
0
 10
218.2030029296875
 20
-3.494999885559082
 30
226.7489929199219
 70
   192
  0
VERTEX
  5
51B
  8
0
 10
216.8249969482422
 20
4.118000030517578
 30
226.1490020751953
 70
   192
  0
VERTEX
  5
51C
  8
0
 10
217.4649963378906
 20
3.398999929428101
 30
226.6190032958984
 70
   192
  0
VERTEX
  5
51D
  8
0
 10
218.6670074462891
 20
6.764999866485596
 30
226.4739990234375
 70
   192
  0
VERTEX
  5
51E
  8
0
 10
219.2640075683594
 20
6.096000194549561
 30
226.9360046386719
 70
   192
  0
VERTEX
  5
51F
  8
0
 10
217.6690063476562
 20
3.704999923706055
 30
226.6549987792969
 70
   192
  0
VERTEX
  5
520
  8
0
 10
225.3289947509766
 20
9.567000389099121
 30
227.6490020751953
 70
   192
  0
VERTEX
  5
521
  8
0
 10
223.5800018310547
 20
7.912000179290771
 30
227.6970062255859
 70
   192
  0
VERTEX
  5
522
  8
0
 10
225.2680053710938
 20
8.621999740600586
 30
227.9949951171875
 70
   192
  0
VERTEX
  5
523
  8
0
 10
231.9900054931641
 20
6.764999866485596
 30
228.8240051269531
 70
   192
  0
VERTEX
  5
524
  8
0
 10
230.4409942626953
 20
6.446000099182129
 30
228.9069976806641
 70
   192
  0
VERTEX
  5
525
  8
0
 10
231.27099609375
 20
6.096000194549561
 30
229.0529937744141
 70
   192
  0
VERTEX
  5
526
  8
0
 10
233.7579956054688
 20
0.0
 30
229.4920043945312
 70
   192
  0
VERTEX
  5
527
  8
0
 62
     9
 10
0.0
 20
0.0
 30
0.0
 70
   128
 71
     3
 72
     2
 73
     1
  0
VERTEX
  5
528
  8
0
 62
     9
 10
0.0
 20
0.0
 30
0.0
 70
   128
 71
     6
 72
     5
 73
     4
  0
VERTEX
  5
529
  8
0
 62
     9
 10
0.0
 20
0.0
 30
0.0
 70
   128
 71
     4
 72
     2
 73
     6
  0
VERTEX
  5
52A
  8
0
 62
     9
 10
0.0
 20
0.0
 30
0.0
 70
   128
 71
     9
 72
     8
 73
     7
  0
VERTEX
  5
52B
  8
0
 62
     9
 10
0.0
 20
0.0
 30
0.0
 70
   128
 71
     7
 72
     4
 73
     9
  0
VERTEX
  5
52C
  8
0
 62
     9
 10
0.0
 20
0.0
 30
0.0
 70
   128
 71
    12
 72
    11
 73
    10
  0
VERTEX
  5
52D
  8
0
 62
     9
 10
0.0
 20
0.0
 30
0.0
 70
   128
 71
    10
 72
     7
 73
    12
  0
VERTEX
  5
52E
  8
0
 62
     9
 10
0.0
 20
0.0
 30
0.0
 70
   128
 71
    14
 72
    13
 73
    10
  0
VERTEX
  5
52F
  8
0
 62
     9
 10
0.0
 20
0.0
 30
0.0
 70
   128
 71
    16
 72
    15
 73
    13
  0
VERTEX
  5
530
  8
0
 62
     9
 10
0.0
 20
0.0
 30
0.0
 70
   128
 71
    13
 72
    17
 73
    16
  0
VERTEX
  5
531
  8
0
 62
     9
 10
0.0
 20
0.0
 30
0.0
 70
   128
 71
    13
 72
    14
 73
    17
  0
VERTEX
  5
532
  8
0
 62
     9
 10
0.0
 20
0.0
 30
0.0
 70
   128
 71
    19
 72
    18
 73
    15
  0
VERTEX
  5
533
  8
0
 62
     9
 10
0.0
 20
0.0
 30
0.0
 70
   128
 71
    19
 72
    20
 73
    18
  0
VERTEX
  5
534
  8
0
 62
     9
 10
0.0
 20
0.0
 30
0.0
 70
   128
 71
    22
 72
    21
 73
    18
  0
VERTEX
  5
535
  8
0
 62
     9
 10
0.0
 20
0.0
 30
0.0
 70
   128
 71
    22
 72
    23
 73
    21
  0
VERTEX
  5
536
  8
0
 62
     9
 10
0.0
 20
0.0
 30
0.0
 70
   128
 71
    23
 72
    24
 73
     1
  0
VERTEX
  5
537
  8
0
 62
     9
 10
0.0
 20
0.0
 30
0.0
 70
   128
 71
     1
 72
    21
 73
    23
  0
VERTEX
  5
538
  8
0
 62
     9
 10
0.0
 20
0.0
 30
0.0
 70
   128
 71
    18
 72
    20
 73
    22
  0
VERTEX
  5
539
  8
0
 62
     9
 10
0.0
 20
0.0
 30
0.0
 70
   128
 71
    15
 72
    16
 73
    19
  0
VERTEX
  5
53A
  8
0
 62
     9
 10
0.0
 20
0.0
 30
0.0
 70
   128
 71
    10
 72
    11
 73
    14
  0
VERTEX
  5
53B
  8
0
 62
     9
 10
0.0
 20
0.0
 30
0.0
 70
   128
 71
     7
 72
     8
 73
    12
  0
VERTEX
  5
53C
  8
0
 62
     9
 10
0.0
 20
0.0
 30
0.0
 70
   128
 71
     4
 72
     5
 73
     9
  0
VERTEX
  5
53D
  8
0
 62
     9
 10
0.0
 20
0.0
 30
0.0
 70
   128
 71
     2
 72
     3
 73
     6
  0
VERTEX
  5
53E
  8
0
 62
     9
 10
0.0
 20
0.0
 30
0.0
 70
   128
 71
     1
 72
    24
 73
     3
  0
SEQEND
  5
53F
  8
0
 62
     9
  0
ENDBLK
  5
542
  8
0
  0
BLOCK
  8
0
  2
E3_NODE_21_
 70
     0
 10
0.0
 20
0.0
 30
0.0
  3
E3_NODE_21_
  1

  0
POLYLINE
  5
544
  8
0
 62
     9
 66
     1
 10
0.0
 20
0.0
 30
0.0
 70
    64
 71
    17
 72
    17
  0
VERTEX
  5
545
  8
0
 10
232.8470001220703
 20
-7.798999786376953
 30
229.9190063476562
 70
   192
  0
VERTEX
  5
546
  8
0
 10
231.9900054931641
 20
-6.764999866485596
 30
228.8240051269531
 70
   192
  0
VERTEX
  5
547
  8
0
 10
234.75
 20
0.0
 30
229.3099975585938
 70
   192
  0
VERTEX
  5
548
  8
0
 10
225.1670074462891
 20
-11.0290002822876
 30
228.5639953613281
 70
   192
  0
VERTEX
  5
549
  8
0
 10
225.3289947509766
 20
-9.567000389099121
 30
227.6490020751953
 70
   192
  0
VERTEX
  5
54A
  8
0
 10
217.4869995117188
 20
-7.798999786376953
 30
227.2100067138672
 70
   192
  0
VERTEX
  5
54B
  8
0
 10
218.6670074462891
 20
-6.764999866485596
 30
226.4739990234375
 70
   192
  0
VERTEX
  5
54C
  8
0
 10
214.3059997558594
 20
0.0
 30
226.6490020751953
 70
   192
  0
VERTEX
  5
54D
  8
0
 10
215.9069976806641
 20
0.0
 30
225.9880065917969
 70
   192
  0
VERTEX
  5
54E
  8
0
 10
217.4869995117188
 20
7.798999786376953
 30
227.2100067138672
 70
   192
  0
VERTEX
  5
54F
  8
0
 10
216.8249969482422
 20
4.118000030517578
 30
226.1490020751953
 70
   192
  0
VERTEX
  5
550
  8
0
 10
218.6670074462891
 20
6.764999866485596
 30
226.4739990234375
 70
   192
  0
VERTEX
  5
551
  8
0
 10
225.1670074462891
 20
11.0290002822876
 30
228.5639953613281
 70
   192
  0
VERTEX
  5
552
  8
0
 10
225.3289947509766
 20
9.567000389099121
 30
227.6490020751953
 70
   192
  0
VERTEX
  5
553
  8
0
 10
232.8470001220703
 20
7.798999786376953
 30
229.9190063476562
 70
   192
  0
VERTEX
  5
554
  8
0
 10
231.9900054931641
 20
6.764999866485596
 30
228.8240051269531
 70
   192
  0
VERTEX
  5
555
  8
0
 10
236.0290069580078
 20
0.0
 30
230.47900390625
 70
   192
  0
VERTEX
  5
556
  8
0
 62
     9
 10
0.0
 20
0.0
 30
0.0
 70
   128
 71
     3
 72
     2
 73
     1
  0
VERTEX
  5
557
  8
0
 62
     9
 10
0.0
 20
0.0
 30
0.0
 70
   128
 71
     2
 72
     5
 73
     4
  0
VERTEX
  5
558
  8
0
 62
     9
 10
0.0
 20
0.0
 30
0.0
 70
   128
 71
     5
 72
     7
 73
     6
  0
VERTEX
  5
559
  8
0
 62
     9
 10
0.0
 20
0.0
 30
0.0
 70
   128
 71
     9
 72
     8
 73
     6
  0
VERTEX
  5
55A
  8
0
 62
     9
 10
0.0
 20
0.0
 30
0.0
 70
   128
 71
    11
 72
    10
 73
     8
  0
VERTEX
  5
55B
  8
0
 62
     9
 10
0.0
 20
0.0
 30
0.0
 70
   128
 71
    11
 72
    12
 73
    10
  0
VERTEX
  5
55C
  8
0
 62
     9
 10
0.0
 20
0.0
 30
0.0
 70
   128
 71
    14
 72
    13
 73
    10
  0
VERTEX
  5
55D
  8
0
 62
     9
 10
0.0
 20
0.0
 30
0.0
 70
   128
 71
    16
 72
    15
 73
    13
  0
VERTEX
  5
55E
  8
0
 62
     9
 10
0.0
 20
0.0
 30
0.0
 70
   128
 71
     3
 72
    17
 73
    15
  0
VERTEX
  5
55F
  8
0
 62
     9
 10
0.0
 20
0.0
 30
0.0
 70
   128
 71
    15
 72
    16
 73
     3
  0
VERTEX
  5
560
  8
0
 62
     9
 10
0.0
 20
0.0
 30
0.0
 70
   128
 71
    13
 72
    14
 73
    16
  0
VERTEX
  5
561
  8
0
 62
     9
 10
0.0
 20
0.0
 30
0.0
 70
   128
 71
    10
 72
    12
 73
    14
  0
VERTEX
  5
562
  8
0
 62
     9
 10
0.0
 20
0.0
 30
0.0
 70
   128
 71
     8
 72
     9
 73
    11
  0
VERTEX
  5
563
  8
0
 62
     9
 10
0.0
 20
0.0
 30
0.0
 70
   128
 71
     6
 72
     7
 73
     9
  0
VERTEX
  5
564
  8
0
 62
     9
 10
0.0
 20
0.0
 30
0.0
 70
   128
 71
     6
 72
     4
 73
     5
  0
VERTEX
  5
565
  8
0
 62
     9
 10
0.0
 20
0.0
 30
0.0
 70
   128
 71
     4
 72
     1
 73
     2
  0
VERTEX
  5
566
  8
0
 62
     9
 10
0.0
 20
0.0
 30
0.0
 70
   128
 71
     1
 72
    17
 73
     3
  0
SEQEND
  5
567
  8
0
 62
     9
  0
ENDBLK
  5
56A
  8
0
  0
BLOCK
  8
0
  2
E3_NODE_22_
 70
     0
 10
0.0
 20
0.0
 30
0.0
  3
E3_NODE_22_
  1

  0
POLYLINE
  5
56C
  8
0
 62
     9
 66
     1
 10
0.0
 20
0.0
 30
0.0
 70
    64
 71
    16
 72
    16
  0
VERTEX
  5
56D
  8
0
 10
236.0709991455078
 20
0.0
 30
230.8370056152344
 70
   192
  0
VERTEX
  5
56E
  8
0
 10
232.8600006103516
 20
-7.872000217437744
 30
230.27099609375
 70
   192
  0
VERTEX
  5
56F
  8
0
 10
232.8470001220703
 20
-7.798999786376953
 30
229.9190063476562
 70
   192
  0
VERTEX
  5
570
  8
0
 10
225.1069946289062
 20
-11.13300037384033
 30
228.9040069580078
 70
   192
  0
VERTEX
  5
571
  8
0
 10
225.1670074462891
 20
-11.0290002822876
 30
228.5639953613281
 70
   192
  0
VERTEX
  5
572
  8
0
 10
217.35400390625
 20
-7.872000217437744
 30
227.5370025634766
 70
   192
  0
VERTEX
  5
573
  8
0
 10
217.4869995117188
 20
-7.798999786376953
 30
227.2100067138672
 70
   192
  0
VERTEX
  5
574
  8
0
 10
214.1430053710938
 20
0.0
 30
226.9709930419922
 70
   192
  0
VERTEX
  5
575
  8
0
 10
214.3059997558594
 20
0.0
 30
226.6490020751953
 70
   192
  0
VERTEX
  5
576
  8
0
 10
217.35400390625
 20
7.872000217437744
 30
227.5370025634766
 70
   192
  0
VERTEX
  5
577
  8
0
 10
217.4869995117188
 20
7.798999786376953
 30
227.2100067138672
 70
   192
  0
VERTEX
  5
578
  8
0
 10
225.1069946289062
 20
11.13300037384033
 30
228.9040069580078
 70
   192
  0
VERTEX
  5
579
  8
0
 10
225.1670074462891
 20
11.0290002822876
 30
228.5639953613281
 70
   192
  0
VERTEX
  5
57A
  8
0
 10
232.8600006103516
 20
7.872000217437744
 30
230.27099609375
 70
   192
  0
VERTEX
  5
57B
  8
0
 10
232.8470001220703
 20
7.798999786376953
 30
229.9190063476562
 70
   192
  0
VERTEX
  5
57C
  8
0
 10
236.0290069580078
 20
0.0
 30
230.47900390625
 70
   192
  0
VERTEX
  5
57D
  8
0
 62
     9
 10
0.0
 20
0.0
 30
0.0
 70
   128
 71
     3
 72
     2
 73
     1
  0
VERTEX
  5
57E
  8
0
 62
     9
 10
0.0
 20
0.0
 30
0.0
 70
   128
 71
     5
 72
     4
 73
     2
  0
VERTEX
  5
57F
  8
0
 62
     9
 10
0.0
 20
0.0
 30
0.0
 70
   128
 71
     7
 72
     6
 73
     4
  0
VERTEX
  5
580
  8
0
 62
     9
 10
0.0
 20
0.0
 30
0.0
 70
   128
 71
     7
 72
     9
 73
     8
  0
VERTEX
  5
581
  8
0
 62
     9
 10
0.0
 20
0.0
 30
0.0
 70
   128
 71
    11
 72
    10
 73
     8
  0
VERTEX
  5
582
  8
0
 62
     9
 10
0.0
 20
0.0
 30
0.0
 70
   128
 71
    11
 72
    13
 73
    12
  0
VERTEX
  5
583
  8
0
 62
     9
 10
0.0
 20
0.0
 30
0.0
 70
   128
 71
    15
 72
    14
 73
    12
  0
VERTEX
  5
584
  8
0
 62
     9
 10
0.0
 20
0.0
 30
0.0
 70
   128
 71
    16
 72
     1
 73
    14
  0
VERTEX
  5
585
  8
0
 62
     9
 10
0.0
 20
0.0
 30
0.0
 70
   128
 71
    14
 72
    15
 73
    16
  0
VERTEX
  5
586
  8
0
 62
     9
 10
0.0
 20
0.0
 30
0.0
 70
   128
 71
    12
 72
    13
 73
    15
  0
VERTEX
  5
587
  8
0
 62
     9
 10
0.0
 20
0.0
 30
0.0
 70
   128
 71
    12
 72
    10
 73
    11
  0
VERTEX
  5
588
  8
0
 62
     9
 10
0.0
 20
0.0
 30
0.0
 70
   128
 71
     8
 72
     9
 73
    11
  0
VERTEX
  5
589
  8
0
 62
     9
 10
0.0
 20
0.0
 30
0.0
 70
   128
 71
     8
 72
     6
 73
     7
  0
VERTEX
  5
58A
  8
0
 62
     9
 10
0.0
 20
0.0
 30
0.0
 70
   128
 71
     4
 72
     5
 73
     7
  0
VERTEX
  5
58B
  8
0
 62
     9
 10
0.0
 20
0.0
 30
0.0
 70
   128
 71
     2
 72
     3
 73
     5
  0
VERTEX
  5
58C
  8
0
 62
     9
 10
0.0
 20
0.0
 30
0.0
 70
   128
 71
     1
 72
    16
 73
     3
  0
SEQEND
  5
58D
  8
0
 62
     9
  0
ENDBLK
  5
590
  8
0
  0
BLOCK
  8
0
  2
E3_NODE_23_
 70
     0
 10
0.0
 20
0.0
 30
0.0
  3
E3_NODE_23_
  1

  0
POLYLINE
  5
592
  8
0
 62
     9
 66
     1
 10
0.0
 20
0.0
 30
0.0
 70
    64
 71
     4
 72
     2
  0
VERTEX
  5
593
  8
0
 10
22.47599983215332
 20
88.57599639892578
 30
153.8309936523438
 70
   192
  0
VERTEX
  5
594
  8
0
 10
17.55200004577637
 20
83.57599639892578
 30
154.6990051269531
 70
   192
  0
VERTEX
  5
595
  8
0
 10
22.47599983215332
 20
78.57599639892578
 30
153.8309936523438
 70
   192
  0
VERTEX
  5
596
  8
0
 10
27.39999961853027
 20
83.57599639892578
 30
152.9629974365234
 70
   192
  0
VERTEX
  5
597
  8
0
 62
     9
 10
0.0
 20
0.0
 30
0.0
 70
   128
 71
     3
 72
     2
 73
     1
  0
VERTEX
  5
598
  8
0
 62
     9
 10
0.0
 20
0.0
 30
0.0
 70
   128
 71
     1
 72
     4
 73
     3
  0
SEQEND
  5
599
  8
0
 62
     9
  0
ENDBLK
  5
59C
  8
0
  0
BLOCK
  8
0
  2
E3_NODE_24_
 70
     0
 10
0.0
 20
0.0
 30
0.0
  3
E3_NODE_24_
  1

  0
POLYLINE
  5
59E
  8
0
 62
     9
 66
     1
 10
0.0
 20
0.0
 30
0.0
 70
    64
 71
    19
 72
    20
  0
VERTEX
  5
59F
  8
0
 10
17.55200004577637
 20
83.57599639892578
 30
154.6990051269531
 70
   192
  0
VERTEX
  5
5A0
  8
0
 10
7.861000061035156
 20
80.87000274658203
 30
95.15799713134766
 70
   192
  0
VERTEX
  5
5A1
  8
0
 10
12.06599998474121
 20
78.57599639892578
 30
94.8030014038086
 70
   192
  0
VERTEX
  5
5A2
  8
0
 10
7.047999858856201
 20
83.57099914550781
 30
95.1240005493164
 70
   192
  0
VERTEX
  5
5A3
  8
0
 10
7.185999870300293
 20
82.4280014038086
 30
95.13800048828125
 70
   192
  0
VERTEX
  5
5A4
  8
0
 10
7.047999858856201
 20
83.57599639892578
 30
95.1240005493164
 70
   192
  0
VERTEX
  5
5A5
  8
0
 10
22.47599983215332
 20
78.57599639892578
 30
153.8309936523438
 70
   192
  0
VERTEX
  5
5A6
  8
0
 10
27.39999961853027
 20
83.57599639892578
 30
152.9629974365234
 70
   192
  0
VERTEX
  5
5A7
  8
0
 10
12.06799983978271
 20
78.5770034790039
 30
94.8030014038086
 70
   192
  0
VERTEX
  5
5A8
  8
0
 10
16.14500045776367
 20
80.8740005493164
 30
93.6969985961914
 70
   192
  0
VERTEX
  5
5A9
  8
0
 10
16.44700050354004
 20
85.68900299072266
 30
93.54100036621094
 70
   192
  0
VERTEX
  5
5AA
  8
0
 10
12.67300033569336
 20
88.53600311279297
 30
94.5999984741211
 70
   192
  0
VERTEX
  5
5AB
  8
0
 10
16.3169994354248
 20
83.61699676513672
 30
93.60800170898438
 70
   192
  0
VERTEX
  5
5AC
  8
0
 10
22.47599983215332
 20
88.57599639892578
 30
153.8309936523438
 70
   192
  0
VERTEX
  5
5AD
  8
0
 10
7.839000225067139
 20
86.26000213623047
 30
95.11199951171875
 70
   192
  0
VERTEX
  5
5AE
  8
0
 10
8.529999732971191
 20
87.11100006103516
 30
95.10099792480469
 70
   192
  0
VERTEX
  5
5AF
  8
0
 10
12.05099964141846
 20
88.57599639892578
 30
94.71800231933594
 70
   192
  0
VERTEX
  5
5B0
  8
0
 10
7.177000045776367
 20
84.7020034790039
 30
95.11799621582031
 70
   192
  0
VERTEX
  5
5B1
  8
0
 10
12.05300045013428
 20
88.57599639892578
 30
94.71800231933594
 70
   192
  0
VERTEX
  5
5B2
  8
0
 62
     9
 10
0.0
 20
0.0
 30
0.0
 70
   128
 71
     3
 72
     2
 73
     1
  0
VERTEX
  5
5B3
  8
0
 62
     9
 10
0.0
 20
0.0
 30
0.0
 70
   128
 71
     5
 72
     4
 73
     1
  0
VERTEX
  5
5B4
  8
0
 62
     9
 10
0.0
 20
0.0
 30
0.0
 70
   128
 71
     4
 72
     6
 73
     1
  0
VERTEX
  5
5B5
  8
0
 62
     9
 10
0.0
 20
0.0
 30
0.0
 70
   128
 71
     1
 72
     2
 73
     5
  0
VERTEX
  5
5B6
  8
0
 62
     9
 10
0.0
 20
0.0
 30
0.0
 70
   128
 71
     1
 72
     7
 73
     3
  0
VERTEX
  5
5B7
  8
0
 62
     9
 10
0.0
 20
0.0
 30
0.0
 70
   128
 71
     9
 72
     7
 73
     8
  0
VERTEX
  5
5B8
  8
0
 62
     9
 10
0.0
 20
0.0
 30
0.0
 70
   128
 71
     8
 72
    10
 73
     9
  0
VERTEX
  5
5B9
  8
0
 62
     9
 10
0.0
 20
0.0
 30
0.0
 70
   128
 71
    12
 72
    11
 73
     8
  0
VERTEX
  5
5BA
  8
0
 62
     9
 10
0.0
 20
0.0
 30
0.0
 70
   128
 71
    11
 72
    13
 73
     8
  0
VERTEX
  5
5BB
  8
0
 62
     9
 10
0.0
 20
0.0
 30
0.0
 70
   128
 71
     8
 72
    14
 73
    12
  0
VERTEX
  5
5BC
  8
0
 62
     9
 10
0.0
 20
0.0
 30
0.0
 70
   128
 71
    16
 72
     6
 73
    15
  0
VERTEX
  5
5BD
  8
0
 62
     9
 10
0.0
 20
0.0
 30
0.0
 70
   128
 71
    15
 72
    17
 73
    16
  0
VERTEX
  5
5BE
  8
0
 62
     9
 10
0.0
 20
0.0
 30
0.0
 70
   128
 71
     6
 72
    18
 73
    15
  0
VERTEX
  5
5BF
  8
0
 62
     9
 10
0.0
 20
0.0
 30
0.0
 70
   128
 71
    16
 72
    17
 73
     1
  0
VERTEX
  5
5C0
  8
0
 62
     9
 10
0.0
 20
0.0
 30
0.0
 70
   128
 71
    17
 72
    19
 73
    14
  0
VERTEX
  5
5C1
  8
0
 62
     9
 10
0.0
 20
0.0
 30
0.0
 70
   128
 71
    14
 72
     1
 73
    17
  0
VERTEX
  5
5C2
  8
0
 62
     9
 10
0.0
 20
0.0
 30
0.0
 70
   128
 71
     1
 72
     6
 73
    16
  0
VERTEX
  5
5C3
  8
0
 62
     9
 10
0.0
 20
0.0
 30
0.0
 70
   128
 71
    14
 72
    19
 73
    12
  0
VERTEX
  5
5C4
  8
0
 62
     9
 10
0.0
 20
0.0
 30
0.0
 70
   128
 71
     8
 72
    13
 73
    10
  0
VERTEX
  5
5C5
  8
0
 62
     9
 10
0.0
 20
0.0
 30
0.0
 70
   128
 71
     7
 72
     9
 73
     3
  0
SEQEND
  5
5C6
  8
0
 62
     9
  0
ENDBLK
  5
5C9
  8
0
  0
BLOCK
  8
0
  2
E3_NODE_25_
 70
     0
 10
0.0
 20
0.0
 30
0.0
  3
E3_NODE_25_
  1

  0
POLYLINE
  5
5CB
  8
0
 62
     9
 66
     1
 10
0.0
 20
0.0
 30
0.0
 70
    64
 71
    74
 72
    79
  0
VERTEX
  5
5CC
  8
0
 10
28.76000022888184
 20
72.41300201416016
 30
57.37900161743164
 70
   192
  0
VERTEX
  5
5CD
  8
0
 10
30.70899963378906
 20
58.24399948120117
 30
60.91999816894531
 70
   192
  0
VERTEX
  5
5CE
  8
0
 10
30.12899971008301
 20
58.24399948120117
 30
59.63600158691406
 70
   192
  0
VERTEX
  5
5CF
  8
0
 10
32.16799926757812
 20
73.60399627685547
 30
66.39600372314453
 70
   192
  0
VERTEX
  5
5D0
  8
0
 10
32.15299987792969
 20
58.24399948120117
 30
66.45099639892578
 70
   192
  0
VERTEX
  5
5D1
  8
0
 10
31.86899948120117
 20
74.7979965209961
 30
76.03600311279297
 70
   192
  0
VERTEX
  5
5D2
  8
0
 10
27.8799991607666
 20
75.8219985961914
 30
84.86299896240234
 70
   192
  0
VERTEX
  5
5D3
  8
0
 10
28.84000015258789
 20
58.24399948120117
 30
83.6969985961914
 70
   192
  0
VERTEX
  5
5D4
  8
0
 10
31.67399978637695
 20
58.24399948120117
 30
77.33699798583984
 70
   192
  0
VERTEX
  5
5D5
  8
0
 10
27.90500068664551
 20
58.24399948120117
 30
85.02799987792969
 70
   192
  0
VERTEX
  5
5D6
  8
0
 10
28.0669994354248
 20
58.24399948120117
 30
84.85700225830078
 70
   192
  0
VERTEX
  5
5D7
  8
0
 10
20.77899932861328
 20
76.51000213623047
 30
91.4990005493164
 70
   192
  0
VERTEX
  5
5D8
  8
0
 10
23.29199981689453
 20
58.24399948120117
 30
89.91999816894531
 70
   192
  0
VERTEX
  5
5D9
  8
0
 10
20.71100044250488
 20
58.24399948120117
 30
91.51799774169922
 70
   192
  0
VERTEX
  5
5DA
  8
0
 10
22.17399978637695
 20
58.24399948120117
 30
90.76200103759766
 70
   192
  0
VERTEX
  5
5DB
  8
0
 10
32.5880012512207
 20
58.24399948120117
 30
69.04299926757812
 70
   192
  0
VERTEX
  5
5DC
  8
0
 10
32.46799850463867
 20
58.24399948120117
 30
67.65599822998047
 70
   192
  0
VERTEX
  5
5DD
  8
0
 10
32.02000045776367
 20
58.24399948120117
 30
75.98200225830078
 70
   192
  0
VERTEX
  5
5DE
  8
0
 10
13.25399971008301
 20
70.70500183105469
 30
46.3489990234375
 70
   192
  0
VERTEX
  5
5DF
  8
0
 10
22.13400077819824
 20
71.39399719238281
 30
50.33100128173828
 70
   192
  0
VERTEX
  5
5E0
  8
0
 10
18.44799995422363
 20
58.24399948120117
 30
48.06000137329102
 70
   192
  0
VERTEX
  5
5E1
  8
0
 10
21.9950008392334
 20
58.24399948120117
 30
50.40999984741211
 70
   192
  0
VERTEX
  5
5E2
  8
0
 10
19.70100021362305
 20
58.24399948120117
 30
48.69900131225586
 70
   192
  0
VERTEX
  5
5E3
  8
0
 10
26.23999977111816
 20
58.24399948120117
 30
53.86700057983398
 70
   192
  0
VERTEX
  5
5E4
  8
0
 10
28.63699913024902
 20
58.24399948120117
 30
57.42399978637695
 70
   192
  0
VERTEX
  5
5E5
  8
0
 10
25.2810001373291
 20
58.24399948120117
 30
52.86100006103516
 70
   192
  0
VERTEX
  5
5E6
  8
0
 10
12.06900024414062
 20
76.73899841308594
 30
94.81900024414062
 70
   192
  0
VERTEX
  5
5E7
  8
0
 10
15.98900032043457
 20
58.24399948120117
 30
93.95899963378906
 70
   192
  0
VERTEX
  5
5E8
  8
0
 10
14.65799999237061
 20
58.24399948120117
 30
94.38300323486328
 70
   192
  0
VERTEX
  5
5E9
  8
0
 10
12.09700012207031
 20
58.24399948120117
 30
94.97599792480469
 70
   192
  0
VERTEX
  5
5EA
  8
0
 10
3.480000019073486
 20
70.45999908447266
 30
46.11000061035156
 70
   192
  0
VERTEX
  5
5EB
  8
0
 10
10.42700004577637
 20
58.24399948120117
 30
45.79499816894531
 70
   192
  0
VERTEX
  5
5EC
  8
0
 10
13.17500019073486
 20
58.24399948120117
 30
46.40999984741211
 70
   192
  0
VERTEX
  5
5ED
  8
0
 10
11.8100004196167
 20
58.24399948120117
 30
45.98300170898438
 70
   192
  0
VERTEX
  5
5EE
  8
0
 10
3.466000080108643
 20
58.24399948120117
 30
46.03099822998047
 70
   192
  0
VERTEX
  5
5EF
  8
0
 10
9.357999801635742
 20
82.70500183105469
 30
45.86600112915039
 70
   192
  0
VERTEX
  5
5F0
  8
0
 10
12.9709997177124
 20
83.04499816894531
 30
46.61199951171875
 70
   192
  0
VERTEX
  5
5F1
  8
0
 10
3.49399995803833
 20
82.52999877929688
 30
46.1879997253418
 70
   192
  0
VERTEX
  5
5F2
  8
0
 10
8.133000373840332
 20
82.63999938964844
 30
45.81700134277344
 70
   192
  0
VERTEX
  5
5F3
  8
0
 10
17.13599967956543
 20
83.48600006103516
 30
47.66699981689453
 70
   192
  0
VERTEX
  5
5F4
  8
0
 10
21.99300003051758
 20
84.4000015258789
 30
50.51300048828125
 70
   192
  0
VERTEX
  5
5F5
  8
0
 10
16.04199981689453
 20
83.33499908447266
 30
47.24599838256836
 70
   192
  0
VERTEX
  5
5F6
  8
0
 10
13.23299980163574
 20
83.06999969482422
 30
46.66600036621094
 70
   192
  0
VERTEX
  5
5F7
  8
0
 10
23.04299926757812
 20
84.5979995727539
 30
51.12799835205078
 70
   192
  0
VERTEX
  5
5F8
  8
0
 10
24.01700019836426
 20
84.83999633789062
 30
51.93999862670898
 70
   192
  0
VERTEX
  5
5F9
  8
0
 10
22.06100082397461
 20
84.41300201416016
 30
50.55300140380859
 70
   192
  0
VERTEX
  5
5FA
  8
0
 10
28.49699974060059
 20
86.3290023803711
 30
57.15700149536133
 70
   192
  0
VERTEX
  5
5FB
  8
0
 10
29.22699928283691
 20
86.66300201416016
 30
58.37300109863281
 70
   192
  0
VERTEX
  5
5FC
  8
0
 10
28.68400001525879
 20
86.41400146484375
 30
57.46799850463867
 70
   192
  0
VERTEX
  5
5FD
  8
0
 10
28.70999908447266
 20
86.4260025024414
 30
57.51200103759766
 70
   192
  0
VERTEX
  5
5FE
  8
0
 10
31.73100090026855
 20
88.375
 30
64.80999755859375
 70
   192
  0
VERTEX
  5
5FF
  8
0
 10
32.04000091552734
 20
88.77200317382812
 30
66.34700012207031
 70
   192
  0
VERTEX
  5
600
  8
0
 10
32.21500015258789
 20
90.51200103759766
 30
73.27200317382812
 70
   192
  0
VERTEX
  5
601
  8
0
 10
31.9640007019043
 20
90.91699981689453
 30
74.93399810791016
 70
   192
  0
VERTEX
  5
602
  8
0
 10
29.76199913024902
 20
92.46399688720703
 30
81.47200012207031
 70
   192
  0
VERTEX
  5
603
  8
0
 10
28.96699905395508
 20
92.7959976196289
 30
82.92900085449219
 70
   192
  0
VERTEX
  5
604
  8
0
 10
31.59499931335449
 20
91.1760025024414
 30
76.02799987792969
 70
   192
  0
VERTEX
  5
605
  8
0
 10
31.64900016784668
 20
91.13800048828125
 30
75.86699676513672
 70
   192
  0
VERTEX
  5
606
  8
0
 10
27.58300018310547
 20
93.1729965209961
 30
84.66400146484375
 70
   192
  0
VERTEX
  5
607
  8
0
 10
24.6830005645752
 20
93.96299743652344
 30
88.3030014038086
 70
   192
  0
VERTEX
  5
608
  8
0
 10
23.53000068664551
 20
94.16999816894531
 30
89.3270034790039
 70
   192
  0
VERTEX
  5
609
  8
0
 10
27.66900062561035
 20
93.14900207519531
 30
84.55599975585938
 70
   192
  0
VERTEX
  5
60A
  8
0
 10
16.14500045776367
 20
80.8740005493164
 30
93.6969985961914
 70
   192
  0
VERTEX
  5
60B
  8
0
 10
12.06799983978271
 20
78.5770034790039
 30
94.8030014038086
 70
   192
  0
VERTEX
  5
60C
  8
0
 10
20.63500022888184
 20
94.49600219726562
 30
91.1259994506836
 70
   192
  0
VERTEX
  5
60D
  8
0
 10
16.44700050354004
 20
85.68900299072266
 30
93.54100036621094
 70
   192
  0
VERTEX
  5
60E
  8
0
 10
16.3169994354248
 20
83.61699676513672
 30
93.60800170898438
 70
   192
  0
VERTEX
  5
60F
  8
0
 10
20.55999946594238
 20
94.50399780273438
 30
91.1729965209961
 70
   192
  0
VERTEX
  5
610
  8
0
 10
17.72699928283691
 20
94.822998046875
 30
92.93199920654297
 70
   192
  0
VERTEX
  5
611
  8
0
 10
12.04100036621094
 20
95.00800323486328
 30
94.66300201416016
 70
   192
  0
VERTEX
  5
612
  8
0
 10
12.05099964141846
 20
88.57599639892578
 30
94.71800231933594
 70
   192
  0
VERTEX
  5
613
  8
0
 10
12.05300045013428
 20
88.57599639892578
 30
94.71800231933594
 70
   192
  0
VERTEX
  5
614
  8
0
 10
12.67300033569336
 20
88.53600311279297
 30
94.5999984741211
 70
   192
  0
VERTEX
  5
615
  8
0
 10
12.06599998474121
 20
78.57599639892578
 30
94.8030014038086
 70
   192
  0
VERTEX
  5
616
  8
0
 62
     9
 10
0.0
 20
0.0
 30
0.0
 70
   128
 71
     3
 72
     2
 73
     1
  0
VERTEX
  5
617
  8
0
 62
     9
 10
0.0
 20
0.0
 30
0.0
 70
   128
 71
     2
 72
     5
 73
     4
  0
VERTEX
  5
618
  8
0
 62
     9
 10
0.0
 20
0.0
 30
0.0
 70
   128
 71
     4
 72
     1
 73
     2
  0
VERTEX
  5
619
  8
0
 62
     9
 10
0.0
 20
0.0
 30
0.0
 70
   128
 71
     8
 72
     7
 73
     6
  0
VERTEX
  5
61A
  8
0
 62
     9
 10
0.0
 20
0.0
 30
0.0
 70
   128
 71
     6
 72
     9
 73
     8
  0
VERTEX
  5
61B
  8
0
 62
     9
 10
0.0
 20
0.0
 30
0.0
 70
   128
 71
    11
 72
    10
 73
     7
  0
VERTEX
  5
61C
  8
0
 62
     9
 10
0.0
 20
0.0
 30
0.0
 70
   128
 71
     7
 72
     8
 73
    11
  0
VERTEX
  5
61D
  8
0
 62
     9
 10
0.0
 20
0.0
 30
0.0
 70
   128
 71
    13
 72
    12
 73
     7
  0
VERTEX
  5
61E
  8
0
 62
     9
 10
0.0
 20
0.0
 30
0.0
 70
   128
 71
    15
 72
    14
 73
    12
  0
VERTEX
  5
61F
  8
0
 62
     9
 10
0.0
 20
0.0
 30
0.0
 70
   128
 71
    12
 72
    13
 73
    15
  0
VERTEX
  5
620
  8
0
 62
     9
 10
0.0
 20
0.0
 30
0.0
 70
   128
 71
    17
 72
    16
 73
     4
  0
VERTEX
  5
621
  8
0
 62
     9
 10
0.0
 20
0.0
 30
0.0
 70
   128
 71
    16
 72
    18
 73
     6
  0
VERTEX
  5
622
  8
0
 62
     9
 10
0.0
 20
0.0
 30
0.0
 70
   128
 71
     6
 72
     4
 73
    16
  0
VERTEX
  5
623
  8
0
 62
     9
 10
0.0
 20
0.0
 30
0.0
 70
   128
 71
    21
 72
    20
 73
    19
  0
VERTEX
  5
624
  8
0
 62
     9
 10
0.0
 20
0.0
 30
0.0
 70
   128
 71
    23
 72
    22
 73
    20
  0
VERTEX
  5
625
  8
0
 62
     9
 10
0.0
 20
0.0
 30
0.0
 70
   128
 71
    20
 72
    21
 73
    23
  0
VERTEX
  5
626
  8
0
 62
     9
 10
0.0
 20
0.0
 30
0.0
 70
   128
 71
    24
 72
     1
 73
    20
  0
VERTEX
  5
627
  8
0
 62
     9
 10
0.0
 20
0.0
 30
0.0
 70
   128
 71
    24
 72
    25
 73
     1
  0
VERTEX
  5
628
  8
0
 62
     9
 10
0.0
 20
0.0
 30
0.0
 70
   128
 71
    20
 72
    26
 73
    24
  0
VERTEX
  5
629
  8
0
 62
     9
 10
0.0
 20
0.0
 30
0.0
 70
   128
 71
    28
 72
    27
 73
    12
  0
VERTEX
  5
62A
  8
0
 62
     9
 10
0.0
 20
0.0
 30
0.0
 70
   128
 71
    28
 72
    29
 73
    27
  0
VERTEX
  5
62B
  8
0
 62
     9
 10
0.0
 20
0.0
 30
0.0
 70
   128
 71
    12
 72
    14
 73
    28
  0
VERTEX
  5
62C
  8
0
 62
     9
 10
0.0
 20
0.0
 30
0.0
 70
   128
 71
    29
 72
    30
 73
    27
  0
VERTEX
  5
62D
  8
0
 62
     9
 10
0.0
 20
0.0
 30
0.0
 70
   128
 71
    32
 72
    19
 73
    31
  0
VERTEX
  5
62E
  8
0
 62
     9
 10
0.0
 20
0.0
 30
0.0
 70
   128
 71
    34
 72
    33
 73
    19
  0
VERTEX
  5
62F
  8
0
 62
     9
 10
0.0
 20
0.0
 30
0.0
 70
   128
 71
    19
 72
    32
 73
    34
  0
VERTEX
  5
630
  8
0
 62
     9
 10
0.0
 20
0.0
 30
0.0
 70
   128
 71
    31
 72
    35
 73
    32
  0
VERTEX
  5
631
  8
0
 62
     9
 10
0.0
 20
0.0
 30
0.0
 70
   128
 71
    37
 72
    36
 73
    19
  0
VERTEX
  5
632
  8
0
 62
     9
 10
0.0
 20
0.0
 30
0.0
 70
   128
 71
    39
 72
    38
 73
    31
  0
VERTEX
  5
633
  8
0
 62
     9
 10
0.0
 20
0.0
 30
0.0
 70
   128
 71
    31
 72
    19
 73
    39
  0
VERTEX
  5
634
  8
0
 62
     9
 10
0.0
 20
0.0
 30
0.0
 70
   128
 71
    19
 72
    36
 73
    39
  0
VERTEX
  5
635
  8
0
 62
     9
 10
0.0
 20
0.0
 30
0.0
 70
   128
 71
    41
 72
    40
 73
    20
  0
VERTEX
  5
636
  8
0
 62
     9
 10
0.0
 20
0.0
 30
0.0
 70
   128
 71
    42
 72
    19
 73
    20
  0
VERTEX
  5
637
  8
0
 62
     9
 10
0.0
 20
0.0
 30
0.0
 70
   128
 71
    20
 72
    40
 73
    42
  0
VERTEX
  5
638
  8
0
 62
     9
 10
0.0
 20
0.0
 30
0.0
 70
   128
 71
    42
 72
    43
 73
    19
  0
VERTEX
  5
639
  8
0
 62
     9
 10
0.0
 20
0.0
 30
0.0
 70
   128
 71
    45
 72
    44
 73
    20
  0
VERTEX
  5
63A
  8
0
 62
     9
 10
0.0
 20
0.0
 30
0.0
 70
   128
 71
    20
 72
     1
 73
    45
  0
VERTEX
  5
63B
  8
0
 62
     9
 10
0.0
 20
0.0
 30
0.0
 70
   128
 71
    44
 72
    46
 73
    20
  0
VERTEX
  5
63C
  8
0
 62
     9
 10
0.0
 20
0.0
 30
0.0
 70
   128
 71
     1
 72
    47
 73
    45
  0
VERTEX
  5
63D
  8
0
 62
     9
 10
0.0
 20
0.0
 30
0.0
 70
   128
 71
    48
 72
     1
 73
     4
  0
VERTEX
  5
63E
  8
0
 62
     9
 10
0.0
 20
0.0
 30
0.0
 70
   128
 71
    50
 72
    49
 73
     1
  0
VERTEX
  5
63F
  8
0
 62
     9
 10
0.0
 20
0.0
 30
0.0
 70
   128
 71
     1
 72
    48
 73
    50
  0
VERTEX
  5
640
  8
0
 62
     9
 10
0.0
 20
0.0
 30
0.0
 70
   128
 71
     4
 72
    51
 73
    48
  0
VERTEX
  5
641
  8
0
 62
     9
 10
0.0
 20
0.0
 30
0.0
 70
   128
 71
    52
 72
     4
 73
     6
  0
VERTEX
  5
642
  8
0
 62
     9
 10
0.0
 20
0.0
 30
0.0
 70
   128
 71
     6
 72
    53
 73
    52
  0
VERTEX
  5
643
  8
0
 62
     9
 10
0.0
 20
0.0
 30
0.0
 70
   128
 71
     6
 72
    54
 73
    53
  0
VERTEX
  5
644
  8
0
 62
     9
 10
0.0
 20
0.0
 30
0.0
 70
   128
 71
    56
 72
    55
 73
     7
  0
VERTEX
  5
645
  8
0
 62
     9
 10
0.0
 20
0.0
 30
0.0
 70
   128
 71
    57
 72
     6
 73
     7
  0
VERTEX
  5
646
  8
0
 62
     9
 10
0.0
 20
0.0
 30
0.0
 70
   128
 71
     7
 72
    55
 73
    57
  0
VERTEX
  5
647
  8
0
 62
     9
 10
0.0
 20
0.0
 30
0.0
 70
   128
 71
    57
 72
    58
 73
     6
  0
VERTEX
  5
648
  8
0
 62
     9
 10
0.0
 20
0.0
 30
0.0
 70
   128
 71
    59
 72
     7
 73
    12
  0
VERTEX
  5
649
  8
0
 62
     9
 10
0.0
 20
0.0
 30
0.0
 70
   128
 71
    12
 72
    60
 73
    59
  0
VERTEX
  5
64A
  8
0
 62
     9
 10
0.0
 20
0.0
 30
0.0
 70
   128
 71
    12
 72
    61
 73
    60
  0
VERTEX
  5
64B
  8
0
 62
     9
 10
0.0
 20
0.0
 30
0.0
 70
   128
 71
    59
 72
    62
 73
     7
  0
VERTEX
  5
64C
  8
0
 62
     9
 10
0.0
 20
0.0
 30
0.0
 70
   128
 71
    64
 72
    63
 73
    12
  0
VERTEX
  5
64D
  8
0
 62
     9
 10
0.0
 20
0.0
 30
0.0
 70
   128
 71
    12
 72
    27
 73
    64
  0
VERTEX
  5
64E
  8
0
 62
     9
 10
0.0
 20
0.0
 30
0.0
 70
   128
 71
    66
 72
    65
 73
    12
  0
VERTEX
  5
64F
  8
0
 62
     9
 10
0.0
 20
0.0
 30
0.0
 70
   128
 71
    12
 72
    67
 73
    66
  0
VERTEX
  5
650
  8
0
 62
     9
 10
0.0
 20
0.0
 30
0.0
 70
   128
 71
    12
 72
    63
 73
    67
  0
VERTEX
  5
651
  8
0
 62
     9
 10
0.0
 20
0.0
 30
0.0
 70
   128
 71
    69
 72
    68
 73
    66
  0
VERTEX
  5
652
  8
0
 62
     9
 10
0.0
 20
0.0
 30
0.0
 70
   128
 71
    68
 72
    65
 73
    66
  0
VERTEX
  5
653
  8
0
 62
     9
 10
0.0
 20
0.0
 30
0.0
 70
   128
 71
    72
 72
    71
 73
    70
  0
VERTEX
  5
654
  8
0
 62
     9
 10
0.0
 20
0.0
 30
0.0
 70
   128
 71
    70
 72
    69
 73
    72
  0
VERTEX
  5
655
  8
0
 62
     9
 10
0.0
 20
0.0
 30
0.0
 70
   128
 71
    69
 72
    73
 73
    72
  0
VERTEX
  5
656
  8
0
 62
     9
 10
0.0
 20
0.0
 30
0.0
 70
   128
 71
    66
 72
    73
 73
    69
  0
VERTEX
  5
657
  8
0
 62
     9
 10
0.0
 20
0.0
 30
0.0
 70
   128
 71
    27
 72
    74
 73
    64
  0
VERTEX
  5
658
  8
0
 62
     9
 10
0.0
 20
0.0
 30
0.0
 70
   128
 71
    12
 72
    65
 73
    61
  0
VERTEX
  5
659
  8
0
 62
     9
 10
0.0
 20
0.0
 30
0.0
 70
   128
 71
     7
 72
    62
 73
    56
  0
VERTEX
  5
65A
  8
0
 62
     9
 10
0.0
 20
0.0
 30
0.0
 70
   128
 71
     6
 72
    58
 73
    54
  0
VERTEX
  5
65B
  8
0
 62
     9
 10
0.0
 20
0.0
 30
0.0
 70
   128
 71
     4
 72
    52
 73
    51
  0
VERTEX
  5
65C
  8
0
 62
     9
 10
0.0
 20
0.0
 30
0.0
 70
   128
 71
     1
 72
    49
 73
    47
  0
VERTEX
  5
65D
  8
0
 62
     9
 10
0.0
 20
0.0
 30
0.0
 70
   128
 71
    20
 72
    46
 73
    41
  0
VERTEX
  5
65E
  8
0
 62
     9
 10
0.0
 20
0.0
 30
0.0
 70
   128
 71
    19
 72
    43
 73
    37
  0
VERTEX
  5
65F
  8
0
 62
     9
 10
0.0
 20
0.0
 30
0.0
 70
   128
 71
    20
 72
    22
 73
    26
  0
VERTEX
  5
660
  8
0
 62
     9
 10
0.0
 20
0.0
 30
0.0
 70
   128
 71
    19
 72
    33
 73
    21
  0
VERTEX
  5
661
  8
0
 62
     9
 10
0.0
 20
0.0
 30
0.0
 70
   128
 71
     4
 72
     5
 73
    17
  0
VERTEX
  5
662
  8
0
 62
     9
 10
0.0
 20
0.0
 30
0.0
 70
   128
 71
     7
 72
    10
 73
    13
  0
VERTEX
  5
663
  8
0
 62
     9
 10
0.0
 20
0.0
 30
0.0
 70
   128
 71
     6
 72
    18
 73
     9
  0
VERTEX
  5
664
  8
0
 62
     9
 10
0.0
 20
0.0
 30
0.0
 70
   128
 71
     1
 72
    25
 73
     3
  0
SEQEND
  5
665
  8
0
 62
     9
  0
ENDBLK
  5
668
  8
0
  0
BLOCK
  8
0
  2
E3_NODE_26_
 70
     0
 10
0.0
 20
0.0
 30
0.0
  3
E3_NODE_26_
  1

  0
POLYLINE
  5
66A
  8
0
 62
     9
 66
     1
 10
0.0
 20
0.0
 30
0.0
 70
    64
 71
    55
 72
    54
  0
VERTEX
  5
66B
  8
0
 10
20.71100044250488
 20
58.24399948120117
 30
91.51799774169922
 70
   192
  0
VERTEX
  5
66C
  8
0
 10
-12.25800037384033
 20
58.24399948120117
 30
56.18999862670898
 70
   192
  0
VERTEX
  5
66D
  8
0
 10
-9.47700023651123
 20
58.24399948120117
 30
52.62599945068359
 70
   192
  0
VERTEX
  5
66E
  8
0
 10
-14.41800022125244
 20
58.24399948120117
 30
59.33599853515625
 70
   192
  0
VERTEX
  5
66F
  8
0
 10
-13.76099967956543
 20
58.24399948120117
 30
58.11700057983398
 70
   192
  0
VERTEX
  5
670
  8
0
 10
-16.34499931335449
 20
58.24399948120117
 30
65.04199981689453
 70
   192
  0
VERTEX
  5
671
  8
0
 10
-17.06399917602539
 20
58.24399948120117
 30
70.02799987792969
 70
   192
  0
VERTEX
  5
672
  8
0
 10
-16.64399909973145
 20
58.24399948120117
 30
65.9260025024414
 70
   192
  0
VERTEX
  5
673
  8
0
 10
-16.80100059509277
 20
58.24399948120117
 30
74.14399719238281
 70
   192
  0
VERTEX
  5
674
  8
0
 10
-16.67200088500977
 20
58.24399948120117
 30
74.82099914550781
 70
   192
  0
VERTEX
  5
675
  8
0
 10
-15.14599990844727
 20
58.24399948120117
 30
80.08799743652344
 70
   192
  0
VERTEX
  5
676
  8
0
 10
-16.41500091552734
 20
58.24399948120117
 30
76.16400146484375
 70
   192
  0
VERTEX
  5
677
  8
0
 10
-12.91100025177002
 20
58.24399948120117
 30
83.8270034790039
 70
   192
  0
VERTEX
  5
678
  8
0
 10
-14.56599998474121
 20
58.24399948120117
 30
81.37200164794922
 70
   192
  0
VERTEX
  5
679
  8
0
 10
-9.718000411987305
 20
58.24399948120117
 30
88.14700317382812
 70
   192
  0
VERTEX
  5
67A
  8
0
 10
-10.67700004577637
 20
58.24399948120117
 30
87.14099884033203
 70
   192
  0
VERTEX
  5
67B
  8
0
 10
-6.14799976348877
 20
58.24399948120117
 30
90.80899810791016
 70
   192
  0
VERTEX
  5
67C
  8
0
 10
-2.884999990463257
 20
58.24399948120117
 30
92.947998046875
 70
   192
  0
VERTEX
  5
67D
  8
0
 10
-4.138000011444092
 20
58.24399948120117
 30
92.30899810791016
 70
   192
  0
VERTEX
  5
67E
  8
0
 10
2.776000022888184
 20
58.24399948120117
 30
94.72000122070312
 70
   192
  0
VERTEX
  5
67F
  8
0
 10
14.65799999237061
 20
58.24399948120117
 30
94.38300323486328
 70
   192
  0
VERTEX
  5
680
  8
0
 10
12.09700012207031
 20
58.24399948120117
 30
94.97599792480469
 70
   192
  0
VERTEX
  5
681
  8
0
 10
5.136000156402588
 20
58.24399948120117
 30
95.21299743652344
 70
   192
  0
VERTEX
  5
682
  8
0
 10
15.98900032043457
 20
58.24399948120117
 30
93.95899963378906
 70
   192
  0
VERTEX
  5
683
  8
0
 10
3.753000020980835
 20
58.24399948120117
 30
95.0250015258789
 70
   192
  0
VERTEX
  5
684
  8
0
 10
-8.454999923706055
 20
58.24399948120117
 30
51.69200134277344
 70
   192
  0
VERTEX
  5
685
  8
0
 10
27.90500068664551
 20
58.24399948120117
 30
85.02799987792969
 70
   192
  0
VERTEX
  5
686
  8
0
 10
23.29199981689453
 20
58.24399948120117
 30
89.91999816894531
 70
   192
  0
VERTEX
  5
687
  8
0
 10
22.17399978637695
 20
58.24399948120117
 30
90.76200103759766
 70
   192
  0
VERTEX
  5
688
  8
0
 10
24.95000076293945
 20
58.24399948120117
 30
67.71900177001953
 70
   192
  0
VERTEX
  5
689
  8
0
 10
30.12899971008301
 20
58.24399948120117
 30
59.63600158691406
 70
   192
  0
VERTEX
  5
68A
  8
0
 10
30.70899963378906
 20
58.24399948120117
 30
60.91999816894531
 70
   192
  0
VERTEX
  5
68B
  8
0
 10
28.63699913024902
 20
58.24399948120117
 30
57.42399978637695
 70
   192
  0
VERTEX
  5
68C
  8
0
 10
25.2810001373291
 20
58.24399948120117
 30
52.86100006103516
 70
   192
  0
VERTEX
  5
68D
  8
0
 10
26.23999977111816
 20
58.24399948120117
 30
53.86700057983398
 70
   192
  0
VERTEX
  5
68E
  8
0
 10
21.9950008392334
 20
58.24399948120117
 30
50.40999984741211
 70
   192
  0
VERTEX
  5
68F
  8
0
 10
31.67399978637695
 20
58.24399948120117
 30
77.33699798583984
 70
   192
  0
VERTEX
  5
690
  8
0
 10
28.84000015258789
 20
58.24399948120117
 30
83.6969985961914
 70
   192
  0
VERTEX
  5
691
  8
0
 10
32.5880012512207
 20
58.24399948120117
 30
69.04299926757812
 70
   192
  0
VERTEX
  5
692
  8
0
 10
32.02000045776367
 20
58.24399948120117
 30
75.98200225830078
 70
   192
  0
VERTEX
  5
693
  8
0
 10
32.15299987792969
 20
58.24399948120117
 30
66.45099639892578
 70
   192
  0
VERTEX
  5
694
  8
0
 10
32.46799850463867
 20
58.24399948120117
 30
67.65599822998047
 70
   192
  0
VERTEX
  5
695
  8
0
 10
28.0669994354248
 20
58.24399948120117
 30
84.85700225830078
 70
   192
  0
VERTEX
  5
696
  8
0
 10
18.44799995422363
 20
58.24399948120117
 30
48.06000137329102
 70
   192
  0
VERTEX
  5
697
  8
0
 10
19.70100021362305
 20
58.24399948120117
 30
48.69900131225586
 70
   192
  0
VERTEX
  5
698
  8
0
 10
13.17500019073486
 20
58.24399948120117
 30
46.40999984741211
 70
   192
  0
VERTEX
  5
699
  8
0
 10
10.42700004577637
 20
58.24399948120117
 30
45.79499816894531
 70
   192
  0
VERTEX
  5
69A
  8
0
 10
11.8100004196167
 20
58.24399948120117
 30
45.98300170898438
 70
   192
  0
VERTEX
  5
69B
  8
0
 10
3.466000080108643
 20
58.24399948120117
 30
46.03099822998047
 70
   192
  0
VERTEX
  5
69C
  8
0
 10
2.240999937057495
 20
58.24399948120117
 30
46.27999877929688
 70
   192
  0
VERTEX
  5
69D
  8
0
 10
1.031999945640564
 20
58.24399948120117
 30
46.5880012512207
 70
   192
  0
VERTEX
  5
69E
  8
0
 10
-0.1459999978542328
 20
58.24399948120117
 30
46.95199966430664
 70
   192
  0
VERTEX
  5
69F
  8
0
 10
-5.14900016784668
 20
58.24399948120117
 30
49.56499862670898
 70
   192
  0
VERTEX
  5
6A0
  8
0
 10
-2.601999998092651
 20
58.24399948120117
 30
47.92699813842773
 70
   192
  0
VERTEX
  5
6A1
  8
0
 10
-1.304999947547913
 20
58.24399948120117
 30
47.375
 70
   192
  0
VERTEX
  5
6A2
  8
0
 62
     9
 10
0.0
 20
0.0
 30
0.0
 70
   128
 71
     3
 72
     2
 73
     1
  0
VERTEX
  5
6A3
  8
0
 62
     9
 10
0.0
 20
0.0
 30
0.0
 70
   128
 71
     5
 72
     4
 73
     1
  0
VERTEX
  5
6A4
  8
0
 62
     9
 10
0.0
 20
0.0
 30
0.0
 70
   128
 71
     4
 72
     6
 73
     1
  0
VERTEX
  5
6A5
  8
0
 62
     9
 10
0.0
 20
0.0
 30
0.0
 70
   128
 71
     8
 72
     7
 73
     1
  0
VERTEX
  5
6A6
  8
0
 62
     9
 10
0.0
 20
0.0
 30
0.0
 70
   128
 71
     7
 72
     9
 73
     1
  0
VERTEX
  5
6A7
  8
0
 62
     9
 10
0.0
 20
0.0
 30
0.0
 70
   128
 71
     9
 72
    10
 73
     1
  0
VERTEX
  5
6A8
  8
0
 62
     9
 10
0.0
 20
0.0
 30
0.0
 70
   128
 71
     1
 72
     6
 73
     8
  0
VERTEX
  5
6A9
  8
0
 62
     9
 10
0.0
 20
0.0
 30
0.0
 70
   128
 71
     1
 72
     2
 73
     5
  0
VERTEX
  5
6AA
  8
0
 62
     9
 10
0.0
 20
0.0
 30
0.0
 70
   128
 71
    12
 72
    11
 73
     1
  0
VERTEX
  5
6AB
  8
0
 62
     9
 10
0.0
 20
0.0
 30
0.0
 70
   128
 71
    14
 72
    13
 73
     1
  0
VERTEX
  5
6AC
  8
0
 62
     9
 10
0.0
 20
0.0
 30
0.0
 70
   128
 71
     1
 72
    11
 73
    14
  0
VERTEX
  5
6AD
  8
0
 62
     9
 10
0.0
 20
0.0
 30
0.0
 70
   128
 71
    16
 72
    15
 73
     1
  0
VERTEX
  5
6AE
  8
0
 62
     9
 10
0.0
 20
0.0
 30
0.0
 70
   128
 71
    15
 72
    17
 73
     1
  0
VERTEX
  5
6AF
  8
0
 62
     9
 10
0.0
 20
0.0
 30
0.0
 70
   128
 71
    19
 72
    18
 73
     1
  0
VERTEX
  5
6B0
  8
0
 62
     9
 10
0.0
 20
0.0
 30
0.0
 70
   128
 71
    18
 72
    20
 73
     1
  0
VERTEX
  5
6B1
  8
0
 62
     9
 10
0.0
 20
0.0
 30
0.0
 70
   128
 71
     1
 72
    17
 73
    19
  0
VERTEX
  5
6B2
  8
0
 62
     9
 10
0.0
 20
0.0
 30
0.0
 70
   128
 71
    22
 72
    21
 73
    20
  0
VERTEX
  5
6B3
  8
0
 62
     9
 10
0.0
 20
0.0
 30
0.0
 70
   128
 71
    20
 72
    23
 73
    22
  0
VERTEX
  5
6B4
  8
0
 62
     9
 10
0.0
 20
0.0
 30
0.0
 70
   128
 71
    24
 72
     1
 73
    20
  0
VERTEX
  5
6B5
  8
0
 62
     9
 10
0.0
 20
0.0
 30
0.0
 70
   128
 71
    20
 72
    21
 73
    24
  0
VERTEX
  5
6B6
  8
0
 62
     9
 10
0.0
 20
0.0
 30
0.0
 70
   128
 71
    20
 72
    25
 73
    23
  0
VERTEX
  5
6B7
  8
0
 62
     9
 10
0.0
 20
0.0
 30
0.0
 70
   128
 71
     1
 72
    13
 73
    16
  0
VERTEX
  5
6B8
  8
0
 62
     9
 10
0.0
 20
0.0
 30
0.0
 70
   128
 71
     1
 72
    10
 73
    12
  0
VERTEX
  5
6B9
  8
0
 62
     9
 10
0.0
 20
0.0
 30
0.0
 70
   128
 71
    28
 72
    27
 73
    26
  0
VERTEX
  5
6BA
  8
0
 62
     9
 10
0.0
 20
0.0
 30
0.0
 70
   128
 71
    26
 72
    29
 73
    28
  0
VERTEX
  5
6BB
  8
0
 62
     9
 10
0.0
 20
0.0
 30
0.0
 70
   128
 71
    26
 72
     1
 73
    29
  0
VERTEX
  5
6BC
  8
0
 62
     9
 10
0.0
 20
0.0
 30
0.0
 70
   128
 71
    32
 72
    31
 73
    30
  0
VERTEX
  5
6BD
  8
0
 62
     9
 10
0.0
 20
0.0
 30
0.0
 70
   128
 71
    31
 72
    33
 73
    30
  0
VERTEX
  5
6BE
  8
0
 62
     9
 10
0.0
 20
0.0
 30
0.0
 70
   128
 71
    35
 72
    34
 73
    30
  0
VERTEX
  5
6BF
  8
0
 62
     9
 10
0.0
 20
0.0
 30
0.0
 70
   128
 71
    34
 72
    36
 73
    30
  0
VERTEX
  5
6C0
  8
0
 62
     9
 10
0.0
 20
0.0
 30
0.0
 70
   128
 71
    30
 72
    33
 73
    35
  0
VERTEX
  5
6C1
  8
0
 62
     9
 10
0.0
 20
0.0
 30
0.0
 70
   128
 71
    38
 72
    37
 73
    30
  0
VERTEX
  5
6C2
  8
0
 62
     9
 10
0.0
 20
0.0
 30
0.0
 70
   128
 71
    40
 72
    39
 73
    30
  0
VERTEX
  5
6C3
  8
0
 62
     9
 10
0.0
 20
0.0
 30
0.0
 70
   128
 71
    30
 72
    37
 73
    40
  0
VERTEX
  5
6C4
  8
0
 62
     9
 10
0.0
 20
0.0
 30
0.0
 70
   128
 71
    42
 72
    41
 73
    30
  0
VERTEX
  5
6C5
  8
0
 62
     9
 10
0.0
 20
0.0
 30
0.0
 70
   128
 71
    30
 72
    39
 73
    42
  0
VERTEX
  5
6C6
  8
0
 62
     9
 10
0.0
 20
0.0
 30
0.0
 70
   128
 71
    30
 72
    43
 73
    38
  0
VERTEX
  5
6C7
  8
0
 62
     9
 10
0.0
 20
0.0
 30
0.0
 70
   128
 71
    30
 72
    27
 73
    43
  0
VERTEX
  5
6C8
  8
0
 62
     9
 10
0.0
 20
0.0
 30
0.0
 70
   128
 71
    45
 72
    44
 73
    30
  0
VERTEX
  5
6C9
  8
0
 62
     9
 10
0.0
 20
0.0
 30
0.0
 70
   128
 71
    44
 72
    46
 73
    30
  0
VERTEX
  5
6CA
  8
0
 62
     9
 10
0.0
 20
0.0
 30
0.0
 70
   128
 71
    30
 72
    36
 73
    45
  0
VERTEX
  5
6CB
  8
0
 62
     9
 10
0.0
 20
0.0
 30
0.0
 70
   128
 71
    48
 72
    47
 73
    27
  0
VERTEX
  5
6CC
  8
0
 62
     9
 10
0.0
 20
0.0
 30
0.0
 70
   128
 71
    47
 72
    49
 73
    27
  0
VERTEX
  5
6CD
  8
0
 62
     9
 10
0.0
 20
0.0
 30
0.0
 70
   128
 71
    49
 72
    50
 73
    27
  0
VERTEX
  5
6CE
  8
0
 62
     9
 10
0.0
 20
0.0
 30
0.0
 70
   128
 71
    50
 72
    51
 73
    27
  0
VERTEX
  5
6CF
  8
0
 62
     9
 10
0.0
 20
0.0
 30
0.0
 70
   128
 71
    51
 72
    52
 73
    27
  0
VERTEX
  5
6D0
  8
0
 62
     9
 10
0.0
 20
0.0
 30
0.0
 70
   128
 71
    54
 72
    53
 73
    27
  0
VERTEX
  5
6D1
  8
0
 62
     9
 10
0.0
 20
0.0
 30
0.0
 70
   128
 71
    27
 72
    55
 73
    54
  0
VERTEX
  5
6D2
  8
0
 62
     9
 10
0.0
 20
0.0
 30
0.0
 70
   128
 71
    27
 72
    52
 73
    55
  0
VERTEX
  5
6D3
  8
0
 62
     9
 10
0.0
 20
0.0
 30
0.0
 70
   128
 71
    53
 72
    26
 73
    27
  0
VERTEX
  5
6D4
  8
0
 62
     9
 10
0.0
 20
0.0
 30
0.0
 70
   128
 71
    27
 72
    46
 73
    48
  0
VERTEX
  5
6D5
  8
0
 62
     9
 10
0.0
 20
0.0
 30
0.0
 70
   128
 71
    46
 72
    27
 73
    30
  0
VERTEX
  5
6D6
  8
0
 62
     9
 10
0.0
 20
0.0
 30
0.0
 70
   128
 71
    30
 72
    41
 73
    32
  0
VERTEX
  5
6D7
  8
0
 62
     9
 10
0.0
 20
0.0
 30
0.0
 70
   128
 71
     1
 72
    26
 73
     3
  0
SEQEND
  5
6D8
  8
0
 62
     9
  0
ENDBLK
  5
6DB
  8
0
  0
BLOCK
  8
0
  2
E3_NODE_27_
 70
     0
 10
0.0
 20
0.0
 30
0.0
  3
E3_NODE_27_
  1

  0
POLYLINE
  5
6DD
  8
0
 62
     9
 66
     1
 10
0.0
 20
0.0
 30
0.0
 70
    64
 71
    78
 72
    83
  0
VERTEX
  5
6DE
  8
0
 10
-13.05300045013428
 20
74.77799987792969
 30
83.79900360107422
 70
   192
  0
VERTEX
  5
6DF
  8
0
 10
-15.14599990844727
 20
58.24399948120117
 30
80.08799743652344
 70
   192
  0
VERTEX
  5
6E0
  8
0
 10
-14.56599998474121
 20
58.24399948120117
 30
81.37200164794922
 70
   192
  0
VERTEX
  5
6E1
  8
0
 10
-16.57900047302246
 20
73.57499694824219
 30
74.76499938964844
 70
   192
  0
VERTEX
  5
6E2
  8
0
 10
-16.41500091552734
 20
58.24399948120117
 30
76.16400146484375
 70
   192
  0
VERTEX
  5
6E3
  8
0
 10
-16.67200088500977
 20
58.24399948120117
 30
74.82099914550781
 70
   192
  0
VERTEX
  5
6E4
  8
0
 10
-16.35899925231934
 20
72.37999725341797
 30
65.06400299072266
 70
   192
  0
VERTEX
  5
6E5
  8
0
 10
-12.40200042724609
 20
71.36399841308594
 30
56.16500091552734
 70
   192
  0
VERTEX
  5
6E6
  8
0
 10
-14.41800022125244
 20
58.24399948120117
 30
59.33599853515625
 70
   192
  0
VERTEX
  5
6E7
  8
0
 10
-12.25800037384033
 20
58.24399948120117
 30
56.18999862670898
 70
   192
  0
VERTEX
  5
6E8
  8
0
 10
-13.76099967956543
 20
58.24399948120117
 30
58.11700057983398
 70
   192
  0
VERTEX
  5
6E9
  8
0
 10
-5.278999805450439
 20
70.68499755859375
 30
49.45999908447266
 70
   192
  0
VERTEX
  5
6EA
  8
0
 10
-8.454999923706055
 20
58.24399948120117
 30
51.69200134277344
 70
   192
  0
VERTEX
  5
6EB
  8
0
 10
-9.47700023651123
 20
58.24399948120117
 30
52.62599945068359
 70
   192
  0
VERTEX
  5
6EC
  8
0
 10
-5.14900016784668
 20
58.24399948120117
 30
49.56499862670898
 70
   192
  0
VERTEX
  5
6ED
  8
0
 10
-16.64399909973145
 20
58.24399948120117
 30
65.9260025024414
 70
   192
  0
VERTEX
  5
6EE
  8
0
 10
-17.06399917602539
 20
58.24399948120117
 30
70.02799987792969
 70
   192
  0
VERTEX
  5
6EF
  8
0
 10
-16.34499931335449
 20
58.24399948120117
 30
65.04199981689453
 70
   192
  0
VERTEX
  5
6F0
  8
0
 10
-16.80100059509277
 20
58.24399948120117
 30
74.14399719238281
 70
   192
  0
VERTEX
  5
6F1
  8
0
 10
2.697999954223633
 20
76.50700378417969
 30
94.66799926757812
 70
   192
  0
VERTEX
  5
6F2
  8
0
 10
-6.300000190734863
 20
75.80999755859375
 30
90.79900360107422
 70
   192
  0
VERTEX
  5
6F3
  8
0
 10
-2.884999990463257
 20
58.24399948120117
 30
92.947998046875
 70
   192
  0
VERTEX
  5
6F4
  8
0
 10
-6.14799976348877
 20
58.24399948120117
 30
90.80899810791016
 70
   192
  0
VERTEX
  5
6F5
  8
0
 10
-4.138000011444092
 20
58.24399948120117
 30
92.30899810791016
 70
   192
  0
VERTEX
  5
6F6
  8
0
 10
-10.67700004577637
 20
58.24399948120117
 30
87.14099884033203
 70
   192
  0
VERTEX
  5
6F7
  8
0
 10
-12.91100025177002
 20
58.24399948120117
 30
83.8270034790039
 70
   192
  0
VERTEX
  5
6F8
  8
0
 10
-9.718000411987305
 20
58.24399948120117
 30
88.14700317382812
 70
   192
  0
VERTEX
  5
6F9
  8
0
 10
-1.304999947547913
 20
58.24399948120117
 30
47.375
 70
   192
  0
VERTEX
  5
6FA
  8
0
 10
-2.601999998092651
 20
58.24399948120117
 30
47.92699813842773
 70
   192
  0
VERTEX
  5
6FB
  8
0
 10
3.480000019073486
 20
70.45999908447266
 30
46.11000061035156
 70
   192
  0
VERTEX
  5
6FC
  8
0
 10
-0.1459999978542328
 20
58.24399948120117
 30
46.95199966430664
 70
   192
  0
VERTEX
  5
6FD
  8
0
 10
3.466000080108643
 20
58.24399948120117
 30
46.03099822998047
 70
   192
  0
VERTEX
  5
6FE
  8
0
 10
2.240999937057495
 20
58.24399948120117
 30
46.27999877929688
 70
   192
  0
VERTEX
  5
6FF
  8
0
 10
1.031999945640564
 20
58.24399948120117
 30
46.5880012512207
 70
   192
  0
VERTEX
  5
700
  8
0
 10
12.06900024414062
 20
76.73899841308594
 30
94.81900024414062
 70
   192
  0
VERTEX
  5
701
  8
0
 10
5.136000156402588
 20
58.24399948120117
 30
95.21299743652344
 70
   192
  0
VERTEX
  5
702
  8
0
 10
2.776000022888184
 20
58.24399948120117
 30
94.72000122070312
 70
   192
  0
VERTEX
  5
703
  8
0
 10
3.753000020980835
 20
58.24399948120117
 30
95.0250015258789
 70
   192
  0
VERTEX
  5
704
  8
0
 10
7.839000225067139
 20
86.26000213623047
 30
95.11199951171875
 70
   192
  0
VERTEX
  5
705
  8
0
 10
7.401999950408936
 20
94.8949966430664
 30
95.03500366210938
 70
   192
  0
VERTEX
  5
706
  8
0
 10
6.169000148773193
 20
94.8270034790039
 30
94.98500061035156
 70
   192
  0
VERTEX
  5
707
  8
0
 10
12.05099964141846
 20
88.57599639892578
 30
94.71800231933594
 70
   192
  0
VERTEX
  5
708
  8
0
 10
12.04100036621094
 20
95.00800323486328
 30
94.66300201416016
 70
   192
  0
VERTEX
  5
709
  8
0
 10
2.842000007629395
 20
94.50399780273438
 30
94.2969970703125
 70
   192
  0
VERTEX
  5
70A
  8
0
 10
2.710999965667725
 20
94.49199676513672
 30
94.2699966430664
 70
   192
  0
VERTEX
  5
70B
  8
0
 10
7.047999858856201
 20
83.57099914550781
 30
95.1240005493164
 70
   192
  0
VERTEX
  5
70C
  8
0
 10
7.047999858856201
 20
83.57599639892578
 30
95.1240005493164
 70
   192
  0
VERTEX
  5
70D
  8
0
 10
7.185999870300293
 20
82.4280014038086
 30
95.13800048828125
 70
   192
  0
VERTEX
  5
70E
  8
0
 10
7.177000045776367
 20
84.7020034790039
 30
95.11799621582031
 70
   192
  0
VERTEX
  5
70F
  8
0
 10
7.861000061035156
 20
80.87000274658203
 30
95.15799713134766
 70
   192
  0
VERTEX
  5
710
  8
0
 10
12.06599998474121
 20
78.57599639892578
 30
94.8030014038086
 70
   192
  0
VERTEX
  5
711
  8
0
 10
-1.603999972343445
 20
94.02300262451172
 30
93.18299865722656
 70
   192
  0
VERTEX
  5
712
  8
0
 10
-6.001999855041504
 20
93.177001953125
 30
90.60600280761719
 70
   192
  0
VERTEX
  5
713
  8
0
 10
-0.5099999904632568
 20
94.17900085449219
 30
93.60399627685547
 70
   192
  0
VERTEX
  5
714
  8
0
 10
-12.78800010681152
 20
91.18800354003906
 30
83.89900207519531
 70
   192
  0
VERTEX
  5
715
  8
0
 10
-12.95199966430664
 20
91.13200378417969
 30
83.70800018310547
 70
   192
  0
VERTEX
  5
716
  8
0
 10
-8.463000297546387
 20
92.64399719238281
 30
88.9280014038086
 70
   192
  0
VERTEX
  5
717
  8
0
 10
-6.230000019073486
 20
93.13300323486328
 30
90.47200012207031
 70
   192
  0
VERTEX
  5
718
  8
0
 10
-7.50600004196167
 20
92.88800048828125
 30
89.7249984741211
 70
   192
  0
VERTEX
  5
719
  8
0
 10
-16.19400024414062
 20
89.06999969482422
 30
76.0479965209961
 70
   192
  0
VERTEX
  5
71A
  8
0
 10
-13.68099975585938
 20
90.79499816894531
 30
82.49600219726562
 70
   192
  0
VERTEX
  5
71B
  8
0
 10
-12.99499988555908
 20
91.11299896240234
 30
83.63800048828125
 70
   192
  0
VERTEX
  5
71C
  8
0
 10
-16.39200019836426
 20
88.81500244140625
 30
75.05999755859375
 70
   192
  0
VERTEX
  5
71D
  8
0
 10
-16.67700004577637
 20
86.93499755859375
 30
67.56300354003906
 70
   192
  0
VERTEX
  5
71E
  8
0
 10
-16.42399978637695
 20
86.53099822998047
 30
65.89399719238281
 70
   192
  0
VERTEX
  5
71F
  8
0
 10
-16.50699996948242
 20
88.66600036621094
 30
74.48699951171875
 70
   192
  0
VERTEX
  5
720
  8
0
 10
-13.42599964141846
 20
84.68499755859375
 30
57.91299819946289
 70
   192
  0
VERTEX
  5
721
  8
0
 10
-12.37899971008301
 20
84.40599822998047
 30
56.59999847412109
 70
   192
  0
VERTEX
  5
722
  8
0
 10
-14.2180004119873
 20
85.00900268554688
 30
59.36299896240234
 70
   192
  0
VERTEX
  5
723
  8
0
 10
-16.17300033569336
 20
86.35800170898438
 30
65.1510009765625
 70
   192
  0
VERTEX
  5
724
  8
0
 10
-8.005999565124512
 20
83.34600067138672
 30
51.53300094604492
 70
   192
  0
VERTEX
  5
725
  8
0
 10
-5.264999866485596
 20
83.0459976196289
 30
49.82899856567383
 70
   192
  0
VERTEX
  5
726
  8
0
 10
-9.145999908447266
 20
83.5459976196289
 30
52.54600143432617
 70
   192
  0
VERTEX
  5
727
  8
0
 10
-12.21399974822998
 20
84.36199951171875
 30
56.39300155639648
 70
   192
  0
VERTEX
  5
728
  8
0
 10
-2.200999975204468
 20
82.70999908447266
 30
47.92300033569336
 70
   192
  0
VERTEX
  5
729
  8
0
 10
3.49399995803833
 20
82.52999877929688
 30
46.1879997253418
 70
   192
  0
VERTEX
  5
72A
  8
0
 10
-5.14799976348877
 20
83.03299713134766
 30
49.75600051879883
 70
   192
  0
VERTEX
  5
72B
  8
0
 10
12.09700012207031
 20
58.24399948120117
 30
94.97599792480469
 70
   192
  0
VERTEX
  5
72C
  8
0
 62
     9
 10
0.0
 20
0.0
 30
0.0
 70
   128
 71
     3
 72
     2
 73
     1
  0
VERTEX
  5
72D
  8
0
 62
     9
 10
0.0
 20
0.0
 30
0.0
 70
   128
 71
     2
 72
     5
 73
     4
  0
VERTEX
  5
72E
  8
0
 62
     9
 10
0.0
 20
0.0
 30
0.0
 70
   128
 71
     5
 72
     6
 73
     4
  0
VERTEX
  5
72F
  8
0
 62
     9
 10
0.0
 20
0.0
 30
0.0
 70
   128
 71
     4
 72
     1
 73
     2
  0
VERTEX
  5
730
  8
0
 62
     9
 10
0.0
 20
0.0
 30
0.0
 70
   128
 71
     9
 72
     8
 73
     7
  0
VERTEX
  5
731
  8
0
 62
     9
 10
0.0
 20
0.0
 30
0.0
 70
   128
 71
    11
 72
    10
 73
     8
  0
VERTEX
  5
732
  8
0
 62
     9
 10
0.0
 20
0.0
 30
0.0
 70
   128
 71
     8
 72
     9
 73
    11
  0
VERTEX
  5
733
  8
0
 62
     9
 10
0.0
 20
0.0
 30
0.0
 70
   128
 71
    14
 72
    13
 73
    12
  0
VERTEX
  5
734
  8
0
 62
     9
 10
0.0
 20
0.0
 30
0.0
 70
   128
 71
    13
 72
    15
 73
    12
  0
VERTEX
  5
735
  8
0
 62
     9
 10
0.0
 20
0.0
 30
0.0
 70
   128
 71
    12
 72
     8
 73
    14
  0
VERTEX
  5
736
  8
0
 62
     9
 10
0.0
 20
0.0
 30
0.0
 70
   128
 71
    17
 72
    16
 73
     7
  0
VERTEX
  5
737
  8
0
 62
     9
 10
0.0
 20
0.0
 30
0.0
 70
   128
 71
    16
 72
    18
 73
     7
  0
VERTEX
  5
738
  8
0
 62
     9
 10
0.0
 20
0.0
 30
0.0
 70
   128
 71
     7
 72
     4
 73
    17
  0
VERTEX
  5
739
  8
0
 62
     9
 10
0.0
 20
0.0
 30
0.0
 70
   128
 71
     4
 72
    19
 73
    17
  0
VERTEX
  5
73A
  8
0
 62
     9
 10
0.0
 20
0.0
 30
0.0
 70
   128
 71
    22
 72
    21
 73
    20
  0
VERTEX
  5
73B
  8
0
 62
     9
 10
0.0
 20
0.0
 30
0.0
 70
   128
 71
    24
 72
    23
 73
    21
  0
VERTEX
  5
73C
  8
0
 62
     9
 10
0.0
 20
0.0
 30
0.0
 70
   128
 71
    21
 72
    22
 73
    24
  0
VERTEX
  5
73D
  8
0
 62
     9
 10
0.0
 20
0.0
 30
0.0
 70
   128
 71
    25
 72
     1
 73
    21
  0
VERTEX
  5
73E
  8
0
 62
     9
 10
0.0
 20
0.0
 30
0.0
 70
   128
 71
    25
 72
    26
 73
     1
  0
VERTEX
  5
73F
  8
0
 62
     9
 10
0.0
 20
0.0
 30
0.0
 70
   128
 71
    21
 72
    27
 73
    25
  0
VERTEX
  5
740
  8
0
 62
     9
 10
0.0
 20
0.0
 30
0.0
 70
   128
 71
    29
 72
    28
 73
    12
  0
VERTEX
  5
741
  8
0
 62
     9
 10
0.0
 20
0.0
 30
0.0
 70
   128
 71
    28
 72
    31
 73
    30
  0
VERTEX
  5
742
  8
0
 62
     9
 10
0.0
 20
0.0
 30
0.0
 70
   128
 71
    30
 72
    12
 73
    28
  0
VERTEX
  5
743
  8
0
 62
     9
 10
0.0
 20
0.0
 30
0.0
 70
   128
 71
    33
 72
    32
 73
    30
  0
VERTEX
  5
744
  8
0
 62
     9
 10
0.0
 20
0.0
 30
0.0
 70
   128
 71
    30
 72
    34
 73
    33
  0
VERTEX
  5
745
  8
0
 62
     9
 10
0.0
 20
0.0
 30
0.0
 70
   128
 71
    30
 72
    31
 73
    34
  0
VERTEX
  5
746
  8
0
 62
     9
 10
0.0
 20
0.0
 30
0.0
 70
   128
 71
    36
 72
    20
 73
    35
  0
VERTEX
  5
747
  8
0
 62
     9
 10
0.0
 20
0.0
 30
0.0
 70
   128
 71
    38
 72
    37
 73
    20
  0
VERTEX
  5
748
  8
0
 62
     9
 10
0.0
 20
0.0
 30
0.0
 70
   128
 71
    20
 72
    36
 73
    38
  0
VERTEX
  5
749
  8
0
 62
     9
 10
0.0
 20
0.0
 30
0.0
 70
   128
 71
    41
 72
    40
 73
    39
  0
VERTEX
  5
74A
  8
0
 62
     9
 10
0.0
 20
0.0
 30
0.0
 70
   128
 71
    42
 72
    39
 73
    40
  0
VERTEX
  5
74B
  8
0
 62
     9
 10
0.0
 20
0.0
 30
0.0
 70
   128
 71
    40
 72
    43
 73
    42
  0
VERTEX
  5
74C
  8
0
 62
     9
 10
0.0
 20
0.0
 30
0.0
 70
   128
 71
    39
 72
    44
 73
    41
  0
VERTEX
  5
74D
  8
0
 62
     9
 10
0.0
 20
0.0
 30
0.0
 70
   128
 71
    46
 72
    20
 73
    45
  0
VERTEX
  5
74E
  8
0
 62
     9
 10
0.0
 20
0.0
 30
0.0
 70
   128
 71
    45
 72
    47
 73
    46
  0
VERTEX
  5
74F
  8
0
 62
     9
 10
0.0
 20
0.0
 30
0.0
 70
   128
 71
    46
 72
    48
 73
    20
  0
VERTEX
  5
750
  8
0
 62
     9
 10
0.0
 20
0.0
 30
0.0
 70
   128
 71
    45
 72
    49
 73
    47
  0
VERTEX
  5
751
  8
0
 62
     9
 10
0.0
 20
0.0
 30
0.0
 70
   128
 71
    48
 72
    50
 73
    20
  0
VERTEX
  5
752
  8
0
 62
     9
 10
0.0
 20
0.0
 30
0.0
 70
   128
 71
    20
 72
    50
 73
    35
  0
VERTEX
  5
753
  8
0
 62
     9
 10
0.0
 20
0.0
 30
0.0
 70
   128
 71
    50
 72
    51
 73
    35
  0
VERTEX
  5
754
  8
0
 62
     9
 10
0.0
 20
0.0
 30
0.0
 70
   128
 71
    45
 72
    39
 73
    49
  0
VERTEX
  5
755
  8
0
 62
     9
 10
0.0
 20
0.0
 30
0.0
 70
   128
 71
    53
 72
    52
 73
    20
  0
VERTEX
  5
756
  8
0
 62
     9
 10
0.0
 20
0.0
 30
0.0
 70
   128
 71
    54
 72
    45
 73
    20
  0
VERTEX
  5
757
  8
0
 62
     9
 10
0.0
 20
0.0
 30
0.0
 70
   128
 71
    20
 72
    52
 73
    54
  0
VERTEX
  5
758
  8
0
 62
     9
 10
0.0
 20
0.0
 30
0.0
 70
   128
 71
    20
 72
    21
 73
    53
  0
VERTEX
  5
759
  8
0
 62
     9
 10
0.0
 20
0.0
 30
0.0
 70
   128
 71
    56
 72
    55
 73
     1
  0
VERTEX
  5
75A
  8
0
 62
     9
 10
0.0
 20
0.0
 30
0.0
 70
   128
 71
    55
 72
    57
 73
    21
  0
VERTEX
  5
75B
  8
0
 62
     9
 10
0.0
 20
0.0
 30
0.0
 70
   128
 71
    59
 72
    58
 73
    21
  0
VERTEX
  5
75C
  8
0
 62
     9
 10
0.0
 20
0.0
 30
0.0
 70
   128
 71
    21
 72
    57
 73
    59
  0
VERTEX
  5
75D
  8
0
 62
     9
 10
0.0
 20
0.0
 30
0.0
 70
   128
 71
    21
 72
     1
 73
    55
  0
VERTEX
  5
75E
  8
0
 62
     9
 10
0.0
 20
0.0
 30
0.0
 70
   128
 71
    60
 72
     1
 73
     4
  0
VERTEX
  5
75F
  8
0
 62
     9
 10
0.0
 20
0.0
 30
0.0
 70
   128
 71
    60
 72
    61
 73
     1
  0
VERTEX
  5
760
  8
0
 62
     9
 10
0.0
 20
0.0
 30
0.0
 70
   128
 71
    61
 72
    62
 73
     1
  0
VERTEX
  5
761
  8
0
 62
     9
 10
0.0
 20
0.0
 30
0.0
 70
   128
 71
     4
 72
    63
 73
    60
  0
VERTEX
  5
762
  8
0
 62
     9
 10
0.0
 20
0.0
 30
0.0
 70
   128
 71
    65
 72
    64
 73
     4
  0
VERTEX
  5
763
  8
0
 62
     9
 10
0.0
 20
0.0
 30
0.0
 70
   128
 71
    64
 72
    66
 73
     4
  0
VERTEX
  5
764
  8
0
 62
     9
 10
0.0
 20
0.0
 30
0.0
 70
   128
 71
     4
 72
     7
 73
    65
  0
VERTEX
  5
765
  8
0
 62
     9
 10
0.0
 20
0.0
 30
0.0
 70
   128
 71
    68
 72
    67
 73
     8
  0
VERTEX
  5
766
  8
0
 62
     9
 10
0.0
 20
0.0
 30
0.0
 70
   128
 71
    67
 72
    69
 73
     7
  0
VERTEX
  5
767
  8
0
 62
     9
 10
0.0
 20
0.0
 30
0.0
 70
   128
 71
     7
 72
     8
 73
    67
  0
VERTEX
  5
768
  8
0
 62
     9
 10
0.0
 20
0.0
 30
0.0
 70
   128
 71
    69
 72
    70
 73
     7
  0
VERTEX
  5
769
  8
0
 62
     9
 10
0.0
 20
0.0
 30
0.0
 70
   128
 71
    72
 72
    71
 73
    12
  0
VERTEX
  5
76A
  8
0
 62
     9
 10
0.0
 20
0.0
 30
0.0
 70
   128
 71
    71
 72
    73
 73
     8
  0
VERTEX
  5
76B
  8
0
 62
     9
 10
0.0
 20
0.0
 30
0.0
 70
   128
 71
    73
 72
    74
 73
     8
  0
VERTEX
  5
76C
  8
0
 62
     9
 10
0.0
 20
0.0
 30
0.0
 70
   128
 71
     8
 72
    12
 73
    71
  0
VERTEX
  5
76D
  8
0
 62
     9
 10
0.0
 20
0.0
 30
0.0
 70
   128
 71
    75
 72
    12
 73
    30
  0
VERTEX
  5
76E
  8
0
 62
     9
 10
0.0
 20
0.0
 30
0.0
 70
   128
 71
    30
 72
    76
 73
    75
  0
VERTEX
  5
76F
  8
0
 62
     9
 10
0.0
 20
0.0
 30
0.0
 70
   128
 71
    75
 72
    77
 73
    12
  0
VERTEX
  5
770
  8
0
 62
     9
 10
0.0
 20
0.0
 30
0.0
 70
   128
 71
    12
 72
    77
 73
    72
  0
VERTEX
  5
771
  8
0
 62
     9
 10
0.0
 20
0.0
 30
0.0
 70
   128
 71
     8
 72
    74
 73
    68
  0
VERTEX
  5
772
  8
0
 62
     9
 10
0.0
 20
0.0
 30
0.0
 70
   128
 71
     7
 72
    70
 73
    65
  0
VERTEX
  5
773
  8
0
 62
     9
 10
0.0
 20
0.0
 30
0.0
 70
   128
 71
     4
 72
    66
 73
    63
  0
VERTEX
  5
774
  8
0
 62
     9
 10
0.0
 20
0.0
 30
0.0
 70
   128
 71
     1
 72
    62
 73
    56
  0
VERTEX
  5
775
  8
0
 62
     9
 10
0.0
 20
0.0
 30
0.0
 70
   128
 71
    21
 72
    58
 73
    53
  0
VERTEX
  5
776
  8
0
 62
     9
 10
0.0
 20
0.0
 30
0.0
 70
   128
 71
    39
 72
    45
 73
    44
  0
VERTEX
  5
777
  8
0
 62
     9
 10
0.0
 20
0.0
 30
0.0
 70
   128
 71
    35
 72
    78
 73
    36
  0
VERTEX
  5
778
  8
0
 62
     9
 10
0.0
 20
0.0
 30
0.0
 70
   128
 71
    12
 72
    15
 73
    29
  0
VERTEX
  5
779
  8
0
 62
     9
 10
0.0
 20
0.0
 30
0.0
 70
   128
 71
    21
 72
    23
 73
    27
  0
VERTEX
  5
77A
  8
0
 62
     9
 10
0.0
 20
0.0
 30
0.0
 70
   128
 71
    20
 72
    37
 73
    22
  0
VERTEX
  5
77B
  8
0
 62
     9
 10
0.0
 20
0.0
 30
0.0
 70
   128
 71
     4
 72
     6
 73
    19
  0
VERTEX
  5
77C
  8
0
 62
     9
 10
0.0
 20
0.0
 30
0.0
 70
   128
 71
     8
 72
    10
 73
    14
  0
VERTEX
  5
77D
  8
0
 62
     9
 10
0.0
 20
0.0
 30
0.0
 70
   128
 71
     7
 72
    18
 73
     9
  0
VERTEX
  5
77E
  8
0
 62
     9
 10
0.0
 20
0.0
 30
0.0
 70
   128
 71
     1
 72
    26
 73
     3
  0
SEQEND
  5
77F
  8
0
 62
     9
  0
ENDBLK
  5
782
  8
0
  0
BLOCK
  8
0
  2
E3_NODE_28_
 70
     0
 10
0.0
 20
0.0
 30
0.0
  3
E3_NODE_28_
  1

  0
POLYLINE
  5
784
  8
0
 62
     9
 66
     1
 10
0.0
 20
0.0
 30
0.0
 70
    64
 71
    66
 72
    71
  0
VERTEX
  5
785
  8
0
 10
11.91100025177002
 20
95.6520004272461
 30
93.9229965209961
 70
   192
  0
VERTEX
  5
786
  8
0
 10
12.04100036621094
 20
95.00800323486328
 30
94.66300201416016
 70
   192
  0
VERTEX
  5
787
  8
0
 10
17.72699928283691
 20
94.822998046875
 30
92.93199920654297
 70
   192
  0
VERTEX
  5
788
  8
0
 10
20.55999946594238
 20
94.50399780273438
 30
91.1729965209961
 70
   192
  0
VERTEX
  5
789
  8
0
 10
20.3430004119873
 20
95.21600341796875
 30
90.69999694824219
 70
   192
  0
VERTEX
  5
78A
  8
0
 10
27.20400047302246
 20
93.9000015258789
 30
84.25499725341797
 70
   192
  0
VERTEX
  5
78B
  8
0
 10
24.6830005645752
 20
93.96299743652344
 30
88.3030014038086
 70
   192
  0
VERTEX
  5
78C
  8
0
 10
20.63500022888184
 20
94.49600219726562
 30
91.1259994506836
 70
   192
  0
VERTEX
  5
78D
  8
0
 10
23.53000068664551
 20
94.16999816894531
 30
89.3270034790039
 70
   192
  0
VERTEX
  5
78E
  8
0
 10
31.02099990844727
 20
91.93299865722656
 30
75.73500061035156
 70
   192
  0
VERTEX
  5
78F
  8
0
 10
29.76199913024902
 20
92.46399688720703
 30
81.47200012207031
 70
   192
  0
VERTEX
  5
790
  8
0
 10
27.66900062561035
 20
93.14900207519531
 30
84.55599975585938
 70
   192
  0
VERTEX
  5
791
  8
0
 10
28.96699905395508
 20
92.7959976196289
 30
82.92900085449219
 70
   192
  0
VERTEX
  5
792
  8
0
 10
27.58300018310547
 20
93.1729965209961
 30
84.66400146484375
 70
   192
  0
VERTEX
  5
793
  8
0
 10
31.28899955749512
 20
89.62200164794922
 30
66.44499969482422
 70
   192
  0
VERTEX
  5
794
  8
0
 10
32.21500015258789
 20
90.51200103759766
 30
73.27200317382812
 70
   192
  0
VERTEX
  5
795
  8
0
 10
31.64900016784668
 20
91.13800048828125
 30
75.86699676513672
 70
   192
  0
VERTEX
  5
796
  8
0
 10
31.9640007019043
 20
90.91699981689453
 30
74.93399810791016
 70
   192
  0
VERTEX
  5
797
  8
0
 10
31.59499931335449
 20
91.1760025024414
 30
76.02799987792969
 70
   192
  0
VERTEX
  5
798
  8
0
 10
27.97999954223633
 20
87.30400085449219
 30
57.73300170898438
 70
   192
  0
VERTEX
  5
799
  8
0
 10
31.73100090026855
 20
88.375
 30
64.80999755859375
 70
   192
  0
VERTEX
  5
79A
  8
0
 10
32.04000091552734
 20
88.77200317382812
 30
66.34700012207031
 70
   192
  0
VERTEX
  5
79B
  8
0
 10
29.22699928283691
 20
86.66300201416016
 30
58.37300109863281
 70
   192
  0
VERTEX
  5
79C
  8
0
 10
21.51199913024902
 20
85.31800079345703
 30
50.89500045776367
 70
   192
  0
VERTEX
  5
79D
  8
0
 10
24.01700019836426
 20
84.83999633789062
 30
51.93999862670898
 70
   192
  0
VERTEX
  5
79E
  8
0
 10
23.04299926757812
 20
84.5979995727539
 30
51.12799835205078
 70
   192
  0
VERTEX
  5
79F
  8
0
 10
28.49699974060059
 20
86.3290023803711
 30
57.15700149536133
 70
   192
  0
VERTEX
  5
7A0
  8
0
 10
28.68400001525879
 20
86.41400146484375
 30
57.46799850463867
 70
   192
  0
VERTEX
  5
7A1
  8
0
 10
22.06100082397461
 20
84.41300201416016
 30
50.55300140380859
 70
   192
  0
VERTEX
  5
7A2
  8
0
 10
28.70999908447266
 20
86.4260025024414
 30
57.51200103759766
 70
   192
  0
VERTEX
  5
7A3
  8
0
 10
12.78299999237061
 20
83.98500061035156
 30
47.06399917602539
 70
   192
  0
VERTEX
  5
7A4
  8
0
 10
17.13599967956543
 20
83.48600006103516
 30
47.66699981689453
 70
   192
  0
VERTEX
  5
7A5
  8
0
 10
16.04199981689453
 20
83.33499908447266
 30
47.24599838256836
 70
   192
  0
VERTEX
  5
7A6
  8
0
 10
21.99300003051758
 20
84.4000015258789
 30
50.51300048828125
 70
   192
  0
VERTEX
  5
7A7
  8
0
 10
13.23299980163574
 20
83.06999969482422
 30
46.66600036621094
 70
   192
  0
VERTEX
  5
7A8
  8
0
 10
3.618000030517578
 20
83.54100036621094
 30
46.88899993896484
 70
   192
  0
VERTEX
  5
7A9
  8
0
 10
12.9709997177124
 20
83.04499816894531
 30
46.61199951171875
 70
   192
  0
VERTEX
  5
7AA
  8
0
 10
9.357999801635742
 20
82.70500183105469
 30
45.86600112915039
 70
   192
  0
VERTEX
  5
7AB
  8
0
 10
8.133000373840332
 20
82.63999938964844
 30
45.81700134277344
 70
   192
  0
VERTEX
  5
7AC
  8
0
 10
3.49399995803833
 20
82.52999877929688
 30
46.1879997253418
 70
   192
  0
VERTEX
  5
7AD
  8
0
 10
3.742000102996826
 20
84.5530014038086
 30
47.59199905395508
 70
   192
  0
VERTEX
  5
7AE
  8
0
 10
8.586000442504883
 20
84.68299865722656
 30
47.25699996948242
 70
   192
  0
VERTEX
  5
7AF
  8
0
 10
9.807999610900879
 20
84.75599670410156
 30
47.33399963378906
 70
   192
  0
VERTEX
  5
7B0
  8
0
 10
16.23699951171875
 20
85.4209976196289
 30
48.86199951171875
 70
   192
  0
VERTEX
  5
7B1
  8
0
 10
17.50600051879883
 20
85.61399841308594
 30
49.40800094604492
 70
   192
  0
VERTEX
  5
7B2
  8
0
 10
12.48200035095215
 20
85.03299713134766
 30
47.97000122070312
 70
   192
  0
VERTEX
  5
7B3
  8
0
 10
23.05200004577637
 20
86.76899719238281
 30
53.04700088500977
 70
   192
  0
VERTEX
  5
7B4
  8
0
 10
24.07699966430664
 20
87.05599975585938
 30
54.01200103759766
 70
   192
  0
VERTEX
  5
7B5
  8
0
 10
20.82399940490723
 20
86.30500030517578
 30
51.58499908447266
 70
   192
  0
VERTEX
  5
7B6
  8
0
 10
28.6569995880127
 20
88.88800048828125
 30
60.52999877929688
 70
   192
  0
VERTEX
  5
7B7
  8
0
 10
30.43400001525879
 20
90.43000030517578
 30
66.38800048828125
 70
   192
  0
VERTEX
  5
7B8
  8
0
 10
28.06900024414062
 20
88.57099914550781
 30
59.36600112915039
 70
   192
  0
VERTEX
  5
7B9
  8
0
 10
27.09600067138672
 20
88.2020034790039
 30
58.06100082397461
 70
   192
  0
VERTEX
  5
7BA
  8
0
 10
30.74699974060059
 20
90.86699676513672
 30
68.08300018310547
 70
   192
  0
VERTEX
  5
7BB
  8
0
 10
30.44400024414062
 20
92.52899932861328
 30
74.79199981689453
 70
   192
  0
VERTEX
  5
7BC
  8
0
 10
30.60600090026855
 20
90.58000183105469
 30
66.95600128173828
 70
   192
  0
VERTEX
  5
7BD
  8
0
 10
30.43600082397461
 20
90.43199920654297
 30
66.39600372314453
 70
   192
  0
VERTEX
  5
7BE
  8
0
 10
30.23999977111816
 20
92.75700378417969
 30
75.74199676513672
 70
   192
  0
VERTEX
  5
7BF
  8
0
 10
27.77700042724609
 20
94.1989974975586
 30
81.95600128173828
 70
   192
  0
VERTEX
  5
7C0
  8
0
 10
27.32500076293945
 20
94.36699676513672
 30
82.70899963378906
 70
   192
  0
VERTEX
  5
7C1
  8
0
 10
26.54299926757812
 20
94.56300354003906
 30
83.62899780273438
 70
   192
  0
VERTEX
  5
7C2
  8
0
 10
23.02400016784668
 20
95.44100189208984
 30
87.77100372314453
 70
   192
  0
VERTEX
  5
7C3
  8
0
 10
22.29999923706055
 20
95.56199645996094
 30
88.38300323486328
 70
   192
  0
VERTEX
  5
7C4
  8
0
 10
16.6200008392334
 20
96.15799713134766
 30
91.76799774169922
 70
   192
  0
VERTEX
  5
7C5
  8
0
 10
11.77999973297119
 20
96.2979965209961
 30
93.18099975585938
 70
   192
  0
VERTEX
  5
7C6
  8
0
 10
19.87299919128418
 20
95.81700134277344
 30
89.8290023803711
 70
   192
  0
VERTEX
  5
7C7
  8
0
 62
     9
 10
0.0
 20
0.0
 30
0.0
 70
   128
 71
     3
 72
     2
 73
     1
  0
VERTEX
  5
7C8
  8
0
 62
     9
 10
0.0
 20
0.0
 30
0.0
 70
   128
 71
     1
 72
     5
 73
     4
  0
VERTEX
  5
7C9
  8
0
 62
     9
 10
0.0
 20
0.0
 30
0.0
 70
   128
 71
     7
 72
     5
 73
     6
  0
VERTEX
  5
7CA
  8
0
 62
     9
 10
0.0
 20
0.0
 30
0.0
 70
   128
 71
     9
 72
     8
 73
     5
  0
VERTEX
  5
7CB
  8
0
 62
     9
 10
0.0
 20
0.0
 30
0.0
 70
   128
 71
     5
 72
     7
 73
     9
  0
VERTEX
  5
7CC
  8
0
 62
     9
 10
0.0
 20
0.0
 30
0.0
 70
   128
 71
     8
 72
     4
 73
     5
  0
VERTEX
  5
7CD
  8
0
 62
     9
 10
0.0
 20
0.0
 30
0.0
 70
   128
 71
    11
 72
     6
 73
    10
  0
VERTEX
  5
7CE
  8
0
 62
     9
 10
0.0
 20
0.0
 30
0.0
 70
   128
 71
    13
 72
    12
 73
     6
  0
VERTEX
  5
7CF
  8
0
 62
     9
 10
0.0
 20
0.0
 30
0.0
 70
   128
 71
     6
 72
    11
 73
    13
  0
VERTEX
  5
7D0
  8
0
 62
     9
 10
0.0
 20
0.0
 30
0.0
 70
   128
 71
    12
 72
    14
 73
     6
  0
VERTEX
  5
7D1
  8
0
 62
     9
 10
0.0
 20
0.0
 30
0.0
 70
   128
 71
    16
 72
    10
 73
    15
  0
VERTEX
  5
7D2
  8
0
 62
     9
 10
0.0
 20
0.0
 30
0.0
 70
   128
 71
    18
 72
    17
 73
    10
  0
VERTEX
  5
7D3
  8
0
 62
     9
 10
0.0
 20
0.0
 30
0.0
 70
   128
 71
    10
 72
    16
 73
    18
  0
VERTEX
  5
7D4
  8
0
 62
     9
 10
0.0
 20
0.0
 30
0.0
 70
   128
 71
    17
 72
    19
 73
    10
  0
VERTEX
  5
7D5
  8
0
 62
     9
 10
0.0
 20
0.0
 30
0.0
 70
   128
 71
    21
 72
    15
 73
    20
  0
VERTEX
  5
7D6
  8
0
 62
     9
 10
0.0
 20
0.0
 30
0.0
 70
   128
 71
    21
 72
    22
 73
    15
  0
VERTEX
  5
7D7
  8
0
 62
     9
 10
0.0
 20
0.0
 30
0.0
 70
   128
 71
    20
 72
    23
 73
    21
  0
VERTEX
  5
7D8
  8
0
 62
     9
 10
0.0
 20
0.0
 30
0.0
 70
   128
 71
    26
 72
    25
 73
    24
  0
VERTEX
  5
7D9
  8
0
 62
     9
 10
0.0
 20
0.0
 30
0.0
 70
   128
 71
    25
 72
    27
 73
    20
  0
VERTEX
  5
7DA
  8
0
 62
     9
 10
0.0
 20
0.0
 30
0.0
 70
   128
 71
    27
 72
    28
 73
    20
  0
VERTEX
  5
7DB
  8
0
 62
     9
 10
0.0
 20
0.0
 30
0.0
 70
   128
 71
    20
 72
    24
 73
    25
  0
VERTEX
  5
7DC
  8
0
 62
     9
 10
0.0
 20
0.0
 30
0.0
 70
   128
 71
    24
 72
    29
 73
    26
  0
VERTEX
  5
7DD
  8
0
 62
     9
 10
0.0
 20
0.0
 30
0.0
 70
   128
 71
    28
 72
    30
 73
    20
  0
VERTEX
  5
7DE
  8
0
 62
     9
 10
0.0
 20
0.0
 30
0.0
 70
   128
 71
    33
 72
    32
 73
    31
  0
VERTEX
  5
7DF
  8
0
 62
     9
 10
0.0
 20
0.0
 30
0.0
 70
   128
 71
    32
 72
    34
 73
    24
  0
VERTEX
  5
7E0
  8
0
 62
     9
 10
0.0
 20
0.0
 30
0.0
 70
   128
 71
    24
 72
    31
 73
    32
  0
VERTEX
  5
7E1
  8
0
 62
     9
 10
0.0
 20
0.0
 30
0.0
 70
   128
 71
    31
 72
    35
 73
    33
  0
VERTEX
  5
7E2
  8
0
 62
     9
 10
0.0
 20
0.0
 30
0.0
 70
   128
 71
    38
 72
    37
 73
    36
  0
VERTEX
  5
7E3
  8
0
 62
     9
 10
0.0
 20
0.0
 30
0.0
 70
   128
 71
    36
 72
    39
 73
    38
  0
VERTEX
  5
7E4
  8
0
 62
     9
 10
0.0
 20
0.0
 30
0.0
 70
   128
 71
    36
 72
    40
 73
    39
  0
VERTEX
  5
7E5
  8
0
 62
     9
 10
0.0
 20
0.0
 30
0.0
 70
   128
 71
    36
 72
    31
 73
    41
  0
VERTEX
  5
7E6
  8
0
 62
     9
 10
0.0
 20
0.0
 30
0.0
 70
   128
 71
    31
 72
    42
 73
    41
  0
VERTEX
  5
7E7
  8
0
 62
     9
 10
0.0
 20
0.0
 30
0.0
 70
   128
 71
    31
 72
    43
 73
    42
  0
VERTEX
  5
7E8
  8
0
 62
     9
 10
0.0
 20
0.0
 30
0.0
 70
   128
 71
    45
 72
    44
 73
    31
  0
VERTEX
  5
7E9
  8
0
 62
     9
 10
0.0
 20
0.0
 30
0.0
 70
   128
 71
    31
 72
    24
 73
    45
  0
VERTEX
  5
7EA
  8
0
 62
     9
 10
0.0
 20
0.0
 30
0.0
 70
   128
 71
    44
 72
    46
 73
    31
  0
VERTEX
  5
7EB
  8
0
 62
     9
 10
0.0
 20
0.0
 30
0.0
 70
   128
 71
    48
 72
    47
 73
    24
  0
VERTEX
  5
7EC
  8
0
 62
     9
 10
0.0
 20
0.0
 30
0.0
 70
   128
 71
    24
 72
    20
 73
    48
  0
VERTEX
  5
7ED
  8
0
 62
     9
 10
0.0
 20
0.0
 30
0.0
 70
   128
 71
    47
 72
    49
 73
    24
  0
VERTEX
  5
7EE
  8
0
 62
     9
 10
0.0
 20
0.0
 30
0.0
 70
   128
 71
    50
 72
    20
 73
    15
  0
VERTEX
  5
7EF
  8
0
 62
     9
 10
0.0
 20
0.0
 30
0.0
 70
   128
 71
    15
 72
    51
 73
    50
  0
VERTEX
  5
7F0
  8
0
 62
     9
 10
0.0
 20
0.0
 30
0.0
 70
   128
 71
    50
 72
    52
 73
    20
  0
VERTEX
  5
7F1
  8
0
 62
     9
 10
0.0
 20
0.0
 30
0.0
 70
   128
 71
    52
 72
    53
 73
    20
  0
VERTEX
  5
7F2
  8
0
 62
     9
 10
0.0
 20
0.0
 30
0.0
 70
   128
 71
    54
 72
    15
 73
    10
  0
VERTEX
  5
7F3
  8
0
 62
     9
 10
0.0
 20
0.0
 30
0.0
 70
   128
 71
    10
 72
    55
 73
    54
  0
VERTEX
  5
7F4
  8
0
 62
     9
 10
0.0
 20
0.0
 30
0.0
 70
   128
 71
    54
 72
    56
 73
    15
  0
VERTEX
  5
7F5
  8
0
 62
     9
 10
0.0
 20
0.0
 30
0.0
 70
   128
 71
    56
 72
    57
 73
    15
  0
VERTEX
  5
7F6
  8
0
 62
     9
 10
0.0
 20
0.0
 30
0.0
 70
   128
 71
    59
 72
    58
 73
    10
  0
VERTEX
  5
7F7
  8
0
 62
     9
 10
0.0
 20
0.0
 30
0.0
 70
   128
 71
    10
 72
     6
 73
    59
  0
VERTEX
  5
7F8
  8
0
 62
     9
 10
0.0
 20
0.0
 30
0.0
 70
   128
 71
     6
 72
    60
 73
    59
  0
VERTEX
  5
7F9
  8
0
 62
     9
 10
0.0
 20
0.0
 30
0.0
 70
   128
 71
    62
 72
    61
 73
     6
  0
VERTEX
  5
7FA
  8
0
 62
     9
 10
0.0
 20
0.0
 30
0.0
 70
   128
 71
     6
 72
     5
 73
    62
  0
VERTEX
  5
7FB
  8
0
 62
     9
 10
0.0
 20
0.0
 30
0.0
 70
   128
 71
     5
 72
    63
 73
    62
  0
VERTEX
  5
7FC
  8
0
 62
     9
 10
0.0
 20
0.0
 30
0.0
 70
   128
 71
    64
 72
     5
 73
     1
  0
VERTEX
  5
7FD
  8
0
 62
     9
 10
0.0
 20
0.0
 30
0.0
 70
   128
 71
     1
 72
    65
 73
    64
  0
VERTEX
  5
7FE
  8
0
 62
     9
 10
0.0
 20
0.0
 30
0.0
 70
   128
 71
    64
 72
    66
 73
     5
  0
VERTEX
  5
7FF
  8
0
 62
     9
 10
0.0
 20
0.0
 30
0.0
 70
   128
 71
     5
 72
    66
 73
    63
  0
VERTEX
  5
800
  8
0
 62
     9
 10
0.0
 20
0.0
 30
0.0
 70
   128
 71
     6
 72
    61
 73
    60
  0
VERTEX
  5
801
  8
0
 62
     9
 10
0.0
 20
0.0
 30
0.0
 70
   128
 71
    10
 72
    58
 73
    55
  0
VERTEX
  5
802
  8
0
 62
     9
 10
0.0
 20
0.0
 30
0.0
 70
   128
 71
    15
 72
    57
 73
    51
  0
VERTEX
  5
803
  8
0
 62
     9
 10
0.0
 20
0.0
 30
0.0
 70
   128
 71
    20
 72
    53
 73
    48
  0
VERTEX
  5
804
  8
0
 62
     9
 10
0.0
 20
0.0
 30
0.0
 70
   128
 71
    24
 72
    49
 73
    45
  0
VERTEX
  5
805
  8
0
 62
     9
 10
0.0
 20
0.0
 30
0.0
 70
   128
 71
    31
 72
    46
 73
    43
  0
VERTEX
  5
806
  8
0
 62
     9
 10
0.0
 20
0.0
 30
0.0
 70
   128
 71
    37
 72
    31
 73
    36
  0
VERTEX
  5
807
  8
0
 62
     9
 10
0.0
 20
0.0
 30
0.0
 70
   128
 71
    31
 72
    37
 73
    35
  0
VERTEX
  5
808
  8
0
 62
     9
 10
0.0
 20
0.0
 30
0.0
 70
   128
 71
    24
 72
    34
 73
    29
  0
VERTEX
  5
809
  8
0
 62
     9
 10
0.0
 20
0.0
 30
0.0
 70
   128
 71
    20
 72
    30
 73
    23
  0
VERTEX
  5
80A
  8
0
 62
     9
 10
0.0
 20
0.0
 30
0.0
 70
   128
 71
    15
 72
    22
 73
    16
  0
VERTEX
  5
80B
  8
0
 62
     9
 10
0.0
 20
0.0
 30
0.0
 70
   128
 71
    10
 72
    19
 73
    11
  0
VERTEX
  5
80C
  8
0
 62
     9
 10
0.0
 20
0.0
 30
0.0
 70
   128
 71
     6
 72
    14
 73
     7
  0
VERTEX
  5
80D
  8
0
 62
     9
 10
0.0
 20
0.0
 30
0.0
 70
   128
 71
     1
 72
     4
 73
     3
  0
SEQEND
  5
80E
  8
0
 62
     9
  0
ENDBLK
  5
811
  8
0
  0
BLOCK
  8
0
  2
E3_NODE_29_
 70
     0
 10
0.0
 20
0.0
 30
0.0
  3
E3_NODE_29_
  1

  0
POLYLINE
  5
813
  8
0
 62
     9
 66
     1
 10
0.0
 20
0.0
 30
0.0
 70
    64
 71
    66
 72
    71
  0
VERTEX
  5
814
  8
0
 10
6.749000072479248
 20
96.15799713134766
 30
93.50900268554688
 70
   192
  0
VERTEX
  5
815
  8
0
 10
2.884999990463257
 20
95.21499633789062
 30
93.77799987792969
 70
   192
  0
VERTEX
  5
816
  8
0
 10
11.91100025177002
 20
95.6520004272461
 30
93.9229965209961
 70
   192
  0
VERTEX
  5
817
  8
0
 10
11.77999973297119
 20
96.2979965209961
 30
93.18099975585938
 70
   192
  0
VERTEX
  5
818
  8
0
 10
-5.765999794006348
 20
93.9000015258789
 30
90.06800079345703
 70
   192
  0
VERTEX
  5
819
  8
0
 10
-0.6359999775886536
 20
95.44100189208984
 30
91.94200134277344
 70
   192
  0
VERTEX
  5
81A
  8
0
 10
0.2529999911785126
 20
95.56199645996094
 30
92.2699966430664
 70
   192
  0
VERTEX
  5
81B
  8
0
 10
3.029000043869019
 20
95.81700134277344
 30
92.79900360107422
 70
   192
  0
VERTEX
  5
81C
  8
0
 10
-12.26799964904785
 20
91.93299865722656
 30
83.36799621582031
 70
   192
  0
VERTEX
  5
81D
  8
0
 10
-7.091000080108643
 20
94.1989974975586
 30
88.10399627685547
 70
   192
  0
VERTEX
  5
81E
  8
0
 10
-6.408999919891357
 20
94.36699676513672
 30
88.65699768066406
 70
   192
  0
VERTEX
  5
81F
  8
0
 10
-5.360000133514404
 20
94.56199645996094
 30
89.25399780273438
 70
   192
  0
VERTEX
  5
820
  8
0
 10
-12.04699993133545
 20
92.52899932861328
 30
82.28399658203125
 70
   192
  0
VERTEX
  5
821
  8
0
 10
-14.6269998550415
 20
90.86699676513672
 30
76.08300018310547
 70
   192
  0
VERTEX
  5
822
  8
0
 10
-11.52999973297119
 20
92.75700378417969
 30
83.10700225830078
 70
   192
  0
VERTEX
  5
823
  8
0
 10
-15.69699954986572
 20
89.62200164794922
 30
74.7300033569336
 70
   192
  0
VERTEX
  5
824
  8
0
 10
-14.88000011444092
 20
90.58000183105469
 30
74.97599792480469
 70
   192
  0
VERTEX
  5
825
  8
0
 10
-14.91199970245361
 20
90.43000030517578
 30
74.38400268554688
 70
   192
  0
VERTEX
  5
826
  8
0
 10
-15.24600028991699
 20
88.88800048828125
 30
68.27100372314453
 70
   192
  0
VERTEX
  5
827
  8
0
 10
-14.91199970245361
 20
90.43199920654297
 30
74.39199829101562
 70
   192
  0
VERTEX
  5
828
  8
0
 10
-15.56700038909912
 20
87.3030014038086
 30
65.41100311279297
 70
   192
  0
VERTEX
  5
829
  8
0
 10
-15.09200000762939
 20
88.57099914550781
 30
66.97599792480469
 70
   192
  0
VERTEX
  5
82A
  8
0
 10
-11.82699966430664
 20
85.31800079345703
 30
56.77399826049805
 70
   192
  0
VERTEX
  5
82B
  8
0
 10
-13.17199993133545
 20
87.05599975585938
 30
60.58000183105469
 70
   192
  0
VERTEX
  5
82C
  8
0
 10
-14.62399959564209
 20
88.2020034790039
 30
65.41799926757812
 70
   192
  0
VERTEX
  5
82D
  8
0
 10
-12.53800010681152
 20
86.76899719238281
 30
59.32300186157227
 70
   192
  0
VERTEX
  5
82E
  8
0
 10
-4.934999942779541
 20
83.98500061035156
 30
50.1870002746582
 70
   192
  0
VERTEX
  5
82F
  8
0
 10
-8.571000099182129
 20
85.61399841308594
 30
54.00600051879883
 70
   192
  0
VERTEX
  5
830
  8
0
 10
-10.94400024414062
 20
86.30500030517578
 30
57.1870002746582
 70
   192
  0
VERTEX
  5
831
  8
0
 10
-7.565999984741211
 20
85.4209976196289
 30
53.05799865722656
 70
   192
  0
VERTEX
  5
832
  8
0
 10
3.618000030517578
 20
83.54100036621094
 30
46.88999938964844
 70
   192
  0
VERTEX
  5
833
  8
0
 10
-0.925000011920929
 20
84.68299865722656
 30
48.93399810791016
 70
   192
  0
VERTEX
  5
834
  8
0
 10
3.742000102996826
 20
84.5530014038086
 30
47.59199905395508
 70
   192
  0
VERTEX
  5
835
  8
0
 10
-2.046999931335449
 20
84.75599670410156
 30
49.42499923706055
 70
   192
  0
VERTEX
  5
836
  8
0
 10
-4.342999935150146
 20
85.03299713134766
 30
50.93600082397461
 70
   192
  0
VERTEX
  5
837
  8
0
 10
3.49399995803833
 20
82.52999877929688
 30
46.1879997253418
 70
   192
  0
VERTEX
  5
838
  8
0
 10
-2.200999975204468
 20
82.70999908447266
 30
47.92300033569336
 70
   192
  0
VERTEX
  5
839
  8
0
 10
-5.14799976348877
 20
83.03299713134766
 30
49.75600051879883
 70
   192
  0
VERTEX
  5
83A
  8
0
 10
-9.145999908447266
 20
83.5459976196289
 30
52.54600143432617
 70
   192
  0
VERTEX
  5
83B
  8
0
 10
-5.264999866485596
 20
83.0459976196289
 30
49.82899856567383
 70
   192
  0
VERTEX
  5
83C
  8
0
 10
-8.005999565124512
 20
83.34600067138672
 30
51.53300094604492
 70
   192
  0
VERTEX
  5
83D
  8
0
 10
-12.21399974822998
 20
84.36199951171875
 30
56.39300155639648
 70
   192
  0
VERTEX
  5
83E
  8
0
 10
-14.2180004119873
 20
85.00900268554688
 30
59.36299896240234
 70
   192
  0
VERTEX
  5
83F
  8
0
 10
-12.37899971008301
 20
84.40599822998047
 30
56.59999847412109
 70
   192
  0
VERTEX
  5
840
  8
0
 10
-13.42599964141846
 20
84.68499755859375
 30
57.91299819946289
 70
   192
  0
VERTEX
  5
841
  8
0
 10
-16.17300033569336
 20
86.35800170898438
 30
65.1510009765625
 70
   192
  0
VERTEX
  5
842
  8
0
 10
-16.67700004577637
 20
86.93499755859375
 30
67.56300354003906
 70
   192
  0
VERTEX
  5
843
  8
0
 10
-16.42399978637695
 20
86.53099822998047
 30
65.89399719238281
 70
   192
  0
VERTEX
  5
844
  8
0
 10
-16.50699996948242
 20
88.66600036621094
 30
74.48699951171875
 70
   192
  0
VERTEX
  5
845
  8
0
 10
-12.99499988555908
 20
91.11299896240234
 30
83.63800048828125
 70
   192
  0
VERTEX
  5
846
  8
0
 10
-12.95199966430664
 20
91.13200378417969
 30
83.70800018310547
 70
   192
  0
VERTEX
  5
847
  8
0
 10
-16.19400024414062
 20
89.06999969482422
 30
76.0479965209961
 70
   192
  0
VERTEX
  5
848
  8
0
 10
-13.68099975585938
 20
90.79499816894531
 30
82.49600219726562
 70
   192
  0
VERTEX
  5
849
  8
0
 10
-16.39200019836426
 20
88.81500244140625
 30
75.05999755859375
 70
   192
  0
VERTEX
  5
84A
  8
0
 10
-8.463000297546387
 20
92.64399719238281
 30
88.9280014038086
 70
   192
  0
VERTEX
  5
84B
  8
0
 10
-7.50600004196167
 20
92.88800048828125
 30
89.7249984741211
 70
   192
  0
VERTEX
  5
84C
  8
0
 10
-12.78800010681152
 20
91.18800354003906
 30
83.89900207519531
 70
   192
  0
VERTEX
  5
84D
  8
0
 10
-6.230000019073486
 20
93.13300323486328
 30
90.47200012207031
 70
   192
  0
VERTEX
  5
84E
  8
0
 10
-6.001999855041504
 20
93.177001953125
 30
90.60600280761719
 70
   192
  0
VERTEX
  5
84F
  8
0
 10
-1.603999972343445
 20
94.02300262451172
 30
93.18299865722656
 70
   192
  0
VERTEX
  5
850
  8
0
 10
-0.5099999904632568
 20
94.17900085449219
 30
93.60399627685547
 70
   192
  0
VERTEX
  5
851
  8
0
 10
2.710999965667725
 20
94.49199676513672
 30
94.2699966430664
 70
   192
  0
VERTEX
  5
852
  8
0
 10
7.401999950408936
 20
94.8949966430664
 30
95.03500366210938
 70
   192
  0
VERTEX
  5
853
  8
0
 10
2.842000007629395
 20
94.50399780273438
 30
94.2969970703125
 70
   192
  0
VERTEX
  5
854
  8
0
 10
6.169000148773193
 20
94.8270034790039
 30
94.98500061035156
 70
   192
  0
VERTEX
  5
855
  8
0
 10
12.04100036621094
 20
95.00800323486328
 30
94.66300201416016
 70
   192
  0
VERTEX
  5
856
  8
0
 62
     9
 10
0.0
 20
0.0
 30
0.0
 70
   128
 71
     3
 72
     2
 73
     1
  0
VERTEX
  5
857
  8
0
 62
     9
 10
0.0
 20
0.0
 30
0.0
 70
   128
 71
     1
 72
     4
 73
     3
  0
VERTEX
  5
858
  8
0
 62
     9
 10
0.0
 20
0.0
 30
0.0
 70
   128
 71
     6
 72
     2
 73
     5
  0
VERTEX
  5
859
  8
0
 62
     9
 10
0.0
 20
0.0
 30
0.0
 70
   128
 71
     6
 72
     7
 73
     2
  0
VERTEX
  5
85A
  8
0
 62
     9
 10
0.0
 20
0.0
 30
0.0
 70
   128
 71
     7
 72
     8
 73
     2
  0
VERTEX
  5
85B
  8
0
 62
     9
 10
0.0
 20
0.0
 30
0.0
 70
   128
 71
    10
 72
     5
 73
     9
  0
VERTEX
  5
85C
  8
0
 62
     9
 10
0.0
 20
0.0
 30
0.0
 70
   128
 71
    10
 72
    11
 73
     5
  0
VERTEX
  5
85D
  8
0
 62
     9
 10
0.0
 20
0.0
 30
0.0
 70
   128
 71
    11
 72
    12
 73
     5
  0
VERTEX
  5
85E
  8
0
 62
     9
 10
0.0
 20
0.0
 30
0.0
 70
   128
 71
    14
 72
    13
 73
     9
  0
VERTEX
  5
85F
  8
0
 62
     9
 10
0.0
 20
0.0
 30
0.0
 70
   128
 71
    13
 72
    15
 73
     9
  0
VERTEX
  5
860
  8
0
 62
     9
 10
0.0
 20
0.0
 30
0.0
 70
   128
 71
     9
 72
    16
 73
    14
  0
VERTEX
  5
861
  8
0
 62
     9
 10
0.0
 20
0.0
 30
0.0
 70
   128
 71
    16
 72
    17
 73
    14
  0
VERTEX
  5
862
  8
0
 62
     9
 10
0.0
 20
0.0
 30
0.0
 70
   128
 71
    19
 72
    18
 73
    16
  0
VERTEX
  5
863
  8
0
 62
     9
 10
0.0
 20
0.0
 30
0.0
 70
   128
 71
    18
 72
    20
 73
    16
  0
VERTEX
  5
864
  8
0
 62
     9
 10
0.0
 20
0.0
 30
0.0
 70
   128
 71
    16
 72
    21
 73
    19
  0
VERTEX
  5
865
  8
0
 62
     9
 10
0.0
 20
0.0
 30
0.0
 70
   128
 71
    21
 72
    22
 73
    19
  0
VERTEX
  5
866
  8
0
 62
     9
 10
0.0
 20
0.0
 30
0.0
 70
   128
 71
    24
 72
    21
 73
    23
  0
VERTEX
  5
867
  8
0
 62
     9
 10
0.0
 20
0.0
 30
0.0
 70
   128
 71
    24
 72
    25
 73
    21
  0
VERTEX
  5
868
  8
0
 62
     9
 10
0.0
 20
0.0
 30
0.0
 70
   128
 71
    23
 72
    26
 73
    24
  0
VERTEX
  5
869
  8
0
 62
     9
 10
0.0
 20
0.0
 30
0.0
 70
   128
 71
    28
 72
    23
 73
    27
  0
VERTEX
  5
86A
  8
0
 62
     9
 10
0.0
 20
0.0
 30
0.0
 70
   128
 71
    28
 72
    29
 73
    23
  0
VERTEX
  5
86B
  8
0
 62
     9
 10
0.0
 20
0.0
 30
0.0
 70
   128
 71
    27
 72
    30
 73
    28
  0
VERTEX
  5
86C
  8
0
 62
     9
 10
0.0
 20
0.0
 30
0.0
 70
   128
 71
    32
 72
    27
 73
    31
  0
VERTEX
  5
86D
  8
0
 62
     9
 10
0.0
 20
0.0
 30
0.0
 70
   128
 71
    31
 72
    33
 73
    32
  0
VERTEX
  5
86E
  8
0
 62
     9
 10
0.0
 20
0.0
 30
0.0
 70
   128
 71
    32
 72
    34
 73
    27
  0
VERTEX
  5
86F
  8
0
 62
     9
 10
0.0
 20
0.0
 30
0.0
 70
   128
 71
    34
 72
    35
 73
    27
  0
VERTEX
  5
870
  8
0
 62
     9
 10
0.0
 20
0.0
 30
0.0
 70
   128
 71
    37
 72
    36
 73
    31
  0
VERTEX
  5
871
  8
0
 62
     9
 10
0.0
 20
0.0
 30
0.0
 70
   128
 71
    31
 72
    27
 73
    37
  0
VERTEX
  5
872
  8
0
 62
     9
 10
0.0
 20
0.0
 30
0.0
 70
   128
 71
    27
 72
    38
 73
    37
  0
VERTEX
  5
873
  8
0
 62
     9
 10
0.0
 20
0.0
 30
0.0
 70
   128
 71
    39
 72
    27
 73
    23
  0
VERTEX
  5
874
  8
0
 62
     9
 10
0.0
 20
0.0
 30
0.0
 70
   128
 71
    41
 72
    40
 73
    27
  0
VERTEX
  5
875
  8
0
 62
     9
 10
0.0
 20
0.0
 30
0.0
 70
   128
 71
    27
 72
    39
 73
    41
  0
VERTEX
  5
876
  8
0
 62
     9
 10
0.0
 20
0.0
 30
0.0
 70
   128
 71
    23
 72
    42
 73
    39
  0
VERTEX
  5
877
  8
0
 62
     9
 10
0.0
 20
0.0
 30
0.0
 70
   128
 71
    43
 72
    23
 73
    21
  0
VERTEX
  5
878
  8
0
 62
     9
 10
0.0
 20
0.0
 30
0.0
 70
   128
 71
    45
 72
    44
 73
    23
  0
VERTEX
  5
879
  8
0
 62
     9
 10
0.0
 20
0.0
 30
0.0
 70
   128
 71
    23
 72
    43
 73
    45
  0
VERTEX
  5
87A
  8
0
 62
     9
 10
0.0
 20
0.0
 30
0.0
 70
   128
 71
    21
 72
    46
 73
    43
  0
VERTEX
  5
87B
  8
0
 62
     9
 10
0.0
 20
0.0
 30
0.0
 70
   128
 71
    47
 72
    21
 73
    16
  0
VERTEX
  5
87C
  8
0
 62
     9
 10
0.0
 20
0.0
 30
0.0
 70
   128
 71
    47
 72
    48
 73
    21
  0
VERTEX
  5
87D
  8
0
 62
     9
 10
0.0
 20
0.0
 30
0.0
 70
   128
 71
    16
 72
    49
 73
    47
  0
VERTEX
  5
87E
  8
0
 62
     9
 10
0.0
 20
0.0
 30
0.0
 70
   128
 71
    51
 72
    50
 73
     9
  0
VERTEX
  5
87F
  8
0
 62
     9
 10
0.0
 20
0.0
 30
0.0
 70
   128
 71
    53
 72
    52
 73
    16
  0
VERTEX
  5
880
  8
0
 62
     9
 10
0.0
 20
0.0
 30
0.0
 70
   128
 71
    52
 72
    54
 73
    16
  0
VERTEX
  5
881
  8
0
 62
     9
 10
0.0
 20
0.0
 30
0.0
 70
   128
 71
    16
 72
     9
 73
    53
  0
VERTEX
  5
882
  8
0
 62
     9
 10
0.0
 20
0.0
 30
0.0
 70
   128
 71
     9
 72
    50
 73
    53
  0
VERTEX
  5
883
  8
0
 62
     9
 10
0.0
 20
0.0
 30
0.0
 70
   128
 71
    56
 72
    55
 73
     5
  0
VERTEX
  5
884
  8
0
 62
     9
 10
0.0
 20
0.0
 30
0.0
 70
   128
 71
    55
 72
    57
 73
     9
  0
VERTEX
  5
885
  8
0
 62
     9
 10
0.0
 20
0.0
 30
0.0
 70
   128
 71
     9
 72
     5
 73
    55
  0
VERTEX
  5
886
  8
0
 62
     9
 10
0.0
 20
0.0
 30
0.0
 70
   128
 71
     5
 72
    58
 73
    56
  0
VERTEX
  5
887
  8
0
 62
     9
 10
0.0
 20
0.0
 30
0.0
 70
   128
 71
    60
 72
    59
 73
     5
  0
VERTEX
  5
888
  8
0
 62
     9
 10
0.0
 20
0.0
 30
0.0
 70
   128
 71
     5
 72
     2
 73
    60
  0
VERTEX
  5
889
  8
0
 62
     9
 10
0.0
 20
0.0
 30
0.0
 70
   128
 71
     2
 72
    61
 73
    60
  0
VERTEX
  5
88A
  8
0
 62
     9
 10
0.0
 20
0.0
 30
0.0
 70
   128
 71
     2
 72
    62
 73
    61
  0
VERTEX
  5
88B
  8
0
 62
     9
 10
0.0
 20
0.0
 30
0.0
 70
   128
 71
    63
 72
     2
 73
     3
  0
VERTEX
  5
88C
  8
0
 62
     9
 10
0.0
 20
0.0
 30
0.0
 70
   128
 71
    65
 72
    64
 73
     2
  0
VERTEX
  5
88D
  8
0
 62
     9
 10
0.0
 20
0.0
 30
0.0
 70
   128
 71
     2
 72
    63
 73
    65
  0
VERTEX
  5
88E
  8
0
 62
     9
 10
0.0
 20
0.0
 30
0.0
 70
   128
 71
     3
 72
    66
 73
    63
  0
VERTEX
  5
88F
  8
0
 62
     9
 10
0.0
 20
0.0
 30
0.0
 70
   128
 71
     2
 72
    64
 73
    62
  0
VERTEX
  5
890
  8
0
 62
     9
 10
0.0
 20
0.0
 30
0.0
 70
   128
 71
     5
 72
    59
 73
    58
  0
VERTEX
  5
891
  8
0
 62
     9
 10
0.0
 20
0.0
 30
0.0
 70
   128
 71
     9
 72
    57
 73
    51
  0
VERTEX
  5
892
  8
0
 62
     9
 10
0.0
 20
0.0
 30
0.0
 70
   128
 71
    16
 72
    54
 73
    49
  0
VERTEX
  5
893
  8
0
 62
     9
 10
0.0
 20
0.0
 30
0.0
 70
   128
 71
    21
 72
    48
 73
    46
  0
VERTEX
  5
894
  8
0
 62
     9
 10
0.0
 20
0.0
 30
0.0
 70
   128
 71
    23
 72
    44
 73
    42
  0
VERTEX
  5
895
  8
0
 62
     9
 10
0.0
 20
0.0
 30
0.0
 70
   128
 71
    27
 72
    40
 73
    38
  0
VERTEX
  5
896
  8
0
 62
     9
 10
0.0
 20
0.0
 30
0.0
 70
   128
 71
    27
 72
    35
 73
    30
  0
VERTEX
  5
897
  8
0
 62
     9
 10
0.0
 20
0.0
 30
0.0
 70
   128
 71
    23
 72
    29
 73
    26
  0
VERTEX
  5
898
  8
0
 62
     9
 10
0.0
 20
0.0
 30
0.0
 70
   128
 71
    21
 72
    25
 73
    22
  0
VERTEX
  5
899
  8
0
 62
     9
 10
0.0
 20
0.0
 30
0.0
 70
   128
 71
    16
 72
    20
 73
    17
  0
VERTEX
  5
89A
  8
0
 62
     9
 10
0.0
 20
0.0
 30
0.0
 70
   128
 71
     9
 72
    15
 73
    10
  0
VERTEX
  5
89B
  8
0
 62
     9
 10
0.0
 20
0.0
 30
0.0
 70
   128
 71
     5
 72
    12
 73
     6
  0
VERTEX
  5
89C
  8
0
 62
     9
 10
0.0
 20
0.0
 30
0.0
 70
   128
 71
     2
 72
     8
 73
     1
  0
SEQEND
  5
89D
  8
0
 62
     9
  0
ENDBLK
  5
8A0
  8
0
  0
BLOCK
  8
0
  2
E3_NODE_30_
 70
     0
 10
0.0
 20
0.0
 30
0.0
  3
E3_NODE_30_
  1

  0
POLYLINE
  5
8A2
  8
0
 62
     9
 66
     1
 10
0.0
 20
0.0
 30
0.0
 70
    64
 71
    52
 72
    52
  0
VERTEX
  5
8A3
  8
0
 10
7.708000183105469
 20
91.63200378417969
 30
70.08499908447266
 70
   192
  0
VERTEX
  5
8A4
  8
0
 10
3.029000043869019
 20
95.81700134277344
 30
92.79900360107422
 70
   192
  0
VERTEX
  5
8A5
  8
0
 10
6.749000072479248
 20
96.15799713134766
 30
93.50900268554688
 70
   192
  0
VERTEX
  5
8A6
  8
0
 10
11.77999973297119
 20
96.2979965209961
 30
93.18099975585938
 70
   192
  0
VERTEX
  5
8A7
  8
0
 10
-0.6359999775886536
 20
95.44100189208984
 30
91.94200134277344
 70
   192
  0
VERTEX
  5
8A8
  8
0
 10
0.2529999911785126
 20
95.56199645996094
 30
92.2699966430664
 70
   192
  0
VERTEX
  5
8A9
  8
0
 10
-5.360000133514404
 20
94.56199645996094
 30
89.25399780273438
 70
   192
  0
VERTEX
  5
8AA
  8
0
 10
-14.88000011444092
 20
90.58000183105469
 30
74.97599792480469
 70
   192
  0
VERTEX
  5
8AB
  8
0
 10
-14.6269998550415
 20
90.86699676513672
 30
76.08300018310547
 70
   192
  0
VERTEX
  5
8AC
  8
0
 10
-14.77000045776367
 20
90.65499877929688
 30
75.23600006103516
 70
   192
  0
VERTEX
  5
8AD
  8
0
 10
-7.091000080108643
 20
94.1989974975586
 30
88.10399627685547
 70
   192
  0
VERTEX
  5
8AE
  8
0
 10
-6.408999919891357
 20
94.36699676513672
 30
88.65699768066406
 70
   192
  0
VERTEX
  5
8AF
  8
0
 10
-12.04699993133545
 20
92.52899932861328
 30
82.28399658203125
 70
   192
  0
VERTEX
  5
8B0
  8
0
 10
-11.52999973297119
 20
92.75700378417969
 30
83.10700225830078
 70
   192
  0
VERTEX
  5
8B1
  8
0
 10
-14.91199970245361
 20
90.43000030517578
 30
74.38400268554688
 70
   192
  0
VERTEX
  5
8B2
  8
0
 10
-14.91199970245361
 20
90.43199920654297
 30
74.39199829101562
 70
   192
  0
VERTEX
  5
8B3
  8
0
 10
30.74699974060059
 20
90.86699676513672
 30
68.08300018310547
 70
   192
  0
VERTEX
  5
8B4
  8
0
 10
30.60600090026855
 20
90.58000183105469
 30
66.95600128173828
 70
   192
  0
VERTEX
  5
8B5
  8
0
 10
30.44400024414062
 20
92.52899932861328
 30
74.79199981689453
 70
   192
  0
VERTEX
  5
8B6
  8
0
 10
27.77700042724609
 20
94.1989974975586
 30
81.95600128173828
 70
   192
  0
VERTEX
  5
8B7
  8
0
 10
30.23999977111816
 20
92.75700378417969
 30
75.74199676513672
 70
   192
  0
VERTEX
  5
8B8
  8
0
 10
26.54299926757812
 20
94.56300354003906
 30
83.62899780273438
 70
   192
  0
VERTEX
  5
8B9
  8
0
 10
27.32500076293945
 20
94.36699676513672
 30
82.70899963378906
 70
   192
  0
VERTEX
  5
8BA
  8
0
 10
30.43600082397461
 20
90.43199920654297
 30
66.39600372314453
 70
   192
  0
VERTEX
  5
8BB
  8
0
 10
19.87299919128418
 20
95.81700134277344
 30
89.8290023803711
 70
   192
  0
VERTEX
  5
8BC
  8
0
 10
22.29999923706055
 20
95.56199645996094
 30
88.38300323486328
 70
   192
  0
VERTEX
  5
8BD
  8
0
 10
23.02400016784668
 20
95.44100189208984
 30
87.77100372314453
 70
   192
  0
VERTEX
  5
8BE
  8
0
 10
16.6200008392334
 20
96.15799713134766
 30
91.76799774169922
 70
   192
  0
VERTEX
  5
8BF
  8
0
 10
12.48200035095215
 20
85.03299713134766
 30
47.97000122070312
 70
   192
  0
VERTEX
  5
8C0
  8
0
 10
9.807999610900879
 20
84.75599670410156
 30
47.33399963378906
 70
   192
  0
VERTEX
  5
8C1
  8
0
 10
8.586000442504883
 20
84.68299865722656
 30
47.25699996948242
 70
   192
  0
VERTEX
  5
8C2
  8
0
 10
17.50600051879883
 20
85.61399841308594
 30
49.40800094604492
 70
   192
  0
VERTEX
  5
8C3
  8
0
 10
16.23699951171875
 20
85.4209976196289
 30
48.86199951171875
 70
   192
  0
VERTEX
  5
8C4
  8
0
 10
20.82399940490723
 20
86.30500030517578
 30
51.58499908447266
 70
   192
  0
VERTEX
  5
8C5
  8
0
 10
24.07699966430664
 20
87.05599975585938
 30
54.01200103759766
 70
   192
  0
VERTEX
  5
8C6
  8
0
 10
23.05200004577637
 20
86.76899719238281
 30
53.04700088500977
 70
   192
  0
VERTEX
  5
8C7
  8
0
 10
27.09600067138672
 20
88.2020034790039
 30
58.06100082397461
 70
   192
  0
VERTEX
  5
8C8
  8
0
 10
28.6569995880127
 20
88.88800048828125
 30
60.52999877929688
 70
   192
  0
VERTEX
  5
8C9
  8
0
 10
28.06900024414062
 20
88.57099914550781
 30
59.36600112915039
 70
   192
  0
VERTEX
  5
8CA
  8
0
 10
30.43400001525879
 20
90.43000030517578
 30
66.38800048828125
 70
   192
  0
VERTEX
  5
8CB
  8
0
 10
-14.62399959564209
 20
88.2020034790039
 30
65.41799926757812
 70
   192
  0
VERTEX
  5
8CC
  8
0
 10
-15.09200000762939
 20
88.57099914550781
 30
66.97599792480469
 70
   192
  0
VERTEX
  5
8CD
  8
0
 10
-15.24600028991699
 20
88.88800048828125
 30
68.27100372314453
 70
   192
  0
VERTEX
  5
8CE
  8
0
 10
-10.94400024414062
 20
86.30500030517578
 30
57.1870002746582
 70
   192
  0
VERTEX
  5
8CF
  8
0
 10
-12.53800010681152
 20
86.76899719238281
 30
59.32300186157227
 70
   192
  0
VERTEX
  5
8D0
  8
0
 10
-13.17199993133545
 20
87.05599975585938
 30
60.58000183105469
 70
   192
  0
VERTEX
  5
8D1
  8
0
 10
-4.342999935150146
 20
85.03299713134766
 30
50.93600082397461
 70
   192
  0
VERTEX
  5
8D2
  8
0
 10
-7.565999984741211
 20
85.4209976196289
 30
53.05799865722656
 70
   192
  0
VERTEX
  5
8D3
  8
0
 10
-8.571000099182129
 20
85.61399841308594
 30
54.00600051879883
 70
   192
  0
VERTEX
  5
8D4
  8
0
 10
-0.925000011920929
 20
84.68299865722656
 30
48.93399810791016
 70
   192
  0
VERTEX
  5
8D5
  8
0
 10
-2.046999931335449
 20
84.75599670410156
 30
49.42499923706055
 70
   192
  0
VERTEX
  5
8D6
  8
0
 10
3.742000102996826
 20
84.5530014038086
 30
47.59199905395508
 70
   192
  0
VERTEX
  5
8D7
  8
0
 62
     9
 10
0.0
 20
0.0
 30
0.0
 70
   128
 71
     3
 72
     2
 73
     1
  0
VERTEX
  5
8D8
  8
0
 62
     9
 10
0.0
 20
0.0
 30
0.0
 70
   128
 71
     1
 72
     4
 73
     3
  0
VERTEX
  5
8D9
  8
0
 62
     9
 10
0.0
 20
0.0
 30
0.0
 70
   128
 71
     6
 72
     5
 73
     1
  0
VERTEX
  5
8DA
  8
0
 62
     9
 10
0.0
 20
0.0
 30
0.0
 70
   128
 71
     5
 72
     7
 73
     1
  0
VERTEX
  5
8DB
  8
0
 62
     9
 10
0.0
 20
0.0
 30
0.0
 70
   128
 71
     1
 72
     2
 73
     6
  0
VERTEX
  5
8DC
  8
0
 62
     9
 10
0.0
 20
0.0
 30
0.0
 70
   128
 71
    10
 72
     9
 73
     8
  0
VERTEX
  5
8DD
  8
0
 62
     9
 10
0.0
 20
0.0
 30
0.0
 70
   128
 71
    12
 72
    11
 73
     1
  0
VERTEX
  5
8DE
  8
0
 62
     9
 10
0.0
 20
0.0
 30
0.0
 70
   128
 71
    14
 72
    13
 73
     1
  0
VERTEX
  5
8DF
  8
0
 62
     9
 10
0.0
 20
0.0
 30
0.0
 70
   128
 71
     1
 72
    11
 73
    14
  0
VERTEX
  5
8E0
  8
0
 62
     9
 10
0.0
 20
0.0
 30
0.0
 70
   128
 71
     9
 72
    10
 73
     1
  0
VERTEX
  5
8E1
  8
0
 62
     9
 10
0.0
 20
0.0
 30
0.0
 70
   128
 71
     1
 72
    13
 73
     9
  0
VERTEX
  5
8E2
  8
0
 62
     9
 10
0.0
 20
0.0
 30
0.0
 70
   128
 71
    16
 72
    15
 73
     1
  0
VERTEX
  5
8E3
  8
0
 62
     9
 10
0.0
 20
0.0
 30
0.0
 70
   128
 71
     1
 72
    10
 73
    16
  0
VERTEX
  5
8E4
  8
0
 62
     9
 10
0.0
 20
0.0
 30
0.0
 70
   128
 71
     1
 72
     7
 73
    12
  0
VERTEX
  5
8E5
  8
0
 62
     9
 10
0.0
 20
0.0
 30
0.0
 70
   128
 71
     8
 72
    16
 73
    10
  0
VERTEX
  5
8E6
  8
0
 62
     9
 10
0.0
 20
0.0
 30
0.0
 70
   128
 71
    18
 72
    17
 73
     1
  0
VERTEX
  5
8E7
  8
0
 62
     9
 10
0.0
 20
0.0
 30
0.0
 70
   128
 71
    17
 72
    19
 73
     1
  0
VERTEX
  5
8E8
  8
0
 62
     9
 10
0.0
 20
0.0
 30
0.0
 70
   128
 71
    21
 72
    20
 73
     1
  0
VERTEX
  5
8E9
  8
0
 62
     9
 10
0.0
 20
0.0
 30
0.0
 70
   128
 71
    23
 72
    22
 73
     1
  0
VERTEX
  5
8EA
  8
0
 62
     9
 10
0.0
 20
0.0
 30
0.0
 70
   128
 71
     1
 72
    20
 73
    23
  0
VERTEX
  5
8EB
  8
0
 62
     9
 10
0.0
 20
0.0
 30
0.0
 70
   128
 71
     1
 72
    19
 73
    21
  0
VERTEX
  5
8EC
  8
0
 62
     9
 10
0.0
 20
0.0
 30
0.0
 70
   128
 71
     1
 72
    24
 73
    18
  0
VERTEX
  5
8ED
  8
0
 62
     9
 10
0.0
 20
0.0
 30
0.0
 70
   128
 71
    26
 72
    25
 73
     1
  0
VERTEX
  5
8EE
  8
0
 62
     9
 10
0.0
 20
0.0
 30
0.0
 70
   128
 71
     1
 72
    27
 73
    26
  0
VERTEX
  5
8EF
  8
0
 62
     9
 10
0.0
 20
0.0
 30
0.0
 70
   128
 71
     1
 72
    22
 73
    27
  0
VERTEX
  5
8F0
  8
0
 62
     9
 10
0.0
 20
0.0
 30
0.0
 70
   128
 71
    28
 72
     4
 73
     1
  0
VERTEX
  5
8F1
  8
0
 62
     9
 10
0.0
 20
0.0
 30
0.0
 70
   128
 71
     1
 72
    25
 73
    28
  0
VERTEX
  5
8F2
  8
0
 62
     9
 10
0.0
 20
0.0
 30
0.0
 70
   128
 71
    30
 72
    29
 73
     1
  0
VERTEX
  5
8F3
  8
0
 62
     9
 10
0.0
 20
0.0
 30
0.0
 70
   128
 71
     1
 72
    31
 73
    30
  0
VERTEX
  5
8F4
  8
0
 62
     9
 10
0.0
 20
0.0
 30
0.0
 70
   128
 71
    33
 72
    32
 73
     1
  0
VERTEX
  5
8F5
  8
0
 62
     9
 10
0.0
 20
0.0
 30
0.0
 70
   128
 71
    32
 72
    34
 73
     1
  0
VERTEX
  5
8F6
  8
0
 62
     9
 10
0.0
 20
0.0
 30
0.0
 70
   128
 71
     1
 72
    29
 73
    33
  0
VERTEX
  5
8F7
  8
0
 62
     9
 10
0.0
 20
0.0
 30
0.0
 70
   128
 71
    36
 72
    35
 73
     1
  0
VERTEX
  5
8F8
  8
0
 62
     9
 10
0.0
 20
0.0
 30
0.0
 70
   128
 71
    35
 72
    37
 73
     1
  0
VERTEX
  5
8F9
  8
0
 62
     9
 10
0.0
 20
0.0
 30
0.0
 70
   128
 71
    39
 72
    38
 73
     1
  0
VERTEX
  5
8FA
  8
0
 62
     9
 10
0.0
 20
0.0
 30
0.0
 70
   128
 71
    38
 72
    40
 73
     1
  0
VERTEX
  5
8FB
  8
0
 62
     9
 10
0.0
 20
0.0
 30
0.0
 70
   128
 71
     1
 72
    37
 73
    39
  0
VERTEX
  5
8FC
  8
0
 62
     9
 10
0.0
 20
0.0
 30
0.0
 70
   128
 71
     1
 72
    34
 73
    36
  0
VERTEX
  5
8FD
  8
0
 62
     9
 10
0.0
 20
0.0
 30
0.0
 70
   128
 71
    42
 72
    41
 73
     1
  0
VERTEX
  5
8FE
  8
0
 62
     9
 10
0.0
 20
0.0
 30
0.0
 70
   128
 71
     1
 72
    43
 73
    42
  0
VERTEX
  5
8FF
  8
0
 62
     9
 10
0.0
 20
0.0
 30
0.0
 70
   128
 71
    45
 72
    44
 73
     1
  0
VERTEX
  5
900
  8
0
 62
     9
 10
0.0
 20
0.0
 30
0.0
 70
   128
 71
     1
 72
    46
 73
    45
  0
VERTEX
  5
901
  8
0
 62
     9
 10
0.0
 20
0.0
 30
0.0
 70
   128
 71
    48
 72
    47
 73
     1
  0
VERTEX
  5
902
  8
0
 62
     9
 10
0.0
 20
0.0
 30
0.0
 70
   128
 71
     1
 72
    49
 73
    48
  0
VERTEX
  5
903
  8
0
 62
     9
 10
0.0
 20
0.0
 30
0.0
 70
   128
 71
     1
 72
    44
 73
    49
  0
VERTEX
  5
904
  8
0
 62
     9
 10
0.0
 20
0.0
 30
0.0
 70
   128
 71
    51
 72
    50
 73
     1
  0
VERTEX
  5
905
  8
0
 62
     9
 10
0.0
 20
0.0
 30
0.0
 70
   128
 71
     1
 72
    50
 73
    52
  0
VERTEX
  5
906
  8
0
 62
     9
 10
0.0
 20
0.0
 30
0.0
 70
   128
 71
     1
 72
    47
 73
    51
  0
VERTEX
  5
907
  8
0
 62
     9
 10
0.0
 20
0.0
 30
0.0
 70
   128
 71
     1
 72
    41
 73
    46
  0
VERTEX
  5
908
  8
0
 62
     9
 10
0.0
 20
0.0
 30
0.0
 70
   128
 71
     1
 72
    15
 73
    43
  0
VERTEX
  5
909
  8
0
 62
     9
 10
0.0
 20
0.0
 30
0.0
 70
   128
 71
     1
 72
    52
 73
    31
  0
VERTEX
  5
90A
  8
0
 62
     9
 10
0.0
 20
0.0
 30
0.0
 70
   128
 71
     1
 72
    40
 73
    24
  0
SEQEND
  5
90B
  8
0
 62
     9
  0
ENDBLK
  5
90E
  8
0
  0
ENDSEC
  0
SECTION
  2
ENTITIES
  0
INSERT
  5
54
  8
LAYER_1
  2
E3_NODE
 10
0.0
 20
0.0
 30
0.0
  0
INSERT
  5
8B
  8
LAYER_1
  2
E3_NODE_1_
 10
0.0
 20
0.0
 30
0.0
  0
INSERT
  5
A7
  8
LAYER_1
  2
E3_NODE_2_
 10
0.0
 20
0.0
 30
0.0
  0
INSERT
  5
C9
  8
LAYER_1
  2
E3_NODE_3_
 10
0.0
 20
0.0
 30
0.0
  0
INSERT
  5
EB
  8
LAYER_1
  2
E3_NODE_4_
 10
0.0
 20
0.0
 30
0.0
  0
INSERT
  5
16D
  8
LAYER_1
  2
E3_NODE_5_
 10
0.0
 20
0.0
 30
0.0
  0
INSERT
  5
1EF
  8
LAYER_1
  2
E3_NODE_6_
 10
0.0
 20
0.0
 30
0.0
  0
INSERT
  5
261
  8
LAYER_1
  2
E3_NODE_7_
 10
0.0
 20
0.0
 30
0.0
  0
INSERT
  5
2D3
  8
LAYER_1
  2
E3_NODE_8_
 10
0.0
 20
0.0
 30
0.0
  0
INSERT
  5
2F5
  8
LAYER_1
  2
E3_NODE_9_
 10
0.0
 20
0.0
 30
0.0
  0
INSERT
  5
317
  8
LAYER_1
  2
E3_NODE_10_
 10
0.0
 20
0.0
 30
0.0
  0
INSERT
  5
32E
  8
LAYER_1
  2
E3_NODE_11_
 10
0.0
 20
0.0
 30
0.0
  0
INSERT
  5
34C
  8
LAYER_1
  2
E3_NODE_12_
 10
0.0
 20
0.0
 30
0.0
  0
INSERT
  5
362
  8
LAYER_1
  2
E3_NODE_13_
 10
0.0
 20
0.0
 30
0.0
  0
INSERT
  5
3F4
  8
LAYER_1
  2
E3_NODE_14_
 10
0.0
 20
0.0
 30
0.0
  0
INSERT
  5
474
  8
LAYER_1
  2
E3_NODE_15_
 10
0.0
 20
0.0
 30
0.0
  0
INSERT
  5
48A
  8
LAYER_1
  2
E3_NODE_16_
 10
0.0
 20
0.0
 30
0.0
  0
INSERT
  5
4B0
  8
LAYER_1
  2
E3_NODE_17_
 10
0.0
 20
0.0
 30
0.0
  0
INSERT
  5
4D6
  8
LAYER_1
  2
E3_NODE_18_
 10
0.0
 20
0.0
 30
0.0
  0
INSERT
  5
50A
  8
LAYER_1
  2
E3_NODE_19_
 10
0.0
 20
0.0
 30
0.0
  0
INSERT
  5
540
  8
LAYER_1
  2
E3_NODE_20_
 10
0.0
 20
0.0
 30
0.0
  0
INSERT
  5
568
  8
LAYER_1
  2
E3_NODE_21_
 10
0.0
 20
0.0
 30
0.0
  0
INSERT
  5
58E
  8
LAYER_1
  2
E3_NODE_22_
 10
0.0
 20
0.0
 30
0.0
  0
INSERT
  5
59A
  8
LAYER_1
  2
E3_NODE_23_
 10
0.0
 20
0.0
 30
0.0
  0
INSERT
  5
5C7
  8
LAYER_1
  2
E3_NODE_24_
 10
0.0
 20
0.0
 30
0.0
  0
INSERT
  5
666
  8
LAYER_1
  2
E3_NODE_25_
 10
0.0
 20
0.0
 30
0.0
  0
INSERT
  5
6D9
  8
LAYER_1
  2
E3_NODE_26_
 10
0.0
 20
0.0
 30
0.0
  0
INSERT
  5
780
  8
LAYER_1
  2
E3_NODE_27_
 10
0.0
 20
0.0
 30
0.0
  0
INSERT
  5
80F
  8
LAYER_1
  2
E3_NODE_28_
 10
0.0
 20
0.0
 30
0.0
  0
INSERT
  5
89E
  8
LAYER_1
  2
E3_NODE_29_
 10
0.0
 20
0.0
 30
0.0
  0
INSERT
  5
90C
  8
LAYER_1
  2
E3_NODE_30_
 10
0.0
 20
0.0
 30
0.0
  0
ENDSEC
  0
EOF
