  0
SECTION
  2
HEADER
  9
$ACADVER
  1
AC1015
  9
$ACADMAINTVER
 70
     6
  9
$DWGCODEPAGE
  3
ANSI_1252
  9
$INSBASE
 10
0.0
 20
0.0
 30
0.0
  9
$EXTMIN
 10
0.0
 20
0.0
 30
0.0
  9
$EXTMAX
 10
1682.0
 20
2378.0
 30
0.0
  9
$LIMMIN
 10
0.0
 20
0.0
  9
$LIMMAX
 10
1682.0
 20
2378.0
  9
$ORTHOMODE
 70
     0
  9
$REGENMODE
 70
     1
  9
$FILLMODE
 70
     1
  9
$QTEXTMODE
 70
     0
  9
$MIRRTEXT
 70
     1
  9
$LTSCALE
 40
1.0
  9
$ATTMODE
 70
     1
  9
$TEXTSIZE
 40
2.5
  9
$TRACEWID
 40
1.0
  9
$TEXTSTYLE
  7
Standard
  9
$CLAYER
  8
0
  9
$CELTYPE
  6
ByLayer
  9
$CECOLOR
 62
   256
  9
$CELTSCALE
 40
1.0
  9
$DISPSILH
 70
     0
  9
$DIMSCALE
 40
1.0
  9
$DIMASZ
 40
2.5
  9
$DIMEXO
 40
0.625
  9
$DIMDLI
 40
3.75
  9
$DIMRND
 40
0.0
  9
$DIMDLE
 40
0.0
  9
$DIMEXE
 40
1.25
  9
$DIMTP
 40
0.0
  9
$DIMTM
 40
0.0
  9
$DIMTXT
 40
2.5
  9
$DIMCEN
 40
2.5
  9
$DIMTSZ
 40
0.0
  9
$DIMTOL
 70
     0
  9
$DIMLIM
 70
     0
  9
$DIMTIH
 70
     0
  9
$DIMTOH
 70
     0
  9
$DIMSE1
 70
     0
  9
$DIMSE2
 70
     0
  9
$DIMTAD
 70
     1
  9
$DIMZIN
 70
     8
  9
$DIMBLK
  1

  9
$DIMASO
 70
     1
  9
$DIMSHO
 70
     1
  9
$DIMPOST
  1

  9
$DIMAPOST
  1

  9
$DIMALT
 70
     0
  9
$DIMALTD
 70
     3
  9
$DIMALTF
 40
0.0393700787
  9
$DIMLFAC
 40
1.0
  9
$DIMTOFL
 70
     1
  9
$DIMTVP
 40
0.0
  9
$DIMTIX
 70
     0
  9
$DIMSOXD
 70
     0
  9
$DIMSAH
 70
     0
  9
$DIMBLK1
  1

  9
$DIMBLK2
  1

  9
$DIMSTYLE
  2
ISO-25
  9
$DIMCLRD
 70
     0
  9
$DIMCLRE
 70
     0
  9
$DIMCLRT
 70
     0
  9
$DIMTFAC
 40
1.0
  9
$DIMGAP
 40
0.625
  9
$DIMJUST
 70
     0
  9
$DIMSD1
 70
     0
  9
$DIMSD2
 70
     0
  9
$DIMTOLJ
 70
     0
  9
$DIMTZIN
 70
     8
  9
$DIMALTZ
 70
     0
  9
$DIMALTTZ
 70
     0
  9
$DIMUPT
 70
     0
  9
$DIMDEC
 70
     2
  9
$DIMTDEC
 70
     2
  9
$DIMALTU
 70
     2
  9
$DIMALTTD
 70
     3
  9
$DIMTXSTY
  7
Standard
  9
$DIMAUNIT
 70
     0
  9
$DIMADEC
 70
     0
  9
$DIMALTRND
 40
0.0
  9
$DIMAZIN
 70
     0
  9
$DIMDSEP
 70
    44
  9
$DIMATFIT
 70
     3
  9
$DIMFRAC
 70
     0
  9
$DIMLDRBLK
  1

  9
$DIMLUNIT
 70
     2
  9
$DIMLWD
 70
    -2
  9
$DIMLWE
 70
    -2
  9
$DIMTMOVE
 70
     0
  9
$LUNITS
 70
     2
  9
$LUPREC
 70
     4
  9
$SKETCHINC
 40
1.0
  9
$FILLETRAD
 40
10.0
  9
$AUNITS
 70
     0
  9
$AUPREC
 70
     0
  9
$MENU
  1
.
  9
$ELEVATION
 40
0.0
  9
$PELEVATION
 40
0.0
  9
$THICKNESS
 40
0.0
  9
$LIMCHECK
 70
     0
  9
$CHAMFERA
 40
10.0
  9
$CHAMFERB
 40
10.0
  9
$CHAMFERC
 40
20.0
  9
$CHAMFERD
 40
0.0
  9
$SKPOLY
 70
     0
  9
$TDCREATE
 40
2455503.555730532
  9
$TDUCREATE
 40
2455503.514063866
  9
$TDUPDATE
 40
2455503.555730544
  9
$TDUUPDATE
 40
2455503.514063878
  9
$TDINDWG
 40
0.0000000116
  9
$TDUSRTIMER
 40
0.0000000116
  9
$USRTIMER
 70
     1
  9
$ANGBASE
 50
0.0
  9
$ANGDIR
 70
     0
  9
$PDMODE
 70
     0
  9
$PDSIZE
 40
0.0
  9
$PLINEWID
 40
0.0
  9
$SPLFRAME
 70
     0
  9
$SPLINETYPE
 70
     6
  9
$SPLINESEGS
 70
     8
  9
$HANDSEED
  5
1FE
  9
$SURFTAB1
 70
     6
  9
$SURFTAB2
 70
     6
  9
$SURFTYPE
 70
     6
  9
$SURFU
 70
     6
  9
$SURFV
 70
     6
  9
$UCSBASE
  2

  9
$UCSNAME
  2

  9
$UCSORG
 10
0.0
 20
0.0
 30
0.0
  9
$UCSXDIR
 10
1.0
 20
0.0
 30
0.0
  9
$UCSYDIR
 10
0.0
 20
1.0
 30
0.0
  9
$UCSORTHOREF
  2

  9
$UCSORTHOVIEW
 70
     0
  9
$UCSORGTOP
 10
0.0
 20
0.0
 30
0.0
  9
$UCSORGBOTTOM
 10
0.0
 20
0.0
 30
0.0
  9
$UCSORGLEFT
 10
0.0
 20
0.0
 30
0.0
  9
$UCSORGRIGHT
 10
0.0
 20
0.0
 30
0.0
  9
$UCSORGFRONT
 10
0.0
 20
0.0
 30
0.0
  9
$UCSORGBACK
 10
0.0
 20
0.0
 30
0.0
  9
$PUCSBASE
  2

  9
$PUCSNAME
  2

  9
$PUCSORG
 10
0.0
 20
0.0
 30
0.0
  9
$PUCSXDIR
 10
1.0
 20
0.0
 30
0.0
  9
$PUCSYDIR
 10
0.0
 20
1.0
 30
0.0
  9
$PUCSORTHOREF
  2

  9
$PUCSORTHOVIEW
 70
     0
  9
$PUCSORGTOP
 10
0.0
 20
0.0
 30
0.0
  9
$PUCSORGBOTTOM
 10
0.0
 20
0.0
 30
0.0
  9
$PUCSORGLEFT
 10
0.0
 20
0.0
 30
0.0
  9
$PUCSORGRIGHT
 10
0.0
 20
0.0
 30
0.0
  9
$PUCSORGFRONT
 10
0.0
 20
0.0
 30
0.0
  9
$PUCSORGBACK
 10
0.0
 20
0.0
 30
0.0
  9
$USERI1
 70
     0
  9
$USERI2
 70
     0
  9
$USERI3
 70
     0
  9
$USERI4
 70
     0
  9
$USERI5
 70
     0
  9
$USERR1
 40
0.0
  9
$USERR2
 40
0.0
  9
$USERR3
 40
0.0
  9
$USERR4
 40
0.0
  9
$USERR5
 40
0.0
  9
$WORLDVIEW
 70
     1
  9
$SHADEDGE
 70
     3
  9
$SHADEDIF
 70
    70
  9
$TILEMODE
 70
     1
  9
$MAXACTVP
 70
    64
  9
$PINSBASE
 10
0.0
 20
0.0
 30
0.0
  9
$PLIMCHECK
 70
     0
  9
$PEXTMIN
 10
0.0
 20
0.0
 30
0.0
  9
$PEXTMAX
 10
1682.0
 20
2378.0
 30
0.0
  9
$PLIMMIN
 10
0.0
 20
0.0
  9
$PLIMMAX
 10
1682.0
 20
2378.0
  9
$UNITMODE
 70
     0
  9
$VISRETAIN
 70
     1
  9
$PLINEGEN
 70
     0
  9
$PSLTSCALE
 70
     1
  9
$TREEDEPTH
 70
  3020
  9
$CMLSTYLE
  2
Standard
  9
$CMLJUST
 70
     0
  9
$CMLSCALE
 40
20.0
  9
$PROXYGRAPHICS
 70
     1
  9
$MEASUREMENT
 70
     1
  9
$CELWEIGHT
370
    -1
  9
$ENDCAPS
280
     0
  9
$JOINSTYLE
280
     0
  9
$LWDISPLAY
290
     0
  9
$INSUNITS
 70
     4
  9
$HYPERLINKBASE
  1

  9
$STYLESHEET
  1

  9
$XEDIT
290
     1
  9
$CEPSNTYPE
380
     0
  9
$PSTYLEMODE
290
     1
  9
$FINGERPRINTGUID
  2
{23774247-042B-4056-A61A-FEE1453640BD}
  9
$VERSIONGUID
  2
{FAEB1C32-E019-11D5-929B-00C0DF256EC4}
  9
$EXTNAMES
290
     1
  9
$PSVPSCALE
 40
0.0
  9
$OLESTARTUP
290
     0
  0
ENDSEC
  0
SECTION
  2
CLASSES
  0
CLASS
  1
ACDBDICTIONARYWDFLT
  2
AcDbDictionaryWithDefault
  3
ObjectDBX Classes
 90
        0
280
     0
281
     0
  0
CLASS
  1
VISUALSTYLE
  2
AcDbVisualStyle
  3
ObjectDBX Classes
 90
     4095
280
     0
281
     0
  0
CLASS
  1
SCALE
  2
AcDbScale
  3
ObjectDBX Classes
 90
     1153
280
     0
281
     0
  0
CLASS
  1
DICTIONARYVAR
  2
AcDbDictionaryVar
  3
ObjectDBX Classes
 90
        0
280
     0
281
     0
  0
CLASS
  1
ACDBPLACEHOLDER
  2
AcDbPlaceHolder
  3
ObjectDBX Classes
 90
        0
280
     0
281
     0
  0
CLASS
  1
LAYOUT
  2
AcDbLayout
  3
ObjectDBX Classes
 90
        0
280
     0
281
     0
  0
ENDSEC
  0
SECTION
  2
TABLES
  0
TABLE
  2
VPORT
  5
8
330
0
100
AcDbSymbolTable
 70
     1
  0
VPORT
  5
29
330
8
100
AcDbSymbolTableRecord
100
AcDbViewportTableRecord
  2
*Active
 70
     0
 10
0.0
 20
0.0
 11
1.0
 21
1.0
 12
344.1869158879
 22
148.5
 13
0.0
 23
0.0
 14
10.0
 24
10.0
 15
10.0
 25
10.0
 16
0.0
 26
0.0
 36
1.0
 17
0.0
 27
0.0
 37
0.0
 40
297.0
 41
1.9729729729
 42
50.0
 43
0.0
 44
0.0
 50
0.0
 51
0.0
 71
     0
 72
   100
 73
     1
 74
     3
 75
     0
 76
     0
 77
     0
 78
     0
281
     0
 65
     1
110
0.0
120
0.0
130
0.0
111
1.0
121
0.0
131
0.0
112
0.0
122
1.0
132
0.0
 79
     0
146
0.0
  0
ENDTAB
  0
TABLE
  2
LTYPE
  5
5
330
0
100
AcDbSymbolTable
 70
     2
  0
LTYPE
  5
14
330
5
100
AcDbSymbolTableRecord
100
AcDbLinetypeTableRecord
  2
ByBlock
 70
     0
  3

 72
    65
 73
     0
 40
0.0
  0
LTYPE
  5
15
330
5
100
AcDbSymbolTableRecord
100
AcDbLinetypeTableRecord
  2
ByLayer
 70
     0
  3

 72
    65
 73
     0
 40
0.0
  0
LTYPE
  5
16
330
5
100
AcDbSymbolTableRecord
100
AcDbLinetypeTableRecord
  2
Continuous
 70
     0
  3
Solid line
 72
    65
 73
     0
 40
0.0
  0
LTYPE
  5
60
330
5
100
AcDbSymbolTableRecord
100
AcDbLinetypeTableRecord
  2
CENTER2
 70
     0
  3
Center (.5x) ___ _ ___ _ ___ _ ___ _ ___ _ ___
 72
    65
 73
     4
 40
28.575
 49
19.05
 74
     4
 75
     0
340
0
 46
0.0
 50
0.0
 44
0.0
 45
0.0
 49
-3.175
 74
     4
 75
     0
340
0
 46
0.0
 50
0.0
 44
0.0
 45
0.0
 49
3.175
 74
     4
 75
     0
340
0
 46
0.0
 50
0.0
 44
0.0
 45
0.0
 49
-3.175
 74
     4
 75
     0
340
0
 46
0.0
 50
0.0
 44
0.0
 45
0.0
  0
ENDTAB
  0
TABLE
  2
LAYER
  5
2
330
0
100
AcDbSymbolTable
 70
    12
  0
LAYER
  5
10
330
2
100
AcDbSymbolTableRecord
100
AcDbLayerTableRecord
  2
0
 70
     0
 62
     7
  6
Continuous
370
    -3
390
F
  0
LAYER
  5
5D
330
2
100
AcDbSymbolTableRecord
100
AcDbLayerTableRecord
  2
Default
 70
     0
 62
     7
  6
Continuous
370
    -3
390
F
  0
LAYER
  5
93
330
2
100
AcDbSymbolTableRecord
100
AcDbLayerTableRecord
  2
$DDT_AUDIT_GENERATED_(93)
 70
     0
 62
     7
  6
Continuous
370
    -3
390
F
  0
LAYER
  5
99
330
2
100
AcDbSymbolTableRecord
100
AcDbLayerTableRecord
  2
$DDT_AUDIT_GENERATED_(99)
 70
     0
 62
     7
  6
Continuous
370
    -3
390
F
  0
LAYER
  5
A2
330
2
100
AcDbSymbolTableRecord
100
AcDbLayerTableRecord
  2
$DDT_AUDIT_GENERATED_(A2)
 70
     0
 62
     7
  6
Continuous
370
    -3
390
F
  0
LAYER
  5
BD
330
2
100
AcDbSymbolTableRecord
100
AcDbLayerTableRecord
  2
$DDT_AUDIT_GENERATED_(BD)
 70
     0
 62
     7
  6
Continuous
370
    -3
390
F
  0
LAYER
  5
CD
330
2
100
AcDbSymbolTableRecord
100
AcDbLayerTableRecord
  2
$DDT_AUDIT_GENERATED_(CD)
 70
     0
 62
     7
  6
Continuous
370
    -3
390
F
  0
LAYER
  5
E4
330
2
100
AcDbSymbolTableRecord
100
AcDbLayerTableRecord
  2
$DDT_AUDIT_GENERATED_(E4)
 70
     0
 62
     7
  6
Continuous
370
    -3
390
F
  0
LAYER
  5
FC
330
2
100
AcDbSymbolTableRecord
100
AcDbLayerTableRecord
  2
08919XX1_ELEMENT
 70
     0
 62
     7
  6
Continuous
370
    -3
390
F
  0
LAYER
  5
170
330
2
100
AcDbSymbolTableRecord
100
AcDbLayerTableRecord
  2
$DDT_AUDIT_GENERATED_(170)
 70
     0
 62
     7
  6
Continuous
370
    -3
390
F
  0
LAYER
  5
1AE
330
2
100
AcDbSymbolTableRecord
100
AcDbLayerTableRecord
  2
$DDT_AUDIT_GENERATED_(1AE)
 70
     0
 62
     7
  6
Continuous
370
    -3
390
F
  0
LAYER
  5
1D4
330
2
100
AcDbSymbolTableRecord
100
AcDbLayerTableRecord
  2
$DDT_AUDIT_GENERATED_(1D4)
 70
     0
 62
     7
  6
Continuous
370
    -3
390
F
  0
ENDTAB
  0
TABLE
  2
STYLE
  5
3
330
0
100
AcDbSymbolTable
 70
     2
  0
STYLE
  5
11
330
3
100
AcDbSymbolTableRecord
100
AcDbTextStyleTableRecord
  2
Standard
 70
     0
 40
0.0
 41
1.0
 50
0.0
 71
     0
 42
2.5
  3
txt
  4

  0
STYLE
  5
1ED
330
3
100
AcDbSymbolTableRecord
100
AcDbTextStyleTableRecord
  2
SEACAD_seiso_ttf
 70
     0
 40
0.0
 41
1.0
 50
0.0
 71
     0
 42
0.2
  3
seiso.ttf
  4

  0
ENDTAB
  0
TABLE
  2
VIEW
  5
6
330
0
100
AcDbSymbolTable
 70
     0
  0
ENDTAB
  0
TABLE
  2
UCS
  5
7
330
0
100
AcDbSymbolTable
 70
     0
  0
ENDTAB
  0
TABLE
  2
APPID
  5
9
330
0
100
AcDbSymbolTable
 70
     1
  0
APPID
  5
12
330
9
100
AcDbSymbolTableRecord
100
AcDbRegAppTableRecord
  2
ACAD
 70
     0
  0
ENDTAB
  0
TABLE
  2
DIMSTYLE
  5
A
330
0
100
AcDbSymbolTable
 70
     1
100
AcDbDimStyleTable
  0
DIMSTYLE
105
27
330
A
100
AcDbSymbolTableRecord
100
AcDbDimStyleTableRecord
  2
ISO-25
 70
     0
 41
2.5
 42
0.625
 43
3.75
 44
1.25
 73
     0
 74
     0
 77
     1
 78
     8
140
2.5
141
2.5
143
0.0393700787
147
0.625
171
     3
172
     1
271
     2
272
     2
274
     3
278
    44
283
     0
284
     8
340
11
  0
ENDTAB
  0
TABLE
  2
BLOCK_RECORD
  5
1
330
0
100
AcDbSymbolTable
 70
    13
  0
BLOCK_RECORD
  5
1F
330
1
100
AcDbSymbolTableRecord
100
AcDbBlockTableRecord
  2
*Model_Space
340
22
  0
BLOCK_RECORD
  5
1B
330
1
100
AcDbSymbolTableRecord
100
AcDbBlockTableRecord
  2
*Paper_Space
340
1E
  0
BLOCK_RECORD
  5
5E
330
1
100
AcDbSymbolTableRecord
100
AcDbBlockTableRecord
  2
SEANNOT_GROUP
340
0
102
{BLKREFS
331
5F
102
}
  0
BLOCK_RECORD
  5
65
330
1
100
AcDbSymbolTableRecord
100
AcDbBlockTableRecord
  2
SEANNOT_GROUP1
340
0
102
{BLKREFS
331
66
102
}
  0
BLOCK_RECORD
  5
6B
330
1
100
AcDbSymbolTableRecord
100
AcDbBlockTableRecord
  2
SEANNOT_GROUP2
340
0
102
{BLKREFS
331
6C
102
}
  0
BLOCK_RECORD
  5
75
330
1
100
AcDbSymbolTableRecord
100
AcDbBlockTableRecord
  2
SEANNOT_GROUP3
340
0
102
{BLKREFS
331
76
102
}
  0
BLOCK_RECORD
  5
7F
330
1
100
AcDbSymbolTableRecord
100
AcDbBlockTableRecord
  2
SE
340
0
102
{BLKREFS
331
80
102
}
  0
BLOCK_RECORD
  5
85
330
1
100
AcDbSymbolTableRecord
100
AcDbBlockTableRecord
  2
SE1
340
0
102
{BLKREFS
331
86
102
}
  0
BLOCK_RECORD
  5
8B
330
1
100
AcDbSymbolTableRecord
100
AcDbBlockTableRecord
  2
SEANNOT_GROUP4
340
0
102
{BLKREFS
331
8C
102
}
  0
BLOCK_RECORD
  5
91
330
1
100
AcDbSymbolTableRecord
100
AcDbBlockTableRecord
  2
SE2
340
0
102
{BLKREFS
331
92
102
}
  0
BLOCK_RECORD
  5
AC
330
1
100
AcDbSymbolTableRecord
100
AcDbBlockTableRecord
  2
SE3
340
0
102
{BLKREFS
331
AD
102
}
  0
BLOCK_RECORD
  5
10C
330
1
100
AcDbSymbolTableRecord
100
AcDbBlockTableRecord
  2
SE4
340
0
102
{BLKREFS
331
10D
102
}
  0
BLOCK_RECORD
  5
129
330
1
100
AcDbSymbolTableRecord
100
AcDbBlockTableRecord
  2
SE5
340
0
102
{BLKREFS
331
12A
102
}
  0
BLOCK_RECORD
  5
15F
330
1
100
AcDbSymbolTableRecord
100
AcDbBlockTableRecord
  2
SE6
340
0
102
{BLKREFS
331
160
102
}
  0
ENDTAB
  0
ENDSEC
  0
SECTION
  2
BLOCKS
  0
BLOCK
  5
20
330
1F
100
AcDbEntity
  8
0
100
AcDbBlockBegin
  2
*Model_Space
 70
     0
 10
0.0
 20
0.0
 30
0.0
  3
*Model_Space
  1

  0
ENDBLK
  5
21
330
1F
100
AcDbEntity
  8
0
100
AcDbBlockEnd
  0
BLOCK
  5
1C
330
1B
100
AcDbEntity
 67
     1
  8
0
100
AcDbBlockBegin
  2
*Paper_Space
 70
     0
 10
0.0
 20
0.0
 30
0.0
  3
*Paper_Space
  1

  0
ENDBLK
  5
1D
330
1B
100
AcDbEntity
 67
     1
  8
0
100
AcDbBlockEnd
  0
BLOCK
  5
63
330
5E
100
AcDbEntity
  8
0
100
AcDbBlockBegin
  2
SEANNOT_GROUP
 70
     0
 10
0.0
 20
0.0
 30
0.0
  3
SEANNOT_GROUP
  1

  0
LINE
  5
61
330
5E
100
AcDbEntity
  8
Default
  6
CENTER2
 62
     7
100
AcDbLine
 10
324.8396900277
 20
773.2360872103
 30
0.0
 11
284.8396909217
 21
773.2360872103
 31
0.0
  0
LINE
  5
62
330
5E
100
AcDbEntity
  8
Default
  6
CENTER2
 62
     7
100
AcDbLine
 10
304.8396904747
 20
793.2360867633
 30
0.0
 11
304.8396904747
 21
753.2360876573
 31
0.0
  0
ENDBLK
  5
64
330
5E
100
AcDbEntity
  8
0
100
AcDbBlockEnd
  0
BLOCK
  5
69
330
65
100
AcDbEntity
  8
0
100
AcDbBlockBegin
  2
SEANNOT_GROUP1
 70
     0
 10
0.0
 20
0.0
 30
0.0
  3
SEANNOT_GROUP1
  1

  0
LINE
  5
67
330
65
100
AcDbEntity
  8
Default
  6
CENTER2
 62
     7
100
AcDbLine
 10
324.8396900277
 20
397.6154204263
 30
0.0
 11
284.8396909217
 21
397.6154204263
 31
0.0
  0
LINE
  5
68
330
65
100
AcDbEntity
  8
Default
  6
CENTER2
 62
     7
100
AcDbLine
 10
304.8396904747
 20
417.6154199793
 30
0.0
 11
304.8396904747
 21
377.6154208734
 31
0.0
  0
ENDBLK
  5
6A
330
65
100
AcDbEntity
  8
0
100
AcDbBlockEnd
  0
BLOCK
  5
73
330
6B
100
AcDbEntity
  8
0
100
AcDbBlockBegin
  2
SEANNOT_GROUP2
 70
     0
 10
0.0
 20
0.0
 30
0.0
  3
SEANNOT_GROUP2
  1

  0
LINE
  5
6D
330
6B
100
AcDbEntity
  8
Default
  6
CENTER2
 62
     7
100
AcDbLine
 10
121.589354721
 20
776.2700022192
 30
0.0
 11
81.589355615
 21
776.2700022192
 31
0.0
  0
LINE
  5
6E
330
6B
100
AcDbEntity
  8
Default
  6
CENTER2
 62
     7
100
AcDbLine
 10
101.589355168
 20
796.2700017721
 30
0.0
 11
101.589355168
 21
756.2700026662
 31
0.0
  0
LINE
  5
6F
330
6B
100
AcDbEntity
  8
Default
  6
CENTER2
 62
     7
100
AcDbLine
 10
126.5893546092
 20
776.2700022192
 30
0.0
 11
109.589355168
 21
776.2700022192
 31
0.0
  0
LINE
  5
70
330
6B
100
AcDbEntity
  8
Default
  6
CENTER2
 62
     7
100
AcDbLine
 10
101.589355168
 20
801.2700016604
 30
0.0
 11
101.589355168
 21
784.2700022192
 31
0.0
  0
LINE
  5
71
330
6B
100
AcDbEntity
  8
Default
  6
CENTER2
 62
     7
100
AcDbLine
 10
76.5893557268
 20
776.2700022192
 30
0.0
 11
93.589355168
 21
776.2700022192
 31
0.0
  0
LINE
  5
72
330
6B
100
AcDbEntity
  8
Default
  6
CENTER2
 62
     7
100
AcDbLine
 10
101.589355168
 20
751.270002778
 30
0.0
 11
101.589355168
 21
768.2700022192
 31
0.0
  0
ENDBLK
  5
74
330
6B
100
AcDbEntity
  8
0
100
AcDbBlockEnd
  0
BLOCK
  5
7D
330
75
100
AcDbEntity
  8
0
100
AcDbBlockBegin
  2
SEANNOT_GROUP3
 70
     0
 10
0.0
 20
0.0
 30
0.0
  3
SEANNOT_GROUP3
  1

  0
LINE
  5
77
330
75
100
AcDbEntity
  8
Default
  6
CENTER2
 62
     7
100
AcDbLine
 10
121.589354721
 20
395.7340640091
 30
0.0
 11
81.589355615
 21
395.7340640091
 31
0.0
  0
LINE
  5
78
330
75
100
AcDbEntity
  8
Default
  6
CENTER2
 62
     7
100
AcDbLine
 10
101.589355168
 20
415.7340635621
 30
0.0
 11
101.589355168
 21
375.7340644562
 31
0.0
  0
LINE
  5
79
330
75
100
AcDbEntity
  8
Default
  6
CENTER2
 62
     7
100
AcDbLine
 10
126.5893546092
 20
395.7340640091
 30
0.0
 11
109.589355168
 21
395.7340640091
 31
0.0
  0
LINE
  5
7A
330
75
100
AcDbEntity
  8
Default
  6
CENTER2
 62
     7
100
AcDbLine
 10
101.589355168
 20
420.7340634503
 30
0.0
 11
101.589355168
 21
403.7340640091
 31
0.0
  0
LINE
  5
7B
330
75
100
AcDbEntity
  8
Default
  6
CENTER2
 62
     7
100
AcDbLine
 10
76.5893557268
 20
395.7340640091
 30
0.0
 11
93.589355168
 21
395.7340640091
 31
0.0
  0
LINE
  5
7C
330
75
100
AcDbEntity
  8
Default
  6
CENTER2
 62
     7
100
AcDbLine
 10
101.589355168
 20
370.7340645679
 30
0.0
 11
101.589355168
 21
387.7340640091
 31
0.0
  0
ENDBLK
  5
7E
330
75
100
AcDbEntity
  8
0
100
AcDbBlockEnd
  0
BLOCK
  5
83
330
7F
100
AcDbEntity
  8
0
100
AcDbBlockBegin
  2
SE
 70
     0
 10
0.0
 20
0.0
 30
0.0
  3
SE
  1

  0
LWPOLYLINE
  5
81
330
7F
100
AcDbEntity
  8
0
  6
Continuous
 62
     7
100
AcDbPolyline
 90
        3
 70
     0
 43
0.0
 10
88.189355168
 20
522.6647968728
 42
-0.3333333333
 10
100.589355168
 20
522.6647968728
 42
0.3333333333
 10
112.989355168
 20
522.6647968728
 42
0.3333333333
  0
LWPOLYLINE
  5
82
330
7F
100
AcDbEntity
  8
0
  6
Continuous
 62
     7
100
AcDbPolyline
 90
        3
 70
     0
 43
0.0
 10
88.189355168
 20
527.6647968728
 42
-0.3333333333
 10
100.589355168
 20
527.6647968728
 42
0.3333333333
 10
112.989355168
 20
527.6647968728
 42
0.3333333333
  0
ENDBLK
  5
84
330
7F
100
AcDbEntity
  8
0
100
AcDbBlockEnd
  0
BLOCK
  5
89
330
85
100
AcDbEntity
  8
0
100
AcDbBlockBegin
  2
SE1
 70
     0
 10
0.0
 20
0.0
 30
0.0
  3
SE1
  1

  0
LWPOLYLINE
  5
87
330
85
100
AcDbEntity
  8
0
  6
Continuous
 62
     7
100
AcDbPolyline
 90
        3
 70
     0
 43
0.0
 10
357.4396904747
 20
522.6647968728
 42
-0.3333333333
 10
369.8396904747
 20
522.6647968728
 42
0.3333333333
 10
382.2396904747
 20
522.6647968728
 42
0.3333333333
  0
LWPOLYLINE
  5
88
330
85
100
AcDbEntity
  8
0
  6
Continuous
 62
     7
100
AcDbPolyline
 90
        3
 70
     0
 43
0.0
 10
357.4396904747
 20
527.6647968728
 42
-0.3333333333
 10
369.8396904747
 20
527.6647968728
 42
0.3333333333
 10
382.2396904747
 20
527.6647968728
 42
0.3333333333
  0
ENDBLK
  5
8A
330
85
100
AcDbEntity
  8
0
100
AcDbBlockEnd
  0
BLOCK
  5
8F
330
8B
100
AcDbEntity
  8
0
100
AcDbBlockBegin
  2
SEANNOT_GROUP4
 70
     0
 10
0.0
 20
0.0
 30
0.0
  3
SEANNOT_GROUP4
  1

  0
LINE
  5
8D
330
8B
100
AcDbEntity
  8
Default
  6
CENTER2
 62
     7
100
AcDbLine
 10
120.589354721
 20
189.35
 30
0.0
 11
80.589355615
 21
189.35
 31
0.0
  0
LINE
  5
8E
330
8B
100
AcDbEntity
  8
Default
  6
CENTER2
 62
     7
100
AcDbLine
 10
100.589355168
 20
209.349999553
 30
0.0
 11
100.589355168
 21
169.350000447
 31
0.0
  0
ENDBLK
  5
90
330
8B
100
AcDbEntity
  8
0
100
AcDbBlockEnd
  0
BLOCK
  5
AA
330
91
100
AcDbEntity
  8
0
100
AcDbBlockBegin
  2
SE2
 70
     0
 10
0.0
 20
0.0
 30
0.0
  3
SE2
  1

  0
LINE
  5
94
330
91
100
AcDbEntity
  8
$DDT_AUDIT_GENERATED_(93)
  6
Continuous
 62
     7
100
AcDbLine
 10
88.189355168
 20
336.5443609046
 30
0.0
 11
112.989355168
 21
336.5443609046
 31
0.0
  0
LINE
  5
95
330
91
100
AcDbEntity
  8
$DDT_AUDIT_GENERATED_(93)
  6
Continuous
 62
     7
100
AcDbLine
 10
112.989355168
 20
336.5443609046
 30
0.0
 11
112.989355168
 21
369.5193609046
 31
0.0
  0
LINE
  5
96
330
91
100
AcDbEntity
  8
$DDT_AUDIT_GENERATED_(93)
  6
Continuous
 62
     7
100
AcDbLine
 10
112.989355168
 20
417.5193609046
 30
0.0
 11
112.989355168
 21
522.6647968728
 31
0.0
  0
LINE
  5
97
330
91
100
AcDbEntity
  8
$DDT_AUDIT_GENERATED_(93)
  6
Continuous
 62
     7
100
AcDbLine
 10
88.189355168
 20
522.6647968728
 30
0.0
 11
88.189355168
 21
417.5193609046
 31
0.0
  0
LINE
  5
98
330
91
100
AcDbEntity
  8
$DDT_AUDIT_GENERATED_(93)
  6
Continuous
 62
     7
100
AcDbLine
 10
88.189355168
 20
369.5193609046
 30
0.0
 11
88.189355168
 21
336.5443609046
 31
0.0
  0
LINE
  5
9A
330
91
100
AcDbEntity
  8
$DDT_AUDIT_GENERATED_(99)
  6
Continuous
 62
     7
100
AcDbLine
 10
115.589355168
 20
369.5193609046
 30
0.0
 11
85.589355168
 21
369.5193609046
 31
0.0
  0
LINE
  5
9B
330
91
100
AcDbEntity
  8
$DDT_AUDIT_GENERATED_(99)
  6
Continuous
 62
     7
100
AcDbLine
 10
85.589355168
 20
417.5193609046
 30
0.0
 11
115.589355168
 21
417.5193609046
 31
0.0
  0
LINE
  5
9C
330
91
100
AcDbEntity
  8
$DDT_AUDIT_GENERATED_(99)
  6
Continuous
 62
     7
100
AcDbLine
 10
116.089355168
 20
370.0193609046
 30
0.0
 11
116.089355168
 21
417.0193609046
 31
0.0
  0
LINE
  5
9D
330
91
100
AcDbEntity
  8
$DDT_AUDIT_GENERATED_(99)
  6
Continuous
 62
     7
100
AcDbLine
 10
85.089355168
 20
417.0193609046
 30
0.0
 11
85.089355168
 21
370.0193609046
 31
0.0
  0
ARC
  5
9E
330
91
100
AcDbEntity
  8
$DDT_AUDIT_GENERATED_(99)
  6
Continuous
 62
     7
100
AcDbCircle
 10
115.589355168
 20
370.0193609046
 30
0.0
 40
0.500000000000056
100
AcDbArc
 50
270.0
 51
0.0
  0
ARC
  5
9F
330
91
100
AcDbEntity
  8
$DDT_AUDIT_GENERATED_(99)
  6
Continuous
 62
     7
100
AcDbCircle
 10
85.589355168
 20
370.0193609046
 30
0.0
 40
0.5000000000000004
100
AcDbArc
 50
180.0
 51
270.0
  0
ARC
  5
A0
330
91
100
AcDbEntity
  8
$DDT_AUDIT_GENERATED_(99)
  6
Continuous
 62
     7
100
AcDbCircle
 10
115.589355168
 20
417.0193609046
 30
0.0
 40
0.5000000000000004
100
AcDbArc
 50
0.0
 51
90.0
  0
ARC
  5
A1
330
91
100
AcDbEntity
  8
$DDT_AUDIT_GENERATED_(99)
  6
Continuous
 62
     7
100
AcDbCircle
 10
85.589355168
 20
417.0193609046
 30
0.0
 40
0.500000000000056
100
AcDbArc
 50
90.0
 51
180.0
  0
ARC
  5
A3
330
91
100
AcDbEntity
  8
$DDT_AUDIT_GENERATED_(A2)
  6
Continuous
 62
     7
100
AcDbCircle
 10
100.589355168
 20
355.3855944119
 30
0.0
 40
24.99999999999991
100
AcDbArc
 50
242.2168909071
 51
297.7831090929
  0
LINE
  5
A4
330
91
100
AcDbEntity
  8
$DDT_AUDIT_GENERATED_(A2)
  6
Continuous
 62
     7
100
AcDbLine
 10
88.3527908625
 20
336.0312724305
 30
0.0
 11
88.4026775897
 21
334.1261751805
 31
0.0
  0
LINE
  5
A5
330
91
100
AcDbEntity
  8
$DDT_AUDIT_GENERATED_(A2)
  6
Continuous
 62
     7
100
AcDbLine
 10
112.7760327463
 20
334.1261751805
 30
0.0
 11
112.8259194735
 21
336.0312724305
 31
0.0
  0
ARC
  5
A6
330
91
100
AcDbEntity
  8
$DDT_AUDIT_GENERATED_(A2)
  6
Continuous
 62
     7
100
AcDbCircle
 10
89.4023349147
 20
334.1523521288
 30
0.0
 40
1.0
100
AcDbArc
 50
181.5
 51
242.2168909071
  0
ARC
  5
A7
330
91
100
AcDbEntity
  8
$DDT_AUDIT_GENERATED_(A2)
  6
Continuous
 62
     7
100
AcDbCircle
 10
111.7763754213
 20
334.1523521288
 30
0.0
 40
1.000000000000029
100
AcDbArc
 50
297.7831090929
 51
358.5
  0
ARC
  5
A8
330
91
100
AcDbEntity
  8
$DDT_AUDIT_GENERATED_(A2)
  6
Continuous
 62
     7
100
AcDbCircle
 10
88.852619525
 20
336.0443609046
 30
0.0
 40
0.500000000000056
100
AcDbArc
 50
90.0
 51
181.5
  0
ARC
  5
A9
330
91
100
AcDbEntity
  8
$DDT_AUDIT_GENERATED_(A2)
  6
Continuous
 62
     7
100
AcDbCircle
 10
112.326090811
 20
336.0443609046
 30
0.0
 40
0.4999999999999985
100
AcDbArc
 50
358.5
 51
90.0
  0
ENDBLK
  5
AB
330
91
100
AcDbEntity
  8
0
100
AcDbBlockEnd
  0
BLOCK
  5
10A
330
AC
100
AcDbEntity
  8
0
100
AcDbBlockBegin
  2
SE3
 70
     0
 10
0.0
 20
0.0
 30
0.0
  3
SE3
  1

  0
LINE
  5
AE
330
AC
100
AcDbEntity
  8
$DDT_AUDIT_GENERATED_(99)
  6
Continuous
 62
     7
100
AcDbLine
 10
115.589355168
 20
750.0552991146
 30
0.0
 11
85.589355168
 21
750.0552991146
 31
0.0
  0
LINE
  5
AF
330
AC
100
AcDbEntity
  8
$DDT_AUDIT_GENERATED_(99)
  6
Continuous
 62
     7
100
AcDbLine
 10
85.589355168
 20
798.0552991146
 30
0.0
 11
115.589355168
 21
798.0552991146
 31
0.0
  0
LINE
  5
B0
330
AC
100
AcDbEntity
  8
$DDT_AUDIT_GENERATED_(99)
  6
Continuous
 62
     7
100
AcDbLine
 10
116.089355168
 20
750.5552991146
 30
0.0
 11
116.089355168
 21
797.5552991146
 31
0.0
  0
LINE
  5
B1
330
AC
100
AcDbEntity
  8
$DDT_AUDIT_GENERATED_(99)
  6
Continuous
 62
     7
100
AcDbLine
 10
85.089355168
 20
797.5552991146
 30
0.0
 11
85.089355168
 21
750.5552991146
 31
0.0
  0
ARC
  5
B2
330
AC
100
AcDbEntity
  8
$DDT_AUDIT_GENERATED_(99)
  6
Continuous
 62
     7
100
AcDbCircle
 10
115.589355168
 20
750.5552991146
 30
0.0
 40
0.5000000000000004
100
AcDbArc
 50
270.0
 51
0.0
  0
ARC
  5
B3
330
AC
100
AcDbEntity
  8
$DDT_AUDIT_GENERATED_(99)
  6
Continuous
 62
     7
100
AcDbCircle
 10
85.589355168
 20
750.5552991146
 30
0.0
 40
0.5000000000000004
100
AcDbArc
 50
180.0
 51
270.0
  0
ARC
  5
B4
330
AC
100
AcDbEntity
  8
$DDT_AUDIT_GENERATED_(99)
  6
Continuous
 62
     7
100
AcDbCircle
 10
115.589355168
 20
797.5552991146
 30
0.0
 40
0.5000000000000004
100
AcDbArc
 50
0.0
 51
90.0
  0
ARC
  5
B5
330
AC
100
AcDbEntity
  8
$DDT_AUDIT_GENERATED_(99)
  6
Continuous
 62
     7
100
AcDbCircle
 10
85.589355168
 20
797.5552991146
 30
0.0
 40
0.5000000000000004
100
AcDbArc
 50
90.0
 51
180.0
  0
LINE
  5
B6
330
AC
100
AcDbEntity
  8
$DDT_AUDIT_GENERATED_(93)
  6
Continuous
 62
     7
100
AcDbLine
 10
88.189355168
 20
817.0802991146
 30
0.0
 11
112.989355168
 21
817.0802991146
 31
0.0
  0
LINE
  5
B7
330
AC
100
AcDbEntity
  8
$DDT_AUDIT_GENERATED_(93)
  6
Continuous
 62
     7
100
AcDbLine
 10
112.989355168
 20
527.6647968728
 30
0.0
 11
112.989355168
 21
649.9891973624
 31
0.0
  0
LINE
  5
B8
330
AC
100
AcDbEntity
  8
$DDT_AUDIT_GENERATED_(93)
  6
Continuous
 62
     7
100
AcDbLine
 10
112.989355168
 20
684.1713528546
 30
0.0
 11
112.989355168
 21
750.0552991146
 31
0.0
  0
LINE
  5
B9
330
AC
100
AcDbEntity
  8
$DDT_AUDIT_GENERATED_(93)
  6
Continuous
 62
     7
100
AcDbLine
 10
112.989355168
 20
798.0552991146
 30
0.0
 11
112.989355168
 21
817.0802991146
 31
0.0
  0
LINE
  5
BA
330
AC
100
AcDbEntity
  8
$DDT_AUDIT_GENERATED_(93)
  6
Continuous
 62
     7
100
AcDbLine
 10
88.189355168
 20
817.0802991146
 30
0.0
 11
88.189355168
 21
798.0552991146
 31
0.0
  0
LINE
  5
BB
330
AC
100
AcDbEntity
  8
$DDT_AUDIT_GENERATED_(93)
  6
Continuous
 62
     7
100
AcDbLine
 10
88.189355168
 20
750.0552991146
 30
0.0
 11
88.189355168
 21
684.1714008669
 31
0.0
  0
LINE
  5
BC
330
AC
100
AcDbEntity
  8
$DDT_AUDIT_GENERATED_(93)
  6
Continuous
 62
     7
100
AcDbLine
 10
88.189355168
 20
649.9892453747
 30
0.0
 11
88.189355168
 21
527.6647968728
 31
0.0
  0
LINE
  5
BE
330
AC
100
AcDbEntity
  8
$DDT_AUDIT_GENERATED_(BD)
  6
Continuous
 62
     7
100
AcDbLine
 10
116.589355168
 20
685.0802991146
 30
0.0
 11
116.589355168
 21
649.0802991146
 31
0.0
  0
LINE
  5
BF
330
AC
100
AcDbEntity
  8
$DDT_AUDIT_GENERATED_(BD)
  6
Continuous
 62
     7
100
AcDbLine
 10
84.589355168
 20
685.0802991146
 30
0.0
 11
84.589355168
 21
649.0802991146
 31
0.0
  0
SPLINE
  5
C0
330
AC
100
AcDbEntity
  8
$DDT_AUDIT_GENERATED_(BD)
  6
Continuous
 62
     7
100
AcDbSpline
210
0.0
220
0.0
230
1.0
 70
     8
 71
     3
 72
    28
 73
    24
 74
     0
 42
0.000000000160218
 43
0.0000000001
 40
0.5004827516810774
 40
0.5004827516810774
 40
0.5004827516810774
 40
0.5004827516810774
 40
0.5625000000000001
 40
0.5625000000000001
 40
0.625
 40
0.625
 40
0.6875
 40
0.6875
 40
0.71875
 40
0.71875
 40
0.75
 40
0.75
 40
0.78125
 40
0.78125
 40
0.8125
 40
0.8125
 40
0.8749999999999999
 40
0.8749999999999999
 40
0.9374999999999999
 40
0.9374999999999999
 40
0.9687499999999999
 40
0.9687499999999999
 40
1.0
 40
1.0
 40
1.0
 40
1.0
 10
86.73935811742273
 20
685.0802960025001
 30
0.0
 10
86.73960162558632
 20
685.0800370451839
 30
0.0
 10
87.14425122494481
 20
684.7641236203779
 30
0.0
 10
88.58288952937389
 20
683.6965093055993
 30
0.0
 10
89.61265565507398
 20
682.9479263494555
 30
0.0
 10
92.0774129876843
 20
681.3542902014738
 30
0.0
 10
93.51243064820085
 20
680.4998030031761
 30
0.0
 10
95.9613938842904
 20
679.4516857237652
 30
0.0
 10
96.83877124476709
 20
679.1412230500447
 30
0.0
 10
98.65652281086254
 20
678.7050506100995
 30
0.0
 10
99.62262543905604
 20
678.57849522915
 30
0.0
 10
101.5237348726567
 20
678.5758205448047
 30
0.0
 10
102.4849749203734
 20
678.6986669925417
 30
0.0
 10
104.3083469344277
 20
679.1311911006891
 30
0.0
 10
105.1703715020398
 20
679.4336443675786
 30
0.0
 10
107.6469394154304
 20
680.4875623906294
 30
0.0
 10
109.0678158489988
 20
681.3338590914384
 30
0.0
 10
111.5493233877769
 20
682.9359157810286
 30
0.0
 10
112.5665217789717
 20
683.675164456741
 30
0.0
 10
113.6629244091215
 20
684.4882167565147
 30
0.0
 10
113.9468803651363
 20
684.703722082038
 30
0.0
 10
114.3372441625832
 20
685.0014042564292
 30
0.0
 10
114.4393551680019
 20
685.0802991146423
 30
0.0
 10
114.4393551680019
 20
685.0802991146423
 30
0.0
  0
SPLINE
  5
C1
330
AC
100
AcDbEntity
  8
$DDT_AUDIT_GENERATED_(BD)
  6
Continuous
 62
     7
100
AcDbSpline
210
0.0
220
0.0
230
1.0
 70
     8
 71
     3
 72
    18
 73
    14
 74
     0
 42
0.0000000001605047
 43
0.0000000001
 40
0.0
 40
0.0
 40
0.0
 40
0.0
 40
0.03125
 40
0.03125
 40
0.0625
 40
0.0625
 40
0.125
 40
0.125
 40
0.1875000000000001
 40
0.1875000000000001
 40
0.2500000000000001
 40
0.2500000000000001
 40
0.2502055573218054
 40
0.2502055573218054
 40
0.2502055573218054
 40
0.2502055573218054
 10
100.5893551680019
 20
655.5834517206825
 30
0.0
 10
99.62211534063503
 20
655.5834517206825
 30
0.0
 10
98.68802881716064
 20
655.4606761636306
 30
0.0
 10
96.87334249085266
 20
655.0300150579071
 30
0.0
 10
95.99459383688047
 20
654.7212168037823
 30
0.0
 10
93.5528354222196
 20
653.6817751049107
 30
0.0
 10
92.10439692088644
 20
652.8224153028918
 30
0.0
 10
89.64128614587146
 20
651.2324932839472
 30
0.0
 10
88.61106705135363
 20
650.4845826722499
 30
0.0
 10
87.15346878177948
 20
649.4037196657123
 30
0.0
 10
86.74191422495417
 20
649.0822681660801
 30
0.0
 10
86.73935918908562
 20
649.0803022086435
 30
0.0
 10
86.73935520376367
 20
649.0802991941848
 30
0.0
 10
86.73935560584779
 20
649.0802996065654
 30
0.0
  0
SPLINE
  5
C2
330
AC
100
AcDbEntity
  8
$DDT_AUDIT_GENERATED_(BD)
  6
Continuous
 62
     7
100
AcDbSpline
210
0.0
220
0.0
230
1.0
 70
     8
 71
     3
 72
    14
 73
    10
 74
     0
 42
0.0000000001599297
 43
0.0000000001
 40
0.750205821561986
 40
0.750205821561986
 40
0.750205821561986
 40
0.750205821561986
 40
0.8125
 40
0.8125
 40
0.875
 40
0.875
 40
0.9375
 40
0.9375
 40
1.0
 40
1.0
 40
1.0
 40
1.0
 10
114.4393547144072
 20
649.0802996204609
 30
0.0
 10
114.439197636122
 20
649.0804520149836
 30
0.0
 10
114.0367529299498
 20
649.3948654615687
 30
0.0
 10
112.5868615661561
 20
650.4706435398608
 30
0.0
 10
111.5537866157151
 20
651.2212775909786
 30
0.0
 10
109.0851639719237
 20
652.8160580219932
 30
0.0
 10
107.6390127611323
 20
653.6750860445067
 30
0.0
 10
104.377871024628
 20
655.0655199792914
 30
0.0
 10
102.5238348227356
 20
655.5834517206825
 30
0.0
 10
100.5893551680019
 20
655.5834517206825
 30
0.0
  0
LINE
  5
C3
330
AC
100
AcDbEntity
  8
$DDT_AUDIT_GENERATED_(BD)
  6
Continuous
 62
     7
100
AcDbLine
 10
116.589355168
 20
654.0802991146
 30
0.0
 11
117.239355168
 21
654.0802991146
 31
0.0
  0
LINE
  5
C4
330
AC
100
AcDbEntity
  8
$DDT_AUDIT_GENERATED_(BD)
  6
Continuous
 62
     7
100
AcDbLine
 10
117.239355168
 20
680.0802991146
 30
0.0
 11
116.589355168
 21
680.0802991146
 31
0.0
  0
LINE
  5
C5
330
AC
100
AcDbEntity
  8
$DDT_AUDIT_GENERATED_(BD)
  6
Continuous
 62
     7
100
AcDbLine
 10
114.4121679567
 20
649.0802991146
 30
0.0
 11
116.589355168
 21
649.0802991146
 31
0.0
  0
LINE
  5
C6
330
AC
100
AcDbEntity
  8
$DDT_AUDIT_GENERATED_(BD)
  6
Continuous
 62
     7
100
AcDbLine
 10
84.589355168
 20
649.0802991146
 30
0.0
 11
86.7713619225
 21
649.0802991146
 31
0.0
  0
LINE
  5
C7
330
AC
100
AcDbEntity
  8
$DDT_AUDIT_GENERATED_(BD)
  6
Continuous
 62
     7
100
AcDbLine
 10
86.7495597061
 20
685.0802991146
 30
0.0
 11
84.589355168
 21
685.0802991146
 31
0.0
  0
LINE
  5
C8
330
AC
100
AcDbEntity
  8
$DDT_AUDIT_GENERATED_(BD)
  6
Continuous
 62
     7
100
AcDbLine
 10
116.589355168
 20
685.0802991146
 30
0.0
 11
114.439355168
 21
685.0802991146
 31
0.0
  0
LINE
  5
C9
330
AC
100
AcDbEntity
  8
$DDT_AUDIT_GENERATED_(BD)
  6
Continuous
 62
     7
100
AcDbLine
 10
83.339355168
 20
657.5802991146
 30
0.0
 11
84.089355168
 21
657.5802991146
 31
0.0
  0
LINE
  5
CA
330
AC
100
AcDbEntity
  8
$DDT_AUDIT_GENERATED_(BD)
  6
Continuous
 62
     7
100
AcDbLine
 10
84.089355168
 20
676.5802991146
 30
0.0
 11
83.339355168
 21
676.5802991146
 31
0.0
  0
ARC
  5
CB
330
AC
100
AcDbEntity
  8
$DDT_AUDIT_GENERATED_(BD)
  6
Continuous
 62
     7
100
AcDbCircle
 10
84.089355168
 20
657.0802991146
 30
0.0
 40
0.5000000000000004
100
AcDbArc
 50
0.0
 51
90.0
  0
ARC
  5
CC
330
AC
100
AcDbEntity
  8
$DDT_AUDIT_GENERATED_(BD)
  6
Continuous
 62
     7
100
AcDbCircle
 10
84.089355168
 20
677.0802991146
 30
0.0
 40
0.5000000000000004
100
AcDbArc
 50
270.0
 51
0.0
  0
LINE
  5
CE
330
AC
100
AcDbEntity
  8
$DDT_AUDIT_GENERATED_(CD)
  6
Continuous
 62
     7
100
AcDbLine
 10
117.239355168
 20
685.0802991146
 30
0.0
 11
117.239355168
 21
649.0802991146
 31
0.0
  0
LINE
  5
CF
330
AC
100
AcDbEntity
  8
$DDT_AUDIT_GENERATED_(CD)
  6
Continuous
 62
     7
100
AcDbLine
 10
165.1316539728
 20
684.0802991146
 30
0.0
 11
138.989355168
 21
684.0802991146
 31
0.0
  0
LINE
  5
D0
330
AC
100
AcDbEntity
  8
$DDT_AUDIT_GENERATED_(CD)
  6
Continuous
 62
     7
100
AcDbLine
 10
165.3846183316
 20
650.0802991146
 30
0.0
 11
138.989355168
 21
650.0802991146
 31
0.0
  0
LINE
  5
D1
330
AC
100
AcDbEntity
  8
$DDT_AUDIT_GENERATED_(CD)
  6
Continuous
 62
     7
100
AcDbLine
 10
125.9074978126
 20
655.5802991146
 30
0.0
 11
137.498076209
 21
655.5802991146
 31
0.0
  0
LINE
  5
D2
330
AC
100
AcDbEntity
  8
$DDT_AUDIT_GENERATED_(CD)
  6
Continuous
 62
     7
100
AcDbLine
 10
137.489355168
 20
678.5802991146
 30
0.0
 11
125.9074978126
 21
678.5802991146
 31
0.0
  0
ARC
  5
D3
330
AC
100
AcDbEntity
  8
$DDT_AUDIT_GENERATED_(CD)
  6
Continuous
 62
     7
100
AcDbCircle
 10
-374.9365397879
 20
667.0802991146
 30
0.0
 40
499.9999999999999
100
AcDbArc
 50
1.4296837746
 51
2.0077705264
  0
ARC
  5
D4
330
AC
100
AcDbEntity
  8
$DDT_AUDIT_GENERATED_(CD)
  6
Continuous
 62
     7
100
AcDbCircle
 10
-374.9365397879
 20
667.0802991146
 30
0.0
 40
500.0
100
AcDbArc
 50
357.9922294736
 51
358.5703162254
  0
LINE
  5
D5
330
AC
100
AcDbEntity
  8
$DDT_AUDIT_GENERATED_(CD)
  6
Continuous
 62
     7
100
AcDbLine
 10
117.239355168
 20
649.0802991146
 30
0.0
 11
124.2568095268
 21
649.0802991146
 31
0.0
  0
LINE
  5
D6
330
AC
100
AcDbEntity
  8
$DDT_AUDIT_GENERATED_(CD)
  6
Continuous
 62
     7
100
AcDbLine
 10
124.2568095268
 20
685.0802991146
 30
0.0
 11
117.239355168
 21
685.0802991146
 31
0.0
  0
LINE
  5
D7
330
AC
100
AcDbEntity
  8
$DDT_AUDIT_GENERATED_(CD)
  6
Continuous
 62
     7
100
AcDbLine
 10
138.489355168
 20
654.58383793
 30
0.0
 11
138.489355168
 21
650.5802991146
 31
0.0
  0
LINE
  5
D8
330
AC
100
AcDbEntity
  8
$DDT_AUDIT_GENERATED_(CD)
  6
Continuous
 62
     7
100
AcDbLine
 10
138.489355168
 20
683.5802991146
 30
0.0
 11
138.489355168
 21
679.5802991146
 31
0.0
  0
ARC
  5
D9
330
AC
100
AcDbEntity
  8
$DDT_AUDIT_GENERATED_(CD)
  6
Continuous
 62
     7
100
AcDbCircle
 10
138.989355168
 20
650.5802991146
 30
0.0
 40
0.5000000000000004
100
AcDbArc
 50
180.0
 51
270.0
  0
ARC
  5
DA
330
AC
100
AcDbEntity
  8
$DDT_AUDIT_GENERATED_(CD)
  6
Continuous
 62
     7
100
AcDbCircle
 10
165.3846183316
 20
650.5802991146
 30
0.0
 40
0.5000000000000004
100
AcDbArc
 50
270.0
 51
0.4280045362
  0
LINE
  5
DB
330
AC
100
AcDbEntity
  8
$DDT_AUDIT_GENERATED_(CD)
  6
Continuous
 62
     7
100
AcDbLine
 10
165.8846043623
 20
650.5840326088
 30
0.0
 11
165.6316384524
 21
683.5842293148
 31
0.0
  0
ARC
  5
DC
330
AC
100
AcDbEntity
  8
$DDT_AUDIT_GENERATED_(CD)
  6
Continuous
 62
     7
100
AcDbCircle
 10
165.1316539728
 20
683.5802991146
 30
0.0
 40
0.5000000000000033
100
AcDbArc
 50
0.4506438542
 51
90.0
  0
ARC
  5
DD
330
AC
100
AcDbEntity
  8
$DDT_AUDIT_GENERATED_(CD)
  6
Continuous
 62
     7
100
AcDbCircle
 10
138.989355168
 20
683.5802991146
 30
0.0
 40
0.5000000000000004
100
AcDbArc
 50
90.0
 51
180.0
  0
ARC
  5
DE
330
AC
100
AcDbEntity
  8
$DDT_AUDIT_GENERATED_(CD)
  6
Continuous
 62
     7
100
AcDbCircle
 10
124.2568095268
 20
649.5802991146
 30
0.0
 40
0.5000000000000004
100
AcDbArc
 50
270.0
 51
357.9922294737
  0
ARC
  5
DF
330
AC
100
AcDbEntity
  8
$DDT_AUDIT_GENERATED_(CD)
  6
Continuous
 62
     7
100
AcDbCircle
 10
124.2568095268
 20
684.5802991146
 30
0.0
 40
0.5000000000000282
100
AcDbArc
 50
2.0077705263
 51
90.0
  0
ARC
  5
E0
330
AC
100
AcDbEntity
  8
$DDT_AUDIT_GENERATED_(CD)
  6
Continuous
 62
     7
100
AcDbCircle
 10
137.4935475332
 20
654.5870698776
 30
0.0
 40
0.9922649140113341
100
AcDbArc
 50
359.7183108953
 51
89.6194582197
  0
ARC
  5
E1
330
AC
100
AcDbEntity
  8
$DDT_AUDIT_GENERATED_(CD)
  6
Continuous
 62
     7
100
AcDbCircle
 10
137.5032081892
 20
679.5659826486
 30
0.0
 40
0.980920535833334
100
AcDbArc
 50
269.0924039124
 51
0.649082344
  0
ARC
  5
E2
330
AC
100
AcDbEntity
  8
$DDT_AUDIT_GENERATED_(CD)
  6
Continuous
 62
     7
100
AcDbCircle
 10
125.9074978126
 20
654.5802991146
 30
0.0
 40
1.000000000000044
100
AcDbArc
 50
90.0
 51
178.5703162255
  0
ARC
  5
E3
330
AC
100
AcDbEntity
  8
$DDT_AUDIT_GENERATED_(CD)
  6
Continuous
 62
     7
100
AcDbCircle
 10
125.9074978126
 20
679.5802991146
 30
0.0
 40
1.000000000000001
100
AcDbArc
 50
181.4296837745
 51
270.0
  0
LINE
  5
E5
330
AC
100
AcDbEntity
  8
$DDT_AUDIT_GENERATED_(E4)
  6
Continuous
 62
     7
100
AcDbLine
 10
83.339355168
 20
649.5802991146
 30
0.0
 11
83.339355168
 21
684.5802991146
 31
0.0
  0
LINE
  5
E6
330
AC
100
AcDbEntity
  8
$DDT_AUDIT_GENERATED_(E4)
  6
Continuous
 62
     7
100
AcDbLine
 10
75.839355168
 20
684.5802991146
 30
0.0
 11
75.839355168
 21
649.5802991146
 31
0.0
  0
LINE
  5
E7
330
AC
100
AcDbEntity
  8
$DDT_AUDIT_GENERATED_(E4)
  6
Continuous
 62
     7
100
AcDbLine
 10
66.639355168
 20
689.0802991146
 30
0.0
 11
59.639355168
 21
689.0802991146
 31
0.0
  0
LINE
  5
E8
330
AC
100
AcDbEntity
  8
$DDT_AUDIT_GENERATED_(E4)
  6
Continuous
 62
     7
100
AcDbLine
 10
56.939355168
 20
680.0802991146
 30
0.0
 11
56.939355168
 21
654.0802991146
 31
0.0
  0
LINE
  5
E9
330
AC
100
AcDbEntity
  8
$DDT_AUDIT_GENERATED_(E4)
  6
Continuous
 62
     7
100
AcDbLine
 10
57.439355168
 20
653.5802991146
 30
0.0
 11
75.339355168
 21
653.5802991146
 31
0.0
  0
LINE
  5
EA
330
AC
100
AcDbEntity
  8
$DDT_AUDIT_GENERATED_(E4)
  6
Continuous
 62
     7
100
AcDbLine
 10
58.6430651275
 20
680.5802991146
 30
0.0
 11
57.439355168
 21
680.5802991146
 31
0.0
  0
LINE
  5
EB
330
AC
100
AcDbEntity
  8
$DDT_AUDIT_GENERATED_(E4)
  6
Continuous
 62
     7
100
AcDbLine
 10
75.339355168
 20
680.5802991146
 30
0.0
 11
67.639355168
 21
680.5802991146
 31
0.0
  0
LINE
  5
EC
330
AC
100
AcDbEntity
  8
$DDT_AUDIT_GENERATED_(E4)
  6
Continuous
 62
     7
100
AcDbLine
 10
59.139355168
 20
688.5802991146
 30
0.0
 11
59.139355168
 21
681.0796407754
 31
0.0
  0
LINE
  5
ED
330
AC
100
AcDbEntity
  8
$DDT_AUDIT_GENERATED_(E4)
  6
Continuous
 62
     7
100
AcDbLine
 10
67.139355168
 20
681.0802991146
 30
0.0
 11
67.139355168
 21
688.5802991146
 31
0.0
  0
LINE
  5
EE
330
AC
100
AcDbEntity
  8
$DDT_AUDIT_GENERATED_(E4)
  6
Continuous
 62
     7
100
AcDbLine
 10
76.339355168
 20
649.0802991146
 30
0.0
 11
82.839355168
 21
649.0802991146
 31
0.0
  0
LINE
  5
EF
330
AC
100
AcDbEntity
  8
$DDT_AUDIT_GENERATED_(E4)
  6
Continuous
 62
     7
100
AcDbLine
 10
82.839355168
 20
685.0802991146
 30
0.0
 11
76.339355168
 21
685.0802991146
 31
0.0
  0
ARC
  5
F0
330
AC
100
AcDbEntity
  8
$DDT_AUDIT_GENERATED_(E4)
  6
Continuous
 62
     7
100
AcDbCircle
 10
58.639355168
 20
681.0802991146
 30
0.0
 40
0.4999999999999954
100
AcDbArc
 50
270.452771592
 51
359.982659785
  0
ARC
  5
F1
330
AC
100
AcDbEntity
  8
$DDT_AUDIT_GENERATED_(E4)
  6
Continuous
 62
     7
100
AcDbCircle
 10
67.6299116919
 20
681.0667091763
 30
0.0
 40
0.4836861844989186
100
AcDbArc
 50
178.3436788118
 51
270.9342574462
  0
ARC
  5
F2
330
AC
100
AcDbEntity
  8
$DDT_AUDIT_GENERATED_(E4)
  6
Continuous
 62
     7
100
AcDbCircle
 10
82.839355168
 20
684.5802991146
 30
0.0
 40
0.5000000000000004
100
AcDbArc
 50
0.0
 51
90.0
  0
ARC
  5
F3
330
AC
100
AcDbEntity
  8
$DDT_AUDIT_GENERATED_(E4)
  6
Continuous
 62
     7
100
AcDbCircle
 10
82.839355168
 20
649.5802991146
 30
0.0
 40
0.5000000000000004
100
AcDbArc
 50
270.0
 51
0.0
  0
ARC
  5
F4
330
AC
100
AcDbEntity
  8
$DDT_AUDIT_GENERATED_(E4)
  6
Continuous
 62
     7
100
AcDbCircle
 10
76.339355168
 20
649.5802991146
 30
0.0
 40
0.5000000000000004
100
AcDbArc
 50
180.0
 51
270.0
  0
ARC
  5
F5
330
AC
100
AcDbEntity
  8
$DDT_AUDIT_GENERATED_(E4)
  6
Continuous
 62
     7
100
AcDbCircle
 10
76.339355168
 20
684.5802991146
 30
0.0
 40
0.5000000000000004
100
AcDbArc
 50
90.0
 51
180.0
  0
ARC
  5
F6
330
AC
100
AcDbEntity
  8
$DDT_AUDIT_GENERATED_(E4)
  6
Continuous
 62
     7
100
AcDbCircle
 10
75.339355168
 20
653.0802991146
 30
0.0
 40
0.5000000000000004
100
AcDbArc
 50
0.0
 51
90.0
  0
ARC
  5
F7
330
AC
100
AcDbEntity
  8
$DDT_AUDIT_GENERATED_(E4)
  6
Continuous
 62
     7
100
AcDbCircle
 10
75.339355168
 20
681.0802991146
 30
0.0
 40
0.5000000000000004
100
AcDbArc
 50
270.0
 51
0.0
  0
ARC
  5
F8
330
AC
100
AcDbEntity
  8
$DDT_AUDIT_GENERATED_(E4)
  6
Continuous
 62
     7
100
AcDbCircle
 10
66.639355168
 20
688.5802991146
 30
0.0
 40
0.5000000000000004
100
AcDbArc
 50
0.0
 51
90.0
  0
ARC
  5
F9
330
AC
100
AcDbEntity
  8
$DDT_AUDIT_GENERATED_(E4)
  6
Continuous
 62
     7
100
AcDbCircle
 10
59.639355168
 20
688.5802991146
 30
0.0
 40
0.5000000000000004
100
AcDbArc
 50
90.0
 51
180.0
  0
ARC
  5
FA
330
AC
100
AcDbEntity
  8
$DDT_AUDIT_GENERATED_(E4)
  6
Continuous
 62
     7
100
AcDbCircle
 10
57.439355168
 20
680.0802991146
 30
0.0
 40
0.5000000000000004
100
AcDbArc
 50
90.0
 51
180.0
  0
ARC
  5
FB
330
AC
100
AcDbEntity
  8
$DDT_AUDIT_GENERATED_(E4)
  6
Continuous
 62
     7
100
AcDbCircle
 10
57.439355168
 20
654.0802991146
 30
0.0
 40
0.5000000000000004
100
AcDbArc
 50
180.0
 51
270.0
  0
SPLINE
  5
FD
330
AC
100
AcDbEntity
  8
08919XX1_ELEMENT
  6
Continuous
 62
     7
100
AcDbSpline
210
0.0
220
0.0
230
1.0
 70
     8
 71
     3
 72
    22
 73
    18
 74
     0
 42
0.000000000214219
 43
0.0000000001
 40
0.2009397673916495
 40
0.2009397673916495
 40
0.2009397673916495
 40
0.2009397673916495
 40
0.2499999999999999
 40
0.2499999999999999
 40
0.3749999999999999
 40
0.3749999999999999
 40
0.4374999999999999
 40
0.4374999999999999
 40
0.5
 40
0.5
 40
0.6250000000000001
 40
0.6250000000000001
 40
0.6875000000000001
 40
0.6875000000000001
 40
0.75
 40
0.75
 40
0.7996033660873392
 40
0.7996033660873392
 40
0.7996033660873392
 40
0.7996033660873392
 10
88.03959285893416
 20
684.2799203566955
 30
0.0
 10
88.04000861571903
 20
684.2792558690638
 30
0.0
 10
88.19253704439856
 20
684.167629599822
 30
0.0
 10
89.23259037974934
 20
683.4217392061702
 30
0.0
 10
90.84808943043222
 20
682.2528077512027
 30
0.0
 10
93.96197785876691
 20
680.5526205566989
 30
0.0
 10
95.14228446829962
 20
679.9851741995637
 30
0.0
 10
97.716354352542
 20
679.126848638697
 30
0.0
 10
99.13848084474759
 20
678.8419751033815
 30
0.0
 10
103.4915979054147
 20
678.8420360593152
 30
0.0
 10
106.1626270177281
 20
679.9782129967009
 30
0.0
 10
109.284414021146
 20
681.6810141419672
 30
0.0
 10
110.2067874678304
 20
682.2630252982573
 30
0.0
 10
111.7086924185492
 20
683.2562019091157
 30
0.0
 10
112.3053676538231
 20
683.6794996082924
 30
0.0
 10
112.9810810263912
 20
684.163885181797
 30
0.0
 10
113.137160415767
 20
684.2781454736037
 30
0.0
 10
113.1386056242321
 20
684.2795611041236
 30
0.0
  0
SPLINE
  5
FE
330
AC
100
AcDbEntity
  8
08919XX1_ELEMENT
  6
Continuous
 62
     7
100
AcDbSpline
210
0.0
220
0.0
230
1.0
 70
     8
 71
     3
 72
    22
 73
    18
 74
     0
 42
0.0000000002142256
 43
0.0000000001
 40
0.2007597358443211
 40
0.2007597358443211
 40
0.2007597358443211
 40
0.2007597358443211
 40
0.2500000000000001
 40
0.2500000000000001
 40
0.375
 40
0.375
 40
0.4375
 40
0.4375
 40
0.5
 40
0.5
 40
0.625
 40
0.625
 40
0.6874999999999999
 40
0.6874999999999999
 40
0.7499999999999999
 40
0.7499999999999999
 40
0.799427041715852
 40
0.799427041715852
 40
0.799427041715852
 40
0.799427041715852
 10
113.1391243251573
 20
649.8806694328839
 30
0.0
 10
113.1387109659407
 20
649.8813345640859
 30
0.0
 10
112.9847383097565
 20
649.9940313015596
 30
0.0
 10
111.9384493466349
 20
650.7442741420197
 30
0.0
 10
110.3185893566272
 20
651.9160731651766
 30
0.0
 10
107.197963002435
 20
653.6173588638403
 30
0.0
 10
106.0150358289787
 20
654.1847340895102
 30
0.0
 10
103.4359445685106
 20
655.0403382385597
 30
0.0
 10
102.0071894376723
 20
655.3223656230077
 30
0.0
 10
97.66105133678016
 20
655.3109555799437
 30
0.0
 10
94.9948747869919
 20
654.1725249926151
 30
0.0
 10
91.88012943002796
 20
652.4709923731186
 30
0.0
 10
90.95984936331877
 20
651.8898538631008
 30
0.0
 10
89.46223488877119
 20
650.8989811644221
 30
0.0
 10
88.86743061638435
 20
650.4769032992821
 30
0.0
 10
88.19624010721321
 20
649.9956829828263
 30
0.0
 10
88.04156803468145
 20
649.8824667906522
 30
0.0
 10
88.04012251219181
 20
649.8810533237894
 30
0.0
  0
LINE
  5
FF
330
AC
100
AcDbEntity
  8
08919XX1_ELEMENT
  6
Continuous
 62
     7
100
AcDbLine
 10
113.1092468104
 20
649.8802991146
 30
0.0
 11
113.3804988418
 21
649.8802991146
 31
0.0
  0
LINE
  5
100
330
AC
100
AcDbEntity
  8
08919XX1_ELEMENT
  6
Continuous
 62
     7
100
AcDbLine
 10
87.7970744225
 20
649.8802991146
 30
0.0
 11
88.0694635256
 21
649.8802991146
 31
0.0
  0
LINE
  5
101
330
AC
100
AcDbEntity
  8
08919XX1_ELEMENT
  6
Continuous
 62
     7
100
AcDbLine
 10
88.0694635256
 20
684.2802991146
 30
0.0
 11
87.7983373438
 21
684.2802991146
 31
0.0
  0
LINE
  5
102
330
AC
100
AcDbEntity
  8
08919XX1_ELEMENT
  6
Continuous
 62
     7
100
AcDbLine
 10
113.3802484341
 20
684.2802991146
 30
0.0
 11
113.1092468104
 21
684.2802991146
 31
0.0
  0
ARC
  5
103
330
AC
100
AcDbEntity
  8
$DDT_AUDIT_GENERATED_(A2)
  6
Continuous
 62
     7
100
AcDbCircle
 10
100.589355168
 20
798.2390656073
 30
0.0
 40
24.99999999999996
100
AcDbArc
 50
62.2168909071
 51
117.7831090929
  0
LINE
  5
104
330
AC
100
AcDbEntity
  8
$DDT_AUDIT_GENERATED_(A2)
  6
Continuous
 62
     7
100
AcDbLine
 10
112.8259194735
 20
817.5933875888
 30
0.0
 11
112.7760327463
 21
819.4984848387
 31
0.0
  0
LINE
  5
105
330
AC
100
AcDbEntity
  8
$DDT_AUDIT_GENERATED_(A2)
  6
Continuous
 62
     7
100
AcDbLine
 10
88.4026775897
 20
819.4984848387
 30
0.0
 11
88.3527908625
 21
817.5933875888
 31
0.0
  0
ARC
  5
106
330
AC
100
AcDbEntity
  8
$DDT_AUDIT_GENERATED_(A2)
  6
Continuous
 62
     7
100
AcDbCircle
 10
111.7763754213
 20
819.4723078904
 30
0.0
 40
1.0
100
AcDbArc
 50
1.5
 51
62.2168909071
  0
ARC
  5
107
330
AC
100
AcDbEntity
  8
$DDT_AUDIT_GENERATED_(A2)
  6
Continuous
 62
     7
100
AcDbCircle
 10
89.4023349147
 20
819.4723078904
 30
0.0
 40
1.000000000000078
100
AcDbArc
 50
117.7831090929
 51
178.5
  0
ARC
  5
108
330
AC
100
AcDbEntity
  8
$DDT_AUDIT_GENERATED_(A2)
  6
Continuous
 62
     7
100
AcDbCircle
 10
112.326090811
 20
817.5802991146
 30
0.0
 40
0.5000000000000004
100
AcDbArc
 50
270.0
 51
1.5
  0
ARC
  5
109
330
AC
100
AcDbEntity
  8
$DDT_AUDIT_GENERATED_(A2)
  6
Continuous
 62
     7
100
AcDbCircle
 10
88.852619525
 20
817.5802991146
 30
0.0
 40
0.4999999999999999
100
AcDbArc
 50
178.5
 51
270.0
  0
ENDBLK
  5
10B
330
AC
100
AcDbEntity
  8
0
100
AcDbBlockEnd
  0
BLOCK
  5
127
330
10C
100
AcDbEntity
  8
0
100
AcDbBlockBegin
  2
SE4
 70
     0
 10
0.0
 20
0.0
 30
0.0
  3
SE4
  1

  0
LINE
  5
10E
330
10C
100
AcDbEntity
  8
$DDT_AUDIT_GENERATED_(93)
  6
Continuous
 62
     7
100
AcDbLine
 10
357.4396904747
 20
340.6404204263
 30
0.0
 11
382.2396904747
 21
340.6404204263
 31
0.0
  0
LINE
  5
10F
330
10C
100
AcDbEntity
  8
$DDT_AUDIT_GENERATED_(93)
  6
Continuous
 62
     7
100
AcDbLine
 10
382.2396904747
 20
340.6404204263
 30
0.0
 11
382.2396904747
 21
373.6154204263
 31
0.0
  0
LINE
  5
110
330
10C
100
AcDbEntity
  8
$DDT_AUDIT_GENERATED_(93)
  6
Continuous
 62
     7
100
AcDbLine
 10
382.2396904747
 20
421.6154204263
 30
0.0
 11
382.2396904747
 21
522.6647968728
 31
0.0
  0
LINE
  5
111
330
10C
100
AcDbEntity
  8
$DDT_AUDIT_GENERATED_(93)
  6
Continuous
 62
     7
100
AcDbLine
 10
357.4396904747
 20
522.6647968728
 30
0.0
 11
357.4396904747
 21
421.6154204263
 31
0.0
  0
LINE
  5
112
330
10C
100
AcDbEntity
  8
$DDT_AUDIT_GENERATED_(93)
  6
Continuous
 62
     7
100
AcDbLine
 10
357.4396904747
 20
373.6154204263
 30
0.0
 11
357.4396904747
 21
340.6404204263
 31
0.0
  0
LINE
  5
113
330
10C
100
AcDbEntity
  8
$DDT_AUDIT_GENERATED_(99)
  6
Continuous
 62
     7
100
AcDbLine
 10
304.8396904747
 20
374.1154204263
 30
0.0
 11
355.3483137285
 21
374.1154204263
 31
0.0
  0
LINE
  5
114
330
10C
100
AcDbEntity
  8
$DDT_AUDIT_GENERATED_(99)
  6
Continuous
 62
     7
100
AcDbLine
 10
360.5898755303
 20
373.6154204263
 30
0.0
 11
384.8396904747
 21
373.6154204263
 31
0.0
  0
LINE
  5
115
330
10C
100
AcDbEntity
  8
$DDT_AUDIT_GENERATED_(99)
  6
Continuous
 62
     7
100
AcDbLine
 10
360.5898755303
 20
373.6154204263
 30
0.0
 11
355.3483137285
 21
373.6154204263
 31
0.0
  0
LINE
  5
116
330
10C
100
AcDbEntity
  8
$DDT_AUDIT_GENERATED_(99)
  6
Continuous
 62
     7
100
AcDbLine
 10
355.3483137285
 20
373.6154204263
 30
0.0
 11
304.8396904747
 21
373.6154204263
 31
0.0
  0
LINE
  5
117
330
10C
100
AcDbEntity
  8
$DDT_AUDIT_GENERATED_(99)
  6
Continuous
 62
     7
100
AcDbLine
 10
304.8396904747
 20
373.6154204263
 30
0.0
 11
304.8396904747
 21
374.1154204263
 31
0.0
  0
LINE
  5
118
330
10C
100
AcDbEntity
  8
$DDT_AUDIT_GENERATED_(99)
  6
Continuous
 62
     7
100
AcDbLine
 10
304.8396904747
 20
421.6154204263
 30
0.0
 11
355.3483137285
 21
421.6154204263
 31
0.0
  0
LINE
  5
119
330
10C
100
AcDbEntity
  8
$DDT_AUDIT_GENERATED_(99)
  6
Continuous
 62
     7
100
AcDbLine
 10
355.3483137285
 20
421.6154204263
 30
0.0
 11
360.5898755303
 21
421.6154204263
 31
0.0
  0
LINE
  5
11A
330
10C
100
AcDbEntity
  8
$DDT_AUDIT_GENERATED_(99)
  6
Continuous
 62
     7
100
AcDbLine
 10
360.5898755303
 20
421.6154204263
 30
0.0
 11
384.8396904747
 21
421.6154204263
 31
0.0
  0
LINE
  5
11B
330
10C
100
AcDbEntity
  8
$DDT_AUDIT_GENERATED_(99)
  6
Continuous
 62
     7
100
AcDbLine
 10
304.8396904747
 20
421.1154204263
 30
0.0
 11
304.8396904747
 21
374.1154204263
 31
0.0
  0
LINE
  5
11C
330
10C
100
AcDbEntity
  8
$DDT_AUDIT_GENERATED_(99)
  6
Continuous
 62
     7
100
AcDbLine
 10
304.8396904747
 20
421.1154204263
 30
0.0
 11
304.8396904747
 21
421.6154204263
 31
0.0
  0
LINE
  5
11D
330
10C
100
AcDbEntity
  8
$DDT_AUDIT_GENERATED_(99)
  6
Continuous
 62
     7
100
AcDbLine
 10
385.3396904747
 20
374.1154204263
 30
0.0
 11
385.3396904747
 21
421.1154204263
 31
0.0
  0
ARC
  5
11E
330
10C
100
AcDbEntity
  8
$DDT_AUDIT_GENERATED_(99)
  6
Continuous
 62
     7
100
AcDbCircle
 10
384.8396904747
 20
374.1154204263
 30
0.0
 40
0.500000000000056
100
AcDbArc
 50
270.0
 51
0.0
  0
ARC
  5
11F
330
10C
100
AcDbEntity
  8
$DDT_AUDIT_GENERATED_(99)
  6
Continuous
 62
     7
100
AcDbCircle
 10
384.8396904747
 20
421.1154204263
 30
0.0
 40
0.5000000000000004
100
AcDbArc
 50
0.0
 51
90.0
  0
ARC
  5
120
330
10C
100
AcDbEntity
  8
$DDT_AUDIT_GENERATED_(A2)
  6
Continuous
 62
     7
100
AcDbCircle
 10
369.8396904747
 20
359.4816539336
 30
0.0
 40
24.99999999999991
100
AcDbArc
 50
242.2168909071
 51
297.7831090929
  0
LINE
  5
121
330
10C
100
AcDbEntity
  8
$DDT_AUDIT_GENERATED_(A2)
  6
Continuous
 62
     7
100
AcDbLine
 10
357.6031261692
 20
340.1273319522
 30
0.0
 11
357.6530128964
 21
338.2222347022
 31
0.0
  0
LINE
  5
122
330
10C
100
AcDbEntity
  8
$DDT_AUDIT_GENERATED_(A2)
  6
Continuous
 62
     7
100
AcDbLine
 10
382.026368053
 20
338.2222347022
 30
0.0
 11
382.0762547802
 21
340.1273319522
 31
0.0
  0
ARC
  5
123
330
10C
100
AcDbEntity
  8
$DDT_AUDIT_GENERATED_(A2)
  6
Continuous
 62
     7
100
AcDbCircle
 10
358.6526702214
 20
338.2484116505
 30
0.0
 40
1.000000000000011
100
AcDbArc
 50
181.5
 51
242.2168909071
  0
ARC
  5
124
330
10C
100
AcDbEntity
  8
$DDT_AUDIT_GENERATED_(A2)
  6
Continuous
 62
     7
100
AcDbCircle
 10
381.026710728
 20
338.2484116505
 30
0.0
 40
1.000000000000028
100
AcDbArc
 50
297.7831090929
 51
358.5
  0
ARC
  5
125
330
10C
100
AcDbEntity
  8
$DDT_AUDIT_GENERATED_(A2)
  6
Continuous
 62
     7
100
AcDbCircle
 10
358.1029548317
 20
340.1404204263
 30
0.0
 40
0.500000000000056
100
AcDbArc
 50
90.0
 51
181.5
  0
ARC
  5
126
330
10C
100
AcDbEntity
  8
$DDT_AUDIT_GENERATED_(A2)
  6
Continuous
 62
     7
100
AcDbCircle
 10
381.5764261177
 20
340.1404204263
 30
0.0
 40
0.500000000000002
100
AcDbArc
 50
358.5
 51
90.0
  0
ENDBLK
  5
128
330
10C
100
AcDbEntity
  8
0
100
AcDbBlockEnd
  0
BLOCK
  5
15D
330
129
100
AcDbEntity
  8
0
100
AcDbBlockBegin
  2
SE5
 70
     0
 10
0.0
 20
0.0
 30
0.0
  3
SE5
  1

  0
LINE
  5
12B
330
129
100
AcDbEntity
  8
$DDT_AUDIT_GENERATED_(99)
  6
Continuous
 62
     7
100
AcDbLine
 10
304.8396904747
 20
749.7360872103
 30
0.0
 11
355.3483137285
 21
749.7360872103
 31
0.0
  0
LINE
  5
12C
330
129
100
AcDbEntity
  8
$DDT_AUDIT_GENERATED_(99)
  6
Continuous
 62
     7
100
AcDbLine
 10
360.5898755303
 20
749.2360872103
 30
0.0
 11
384.8396904747
 21
749.2360872103
 31
0.0
  0
LINE
  5
12D
330
129
100
AcDbEntity
  8
$DDT_AUDIT_GENERATED_(99)
  6
Continuous
 62
     7
100
AcDbLine
 10
360.5898755303
 20
749.2360872103
 30
0.0
 11
355.3483137285
 21
749.2360872103
 31
0.0
  0
LINE
  5
12E
330
129
100
AcDbEntity
  8
$DDT_AUDIT_GENERATED_(99)
  6
Continuous
 62
     7
100
AcDbLine
 10
355.3483137285
 20
749.2360872103
 30
0.0
 11
304.8396904747
 21
749.2360872103
 31
0.0
  0
LINE
  5
12F
330
129
100
AcDbEntity
  8
$DDT_AUDIT_GENERATED_(99)
  6
Continuous
 62
     7
100
AcDbLine
 10
304.8396904747
 20
749.2360872103
 30
0.0
 11
304.8396904747
 21
749.7360872103
 31
0.0
  0
LINE
  5
130
330
129
100
AcDbEntity
  8
$DDT_AUDIT_GENERATED_(99)
  6
Continuous
 62
     7
100
AcDbLine
 10
304.8396904747
 20
797.2360872103
 30
0.0
 11
355.3483137285
 21
797.2360872103
 31
0.0
  0
LINE
  5
131
330
129
100
AcDbEntity
  8
$DDT_AUDIT_GENERATED_(99)
  6
Continuous
 62
     7
100
AcDbLine
 10
355.3483137285
 20
797.2360872103
 30
0.0
 11
360.5898755303
 21
797.2360872103
 31
0.0
  0
LINE
  5
132
330
129
100
AcDbEntity
  8
$DDT_AUDIT_GENERATED_(99)
  6
Continuous
 62
     7
100
AcDbLine
 10
360.5898755303
 20
797.2360872103
 30
0.0
 11
384.8396904747
 21
797.2360872103
 31
0.0
  0
LINE
  5
133
330
129
100
AcDbEntity
  8
$DDT_AUDIT_GENERATED_(99)
  6
Continuous
 62
     7
100
AcDbLine
 10
304.8396904747
 20
796.7360872103
 30
0.0
 11
304.8396904747
 21
749.7360872103
 31
0.0
  0
LINE
  5
134
330
129
100
AcDbEntity
  8
$DDT_AUDIT_GENERATED_(99)
  6
Continuous
 62
     7
100
AcDbLine
 10
304.8396904747
 20
796.7360872103
 30
0.0
 11
304.8396904747
 21
797.2360872103
 31
0.0
  0
LINE
  5
135
330
129
100
AcDbEntity
  8
$DDT_AUDIT_GENERATED_(99)
  6
Continuous
 62
     7
100
AcDbLine
 10
385.3396904747
 20
749.7360872103
 30
0.0
 11
385.3396904747
 21
796.7360872103
 31
0.0
  0
ARC
  5
136
330
129
100
AcDbEntity
  8
$DDT_AUDIT_GENERATED_(99)
  6
Continuous
 62
     7
100
AcDbCircle
 10
384.8396904747
 20
749.7360872103
 30
0.0
 40
0.5000000000000004
100
AcDbArc
 50
270.0
 51
0.0
  0
ARC
  5
137
330
129
100
AcDbEntity
  8
$DDT_AUDIT_GENERATED_(99)
  6
Continuous
 62
     7
100
AcDbCircle
 10
384.8396904747
 20
796.7360872103
 30
0.0
 40
0.5000000000000004
100
AcDbArc
 50
0.0
 51
90.0
  0
LINE
  5
138
330
129
100
AcDbEntity
  8
$DDT_AUDIT_GENERATED_(93)
  6
Continuous
 62
     7
100
AcDbLine
 10
357.4396904747
 20
816.2610872103
 30
0.0
 11
382.2396904747
 21
816.2610872103
 31
0.0
  0
LINE
  5
139
330
129
100
AcDbEntity
  8
$DDT_AUDIT_GENERATED_(93)
  6
Continuous
 62
     7
100
AcDbLine
 10
382.2396904747
 20
527.6647968728
 30
0.0
 11
382.2396904747
 21
653.2134820661
 31
0.0
  0
LINE
  5
13A
330
129
100
AcDbEntity
  8
$DDT_AUDIT_GENERATED_(93)
  6
Continuous
 62
     7
100
AcDbLine
 10
382.2396904747
 20
679.3086923545
 30
0.0
 11
382.2396904747
 21
749.2360872103
 31
0.0
  0
LINE
  5
13B
330
129
100
AcDbEntity
  8
$DDT_AUDIT_GENERATED_(93)
  6
Continuous
 62
     7
100
AcDbLine
 10
382.2396904747
 20
797.2360872103
 30
0.0
 11
382.2396904747
 21
816.2610872103
 31
0.0
  0
LINE
  5
13C
330
129
100
AcDbEntity
  8
$DDT_AUDIT_GENERATED_(93)
  6
Continuous
 62
     7
100
AcDbLine
 10
357.4396904747
 20
816.2610872103
 30
0.0
 11
357.4396904747
 21
797.2360872103
 31
0.0
  0
LINE
  5
13D
330
129
100
AcDbEntity
  8
$DDT_AUDIT_GENERATED_(93)
  6
Continuous
 62
     7
100
AcDbLine
 10
357.4396904747
 20
749.2360872103
 30
0.0
 11
357.4396904747
 21
679.3086923545
 31
0.0
  0
LINE
  5
13E
330
129
100
AcDbEntity
  8
$DDT_AUDIT_GENERATED_(93)
  6
Continuous
 62
     7
100
AcDbLine
 10
357.4396904747
 20
653.2134820661
 30
0.0
 11
357.4396904747
 21
527.6647968728
 31
0.0
  0
LINE
  5
13F
330
129
100
AcDbEntity
  8
$DDT_AUDIT_GENERATED_(CD)
  6
Continuous
 62
     7
100
AcDbLine
 10
354.8396904747
 20
683.2610872103
 30
0.0
 11
357.4396904747
 21
683.2610872103
 31
0.0
  0
LINE
  5
140
330
129
100
AcDbEntity
  8
$DDT_AUDIT_GENERATED_(CD)
  6
Continuous
 62
     7
100
AcDbLine
 10
382.2396904747
 20
683.2610872103
 30
0.0
 11
384.8396904747
 21
683.2610872103
 31
0.0
  0
LINE
  5
141
330
129
100
AcDbEntity
  8
$DDT_AUDIT_GENERATED_(CD)
  6
Continuous
 62
     7
100
AcDbLine
 10
384.8396904747
 20
649.2610872103
 30
0.0
 11
382.2396904747
 21
649.2610872103
 31
0.0
  0
LINE
  5
142
330
129
100
AcDbEntity
  8
$DDT_AUDIT_GENERATED_(CD)
  6
Continuous
 62
     7
100
AcDbLine
 10
357.4396904747
 20
649.2610872103
 30
0.0
 11
354.8396904747
 21
649.2610872103
 31
0.0
  0
LINE
  5
143
330
129
100
AcDbEntity
  8
$DDT_AUDIT_GENERATED_(CD)
  6
Continuous
 62
     7
100
AcDbLine
 10
385.3396904747
 20
649.7610872103
 30
0.0
 11
385.3396904747
 21
657.1095846014
 31
0.0
  0
LINE
  5
144
330
129
100
AcDbEntity
  8
$DDT_AUDIT_GENERATED_(CD)
  6
Continuous
 62
     7
100
AcDbLine
 10
385.3396904747
 20
675.4125898192
 30
0.0
 11
385.3396904747
 21
682.7610872103
 31
0.0
  0
LINE
  5
145
330
129
100
AcDbEntity
  8
$DDT_AUDIT_GENERATED_(CD)
  6
Continuous
 62
     7
100
AcDbLine
 10
354.3396904747
 20
682.7610872103
 30
0.0
 11
354.3396904747
 21
675.4125898192
 31
0.0
  0
LINE
  5
146
330
129
100
AcDbEntity
  8
$DDT_AUDIT_GENERATED_(CD)
  6
Continuous
 62
     7
100
AcDbLine
 10
354.3396904747
 20
657.1095846014
 30
0.0
 11
354.3396904747
 21
649.7610872103
 31
0.0
  0
ARC
  5
147
330
129
100
AcDbEntity
  8
$DDT_AUDIT_GENERATED_(CD)
  6
Continuous
 62
     7
100
AcDbCircle
 10
384.8396904747
 20
649.7610872103
 30
0.0
 40
0.5000000000000004
100
AcDbArc
 50
270.0
 51
0.0
  0
ARC
  5
148
330
129
100
AcDbEntity
  8
$DDT_AUDIT_GENERATED_(CD)
  6
Continuous
 62
     7
100
AcDbCircle
 10
354.8396904747
 20
649.7610872103
 30
0.0
 40
0.5000000000000004
100
AcDbArc
 50
180.0
 51
270.0
  0
ARC
  5
149
330
129
100
AcDbEntity
  8
$DDT_AUDIT_GENERATED_(CD)
  6
Continuous
 62
     7
100
AcDbCircle
 10
384.8396904747
 20
682.7610872103
 30
0.0
 40
0.5000000000000004
100
AcDbArc
 50
0.0
 51
90.0
  0
ARC
  5
14A
330
129
100
AcDbEntity
  8
$DDT_AUDIT_GENERATED_(CD)
  6
Continuous
 62
     7
100
AcDbCircle
 10
354.8396904747
 20
682.7610872103
 30
0.0
 40
0.5000000000000004
100
AcDbArc
 50
90.0
 51
180.0
  0
ARC
  5
14B
330
129
100
AcDbEntity
  8
$DDT_AUDIT_GENERATED_(E4)
  6
Continuous
 62
     7
100
AcDbCircle
 10
369.8396904747
 20
666.2610872103
 30
0.0
 40
13.5000000000002
100
AcDbArc
 50
71.2506596112
 51
71.2569171929
  0
ARC
  5
14C
330
129
100
AcDbEntity
  8
$DDT_AUDIT_GENERATED_(E4)
  6
Continuous
 62
     7
100
AcDbCircle
 10
369.8396904747
 20
666.2610872103
 30
0.0
 40
18.0
100
AcDbArc
 50
102.8395884069
 51
0.0
  0
ARC
  5
14D
330
129
100
AcDbEntity
  8
$DDT_AUDIT_GENERATED_(E4)
  6
Continuous
 62
     7
100
AcDbCircle
 10
369.8396904747
 20
666.2610872103
 30
0.0
 40
18.0
100
AcDbArc
 50
0.0
 51
77.1604115931
  0
LINE
  5
14E
330
129
100
AcDbEntity
  8
$DDT_AUDIT_GENERATED_(E4)
  6
Continuous
 62
     7
100
AcDbLine
 10
373.3396904747
 20
688.2610872103
 30
0.0
 11
366.3396904747
 21
688.2610872103
 31
0.0
  0
CIRCLE
  5
14F
330
129
100
AcDbEntity
  8
$DDT_AUDIT_GENERATED_(E4)
  6
Continuous
 62
     7
100
AcDbCircle
 10
369.8396904747
 20
666.2610872103
 30
0.0
 40
13.5
  0
LINE
  5
150
330
129
100
AcDbEntity
  8
$DDT_AUDIT_GENERATED_(E4)
  6
Continuous
 62
     7
100
AcDbLine
 10
365.8396904747
 20
687.7610872103
 30
0.0
 11
365.8396904747
 21
679.5236703153
 31
0.0
  0
LINE
  5
151
330
129
100
AcDbEntity
  8
$DDT_AUDIT_GENERATED_(E4)
  6
Continuous
 62
     7
100
AcDbLine
 10
373.8396904747
 20
679.522987466
 30
0.0
 11
373.8396904747
 21
687.7610872103
 31
0.0
  0
ARC
  5
152
330
129
100
AcDbEntity
  8
$DDT_AUDIT_GENERATED_(E4)
  6
Continuous
 62
     7
100
AcDbCircle
 10
365.3566222509
 20
679.5070296588
 30
0.0
 40
0.4801527687517247
100
AcDbArc
 50
302.709467416
 51
2.1826398536
  0
ARC
  5
153
330
129
100
AcDbEntity
  8
$DDT_AUDIT_GENERATED_(E4)
  6
Continuous
 62
     7
100
AcDbCircle
 10
374.3103743932
 20
679.4960053925
 30
0.0
 40
0.464280282232686
100
AcDbArc
 50
176.8019548194
 51
237.8648464996
  0
ARC
  5
154
330
129
100
AcDbEntity
  8
$DDT_AUDIT_GENERATED_(E4)
  6
Continuous
 62
     7
100
AcDbCircle
 10
373.3396904747
 20
687.7610872103
 30
0.0
 40
0.5000000000000004
100
AcDbArc
 50
0.0
 51
90.0
  0
ARC
  5
155
330
129
100
AcDbEntity
  8
$DDT_AUDIT_GENERATED_(E4)
  6
Continuous
 62
     7
100
AcDbCircle
 10
366.3396904747
 20
687.7610872103
 30
0.0
 40
0.5000000000000004
100
AcDbArc
 50
90.0
 51
180.0
  0
ARC
  5
156
330
129
100
AcDbEntity
  8
$DDT_AUDIT_GENERATED_(A2)
  6
Continuous
 62
     7
100
AcDbCircle
 10
369.8396904747
 20
797.419853703
 30
0.0
 40
24.99999999999996
100
AcDbArc
 50
62.2168909071
 51
117.7831090929
  0
LINE
  5
157
330
129
100
AcDbEntity
  8
$DDT_AUDIT_GENERATED_(A2)
  6
Continuous
 62
     7
100
AcDbLine
 10
382.0762547802
 20
816.7741756845
 30
0.0
 11
382.026368053
 21
818.6792729344
 31
0.0
  0
LINE
  5
158
330
129
100
AcDbEntity
  8
$DDT_AUDIT_GENERATED_(A2)
  6
Continuous
 62
     7
100
AcDbLine
 10
357.6530128964
 20
818.6792729344
 30
0.0
 11
357.6031261692
 21
816.7741756845
 31
0.0
  0
ARC
  5
159
330
129
100
AcDbEntity
  8
$DDT_AUDIT_GENERATED_(A2)
  6
Continuous
 62
     7
100
AcDbCircle
 10
381.026710728
 20
818.6530959861
 30
0.0
 40
0.99999999999999
100
AcDbArc
 50
1.5
 51
62.2168909071
  0
ARC
  5
15A
330
129
100
AcDbEntity
  8
$DDT_AUDIT_GENERATED_(A2)
  6
Continuous
 62
     7
100
AcDbCircle
 10
358.6526702214
 20
818.6530959861
 30
0.0
 40
1.000000000000081
100
AcDbArc
 50
117.7831090929
 51
178.5
  0
ARC
  5
15B
330
129
100
AcDbEntity
  8
$DDT_AUDIT_GENERATED_(A2)
  6
Continuous
 62
     7
100
AcDbCircle
 10
381.5764261177
 20
816.7610872103
 30
0.0
 40
0.5000000000000004
100
AcDbArc
 50
270.0
 51
1.5
  0
ARC
  5
15C
330
129
100
AcDbEntity
  8
$DDT_AUDIT_GENERATED_(A2)
  6
Continuous
 62
     7
100
AcDbCircle
 10
358.1029548317
 20
816.7610872103
 30
0.0
 40
0.5000000000000034
100
AcDbArc
 50
178.5
 51
270.0
  0
ENDBLK
  5
15E
330
129
100
AcDbEntity
  8
0
100
AcDbBlockEnd
  0
BLOCK
  5
1EB
330
15F
100
AcDbEntity
  8
0
100
AcDbBlockBegin
  2
SE6
 70
     0
 10
0.0
 20
0.0
 30
0.0
  3
SE6
  1

  0
CIRCLE
  5
161
330
15F
100
AcDbEntity
  8
$DDT_AUDIT_GENERATED_(99)
  6
Continuous
 62
     7
100
AcDbCircle
 10
100.589355168
 20
124.35
 30
0.0
 40
13.0
  0
LINE
  5
162
330
15F
100
AcDbEntity
  8
$DDT_AUDIT_GENERATED_(99)
  6
Continuous
 62
     7
100
AcDbLine
 10
110.589355168
 20
189.35
 30
0.0
 11
90.589355168
 21
189.35
 31
0.0
  0
LINE
  5
163
330
15F
100
AcDbEntity
  8
$DDT_AUDIT_GENERATED_(99)
  6
Continuous
 62
     7
100
AcDbLine
 10
90.089355168
 20
189.35
 30
0.0
 11
90.589355168
 21
189.35
 31
0.0
  0
LINE
  5
164
330
15F
100
AcDbEntity
  8
$DDT_AUDIT_GENERATED_(99)
  6
Continuous
 62
     7
100
AcDbLine
 10
110.589355168
 20
189.35
 30
0.0
 11
111.089355168
 21
189.35
 31
0.0
  0
LINE
  5
165
330
15F
100
AcDbEntity
  8
$DDT_AUDIT_GENERATED_(99)
  6
Continuous
 62
     7
100
AcDbLine
 10
111.089355168
 20
189.35
 30
0.0
 11
111.089355168
 21
165.35
 31
0.0
  0
ARC
  5
166
330
15F
100
AcDbEntity
  8
$DDT_AUDIT_GENERATED_(99)
  6
Continuous
 62
     7
100
AcDbCircle
 10
110.089355168
 20
165.35
 30
0.0
 40
0.9999999999999991
100
AcDbArc
 50
270.0
 51
0.0
  0
LINE
  5
167
330
15F
100
AcDbEntity
  8
$DDT_AUDIT_GENERATED_(99)
  6
Continuous
 62
     7
100
AcDbLine
 10
110.089355168
 20
164.35
 30
0.0
 11
101.589355168
 21
164.35
 31
0.0
  0
ARC
  5
168
330
15F
100
AcDbEntity
  8
$DDT_AUDIT_GENERATED_(99)
  6
Continuous
 62
     7
100
AcDbCircle
 10
101.589355168
 20
155.85
 30
0.0
 40
8.499999999999996
100
AcDbArc
 50
90.0
 51
270.0
  0
LINE
  5
169
330
15F
100
AcDbEntity
  8
$DDT_AUDIT_GENERATED_(99)
  6
Continuous
 62
     7
100
AcDbLine
 10
101.589355168
 20
147.35
 30
0.0
 11
110.089355168
 21
147.35
 31
0.0
  0
ARC
  5
16A
330
15F
100
AcDbEntity
  8
$DDT_AUDIT_GENERATED_(99)
  6
Continuous
 62
     7
100
AcDbCircle
 10
110.089355168
 20
146.35
 30
0.0
 40
1.000000000000001
100
AcDbArc
 50
0.0
 51
90.0
  0
LINE
  5
16B
330
15F
100
AcDbEntity
  8
$DDT_AUDIT_GENERATED_(99)
  6
Continuous
 62
     7
100
AcDbLine
 10
111.089355168
 20
146.35
 30
0.0
 11
111.089355168
 21
138.8413767462
 31
0.0
  0
ARC
  5
16C
330
15F
100
AcDbEntity
  8
$DDT_AUDIT_GENERATED_(99)
  6
Continuous
 62
     7
100
AcDbCircle
 10
119.089355168
 20
138.8413767462
 30
0.0
 40
8.0
100
AcDbArc
 50
180.0
 51
218.0722254136
  0
ARC
  5
16D
330
15F
100
AcDbEntity
  8
$DDT_AUDIT_GENERATED_(99)
  6
Continuous
 62
     7
100
AcDbCircle
 10
100.589355168
 20
124.35
 30
0.0
 40
15.5
100
AcDbArc
 50
141.9277745864
 51
38.0722254136
  0
ARC
  5
16E
330
15F
100
AcDbEntity
  8
$DDT_AUDIT_GENERATED_(99)
  6
Continuous
 62
     7
100
AcDbCircle
 10
82.089355168
 20
138.8413767462
 30
0.0
 40
8.000000000000005
100
AcDbArc
 50
321.9277745864
 51
0.0
  0
LINE
  5
16F
330
15F
100
AcDbEntity
  8
$DDT_AUDIT_GENERATED_(99)
  6
Continuous
 62
     7
100
AcDbLine
 10
90.089355168
 20
138.8413767462
 30
0.0
 11
90.089355168
 21
189.35
 31
0.0
  0
LINE
  5
171
330
15F
100
AcDbEntity
  8
$DDT_AUDIT_GENERATED_(170)
  6
Continuous
 62
     7
100
AcDbLine
 10
106.7028990425
 20
135.1381685793
 30
0.0
 11
106.6938298583
 21
135.1720152354
 31
0.0
  0
LINE
  5
172
330
15F
100
AcDbEntity
  8
$DDT_AUDIT_GENERATED_(170)
  6
Continuous
 62
     7
100
AcDbLine
 10
88.6380396783
 20
121.0445411717
 30
0.0
 11
88.6205193598
 21
121.01419509
 31
0.0
  0
ARC
  5
173
330
15F
100
AcDbEntity
  8
$DDT_AUDIT_GENERATED_(170)
  6
Continuous
 62
     7
100
AcDbCircle
 10
100.589355168
 20
124.35
 30
0.0
 40
12.425
100
AcDbArc
 50
195.5735551306
 51
239.4264448694
  0
LINE
  5
174
330
15F
100
AcDbEntity
  8
$DDT_AUDIT_GENERATED_(170)
  6
Continuous
 62
     7
100
AcDbLine
 10
94.2694523991
 20
113.6523622237
 30
0.0
 11
94.3032990553
 21
113.6614314079
 31
0.0
  0
LINE
  5
175
330
15F
100
AcDbEntity
  8
$DDT_AUDIT_GENERATED_(170)
  6
Continuous
 62
     7
100
AcDbLine
 10
94.4758112935
 20
113.5618314207
 30
0.0
 11
94.4848804777
 21
113.5279847646
 31
0.0
  0
ARC
  5
176
330
15F
100
AcDbEntity
  8
$DDT_AUDIT_GENERATED_(170)
  6
Continuous
 62
     7
100
AcDbCircle
 10
100.589355168
 20
124.35
 30
0.0
 40
12.425
100
AcDbArc
 50
240.5735551306
 51
284.4264448694
  0
LINE
  5
177
330
15F
100
AcDbEntity
  8
$DDT_AUDIT_GENERATED_(170)
  6
Continuous
 62
     7
100
AcDbLine
 10
103.684881278
 20
112.3167816814
 30
0.0
 11
103.7024015964
 21
112.3471277631
 31
0.0
  0
LINE
  5
178
330
15F
100
AcDbEntity
  8
$DDT_AUDIT_GENERATED_(170)
  6
Continuous
 62
     7
100
AcDbLine
 10
103.8948139963
 20
112.3986845103
 30
0.0
 11
103.925160078
 21
112.3811641918
 31
0.0
  0
ARC
  5
179
330
15F
100
AcDbEntity
  8
$DDT_AUDIT_GENERATED_(170)
  6
Continuous
 62
     7
100
AcDbCircle
 10
100.589355168
 20
124.35
 30
0.0
 40
12.42500000000001
100
AcDbArc
 50
285.5735551306
 51
329.4264448694
  0
LINE
  5
17A
330
15F
100
AcDbEntity
  8
$DDT_AUDIT_GENERATED_(170)
  6
Continuous
 62
     7
100
AcDbLine
 10
111.2869929443
 20
118.0300972311
 30
0.0
 11
111.2779237601
 21
118.0639438873
 31
0.0
  0
LINE
  5
17B
330
15F
100
AcDbEntity
  8
$DDT_AUDIT_GENERATED_(170)
  6
Continuous
 62
     7
100
AcDbLine
 10
111.3775237473
 20
118.2364561255
 30
0.0
 11
111.4113704034
 21
118.2455253097
 31
0.0
  0
ARC
  5
17C
330
15F
100
AcDbEntity
  8
$DDT_AUDIT_GENERATED_(170)
  6
Continuous
 62
     7
100
AcDbCircle
 10
100.589355168
 20
124.35
 30
0.0
 40
12.425
100
AcDbArc
 50
330.5735551306
 51
14.4264448694
  0
LINE
  5
17D
330
15F
100
AcDbEntity
  8
$DDT_AUDIT_GENERATED_(170)
  6
Continuous
 62
     7
100
AcDbLine
 10
112.6225734866
 20
127.44552611
 30
0.0
 11
112.5922274049
 21
127.4630464284
 31
0.0
  0
LINE
  5
17E
330
15F
100
AcDbEntity
  8
$DDT_AUDIT_GENERATED_(170)
  6
Continuous
 62
     7
100
AcDbLine
 10
112.5406706577
 20
127.6554588283
 30
0.0
 11
112.5581909762
 21
127.68580491
 31
0.0
  0
ARC
  5
17F
330
15F
100
AcDbEntity
  8
$DDT_AUDIT_GENERATED_(170)
  6
Continuous
 62
     7
100
AcDbCircle
 10
100.589355168
 20
124.35
 30
0.0
 40
12.425
100
AcDbArc
 50
15.5735551306
 51
59.4264448694
  0
LINE
  5
180
330
15F
100
AcDbEntity
  8
$DDT_AUDIT_GENERATED_(170)
  6
Continuous
 62
     7
100
AcDbLine
 10
106.9092579369
 20
135.0476377763
 30
0.0
 11
106.8754112807
 21
135.0385685921
 31
0.0
  0
ARC
  5
181
330
15F
100
AcDbEntity
  8
$DDT_AUDIT_GENERATED_(170)
  6
Continuous
 62
     7
100
AcDbCircle
 10
100.589355168
 20
124.35
 30
0.0
 40
12.425
100
AcDbArc
 50
60.5735551306
 51
149.4264448694
  0
LINE
  5
182
330
15F
100
AcDbEntity
  8
$DDT_AUDIT_GENERATED_(170)
  6
Continuous
 62
     7
100
AcDbLine
 10
89.8917173917
 20
130.6699027689
 30
0.0
 11
89.9007865759
 21
130.6360561127
 31
0.0
  0
LINE
  5
183
330
15F
100
AcDbEntity
  8
$DDT_AUDIT_GENERATED_(170)
  6
Continuous
 62
     7
100
AcDbLine
 10
89.8011865887
 20
130.4635438745
 30
0.0
 11
89.7673399326
 21
130.4544746903
 31
0.0
  0
ARC
  5
184
330
15F
100
AcDbEntity
  8
$DDT_AUDIT_GENERATED_(170)
  6
Continuous
 62
     7
100
AcDbCircle
 10
100.589355168
 20
124.35
 30
0.0
 40
12.425
100
AcDbArc
 50
150.5735551306
 51
194.4264448694
  0
LINE
  5
185
330
15F
100
AcDbEntity
  8
$DDT_AUDIT_GENERATED_(170)
  6
Continuous
 62
     7
100
AcDbLine
 10
88.5561368494
 20
121.25447389
 30
0.0
 11
88.5864829311
 21
121.2369535716
 31
0.0
  0
CIRCLE
  5
186
330
15F
100
AcDbEntity
  8
$DDT_AUDIT_GENERATED_(93)
  6
Continuous
 62
     7
100
AcDbCircle
 10
100.589355168
 20
124.35
 30
0.0
 40
12.4
  0
LINE
  5
187
330
15F
100
AcDbEntity
  8
$DDT_AUDIT_GENERATED_(BD)
  6
Continuous
 62
     7
100
AcDbLine
 10
116.589355168
 20
142.35
 30
0.0
 11
116.589355168
 21
106.35
 31
0.0
  0
LINE
  5
188
330
15F
100
AcDbEntity
  8
$DDT_AUDIT_GENERATED_(BD)
  6
Continuous
 62
     7
100
AcDbLine
 10
84.589355168
 20
142.35
 30
0.0
 11
84.589355168
 21
106.35
 31
0.0
  0
LINE
  5
189
330
15F
100
AcDbEntity
  8
$DDT_AUDIT_GENERATED_(BD)
  6
Continuous
 62
     7
100
AcDbLine
 10
116.589355168
 20
111.35
 30
0.0
 11
117.239355168
 21
111.35
 31
0.0
  0
LINE
  5
18A
330
15F
100
AcDbEntity
  8
$DDT_AUDIT_GENERATED_(BD)
  6
Continuous
 62
     7
100
AcDbLine
 10
117.239355168
 20
137.35
 30
0.0
 11
116.589355168
 21
137.35
 31
0.0
  0
LINE
  5
18B
330
15F
100
AcDbEntity
  8
$DDT_AUDIT_GENERATED_(BD)
  6
Continuous
 62
     7
100
AcDbLine
 10
84.589355168
 20
106.35
 30
0.0
 11
116.589355168
 21
106.35
 31
0.0
  0
LINE
  5
18C
330
15F
100
AcDbEntity
  8
$DDT_AUDIT_GENERATED_(BD)
  6
Continuous
 62
     7
100
AcDbLine
 10
116.589355168
 20
142.35
 30
0.0
 11
111.089355168
 21
142.35
 31
0.0
  0
LINE
  5
18D
330
15F
100
AcDbEntity
  8
$DDT_AUDIT_GENERATED_(BD)
  6
Continuous
 62
     7
100
AcDbLine
 10
90.089355168
 20
142.35
 30
0.0
 11
84.589355168
 21
142.35
 31
0.0
  0
LINE
  5
18E
330
15F
100
AcDbEntity
  8
$DDT_AUDIT_GENERATED_(BD)
  6
Continuous
 62
     7
100
AcDbLine
 10
83.339355168
 20
114.85
 30
0.0
 11
84.089355168
 21
114.85
 31
0.0
  0
LINE
  5
18F
330
15F
100
AcDbEntity
  8
$DDT_AUDIT_GENERATED_(BD)
  6
Continuous
 62
     7
100
AcDbLine
 10
84.089355168
 20
133.85
 30
0.0
 11
83.339355168
 21
133.85
 31
0.0
  0
ARC
  5
190
330
15F
100
AcDbEntity
  8
$DDT_AUDIT_GENERATED_(BD)
  6
Continuous
 62
     7
100
AcDbCircle
 10
84.089355168
 20
114.35
 30
0.0
 40
0.5000000000000004
100
AcDbArc
 50
0.0
 51
90.0
  0
ARC
  5
191
330
15F
100
AcDbEntity
  8
$DDT_AUDIT_GENERATED_(BD)
  6
Continuous
 62
     7
100
AcDbCircle
 10
84.089355168
 20
134.35
 30
0.0
 40
0.5000000000000004
100
AcDbArc
 50
270.0
 51
0.0
  0
LINE
  5
192
330
15F
100
AcDbEntity
  8
$DDT_AUDIT_GENERATED_(CD)
  6
Continuous
 62
     7
100
AcDbLine
 10
117.239355168
 20
142.35
 30
0.0
 11
117.239355168
 21
106.35
 31
0.0
  0
ARC
  5
193
330
15F
100
AcDbEntity
  8
$DDT_AUDIT_GENERATED_(CD)
  6
Continuous
 62
     7
100
AcDbCircle
 10
153.9893551681
 20
124.35
 30
0.0
 40
15.49999999992757
100
AcDbArc
 50
317.9721867776
 51
319.4363665247
  0
ARC
  5
194
330
15F
100
AcDbEntity
  8
$DDT_AUDIT_GENERATED_(CD)
  6
Continuous
 62
     7
100
AcDbCircle
 10
153.989355168
 20
124.35
 30
0.0
 40
15.50000000004979
100
AcDbArc
 50
40.5636334753
 51
42.0278132223
  0
ARC
  5
195
330
15F
100
AcDbEntity
  8
$DDT_AUDIT_GENERATED_(CD)
  6
Continuous
 62
     7
100
AcDbCircle
 10
153.989355168
 20
124.35
 30
0.0
 40
15.5
100
AcDbArc
 50
42.0278132223
 51
317.9721867777
  0
LINE
  5
196
330
15F
100
AcDbEntity
  8
$DDT_AUDIT_GENERATED_(CD)
  6
Continuous
 62
     7
100
AcDbLine
 10
161.2249386685
 20
133.6044015116
 30
0.0
 11
165.3846183316
 21
133.6044015116
 31
0.0
  0
LINE
  5
197
330
15F
100
AcDbEntity
  8
$DDT_AUDIT_GENERATED_(CD)
  6
Continuous
 62
     7
100
AcDbLine
 10
165.3846183316
 20
115.0955984884
 30
0.0
 11
161.2249386685
 21
115.0955984884
 31
0.0
  0
LINE
  5
198
330
15F
100
AcDbEntity
  8
$DDT_AUDIT_GENERATED_(CD)
  6
Continuous
 62
     7
100
AcDbLine
 10
160.9274643097
 20
114.9966465069
 30
0.0
 11
160.927056072
 21
114.9971968574
 31
0.0
  0
LINE
  5
199
330
15F
100
AcDbEntity
  8
$DDT_AUDIT_GENERATED_(CD)
  6
Continuous
 62
     7
100
AcDbLine
 10
160.927056072
 20
133.7028031426
 30
0.0
 11
160.9274643097
 21
133.7033534931
 31
0.0
  0
LINE
  5
19A
330
15F
100
AcDbEntity
  8
$DDT_AUDIT_GENERATED_(CD)
  6
Continuous
 62
     7
100
AcDbLine
 10
125.9074978126
 20
112.85
 30
0.0
 11
143.1950261181
 21
112.85
 31
0.0
  0
LINE
  5
19B
330
15F
100
AcDbEntity
  8
$DDT_AUDIT_GENERATED_(CD)
  6
Continuous
 62
     7
100
AcDbLine
 10
143.1955587905
 20
135.85
 30
0.0
 11
125.9074978126
 21
135.85
 31
0.0
  0
ARC
  5
19C
330
15F
100
AcDbEntity
  8
$DDT_AUDIT_GENERATED_(CD)
  6
Continuous
 62
     7
100
AcDbCircle
 10
-374.9365397879
 20
124.35
 30
0.0
 40
500.0
100
AcDbArc
 50
357.9922294736
 51
358.5703162254
  0
ARC
  5
19D
330
15F
100
AcDbEntity
  8
$DDT_AUDIT_GENERATED_(CD)
  6
Continuous
 62
     7
100
AcDbCircle
 10
-374.9365397879
 20
124.35
 30
0.0
 40
499.9999999999999
100
AcDbArc
 50
1.4296837746
 51
2.0077705264
  0
LINE
  5
19E
330
15F
100
AcDbEntity
  8
$DDT_AUDIT_GENERATED_(CD)
  6
Continuous
 62
     7
100
AcDbLine
 10
117.239355168
 20
106.35
 30
0.0
 11
124.2568095268
 21
106.35
 31
0.0
  0
LINE
  5
19F
330
15F
100
AcDbEntity
  8
$DDT_AUDIT_GENERATED_(CD)
  6
Continuous
 62
     7
100
AcDbLine
 10
124.2568095268
 20
142.35
 30
0.0
 11
117.239355168
 21
142.35
 31
0.0
  0
ARC
  5
1A0
330
15F
100
AcDbEntity
  8
$DDT_AUDIT_GENERATED_(CD)
  6
Continuous
 62
     7
100
AcDbCircle
 10
153.989355168
 20
124.35
 30
0.0
 40
11.6450255670171
100
AcDbArc
 50
305.2788862829
 51
306.5672002125
  0
ARC
  5
1A1
330
15F
100
AcDbEntity
  8
$DDT_AUDIT_GENERATED_(CD)
  6
Continuous
 62
     7
100
AcDbCircle
 10
153.989355168
 20
124.35
 30
0.0
 40
11.6450255670171
100
AcDbArc
 50
53.4327997875
 51
54.7211137174
  0
ARC
  5
1A2
330
15F
100
AcDbEntity
  8
$DDT_AUDIT_GENERATED_(CD)
  6
Continuous
 62
     7
100
AcDbCircle
 10
161.2249386685
 20
114.5956175269
 30
0.0
 40
0.5000000000000004
100
AcDbArc
 50
90.0
 51
126.5672002125
  0
ARC
  5
1A3
330
15F
100
AcDbEntity
  8
$DDT_AUDIT_GENERATED_(CD)
  6
Continuous
 62
     7
100
AcDbCircle
 10
161.2249386685
 20
134.1043824731
 30
0.0
 40
0.5000000000000028
100
AcDbArc
 50
233.4327997875
 51
270.0
  0
ARC
  5
1A4
330
15F
100
AcDbEntity
  8
$DDT_AUDIT_GENERATED_(CD)
  6
Continuous
 62
     7
100
AcDbCircle
 10
165.3846183316
 20
114.5956175269
 30
0.0
 40
0.5000000000000088
100
AcDbArc
 50
319.4363665247
 51
0.0
  0
ARC
  5
1A5
330
15F
100
AcDbEntity
  8
$DDT_AUDIT_GENERATED_(CD)
  6
Continuous
 62
     7
100
AcDbCircle
 10
165.3846183316
 20
114.5956175269
 30
0.0
 40
0.5000000000000004
100
AcDbArc
 50
0.0
 51
90.0
  0
ARC
  5
1A6
330
15F
100
AcDbEntity
  8
$DDT_AUDIT_GENERATED_(CD)
  6
Continuous
 62
     7
100
AcDbCircle
 10
165.3846183316
 20
134.1043824731
 30
0.0
 40
0.5000000000000004
100
AcDbArc
 50
270.0
 51
0.0
  0
ARC
  5
1A7
330
15F
100
AcDbEntity
  8
$DDT_AUDIT_GENERATED_(CD)
  6
Continuous
 62
     7
100
AcDbCircle
 10
165.3846183316
 20
134.1043824731
 30
0.0
 40
0.5000000000000004
100
AcDbArc
 50
0.0
 51
40.5636334753
  0
ARC
  5
1A8
330
15F
100
AcDbEntity
  8
$DDT_AUDIT_GENERATED_(CD)
  6
Continuous
 62
     7
100
AcDbCircle
 10
124.2568095268
 20
106.85
 30
0.0
 40
0.5000000000000004
100
AcDbArc
 50
270.0
 51
357.9922294737
  0
ARC
  5
1A9
330
15F
100
AcDbEntity
  8
$DDT_AUDIT_GENERATED_(CD)
  6
Continuous
 62
     7
100
AcDbCircle
 10
124.2568095268
 20
141.85
 30
0.0
 40
0.5000000000000284
100
AcDbArc
 50
2.0077705263
 51
90.0
  0
ARC
  5
1AA
330
15F
100
AcDbEntity
  8
$DDT_AUDIT_GENERATED_(CD)
  6
Continuous
 62
     7
100
AcDbCircle
 10
143.2549726187
 20
136.7652675591
 30
0.0
 40
0.909656205064825
100
AcDbArc
 50
266.3053048483
 51
306.0925390559
  0
ARC
  5
1AB
330
15F
100
AcDbEntity
  8
$DDT_AUDIT_GENERATED_(CD)
  6
Continuous
 62
     7
100
AcDbCircle
 10
143.2396222677
 20
111.9015273585
 30
0.0
 40
0.9452458699796062
100
AcDbArc
 50
55.6333149195
 51
92.6631309721
  0
ARC
  5
1AC
330
15F
100
AcDbEntity
  8
$DDT_AUDIT_GENERATED_(CD)
  6
Continuous
 62
     7
100
AcDbCircle
 10
125.9074978126
 20
111.85
 30
0.0
 40
1.000000000000044
100
AcDbArc
 50
90.0
 51
178.5703162255
  0
ARC
  5
1AD
330
15F
100
AcDbEntity
  8
$DDT_AUDIT_GENERATED_(CD)
  6
Continuous
 62
     7
100
AcDbCircle
 10
125.9074978126
 20
136.85
 30
0.0
 40
1.000000000000001
100
AcDbArc
 50
181.4296837745
 51
270.0
  0
ARC
  5
1AF
330
15F
100
AcDbEntity
  8
$DDT_AUDIT_GENERATED_(1AE)
  6
Continuous
 62
     7
100
AcDbCircle
 10
153.989355168
 20
124.35
 30
0.0
 40
13.37500000000001
100
AcDbArc
 50
54.1910391926
 51
305.8089608074
  0
ELLIPSE
  5
1B0
330
15F
100
AcDbEntity
  8
$DDT_AUDIT_GENERATED_(1AE)
  6
Continuous
 62
     7
100
AcDbEllipse
 10
159.6083939419
 20
133.8604722413
 30
0.0
 11
1.200000000000007
 21
0.0
 31
0.0
210
0.0
220
0.0
230
1.0
 40
0.0087268678
 41
-1.218100449945609
 42
-0.0719821701387993
  0
LINE
  5
1B1
330
15F
100
AcDbEntity
  8
$DDT_AUDIT_GENERATED_(1AE)
  6
Continuous
 62
     7
100
AcDbLine
 10
163.0117530337
 20
134.1267612319
 30
0.0
 11
160.8052864243
 21
133.8597190775
 31
0.0
  0
ARC
  5
1B2
330
15F
100
AcDbEntity
  8
$DDT_AUDIT_GENERATED_(1AE)
  6
Continuous
 62
     7
100
AcDbCircle
 10
158.5930078233
 20
130.3591673686
 30
0.0
 40
5.812279029449043
100
AcDbArc
 50
40.4974596714
 51
56.3362250408
  0
ARC
  5
1B3
330
15F
100
AcDbEntity
  8
$DDT_AUDIT_GENERATED_(1AE)
  6
Continuous
 62
     7
100
AcDbCircle
 10
158.4139601394
 20
118.5425587361
 30
0.0
 40
6.079539859294209
100
AcDbArc
 50
304.0143800062
 51
319.1527491023
  0
ELLIPSE
  5
1B4
330
15F
100
AcDbEntity
  8
$DDT_AUDIT_GENERATED_(1AE)
  6
Continuous
 62
     7
100
AcDbEllipse
 10
161.8148605513
 20
114.5724856043
 30
0.0
 11
-1.200000000000007
 21
0.0
 31
0.0
210
0.0
220
0.0
230
1.0
 40
0.0087268678
 41
1.94331046073807
 42
3.213574823727605
  0
LINE
  5
1B5
330
15F
100
AcDbEntity
  8
$DDT_AUDIT_GENERATED_(1AE)
  6
Continuous
 62
     7
100
AcDbLine
 10
160.8052864243
 20
114.8402809225
 30
0.0
 11
163.0117530337
 21
114.5732387681
 31
0.0
  0
ELLIPSE
  5
1B6
330
15F
100
AcDbEntity
  8
$DDT_AUDIT_GENERATED_(1AE)
  6
Continuous
 62
     7
100
AcDbEllipse
 10
161.8148605513
 20
134.1275143957
 30
0.0
 11
-1.200000000000007
 21
6.938893903907228E-15
 31
0.0
210
0.0
220
0.0
230
1.0
 40
0.0087268678
 41
3.069610483451324
 42
4.339874846441415
  0
ARC
  5
1B7
330
15F
100
AcDbEntity
  8
$DDT_AUDIT_GENERATED_(1AE)
  6
Continuous
 62
     7
100
AcDbCircle
 10
135.1551171065
 20
122.454300237
 30
0.0
 40
29.50782436605493
100
AcDbArc
 50
23.3238515214
 51
25.380598894
  0
ARC
  5
1B8
330
15F
100
AcDbEntity
  8
$DDT_AUDIT_GENERATED_(1AE)
  6
Continuous
 62
     7
100
AcDbCircle
 10
162.3605953186
 20
-32.406875768
 30
0.0
 40
166.5441798283525
100
AcDbArc
 50
90.0374937818
 51
90.5395767672
  0
ARC
  5
1B9
330
15F
100
AcDbEntity
  8
$DDT_AUDIT_GENERATED_(1AE)
  6
Continuous
 62
     7
100
AcDbCircle
 10
135.1551171049
 20
126.2456997637
 30
0.0
 40
29.50782436780768
100
AcDbArc
 50
334.6194011061
 51
336.6761484786
  0
ELLIPSE
  5
1BA
330
15F
100
AcDbEntity
  8
$DDT_AUDIT_GENERATED_(1AE)
  6
Continuous
 62
     7
100
AcDbEllipse
 10
159.6083939419
 20
114.8395277587
 30
0.0
 11
1.200000000000007
 21
0.0
 31
0.0
210
0.0
220
0.0
230
1.0
 40
0.0087268678
 41
0.0719821701391284
 42
1.21810044994581
  0
ARC
  5
1BB
330
15F
100
AcDbEntity
  8
$DDT_AUDIT_GENERATED_(1AE)
  6
Continuous
 62
     7
100
AcDbCircle
 10
159.9182876149
 20
-102.3801557813
 30
0.0
 40
217.2295363549104
100
AcDbArc
 50
89.9724054621
 51
90.5586677413
  0
ARC
  5
1BC
330
15F
100
AcDbEntity
  8
$DDT_AUDIT_GENERATED_(1AE)
  6
Continuous
 62
     7
100
AcDbCircle
 10
160.7829903927
 20
134.7730861615
 30
0.0
 40
0.643233250819404
100
AcDbArc
 50
241.4182452958
 51
270.820977776
  0
ARC
  5
1BD
330
15F
100
AcDbEntity
  8
$DDT_AUDIT_GENERATED_(1AE)
  6
Continuous
 62
     7
100
AcDbCircle
 10
159.9181793451
 20
351.0567941716
 30
0.0
 40
217.2061748001004
100
AcDbArc
 50
269.4413007308
 51
270.0276260658
  0
ARC
  5
1BE
330
15F
100
AcDbEntity
  8
$DDT_AUDIT_GENERATED_(1AE)
  6
Continuous
 62
     7
100
AcDbCircle
 10
157.80662586
 20
134.1799013798
 30
0.0
 40
0.3190202191437676
100
AcDbArc
 50
260.4798978307
 51
268.8466877264
  0
ARC
  5
1BF
330
15F
100
AcDbEntity
  8
$DDT_AUDIT_GENERATED_(1AE)
  6
Continuous
 62
     7
100
AcDbCircle
 10
157.80662586
 20
134.1799013798
 30
0.0
 40
0.3190202191437676
100
AcDbArc
 50
242.2925284101
 51
248.5539970817
  0
ARC
  5
1C0
330
15F
100
AcDbEntity
  8
$DDT_AUDIT_GENERATED_(1AE)
  6
Continuous
 62
     7
100
AcDbCircle
 10
157.80662586
 20
114.5200986202
 30
0.0
 40
0.3190202191521596
100
AcDbArc
 50
91.1533122739
 51
117.7074715895
  0
ARC
  5
1C1
330
15F
100
AcDbEntity
  8
$DDT_AUDIT_GENERATED_(1AE)
  6
Continuous
 62
     7
100
AcDbCircle
 10
162.3599999394
 20
280.9886495709
 30
0.0
 40
166.4259532677434
100
AcDbArc
 50
269.4602448955
 51
269.9626845555
  0
ARC
  5
1C2
330
15F
100
AcDbEntity
  8
$DDT_AUDIT_GENERATED_(1AE)
  6
Continuous
 62
     7
100
AcDbCircle
 10
160.7829903927
 20
113.9269138385
 30
0.0
 40
0.6432332508538675
100
AcDbArc
 50
89.1790222236
 51
118.5817547034
  0
ARC
  5
1C3
330
15F
100
AcDbEntity
  8
$DDT_AUDIT_GENERATED_(1AE)
  6
Continuous
 62
     7
100
AcDbCircle
 10
153.989355168
 20
124.35
 30
0.0
 40
10.22609931771878
100
AcDbArc
 50
68.7864576435
 51
291.2129934666
  0
LINE
  5
1C4
330
15F
100
AcDbEntity
  8
$DDT_AUDIT_GENERATED_(E4)
  6
Continuous
 62
     7
100
AcDbLine
 10
83.339355168
 20
106.85
 30
0.0
 11
83.339355168
 21
141.85
 31
0.0
  0
LINE
  5
1C5
330
15F
100
AcDbEntity
  8
$DDT_AUDIT_GENERATED_(E4)
  6
Continuous
 62
     7
100
AcDbLine
 10
75.839355168
 20
141.85
 30
0.0
 11
75.839355168
 21
106.85
 31
0.0
  0
CIRCLE
  5
1C6
330
15F
100
AcDbEntity
  8
$DDT_AUDIT_GENERATED_(E4)
  6
Continuous
 62
     7
100
AcDbCircle
 10
63.139355168
 20
124.35
 30
0.0
 40
4.0
  0
LINE
  5
1C7
330
15F
100
AcDbEntity
  8
$DDT_AUDIT_GENERATED_(E4)
  6
Continuous
 62
     7
100
AcDbLine
 10
56.939355168
 20
137.35
 30
0.0
 11
56.939355168
 21
111.35
 31
0.0
  0
LINE
  5
1C8
330
15F
100
AcDbEntity
  8
$DDT_AUDIT_GENERATED_(E4)
  6
Continuous
 62
     7
100
AcDbLine
 10
57.439355168
 20
110.85
 30
0.0
 11
75.339355168
 21
110.85
 31
0.0
  0
LINE
  5
1C9
330
15F
100
AcDbEntity
  8
$DDT_AUDIT_GENERATED_(E4)
  6
Continuous
 62
     7
100
AcDbLine
 10
75.339355168
 20
137.85
 30
0.0
 11
57.439355168
 21
137.85
 31
0.0
  0
LINE
  5
1CA
330
15F
100
AcDbEntity
  8
$DDT_AUDIT_GENERATED_(E4)
  6
Continuous
 62
     7
100
AcDbLine
 10
76.339355168
 20
106.35
 30
0.0
 11
82.839355168
 21
106.35
 31
0.0
  0
LINE
  5
1CB
330
15F
100
AcDbEntity
  8
$DDT_AUDIT_GENERATED_(E4)
  6
Continuous
 62
     7
100
AcDbLine
 10
82.839355168
 20
142.35
 30
0.0
 11
76.339355168
 21
142.35
 31
0.0
  0
ARC
  5
1CC
330
15F
100
AcDbEntity
  8
$DDT_AUDIT_GENERATED_(E4)
  6
Continuous
 62
     7
100
AcDbCircle
 10
82.839355168
 20
141.85
 30
0.0
 40
0.5000000000000004
100
AcDbArc
 50
0.0
 51
90.0
  0
ARC
  5
1CD
330
15F
100
AcDbEntity
  8
$DDT_AUDIT_GENERATED_(E4)
  6
Continuous
 62
     7
100
AcDbCircle
 10
82.839355168
 20
106.85
 30
0.0
 40
0.5000000000000004
100
AcDbArc
 50
270.0
 51
0.0
  0
ARC
  5
1CE
330
15F
100
AcDbEntity
  8
$DDT_AUDIT_GENERATED_(E4)
  6
Continuous
 62
     7
100
AcDbCircle
 10
76.339355168
 20
106.85
 30
0.0
 40
0.5000000000000004
100
AcDbArc
 50
180.0
 51
270.0
  0
ARC
  5
1CF
330
15F
100
AcDbEntity
  8
$DDT_AUDIT_GENERATED_(E4)
  6
Continuous
 62
     7
100
AcDbCircle
 10
76.339355168
 20
141.85
 30
0.0
 40
0.5000000000000004
100
AcDbArc
 50
90.0
 51
180.0
  0
ARC
  5
1D0
330
15F
100
AcDbEntity
  8
$DDT_AUDIT_GENERATED_(E4)
  6
Continuous
 62
     7
100
AcDbCircle
 10
75.339355168
 20
110.35
 30
0.0
 40
0.5000000000000004
100
AcDbArc
 50
0.0
 51
90.0
  0
ARC
  5
1D1
330
15F
100
AcDbEntity
  8
$DDT_AUDIT_GENERATED_(E4)
  6
Continuous
 62
     7
100
AcDbCircle
 10
75.339355168
 20
138.35
 30
0.0
 40
0.5000000000000004
100
AcDbArc
 50
270.0
 51
0.0
  0
ARC
  5
1D2
330
15F
100
AcDbEntity
  8
$DDT_AUDIT_GENERATED_(E4)
  6
Continuous
 62
     7
100
AcDbCircle
 10
57.439355168
 20
137.35
 30
0.0
 40
0.5000000000000004
100
AcDbArc
 50
90.0
 51
180.0
  0
ARC
  5
1D3
330
15F
100
AcDbEntity
  8
$DDT_AUDIT_GENERATED_(E4)
  6
Continuous
 62
     7
100
AcDbCircle
 10
57.439355168
 20
111.35
 30
0.0
 40
0.5000000000000004
100
AcDbArc
 50
180.0
 51
270.0
  0
LINE
  5
1D5
330
15F
100
AcDbEntity
  8
$DDT_AUDIT_GENERATED_(1D4)
  6
Continuous
 62
     7
100
AcDbLine
 10
108.6303536163
 20
162.0890918306
 30
0.0
 11
108.6425168391
 21
163.4828591192
 31
0.0
  0
LINE
  5
1D6
330
15F
100
AcDbEntity
  8
$DDT_AUDIT_GENERATED_(1D4)
  6
Continuous
 62
     7
100
AcDbLine
 10
108.6500842629
 20
164.35
 30
0.0
 11
108.6425168391
 21
163.4828591192
 31
0.0
  0
LINE
  5
1D7
330
15F
100
AcDbEntity
  8
$DDT_AUDIT_GENERATED_(1D4)
  6
Continuous
 62
     7
100
AcDbLine
 10
106.1163785546
 20
163.4828591192
 30
0.0
 11
106.1088111307
 21
164.35
 31
0.0
  0
LINE
  5
1D8
330
15F
100
AcDbEntity
  8
$DDT_AUDIT_GENERATED_(1D4)
  6
Continuous
 62
     7
100
AcDbLine
 10
106.1163785546
 20
163.4828591192
 30
0.0
 11
106.1285417774
 21
162.0890918306
 31
0.0
  0
LINE
  5
1D9
330
15F
100
AcDbEntity
  8
$DDT_AUDIT_GENERATED_(1D4)
  6
Continuous
 62
     7
100
AcDbLine
 10
107.3784941812
 20
160.85
 30
0.0
 11
107.3804012124
 21
160.85
 31
0.0
  0
ARC
  5
1DA
330
15F
100
AcDbEntity
  8
$DDT_AUDIT_GENERATED_(1D4)
  6
Continuous
 62
     7
100
AcDbCircle
 10
107.3804012124
 20
162.1
 30
0.0
 40
1.249999999999999
100
AcDbArc
 50
270.1708200153
 51
359.5
  0
ARC
  5
1DB
330
15F
100
AcDbEntity
  8
$DDT_AUDIT_GENERATED_(1D4)
  6
Continuous
 62
     7
100
AcDbCircle
 10
107.3784941812
 20
162.1
 30
0.0
 40
1.249999999999999
100
AcDbArc
 50
180.5
 51
270.178771763
  0
LINE
  5
1DC
330
15F
100
AcDbEntity
  8
$DDT_AUDIT_GENERATED_(170)
  6
Continuous
 62
     7
100
AcDbLine
 10
106.8902474229
 20
135.0298294365
 30
0.0
 11
106.8872758665
 21
135.0417476983
 31
0.0
  0
LINE
  5
1DD
330
15F
100
AcDbEntity
  8
$DDT_AUDIT_GENERATED_(170)
  6
Continuous
 62
     7
100
AcDbLine
 10
88.5821717106
 20
121.2536238245
 30
0.0
 11
88.5758454346
 21
121.2430951331
 31
0.0
  0
LINE
  5
1DE
330
15F
100
AcDbEntity
  8
$DDT_AUDIT_GENERATED_(170)
  6
Continuous
 62
     7
100
AcDbLine
 10
94.0837154285
 20
113.7642890376
 30
0.0
 11
94.1177152088
 21
113.7727661349
 31
0.0
  0
LINE
  5
1DF
330
15F
100
AcDbEntity
  8
$DDT_AUDIT_GENERATED_(170)
  6
Continuous
 62
     7
100
AcDbLine
 10
94.2884629131
 20
113.6701705635
 30
0.0
 11
94.2914344695
 21
113.6582523017
 31
0.0
  0
LINE
  5
1E0
330
15F
100
AcDbEntity
  8
$DDT_AUDIT_GENERATED_(170)
  6
Continuous
 62
     7
100
AcDbLine
 10
103.4744011975
 20
112.264590019
 30
0.0
 11
103.4924484597
 21
112.2946257072
 31
0.0
  0
LINE
  5
1E1
330
15F
100
AcDbEntity
  8
$DDT_AUDIT_GENERATED_(170)
  6
Continuous
 62
     7
100
AcDbLine
 10
103.6857313435
 20
112.3428165426
 30
0.0
 11
103.6962600349
 21
112.3364902666
 31
0.0
  0
LINE
  5
1E2
330
15F
100
AcDbEntity
  8
$DDT_AUDIT_GENERATED_(170)
  6
Continuous
 62
     7
100
AcDbLine
 10
111.1750661304
 20
117.8443602605
 30
0.0
 11
111.1665890331
 21
117.8783600408
 31
0.0
  0
LINE
  5
1E3
330
15F
100
AcDbEntity
  8
$DDT_AUDIT_GENERATED_(170)
  6
Continuous
 62
     7
100
AcDbLine
 10
111.2691846045
 20
118.0491077451
 30
0.0
 11
111.2811028663
 21
118.0520793015
 31
0.0
  0
LINE
  5
1E4
330
15F
100
AcDbEntity
  8
$DDT_AUDIT_GENERATED_(170)
  6
Continuous
 62
     7
100
AcDbLine
 10
112.674765149
 20
127.2350460295
 30
0.0
 11
112.6447294608
 21
127.2530932917
 31
0.0
  0
LINE
  5
1E5
330
15F
100
AcDbEntity
  8
$DDT_AUDIT_GENERATED_(170)
  6
Continuous
 62
     7
100
AcDbLine
 10
112.5965386254
 20
127.4463761755
 30
0.0
 11
112.6028649014
 21
127.4569048669
 31
0.0
  0
LINE
  5
1E6
330
15F
100
AcDbEntity
  8
$DDT_AUDIT_GENERATED_(170)
  6
Continuous
 62
     7
100
AcDbLine
 10
107.0949949075
 20
134.9357109624
 30
0.0
 11
107.0609951272
 21
134.9272338651
 31
0.0
  0
LINE
  5
1E7
330
15F
100
AcDbEntity
  8
$DDT_AUDIT_GENERATED_(170)
  6
Continuous
 62
     7
100
AcDbLine
 10
90.0036442056
 20
130.8556397395
 30
0.0
 11
90.0121213029
 21
130.8216399592
 31
0.0
  0
LINE
  5
1E8
330
15F
100
AcDbEntity
  8
$DDT_AUDIT_GENERATED_(170)
  6
Continuous
 62
     7
100
AcDbLine
 10
89.9095257315
 20
130.6508922549
 30
0.0
 11
89.8976074698
 21
130.6479206985
 31
0.0
  0
LINE
  5
1E9
330
15F
100
AcDbEntity
  8
$DDT_AUDIT_GENERATED_(170)
  6
Continuous
 62
     7
100
AcDbLine
 10
88.5039451871
 20
121.4649539705
 30
0.0
 11
88.5339808752
 21
121.4469067083
 31
0.0
  0
CIRCLE
  5
1EA
330
15F
100
AcDbEntity
  8
$DDT_AUDIT_GENERATED_(A2)
  6
Continuous
 62
     7
100
AcDbCircle
 10
100.589355168
 20
124.35
 30
0.0
 40
12.23673564296996
  0
ENDBLK
  5
1EC
330
15F
100
AcDbEntity
  8
0
100
AcDbBlockEnd
  0
ENDSEC
  0
SECTION
  2
ENTITIES
  0
INSERT
  5
5F
330
1F
100
AcDbEntity
  8
Default
100
AcDbBlockReference
  2
SEANNOT_GROUP
 10
0.0
 20
0.0
 30
0.0
  0
INSERT
  5
66
330
1F
100
AcDbEntity
  8
Default
100
AcDbBlockReference
  2
SEANNOT_GROUP1
 10
0.0
 20
0.0
 30
0.0
  0
INSERT
  5
6C
330
1F
100
AcDbEntity
  8
Default
100
AcDbBlockReference
  2
SEANNOT_GROUP2
 10
0.0
 20
0.0
 30
0.0
  0
INSERT
  5
76
330
1F
100
AcDbEntity
  8
Default
100
AcDbBlockReference
  2
SEANNOT_GROUP3
 10
0.0
 20
0.0
 30
0.0
  0
INSERT
  5
80
330
1F
100
AcDbEntity
  8
0
100
AcDbBlockReference
  2
SE
 10
0.0
 20
0.0
 30
0.0
  0
INSERT
  5
86
330
1F
100
AcDbEntity
  8
0
100
AcDbBlockReference
  2
SE1
 10
0.0
 20
0.0
 30
0.0
  0
INSERT
  5
8C
330
1F
100
AcDbEntity
  8
Default
100
AcDbBlockReference
  2
SEANNOT_GROUP4
 10
0.0
 20
0.0
 30
0.0
  0
INSERT
  5
92
330
1F
100
AcDbEntity
  8
Default
100
AcDbBlockReference
  2
SE2
 10
0.0
 20
0.0
 30
0.0
  0
INSERT
  5
AD
330
1F
100
AcDbEntity
  8
Default
100
AcDbBlockReference
  2
SE3
 10
0.0
 20
0.0
 30
0.0
  0
INSERT
  5
10D
330
1F
100
AcDbEntity
  8
Default
100
AcDbBlockReference
  2
SE4
 10
0.0
 20
0.0
 30
0.0
  0
INSERT
  5
12A
330
1F
100
AcDbEntity
  8
Default
100
AcDbBlockReference
  2
SE5
 10
0.0
 20
0.0
 30
0.0
  0
INSERT
  5
160
330
1F
100
AcDbEntity
  8
Default
100
AcDbBlockReference
  2
SE6
 10
0.0
 20
0.0
 30
0.0
  0
TEXT
  5
1EE
330
1F
100
AcDbEntity
  8
Default
  6
Continuous
 62
     7
100
AcDbText
 10
5.9362635081
 20
53.4225120485
 30
0.0
 40
10.0
  1
Grohe AG^J
  7
SEACAD_seiso_ttf
 11
5.9362635081
 21
63.4225120485
 31
0.0
100
AcDbText
 73
     3
  0
TEXT
  5
1EF
330
1F
100
AcDbEntity
  8
Default
  6
Continuous
 62
     7
100
AcDbText
 10
5.9362635081
 20
37.0588756849
 30
0.0
 40
10.0
  1
 
  7
SEACAD_seiso_ttf
 11
5.9362635081
 21
47.0588756849
 31
0.0
100
AcDbText
 73
     3
  0
TEXT
  5
1F0
330
1F
100
AcDbEntity
  8
Default
  6
Continuous
 62
     7
100
AcDbText
 10
5.9362635081
 20
20.6952393213
 30
0.0
 40
10.0
  1
ecn: 
  7
SEACAD_seiso_ttf
 11
5.9362635081
 21
30.6952393213
 31
0.0
100
AcDbText
 73
     3
  0
TEXT
  5
1F1
330
1F
100
AcDbEntity
  8
Default
  6
Continuous
 62
     7
100
AcDbText
 10
5.9362635081
 20
4.3316029576
 30
0.0
 40
10.0
  1
unit: mm
  7
SEACAD_seiso_ttf
 11
5.9362635081
 21
14.3316029576
 31
0.0
100
AcDbText
 73
     3
  0
LINE
  5
1F2
330
1F
100
AcDbEntity
  8
Default
  6
Continuous
 62
     7
100
AcDbLine
 10
0.0
 20
0.0
 30
0.0
 11
100.0
 21
0.0
 31
0.0
  0
LINE
  5
1F3
330
1F
100
AcDbEntity
  8
Default
  6
Continuous
 62
     7
100
AcDbLine
 10
0.0
 20
0.0
 30
0.0
 11
0.0
 21
100.0
 31
0.0
  0
TEXT
  5
1F4
330
1F
100
AcDbEntity
  8
Default
  6
Continuous
 62
     7
100
AcDbText
 10
24.3923665681
 20
-18.2375342018
 30
0.0
 40
10.0
  1
100 mm
  7
SEACAD_seiso_ttf
 11
24.3923665681
 21
-8.2375342018
 31
0.0
100
AcDbText
 73
     3
  0
TEXT
  5
1F5
330
1F
100
AcDbEntity
  8
Default
  6
Continuous
 62
     7
100
AcDbText
 10
-7.6150308803
 20
24.6231930421
 30
0.0
 40
10.0
  1
100 mm
 50
90.0
  7
SEACAD_seiso_ttf
 11
-17.6150308803
 21
24.6231930421
 31
0.0
100
AcDbText
 73
     3
  0
TEXT
  5
1F6
330
1F
100
AcDbEntity
  8
Default
  6
Continuous
 62
     7
100
AcDbText
 10
28.4878128572
 20
20.0907663715
 30
0.0
 40
10.0
  1
209916
  7
SEACAD_seiso_ttf
 11
28.4878128572
 21
30.0907663715
 31
0.0
100
AcDbText
 73
     3
  0
TEXT
  5
1F7
330
1F
100
AcDbEntity
  8
Default
  6
Continuous
 62
     7
100
AcDbText
 10
5.9012241913
 20
36.7242780188
 30
0.0
 40
10.0
  1
28797000
  7
SEACAD_seiso_ttf
 11
5.9012241913
 21
46.7242780188
 31
0.0
100
AcDbText
 73
     3
  0
ENDSEC
  0
SECTION
  2
OBJECTS
  0
DICTIONARY
  5
C
330
0
100
AcDbDictionary
281
     1
  3
ACAD_GROUP
350
D
  3
ACAD_LAYOUT
350
1A
  3
ACAD_MLEADERSTYLE
350
1FB
  3
ACAD_MLINESTYLE
350
17
  3
ACAD_PLOTSETTINGS
350
19
  3
ACAD_PLOTSTYLENAME
350
E
  3
ACAD_SCALELIST
350
3B
  3
ACAD_TABLESTYLE
350
1FA
  3
ACAD_VISUALSTYLE
350
2A
  3
AcDbVariableDictionary
350
1F8
  0
DICTIONARY
  5
D
102
{ACAD_REACTORS
330
C
102
}
330
C
100
AcDbDictionary
281
     1
  0
DICTIONARY
  5
1A
102
{ACAD_REACTORS
330
C
102
}
330
C
100
AcDbDictionary
281
     1
  3
Layout1
350
1E
  3
Model
350
22
  0
DICTIONARY
  5
1FB
102
{ACAD_REACTORS
330
C
102
}
330
C
100
AcDbDictionary
281
     1
  0
DICTIONARY
  5
17
102
{ACAD_REACTORS
330
C
102
}
330
C
100
AcDbDictionary
281
     1
  3
Standard
350
18
  0
DICTIONARY
  5
19
102
{ACAD_REACTORS
330
C
102
}
330
C
100
AcDbDictionary
281
     1
  0
ACDBDICTIONARYWDFLT
  5
E
102
{ACAD_REACTORS
330
C
102
}
330
C
100
AcDbDictionary
281
     1
  3
Normal
350
F
100
AcDbDictionaryWithDefault
340
F
  0
DICTIONARY
  5
3B
102
{ACAD_REACTORS
330
C
102
}
330
C
100
AcDbDictionary
281
     1
  3
A0
350
3C
  3
A1
350
3D
  3
A2
350
3E
  3
A3
350
3F
  3
A4
350
40
  3
A5
350
41
  3
A6
350
42
  3
A7
350
43
  3
A8
350
44
  3
A9
350
45
  3
B0
350
46
  3
B1
350
47
  3
B2
350
48
  3
B3
350
49
  3
B4
350
4A
  3
B5
350
4B
  3
B6
350
4C
  3
B7
350
4D
  3
B8
350
4E
  3
B9
350
4F
  3
C0
350
50
  3
C1
350
51
  3
C2
350
52
  3
C3
350
53
  3
C4
350
54
  3
C5
350
55
  3
C6
350
56
  3
C7
350
57
  3
C8
350
58
  3
C9
350
59
  3
D0
350
5A
  3
D1
350
5B
  3
D2
350
5C
  0
DICTIONARY
  5
1FA
102
{ACAD_REACTORS
330
C
102
}
330
C
100
AcDbDictionary
281
     1
  0
DICTIONARY
  5
2A
102
{ACAD_REACTORS
330
C
102
}
330
C
100
AcDbDictionary
281
     1
  3
2dWireframe
350
2F
  3
3D Hidden
350
31
  3
3dWireframe
350
30
  3
Basic
350
32
  3
Brighten
350
36
  3
ColorChange
350
3A
  3
Conceptual
350
34
  3
Dim
350
35
  3
Facepattern
350
39
  3
Flat
350
2B
  3
FlatWithEdges
350
2C
  3
Gouraud
350
2D
  3
GouraudWithEdges
350
2E
  3
Linepattern
350
38
  3
Realistic
350
33
  3
Thicken
350
37
  0
DICTIONARY
  5
1F8
102
{ACAD_REACTORS
330
C
102
}
330
C
100
AcDbDictionary
281
     1
  3
CANNOSCALE
350
1F9
  3
PSOLHEIGHT
350
1FD
  3
PSOLWIDTH
350
1FC
  0
LAYOUT
  5
1E
102
{ACAD_REACTORS
330
1A
102
}
330
1A
100
AcDbPlotSettings
  1

  2
none_device
  4

  6

 40
0.0
 41
0.0
 42
0.0
 43
0.0
 44
0.0
 45
0.0
 46
0.0
 47
0.0
 48
0.0
 49
0.0
140
0.0
141
0.0
142
1.0
143
1.0
 70
   688
 72
     0
 73
     0
 74
     5
  7

 75
    16
147
1.0
148
0.0
149
0.0
100
AcDbLayout
  1
Layout1
 70
     1
 71
     1
 10
0.0
 20
0.0
 11
1682.0
 21
2378.0
 12
0.0
 22
0.0
 32
0.0
 14
0.0
 24
0.0
 34
0.0
 15
1682.0
 25
2378.0
 35
0.0
146
0.0
 13
0.0
 23
0.0
 33
0.0
 16
1.0
 26
0.0
 36
0.0
 17
0.0
 27
1.0
 37
0.0
 76
     0
330
1B
  0
LAYOUT
  5
22
102
{ACAD_REACTORS
330
1A
102
}
330
1A
100
AcDbPlotSettings
  1

  2
none_device
  4

  6

 40
0.0
 41
0.0
 42
0.0
 43
0.0
 44
0.0
 45
0.0
 46
0.0
 47
0.0
 48
0.0
 49
0.0
140
0.0
141
0.0
142
1.0
143
1.0
 70
  1712
 72
     0
 73
     0
 74
     0
  7

 75
     0
147
1.0
148
0.0
149
0.0
100
AcDbLayout
  1
Model
 70
     1
 71
     0
 10
0.0
 20
0.0
 11
1682.0
 21
2378.0
 12
0.0
 22
0.0
 32
0.0
 14
0.0
 24
0.0
 34
0.0
 15
1682.0
 25
2378.0
 35
0.0
146
0.0
 13
0.0
 23
0.0
 33
0.0
 16
1.0
 26
0.0
 36
0.0
 17
0.0
 27
1.0
 37
0.0
 76
     0
330
1F
331
29
  0
MLINESTYLE
  5
18
102
{ACAD_REACTORS
330
17
102
}
330
17
100
AcDbMlineStyle
  2
Standard
 70
     0
  3

 62
   256
 51
90.0
 52
90.0
 71
     2
 49
0.5
 62
   256
  6
BYLAYER
 49
-0.5
 62
   256
  6
BYLAYER
  0
ACDBPLACEHOLDER
  5
F
102
{ACAD_REACTORS
330
E
102
}
330
E
  0
SCALE
  5
3C
102
{ACAD_REACTORS
330
3B
102
}
330
3B
100
AcDbScale
 70
     0
300
1:1
140
1.0
141
1.0
290
     1
  0
SCALE
  5
3D
102
{ACAD_REACTORS
330
3B
102
}
330
3B
100
AcDbScale
 70
     0
300
1:2
140
1.0
141
2.0
290
     0
  0
SCALE
  5
3E
102
{ACAD_REACTORS
330
3B
102
}
330
3B
100
AcDbScale
 70
     0
300
1:4
140
1.0
141
4.0
290
     0
  0
SCALE
  5
3F
102
{ACAD_REACTORS
330
3B
102
}
330
3B
100
AcDbScale
 70
     0
300
1:5
140
1.0
141
5.0
290
     0
  0
SCALE
  5
40
102
{ACAD_REACTORS
330
3B
102
}
330
3B
100
AcDbScale
 70
     0
300
1:8
140
1.0
141
8.0
290
     0
  0
SCALE
  5
41
102
{ACAD_REACTORS
330
3B
102
}
330
3B
100
AcDbScale
 70
     0
300
1:10
140
1.0
141
10.0
290
     0
  0
SCALE
  5
42
102
{ACAD_REACTORS
330
3B
102
}
330
3B
100
AcDbScale
 70
     0
300
1:16
140
1.0
141
16.0
290
     0
  0
SCALE
  5
43
102
{ACAD_REACTORS
330
3B
102
}
330
3B
100
AcDbScale
 70
     0
300
1:20
140
1.0
141
20.0
290
     0
  0
SCALE
  5
44
102
{ACAD_REACTORS
330
3B
102
}
330
3B
100
AcDbScale
 70
     0
300
1:30
140
1.0
141
30.0
290
     0
  0
SCALE
  5
45
102
{ACAD_REACTORS
330
3B
102
}
330
3B
100
AcDbScale
 70
     0
300
1:40
140
1.0
141
40.0
290
     0
  0
SCALE
  5
46
102
{ACAD_REACTORS
330
3B
102
}
330
3B
100
AcDbScale
 70
     0
300
1:50
140
1.0
141
50.0
290
     0
  0
SCALE
  5
47
102
{ACAD_REACTORS
330
3B
102
}
330
3B
100
AcDbScale
 70
     0
300
1:100
140
1.0
141
100.0
290
     0
  0
SCALE
  5
48
102
{ACAD_REACTORS
330
3B
102
}
330
3B
100
AcDbScale
 70
     0
300
2:1
140
2.0
141
1.0
290
     0
  0
SCALE
  5
49
102
{ACAD_REACTORS
330
3B
102
}
330
3B
100
AcDbScale
 70
     0
300
4:1
140
4.0
141
1.0
290
     0
  0
SCALE
  5
4A
102
{ACAD_REACTORS
330
3B
102
}
330
3B
100
AcDbScale
 70
     0
300
8:1
140
8.0
141
1.0
290
     0
  0
SCALE
  5
4B
102
{ACAD_REACTORS
330
3B
102
}
330
3B
100
AcDbScale
 70
     0
300
10:1
140
10.0
141
1.0
290
     0
  0
SCALE
  5
4C
102
{ACAD_REACTORS
330
3B
102
}
330
3B
100
AcDbScale
 70
     0
300
100:1
140
100.0
141
1.0
290
     0
  0
SCALE
  5
4D
102
{ACAD_REACTORS
330
3B
102
}
330
3B
100
AcDbScale
 70
     0
300
1/128" = 1'-0"
140
0.0078125
141
12.0
290
     0
  0
SCALE
  5
4E
102
{ACAD_REACTORS
330
3B
102
}
330
3B
100
AcDbScale
 70
     0
300
1/64" = 1'-0"
140
0.015625
141
12.0
290
     0
  0
SCALE
  5
4F
102
{ACAD_REACTORS
330
3B
102
}
330
3B
100
AcDbScale
 70
     0
300
1/32" = 1'-0"
140
0.03125
141
12.0
290
     0
  0
SCALE
  5
50
102
{ACAD_REACTORS
330
3B
102
}
330
3B
100
AcDbScale
 70
     0
300
1/16" = 1'-0"
140
0.0625
141
12.0
290
     0
  0
SCALE
  5
51
102
{ACAD_REACTORS
330
3B
102
}
330
3B
100
AcDbScale
 70
     0
300
3/32" = 1'-0"
140
0.09375
141
12.0
290
     0
  0
SCALE
  5
52
102
{ACAD_REACTORS
330
3B
102
}
330
3B
100
AcDbScale
 70
     0
300
1/8" = 1'-0"
140
0.125
141
12.0
290
     0
  0
SCALE
  5
53
102
{ACAD_REACTORS
330
3B
102
}
330
3B
100
AcDbScale
 70
     0
300
3/16" = 1'-0"
140
0.1875
141
12.0
290
     0
  0
SCALE
  5
54
102
{ACAD_REACTORS
330
3B
102
}
330
3B
100
AcDbScale
 70
     0
300
1/4" = 1'-0"
140
0.25
141
12.0
290
     0
  0
SCALE
  5
55
102
{ACAD_REACTORS
330
3B
102
}
330
3B
100
AcDbScale
 70
     0
300
3/8" = 1'-0"
140
0.375
141
12.0
290
     0
  0
SCALE
  5
56
102
{ACAD_REACTORS
330
3B
102
}
330
3B
100
AcDbScale
 70
     0
300
1/2" = 1'-0"
140
0.5
141
12.0
290
     0
  0
SCALE
  5
57
102
{ACAD_REACTORS
330
3B
102
}
330
3B
100
AcDbScale
 70
     0
300
3/4" = 1'-0"
140
0.75
141
12.0
290
     0
  0
SCALE
  5
58
102
{ACAD_REACTORS
330
3B
102
}
330
3B
100
AcDbScale
 70
     0
300
1" = 1'-0"
140
1.0
141
12.0
290
     0
  0
SCALE
  5
59
102
{ACAD_REACTORS
330
3B
102
}
330
3B
100
AcDbScale
 70
     0
300
1-1/2" = 1'-0"
140
1.5
141
12.0
290
     0
  0
SCALE
  5
5A
102
{ACAD_REACTORS
330
3B
102
}
330
3B
100
AcDbScale
 70
     0
300
3" = 1'-0"
140
3.0
141
12.0
290
     0
  0
SCALE
  5
5B
102
{ACAD_REACTORS
330
3B
102
}
330
3B
100
AcDbScale
 70
     0
300
6" = 1'-0"
140
6.0
141
12.0
290
     0
  0
SCALE
  5
5C
102
{ACAD_REACTORS
330
3B
102
}
330
3B
100
AcDbScale
 70
     0
300
1'-0" = 1'-0"
140
12.0
141
12.0
290
     0
  0
VISUALSTYLE
  5
2F
102
{ACAD_REACTORS
330
2A
102
}
330
2A
100
AcDbVisualStyle
  2
2dWireframe
 70
     4
 71
     0
 72
     2
 73
     0
 90
        0
 40
-0.6
 41
-30.0
 62
     5
 63
     7
 74
     1
 91
        4
 64
     7
 65
   257
 75
     1
175
     1
 42
1.0
 92
        0
 66
   257
 43
1.0
 76
     1
 77
     6
 78
     2
 67
     7
 79
     5
170
     0
171
     0
290
     0
174
     0
 93
        1
 44
0.0
173
     0
291
     0
 45
0.0
1001
ACAD
1000
AcDbSavedByObjectVersion
1070
     0
  0
VISUALSTYLE
  5
31
102
{ACAD_REACTORS
330
2A
102
}
330
2A
100
AcDbVisualStyle
  2
3D Hidden
 70
     6
 71
     1
 72
     2
 73
     2
 90
        0
 40
-0.6
 41
-30.0
 62
     5
 63
     7
 74
     2
 91
        2
 64
     7
 65
   257
 75
     2
175
     1
 42
40.0
 92
        0
 66
   257
 43
1.0
 76
     1
 77
     6
 78
     2
 67
     7
 79
     3
170
     0
171
     0
290
     0
174
     0
 93
        1
 44
0.0
173
     0
291
     0
 45
0.0
1001
ACAD
1000
AcDbSavedByObjectVersion
1070
     0
  0
VISUALSTYLE
  5
30
102
{ACAD_REACTORS
330
2A
102
}
330
2A
100
AcDbVisualStyle
  2
3dWireframe
 70
     5
 71
     0
 72
     2
 73
     0
 90
        0
 40
-0.6
 41
-30.0
 62
     5
 63
     7
 74
     1
 91
        4
 64
     7
 65
   257
 75
     1
175
     1
 42
1.0
 92
        0
 66
   257
 43
1.0
 76
     1
 77
     6
 78
     2
 67
     7
 79
     5
170
     0
171
     0
290
     0
174
     0
 93
        1
 44
0.0
173
     0
291
     0
 45
0.0
1001
ACAD
1000
AcDbSavedByObjectVersion
1070
     0
  0
VISUALSTYLE
  5
32
102
{ACAD_REACTORS
330
2A
102
}
330
2A
100
AcDbVisualStyle
  2
Basic
 70
     7
 71
     1
 72
     0
 73
     1
 90
        0
 40
-0.6
 41
-30.0
 62
     5
 63
     7
 74
     0
 91
        4
 64
     7
 65
   257
 75
     1
175
     1
 42
1.0
 92
        8
 66
     7
 43
1.0
 76
     1
 77
     6
 78
     2
 67
     7
 79
     5
170
     0
171
     0
290
     0
174
     0
 93
        1
 44
0.0
173
     0
291
     1
 45
0.0
1001
ACAD
1000
AcDbSavedByObjectVersion
1070
     0
  0
VISUALSTYLE
  5
36
102
{ACAD_REACTORS
330
2A
102
}
330
2A
100
AcDbVisualStyle
  2
Brighten
 70
    12
 71
     2
 72
     2
 73
     0
 90
        0
 40
-0.6
 41
-30.0
 62
     5
 63
     7
 74
     1
 91
        4
 64
     7
 65
   257
 75
     1
175
     1
 42
1.0
 92
        8
 66
     7
 43
1.0
 76
     1
 77
     6
 78
     2
 67
     7
 79
     5
170
     0
171
     0
290
     0
174
     0
 93
        1
 44
50.0
173
     0
291
     1
 45
0.0
1001
ACAD
1000
AcDbSavedByObjectVersion
1070
     0
  0
VISUALSTYLE
  5
3A
102
{ACAD_REACTORS
330
2A
102
}
330
2A
100
AcDbVisualStyle
  2
ColorChange
 70
    16
 71
     2
 72
     2
 73
     3
 90
        0
 40
-0.6
 41
-30.0
 62
     5
 63
     8
 74
     1
 91
        4
 64
     7
 65
   257
 75
     1
175
     1
 42
1.0
 92
        8
 66
     8
 43
1.0
 76
     1
 77
     6
 78
     2
 67
     7
 79
     5
170
     0
171
     0
290
     0
174
     0
 93
        1
 44
0.0
173
     0
291
     1
 45
0.0
1001
ACAD
1000
AcDbSavedByObjectVersion
1070
     0
  0
VISUALSTYLE
  5
34
102
{ACAD_REACTORS
330
2A
102
}
330
2A
100
AcDbVisualStyle
  2
Conceptual
 70
     9
 71
     3
 72
     2
 73
     0
 90
        0
 40
-0.6
 41
-30.0
 62
     5
 63
     7
 74
     2
 91
        2
 64
     7
 65
   257
 75
     1
175
     1
 42
40.0
 92
        8
 66
     7
 43
1.0
 76
     1
 77
     6
 78
     2
 67
     7
 79
     3
170
     0
171
     0
290
     0
174
     0
 93
        1
 44
0.0
173
     0
291
     0
 45
0.0
1001
ACAD
1000
AcDbSavedByObjectVersion
1070
     0
  0
VISUALSTYLE
  5
35
102
{ACAD_REACTORS
330
2A
102
}
330
2A
100
AcDbVisualStyle
  2
Dim
 70
    11
 71
     2
 72
     2
 73
     0
 90
        0
 40
-0.6
 41
-30.0
 62
     5
 63
     7
 74
     1
 91
        4
 64
     7
 65
   257
 75
     1
175
     1
 42
1.0
 92
        8
 66
     7
 43
1.0
 76
     1
 77
     6
 78
     2
 67
     7
 79
     5
170
     0
171
     0
290
     0
174
     0
 93
        1
 44
-50.0
173
     0
291
     1
 45
0.0
1001
ACAD
1000
AcDbSavedByObjectVersion
1070
     0
  0
VISUALSTYLE
  5
39
102
{ACAD_REACTORS
330
2A
102
}
330
2A
100
AcDbVisualStyle
  2
Facepattern
 70
    15
 71
     2
 72
     2
 73
     0
 90
        0
 40
-0.6
 41
-30.0
 62
     5
 63
     7
 74
     1
 91
        4
 64
     7
 65
   257
 75
     1
175
     1
 42
1.0
 92
        8
 66
     7
 43
1.0
 76
     1
 77
     6
 78
     2
 67
     7
 79
     5
170
     0
171
     0
290
     0
174
     0
 93
        1
 44
0.0
173
     0
291
     1
 45
0.0
1001
ACAD
1000
AcDbSavedByObjectVersion
1070
     0
  0
VISUALSTYLE
  5
2B
102
{ACAD_REACTORS
330
2A
102
}
330
2A
100
AcDbVisualStyle
  2
Flat
 70
     0
 71
     2
 72
     1
 73
     1
 90
        2
 40
-0.6
 41
30.0
 62
     5
 63
     7
 74
     0
 91
        4
 64
     7
 65
   257
 75
     1
175
     1
 42
1.0
 92
        8
 66
     7
 43
1.0
 76
     1
 77
     6
 78
     2
 67
     7
 79
     5
170
     0
171
     0
290
     0
174
     0
 93
       13
 44
0.0
173
     0
291
     1
 45
0.0
1001
ACAD
1000
AcDbSavedByObjectVersion
1070
     0
  0
VISUALSTYLE
  5
2C
102
{ACAD_REACTORS
330
2A
102
}
330
2A
100
AcDbVisualStyle
  2
FlatWithEdges
 70
     1
 71
     2
 72
     1
 73
     1
 90
        2
 40
-0.6
 41
30.0
 62
     5
 63
     7
 74
     1
 91
        4
 64
     7
 65
   257
 75
     1
175
     1
 42
1.0
 92
        0
 66
   257
 43
1.0
 76
     1
 77
     6
 78
     2
 67
     7
 79
     5
170
     0
171
     0
290
     0
174
     0
 93
       13
 44
0.0
173
     0
291
     1
 45
0.0
1001
ACAD
1000
AcDbSavedByObjectVersion
1070
     0
  0
VISUALSTYLE
  5
2D
102
{ACAD_REACTORS
330
2A
102
}
330
2A
100
AcDbVisualStyle
  2
Gouraud
 70
     2
 71
     2
 72
     2
 73
     1
 90
        2
 40
-0.6
 41
30.0
 62
     5
 63
     7
 74
     0
 91
        4
 64
     7
 65
   257
 75
     1
175
     1
 42
1.0
 92
        0
 66
     7
 43
1.0
 76
     1
 77
     6
 78
     2
 67
     7
 79
     5
170
     0
171
     0
290
     0
174
     0
 93
       13
 44
0.0
173
     0
291
     1
 45
0.0
1001
ACAD
1000
AcDbSavedByObjectVersion
1070
     0
  0
VISUALSTYLE
  5
2E
102
{ACAD_REACTORS
330
2A
102
}
330
2A
100
AcDbVisualStyle
  2
GouraudWithEdges
 70
     3
 71
     2
 72
     2
 73
     1
 90
        2
 40
-0.6
 41
30.0
 62
     5
 63
     7
 74
     1
 91
        4
 64
     7
 65
   257
 75
     1
175
     1
 42
1.0
 92
        0
 66
   257
 43
1.0
 76
     1
 77
     6
 78
     2
 67
     7
 79
     5
170
     0
171
     0
290
     0
174
     0
 93
       13
 44
0.0
173
     0
291
     1
 45
0.0
1001
ACAD
1000
AcDbSavedByObjectVersion
1070
     0
  0
VISUALSTYLE
  5
38
102
{ACAD_REACTORS
330
2A
102
}
330
2A
100
AcDbVisualStyle
  2
Linepattern
 70
    14
 71
     2
 72
     2
 73
     0
 90
        0
 40
-0.6
 41
-30.0
 62
     5
 63
     7
 74
     1
 91
        4
 64
     7
 65
   257
 75
     7
175
     7
 42
1.0
 92
        8
 66
     7
 43
1.0
 76
     1
 77
     6
 78
     2
 67
     7
 79
     5
170
     0
171
     0
290
     0
174
     0
 93
        1
 44
0.0
173
     0
291
     1
 45
0.0
1001
ACAD
1000
AcDbSavedByObjectVersion
1070
     0
  0
VISUALSTYLE
  5
33
102
{ACAD_REACTORS
330
2A
102
}
330
2A
100
AcDbVisualStyle
  2
Realistic
 70
     8
 71
     2
 72
     2
 73
     0
 90
        0
 40
-0.6
 41
-30.0
 62
     5
 63
     7
 74
     1
 91
        0
 64
     7
 65
   257
 75
     1
175
     1
 42
1.0
 92
        8
 66
     8
 43
1.0
 76
     1
 77
     6
 78
     2
 67
     7
 79
     5
170
     0
171
     0
290
     0
174
     0
 93
       13
 44
0.0
173
     0
291
     0
 45
0.0
1001
ACAD
1000
AcDbSavedByObjectVersion
1070
     0
  0
VISUALSTYLE
  5
37
102
{ACAD_REACTORS
330
2A
102
}
330
2A
100
AcDbVisualStyle
  2
Thicken
 70
    13
 71
     2
 72
     2
 73
     0
 90
        0
 40
-0.6
 41
-30.0
 62
     5
 63
     7
 74
     1
 91
        4
 64
     7
 65
   257
 75
     1
175
     1
 42
1.0
 92
       12
 66
     7
 43
1.0
 76
     1
 77
     6
 78
     2
 67
     7
 79
     5
170
     0
171
     0
290
     0
174
     0
 93
        1
 44
0.0
173
     0
291
     1
 45
0.0
1001
ACAD
1000
AcDbSavedByObjectVersion
1070
     0
  0
DICTIONARYVAR
  5
1F9
102
{ACAD_REACTORS
330
1F8
102
}
330
1F8
100
DictionaryVariables
280
     0
  1
1:1
  0
DICTIONARYVAR
  5
1FD
102
{ACAD_REACTORS
330
1F8
102
}
330
1F8
100
DictionaryVariables
280
     0
  1
80.000000
  0
DICTIONARYVAR
  5
1FC
102
{ACAD_REACTORS
330
1F8
102
}
330
1F8
100
DictionaryVariables
280
     0
  1
5.000000
  0
ENDSEC
  0
EOF
