  0
SECTION
  2
HEADER
  9
$ACADVER
  1
AC1015
  9
$ACADMAINTVER
 70
     6
  9
$DWGCODEPAGE
  3
ANSI_1252
  9
$INSBASE
 10
0.0
 20
0.0
 30
0.0
  9
$EXTMIN
 10
0.0
 20
0.0
 30
0.0
  9
$EXTMAX
 10
1682.0
 20
2378.0
 30
0.0
  9
$LIMMIN
 10
0.0
 20
0.0
  9
$LIMMAX
 10
1682.0
 20
2378.0
  9
$ORTHOMODE
 70
     0
  9
$REGENMODE
 70
     1
  9
$FILLMODE
 70
     1
  9
$QTEXTMODE
 70
     0
  9
$MIRRTEXT
 70
     1
  9
$LTSCALE
 40
1.0
  9
$ATTMODE
 70
     1
  9
$TEXTSIZE
 40
2.5
  9
$TRACEWID
 40
1.0
  9
$TEXTSTYLE
  7
Standard
  9
$CLAYER
  8
0
  9
$CELTYPE
  6
ByLayer
  9
$CECOLOR
 62
   256
  9
$CELTSCALE
 40
1.0
  9
$DISPSILH
 70
     0
  9
$DIMSCALE
 40
1.0
  9
$DIMASZ
 40
2.5
  9
$DIMEXO
 40
0.625
  9
$DIMDLI
 40
3.75
  9
$DIMRND
 40
0.0
  9
$DIMDLE
 40
0.0
  9
$DIMEXE
 40
1.25
  9
$DIMTP
 40
0.0
  9
$DIMTM
 40
0.0
  9
$DIMTXT
 40
2.5
  9
$DIMCEN
 40
2.5
  9
$DIMTSZ
 40
0.0
  9
$DIMTOL
 70
     0
  9
$DIMLIM
 70
     0
  9
$DIMTIH
 70
     0
  9
$DIMTOH
 70
     0
  9
$DIMSE1
 70
     0
  9
$DIMSE2
 70
     0
  9
$DIMTAD
 70
     1
  9
$DIMZIN
 70
     8
  9
$DIMBLK
  1

  9
$DIMASO
 70
     1
  9
$DIMSHO
 70
     1
  9
$DIMPOST
  1

  9
$DIMAPOST
  1

  9
$DIMALT
 70
     0
  9
$DIMALTD
 70
     3
  9
$DIMALTF
 40
0.0393700787
  9
$DIMLFAC
 40
1.0
  9
$DIMTOFL
 70
     1
  9
$DIMTVP
 40
0.0
  9
$DIMTIX
 70
     0
  9
$DIMSOXD
 70
     0
  9
$DIMSAH
 70
     0
  9
$DIMBLK1
  1

  9
$DIMBLK2
  1

  9
$DIMSTYLE
  2
ISO-25
  9
$DIMCLRD
 70
     0
  9
$DIMCLRE
 70
     0
  9
$DIMCLRT
 70
     0
  9
$DIMTFAC
 40
1.0
  9
$DIMGAP
 40
0.625
  9
$DIMJUST
 70
     0
  9
$DIMSD1
 70
     0
  9
$DIMSD2
 70
     0
  9
$DIMTOLJ
 70
     0
  9
$DIMTZIN
 70
     8
  9
$DIMALTZ
 70
     0
  9
$DIMALTTZ
 70
     0
  9
$DIMUPT
 70
     0
  9
$DIMDEC
 70
     2
  9
$DIMTDEC
 70
     2
  9
$DIMALTU
 70
     2
  9
$DIMALTTD
 70
     3
  9
$DIMTXSTY
  7
Standard
  9
$DIMAUNIT
 70
     0
  9
$DIMADEC
 70
     0
  9
$DIMALTRND
 40
0.0
  9
$DIMAZIN
 70
     0
  9
$DIMDSEP
 70
    44
  9
$DIMATFIT
 70
     3
  9
$DIMFRAC
 70
     0
  9
$DIMLDRBLK
  1

  9
$DIMLUNIT
 70
     2
  9
$DIMLWD
 70
    -2
  9
$DIMLWE
 70
    -2
  9
$DIMTMOVE
 70
     0
  9
$LUNITS
 70
     2
  9
$LUPREC
 70
     4
  9
$SKETCHINC
 40
1.0
  9
$FILLETRAD
 40
10.0
  9
$AUNITS
 70
     0
  9
$AUPREC
 70
     0
  9
$MENU
  1
.
  9
$ELEVATION
 40
0.0
  9
$PELEVATION
 40
0.0
  9
$THICKNESS
 40
0.0
  9
$LIMCHECK
 70
     0
  9
$CHAMFERA
 40
10.0
  9
$CHAMFERB
 40
10.0
  9
$CHAMFERC
 40
20.0
  9
$CHAMFERD
 40
0.0
  9
$SKPOLY
 70
     0
  9
$TDCREATE
 40
2455498.439962211
  9
$TDUCREATE
 40
2455498.356628877
  9
$TDUPDATE
 40
2455498.439962222
  9
$TDUUPDATE
 40
2455498.356628889
  9
$TDINDWG
 40
0.0000000116
  9
$TDUSRTIMER
 40
0.0000000116
  9
$USRTIMER
 70
     1
  9
$ANGBASE
 50
0.0
  9
$ANGDIR
 70
     0
  9
$PDMODE
 70
     0
  9
$PDSIZE
 40
0.0
  9
$PLINEWID
 40
0.0
  9
$SPLFRAME
 70
     0
  9
$SPLINETYPE
 70
     6
  9
$SPLINESEGS
 70
     8
  9
$HANDSEED
  5
3E7
  9
$SURFTAB1
 70
     6
  9
$SURFTAB2
 70
     6
  9
$SURFTYPE
 70
     6
  9
$SURFU
 70
     6
  9
$SURFV
 70
     6
  9
$UCSBASE
  2

  9
$UCSNAME
  2

  9
$UCSORG
 10
0.0
 20
0.0
 30
0.0
  9
$UCSXDIR
 10
1.0
 20
0.0
 30
0.0
  9
$UCSYDIR
 10
0.0
 20
1.0
 30
0.0
  9
$UCSORTHOREF
  2

  9
$UCSORTHOVIEW
 70
     0
  9
$UCSORGTOP
 10
0.0
 20
0.0
 30
0.0
  9
$UCSORGBOTTOM
 10
0.0
 20
0.0
 30
0.0
  9
$UCSORGLEFT
 10
0.0
 20
0.0
 30
0.0
  9
$UCSORGRIGHT
 10
0.0
 20
0.0
 30
0.0
  9
$UCSORGFRONT
 10
0.0
 20
0.0
 30
0.0
  9
$UCSORGBACK
 10
0.0
 20
0.0
 30
0.0
  9
$PUCSBASE
  2

  9
$PUCSNAME
  2

  9
$PUCSORG
 10
0.0
 20
0.0
 30
0.0
  9
$PUCSXDIR
 10
1.0
 20
0.0
 30
0.0
  9
$PUCSYDIR
 10
0.0
 20
1.0
 30
0.0
  9
$PUCSORTHOREF
  2

  9
$PUCSORTHOVIEW
 70
     0
  9
$PUCSORGTOP
 10
0.0
 20
0.0
 30
0.0
  9
$PUCSORGBOTTOM
 10
0.0
 20
0.0
 30
0.0
  9
$PUCSORGLEFT
 10
0.0
 20
0.0
 30
0.0
  9
$PUCSORGRIGHT
 10
0.0
 20
0.0
 30
0.0
  9
$PUCSORGFRONT
 10
0.0
 20
0.0
 30
0.0
  9
$PUCSORGBACK
 10
0.0
 20
0.0
 30
0.0
  9
$USERI1
 70
     0
  9
$USERI2
 70
     0
  9
$USERI3
 70
     0
  9
$USERI4
 70
     0
  9
$USERI5
 70
     0
  9
$USERR1
 40
0.0
  9
$USERR2
 40
0.0
  9
$USERR3
 40
0.0
  9
$USERR4
 40
0.0
  9
$USERR5
 40
0.0
  9
$WORLDVIEW
 70
     1
  9
$SHADEDGE
 70
     3
  9
$SHADEDIF
 70
    70
  9
$TILEMODE
 70
     1
  9
$MAXACTVP
 70
    64
  9
$PINSBASE
 10
0.0
 20
0.0
 30
0.0
  9
$PLIMCHECK
 70
     0
  9
$PEXTMIN
 10
0.0
 20
0.0
 30
0.0
  9
$PEXTMAX
 10
1682.0
 20
2378.0
 30
0.0
  9
$PLIMMIN
 10
0.0
 20
0.0
  9
$PLIMMAX
 10
1682.0
 20
2378.0
  9
$UNITMODE
 70
     0
  9
$VISRETAIN
 70
     1
  9
$PLINEGEN
 70
     0
  9
$PSLTSCALE
 70
     1
  9
$TREEDEPTH
 70
  3020
  9
$CMLSTYLE
  2
Standard
  9
$CMLJUST
 70
     0
  9
$CMLSCALE
 40
20.0
  9
$PROXYGRAPHICS
 70
     1
  9
$MEASUREMENT
 70
     1
  9
$CELWEIGHT
370
    -1
  9
$ENDCAPS
280
     0
  9
$JOINSTYLE
280
     0
  9
$LWDISPLAY
290
     0
  9
$INSUNITS
 70
     4
  9
$HYPERLINKBASE
  1

  9
$STYLESHEET
  1

  9
$XEDIT
290
     1
  9
$CEPSNTYPE
380
     0
  9
$PSTYLEMODE
290
     1
  9
$FINGERPRINTGUID
  2
{491B6F11-CA55-43D9-AB46-386B911DBB6B}
  9
$VERSIONGUID
  2
{FAEB1C32-E019-11D5-929B-00C0DF256EC4}
  9
$EXTNAMES
290
     1
  9
$PSVPSCALE
 40
0.0
  9
$OLESTARTUP
290
     0
  0
ENDSEC
  0
SECTION
  2
CLASSES
  0
CLASS
  1
ACDBDICTIONARYWDFLT
  2
AcDbDictionaryWithDefault
  3
ObjectDBX Classes
 90
        0
280
     0
281
     0
  0
CLASS
  1
VISUALSTYLE
  2
AcDbVisualStyle
  3
ObjectDBX Classes
 90
     4095
280
     0
281
     0
  0
CLASS
  1
SCALE
  2
AcDbScale
  3
ObjectDBX Classes
 90
     1153
280
     0
281
     0
  0
CLASS
  1
DICTIONARYVAR
  2
AcDbDictionaryVar
  3
ObjectDBX Classes
 90
        0
280
     0
281
     0
  0
CLASS
  1
ACDBPLACEHOLDER
  2
AcDbPlaceHolder
  3
ObjectDBX Classes
 90
        0
280
     0
281
     0
  0
CLASS
  1
LAYOUT
  2
AcDbLayout
  3
ObjectDBX Classes
 90
        0
280
     0
281
     0
  0
ENDSEC
  0
SECTION
  2
TABLES
  0
TABLE
  2
VPORT
  5
8
330
0
100
AcDbSymbolTable
 70
     1
  0
VPORT
  5
29
330
8
100
AcDbSymbolTableRecord
100
AcDbViewportTableRecord
  2
*Active
 70
     0
 10
0.0
 20
0.0
 11
1.0
 21
1.0
 12
344.1869158879
 22
148.5
 13
0.0
 23
0.0
 14
10.0
 24
10.0
 15
10.0
 25
10.0
 16
0.0
 26
0.0
 36
1.0
 17
0.0
 27
0.0
 37
0.0
 40
297.0
 41
1.9729729729
 42
50.0
 43
0.0
 44
0.0
 50
0.0
 51
0.0
 71
     0
 72
   100
 73
     1
 74
     3
 75
     0
 76
     0
 77
     0
 78
     0
281
     0
 65
     1
110
0.0
120
0.0
130
0.0
111
1.0
121
0.0
131
0.0
112
0.0
122
1.0
132
0.0
 79
     0
146
0.0
  0
ENDTAB
  0
TABLE
  2
LTYPE
  5
5
330
0
100
AcDbSymbolTable
 70
     2
  0
LTYPE
  5
14
330
5
100
AcDbSymbolTableRecord
100
AcDbLinetypeTableRecord
  2
ByBlock
 70
     0
  3

 72
    65
 73
     0
 40
0.0
  0
LTYPE
  5
15
330
5
100
AcDbSymbolTableRecord
100
AcDbLinetypeTableRecord
  2
ByLayer
 70
     0
  3

 72
    65
 73
     0
 40
0.0
  0
LTYPE
  5
16
330
5
100
AcDbSymbolTableRecord
100
AcDbLinetypeTableRecord
  2
Continuous
 70
     0
  3
Solid line
 72
    65
 73
     0
 40
0.0
  0
LTYPE
  5
60
330
5
100
AcDbSymbolTableRecord
100
AcDbLinetypeTableRecord
  2
CENTER2
 70
     0
  3
Center (.5x) ___ _ ___ _ ___ _ ___ _ ___ _ ___
 72
    65
 73
     4
 40
28.575
 49
19.05
 74
     4
 75
     0
340
0
 46
0.0
 50
0.0
 44
0.0
 45
0.0
 49
-3.175
 74
     4
 75
     0
340
0
 46
0.0
 50
0.0
 44
0.0
 45
0.0
 49
3.175
 74
     4
 75
     0
340
0
 46
0.0
 50
0.0
 44
0.0
 45
0.0
 49
-3.175
 74
     4
 75
     0
340
0
 46
0.0
 50
0.0
 44
0.0
 45
0.0
  0
ENDTAB
  0
TABLE
  2
LAYER
  5
2
330
0
100
AcDbSymbolTable
 70
    16
  0
LAYER
  5
10
330
2
100
AcDbSymbolTableRecord
100
AcDbLayerTableRecord
  2
0
 70
     0
 62
     7
  6
Continuous
370
    -3
390
F
  0
LAYER
  5
5D
330
2
100
AcDbSymbolTableRecord
100
AcDbLayerTableRecord
  2
Default
 70
     0
 62
     7
  6
Continuous
370
    -3
390
F
  0
LAYER
  5
87
330
2
100
AcDbSymbolTableRecord
100
AcDbLayerTableRecord
  2
$DDT_AUDIT_GENERATED_(87)
 70
     0
 62
     7
  6
Continuous
370
    -3
390
F
  0
LAYER
  5
A7
330
2
100
AcDbSymbolTableRecord
100
AcDbLayerTableRecord
  2
$DDT_AUDIT_GENERATED_(A7)
 70
     0
 62
     7
  6
Continuous
370
    -3
390
F
  0
LAYER
  5
AB
330
2
100
AcDbSymbolTableRecord
100
AcDbLayerTableRecord
  2
$DDT_AUDIT_GENERATED_(AB)
 70
     0
 62
     7
  6
Continuous
370
    -3
390
F
  0
LAYER
  5
AD
330
2
100
AcDbSymbolTableRecord
100
AcDbLayerTableRecord
  2
$DDT_AUDIT_GENERATED_(AD)
 70
     0
 62
     7
  6
Continuous
370
    -3
390
F
  0
LAYER
  5
F9
330
2
100
AcDbSymbolTableRecord
100
AcDbLayerTableRecord
  2
$DDT_AUDIT_GENERATED_(F9)
 70
     0
 62
     7
  6
Continuous
370
    -3
390
F
  0
LAYER
  5
FB
330
2
100
AcDbSymbolTableRecord
100
AcDbLayerTableRecord
  2
02555038_GEHÄUSE
 70
     0
 62
     7
  6
Continuous
370
    -3
390
F
  0
LAYER
  5
155
330
2
100
AcDbSymbolTableRecord
100
AcDbLayerTableRecord
  2
$DDT_AUDIT_GENERATED_(155)
 70
     0
 62
     7
  6
Continuous
370
    -3
390
F
  0
LAYER
  5
163
330
2
100
AcDbSymbolTableRecord
100
AcDbLayerTableRecord
  2
A4225108_211188_
 70
     0
 62
     7
  6
Continuous
370
    -3
390
F
  0
LAYER
  5
16A
330
2
100
AcDbSymbolTableRecord
100
AcDbLayerTableRecord
  2
A4225112_211188_
 70
     0
 62
     7
  6
Continuous
370
    -3
390
F
  0
LAYER
  5
171
330
2
100
AcDbSymbolTableRecord
100
AcDbLayerTableRecord
  2
$DDT_AUDIT_GENERATED_(171)
 70
     0
 62
     7
  6
Continuous
370
    -3
390
F
  0
LAYER
  5
197
330
2
100
AcDbSymbolTableRecord
100
AcDbLayerTableRecord
  2
$DDT_AUDIT_GENERATED_(197)
 70
     0
 62
     7
  6
Continuous
370
    -3
390
F
  0
LAYER
  5
19A
330
2
100
AcDbSymbolTableRecord
100
AcDbLayerTableRecord
  2
$DDT_AUDIT_GENERATED_(19A)
 70
     0
 62
     7
  6
Continuous
370
    -3
390
F
  0
LAYER
  5
1A1
330
2
100
AcDbSymbolTableRecord
100
AcDbLayerTableRecord
  2
$DDT_AUDIT_GENERATED_(1A1)
 70
     0
 62
     7
  6
Continuous
370
    -3
390
F
  0
LAYER
  5
242
330
2
100
AcDbSymbolTableRecord
100
AcDbLayerTableRecord
  2
$DDT_AUDIT_GENERATED_(242)
 70
     0
 62
     7
  6
Continuous
370
    -3
390
F
  0
ENDTAB
  0
TABLE
  2
STYLE
  5
3
330
0
100
AcDbSymbolTable
 70
     2
  0
STYLE
  5
11
330
3
100
AcDbSymbolTableRecord
100
AcDbTextStyleTableRecord
  2
Standard
 70
     0
 40
0.0
 41
1.0
 50
0.0
 71
     0
 42
2.5
  3
txt
  4

  0
STYLE
  5
3D6
330
3
100
AcDbSymbolTableRecord
100
AcDbTextStyleTableRecord
  2
SEACAD_seiso_ttf
 70
     0
 40
0.0
 41
1.0
 50
0.0
 71
     0
 42
0.2
  3
seiso.ttf
  4

  0
ENDTAB
  0
TABLE
  2
VIEW
  5
6
330
0
100
AcDbSymbolTable
 70
     0
  0
ENDTAB
  0
TABLE
  2
UCS
  5
7
330
0
100
AcDbSymbolTable
 70
     0
  0
ENDTAB
  0
TABLE
  2
APPID
  5
9
330
0
100
AcDbSymbolTable
 70
     1
  0
APPID
  5
12
330
9
100
AcDbSymbolTableRecord
100
AcDbRegAppTableRecord
  2
ACAD
 70
     0
  0
ENDTAB
  0
TABLE
  2
DIMSTYLE
  5
A
330
0
100
AcDbSymbolTable
 70
     1
100
AcDbDimStyleTable
  0
DIMSTYLE
105
27
330
A
100
AcDbSymbolTableRecord
100
AcDbDimStyleTableRecord
  2
ISO-25
 70
     0
 41
2.5
 42
0.625
 43
3.75
 44
1.25
 73
     0
 74
     0
 77
     1
 78
     8
140
2.5
141
2.5
143
0.0393700787
147
0.625
171
     3
172
     1
271
     2
272
     2
274
     3
278
    44
283
     0
284
     8
340
11
  0
ENDTAB
  0
TABLE
  2
BLOCK_RECORD
  5
1
330
0
100
AcDbSymbolTable
 70
     9
  0
BLOCK_RECORD
  5
1F
330
1
100
AcDbSymbolTableRecord
100
AcDbBlockTableRecord
  2
*Model_Space
340
22
  0
BLOCK_RECORD
  5
1B
330
1
100
AcDbSymbolTableRecord
100
AcDbBlockTableRecord
  2
*Paper_Space
340
1E
  0
BLOCK_RECORD
  5
5E
330
1
100
AcDbSymbolTableRecord
100
AcDbBlockTableRecord
  2
SEANNOT_GROUP
340
0
102
{BLKREFS
331
5F
102
}
  0
BLOCK_RECORD
  5
69
330
1
100
AcDbSymbolTableRecord
100
AcDbBlockTableRecord
  2
SEANNOT_GROUP1
340
0
102
{BLKREFS
331
6A
102
}
  0
BLOCK_RECORD
  5
73
330
1
100
AcDbSymbolTableRecord
100
AcDbBlockTableRecord
  2
SEANNOT_GROUP2
340
0
102
{BLKREFS
331
74
102
}
  0
BLOCK_RECORD
  5
79
330
1
100
AcDbSymbolTableRecord
100
AcDbBlockTableRecord
  2
SEANNOT_GROUP3
340
0
102
{BLKREFS
331
7A
102
}
  0
BLOCK_RECORD
  5
7F
330
1
100
AcDbSymbolTableRecord
100
AcDbBlockTableRecord
  2
SEANNOT_GROUP4
340
0
102
{BLKREFS
331
80
102
}
  0
BLOCK_RECORD
  5
85
330
1
100
AcDbSymbolTableRecord
100
AcDbBlockTableRecord
  2
SE
340
0
102
{BLKREFS
331
86
102
}
  0
BLOCK_RECORD
  5
16F
330
1
100
AcDbSymbolTableRecord
100
AcDbBlockTableRecord
  2
SE1
340
0
102
{BLKREFS
331
170
102
}
  0
BLOCK_RECORD
  5
25F
330
1
100
AcDbSymbolTableRecord
100
AcDbBlockTableRecord
  2
SE2
340
0
102
{BLKREFS
331
260
102
}
  0
ENDTAB
  0
ENDSEC
  0
SECTION
  2
BLOCKS
  0
BLOCK
  5
20
330
1F
100
AcDbEntity
  8
0
100
AcDbBlockBegin
  2
*Model_Space
 70
     0
 10
0.0
 20
0.0
 30
0.0
  3
*Model_Space
  1

  0
ENDBLK
  5
21
330
1F
100
AcDbEntity
  8
0
100
AcDbBlockEnd
  0
BLOCK
  5
1C
330
1B
100
AcDbEntity
 67
     1
  8
0
100
AcDbBlockBegin
  2
*Paper_Space
 70
     0
 10
0.0
 20
0.0
 30
0.0
  3
*Paper_Space
  1

  0
ENDBLK
  5
1D
330
1B
100
AcDbEntity
 67
     1
  8
0
100
AcDbBlockEnd
  0
BLOCK
  5
67
330
5E
100
AcDbEntity
  8
0
100
AcDbBlockBegin
  2
SEANNOT_GROUP
 70
     0
 10
0.0
 20
0.0
 30
0.0
  3
SEANNOT_GROUP
  1

  0
LINE
  5
61
330
5E
100
AcDbEntity
  8
Default
  6
CENTER2
 62
     7
100
AcDbLine
 10
61.349999553
 20
387.1922392008
 30
0.0
 11
21.350000447
 21
387.1922392008
 31
0.0
  0
LINE
  5
62
330
5E
100
AcDbEntity
  8
Default
  6
CENTER2
 62
     7
100
AcDbLine
 10
41.35
 20
407.1922387538
 30
0.0
 11
41.35
 21
367.1922396479
 31
0.0
  0
LINE
  5
63
330
5E
100
AcDbEntity
  8
Default
  6
CENTER2
 62
     7
100
AcDbLine
 10
66.3499994412
 20
387.1922392008
 30
0.0
 11
79.85
 21
387.1922392008
 31
0.0
  0
LINE
  5
64
330
5E
100
AcDbEntity
  8
Default
  6
CENTER2
 62
     7
100
AcDbLine
 10
41.35
 20
412.192238642
 30
0.0
 11
41.35
 21
425.6922392008
 31
0.0
  0
LINE
  5
65
330
5E
100
AcDbEntity
  8
Default
  6
CENTER2
 62
     7
100
AcDbLine
 10
16.3500005588
 20
387.1922392008
 30
0.0
 11
2.85
 21
387.1922392008
 31
0.0
  0
LINE
  5
66
330
5E
100
AcDbEntity
  8
Default
  6
CENTER2
 62
     7
100
AcDbLine
 10
41.35
 20
362.1922397596
 30
0.0
 11
41.35
 21
348.6922392008
 31
0.0
  0
ENDBLK
  5
68
330
5E
100
AcDbEntity
  8
0
100
AcDbBlockEnd
  0
BLOCK
  5
71
330
69
100
AcDbEntity
  8
0
100
AcDbBlockBegin
  2
SEANNOT_GROUP1
 70
     0
 10
0.0
 20
0.0
 30
0.0
  3
SEANNOT_GROUP1
  1

  0
LINE
  5
6B
330
69
100
AcDbEntity
  8
Default
  6
CENTER2
 62
     7
100
AcDbLine
 10
211.349999553
 20
387.1922392008
 30
0.0
 11
171.350000447
 21
387.1922392008
 31
0.0
  0
LINE
  5
6C
330
69
100
AcDbEntity
  8
Default
  6
CENTER2
 62
     7
100
AcDbLine
 10
191.35
 20
407.1922387538
 30
0.0
 11
191.35
 21
367.1922396479
 31
0.0
  0
LINE
  5
6D
330
69
100
AcDbEntity
  8
Default
  6
CENTER2
 62
     7
100
AcDbLine
 10
216.3499994412
 20
387.1922392008
 30
0.0
 11
229.85
 21
387.1922392008
 31
0.0
  0
LINE
  5
6E
330
69
100
AcDbEntity
  8
Default
  6
CENTER2
 62
     7
100
AcDbLine
 10
191.35
 20
412.192238642
 30
0.0
 11
191.35
 21
425.6922392008
 31
0.0
  0
LINE
  5
6F
330
69
100
AcDbEntity
  8
Default
  6
CENTER2
 62
     7
100
AcDbLine
 10
166.3500005588
 20
387.1922392008
 30
0.0
 11
152.85
 21
387.1922392008
 31
0.0
  0
LINE
  5
70
330
69
100
AcDbEntity
  8
Default
  6
CENTER2
 62
     7
100
AcDbLine
 10
191.35
 20
362.1922397596
 30
0.0
 11
191.35
 21
348.6922392008
 31
0.0
  0
ENDBLK
  5
72
330
69
100
AcDbEntity
  8
0
100
AcDbBlockEnd
  0
BLOCK
  5
77
330
73
100
AcDbEntity
  8
0
100
AcDbBlockBegin
  2
SEANNOT_GROUP2
 70
     0
 10
0.0
 20
0.0
 30
0.0
  3
SEANNOT_GROUP2
  1

  0
LINE
  5
75
330
73
100
AcDbEntity
  8
Default
  6
CENTER2
 62
     7
100
AcDbLine
 10
328.0167773323
 20
387.1922392008
 30
0.0
 11
288.0167782264
 21
387.1922392008
 31
0.0
  0
LINE
  5
76
330
73
100
AcDbEntity
  8
Default
  6
CENTER2
 62
     7
100
AcDbLine
 10
308.0167777794
 20
407.1922387538
 30
0.0
 11
308.0167777794
 21
367.1922396479
 31
0.0
  0
ENDBLK
  5
78
330
73
100
AcDbEntity
  8
0
100
AcDbBlockEnd
  0
BLOCK
  5
7D
330
79
100
AcDbEntity
  8
0
100
AcDbBlockBegin
  2
SEANNOT_GROUP3
 70
     0
 10
0.0
 20
0.0
 30
0.0
  3
SEANNOT_GROUP3
  1

  0
LINE
  5
7B
330
79
100
AcDbEntity
  8
Default
  6
CENTER2
 62
     7
100
AcDbLine
 10
61.349999553
 20
270.5254617095
 30
0.0
 11
21.350000447
 21
270.5254617095
 31
0.0
  0
LINE
  5
7C
330
79
100
AcDbEntity
  8
Default
  6
CENTER2
 62
     7
100
AcDbLine
 10
41.35
 20
290.5254612625
 30
0.0
 11
41.35
 21
250.5254621565
 31
0.0
  0
ENDBLK
  5
7E
330
79
100
AcDbEntity
  8
0
100
AcDbBlockEnd
  0
BLOCK
  5
83
330
7F
100
AcDbEntity
  8
0
100
AcDbBlockBegin
  2
SEANNOT_GROUP4
 70
     0
 10
0.0
 20
0.0
 30
0.0
  3
SEANNOT_GROUP4
  1

  0
LINE
  5
81
330
7F
100
AcDbEntity
  8
Default
  6
CENTER2
 62
     7
100
AcDbLine
 10
211.349999553
 20
270.5254617095
 30
0.0
 11
171.350000447
 21
270.5254617095
 31
0.0
  0
LINE
  5
82
330
7F
100
AcDbEntity
  8
Default
  6
CENTER2
 62
     7
100
AcDbLine
 10
191.35
 20
290.5254612625
 30
0.0
 11
191.35
 21
250.5254621565
 31
0.0
  0
ENDBLK
  5
84
330
7F
100
AcDbEntity
  8
0
100
AcDbBlockEnd
  0
BLOCK
  5
16D
330
85
100
AcDbEntity
  8
0
100
AcDbBlockBegin
  2
SE
 70
     0
 10
0.0
 20
0.0
 30
0.0
  3
SE
  1

  0
ARC
  5
88
330
85
100
AcDbEntity
  8
$DDT_AUDIT_GENERATED_(87)
  6
Continuous
 62
     7
100
AcDbCircle
 10
116.3539730231
 20
-293.9250087137
 30
0.0
 40
700.2353954563838
100
AcDbArc
 50
89.2579555395
 51
92.1410565386
  0
ARC
  5
89
330
85
100
AcDbEntity
  8
$DDT_AUDIT_GENERATED_(87)
  6
Continuous
 62
     7
100
AcDbCircle
 10
116.3548058833
 20
-294.3205428549
 30
0.0
 40
698.6308407353632
100
AcDbArc
 50
85.2290645211
 51
86.9796658493
  0
LINE
  5
8A
330
85
100
AcDbEntity
  8
$DDT_AUDIT_GENERATED_(87)
  6
Continuous
 62
     7
100
AcDbLine
 10
79.5524885568
 20
372.1922392008
 30
0.0
 11
53.7107273856
 21
372.1922392008
 31
0.0
  0
LINE
  5
8B
330
85
100
AcDbEntity
  8
$DDT_AUDIT_GENERATED_(87)
  6
Continuous
 62
     7
100
AcDbLine
 10
101.35
 20
372.1922392008
 30
0.0
 11
79.5524885568
 21
372.1922392008
 31
0.0
  0
LINE
  5
8C
330
85
100
AcDbEntity
  8
$DDT_AUDIT_GENERATED_(87)
  6
Continuous
 62
     7
100
AcDbLine
 10
116.35
 20
372.1922392008
 30
0.0
 11
101.35
 21
372.1922392008
 31
0.0
  0
LINE
  5
8D
330
85
100
AcDbEntity
  8
$DDT_AUDIT_GENERATED_(87)
  6
Continuous
 62
     7
100
AcDbLine
 10
131.35
 20
372.1922392008
 30
0.0
 11
116.35
 21
372.1922392008
 31
0.0
  0
LINE
  5
8E
330
85
100
AcDbEntity
  8
$DDT_AUDIT_GENERATED_(87)
  6
Continuous
 62
     7
100
AcDbLine
 10
153.1475114433
 20
372.1922392008
 30
0.0
 11
131.35
 21
372.1922392008
 31
0.0
  0
LINE
  5
8F
330
85
100
AcDbEntity
  8
$DDT_AUDIT_GENERATED_(87)
  6
Continuous
 62
     7
100
AcDbLine
 10
178.9916431801
 20
372.1922392008
 30
0.0
 11
153.1475114433
 21
372.1922392008
 31
0.0
  0
ARC
  5
90
330
85
100
AcDbEntity
  8
$DDT_AUDIT_GENERATED_(87)
  6
Continuous
 62
     7
100
AcDbCircle
 10
119.7009792704
 20
-172.9298533999
 30
0.0
 40
577.2405463248092
100
AcDbArc
 50
86.6764713
 51
87.5163394924
  0
SPLINE
  5
91
330
85
100
AcDbEntity
  8
$DDT_AUDIT_GENERATED_(87)
  6
Continuous
 62
     7
100
AcDbSpline
210
0.0
220
0.0
230
1.0
 70
     8
 71
     3
 72
    14
 73
    10
 74
     0
 42
0.0000000008394316
 43
0.0000000001
 40
0.0
 40
0.0
 40
0.0
 40
0.0
 40
0.2499999999999999
 40
0.2499999999999999
 40
0.4999999999999998
 40
0.4999999999999998
 40
0.7499999999999997
 40
0.7499999999999997
 40
1.0
 40
1.0
 40
1.0
 40
1.0
 10
144.7153976498345
 20
403.7684448414668
 30
0.0
 10
143.0032474321116
 20
403.8404101364629
 30
0.0
 10
141.4183842778548
 20
403.8580124836288
 30
0.0
 10
138.6281089858459
 20
403.768209621385
 30
0.0
 10
137.3917822714096
 20
403.659836530137
 30
0.0
 10
135.4088691212306
 20
403.3495074427051
 30
0.0
 10
134.6351916477738
 20
403.1446833039212
 30
0.0
 10
133.6092082200773
 20
402.6911719074751
 30
0.0
 10
133.3500000000004
 20
402.4489576000597
 30
0.0
 10
133.35
 20
402.1514350726788
 30
0.0
  0
LINE
  5
92
330
85
100
AcDbEntity
  8
$DDT_AUDIT_GENERATED_(87)
  6
Continuous
 62
     7
100
AcDbLine
 10
133.35
 20
388.7441625359
 30
0.0
 11
133.35
 21
374.1922392008
 31
0.0
  0
LINE
  5
93
330
85
100
AcDbEntity
  8
$DDT_AUDIT_GENERATED_(87)
  6
Continuous
 62
     7
100
AcDbLine
 10
133.35
 20
402.1514350727
 30
0.0
 11
133.35
 21
388.7441625359
 31
0.0
  0
SPLINE
  5
94
330
85
100
AcDbEntity
  8
$DDT_AUDIT_GENERATED_(87)
  6
Continuous
 62
     7
100
AcDbSpline
210
0.0
220
0.0
230
1.0
 70
     8
 71
     3
 72
    18
 73
    14
 74
     0
 42
0.0000000005375791
 43
0.0000000001
 40
0.0
 40
0.0
 40
0.0
 40
0.0
 40
0.1250000000000002
 40
0.1250000000000002
 40
0.2500000000000003
 40
0.2500000000000003
 40
0.5000000000000004
 40
0.5000000000000004
 40
0.7500000000000006
 40
0.7500000000000006
 40
0.8750000000000002
 40
0.8750000000000002
 40
1.0
 40
1.0
 40
1.0
 40
1.0
 10
133.35
 20
388.7441625359149
 30
0.0
 10
133.3500000000003
 20
388.3751850880481
 30
0.0
 10
133.2478757019623
 20
388.036354730694
 30
0.0
 10
132.8336005013549
 20
387.4090113001021
 30
0.0
 10
132.5178771752691
 20
387.1212880442138
 30
0.0
 10
131.2797981291211
 20
386.334105920579
 30
0.0
 10
130.0336020099474
 20
385.8713507003921
 30
0.0
 10
126.9260752579303
 20
384.9878523521378
 30
0.0
 10
125.0391102923361
 20
384.5645391683089
 30
0.0
 10
121.9311776702159
 20
384.0972437054689
 30
0.0
 10
120.8343963839314
 20
383.9691346062283
 30
0.0
 10
118.6230254814007
 20
383.7974625296825
 30
0.0
 10
117.4971981950202
 20
383.7518490894813
 30
0.0
 10
116.35
 20
383.7518476953874
 30
0.0
  0
LINE
  5
95
330
85
100
AcDbEntity
  8
$DDT_AUDIT_GENERATED_(87)
  6
Continuous
 62
     7
100
AcDbLine
 10
99.35
 20
374.1922392008
 30
0.0
 11
99.35
 21
388.7440654031
 31
0.0
  0
SPLINE
  5
96
330
85
100
AcDbEntity
  8
$DDT_AUDIT_GENERATED_(87)
  6
Continuous
 62
     7
100
AcDbSpline
210
0.0
220
0.0
230
1.0
 70
     8
 71
     3
 72
    20
 73
    16
 74
     0
 42
0.0000000005378371
 43
0.0000000001
 40
0.0
 40
0.0
 40
0.0
 40
0.0
 40
0.2500000000000004
 40
0.2500000000000004
 40
0.3750000000000004
 40
0.3750000000000004
 40
0.5000000000000003
 40
0.5000000000000003
 40
0.6250000000000002
 40
0.6250000000000002
 40
0.7500000000000001
 40
0.7500000000000001
 40
0.8750000000000001
 40
0.8750000000000001
 40
1.0
 40
1.0
 40
1.0
 40
1.0
 10
116.35
 20
383.7518476953874
 30
0.0
 10
114.0538449986924
 20
383.7518449050883
 30
0.0
 10
111.7834748545086
 20
383.9441592774103
 30
0.0
 10
108.6906021911213
 20
384.4099535774544
 30
0.0
 10
107.6909072720733
 20
384.5964275318632
 30
0.0
 10
105.843186006022
 20
384.9967486731691
 30
0.0
 10
104.9928314968083
 20
385.2097319810268
 30
0.0
 10
103.4354419819179
 20
385.652811458474
 30
0.0
 10
102.726636837967
 20
385.8842040487623
 30
0.0
 10
101.515807261491
 20
386.3553985438336
 30
0.0
 10
101.0048052957838
 20
386.5974951202543
 30
0.0
 10
100.1751256241387
 20
387.1263233082827
 30
0.0
 10
99.86254635705481
 20
387.4136578205467
 30
0.0
 10
99.45223142657768
 20
388.0372189557047
 30
0.0
 10
99.35
 20
388.3749206062939
 30
0.0
 10
99.35
 20
388.7440654031117
 30
0.0
  0
LINE
  5
97
330
85
100
AcDbEntity
  8
$DDT_AUDIT_GENERATED_(87)
  6
Continuous
 62
     7
100
AcDbLine
 10
99.35
 20
388.7440654031
 30
0.0
 11
99.35
 21
402.1512789937
 31
0.0
  0
ARC
  5
98
330
85
100
AcDbEntity
  8
$DDT_AUDIT_GENERATED_(87)
  6
Continuous
 62
     7
100
AcDbCircle
 10
112.9573666931
 20
-172.1703648569
 30
0.0
 40
576.4799203247288
100
AcDbArc
 50
92.4984610703
 51
93.3237718659
  0
SPLINE
  5
99
330
85
100
AcDbEntity
  8
$DDT_AUDIT_GENERATED_(87)
  6
Continuous
 62
     7
100
AcDbSpline
210
0.0
220
0.0
230
1.0
 70
     8
 71
     3
 72
    14
 73
    10
 74
     0
 42
0.0000000008283884
 43
0.0000000001
 40
0.0
 40
0.0
 40
0.0
 40
0.0
 40
0.2499999999999997
 40
0.2499999999999997
 40
0.4999999999999998
 40
0.4999999999999998
 40
0.7499999999999999
 40
0.7499999999999999
 40
1.0
 40
1.0
 40
1.0
 40
1.0
 10
99.34999999999998
 20
402.151278993671
 30
0.0
 10
99.35
 20
402.4509848496981
 30
0.0
 10
99.08704702161461
 20
402.6950478205496
 30
0.0
 10
98.04113465672287
 20
403.1525553987263
 30
0.0
 10
97.25902670807363
 20
403.3569012170569
 30
0.0
 10
95.24697149528204
 20
403.6666204357101
 30
0.0
 10
93.99438936246652
 20
403.7734603742715
 30
0.0
 10
91.16771339198792
 20
403.8583876984845
 30
0.0
 10
89.55888089974498
 20
403.8371263001671
 30
0.0
 10
87.82713491102318
 20
403.7615495116534
 30
0.0
  0
ARC
  5
9A
330
85
100
AcDbEntity
  8
$DDT_AUDIT_GENERATED_(87)
  6
Continuous
 62
     7
100
AcDbCircle
 10
116.345194116
 20
-294.3205428417
 30
0.0
 40
698.6308407221749
100
AcDbArc
 50
93.0203341507
 51
94.7760337021
  0
SPLINE
  5
9B
330
85
100
AcDbEntity
  8
$DDT_AUDIT_GENERATED_(87)
  6
Continuous
 62
     7
100
AcDbSpline
210
0.0
220
0.0
230
1.0
 70
     8
 71
     3
 72
    59
 73
    55
 74
     0
 42
0.0000000005402579
 43
0.0000000001
 40
0.0
 40
0.0
 40
0.0
 40
0.0
 40
0.1822144386557164
 40
0.1822144386557164
 40
0.1822144386557164
 40
0.6937460591577095
 40
0.6937460591577095
 40
0.6937460591577095
 40
0.9495039868059094
 40
0.9495039868059094
 40
0.9495039868059094
 40
0.9775310738109114
 40
0.9775310738109114
 40
0.9775310738109114
 40
0.9868109507810072
 40
0.9868109507810072
 40
0.9868109507810072
 40
0.9929578393047943
 40
0.9929578393047943
 40
0.9929578393047943
 40
0.9970318924155575
 40
0.9970318924155575
 40
0.9970318924155575
 40
0.9983840531348894
 40
0.9983840531348894
 40
0.9983840531348894
 40
0.9992771417786658
 40
0.9992771417786658
 40
0.9992771417786658
 40
0.999576293322873
 40
0.999576293322873
 40
0.999576293322873
 40
0.9997422995377399
 40
0.9997422995377399
 40
0.9997422995377399
 40
0.9998299281792817
 40
0.9998299281792817
 40
0.9998299281792817
 40
0.9998882052321761
 40
0.9998882052321761
 40
0.9998882052321761
 40
0.9999429186950922
 40
0.9999429186950922
 40
0.9999429186950922
 40
0.9999653794880702
 40
0.9999653794880702
 40
0.9999653794880702
 40
0.9999842188779686
 40
0.9999842188779686
 40
0.9999842188779686
 40
0.9999968163025342
 40
0.9999968163025342
 40
0.9999968163025342
 40
1.0
 40
1.0
 40
1.0
 40
1.0
 10
143.9252621085004
 20
405.7671077575694
 30
0.0
 10
142.8018428263055
 20
405.8113972516707
 30
0.0
 10
141.6782986142658
 20
405.8529809007597
 30
0.0
 10
140.5546548876623
 20
405.8918575899259
 30
0.0
 10
137.4002842002365
 20
406.0009949310835
 30
0.0
 10
134.2449893449427
 20
406.0888027643319
 30
0.0
 10
131.0893503705075
 20
406.1552633112026
 30
0.0
 10
129.5115526799953
 20
406.1884931255801
 30
0.0
 10
127.9335308374078
 20
406.2163886528724
 30
0.0
 10
126.3557252197917
 20
406.2389439421294
 30
0.0
 10
126.1828151033152
 20
406.24141575339
 30
0.0
 10
126.0099052981019
 20
406.2438234660352
 30
0.0
 10
125.837026518608
 20
406.2461666891987
 30
0.0
 10
125.7797851460761
 20
406.2469425467702
 30
0.0
 10
125.7225464649108
 20
406.2477113439811
 30
0.0
 10
125.6653192187117
 20
406.2484729686606
 30
0.0
 10
125.6274126857563
 20
406.2489774582688
 30
0.0
 10
125.5895090676599
 20
406.249478828393
 30
0.0
 10
125.5516229565277
 20
406.249976891012
 30
0.0
 10
125.5265133528802
 20
406.2503069896836
 30
0.0
 10
125.5014044912486
 20
406.2506357257735
 30
0.0
 10
125.4763360335799
 20
406.2509625866524
 30
0.0
 10
125.4680153681949
 20
406.2510710775709
 30
0.0
 10
125.4596978512821
 20
406.2511793788752
 30
0.0
 10
125.4513975406583
 20
406.251287308608
 30
0.0
 10
125.4459158195189
 20
406.2513585879523
 30
0.0
 10
125.4404358039197
 20
406.2514297804417
 30
0.0
 10
125.4349920827714
 20
406.2515004380551
 30
0.0
 10
125.4331681314281
 20
406.2515241123112
 30
0.0
 10
125.4313474153294
 20
406.2515477374168
 30
0.0
 10
125.4295405879109
 20
406.2515711753355
 30
0.0
 10
125.4285379004136
 20
406.2515841820609
 30
0.0
 10
125.427538438859
 20
406.2515971447716
 30
0.0
 10
125.4265514038355
 20
406.2516099442392
 30
0.0
 10
125.4260302951916
 20
406.2516167017636
 30
0.0
 10
125.4255120876116
 20
406.2516234210819
 30
0.0
 10
125.4250025335191
 20
406.2516300276438
 30
0.0
 10
125.4246636784422
 20
406.2516344210284
 30
0.0
 10
125.4243279393104
 20
406.2516387737645
 30
0.0
 10
125.4240016179452
 20
406.2516430041779
 30
0.0
 10
125.4236959308719
 20
406.2516469670894
 30
0.0
 10
125.4233943703782
 20
406.251650876293
 30
0.0
 10
125.4231234825199
 20
406.2516543877294
 30
0.0
 10
125.4230119150569
 20
406.2516558339443
 30
0.0
 10
125.4229050190614
 20
406.2516572195768
 30
0.0
 10
125.4228115833279
 20
406.251658430714
 30
0.0
 10
125.422733529311
 20
406.2516594424695
 30
0.0
 10
125.4226635289984
 20
406.2516603498169
 30
0.0
 10
125.4226157597697
 20
406.2516609690001
 30
0.0
 10
125.4225837349007
 20
406.2516613841054
 30
0.0
 10
125.4225615985683
 20
406.2516616710337
 30
0.0
 10
125.4225542816939
 20
406.2516617658742
 30
0.0
 10
125.4225524106524
 20
406.2516617901264
 30
0.0
 10
125.422551461206
 20
406.2516618024329
 30
0.0
 10
125.4225514612208
 20
406.2516618024327
 30
0.0
  0
ARC
  5
9C
330
85
100
AcDbEntity
  8
$DDT_AUDIT_GENERATED_(87)
  6
Continuous
 62
     7
100
AcDbCircle
 10
116.3596852572
 20
-293.5705659396
 30
0.0
 40
699.8806787810495
100
AcDbArc
 50
84.9299045332
 51
86.9783299894
  0
ARC
  5
9D
330
85
100
AcDbEntity
  8
$DDT_AUDIT_GENERATED_(87)
  6
Continuous
 62
     7
100
AcDbCircle
 10
116.35
 20
-293.6895420205
 30
0.0
 40
699.9999999994131
100
AcDbArc
 50
86.9780516851
 51
87.7423499183
  0
ARC
  5
9E
330
85
100
AcDbEntity
  8
$DDT_AUDIT_GENERATED_(87)
  6
Continuous
 62
     7
100
AcDbCircle
 10
116.3034905546
 20
-292.7556927901
 30
0.0
 40
699.0649974648957
100
AcDbArc
 50
92.2715532155
 51
93.0221766865
  0
ARC
  5
9F
330
85
100
AcDbEntity
  8
$DDT_AUDIT_GENERATED_(87)
  6
Continuous
 62
     7
100
AcDbCircle
 10
116.3403147428
 20
-293.5705659398
 30
0.0
 40
699.8806787812639
100
AcDbArc
 50
93.0216700106
 51
95.070618369
  0
LINE
  5
A0
330
85
100
AcDbEntity
  8
$DDT_AUDIT_GENERATED_(87)
  6
Continuous
 62
     7
100
AcDbLine
 10
143.9317734078
 20
405.7668455216
 30
0.0
 11
143.9252621085
 21
405.7671077576
 31
0.0
  0
ARC
  5
A1
330
85
100
AcDbEntity
  8
$DDT_AUDIT_GENERATED_(87)
  6
Continuous
 62
     7
100
AcDbCircle
 10
101.35
 20
374.1922392008
 30
0.0
 40
2.000000000000004
100
AcDbArc
 50
180.0
 51
270.0
  0
ARC
  5
A2
330
85
100
AcDbEntity
  8
$DDT_AUDIT_GENERATED_(87)
  6
Continuous
 62
     7
100
AcDbCircle
 10
131.35
 20
374.1922392008
 30
0.0
 40
2.0
100
AcDbArc
 50
270.0
 51
0.0
  0
LINE
  5
A3
330
85
100
AcDbEntity
  8
$DDT_AUDIT_GENERATED_(87)
  6
Continuous
 62
     7
100
AcDbLine
 10
102.0644765998
 20
366.3104579789
 30
0.0
 11
103.35
 21
366.3104579789
 31
0.0
  0
LINE
  5
A4
330
85
100
AcDbEntity
  8
$DDT_AUDIT_GENERATED_(87)
  6
Continuous
 62
     7
100
AcDbLine
 10
129.35
 20
366.3104579789
 30
0.0
 11
130.6355234002
 21
366.3104579789
 31
0.0
  0
ARC
  5
A5
330
85
100
AcDbEntity
  8
$DDT_AUDIT_GENERATED_(87)
  6
Continuous
 62
     7
100
AcDbCircle
 10
94.35
 20
364.1922392008
 30
0.0
 40
8.0
100
AcDbArc
 50
15.3537231593
 51
90.0
  0
ARC
  5
A6
330
85
100
AcDbEntity
  8
$DDT_AUDIT_GENERATED_(87)
  6
Continuous
 62
     7
100
AcDbCircle
 10
138.35
 20
364.1922392008
 30
0.0
 40
7.999999999999561
100
AcDbArc
 50
90.0
 51
164.6462768408
  0
ARC
  5
A8
330
85
100
AcDbEntity
  8
$DDT_AUDIT_GENERATED_(A7)
  6
Continuous
 62
     7
100
AcDbCircle
 10
41.35
 20
387.1922392008
 30
0.0
 40
35.0
100
AcDbArc
 50
30.3517571317
 51
334.6159438094
  0
ARC
  5
A9
330
85
100
AcDbEntity
  8
$DDT_AUDIT_GENERATED_(A7)
  6
Continuous
 62
     7
100
AcDbCircle
 10
191.35
 20
387.1922392008
 30
0.0
 40
35.0
100
AcDbArc
 50
205.3860859078
 51
360.0
  0
ARC
  5
AA
330
85
100
AcDbEntity
  8
$DDT_AUDIT_GENERATED_(A7)
  6
Continuous
 62
     7
100
AcDbCircle
 10
191.35
 20
387.1922392008
 30
0.0
 40
35.0
100
AcDbArc
 50
0.0
 51
149.6476613835
  0
CIRCLE
  5
AC
330
85
100
AcDbEntity
  8
$DDT_AUDIT_GENERATED_(AB)
  6
Continuous
 62
     7
100
AcDbCircle
 10
191.35
 20
375.1922392008
 30
0.0
 40
1.000000000000933
  0
LINE
  5
AE
330
85
100
AcDbEntity
  8
$DDT_AUDIT_GENERATED_(AD)
  6
Continuous
 62
     7
100
AcDbLine
 10
197.26726
 20
387.2915934865
 30
0.0
 11
195.6906571429
 21
387.2915934865
 31
0.0
  0
LINE
  5
AF
330
85
100
AcDbEntity
  8
$DDT_AUDIT_GENERATED_(AD)
  6
Continuous
 62
     7
100
AcDbLine
 10
195.6906571429
 20
387.2915934865
 30
0.0
 11
195.6906571429
 21
389.3950049151
 31
0.0
  0
LINE
  5
B0
330
85
100
AcDbEntity
  8
$DDT_AUDIT_GENERATED_(AD)
  6
Continuous
 62
     7
100
AcDbLine
 10
195.6906571429
 20
389.3950049151
 30
0.0
 11
197.1268342857
 21
389.3950049151
 31
0.0
  0
LINE
  5
B1
330
85
100
AcDbEntity
  8
$DDT_AUDIT_GENERATED_(AD)
  6
Continuous
 62
     7
100
AcDbLine
 10
197.1268342857
 20
389.3950049151
 30
0.0
 11
197.1268342857
 21
388.9928763437
 31
0.0
  0
LINE
  5
B2
330
85
100
AcDbEntity
  8
$DDT_AUDIT_GENERATED_(AD)
  6
Continuous
 62
     7
100
AcDbLine
 10
197.1268342857
 20
388.9928763437
 30
0.0
 11
196.2344028571
 21
388.9928763437
 31
0.0
  0
LINE
  5
B3
330
85
100
AcDbEntity
  8
$DDT_AUDIT_GENERATED_(AD)
  6
Continuous
 62
     7
100
AcDbLine
 10
196.2344028571
 20
388.9928763437
 30
0.0
 11
196.2344028571
 21
388.6000992008
 31
0.0
  0
LINE
  5
B4
330
85
100
AcDbEntity
  8
$DDT_AUDIT_GENERATED_(AD)
  6
Continuous
 62
     7
100
AcDbLine
 10
196.2344028571
 20
388.6000992008
 30
0.0
 11
196.9832114286
 21
388.6000992008
 31
0.0
  0
LINE
  5
B5
330
85
100
AcDbEntity
  8
$DDT_AUDIT_GENERATED_(AD)
  6
Continuous
 62
     7
100
AcDbLine
 10
196.9832114286
 20
388.6000992008
 30
0.0
 11
196.9832114286
 21
388.210742058
 31
0.0
  0
LINE
  5
B6
330
85
100
AcDbEntity
  8
$DDT_AUDIT_GENERATED_(AD)
  6
Continuous
 62
     7
100
AcDbLine
 10
196.9832114286
 20
388.210742058
 30
0.0
 11
196.2344028571
 21
388.210742058
 31
0.0
  0
LINE
  5
B7
330
85
100
AcDbEntity
  8
$DDT_AUDIT_GENERATED_(AD)
  6
Continuous
 62
     7
100
AcDbLine
 10
196.2344028571
 20
388.210742058
 30
0.0
 11
196.2344028571
 21
387.6937134865
 31
0.0
  0
LINE
  5
B8
330
85
100
AcDbEntity
  8
$DDT_AUDIT_GENERATED_(AD)
  6
Continuous
 62
     7
100
AcDbLine
 10
196.2344028571
 20
387.6937134865
 30
0.0
 11
197.26726
 21
387.6937134865
 31
0.0
  0
LINE
  5
B9
330
85
100
AcDbEntity
  8
$DDT_AUDIT_GENERATED_(AD)
  6
Continuous
 62
     7
100
AcDbLine
 10
197.26726
 20
387.6937134865
 30
0.0
 11
197.26726
 21
387.2915934865
 31
0.0
  0
LINE
  5
BA
330
85
100
AcDbEntity
  8
$DDT_AUDIT_GENERATED_(AD)
  6
Continuous
 62
     7
100
AcDbLine
 10
195.0963314286
 20
387.2915934865
 30
0.0
 11
195.0963314286
 21
389.3950049151
 31
0.0
  0
LINE
  5
BB
330
85
100
AcDbEntity
  8
$DDT_AUDIT_GENERATED_(AD)
  6
Continuous
 62
     7
100
AcDbLine
 10
195.0963314286
 20
389.3950049151
 30
0.0
 11
194.5491657143
 21
389.3950049151
 31
0.0
  0
LINE
  5
BC
330
85
100
AcDbEntity
  8
$DDT_AUDIT_GENERATED_(AD)
  6
Continuous
 62
     7
100
AcDbLine
 10
194.5491657143
 20
389.3950049151
 30
0.0
 11
194.5491657143
 21
388.6192477723
 31
0.0
  0
LINE
  5
BD
330
85
100
AcDbEntity
  8
$DDT_AUDIT_GENERATED_(AD)
  6
Continuous
 62
     7
100
AcDbLine
 10
194.5491657143
 20
388.6192477723
 30
0.0
 11
193.5794285714
 21
388.6192477723
 31
0.0
  0
LINE
  5
BE
330
85
100
AcDbEntity
  8
$DDT_AUDIT_GENERATED_(AD)
  6
Continuous
 62
     7
100
AcDbLine
 10
193.5794285714
 20
388.6192477723
 30
0.0
 11
193.5794285714
 21
389.3950049151
 31
0.0
  0
LINE
  5
BF
330
85
100
AcDbEntity
  8
$DDT_AUDIT_GENERATED_(AD)
  6
Continuous
 62
     7
100
AcDbLine
 10
193.5794285714
 20
389.3950049151
 30
0.0
 11
193.0356914286
 21
389.3950049151
 31
0.0
  0
LINE
  5
C0
330
85
100
AcDbEntity
  8
$DDT_AUDIT_GENERATED_(AD)
  6
Continuous
 62
     7
100
AcDbLine
 10
193.0356914286
 20
389.3950049151
 30
0.0
 11
193.0356914286
 21
387.2915934865
 31
0.0
  0
LINE
  5
C1
330
85
100
AcDbEntity
  8
$DDT_AUDIT_GENERATED_(AD)
  6
Continuous
 62
     7
100
AcDbLine
 10
193.0356914286
 20
387.2915934865
 30
0.0
 11
193.5794285714
 21
387.2915934865
 31
0.0
  0
LINE
  5
C2
330
85
100
AcDbEntity
  8
$DDT_AUDIT_GENERATED_(AD)
  6
Continuous
 62
     7
100
AcDbLine
 10
193.5794285714
 20
387.2915934865
 30
0.0
 11
193.5794285714
 21
388.1852077723
 31
0.0
  0
LINE
  5
C3
330
85
100
AcDbEntity
  8
$DDT_AUDIT_GENERATED_(AD)
  6
Continuous
 62
     7
100
AcDbLine
 10
193.5794285714
 20
388.1852077723
 30
0.0
 11
194.5491657143
 21
388.1852077723
 31
0.0
  0
LINE
  5
C4
330
85
100
AcDbEntity
  8
$DDT_AUDIT_GENERATED_(AD)
  6
Continuous
 62
     7
100
AcDbLine
 10
194.5491657143
 20
388.1852077723
 30
0.0
 11
194.5491657143
 21
387.2915934865
 31
0.0
  0
LINE
  5
C5
330
85
100
AcDbEntity
  8
$DDT_AUDIT_GENERATED_(AD)
  6
Continuous
 62
     7
100
AcDbLine
 10
194.5491657143
 20
387.2915934865
 30
0.0
 11
195.0963314286
 21
387.2915934865
 31
0.0
  0
SPLINE
  5
C6
330
85
100
AcDbEntity
  8
$DDT_AUDIT_GENERATED_(AD)
  6
Continuous
 62
     7
100
AcDbSpline
210
0.0
220
0.0
230
1.0
 70
     8
 71
     3
 72
    18
 73
    14
 74
     0
 42
0.0000000043511661
 43
0.0000000001
 40
0.0
 40
0.0
 40
0.0
 40
0.0
 40
0.125
 40
0.125
 40
0.25
 40
0.25
 40
0.5
 40
0.5
 40
0.75
 40
0.75
 40
0.875
 40
0.875
 40
1.0
 40
1.0
 40
1.0
 40
1.0
 10
192.3475891908674
 20
389.0738795659549
 30
0.0
 10
192.4128031465162
 20
389.0035191660431
 30
0.0
 10
192.4689260408252
 20
388.9259013391652
 30
0.0
 10
192.5595362452272
 20
388.7588935430016
 30
0.0
 10
192.594288168504
 20
388.6683062017698
 30
0.0
 10
192.6587192496912
 20
388.3913768511211
 30
0.0
 10
192.6489882436842
 20
388.1933825296662
 30
0.0
 10
192.5266785653825
 20
387.8317074724243
 30
0.0
 10
192.4163586418725
 20
387.6699742069188
 30
0.0
 10
192.2066197466445
 20
387.4783032967096
 30
0.0
 10
192.1280616993782
 20
387.4217343059231
 30
0.0
 10
191.963412254424
 20
387.3282578717364
 30
0.0
 10
191.8769672636833
 20
387.2907099508527
 30
0.0
 10
191.7866114285728
 20
387.26188491512
 30
0.0
  0
SPLINE
  5
C7
330
85
100
AcDbEntity
  8
$DDT_AUDIT_GENERATED_(AD)
  6
Continuous
 62
     7
100
AcDbSpline
210
0.0
220
0.0
230
1.0
 70
     8
 71
     3
 72
    12
 73
     8
 74
     0
 42
0.000000002461307
 43
0.0000000001
 40
0.0
 40
0.0
 40
0.0
 40
0.0
 40
0.5
 40
0.5
 40
0.75
 40
0.75
 40
1.0
 40
1.0
 40
1.0
 40
1.0
 10
191.7866114285728
 20
387.26188491512
 30
0.0
 10
191.1733228428552
 20
387.0662430040882
 30
0.0
 10
190.4227808420118
 20
387.3221215884595
 30
0.0
 10
190.0185027052642
 20
388.2027088152454
 30
0.0
 10
190.0317407547722
 20
388.5547139062822
 30
0.0
 10
190.3339696970904
 20
389.1192691219603
 30
0.0
 10
190.6077417155079
 20
389.3272091162328
 30
0.0
 10
190.9133885714299
 20
389.4247134865486
 30
0.0
  0
ARC
  5
C8
330
85
100
AcDbEntity
  8
$DDT_AUDIT_GENERATED_(AD)
  6
Continuous
 62
     7
100
AcDbCircle
 10
191.3483536148
 20
388.095934351
 30
0.0
 40
1.398158996687846
100
AcDbArc
 50
44.383060619
 51
108.1254383517
  0
SPLINE
  5
C9
330
85
100
AcDbEntity
  8
$DDT_AUDIT_GENERATED_(AD)
  6
Continuous
 62
     7
100
AcDbSpline
210
0.0
220
0.0
230
1.0
 70
     8
 71
     3
 72
    16
 73
    12
 74
     0
 42
0.0000000085508573
 43
0.0000000001
 40
0.0
 40
0.0
 40
0.0
 40
0.0
 40
0.2499999999999997
 40
0.2499999999999997
 40
0.3749999999999997
 40
0.3749999999999997
 40
0.4999999999999998
 40
0.4999999999999998
 40
0.7499999999999999
 40
0.7499999999999999
 40
1.0
 40
1.0
 40
1.0
 40
1.0
 10
190.6319114285728
 20
388.3432992008343
 30
0.0
 10
190.6320402773281
 20
388.4400763295705
 30
0.0
 10
190.6443206244464
 20
388.538297747098
 30
0.0
 10
190.6923359001164
 20
388.6746812536646
 30
0.0
 10
190.7134220197827
 20
388.7183050638901
 30
0.0
 10
190.7619859150108
 20
388.8028601356523
 30
0.0
 10
190.7881396641931
 20
388.8438120968477
 30
0.0
 10
190.8858605068079
 20
388.9530375166028
 30
0.0
 10
190.973278865099
 20
389.0018455847265
 30
0.0
 10
191.155550940148
 20
389.0641409661759
 30
0.0
 10
191.2534122398438
 20
389.0765198901694
 30
0.0
 10
191.3500000000014
 20
389.0738763436914
 30
0.0
  0
ARC
  5
CA
330
85
100
AcDbEntity
  8
$DDT_AUDIT_GENERATED_(AD)
  6
Continuous
 62
     7
100
AcDbCircle
 10
191.3679695573
 20
388.3733516293
 30
0.0
 40
0.7007551501621997
100
AcDbArc
 50
357.5420722041
 51
91.4694043435
  0
SPLINE
  5
CB
330
85
100
AcDbEntity
  8
$DDT_AUDIT_GENERATED_(AD)
  6
Continuous
 62
     7
100
AcDbSpline
210
0.0
220
0.0
230
1.0
 70
     8
 71
     3
 72
    16
 73
    12
 74
     0
 42
0.0000000085508692
 43
0.0000000001
 40
0.0
 40
0.0
 40
0.0
 40
0.0
 40
0.2499999999999999
 40
0.2499999999999999
 40
0.3749999999999998
 40
0.3749999999999998
 40
0.4999999999999998
 40
0.4999999999999998
 40
0.7499999999999999
 40
0.7499999999999999
 40
1.0
 40
1.0
 40
1.0
 40
1.0
 10
192.0680800000014
 20
388.3432992008343
 30
0.0
 10
192.0679511248415
 20
388.246502239871
 30
0.0
 10
192.0556621216161
 20
388.1482645696067
 30
0.0
 10
192.0076553500793
 20
388.011906414421
 30
0.0
 10
191.9865552205492
 20
387.9682529284473
 30
0.0
 10
191.9379904608544
 20
387.8837003999935
 30
0.0
 10
191.9118324163164
 20
387.8427408385141
 30
0.0
 10
191.8140130537438
 20
387.7334500676378
 30
0.0
 10
191.7266668693656
 20
387.6847307347346
 30
0.0
 10
191.5444390056558
 20
387.6224589182135
 30
0.0
 10
191.4465386853513
 20
387.6100798546459
 30
0.0
 10
191.3500000000014
 20
387.6127220579771
 30
0.0
  0
SPLINE
  5
CC
330
85
100
AcDbEntity
  8
$DDT_AUDIT_GENERATED_(AD)
  6
Continuous
 62
     7
100
AcDbSpline
210
0.0
220
0.0
230
1.0
 70
     8
 71
     3
 72
    16
 73
    12
 74
     0
 42
0.0000000085508699
 43
0.0000000001
 40
0.0
 40
0.0
 40
0.0
 40
0.0
 40
0.25
 40
0.25
 40
0.5
 40
0.5
 40
0.625
 40
0.625
 40
0.75
 40
0.75
 40
1.0
 40
1.0
 40
1.0
 40
1.0
 10
191.3500000000014
 20
387.6127220579771
 30
0.0
 10
191.2530023598426
 20
387.6100672933404
 30
0.0
 10
191.1553860907492
 20
387.6223988667107
 30
0.0
 10
190.9719265520125
 20
387.6853302136434
 30
0.0
 10
190.8844929502929
 20
387.7347869747864
 30
0.0
 10
190.7878582608377
 20
387.8432481730476
 30
0.0
 10
190.7612570694562
 20
387.8849219857985
 30
0.0
 10
190.713135797085
 20
387.9688686950981
 30
0.0
 10
190.692117568793
 20
388.0123420815828
 30
0.0
 10
190.6438410906978
 20
388.1500504142554
 30
0.0
 10
190.632038936997
 20
388.2475287826261
 30
0.0
 10
190.6319114285728
 20
388.3432992008343
 30
0.0
  0
ARC
  5
CD
330
85
100
AcDbEntity
  8
$DDT_AUDIT_GENERATED_(AD)
  6
Continuous
 62
     7
100
AcDbCircle
 10
189.0926206081
 20
388.7149023623
 30
0.0
 40
0.6207041686407464
100
AcDbArc
 50
292.6617161169
 51
1.9644010413
  0
SPLINE
  5
CE
330
85
100
AcDbEntity
  8
$DDT_AUDIT_GENERATED_(AD)
  6
Continuous
 62
     7
100
AcDbSpline
210
0.0
220
0.0
230
1.0
 70
     8
 71
     3
 72
    18
 73
    14
 74
     0
 42
0.0000000086983524
 43
0.0000000001
 40
0.0
 40
0.0
 40
0.0
 40
0.0
 40
0.249999999999999
 40
0.249999999999999
 40
0.3749999999999985
 40
0.3749999999999985
 40
0.4999999999999984
 40
0.4999999999999984
 40
0.6249999999999983
 40
0.6249999999999983
 40
0.7499999999999989
 40
0.7499999999999989
 40
1.0
 40
1.0
 40
1.0
 40
1.0
 10
189.7129600000014
 20
388.7361792008343
 30
0.0
 10
189.7128048265646
 20
388.8325246635371
 30
0.0
 10
189.696414173972
 20
388.9287662333364
 30
0.0
 10
189.6359733108279
 20
389.0585468266511
 30
0.0
 10
189.6104436852567
 20
389.0987249327758
 30
0.0
 10
189.5544163665689
 20
389.1762335016855
 30
0.0
 10
189.522830782743
 20
389.2126040193285
 30
0.0
 10
189.4492363307552
 20
389.2722959677951
 30
0.0
 10
189.4070021802191
 20
389.2965158262471
 30
0.0
 10
189.3206444141857
 20
389.3362508465555
 30
0.0
 10
189.2758349749406
 20
389.3519166687693
 30
0.0
 10
189.1372228277734
 20
389.388129769234
 30
0.0
 10
189.0416531030047
 20
389.3972205303747
 30
0.0
 10
188.9458257142871
 20
389.39500491512
 30
0.0
  0
LINE
  5
CF
330
85
100
AcDbEntity
  8
$DDT_AUDIT_GENERATED_(AD)
  6
Continuous
 62
     7
100
AcDbLine
 10
188.9458257143
 20
389.3950049151
 30
0.0
 11
187.9257657143
 21
389.3950049151
 31
0.0
  0
LINE
  5
D0
330
85
100
AcDbEntity
  8
$DDT_AUDIT_GENERATED_(AD)
  6
Continuous
 62
     7
100
AcDbLine
 10
187.9257657143
 20
389.3950049151
 30
0.0
 11
187.9257657143
 21
387.2915934865
 31
0.0
  0
LINE
  5
D1
330
85
100
AcDbEntity
  8
$DDT_AUDIT_GENERATED_(AD)
  6
Continuous
 62
     7
100
AcDbLine
 10
187.9257657143
 20
387.2915934865
 30
0.0
 11
188.48428
 21
387.2915934865
 31
0.0
  0
LINE
  5
D2
330
85
100
AcDbEntity
  8
$DDT_AUDIT_GENERATED_(AD)
  6
Continuous
 62
     7
100
AcDbLine
 10
188.48428
 20
387.2915934865
 30
0.0
 11
188.48428
 21
388.9929192008
 31
0.0
  0
LINE
  5
D3
330
85
100
AcDbEntity
  8
$DDT_AUDIT_GENERATED_(AD)
  6
Continuous
 62
     7
100
AcDbLine
 10
188.48428
 20
388.9929192008
 30
0.0
 11
188.8460885714
 21
388.9929192008
 31
0.0
  0
SPLINE
  5
D4
330
85
100
AcDbEntity
  8
$DDT_AUDIT_GENERATED_(AD)
  6
Continuous
 62
     7
100
AcDbSpline
210
0.0
220
0.0
230
1.0
 70
     8
 71
     3
 72
    12
 73
     8
 74
     0
 42
0.0000000187149548
 43
0.0000000001
 40
0.0
 40
0.0
 40
0.0
 40
0.0
 40
0.2500000000000003
 40
0.2500000000000003
 40
0.5000000000000007
 40
0.5000000000000007
 40
1.0
 40
1.0
 40
1.0
 40
1.0
 10
188.84608857143
 20
388.9929192008343
 30
0.0
 10
188.8901614069212
 20
388.9941534719323
 30
0.0
 10
188.9338587267889
 20
388.9884353449934
 30
0.0
 10
189.0169872270831
 20
388.9588769623109
 30
0.0
 10
189.0558599029076
 20
388.935888648834
 30
0.0
 10
189.141424351832
 20
388.8359400682764
 30
0.0
 10
189.1672976118973
 20
388.7466774689913
 30
0.0
 10
189.1674142857157
 20
388.6584020579771
 30
0.0
  0
SPLINE
  5
D5
330
85
100
AcDbEntity
  8
$DDT_AUDIT_GENERATED_(AD)
  6
Continuous
 62
     7
100
AcDbSpline
210
0.0
220
0.0
230
1.0
 70
     8
 71
     3
 72
    12
 73
     8
 74
     0
 42
0.0000000197255609
 43
0.0000000001
 40
0.0
 40
0.0
 40
0.0
 40
0.0
 40
0.2499999999999996
 40
0.2499999999999996
 40
0.4999999999999992
 40
0.4999999999999992
 40
1.0
 40
1.0
 40
1.0
 40
1.0
 10
189.1674142857157
 20
388.6584020579771
 30
0.0
 10
189.1673594282012
 20
388.6168968624987
 30
0.0
 10
189.162610886222
 20
388.5750782185325
 30
0.0
 10
189.1379632818703
 20
388.496607704306
 30
0.0
 10
189.1185569973765
 20
388.458931619357
 30
0.0
 10
189.0431702585047
 20
388.3586876431876
 30
0.0
 10
188.9577963440741
 20
388.3278094899032
 30
0.0
 10
188.8753600000014
 20
388.3241077722628
 30
0.0
  0
LINE
  5
D6
330
85
100
AcDbEntity
  8
$DDT_AUDIT_GENERATED_(AD)
  6
Continuous
 62
     7
100
AcDbLine
 10
188.87536
 20
388.3241077723
 30
0.0
 11
188.5544885714
 21
388.3241077723
 31
0.0
  0
LINE
  5
D7
330
85
100
AcDbEntity
  8
$DDT_AUDIT_GENERATED_(AD)
  6
Continuous
 62
     7
100
AcDbLine
 10
188.5544885714
 20
388.3241077723
 30
0.0
 11
189.3268342857
 21
387.2915934865
 31
0.0
  0
LINE
  5
D8
330
85
100
AcDbEntity
  8
$DDT_AUDIT_GENERATED_(AD)
  6
Continuous
 62
     7
100
AcDbLine
 10
189.3268342857
 20
387.2915934865
 30
0.0
 11
190.0193971429
 21
387.2915934865
 31
0.0
  0
LINE
  5
D9
330
85
100
AcDbEntity
  8
$DDT_AUDIT_GENERATED_(AD)
  6
Continuous
 62
     7
100
AcDbLine
 10
190.0193971429
 20
387.2915934865
 30
0.0
 11
189.3149542857
 21
388.1355192008
 31
0.0
  0
LINE
  5
DA
330
85
100
AcDbEntity
  8
$DDT_AUDIT_GENERATED_(AD)
  6
Continuous
 62
     7
100
AcDbLine
 10
189.3149542857
 20
388.1355192008
 30
0.0
 11
189.3317714286
 21
388.1421192008
 31
0.0
  0
ARC
  5
DB
330
85
100
AcDbEntity
  8
$DDT_AUDIT_GENERATED_(AD)
  6
Continuous
 62
     7
100
AcDbCircle
 10
186.4783596162
 20
389.3062220529
 30
0.0
 40
2.07638637537154
100
AcDbArc
 50
270.0458954541
 51
298.5079893125
  0
LINE
  5
DC
330
85
100
AcDbEntity
  8
$DDT_AUDIT_GENERATED_(AD)
  6
Continuous
 62
     7
100
AcDbLine
 10
187.46938
 20
387.4815963437
 30
0.0
 11
187.46938
 21
388.3432992008
 31
0.0
  0
LINE
  5
DD
330
85
100
AcDbEntity
  8
$DDT_AUDIT_GENERATED_(AD)
  6
Continuous
 62
     7
100
AcDbLine
 10
187.46938
 20
388.3432992008
 30
0.0
 11
186.9076857143
 21
388.3432992008
 31
0.0
  0
LINE
  5
DE
330
85
100
AcDbEntity
  8
$DDT_AUDIT_GENERATED_(AD)
  6
Continuous
 62
     7
100
AcDbLine
 10
186.9076857143
 20
388.3432992008
 30
0.0
 11
186.9076857143
 21
387.7256334865
 31
0.0
  0
ARC
  5
DF
330
85
100
AcDbEntity
  8
$DDT_AUDIT_GENERATED_(AD)
  6
Continuous
 62
     7
100
AcDbCircle
 10
186.4385812975
 20
388.6853394013
 30
0.0
 40
1.068220200513577
100
AcDbArc
 50
269.9999304086
 51
296.0493926514
  0
SPLINE
  5
E0
330
85
100
AcDbEntity
  8
$DDT_AUDIT_GENERATED_(AD)
  6
Continuous
 62
     7
100
AcDbSpline
210
0.0
220
0.0
230
1.0
 70
     8
 71
     3
 72
    14
 73
    10
 74
     0
 42
0.0000000093689161
 43
0.0000000001
 40
0.0
 40
0.0
 40
0.0
 40
0.0
 40
0.25
 40
0.25
 40
0.5
 40
0.5
 40
0.75
 40
0.75
 40
1.0
 40
1.0
 40
1.0
 40
1.0
 10
186.4385800000014
 20
387.6171192008342
 30
0.0
 10
186.3499930181603
 20
387.6141901819595
 30
0.0
 10
186.2605541135213
 20
387.6301378899095
 30
0.0
 10
186.0992007547915
 20
387.706525708424
 30
0.0
 10
186.0291402102358
 20
387.7661031453935
 30
0.0
 10
185.9359088226439
 20
387.9142677976665
 30
0.0
 10
185.9005172807838
 20
387.9966778212626
 30
0.0
 10
185.85638930883
 20
388.1663778557198
 30
0.0
 10
185.8482078699637
 20
388.255298217594
 30
0.0
 10
185.8481114285728
 20
388.3432992008343
 30
0.0
  0
ARC
  5
E1
330
85
100
AcDbEntity
  8
$DDT_AUDIT_GENERATED_(AD)
  6
Continuous
 62
     7
100
AcDbCircle
 10
186.5355227566
 20
388.3846245018
 30
0.0
 40
0.6886523901209816
100
AcDbArc
 50
83.979990143
 51
183.4403259994
  0
ARC
  5
E2
330
85
100
AcDbEntity
  8
$DDT_AUDIT_GENERATED_(AD)
  6
Continuous
 62
     7
100
AcDbCircle
 10
186.6060710271
 20
387.6232222666
 30
0.0
 40
1.446257903840333
100
AcDbArc
 50
56.7663154825
 51
89.9336546194
  0
LINE
  5
E3
330
85
100
AcDbEntity
  8
$DDT_AUDIT_GENERATED_(AD)
  6
Continuous
 62
     7
100
AcDbLine
 10
187.3987
 20
388.8329334865
 30
0.0
 11
187.3987
 21
389.2466249151
 31
0.0
  0
ARC
  5
E4
330
85
100
AcDbEntity
  8
$DDT_AUDIT_GENERATED_(AD)
  6
Continuous
 62
     7
100
AcDbCircle
 10
186.4791715248
 20
387.3397498292
 30
0.0
 40
2.11700382848743
100
AcDbArc
 50
64.2558231817
 51
89.9769590636
  0
SPLINE
  5
E5
330
85
100
AcDbEntity
  8
$DDT_AUDIT_GENERATED_(AD)
  6
Continuous
 62
     7
100
AcDbSpline
210
0.0
220
0.0
230
1.0
 70
     8
 71
     3
 72
    14
 73
    10
 74
     0
 42
0.0000000026027025
 43
0.0000000001
 40
0.0
 40
0.0
 40
0.0
 40
0.0
 40
0.25
 40
0.25
 40
0.5
 40
0.5
 40
0.75
 40
0.75
 40
1.0
 40
1.0
 40
1.0
 40
1.0
 10
186.4800228571443
 20
389.4567534865486
 30
0.0
 10
186.1694657109768
 20
389.4644232074059
 30
0.0
 10
185.8403934265427
 20
389.3951063660646
 30
0.0
 10
185.383737196553
 20
388.9780051897374
 30
0.0
 10
185.2683372033096
 20
388.6596465337647
 30
0.0
 10
185.2661815425631
 20
388.0336278196986
 30
0.0
 10
185.3795444458012
 20
387.7139626697041
 30
0.0
 10
185.8407505050501
 20
387.2896379598887
 30
0.0
 10
186.1697615648876
 20
387.2221739294343
 30
0.0
 10
186.4800228571443
 20
387.2298363436914
 30
0.0
  0
SPLINE
  5
E6
330
85
100
AcDbEntity
  8
$DDT_AUDIT_GENERATED_(AD)
  6
Continuous
 62
     7
100
AcDbSpline
210
0.0
220
0.0
230
1.0
 70
     8
 71
     3
 72
    12
 73
     8
 74
     0
 42
0.0000000017476393
 43
0.0000000001
 40
0.0
 40
0.0
 40
0.0
 40
0.0
 40
0.2499999999999998
 40
0.2499999999999998
 40
0.4999999999999998
 40
0.4999999999999998
 40
1.0
 40
1.0
 40
1.0
 40
1.0
 10
196.7637142857157
 20
386.03740491512
 30
0.0
 10
196.2968413982537
 20
385.9883305109483
 30
0.0
 10
195.8329585421776
 20
386.1210286325523
 30
0.0
 10
194.9466352302984
 20
386.4181930799581
 30
0.0
 10
194.5072598465516
 20
386.5890402530819
 30
0.0
 10
193.1008678767069
 20
386.6597832348854
 30
0.0
 10
192.2631568084728
 20
386.0335672006197
 30
0.0
 10
191.35342857143
 20
386.02546491512
 30
0.0
  0
SPLINE
  5
E7
330
85
100
AcDbEntity
  8
$DDT_AUDIT_GENERATED_(AD)
  6
Continuous
 62
     7
100
AcDbSpline
210
0.0
220
0.0
230
1.0
 70
     8
 71
     3
 72
    12
 73
     8
 74
     0
 42
0.0000000017479805
 43
0.0000000001
 40
0.0
 40
0.0
 40
0.0
 40
0.0
 40
0.2500000000000001
 40
0.2500000000000001
 40
0.5
 40
0.5
 40
1.0
 40
1.0
 40
1.0
 40
1.0
 10
191.35342857143
 20
386.02546491512
 30
0.0
 10
190.8924373556815
 20
386.0295706274534
 30
0.0
 10
190.4511722931202
 20
386.1908231771584
 30
0.0
 10
189.5697334555246
 20
386.489893561443
 30
0.0
 10
189.1089731041393
 20
386.6385345261751
 30
0.0
 10
187.7348655482994
 20
386.5579415046261
 30
0.0
 10
186.8846470031416
 20
385.9384406012118
 30
0.0
 10
185.9431428571442
 20
386.03740491512
 30
0.0
  0
ARC
  5
E8
330
85
100
AcDbEntity
  8
$DDT_AUDIT_GENERATED_(AD)
  6
Continuous
 62
     7
100
AcDbCircle
 10
187.1051963199
 20
387.05212421
 30
0.0
 40
1.542732477737066
100
AcDbArc
 50
209.4213345966
 51
221.1278593202
  0
SPLINE
  5
E9
330
85
100
AcDbEntity
  8
$DDT_AUDIT_GENERATED_(AD)
  6
Continuous
 62
     7
100
AcDbSpline
210
0.0
220
0.0
230
1.0
 70
     8
 71
     3
 72
    18
 73
    14
 74
     0
 42
0.0000000008437013
 43
0.0000000001
 40
0.0
 40
0.0
 40
0.0
 40
0.0
 40
0.1249999999999999
 40
0.1249999999999999
 40
0.2499999999999999
 40
0.2499999999999999
 40
0.5
 40
0.5
 40
0.75
 40
0.75
 40
0.8750000000000001
 40
0.8750000000000001
 40
1.0
 40
1.0
 40
1.0
 40
1.0
 10
185.76142857143
 20
386.2942906294057
 30
0.0
 10
186.2321738964361
 20
386.2139391651453
 30
0.0
 10
186.7073218859368
 20
386.3111369838107
 30
0.0
 10
187.6194177182634
 20
386.6060121011751
 30
0.0
 10
188.0668999703582
 20
386.7911698905063
 30
0.0
 10
189.5012353897344
 20
386.9334859265494
 30
0.0
 10
190.3743506439162
 20
386.2650634655331
 30
0.0
 10
192.3102583429248
 20
386.2538622248912
 30
0.0
 10
193.1927836613985
 20
386.9288062908146
 30
0.0
 10
194.6253710388074
 20
386.795528133628
 30
0.0
 10
195.0748545246558
 20
386.610716079413
 30
0.0
 10
195.987631998947
 20
386.3143646372639
 30
0.0
 10
196.476280640108
 20
386.2142171052838
 30
0.0
 10
196.9454285714299
 20
386.2942906294057
 30
0.0
  0
ARC
  5
EA
330
85
100
AcDbEntity
  8
$DDT_AUDIT_GENERATED_(AD)
  6
Continuous
 62
     7
100
AcDbCircle
 10
195.6013484385
 20
387.0523451826
 30
0.0
 40
1.54311312268326
100
AcDbArc
 50
318.8735895659
 51
330.5772165173
  0
SPLINE
  5
EB
330
85
100
AcDbEntity
  8
$DDT_AUDIT_GENERATED_(AD)
  6
Continuous
 62
     7
100
AcDbSpline
210
0.0
220
0.0
230
1.0
 70
     8
 71
     3
 72
    16
 73
    12
 74
     0
 42
0.0000000028214351
 43
0.0000000001
 40
0.0
 40
0.0
 40
0.0
 40
0.0
 40
0.2499999999999998
 40
0.2499999999999998
 40
0.3749999999999999
 40
0.3749999999999999
 40
0.5
 40
0.5
 40
0.7500000000000001
 40
0.7500000000000001
 40
1.0
 40
1.0
 40
1.0
 40
1.0
 10
187.9123600000014
 20
385.6423563436914
 30
0.0
 10
188.1945518888415
 20
385.727012217226
 30
0.0
 10
188.4850637877512
 20
385.792975273758
 30
0.0
 10
188.9223940978349
 20
385.7911480073691
 30
0.0
 10
189.0700341542525
 20
385.773676850814
 30
0.0
 10
189.3602472662124
 20
385.7175591730299
 30
0.0
 10
189.5026000070863
 20
385.6793318043273
 30
0.0
 10
189.925931901644
 20
385.5508156020081
 30
0.0
 10
190.2030452415252
 20
385.4464968309238
 30
0.0
 10
190.7676799613286
 20
385.2741372409367
 30
0.0
 10
191.0592002520347
 20
385.2046853212726
 30
0.0
 10
191.35342857143
 20
385.2020677722629
 30
0.0
  0
SPLINE
  5
EC
330
85
100
AcDbEntity
  8
$DDT_AUDIT_GENERATED_(AD)
  6
Continuous
 62
     7
100
AcDbSpline
210
0.0
220
0.0
230
1.0
 70
     8
 71
     3
 72
    16
 73
    12
 74
     0
 42
0.000000002821181
 43
0.0000000001
 40
0.0
 40
0.0
 40
0.0
 40
0.0
 40
0.2500000000000002
 40
0.2500000000000002
 40
0.5000000000000002
 40
0.5000000000000002
 40
0.6250000000000002
 40
0.6250000000000002
 40
0.7500000000000001
 40
0.7500000000000001
 40
1.0
 40
1.0
 40
1.0
 40
1.0
 10
191.35342857143
 20
385.2020677722629
 30
0.0
 10
191.6556950410661
 20
385.2047568312219
 30
0.0
 10
191.9414729345832
 20
385.2747538985582
 30
0.0
 10
192.505116298336
 20
385.446980652304
 30
0.0
 10
192.7825932433522
 20
385.5513802707732
 30
0.0
 10
193.20520170443
 20
385.679590957378
 30
0.0
 10
193.3470823784056
 20
385.7176240667079
 30
0.0
 10
193.635241057472
 20
385.7733989107241
 30
0.0
 10
193.783031604241
 20
385.7912045382411
 30
0.0
 10
194.2270903833707
 20
385.7928719056438
 30
0.0
 10
194.5123426708521
 20
385.7270009603109
 30
0.0
 10
194.79448857143
 20
385.6423563436914
 30
0.0
  0
LINE
  5
ED
330
85
100
AcDbEntity
  8
$DDT_AUDIT_GENERATED_(AD)
  6
Continuous
 62
     7
100
AcDbLine
 10
194.7944885714
 20
385.6423563437
 30
0.0
 11
195.8791428571
 21
385.3169506294
 31
0.0
  0
ARC
  5
EE
330
85
100
AcDbEntity
  8
$DDT_AUDIT_GENERATED_(AD)
  6
Continuous
 62
     7
100
AcDbCircle
 10
194.9649562268
 20
386.560630941
 30
0.0
 40
1.543527749189937
100
AcDbArc
 50
306.3183271193
 51
316.5143162462
  0
SPLINE
  5
EF
330
85
100
AcDbEntity
  8
$DDT_AUDIT_GENERATED_(AD)
  6
Continuous
 62
     7
100
AcDbSpline
210
0.0
220
0.0
230
1.0
 70
     8
 71
     3
 72
    18
 73
    14
 74
     0
 42
0.0000000010082338
 43
0.0000000001
 40
0.0
 40
0.0
 40
0.0
 40
0.0
 40
0.125
 40
0.125
 40
0.25
 40
0.25
 40
0.5
 40
0.5
 40
0.75
 40
0.75
 40
0.875
 40
0.875
 40
1.0
 40
1.0
 40
1.0
 40
1.0
 10
196.0848571428585
 20
385.4984163436914
 30
0.0
 10
195.6975513583992
 20
385.6133862917854
 30
0.0
 10
195.309955428796
 20
385.7284423681364
 30
0.0
 10
194.5341832680307
 20
385.9587267806982
 30
0.0
 10
194.1315622659194
 20
386.0562435950669
 30
0.0
 10
192.930301696726
 20
385.9275694175401
 30
0.0
 10
192.1809864923165
 20
385.4453372617467
 30
0.0
 10
190.5698799370824
 20
385.4269642710553
 30
0.0
 10
189.8366538191656
 20
385.9012284811574
 30
0.0
 10
188.6303411387524
 20
386.0592714970067
 30
0.0
 10
188.2075288842376
 20
385.9690761700828
 30
0.0
 10
187.4143592624878
 20
385.7336267213487
 30
0.0
 10
187.0180326572994
 20
385.6159768240149
 30
0.0
 10
186.6220000000014
 20
385.4984163436914
 30
0.0
  0
ARC
  5
F0
330
85
100
AcDbEntity
  8
$DDT_AUDIT_GENERATED_(AD)
  6
Continuous
 62
     7
100
AcDbCircle
 10
187.7412015931
 20
386.5598381701
 30
0.0
 40
1.542474797047707
100
AcDbArc
 50
223.4821944458
 51
233.6851621887
  0
LINE
  5
F1
330
85
100
AcDbEntity
  8
$DDT_AUDIT_GENERATED_(AD)
  6
Continuous
 62
     7
100
AcDbLine
 10
186.8277142857
 20
385.3169506294
 30
0.0
 11
187.91236
 21
385.6423563437
 31
0.0
  0
SPLINE
  5
F2
330
85
100
AcDbEntity
  8
$DDT_AUDIT_GENERATED_(AD)
  6
Continuous
 62
     7
100
AcDbSpline
210
0.0
220
0.0
230
1.0
 70
     8
 71
     3
 72
    12
 73
     8
 74
     0
 42
0.0000000027515905
 43
0.0000000001
 40
0.0
 40
0.0
 40
0.0
 40
0.0
 40
0.2499999999999999
 40
0.2499999999999999
 40
0.4999999999999998
 40
0.4999999999999998
 40
1.0
 40
1.0
 40
1.0
 40
1.0
 10
187.8477142857157
 20
384.7992020579771
 30
0.0
 10
188.1335906664715
 20
384.8880240600096
 30
0.0
 10
188.4262194239265
 20
384.9609818910946
 30
0.0
 10
189.0210151363646
 20
384.9747096317276
 30
0.0
 10
189.3203452422078
 20
384.9093201493247
 30
0.0
 10
190.1837078726998
 20
384.6526923927738
 30
0.0
 10
190.7390117865959
 20
384.3841281057391
 30
0.0
 10
191.35342857143
 20
384.3786620579772
 30
0.0
  0
SPLINE
  5
F3
330
85
100
AcDbEntity
  8
$DDT_AUDIT_GENERATED_(AD)
  6
Continuous
 62
     7
100
AcDbSpline
210
0.0
220
0.0
230
1.0
 70
     8
 71
     3
 72
    16
 73
    12
 74
     0
 42
0.000000002768353
 43
0.0000000001
 40
0.0
 40
0.0
 40
0.0
 40
0.0
 40
0.2500000000000001
 40
0.2500000000000001
 40
0.5000000000000001
 40
0.5000000000000001
 40
0.6250000000000001
 40
0.6250000000000001
 40
0.7500000000000002
 40
0.7500000000000002
 40
1.0
 40
1.0
 40
1.0
 40
1.0
 10
191.35342857143
 20
384.3786620579772
 30
0.0
 10
191.6623620925182
 20
384.3814104291532
 30
0.0
 10
191.9538632177964
 20
384.4543125184815
 30
0.0
 10
192.5289980292491
 20
384.6317473569673
 30
0.0
 10
192.8122154111649
 20
384.7386990574361
 30
0.0
 10
193.2443415872945
 20
384.8670187826626
 30
0.0
 10
193.389521354681
 20
384.9044530203871
 30
0.0
 10
193.684709892328
 20
384.9568096728526
 30
0.0
 10
193.8369603967751
 20
384.9714610612106
 30
0.0
 10
194.2854385781858
 20
384.9603848784276
 30
0.0
 10
194.5736757998728
 20
384.8878968829015
 30
0.0
 10
194.8591428571442
 20
384.7992020579771
 30
0.0
  0
LINE
  5
F4
330
85
100
AcDbEntity
  8
$DDT_AUDIT_GENERATED_(AD)
  6
Continuous
 62
     7
100
AcDbLine
 10
194.8591428571
 20
384.799202058
 30
0.0
 11
195.1505714286
 21
384.9436049151
 31
0.0
  0
SPLINE
  5
F5
330
85
100
AcDbEntity
  8
$DDT_AUDIT_GENERATED_(AD)
  6
Continuous
 62
     7
100
AcDbSpline
210
0.0
220
0.0
230
1.0
 70
     8
 71
     3
 72
    20
 73
    16
 74
     0
 42
0.0000000012709224
 43
0.0000000001
 40
0.0
 40
0.0
 40
0.0
 40
0.0
 40
0.125
 40
0.125
 40
0.2500000000000001
 40
0.2500000000000001
 40
0.3750000000000001
 40
0.3750000000000001
 40
0.5
 40
0.5
 40
0.75
 40
0.75
 40
0.875
 40
0.875
 40
1.0
 40
1.0
 40
1.0
 40
1.0
 10
195.1505714285728
 20
384.94360491512
 30
0.0
 10
194.8384236357018
 20
385.0489470780852
 30
0.0
 10
194.5242228222076
 20
385.1503580628433
 30
0.0
 10
193.8733062184716
 20
385.2253211094508
 30
0.0
 10
193.5368295248092
 20
385.1750822054343
 30
0.0
 10
192.9005736777222
 20
384.999461137725
 30
0.0
 10
192.5896489373595
 20
384.879930590804
 30
0.0
 10
191.9573940991973
 20
384.6834214754201
 30
0.0
 10
191.6251002688802
 20
384.6039284612131
 30
0.0
 10
190.6399571139206
 20
384.6324845293991
 30
0.0
 10
190.0515019418326
 20
384.9401597702311
 30
0.0
 10
189.1176259793348
 20
385.1847354543138
 30
0.0
 10
188.8019667513174
 20
385.2250830165991
 30
0.0
 10
188.1613885357358
 20
385.1442183867903
 30
0.0
 10
187.8578574712398
 20
385.0453779274307
 30
0.0
 10
187.5562857142871
 20
384.94360491512
 30
0.0
  0
LINE
  5
F6
330
85
100
AcDbEntity
  8
$DDT_AUDIT_GENERATED_(AD)
  6
Continuous
 62
     7
100
AcDbLine
 10
187.5562857143
 20
384.9436049151
 30
0.0
 11
187.8477142857
 21
384.799202058
 31
0.0
  0
CIRCLE
  5
F7
330
85
100
AcDbEntity
  8
$DDT_AUDIT_GENERATED_(AD)
  6
Continuous
 62
     7
100
AcDbCircle
 10
191.35
 20
375.1922392008
 30
0.0
 40
0.9999999999999993
  0
ARC
  5
F8
330
85
100
AcDbEntity
  8
$DDT_AUDIT_GENERATED_(AD)
  6
Continuous
 62
     7
100
AcDbCircle
 10
191.35
 20
387.1922392008
 30
0.0
 40
15.95317725752509
100
AcDbArc
 50
283.4994039494
 51
256.5005960506
  0
SPLINE
  5
FA
330
85
100
AcDbEntity
  8
$DDT_AUDIT_GENERATED_(F9)
  6
Continuous
 62
     7
100
AcDbSpline
210
0.0
220
0.0
230
1.0
 70
    11
 71
     3
 72
    66
 73
    62
 74
     0
 42
0.0000000000749736
 43
0.0000000001
 40
0.0
 40
0.0
 40
0.0
 40
0.0
 40
0.0624999999999998
 40
0.0624999999999998
 40
0.1249999999999997
 40
0.1249999999999997
 40
0.1874999999999996
 40
0.1874999999999996
 40
0.2187499999999996
 40
0.2187499999999996
 40
0.2343749999999996
 40
0.2343749999999996
 40
0.2499999999999996
 40
0.2499999999999996
 40
0.2656249999999996
 40
0.2656249999999996
 40
0.2812499999999997
 40
0.2812499999999997
 40
0.3124999999999996
 40
0.3124999999999996
 40
0.3749999999999996
 40
0.3749999999999996
 40
0.4374999999999997
 40
0.4374999999999997
 40
0.4999999999999997
 40
0.4999999999999997
 40
0.5312499999999997
 40
0.5312499999999997
 40
0.5468749999999997
 40
0.5468749999999997
 40
0.5624999999999997
 40
0.5624999999999997
 40
0.5781249999999996
 40
0.5781249999999996
 40
0.5937499999999996
 40
0.5937499999999996
 40
0.6093749999999996
 40
0.6093749999999996
 40
0.6249999999999994
 40
0.6249999999999994
 40
0.6874999999999996
 40
0.6874999999999996
 40
0.7187499999999996
 40
0.7187499999999996
 40
0.7499999999999996
 40
0.7499999999999996
 40
0.8124999999999997
 40
0.8124999999999997
 40
0.8749999999999998
 40
0.8749999999999998
 40
0.8906249999999998
 40
0.8906249999999998
 40
0.9062499999999999
 40
0.9062499999999999
 40
0.921875
 40
0.921875
 40
0.9375
 40
0.9375
 40
0.9687500000000001
 40
0.9687500000000001
 40
1.0
 40
1.0
 40
1.0
 40
1.0
 10
211.4624015551029
 20
387.1802253359716
 30
0.0
 10
210.8058812676082
 20
384.4925341541929
 30
0.0
 10
209.8788254062698
 20
381.9153024443002
 30
0.0
 10
207.4209638548985
 20
377.0095790059322
 30
0.0
 10
205.851520274296
 20
374.681258623899
 30
0.0
 10
202.2982776908069
 20
370.5094304391275
 30
0.0
 10
200.2946389221498
 20
368.6090485591624
 30
0.0
 10
196.9907716639709
 20
366.1268885860523
 30
0.0
 10
195.8448957578444
 20
365.3558163661168
 30
0.0
 10
194.0632053500764
 20
364.3364330226244
 30
0.0
 10
193.4466476840039
 20
364.0403659510758
 30
0.0
 10
192.1007757501393
 20
363.6577458352899
 30
0.0
 10
191.3840874333286
 20
363.5932093793504
 30
0.0
 10
189.9854951618387
 20
363.7842857630483
 30
0.0
 10
189.3157823182087
 20
364.0259268843296
 30
0.0
 10
188.0704621014285
 20
364.6335440049559
 30
0.0
 10
187.4886155995542
 20
364.9975667261245
 30
0.0
 10
185.74557541639
 20
366.1015023323509
 30
0.0
 10
184.6238946454235
 20
366.9087116636219
 30
0.0
 10
181.3921827430973
 20
369.5329779724773
 30
0.0
 10
179.4632075956151
 20
371.4921141972656
 30
0.0
 10
176.0467166815338
 20
375.8203672355692
 30
0.0
 10
174.5728699812734
 20
378.2305179096269
 30
0.0
 10
172.3119734625618
 20
383.2513376113754
 30
0.0
 10
171.4702919300551
 20
385.8927808051781
 30
0.0
 10
170.6405831992985
 20
389.9712805514282
 30
0.0
 10
170.440585142505
 20
391.3407225840277
 30
0.0
 10
170.2642946714859
 20
393.4101825112489
 30
0.0
 10
170.2273780986638
 20
394.0987964375448
 30
0.0
 10
170.1885776255215
 20
395.4734639247069
 30
0.0
 10
170.1838822424099
 20
396.1595819113752
 30
0.0
 10
170.3643113468068
 20
397.532526351687
 30
0.0
 10
170.5559055592836
 20
398.2336090901211
 30
0.0
 10
171.231643534167
 20
399.4790135146919
 30
0.0
 10
171.7143038381191
 20
400.0186622542777
 30
0.0
 10
172.8145416733446
 20
400.9194530488165
 30
0.0
 10
173.4121761550033
 20
401.2726991931258
 30
0.0
 10
174.6297975651062
 20
401.9386018272646
 30
0.0
 10
175.2470423334464
 20
402.2575083828078
 30
0.0
 10
178.3904431546948
 20
403.7498411250446
 30
0.0
 10
181.0559716880618
 20
404.6481617203989
 30
0.0
 10
185.1192070323638
 20
405.5452594654374
 30
0.0
 10
186.4914580749867
 20
405.7710883094188
 30
0.0
 10
189.275080919163
 20
406.0598840143002
 30
0.0
 10
190.6920117630658
 20
406.12072525481
 30
0.0
 10
194.8778411808685
 20
406.0256592649188
 30
0.0
 10
197.6229992542142
 20
405.6158765741091
 30
0.0
 10
203.0337953472791
 20
404.206123565207
 30
0.0
 10
205.6703998954117
 20
403.2025794955134
 30
0.0
 10
208.7477839004939
 20
401.5743493613753
 30
0.0
 10
209.3600989822883
 20
401.2461821511715
 30
0.0
 10
210.5106470023167
 20
400.4454793283817
 30
0.0
 10
211.0408163303055
 20
399.9759073731956
 30
0.0
 10
211.871837079412
 20
398.8414054822467
 30
0.0
 10
212.1514144785836
 20
398.1862761221357
 30
0.0
 10
212.4647548055005
 20
396.825277964802
 30
0.0
 10
212.5056802620072
 20
396.1293320954383
 30
0.0
 10
212.4985665539061
 20
394.0425717116274
 30
0.0
 10
212.3992503254702
 20
392.6609012718766
 30
0.0
 10
212.0501348610205
 20
389.9100850021215
 30
0.0
 10
211.7906616988502
 20
388.5240709268609
 30
0.0
 10
211.4624015551029
 20
387.1802253359716
 30
0.0
  0
LINE
  5
FC
330
85
100
AcDbEntity
  8
02555038_GEHÄUSE
  6
Continuous
 62
     7
100
AcDbLine
 10
103.6
 20
361.3922392008
 30
0.0
 11
129.1
 21
361.3922392008
 31
0.0
  0
LINE
  5
FD
330
85
100
AcDbEntity
  8
02555038_GEHÄUSE
  6
Continuous
 62
     7
100
AcDbLine
 10
103.35
 20
361.536578069
 30
0.0
 11
103.35
 21
362.1139270373
 31
0.0
  0
LINE
  5
FE
330
85
100
AcDbEntity
  8
02555038_GEHÄUSE
  6
Continuous
 62
     7
100
AcDbLine
 10
103.35
 20
366.3922392008
 30
0.0
 11
102.35
 21
367.3922392008
 31
0.0
  0
LINE
  5
FF
330
85
100
AcDbEntity
  8
02555038_GEHÄUSE
  6
Continuous
 62
     7
100
AcDbLine
 10
103.35
 20
362.1139270373
 30
0.0
 11
103.35
 21
366.3922392008
 31
0.0
  0
LINE
  5
100
330
85
100
AcDbEntity
  8
02555038_GEHÄUSE
  6
Continuous
 62
     7
100
AcDbLine
 10
129.35
 20
362.1139270373
 30
0.0
 11
103.35
 21
362.1139270373
 31
0.0
  0
LINE
  5
101
330
85
100
AcDbEntity
  8
02555038_GEHÄUSE
  6
Continuous
 62
     7
100
AcDbLine
 10
129.35
 20
361.536578069
 30
0.0
 11
129.35
 21
362.1139270373
 31
0.0
  0
LINE
  5
102
330
85
100
AcDbEntity
  8
02555038_GEHÄUSE
  6
Continuous
 62
     7
100
AcDbLine
 10
129.35
 20
366.3922392008
 30
0.0
 11
130.35
 21
367.3922392008
 31
0.0
  0
LINE
  5
103
330
85
100
AcDbEntity
  8
02555038_GEHÄUSE
  6
Continuous
 62
     7
100
AcDbLine
 10
129.35
 20
362.1139270373
 30
0.0
 11
129.35
 21
366.3922392008
 31
0.0
  0
LINE
  5
104
330
85
100
AcDbEntity
  8
02555038_GEHÄUSE
  6
Continuous
 62
     7
100
AcDbLine
 10
103.35
 20
361.5365767681
 30
0.0
 11
103.6
 21
361.3922392008
 31
0.0
  0
LINE
  5
105
330
85
100
AcDbEntity
  8
02555038_GEHÄUSE
  6
Continuous
 62
     7
100
AcDbLine
 10
129.1
 20
361.3922392008
 30
0.0
 11
129.35
 21
361.5365767681
 31
0.0
  0
LINE
  5
106
330
85
100
AcDbEntity
  8
02555038_GEHÄUSE
  6
Continuous
 62
     7
100
AcDbLine
 10
130.35
 20
367.3922392008
 30
0.0
 11
130.35
 21
372.1922392008
 31
0.0
  0
LINE
  5
107
330
85
100
AcDbEntity
  8
02555038_GEHÄUSE
  6
Continuous
 62
     7
100
AcDbLine
 10
102.35
 20
372.1922392008
 30
0.0
 11
102.35
 21
367.3922392008
 31
0.0
  0
CIRCLE
  5
108
330
85
100
AcDbEntity
  8
$DDT_AUDIT_GENERATED_(F9)
  6
Continuous
 62
     7
100
AcDbCircle
 10
41.35
 20
387.1922392008
 30
0.0
 40
16.09675294914351
  0
SPLINE
  5
109
330
85
100
AcDbEntity
  8
$DDT_AUDIT_GENERATED_(F9)
  6
Continuous
 62
     7
100
AcDbSpline
210
0.0
220
0.0
230
1.0
 70
    11
 71
     3
 72
    66
 73
    62
 74
     0
 42
0.0000000000749736
 43
0.0000000001
 40
0.0
 40
0.0
 40
0.0
 40
0.0
 40
0.0624999999999998
 40
0.0624999999999998
 40
0.1249999999999997
 40
0.1249999999999997
 40
0.1874999999999996
 40
0.1874999999999996
 40
0.2187499999999996
 40
0.2187499999999996
 40
0.2343749999999996
 40
0.2343749999999996
 40
0.2499999999999996
 40
0.2499999999999996
 40
0.2656249999999996
 40
0.2656249999999996
 40
0.2812499999999997
 40
0.2812499999999997
 40
0.3124999999999996
 40
0.3124999999999996
 40
0.3749999999999996
 40
0.3749999999999996
 40
0.4374999999999997
 40
0.4374999999999997
 40
0.4999999999999997
 40
0.4999999999999997
 40
0.5312499999999997
 40
0.5312499999999997
 40
0.5468749999999997
 40
0.5468749999999997
 40
0.5624999999999997
 40
0.5624999999999997
 40
0.5781249999999996
 40
0.5781249999999996
 40
0.5937499999999996
 40
0.5937499999999996
 40
0.6093749999999996
 40
0.6093749999999996
 40
0.6249999999999994
 40
0.6249999999999994
 40
0.6874999999999996
 40
0.6874999999999996
 40
0.7187499999999996
 40
0.7187499999999996
 40
0.7499999999999996
 40
0.7499999999999996
 40
0.8124999999999997
 40
0.8124999999999997
 40
0.8749999999999998
 40
0.8749999999999998
 40
0.8906249999999998
 40
0.8906249999999998
 40
0.9062499999999999
 40
0.9062499999999999
 40
0.921875
 40
0.921875
 40
0.9375
 40
0.9375
 40
0.9687500000000001
 40
0.9687500000000001
 40
1.0
 40
1.0
 40
1.0
 40
1.0
 10
61.46240155510285
 20
387.1802253359716
 30
0.0
 10
60.80588126760821
 20
384.4925341541929
 30
0.0
 10
59.87882540626975
 20
381.9153024443002
 30
0.0
 10
57.42096385489847
 20
377.0095790059322
 30
0.0
 10
55.85152027429604
 20
374.6812586238989
 30
0.0
 10
52.29827769080683
 20
370.5094304391274
 30
0.0
 10
50.29463892214977
 20
368.6090485591623
 30
0.0
 10
46.99077166397085
 20
366.1268885860522
 30
0.0
 10
45.84489575784434
 20
365.3558163661167
 30
0.0
 10
44.06320535007639
 20
364.3364330226243
 30
0.0
 10
43.44664768400391
 20
364.0403659510758
 30
0.0
 10
42.10077575013931
 20
363.6577458352899
 30
0.0
 10
41.38408743332857
 20
363.5932093793503
 30
0.0
 10
39.98549516183868
 20
363.7842857630482
 30
0.0
 10
39.31578231820873
 20
364.0259268843295
 30
0.0
 10
38.07046210142852
 20
364.6335440049559
 30
0.0
 10
37.48861559955413
 20
364.9975667261244
 30
0.0
 10
35.74557541639001
 20
366.1015023323508
 30
0.0
 10
34.62389464542353
 20
366.9087116636218
 30
0.0
 10
31.39218274309727
 20
369.5329779724773
 30
0.0
 10
29.46320759561508
 20
371.4921141972655
 30
0.0
 10
26.04671668153383
 20
375.8203672355692
 30
0.0
 10
24.57286998127334
 20
378.2305179096269
 30
0.0
 10
22.31197346256181
 20
383.2513376113753
 30
0.0
 10
21.4702919300551
 20
385.892780805178
 30
0.0
 10
20.64058319929844
 20
389.9712805514281
 30
0.0
 10
20.44058514250499
 20
391.3407225840277
 30
0.0
 10
20.26429467148592
 20
393.4101825112489
 30
0.0
 10
20.22737809866375
 20
394.0987964375448
 30
0.0
 10
20.1885776255215
 20
395.4734639247069
 30
0.0
 10
20.18388224240987
 20
396.1595819113751
 30
0.0
 10
20.36431134680682
 20
397.5325263516869
 30
0.0
 10
20.55590555928362
 20
398.2336090901211
 30
0.0
 10
21.23164353416697
 20
399.4790135146918
 30
0.0
 10
21.71430383811905
 20
400.0186622542777
 30
0.0
 10
22.81454167334455
 20
400.9194530488165
 30
0.0
 10
23.41217615500323
 20
401.2726991931257
 30
0.0
 10
24.62979756510612
 20
401.9386018272646
 30
0.0
 10
25.24704233344638
 20
402.2575083828078
 30
0.0
 10
28.39044315469476
 20
403.7498411250445
 30
0.0
 10
31.05597168806177
 20
404.6481617203988
 30
0.0
 10
35.11920703236378
 20
405.5452594654373
 30
0.0
 10
36.49145807498663
 20
405.7710883094187
 30
0.0
 10
39.27508091916299
 20
406.0598840143002
 30
0.0
 10
40.69201176306582
 20
406.1207252548099
 30
0.0
 10
44.8778411808685
 20
406.0256592649187
 30
0.0
 10
47.62299925421418
 20
405.6158765741091
 30
0.0
 10
53.03379534727909
 20
404.206123565207
 30
0.0
 10
55.67039989541173
 20
403.2025794955133
 30
0.0
 10
58.74778390049389
 20
401.5743493613753
 30
0.0
 10
59.36009898228825
 20
401.2461821511714
 30
0.0
 10
60.51064700231667
 20
400.4454793283816
 30
0.0
 10
61.04081633030552
 20
399.9759073731956
 30
0.0
 10
61.871837079412
 20
398.8414054822467
 30
0.0
 10
62.15141447858358
 20
398.1862761221356
 30
0.0
 10
62.46475480550055
 20
396.825277964802
 30
0.0
 10
62.50568026200722
 20
396.1293320954383
 30
0.0
 10
62.49856655390607
 20
394.0425717116274
 30
0.0
 10
62.39925032547021
 20
392.6609012718766
 30
0.0
 10
62.05013486102052
 20
389.9100850021215
 30
0.0
 10
61.79066169885017
 20
388.5240709268609
 30
0.0
 10
61.46240155510285
 20
387.1802253359716
 30
0.0
  0
CIRCLE
  5
10A
330
85
100
AcDbEntity
  8
$DDT_AUDIT_GENERATED_(AB)
  6
Continuous
 62
     7
100
AcDbCircle
 10
41.35
 20
375.1922392008
 30
0.0
 40
1.000000000000933
  0
LINE
  5
10B
330
85
100
AcDbEntity
  8
$DDT_AUDIT_GENERATED_(AD)
  6
Continuous
 62
     7
100
AcDbLine
 10
47.26726
 20
387.2915934865
 30
0.0
 11
45.6906571429
 21
387.2915934865
 31
0.0
  0
LINE
  5
10C
330
85
100
AcDbEntity
  8
$DDT_AUDIT_GENERATED_(AD)
  6
Continuous
 62
     7
100
AcDbLine
 10
45.6906571429
 20
387.2915934865
 30
0.0
 11
45.6906571429
 21
389.3950049151
 31
0.0
  0
LINE
  5
10D
330
85
100
AcDbEntity
  8
$DDT_AUDIT_GENERATED_(AD)
  6
Continuous
 62
     7
100
AcDbLine
 10
45.6906571429
 20
389.3950049151
 30
0.0
 11
47.1268342857
 21
389.3950049151
 31
0.0
  0
LINE
  5
10E
330
85
100
AcDbEntity
  8
$DDT_AUDIT_GENERATED_(AD)
  6
Continuous
 62
     7
100
AcDbLine
 10
47.1268342857
 20
389.3950049151
 30
0.0
 11
47.1268342857
 21
388.9928763437
 31
0.0
  0
LINE
  5
10F
330
85
100
AcDbEntity
  8
$DDT_AUDIT_GENERATED_(AD)
  6
Continuous
 62
     7
100
AcDbLine
 10
47.1268342857
 20
388.9928763437
 30
0.0
 11
46.2344028571
 21
388.9928763437
 31
0.0
  0
LINE
  5
110
330
85
100
AcDbEntity
  8
$DDT_AUDIT_GENERATED_(AD)
  6
Continuous
 62
     7
100
AcDbLine
 10
46.2344028571
 20
388.9928763437
 30
0.0
 11
46.2344028571
 21
388.6000992008
 31
0.0
  0
LINE
  5
111
330
85
100
AcDbEntity
  8
$DDT_AUDIT_GENERATED_(AD)
  6
Continuous
 62
     7
100
AcDbLine
 10
46.2344028571
 20
388.6000992008
 30
0.0
 11
46.9832114286
 21
388.6000992008
 31
0.0
  0
LINE
  5
112
330
85
100
AcDbEntity
  8
$DDT_AUDIT_GENERATED_(AD)
  6
Continuous
 62
     7
100
AcDbLine
 10
46.9832114286
 20
388.6000992008
 30
0.0
 11
46.9832114286
 21
388.210742058
 31
0.0
  0
LINE
  5
113
330
85
100
AcDbEntity
  8
$DDT_AUDIT_GENERATED_(AD)
  6
Continuous
 62
     7
100
AcDbLine
 10
46.9832114286
 20
388.210742058
 30
0.0
 11
46.2344028571
 21
388.210742058
 31
0.0
  0
LINE
  5
114
330
85
100
AcDbEntity
  8
$DDT_AUDIT_GENERATED_(AD)
  6
Continuous
 62
     7
100
AcDbLine
 10
46.2344028571
 20
388.210742058
 30
0.0
 11
46.2344028571
 21
387.6937134865
 31
0.0
  0
LINE
  5
115
330
85
100
AcDbEntity
  8
$DDT_AUDIT_GENERATED_(AD)
  6
Continuous
 62
     7
100
AcDbLine
 10
46.2344028571
 20
387.6937134865
 30
0.0
 11
47.26726
 21
387.6937134865
 31
0.0
  0
LINE
  5
116
330
85
100
AcDbEntity
  8
$DDT_AUDIT_GENERATED_(AD)
  6
Continuous
 62
     7
100
AcDbLine
 10
47.26726
 20
387.6937134865
 30
0.0
 11
47.26726
 21
387.2915934865
 31
0.0
  0
LINE
  5
117
330
85
100
AcDbEntity
  8
$DDT_AUDIT_GENERATED_(AD)
  6
Continuous
 62
     7
100
AcDbLine
 10
45.0963314286
 20
387.2915934865
 30
0.0
 11
45.0963314286
 21
389.3950049151
 31
0.0
  0
LINE
  5
118
330
85
100
AcDbEntity
  8
$DDT_AUDIT_GENERATED_(AD)
  6
Continuous
 62
     7
100
AcDbLine
 10
45.0963314286
 20
389.3950049151
 30
0.0
 11
44.5491657143
 21
389.3950049151
 31
0.0
  0
LINE
  5
119
330
85
100
AcDbEntity
  8
$DDT_AUDIT_GENERATED_(AD)
  6
Continuous
 62
     7
100
AcDbLine
 10
44.5491657143
 20
389.3950049151
 30
0.0
 11
44.5491657143
 21
388.6192477723
 31
0.0
  0
LINE
  5
11A
330
85
100
AcDbEntity
  8
$DDT_AUDIT_GENERATED_(AD)
  6
Continuous
 62
     7
100
AcDbLine
 10
44.5491657143
 20
388.6192477723
 30
0.0
 11
43.5794285714
 21
388.6192477723
 31
0.0
  0
LINE
  5
11B
330
85
100
AcDbEntity
  8
$DDT_AUDIT_GENERATED_(AD)
  6
Continuous
 62
     7
100
AcDbLine
 10
43.5794285714
 20
388.6192477723
 30
0.0
 11
43.5794285714
 21
389.3950049151
 31
0.0
  0
LINE
  5
11C
330
85
100
AcDbEntity
  8
$DDT_AUDIT_GENERATED_(AD)
  6
Continuous
 62
     7
100
AcDbLine
 10
43.5794285714
 20
389.3950049151
 30
0.0
 11
43.0356914286
 21
389.3950049151
 31
0.0
  0
LINE
  5
11D
330
85
100
AcDbEntity
  8
$DDT_AUDIT_GENERATED_(AD)
  6
Continuous
 62
     7
100
AcDbLine
 10
43.0356914286
 20
389.3950049151
 30
0.0
 11
43.0356914286
 21
387.2915934865
 31
0.0
  0
LINE
  5
11E
330
85
100
AcDbEntity
  8
$DDT_AUDIT_GENERATED_(AD)
  6
Continuous
 62
     7
100
AcDbLine
 10
43.0356914286
 20
387.2915934865
 30
0.0
 11
43.5794285714
 21
387.2915934865
 31
0.0
  0
LINE
  5
11F
330
85
100
AcDbEntity
  8
$DDT_AUDIT_GENERATED_(AD)
  6
Continuous
 62
     7
100
AcDbLine
 10
43.5794285714
 20
387.2915934865
 30
0.0
 11
43.5794285714
 21
388.1852077723
 31
0.0
  0
LINE
  5
120
330
85
100
AcDbEntity
  8
$DDT_AUDIT_GENERATED_(AD)
  6
Continuous
 62
     7
100
AcDbLine
 10
43.5794285714
 20
388.1852077723
 30
0.0
 11
44.5491657143
 21
388.1852077723
 31
0.0
  0
LINE
  5
121
330
85
100
AcDbEntity
  8
$DDT_AUDIT_GENERATED_(AD)
  6
Continuous
 62
     7
100
AcDbLine
 10
44.5491657143
 20
388.1852077723
 30
0.0
 11
44.5491657143
 21
387.2915934865
 31
0.0
  0
LINE
  5
122
330
85
100
AcDbEntity
  8
$DDT_AUDIT_GENERATED_(AD)
  6
Continuous
 62
     7
100
AcDbLine
 10
44.5491657143
 20
387.2915934865
 30
0.0
 11
45.0963314286
 21
387.2915934865
 31
0.0
  0
SPLINE
  5
123
330
85
100
AcDbEntity
  8
$DDT_AUDIT_GENERATED_(AD)
  6
Continuous
 62
     7
100
AcDbSpline
210
0.0
220
0.0
230
1.0
 70
     8
 71
     3
 72
    18
 73
    14
 74
     0
 42
0.0000000043511661
 43
0.0000000001
 40
0.0
 40
0.0
 40
0.0
 40
0.0
 40
0.125
 40
0.125
 40
0.25
 40
0.25
 40
0.5
 40
0.5
 40
0.75
 40
0.75
 40
0.875
 40
0.875
 40
1.0
 40
1.0
 40
1.0
 40
1.0
 10
42.34758919086738
 20
389.0738795659549
 30
0.0
 10
42.41280314651623
 20
389.0035191660431
 30
0.0
 10
42.46892604082518
 20
388.9259013391651
 30
0.0
 10
42.55953624522716
 20
388.7588935430016
 30
0.0
 10
42.59428816850401
 20
388.6683062017697
 30
0.0
 10
42.65871924969118
 20
388.391376851121
 30
0.0
 10
42.64898824368414
 20
388.1933825296662
 30
0.0
 10
42.52667856538253
 20
387.8317074724242
 30
0.0
 10
42.41635864187253
 20
387.6699742069188
 30
0.0
 10
42.2066197466445
 20
387.4783032967096
 30
0.0
 10
42.1280616993782
 20
387.4217343059231
 30
0.0
 10
41.96341225442397
 20
387.3282578717364
 30
0.0
 10
41.87696726368333
 20
387.2907099508527
 30
0.0
 10
41.7866114285728
 20
387.2618849151199
 30
0.0
  0
SPLINE
  5
124
330
85
100
AcDbEntity
  8
$DDT_AUDIT_GENERATED_(AD)
  6
Continuous
 62
     7
100
AcDbSpline
210
0.0
220
0.0
230
1.0
 70
     8
 71
     3
 72
    12
 73
     8
 74
     0
 42
0.000000002461307
 43
0.0000000001
 40
0.0
 40
0.0
 40
0.0
 40
0.0
 40
0.5
 40
0.5
 40
0.75
 40
0.75
 40
1.0
 40
1.0
 40
1.0
 40
1.0
 10
41.7866114285728
 20
387.2618849151199
 30
0.0
 10
41.1733228428552
 20
387.0662430040881
 30
0.0
 10
40.42278084201181
 20
387.3221215884594
 30
0.0
 10
40.01850270526419
 20
388.2027088152454
 30
0.0
 10
40.03174075477217
 20
388.5547139062821
 30
0.0
 10
40.3339696970904
 20
389.1192691219602
 30
0.0
 10
40.60774171550788
 20
389.3272091162327
 30
0.0
 10
40.91338857142994
 20
389.4247134865485
 30
0.0
  0
ARC
  5
125
330
85
100
AcDbEntity
  8
$DDT_AUDIT_GENERATED_(AD)
  6
Continuous
 62
     7
100
AcDbCircle
 10
41.3483536148
 20
388.095934351
 30
0.0
 40
1.398158996687848
100
AcDbArc
 50
44.383060619
 51
108.1254383517
  0
SPLINE
  5
126
330
85
100
AcDbEntity
  8
$DDT_AUDIT_GENERATED_(AD)
  6
Continuous
 62
     7
100
AcDbSpline
210
0.0
220
0.0
230
1.0
 70
     8
 71
     3
 72
    16
 73
    12
 74
     0
 42
0.0000000085508573
 43
0.0000000001
 40
0.0
 40
0.0
 40
0.0
 40
0.0
 40
0.2499999999999997
 40
0.2499999999999997
 40
0.3749999999999997
 40
0.3749999999999997
 40
0.4999999999999998
 40
0.4999999999999998
 40
0.7499999999999999
 40
0.7499999999999999
 40
1.0
 40
1.0
 40
1.0
 40
1.0
 10
40.63191142857281
 20
388.3432992008342
 30
0.0
 10
40.63204027732809
 20
388.4400763295704
 30
0.0
 10
40.64432062444638
 20
388.538297747098
 30
0.0
 10
40.69233590011638
 20
388.6746812536645
 30
0.0
 10
40.71342201978272
 20
388.71830506389
 30
0.0
 10
40.76198591501079
 20
388.8028601356522
 30
0.0
 10
40.78813966419306
 20
388.8438120968476
 30
0.0
 10
40.88586050680789
 20
388.9530375166028
 30
0.0
 10
40.97327886509895
 20
389.0018455847265
 30
0.0
 10
41.15555094014801
 20
389.0641409661758
 30
0.0
 10
41.25341223984383
 20
389.0765198901693
 30
0.0
 10
41.35000000000137
 20
389.0738763436913
 30
0.0
  0
ARC
  5
127
330
85
100
AcDbEntity
  8
$DDT_AUDIT_GENERATED_(AD)
  6
Continuous
 62
     7
100
AcDbCircle
 10
41.3679695573
 20
388.3733516293
 30
0.0
 40
0.7007551501621997
100
AcDbArc
 50
357.5420722041
 51
91.4694043435
  0
SPLINE
  5
128
330
85
100
AcDbEntity
  8
$DDT_AUDIT_GENERATED_(AD)
  6
Continuous
 62
     7
100
AcDbSpline
210
0.0
220
0.0
230
1.0
 70
     8
 71
     3
 72
    16
 73
    12
 74
     0
 42
0.0000000085508692
 43
0.0000000001
 40
0.0
 40
0.0
 40
0.0
 40
0.0
 40
0.2499999999999999
 40
0.2499999999999999
 40
0.3749999999999998
 40
0.3749999999999998
 40
0.4999999999999998
 40
0.4999999999999998
 40
0.7499999999999999
 40
0.7499999999999999
 40
1.0
 40
1.0
 40
1.0
 40
1.0
 10
42.06808000000137
 20
388.3432992008342
 30
0.0
 10
42.06795112484154
 20
388.2465022398709
 30
0.0
 10
42.05566212161606
 20
388.1482645696066
 30
0.0
 10
42.00765535007929
 20
388.011906414421
 30
0.0
 10
41.98655522054917
 20
387.9682529284472
 30
0.0
 10
41.93799046085435
 20
387.8837003999934
 30
0.0
 10
41.91183241631642
 20
387.8427408385141
 30
0.0
 10
41.81401305374383
 20
387.7334500676377
 30
0.0
 10
41.72666686936556
 20
387.6847307347346
 30
0.0
 10
41.5444390056558
 20
387.6224589182134
 30
0.0
 10
41.44653868535128
 20
387.6100798546458
 30
0.0
 10
41.35000000000137
 20
387.6127220579771
 30
0.0
  0
SPLINE
  5
129
330
85
100
AcDbEntity
  8
$DDT_AUDIT_GENERATED_(AD)
  6
Continuous
 62
     7
100
AcDbSpline
210
0.0
220
0.0
230
1.0
 70
     8
 71
     3
 72
    16
 73
    12
 74
     0
 42
0.0000000085508699
 43
0.0000000001
 40
0.0
 40
0.0
 40
0.0
 40
0.0
 40
0.25
 40
0.25
 40
0.5
 40
0.5
 40
0.625
 40
0.625
 40
0.75
 40
0.75
 40
1.0
 40
1.0
 40
1.0
 40
1.0
 10
41.35000000000137
 20
387.6127220579771
 30
0.0
 10
41.25300235984263
 20
387.6100672933403
 30
0.0
 10
41.15538609074923
 20
387.6223988667107
 30
0.0
 10
40.97192655201246
 20
387.6853302136433
 30
0.0
 10
40.88449295029285
 20
387.7347869747863
 30
0.0
 10
40.78785826083764
 20
387.8432481730476
 30
0.0
 10
40.7612570694562
 20
387.8849219857985
 30
0.0
 10
40.71313579708501
 20
387.9688686950981
 30
0.0
 10
40.69211756879297
 20
388.0123420815827
 30
0.0
 10
40.64384109069781
 20
388.1500504142553
 30
0.0
 10
40.63203893699695
 20
388.2475287826261
 30
0.0
 10
40.63191142857281
 20
388.3432992008342
 30
0.0
  0
ARC
  5
12A
330
85
100
AcDbEntity
  8
$DDT_AUDIT_GENERATED_(AD)
  6
Continuous
 62
     7
100
AcDbCircle
 10
39.0926206081
 20
388.7149023623
 30
0.0
 40
0.6207041686407464
100
AcDbArc
 50
292.6617161169
 51
1.9644010413
  0
SPLINE
  5
12B
330
85
100
AcDbEntity
  8
$DDT_AUDIT_GENERATED_(AD)
  6
Continuous
 62
     7
100
AcDbSpline
210
0.0
220
0.0
230
1.0
 70
     8
 71
     3
 72
    18
 73
    14
 74
     0
 42
0.0000000086983524
 43
0.0000000001
 40
0.0
 40
0.0
 40
0.0
 40
0.0
 40
0.249999999999999
 40
0.249999999999999
 40
0.3749999999999985
 40
0.3749999999999985
 40
0.4999999999999984
 40
0.4999999999999984
 40
0.6249999999999983
 40
0.6249999999999983
 40
0.7499999999999989
 40
0.7499999999999989
 40
1.0
 40
1.0
 40
1.0
 40
1.0
 10
39.71296000000137
 20
388.7361792008342
 30
0.0
 10
39.71280482656467
 20
388.8325246635371
 30
0.0
 10
39.69641417397195
 20
388.9287662333364
 30
0.0
 10
39.63597331082786
 20
389.0585468266511
 30
0.0
 10
39.61044368525663
 20
389.0987249327757
 30
0.0
 10
39.55441636656888
 20
389.1762335016855
 30
0.0
 10
39.52283078274299
 20
389.2126040193285
 30
0.0
 10
39.44923633075523
 20
389.2722959677951
 30
0.0
 10
39.4070021802191
 20
389.296515826247
 30
0.0
 10
39.32064441418566
 20
389.3362508465555
 30
0.0
 10
39.27583497494054
 20
389.3519166687693
 30
0.0
 10
39.13722282777338
 20
389.388129769234
 30
0.0
 10
39.0416531030047
 20
389.3972205303746
 30
0.0
 10
38.9458257142871
 20
389.3950049151199
 30
0.0
  0
LINE
  5
12C
330
85
100
AcDbEntity
  8
$DDT_AUDIT_GENERATED_(AD)
  6
Continuous
 62
     7
100
AcDbLine
 10
38.9458257143
 20
389.3950049151
 30
0.0
 11
37.9257657143
 21
389.3950049151
 31
0.0
  0
LINE
  5
12D
330
85
100
AcDbEntity
  8
$DDT_AUDIT_GENERATED_(AD)
  6
Continuous
 62
     7
100
AcDbLine
 10
37.9257657143
 20
389.3950049151
 30
0.0
 11
37.9257657143
 21
387.2915934865
 31
0.0
  0
LINE
  5
12E
330
85
100
AcDbEntity
  8
$DDT_AUDIT_GENERATED_(AD)
  6
Continuous
 62
     7
100
AcDbLine
 10
37.9257657143
 20
387.2915934865
 30
0.0
 11
38.48428
 21
387.2915934865
 31
0.0
  0
LINE
  5
12F
330
85
100
AcDbEntity
  8
$DDT_AUDIT_GENERATED_(AD)
  6
Continuous
 62
     7
100
AcDbLine
 10
38.48428
 20
387.2915934865
 30
0.0
 11
38.48428
 21
388.9929192008
 31
0.0
  0
LINE
  5
130
330
85
100
AcDbEntity
  8
$DDT_AUDIT_GENERATED_(AD)
  6
Continuous
 62
     7
100
AcDbLine
 10
38.48428
 20
388.9929192008
 30
0.0
 11
38.8460885714
 21
388.9929192008
 31
0.0
  0
SPLINE
  5
131
330
85
100
AcDbEntity
  8
$DDT_AUDIT_GENERATED_(AD)
  6
Continuous
 62
     7
100
AcDbSpline
210
0.0
220
0.0
230
1.0
 70
     8
 71
     3
 72
    12
 73
     8
 74
     0
 42
0.0000000187149548
 43
0.0000000001
 40
0.0
 40
0.0
 40
0.0
 40
0.0
 40
0.2500000000000003
 40
0.2500000000000003
 40
0.5000000000000007
 40
0.5000000000000007
 40
1.0
 40
1.0
 40
1.0
 40
1.0
 10
38.84608857142996
 20
388.9929192008343
 30
0.0
 10
38.89016140692124
 20
388.9941534719323
 30
0.0
 10
38.93385872678893
 20
388.9884353449934
 30
0.0
 10
39.01698722708309
 20
388.9588769623108
 30
0.0
 10
39.05585990290756
 20
388.9358886488339
 30
0.0
 10
39.14142435183197
 20
388.8359400682764
 30
0.0
 10
39.16729761189726
 20
388.7466774689913
 30
0.0
 10
39.16741428571567
 20
388.6584020579771
 30
0.0
  0
SPLINE
  5
132
330
85
100
AcDbEntity
  8
$DDT_AUDIT_GENERATED_(AD)
  6
Continuous
 62
     7
100
AcDbSpline
210
0.0
220
0.0
230
1.0
 70
     8
 71
     3
 72
    12
 73
     8
 74
     0
 42
0.0000000197255609
 43
0.0000000001
 40
0.0
 40
0.0
 40
0.0
 40
0.0
 40
0.2499999999999996
 40
0.2499999999999996
 40
0.4999999999999992
 40
0.4999999999999992
 40
1.0
 40
1.0
 40
1.0
 40
1.0
 10
39.16741428571567
 20
388.6584020579771
 30
0.0
 10
39.16735942820115
 20
388.6168968624987
 30
0.0
 10
39.16261088622203
 20
388.5750782185324
 30
0.0
 10
39.13796328187033
 20
388.4966077043059
 30
0.0
 10
39.11855699737652
 20
388.458931619357
 30
0.0
 10
39.04317025850476
 20
388.3586876431876
 30
0.0
 10
38.95779634407403
 20
388.3278094899031
 30
0.0
 10
38.87536000000137
 20
388.3241077722628
 30
0.0
  0
LINE
  5
133
330
85
100
AcDbEntity
  8
$DDT_AUDIT_GENERATED_(AD)
  6
Continuous
 62
     7
100
AcDbLine
 10
38.87536
 20
388.3241077723
 30
0.0
 11
38.5544885714
 21
388.3241077723
 31
0.0
  0
LINE
  5
134
330
85
100
AcDbEntity
  8
$DDT_AUDIT_GENERATED_(AD)
  6
Continuous
 62
     7
100
AcDbLine
 10
38.5544885714
 20
388.3241077723
 30
0.0
 11
39.3268342857
 21
387.2915934865
 31
0.0
  0
LINE
  5
135
330
85
100
AcDbEntity
  8
$DDT_AUDIT_GENERATED_(AD)
  6
Continuous
 62
     7
100
AcDbLine
 10
39.3268342857
 20
387.2915934865
 30
0.0
 11
40.0193971429
 21
387.2915934865
 31
0.0
  0
LINE
  5
136
330
85
100
AcDbEntity
  8
$DDT_AUDIT_GENERATED_(AD)
  6
Continuous
 62
     7
100
AcDbLine
 10
40.0193971429
 20
387.2915934865
 30
0.0
 11
39.3149542857
 21
388.1355192008
 31
0.0
  0
LINE
  5
137
330
85
100
AcDbEntity
  8
$DDT_AUDIT_GENERATED_(AD)
  6
Continuous
 62
     7
100
AcDbLine
 10
39.3149542857
 20
388.1355192008
 30
0.0
 11
39.3317714286
 21
388.1421192008
 31
0.0
  0
ARC
  5
138
330
85
100
AcDbEntity
  8
$DDT_AUDIT_GENERATED_(AD)
  6
Continuous
 62
     7
100
AcDbCircle
 10
36.4783596162
 20
389.3062220529
 30
0.0
 40
2.076386375371539
100
AcDbArc
 50
270.0458954541
 51
298.5079893125
  0
LINE
  5
139
330
85
100
AcDbEntity
  8
$DDT_AUDIT_GENERATED_(AD)
  6
Continuous
 62
     7
100
AcDbLine
 10
37.46938
 20
387.4815963437
 30
0.0
 11
37.46938
 21
388.3432992008
 31
0.0
  0
LINE
  5
13A
330
85
100
AcDbEntity
  8
$DDT_AUDIT_GENERATED_(AD)
  6
Continuous
 62
     7
100
AcDbLine
 10
37.46938
 20
388.3432992008
 30
0.0
 11
36.9076857143
 21
388.3432992008
 31
0.0
  0
LINE
  5
13B
330
85
100
AcDbEntity
  8
$DDT_AUDIT_GENERATED_(AD)
  6
Continuous
 62
     7
100
AcDbLine
 10
36.9076857143
 20
388.3432992008
 30
0.0
 11
36.9076857143
 21
387.7256334865
 31
0.0
  0
ARC
  5
13C
330
85
100
AcDbEntity
  8
$DDT_AUDIT_GENERATED_(AD)
  6
Continuous
 62
     7
100
AcDbCircle
 10
36.4385812975
 20
388.6853394013
 30
0.0
 40
1.068220200513577
100
AcDbArc
 50
269.9999304086
 51
296.0493926514
  0
SPLINE
  5
13D
330
85
100
AcDbEntity
  8
$DDT_AUDIT_GENERATED_(AD)
  6
Continuous
 62
     7
100
AcDbSpline
210
0.0
220
0.0
230
1.0
 70
     8
 71
     3
 72
    14
 73
    10
 74
     0
 42
0.0000000093689161
 43
0.0000000001
 40
0.0
 40
0.0
 40
0.0
 40
0.0
 40
0.25
 40
0.25
 40
0.5
 40
0.5
 40
0.75
 40
0.75
 40
1.0
 40
1.0
 40
1.0
 40
1.0
 10
36.43858000000137
 20
387.6171192008342
 30
0.0
 10
36.34999301816036
 20
387.6141901819595
 30
0.0
 10
36.2605541135213
 20
387.6301378899094
 30
0.0
 10
36.09920075479146
 20
387.7065257084239
 30
0.0
 10
36.0291402102358
 20
387.7661031453935
 30
0.0
 10
35.93590882264394
 20
387.9142677976664
 30
0.0
 10
35.9005172807838
 20
387.9966778212625
 30
0.0
 10
35.85638930882995
 20
388.1663778557198
 30
0.0
 10
35.84820786996373
 20
388.255298217594
 30
0.0
 10
35.84811142857284
 20
388.3432992008342
 30
0.0
  0
ARC
  5
13E
330
85
100
AcDbEntity
  8
$DDT_AUDIT_GENERATED_(AD)
  6
Continuous
 62
     7
100
AcDbCircle
 10
36.5355227566
 20
388.3846245018
 30
0.0
 40
0.6886523901209756
100
AcDbArc
 50
83.979990143
 51
183.4403259994
  0
ARC
  5
13F
330
85
100
AcDbEntity
  8
$DDT_AUDIT_GENERATED_(AD)
  6
Continuous
 62
     7
100
AcDbCircle
 10
36.6060710271
 20
387.6232222666
 30
0.0
 40
1.446257903840335
100
AcDbArc
 50
56.7663154825
 51
89.9336546194
  0
LINE
  5
140
330
85
100
AcDbEntity
  8
$DDT_AUDIT_GENERATED_(AD)
  6
Continuous
 62
     7
100
AcDbLine
 10
37.3987
 20
388.8329334865
 30
0.0
 11
37.3987
 21
389.2466249151
 31
0.0
  0
ARC
  5
141
330
85
100
AcDbEntity
  8
$DDT_AUDIT_GENERATED_(AD)
  6
Continuous
 62
     7
100
AcDbCircle
 10
36.4791715248
 20
387.3397498292
 30
0.0
 40
2.117003828487424
100
AcDbArc
 50
64.2558231817
 51
89.9769590636
  0
SPLINE
  5
142
330
85
100
AcDbEntity
  8
$DDT_AUDIT_GENERATED_(AD)
  6
Continuous
 62
     7
100
AcDbSpline
210
0.0
220
0.0
230
1.0
 70
     8
 71
     3
 72
    14
 73
    10
 74
     0
 42
0.0000000026027025
 43
0.0000000001
 40
0.0
 40
0.0
 40
0.0
 40
0.0
 40
0.25
 40
0.25
 40
0.5
 40
0.5
 40
0.75
 40
0.75
 40
1.0
 40
1.0
 40
1.0
 40
1.0
 10
36.48002285714426
 20
389.4567534865485
 30
0.0
 10
36.16946571097677
 20
389.4644232074058
 30
0.0
 10
35.84039342654273
 20
389.3951063660646
 30
0.0
 10
35.38373719655299
 20
388.9780051897373
 30
0.0
 10
35.26833720330961
 20
388.6596465337646
 30
0.0
 10
35.26618154256314
 20
388.0336278196986
 30
0.0
 10
35.37954444580117
 20
387.7139626697041
 30
0.0
 10
35.84075050505003
 20
387.2896379598886
 30
0.0
 10
36.16976156488763
 20
387.2221739294342
 30
0.0
 10
36.48002285714426
 20
387.2298363436914
 30
0.0
  0
SPLINE
  5
143
330
85
100
AcDbEntity
  8
$DDT_AUDIT_GENERATED_(AD)
  6
Continuous
 62
     7
100
AcDbSpline
210
0.0
220
0.0
230
1.0
 70
     8
 71
     3
 72
    12
 73
     8
 74
     0
 42
0.0000000017476393
 43
0.0000000001
 40
0.0
 40
0.0
 40
0.0
 40
0.0
 40
0.2499999999999998
 40
0.2499999999999998
 40
0.4999999999999998
 40
0.4999999999999998
 40
1.0
 40
1.0
 40
1.0
 40
1.0
 10
46.76371428571563
 20
386.03740491512
 30
0.0
 10
46.29684139825373
 20
385.9883305109483
 30
0.0
 10
45.83295854217757
 20
386.1210286325522
 30
0.0
 10
44.94663523029838
 20
386.4181930799581
 30
0.0
 10
44.50725984655161
 20
386.5890402530818
 30
0.0
 10
43.10086787670687
 20
386.6597832348853
 30
0.0
 10
42.26315680847274
 20
386.0335672006196
 30
0.0
 10
41.35342857142994
 20
386.02546491512
 30
0.0
  0
SPLINE
  5
144
330
85
100
AcDbEntity
  8
$DDT_AUDIT_GENERATED_(AD)
  6
Continuous
 62
     7
100
AcDbSpline
210
0.0
220
0.0
230
1.0
 70
     8
 71
     3
 72
    12
 73
     8
 74
     0
 42
0.0000000017479805
 43
0.0000000001
 40
0.0
 40
0.0
 40
0.0
 40
0.0
 40
0.2500000000000001
 40
0.2500000000000001
 40
0.5
 40
0.5
 40
1.0
 40
1.0
 40
1.0
 40
1.0
 10
41.35342857142994
 20
386.02546491512
 30
0.0
 10
40.8924373556815
 20
386.0295706274534
 30
0.0
 10
40.45117229312016
 20
386.1908231771583
 30
0.0
 10
39.56973345552463
 20
386.4898935614429
 30
0.0
 10
39.10897310413932
 20
386.6385345261751
 30
0.0
 10
37.73486554829941
 20
386.557941504626
 30
0.0
 10
36.8846470031416
 20
385.9384406012118
 30
0.0
 10
35.94314285714425
 20
386.03740491512
 30
0.0
  0
ARC
  5
145
330
85
100
AcDbEntity
  8
$DDT_AUDIT_GENERATED_(AD)
  6
Continuous
 62
     7
100
AcDbCircle
 10
37.1051963199
 20
387.05212421
 30
0.0
 40
1.542732477737054
100
AcDbArc
 50
209.4213345966
 51
221.1278593202
  0
SPLINE
  5
146
330
85
100
AcDbEntity
  8
$DDT_AUDIT_GENERATED_(AD)
  6
Continuous
 62
     7
100
AcDbSpline
210
0.0
220
0.0
230
1.0
 70
     8
 71
     3
 72
    18
 73
    14
 74
     0
 42
0.0000000008437013
 43
0.0000000001
 40
0.0
 40
0.0
 40
0.0
 40
0.0
 40
0.1249999999999999
 40
0.1249999999999999
 40
0.2499999999999999
 40
0.2499999999999999
 40
0.5
 40
0.5
 40
0.75
 40
0.75
 40
0.8750000000000001
 40
0.8750000000000001
 40
1.0
 40
1.0
 40
1.0
 40
1.0
 10
35.76142857142998
 20
386.2942906294056
 30
0.0
 10
36.23217389643607
 20
386.2139391651453
 30
0.0
 10
36.70732188593681
 20
386.3111369838107
 30
0.0
 10
37.61941771826337
 20
386.606012101175
 30
0.0
 10
38.06689997035824
 20
386.7911698905062
 30
0.0
 10
39.5012353897344
 20
386.9334859265493
 30
0.0
 10
40.37435064391615
 20
386.2650634655331
 30
0.0
 10
42.31025834292473
 20
386.2538622248911
 30
0.0
 10
43.19278366139853
 20
386.9288062908146
 30
0.0
 10
44.62537103880737
 20
386.795528133628
 30
0.0
 10
45.07485452465583
 20
386.6107160794129
 30
0.0
 10
45.98763199894701
 20
386.3143646372638
 30
0.0
 10
46.47628064010799
 20
386.2142171052837
 30
0.0
 10
46.94542857142991
 20
386.2942906294057
 30
0.0
  0
ARC
  5
147
330
85
100
AcDbEntity
  8
$DDT_AUDIT_GENERATED_(AD)
  6
Continuous
 62
     7
100
AcDbCircle
 10
45.6013484385
 20
387.0523451826
 30
0.0
 40
1.543113122683281
100
AcDbArc
 50
318.8735895659
 51
330.5772165173
  0
SPLINE
  5
148
330
85
100
AcDbEntity
  8
$DDT_AUDIT_GENERATED_(AD)
  6
Continuous
 62
     7
100
AcDbSpline
210
0.0
220
0.0
230
1.0
 70
     8
 71
     3
 72
    16
 73
    12
 74
     0
 42
0.0000000028214351
 43
0.0000000001
 40
0.0
 40
0.0
 40
0.0
 40
0.0
 40
0.2499999999999998
 40
0.2499999999999998
 40
0.3749999999999999
 40
0.3749999999999999
 40
0.5
 40
0.5
 40
0.7500000000000001
 40
0.7500000000000001
 40
1.0
 40
1.0
 40
1.0
 40
1.0
 10
37.91236000000136
 20
385.6423563436913
 30
0.0
 10
38.19455188884145
 20
385.7270122172259
 30
0.0
 10
38.48506378775117
 20
385.792975273758
 30
0.0
 10
38.92239409783492
 20
385.791148007369
 30
0.0
 10
39.07003415425242
 20
385.7736768508139
 30
0.0
 10
39.3602472662124
 20
385.7175591730299
 30
0.0
 10
39.50260000708631
 20
385.6793318043273
 30
0.0
 10
39.92593190164398
 20
385.550815602008
 30
0.0
 10
40.2030452415252
 20
385.4464968309237
 30
0.0
 10
40.76767996132853
 20
385.2741372409367
 30
0.0
 10
41.05920025203473
 20
385.2046853212726
 30
0.0
 10
41.35342857142994
 20
385.2020677722628
 30
0.0
  0
SPLINE
  5
149
330
85
100
AcDbEntity
  8
$DDT_AUDIT_GENERATED_(AD)
  6
Continuous
 62
     7
100
AcDbSpline
210
0.0
220
0.0
230
1.0
 70
     8
 71
     3
 72
    16
 73
    12
 74
     0
 42
0.000000002821181
 43
0.0000000001
 40
0.0
 40
0.0
 40
0.0
 40
0.0
 40
0.2500000000000002
 40
0.2500000000000002
 40
0.5000000000000002
 40
0.5000000000000002
 40
0.6250000000000002
 40
0.6250000000000002
 40
0.7500000000000001
 40
0.7500000000000001
 40
1.0
 40
1.0
 40
1.0
 40
1.0
 10
41.35342857142994
 20
385.2020677722628
 30
0.0
 10
41.65569504106605
 20
385.2047568312219
 30
0.0
 10
41.94147293458321
 20
385.2747538985581
 30
0.0
 10
42.50511629833599
 20
385.4469806523039
 30
0.0
 10
42.78259324335221
 20
385.5513802707732
 30
0.0
 10
43.20520170442997
 20
385.679590957378
 30
0.0
 10
43.34708237840561
 20
385.7176240667078
 30
0.0
 10
43.63524105747204
 20
385.773398910724
 30
0.0
 10
43.78303160424095
 20
385.791204538241
 30
0.0
 10
44.22709038337064
 20
385.7928719056437
 30
0.0
 10
44.51234267085211
 20
385.7270009603109
 30
0.0
 10
44.79448857142992
 20
385.6423563436913
 30
0.0
  0
LINE
  5
14A
330
85
100
AcDbEntity
  8
$DDT_AUDIT_GENERATED_(AD)
  6
Continuous
 62
     7
100
AcDbLine
 10
44.7944885714
 20
385.6423563437
 30
0.0
 11
45.8791428571
 21
385.3169506294
 31
0.0
  0
ARC
  5
14B
330
85
100
AcDbEntity
  8
$DDT_AUDIT_GENERATED_(AD)
  6
Continuous
 62
     7
100
AcDbCircle
 10
44.9649562268
 20
386.560630941
 30
0.0
 40
1.543527749189937
100
AcDbArc
 50
306.3183271193
 51
316.5143162462
  0
SPLINE
  5
14C
330
85
100
AcDbEntity
  8
$DDT_AUDIT_GENERATED_(AD)
  6
Continuous
 62
     7
100
AcDbSpline
210
0.0
220
0.0
230
1.0
 70
     8
 71
     3
 72
    18
 73
    14
 74
     0
 42
0.0000000010082338
 43
0.0000000001
 40
0.0
 40
0.0
 40
0.0
 40
0.0
 40
0.125
 40
0.125
 40
0.25
 40
0.25
 40
0.5
 40
0.5
 40
0.75
 40
0.75
 40
0.875
 40
0.875
 40
1.0
 40
1.0
 40
1.0
 40
1.0
 10
46.0848571428585
 20
385.4984163436914
 30
0.0
 10
45.69755135839916
 20
385.6133862917854
 30
0.0
 10
45.30995542879602
 20
385.7284423681364
 30
0.0
 10
44.53418326803072
 20
385.9587267806981
 30
0.0
 10
44.1315622659194
 20
386.0562435950668
 30
0.0
 10
42.930301696726
 20
385.92756941754
 30
0.0
 10
42.18098649231646
 20
385.4453372617465
 30
0.0
 10
40.56987993708235
 20
385.4269642710553
 30
0.0
 10
39.83665381916563
 20
385.9012284811573
 30
0.0
 10
38.63034113875241
 20
386.0592714970066
 30
0.0
 10
38.20752888423765
 20
385.9690761700827
 30
0.0
 10
37.41435926248782
 20
385.7336267213486
 30
0.0
 10
37.01803265729944
 20
385.6159768240148
 30
0.0
 10
36.62200000000138
 20
385.4984163436914
 30
0.0
  0
ARC
  5
14D
330
85
100
AcDbEntity
  8
$DDT_AUDIT_GENERATED_(AD)
  6
Continuous
 62
     7
100
AcDbCircle
 10
37.7412015931
 20
386.5598381701
 30
0.0
 40
1.542474797046334
100
AcDbArc
 50
223.4821944458
 51
233.6851621887
  0
LINE
  5
14E
330
85
100
AcDbEntity
  8
$DDT_AUDIT_GENERATED_(AD)
  6
Continuous
 62
     7
100
AcDbLine
 10
36.8277142857
 20
385.3169506294
 30
0.0
 11
37.91236
 21
385.6423563437
 31
0.0
  0
SPLINE
  5
14F
330
85
100
AcDbEntity
  8
$DDT_AUDIT_GENERATED_(AD)
  6
Continuous
 62
     7
100
AcDbSpline
210
0.0
220
0.0
230
1.0
 70
     8
 71
     3
 72
    12
 73
     8
 74
     0
 42
0.0000000027515905
 43
0.0000000001
 40
0.0
 40
0.0
 40
0.0
 40
0.0
 40
0.2499999999999999
 40
0.2499999999999999
 40
0.4999999999999998
 40
0.4999999999999998
 40
1.0
 40
1.0
 40
1.0
 40
1.0
 10
37.84771428571567
 20
384.7992020579771
 30
0.0
 10
38.13359066647144
 20
384.8880240600095
 30
0.0
 10
38.42621942392648
 20
384.9609818910945
 30
0.0
 10
39.02101513636455
 20
384.9747096317275
 30
0.0
 10
39.3203452422078
 20
384.9093201493246
 30
0.0
 10
40.18370787269977
 20
384.6526923927738
 30
0.0
 10
40.73901178659589
 20
384.384128105739
 30
0.0
 10
41.35342857142994
 20
384.3786620579771
 30
0.0
  0
SPLINE
  5
150
330
85
100
AcDbEntity
  8
$DDT_AUDIT_GENERATED_(AD)
  6
Continuous
 62
     7
100
AcDbSpline
210
0.0
220
0.0
230
1.0
 70
     8
 71
     3
 72
    16
 73
    12
 74
     0
 42
0.000000002768353
 43
0.0000000001
 40
0.0
 40
0.0
 40
0.0
 40
0.0
 40
0.2500000000000001
 40
0.2500000000000001
 40
0.5000000000000001
 40
0.5000000000000001
 40
0.6250000000000001
 40
0.6250000000000001
 40
0.7500000000000002
 40
0.7500000000000002
 40
1.0
 40
1.0
 40
1.0
 40
1.0
 10
41.35342857142994
 20
384.3786620579771
 30
0.0
 10
41.66236209251815
 20
384.3814104291532
 30
0.0
 10
41.95386321779639
 20
384.4543125184814
 30
0.0
 10
42.5289980292491
 20
384.6317473569673
 30
0.0
 10
42.81221541116494
 20
384.738699057436
 30
0.0
 10
43.24434158729449
 20
384.8670187826625
 30
0.0
 10
43.38952135468098
 20
384.9044530203871
 30
0.0
 10
43.68470989232799
 20
384.9568096728525
 30
0.0
 10
43.8369603967751
 20
384.9714610612105
 30
0.0
 10
44.28543857818578
 20
384.9603848784275
 30
0.0
 10
44.57367579987279
 20
384.8878968829015
 30
0.0
 10
44.85914285714421
 20
384.7992020579771
 30
0.0
  0
LINE
  5
151
330
85
100
AcDbEntity
  8
$DDT_AUDIT_GENERATED_(AD)
  6
Continuous
 62
     7
100
AcDbLine
 10
44.8591428571
 20
384.799202058
 30
0.0
 11
45.1505714286
 21
384.9436049151
 31
0.0
  0
SPLINE
  5
152
330
85
100
AcDbEntity
  8
$DDT_AUDIT_GENERATED_(AD)
  6
Continuous
 62
     7
100
AcDbSpline
210
0.0
220
0.0
230
1.0
 70
     8
 71
     3
 72
    20
 73
    16
 74
     0
 42
0.0000000012709224
 43
0.0000000001
 40
0.0
 40
0.0
 40
0.0
 40
0.0
 40
0.125
 40
0.125
 40
0.2500000000000001
 40
0.2500000000000001
 40
0.3750000000000001
 40
0.3750000000000001
 40
0.5
 40
0.5
 40
0.75
 40
0.75
 40
0.875
 40
0.875
 40
1.0
 40
1.0
 40
1.0
 40
1.0
 10
45.15057142857277
 20
384.9436049151199
 30
0.0
 10
44.8384236357018
 20
385.0489470780851
 30
0.0
 10
44.5242228222076
 20
385.1503580628432
 30
0.0
 10
43.8733062184716
 20
385.2253211094508
 30
0.0
 10
43.53682952480918
 20
385.1750822054342
 30
0.0
 10
42.90057367772221
 20
384.9994611377249
 30
0.0
 10
42.58964893735945
 20
384.879930590804
 30
0.0
 10
41.95739409919726
 20
384.6834214754201
 30
0.0
 10
41.6251002688802
 20
384.6039284612131
 30
0.0
 10
40.63995711392063
 20
384.6324845293991
 30
0.0
 10
40.05150194183264
 20
384.940159770231
 30
0.0
 10
39.1176259793348
 20
385.1847354543137
 30
0.0
 10
38.80196675131739
 20
385.2250830165991
 30
0.0
 10
38.1613885357358
 20
385.1442183867903
 30
0.0
 10
37.85785747123983
 20
385.0453779274306
 30
0.0
 10
37.55628571428711
 20
384.9436049151199
 30
0.0
  0
LINE
  5
153
330
85
100
AcDbEntity
  8
$DDT_AUDIT_GENERATED_(AD)
  6
Continuous
 62
     7
100
AcDbLine
 10
37.5562857143
 20
384.9436049151
 30
0.0
 11
37.8477142857
 21
384.799202058
 31
0.0
  0
CIRCLE
  5
154
330
85
100
AcDbEntity
  8
$DDT_AUDIT_GENERATED_(AD)
  6
Continuous
 62
     7
100
AcDbCircle
 10
41.35
 20
375.1922392008
 30
0.0
 40
1.0
  0
LINE
  5
156
330
85
100
AcDbEntity
  8
$DDT_AUDIT_GENERATED_(155)
  6
Continuous
 62
     7
100
AcDbLine
 10
125.5754606936
 20
428.5642739526
 30
0.0
 11
107.1245393064
 21
428.5642739526
 31
0.0
  0
LINE
  5
157
330
85
100
AcDbEntity
  8
$DDT_AUDIT_GENERATED_(155)
  6
Continuous
 62
     7
100
AcDbLine
 10
123.4480875933
 20
410.1122392008
 30
0.0
 11
109.2519124067
 21
410.1122392008
 31
0.0
  0
ARC
  5
158
330
85
100
AcDbEntity
  8
$DDT_AUDIT_GENERATED_(155)
  6
Continuous
 62
     7
100
AcDbCircle
 10
116.35
 20
405.1490489934
 30
0.0
 40
28.00000000000087
100
AcDbArc
 50
70.7627384947
 51
109.2372615053
  0
ARC
  5
159
330
85
100
AcDbEntity
  8
$DDT_AUDIT_GENERATED_(155)
  6
Continuous
 62
     7
100
AcDbCircle
 10
125.0482915111
 20
430.0749336274
 30
0.0
 40
1.599999999999044
100
AcDbArc
 50
289.2372615054
 51
70.7627384947
  0
ARC
  5
15A
330
85
100
AcDbEntity
  8
$DDT_AUDIT_GENERATED_(155)
  6
Continuous
 62
     7
100
AcDbCircle
 10
107.6517084889
 20
430.0749336274
 30
0.0
 40
1.600000000000001
100
AcDbArc
 50
109.2372615053
 51
250.7627384946
  0
ARC
  5
15B
330
85
100
AcDbEntity
  8
$DDT_AUDIT_GENERATED_(155)
  6
Continuous
 62
     7
100
AcDbCircle
 10
116.35
 20
455.0008182614
 30
0.0
 40
28.0
100
AcDbArc
 50
250.7627384947
 51
253.4923462495
  0
ARC
  5
15C
330
85
100
AcDbEntity
  8
$DDT_AUDIT_GENERATED_(155)
  6
Continuous
 62
     7
100
AcDbCircle
 10
116.35
 20
455.0008182614
 30
0.0
 40
28.0
100
AcDbArc
 50
286.5076537505
 51
289.2372615053
  0
LINE
  5
15D
330
85
100
AcDbEntity
  8
$DDT_AUDIT_GENERATED_(155)
  6
Continuous
 62
     7
100
AcDbLine
 10
123.9480875933
 20
410.6122392008
 30
0.0
 11
123.9480875933
 21
427.6755373419
 31
0.0
  0
LINE
  5
15E
330
85
100
AcDbEntity
  8
$DDT_AUDIT_GENERATED_(155)
  6
Continuous
 62
     7
100
AcDbLine
 10
108.7519124067
 20
427.6755373419
 30
0.0
 11
108.7519124067
 21
410.6122392008
 31
0.0
  0
ARC
  5
15F
330
85
100
AcDbEntity
  8
$DDT_AUDIT_GENERATED_(155)
  6
Continuous
 62
     7
100
AcDbCircle
 10
123.4480875933
 20
410.6122392008
 30
0.0
 40
0.5000000000000004
100
AcDbArc
 50
270.0
 51
0.0
  0
ARC
  5
160
330
85
100
AcDbEntity
  8
$DDT_AUDIT_GENERATED_(155)
  6
Continuous
 62
     7
100
AcDbCircle
 10
109.2519124067
 20
410.6122392008
 30
0.0
 40
0.5000000000000004
100
AcDbArc
 50
180.0
 51
270.0
  0
ARC
  5
161
330
85
100
AcDbEntity
  8
$DDT_AUDIT_GENERATED_(155)
  6
Continuous
 62
     7
100
AcDbCircle
 10
108.2519124067
 20
427.6755373419
 30
0.0
 40
0.5000000000000041
100
AcDbArc
 50
0.0
 51
73.4923462495
  0
ARC
  5
162
330
85
100
AcDbEntity
  8
$DDT_AUDIT_GENERATED_(155)
  6
Continuous
 62
     7
100
AcDbCircle
 10
124.4480875933
 20
427.6755373419
 30
0.0
 40
0.4999999999999996
100
AcDbArc
 50
106.5076537505
 51
180.0
  0
LINE
  5
164
330
85
100
AcDbEntity
  8
A4225108_211188_
  6
Continuous
 62
     7
100
AcDbLine
 10
106.1
 20
353.9622392008
 30
0.0
 11
126.6
 21
353.9622392008
 31
0.0
  0
LINE
  5
165
330
85
100
AcDbEntity
  8
A4225108_211188_
  6
Continuous
 62
     7
100
AcDbLine
 10
125.6
 20
352.9622392008
 30
0.0
 11
107.1
 21
352.9622392008
 31
0.0
  0
LINE
  5
166
330
85
100
AcDbEntity
  8
A4225108_211188_
  6
Continuous
 62
     7
100
AcDbLine
 10
126.6
 20
353.9622392008
 30
0.0
 11
126.6
 21
361.3922392008
 31
0.0
  0
LINE
  5
167
330
85
100
AcDbEntity
  8
A4225108_211188_
  6
Continuous
 62
     7
100
AcDbLine
 10
106.1
 20
361.3922392008
 30
0.0
 11
106.1
 21
353.9622392008
 31
0.0
  0
LINE
  5
168
330
85
100
AcDbEntity
  8
A4225108_211188_
  6
Continuous
 62
     7
100
AcDbLine
 10
106.1
 20
353.9622392008
 30
0.0
 11
107.1
 21
352.9622392008
 31
0.0
  0
LINE
  5
169
330
85
100
AcDbEntity
  8
A4225108_211188_
  6
Continuous
 62
     7
100
AcDbLine
 10
125.6
 20
352.9622392008
 30
0.0
 11
126.6
 21
353.9622392008
 31
0.0
  0
LINE
  5
16B
330
85
100
AcDbEntity
  8
A4225112_211188_
  6
Continuous
 62
     7
100
AcDbLine
 10
110.75
 20
410.1122392008
 30
0.0
 11
110.75
 21
406.2711510791
 31
0.0
  0
LINE
  5
16C
330
85
100
AcDbEntity
  8
A4225112_211188_
  6
Continuous
 62
     7
100
AcDbLine
 10
121.95
 20
406.2662155704
 30
0.0
 11
121.95
 21
410.1122392008
 31
0.0
  0
ENDBLK
  5
16E
330
85
100
AcDbEntity
  8
0
100
AcDbBlockEnd
  0
BLOCK
  5
25D
330
16F
100
AcDbEntity
  8
0
100
AcDbBlockBegin
  2
SE1
 70
     0
 10
0.0
 20
0.0
 30
0.0
  3
SE1
  1

  0
ARC
  5
172
330
16F
100
AcDbEntity
  8
$DDT_AUDIT_GENERATED_(171)
  6
Continuous
 62
     7
100
AcDbCircle
 10
382.5167777794
 20
397.4422392008
 30
0.0
 40
1.000000000000001
100
AcDbArc
 50
348.1496342029
 51
0.0
  0
ARC
  5
173
330
16F
100
AcDbEntity
  8
$DDT_AUDIT_GENERATED_(171)
  6
Continuous
 62
     7
100
AcDbCircle
 10
382.5167777794
 20
376.9422392008
 30
0.0
 40
1.000000000000001
100
AcDbArc
 50
0.0
 51
11.850365797
  0
LINE
  5
174
330
16F
100
AcDbEntity
  8
$DDT_AUDIT_GENERATED_(87)
  6
Continuous
 62
     7
100
AcDbLine
 10
382.825485192
 20
372.1922392008
 30
0.0
 11
353.0167777794
 21
372.1922392008
 31
0.0
  0
LINE
  5
175
330
16F
100
AcDbEntity
  8
$DDT_AUDIT_GENERATED_(87)
  6
Continuous
 62
     7
100
AcDbLine
 10
383.359676809
 20
372.1922392008
 30
0.0
 11
382.825485192
 21
372.1922392008
 31
0.0
  0
LINE
  5
176
330
16F
100
AcDbEntity
  8
$DDT_AUDIT_GENERATED_(87)
  6
Continuous
 62
     7
100
AcDbLine
 10
384.6372288486
 20
372.1922392008
 30
0.0
 11
383.359676809
 21
372.1922392008
 31
0.0
  0
LINE
  5
177
330
16F
100
AcDbEntity
  8
$DDT_AUDIT_GENERATED_(87)
  6
Continuous
 62
     7
100
AcDbLine
 10
455.0653327013
 20
372.1922392008
 30
0.0
 11
425.854160164
 21
372.1922392008
 31
0.0
  0
LINE
  5
178
330
16F
100
AcDbEntity
  8
$DDT_AUDIT_GENERATED_(87)
  6
Continuous
 62
     7
100
AcDbLine
 10
470.070121462
 20
372.1922392008
 30
0.0
 11
455.0653327013
 21
372.1922392008
 31
0.0
  0
SPLINE
  5
179
330
16F
100
AcDbEntity
  8
$DDT_AUDIT_GENERATED_(87)
  6
Continuous
 62
     7
100
AcDbSpline
210
0.0
220
0.0
230
1.0
 70
    12
 71
     3
 72
     8
 73
     4
 74
     0
 42
0.0000000010405374
 43
0.0000000001
 40
0.0
 40
0.0
 40
0.0
 40
0.0
 40
1.0
 40
1.0
 40
1.0
 40
1.0
 10
472.1922394888581
 20
383.7518476953874
 30
0.0
 41
1.000024129022665
 10
472.1898081231333
 20
380.548379221131
 30
0.0
 41
0.9999739126589022
 10
472.1488954817787
 20
377.3451677033099
 30
0.0
 41
0.9999717986542839
 10
472.069507224628
 20
374.1426753814245
 30
0.0
 41
1.00001778700881
  0
SPLINE
  5
17A
330
16F
100
AcDbEntity
  8
$DDT_AUDIT_GENERATED_(87)
  6
Continuous
 62
     7
100
AcDbSpline
210
0.0
220
0.0
230
1.0
 70
     8
 71
     3
 72
    20
 73
    16
 74
     0
 42
0.0000000005631764
 43
0.0000000001
 40
0.0
 40
0.0
 40
0.0
 40
0.0
 40
0.25
 40
0.25
 40
0.375
 40
0.375
 40
0.5
 40
0.5
 40
0.625
 40
0.625
 40
0.75
 40
0.75
 40
0.875
 40
0.875
 40
1.0
 40
1.0
 40
1.0
 40
1.0
 10
472.1922394888581
 20
383.7518476953874
 30
0.0
 10
472.1922394867403
 20
383.7518449050883
 30
0.0
 10
471.7200302283147
 20
383.9441592774103
 30
0.0
 10
470.4102118654373
 20
384.4099535774543
 30
0.0
 10
469.8641598428904
 20
384.5964275318632
 30
0.0
 10
468.6023998467683
 20
384.9967486731691
 30
0.0
 10
467.8892084651864
 20
385.2097319810268
 30
0.0
 10
466.3000185998654
 20
385.6528114584739
 30
0.0
 10
465.4169569679147
 20
385.8842040487623
 30
0.0
 10
463.5624667882735
 20
386.3553985438336
 30
0.0
 10
462.5834532228598
 20
386.5974951202543
 30
0.0
 10
460.5279978825546
 20
387.1263233082827
 30
0.0
 10
459.4602597739278
 20
387.4136578205467
 30
0.0
 10
457.3259511624232
 20
388.0372189557047
 30
0.0
 10
456.2488781997599
 20
388.3749206062939
 30
0.0
 10
455.1636549091471
 20
388.7440654031117
 30
0.0
  0
SPLINE
  5
17B
330
16F
100
AcDbEntity
  8
$DDT_AUDIT_GENERATED_(87)
  6
Continuous
 62
     7
100
AcDbSpline
210
0.0
220
0.0
230
1.0
 70
     8
 71
     3
 72
    12
 73
     8
 74
     0
 42
0.000000000193679
 43
0.0000000001
 40
0.0
 40
0.0
 40
0.0
 40
0.0
 40
0.25
 40
0.25
 40
0.5
 40
0.5
 40
0.5764598052252711
 40
0.5764598052252711
 40
0.5764598052252711
 40
0.5764598052252711
 10
455.1636549091471
 20
388.7440654031117
 30
0.0
 10
451.1403552627535
 20
390.3007302831799
 30
0.0
 10
447.0337419690881
 20
391.5783872203694
 30
0.0
 10
438.8136494744787
 20
394.1107079510253
 30
0.0
 10
434.7145155147774
 20
395.4134123282411
 30
0.0
 10
429.3334464437618
 20
397.0198980305071
 30
0.0
 10
428.0706641797568
 20
397.387820066029
 30
0.0
 10
426.8041708154718
 20
397.7433140481787
 30
0.0
  0
ARC
  5
17C
330
16F
100
AcDbEntity
  8
$DDT_AUDIT_GENERATED_(87)
  6
Continuous
 62
     7
100
AcDbCircle
 10
470.1922400649
 20
383.7533656532
 30
0.0
 40
1.999999999997184
100
AcDbArc
 50
359.9565137071
 51
47.0489182934
  0
ARC
  5
17D
330
16F
100
AcDbEntity
  8
$DDT_AUDIT_GENERATED_(87)
  6
Continuous
 62
     7
100
AcDbCircle
 10
470.070121462
 20
374.1922392008
 30
0.0
 40
1.999999999999846
100
AcDbArc
 50
270.0
 51
358.5799557889
  0
LINE
  5
17E
330
16F
100
AcDbEntity
  8
$DDT_AUDIT_GENERATED_(87)
  6
Continuous
 62
     7
100
AcDbLine
 10
383.5167777794
 20
401.9678954564
 30
0.0
 11
383.5167777794
 21
372.3155542709
 31
0.0
  0
ARC
  5
17F
330
16F
100
AcDbEntity
  8
$DDT_AUDIT_GENERATED_(87)
  6
Continuous
 62
     7
100
AcDbCircle
 10
383.4006186066
 20
401.192005241
 30
0.0
 40
1.594022693424458
100
AcDbArc
 50
37.7804244973
 51
45.5557151527
  0
LINE
  5
180
330
16F
100
AcDbEntity
  8
$DDT_AUDIT_GENERATED_(87)
  6
Continuous
 62
     7
100
AcDbLine
 10
383.5167777794
 20
402.6264685908
 30
0.0
 11
383.5167777794
 21
401.9678954564
 31
0.0
  0
SPLINE
  5
181
330
16F
100
AcDbEntity
  8
$DDT_AUDIT_GENERATED_(87)
  6
Continuous
 62
     7
100
AcDbSpline
210
0.0
220
0.0
230
1.0
 70
     8
 71
     3
 72
    16
 73
    12
 74
     0
 42
0.0000000085337358
 43
0.0000000001
 40
0.0
 40
0.0
 40
0.0
 40
0.0
 40
0.2499999999999976
 40
0.2499999999999976
 40
0.4999999999999952
 40
0.4999999999999952
 40
0.624999999999994
 40
0.624999999999994
 40
0.7499999999999929
 40
0.7499999999999929
 40
1.0
 40
1.0
 40
1.0
 40
1.0
 10
383.5167777793532
 20
402.6264685907907
 30
0.0
 10
383.5167777793532
 20
402.6601101583507
 30
0.0
 10
383.5363204347756
 20
402.6873051718621
 30
0.0
 10
383.6202577804153
 20
402.7234457912051
 30
0.0
 10
383.685047666259
 20
402.7326089622973
 30
0.0
 10
383.8214526527159
 20
402.7176448977884
 30
0.0
 10
383.873575709492
 20
402.707597907031
 30
0.0
 10
383.9869859028356
 20
402.6744999809242
 30
0.0
 10
384.0485394042682
 20
402.6514188277906
 30
0.0
 10
384.2425655934536
 20
402.5580909116046
 30
0.0
 10
384.386054566177
 20
402.4615383850522
 30
0.0
 10
384.5167777793488
 20
402.3300285484505
 30
0.0
  0
ARC
  5
182
330
16F
100
AcDbEntity
  8
$DDT_AUDIT_GENERATED_(87)
  6
Continuous
 62
     7
100
AcDbCircle
 10
383.016259481
 20
374.1981853197
 30
0.0
 40
1.982265082946349
100
AcDbArc
 50
284.62555834
 51
319.197940078
  0
ARC
  5
183
330
16F
100
AcDbEntity
  8
$DDT_AUDIT_GENERATED_(87)
  6
Continuous
 62
     7
100
AcDbCircle
 10
352.5167777794
 20
372.6922392008
 30
0.0
 40
0.4999999999976799
100
AcDbArc
 50
179.9999999996
 51
270.0
  0
LINE
  5
184
330
16F
100
AcDbEntity
  8
$DDT_AUDIT_GENERATED_(87)
  6
Continuous
 62
     7
100
AcDbLine
 10
352.0167777794
 20
405.8104579789
 30
0.0
 11
352.0167777794
 21
402.9348259274
 31
0.0
  0
LINE
  5
185
330
16F
100
AcDbEntity
  8
$DDT_AUDIT_GENERATED_(87)
  6
Continuous
 62
     7
100
AcDbLine
 10
353.0167777794
 20
372.1922392008
 30
0.0
 11
353.0167777794
 21
402.1020592276
 31
0.0
  0
LINE
  5
186
330
16F
100
AcDbEntity
  8
$DDT_AUDIT_GENERATED_(87)
  6
Continuous
 62
     7
100
AcDbLine
 10
353.0167777794
 20
402.1020592276
 30
0.0
 11
353.0167777794
 21
403.2940953945
 31
0.0
  0
LINE
  5
187
330
16F
100
AcDbEntity
  8
$DDT_AUDIT_GENERATED_(87)
  6
Continuous
 62
     7
100
AcDbLine
 10
353.0167777794
 20
403.2940953945
 30
0.0
 11
352.5167777794
 21
403.3374969668
 31
0.0
  0
LINE
  5
188
330
16F
100
AcDbEntity
  8
$DDT_AUDIT_GENERATED_(87)
  6
Continuous
 62
     7
100
AcDbLine
 10
352.5167777794
 20
372.1922392008
 30
0.0
 11
353.0167777794
 21
372.1922392008
 31
0.0
  0
SPLINE
  5
189
330
16F
100
AcDbEntity
  8
$DDT_AUDIT_GENERATED_(87)
  6
Continuous
 62
     7
100
AcDbSpline
210
0.0
220
0.0
230
1.0
 70
     8
 71
     3
 72
    14
 73
    10
 74
     0
 42
0.000000013700164
 43
0.0000000001
 40
0.0
 40
0.0
 40
0.0
 40
0.0
 40
0.25
 40
0.25
 40
0.5
 40
0.5
 40
0.75
 40
0.75
 40
1.0
 40
1.0
 40
1.0
 40
1.0
 10
352.0167777793532
 20
402.9348259273709
 30
0.0
 10
352.0167777793518
 20
402.9995704457513
 30
0.0
 10
352.0320997562994
 20
403.0567360062934
 30
0.0
 10
352.0810236039255
 20
403.1553600131203
 30
0.0
 10
352.1153758808359
 20
403.1980513420859
 30
0.0
 10
352.1999821707684
 20
403.2685053999498
 30
0.0
 10
352.2497479096508
 20
403.2963125793285
 30
0.0
 10
352.3681103979268
 20
403.3341364220881
 30
0.0
 10
352.4359255705938
 20
403.344407572093
 30
0.0
 10
352.5167777793575
 20
403.3374969667913
 30
0.0
  0
LINE
  5
18A
330
16F
100
AcDbEntity
  8
$DDT_AUDIT_GENERATED_(87)
  6
Continuous
 62
     7
100
AcDbLine
 10
352.0167777794
 20
402.9348259274
 30
0.0
 11
352.0167777794
 21
401.6922392008
 31
0.0
  0
SPLINE
  5
18B
330
16F
100
AcDbEntity
  8
$DDT_AUDIT_GENERATED_(87)
  6
Continuous
 62
     7
100
AcDbSpline
210
0.0
220
0.0
230
1.0
 70
     8
 71
     3
 72
    16
 73
    12
 74
     0
 42
0.0000000004386581
 43
0.0000000001
 40
0.2500848380641534
 40
0.2500848380641534
 40
0.2500848380641534
 40
0.2500848380641534
 40
0.375
 40
0.375
 40
0.5
 40
0.5
 40
0.6249999999999999
 40
0.6249999999999999
 40
0.7499999999999999
 40
0.7499999999999999
 40
0.7501612210136429
 40
0.7501612210136429
 40
0.7501612210136429
 40
0.7501612210136429
 10
379.166396569857
 20
406.3104579778449
 30
0.0
 10
379.1663644322259
 20
406.3104569753227
 30
0.0
 10
378.5617549029123
 20
406.3049888182882
 30
0.0
 10
376.4354662615467
 20
406.2927394466307
 30
0.0
 10
374.9563383857967
 20
406.2872547382486
 30
0.0
 10
371.9804855723524
 20
406.2872461701589
 30
0.0
 10
370.4919273085995
 20
406.292779566168
 30
0.0
 10
368.3876749842778
 20
406.304884014134
 30
0.0
 10
367.7679337290452
 20
406.310445462271
 30
0.0
 10
367.7663975916969
 20
406.3104579708115
 30
0.0
 10
367.7663966404635
 20
406.3104579776918
 30
0.0
 10
367.7663967163148
 20
406.310457975351
 30
0.0
  0
LINE
  5
18C
330
16F
100
AcDbEntity
  8
$DDT_AUDIT_GENERATED_(87)
  6
Continuous
 62
     7
100
AcDbLine
 10
360.5295571462
 20
366.3104579789
 30
0.0
 11
359.2924624602
 21
366.3104579789
 31
0.0
  0
LINE
  5
18D
330
16F
100
AcDbEntity
  8
$DDT_AUDIT_GENERATED_(87)
  6
Continuous
 62
     7
100
AcDbLine
 10
387.8019199982
 20
366.3104579789
 30
0.0
 11
360.5295571462
 21
366.3104579789
 31
0.0
  0
SPLINE
  5
18E
330
16F
100
AcDbEntity
  8
$DDT_AUDIT_GENERATED_(87)
  6
Continuous
 62
     7
100
AcDbSpline
210
0.0
220
0.0
230
1.0
 70
     8
 71
     3
 72
    33
 73
    29
 74
     0
 42
0.0000000001111725
 43
0.0000000001
 40
0.0
 40
0.0
 40
0.0
 40
0.0
 40
0.0157743112325793
 40
0.0373789537143805
 40
0.0577452682163045
 40
0.0770648803333644
 40
0.0955002469490925
 40
0.1185270695408203
 40
0.140512383008209
 40
0.1616373230719698
 40
0.1945491801080448
 40
0.2255337631577848
 40
0.254692759500424
 40
0.2820923685297279
 40
0.3077732622196346
 40
0.3317581606801894
 40
0.3540574308137361
 40
0.3730195168525343
 40
0.390563528892243
 40
0.4066791148092502
 40
0.4213557666434295
 40
0.4354474818247785
 40
0.4509704814957069
 40
0.4705245860995413
 40
0.4920554611710958
 40
0.5155643934413502
 40
0.5410502981142591
 40
0.5495319551597487
 40
0.5495319551597487
 40
0.5495319551597487
 40
0.5495319551597487
 10
471.5470737565187
 20
385.2086296368656
 30
0.0
 10
471.1667586829227
 20
385.5635416747368
 30
0.0
 10
470.4020941505555
 20
386.2730912015114
 30
0.0
 10
469.0297999955753
 20
387.3933307898091
 30
0.0
 10
467.5632105885575
 20
388.4831755788587
 30
0.0
 10
466.1137570555421
 20
389.4561868652378
 30
0.0
 10
464.558813580832
 20
390.4057683945194
 30
0.0
 10
462.8925850373059
 20
391.3251742025286
 30
0.0
 10
461.1181567054109
 20
392.2106514638438
 30
0.0
 10
459.0483308471538
 20
393.1653104477388
 30
0.0
 10
456.6979664605433
 20
394.1534129181038
 30
0.0
 10
454.0874671481693
 20
395.1387239066254
 30
0.0
 10
451.6044252300894
 20
395.9897390226899
 30
0.0
 10
449.2525847886015
 20
396.7303402116335
 30
0.0
 10
447.0353242638677
 20
397.3800526493021
 30
0.0
 10
444.9556531131967
 20
397.95443180058
 30
0.0
 10
443.064195736752
 20
398.4530432908168
 30
0.0
 10
441.3558568894363
 20
398.8884758697549
 30
0.0
 10
439.825083074756
 20
399.2698703187161
 30
0.0
 10
438.4172117869007
 20
399.6130570651255
 30
0.0
 10
437.1083361605705
 20
399.9252680936555
 30
0.0
 10
435.8152723167967
 20
400.227132486779
 30
0.0
 10
434.378097716701
 20
400.5548111653911
 30
0.0
 10
432.7210931564102
 20
400.9214702630505
 30
0.0
 10
430.8270726878358
 20
401.3248925939484
 30
0.0
 10
428.7551589302486
 20
401.7463793091068
 30
0.0
 10
427.0630595069621
 20
402.0720054939444
 30
0.0
 10
426.0616006409329
 20
402.2566285229554
 30
0.0
 10
425.8114470673909
 20
402.3022321680909
 30
0.0
  0
SPLINE
  5
18F
330
16F
100
AcDbEntity
  8
$DDT_AUDIT_GENERATED_(87)
  6
Continuous
 62
     7
100
AcDbSpline
210
0.0
220
0.0
230
1.0
 70
     8
 71
     3
 72
    14
 73
    10
 74
     0
 42
0.0000000001111806
 43
0.0000000001
 40
0.7372189559116542
 40
0.7372189559116542
 40
0.7372189559116542
 40
0.7372189559116542
 40
0.7620741083204073
 40
0.7977799669948111
 40
0.8351080304022894
 40
0.8740715524167408
 40
0.9146049213777955
 40
0.9566100837818099
 40
1.0
 40
1.0
 40
1.0
 40
1.0
 10
409.0929338047095
 20
404.59971410245
 30
0.0
 10
408.3516473685613
 20
404.6753436828449
 30
0.0
 10
406.5449130733996
 20
404.8543091666893
 30
0.0
 10
403.6227365820515
 20
405.1277033719473
 30
0.0
 10
400.2797207255761
 20
405.4273914218892
 30
0.0
 10
396.7865996718847
 20
405.7399841480914
 30
0.0
 10
393.1740351474074
 20
406.0268561329
 30
0.0
 10
389.3315491650623
 20
406.2572211220106
 30
0.0
 10
386.9596513594819
 20
406.2916778299447
 30
0.0
 10
385.5288914588745
 20
406.3103866572168
 30
0.0
  0
ARC
  5
190
330
16F
100
AcDbEntity
  8
$DDT_AUDIT_GENERATED_(87)
  6
Continuous
 62
     7
100
AcDbCircle
 10
395.5163965979
 20
364.1922392008
 30
0.0
 40
7.999999999999991
100
AcDbArc
 50
124.8273761096
 51
164.6462768407
  0
ARC
  5
191
330
16F
100
AcDbEntity
  8
$DDT_AUDIT_GENERATED_(87)
  6
Continuous
 62
     7
100
AcDbCircle
 10
351.591654428
 20
364.4780770953
 30
0.0
 40
7.909398807901775
100
AcDbArc
 50
75.1651080368
 51
77.1751966966
  0
ARC
  5
192
330
16F
100
AcDbEntity
  8
$DDT_AUDIT_GENERATED_(87)
  6
Continuous
 62
     7
100
AcDbCircle
 10
351.591654428
 20
364.4780770953
 30
0.0
 40
7.909398807901775
100
AcDbArc
 50
13.3735849049
 51
71.2402250044
  0
ARC
  5
193
330
16F
100
AcDbEntity
  8
$DDT_AUDIT_GENERATED_(87)
  6
Continuous
 62
     7
100
AcDbCircle
 10
351.3256501333
 20
363.4475394162
 30
0.0
 40
8.990691076152064
100
AcDbArc
 50
71.0148968869
 51
76.9325342903
  0
ARC
  5
194
330
16F
100
AcDbEntity
  8
$DDT_AUDIT_GENERATED_(87)
  6
Continuous
 62
     7
100
AcDbCircle
 10
352.5167777794
 20
405.8104579789
 30
0.0
 40
0.4999999999999727
100
AcDbArc
 50
90.0
 51
180.0
  0
LINE
  5
195
330
16F
100
AcDbEntity
  8
$DDT_AUDIT_GENERATED_(87)
  6
Continuous
 62
     7
100
AcDbLine
 10
367.7713072556
 20
406.3104579789
 30
0.0
 11
352.5167777794
 21
406.3104579789
 31
0.0
  0
LINE
  5
196
330
16F
100
AcDbEntity
  8
$DDT_AUDIT_GENERATED_(87)
  6
Continuous
 62
     7
100
AcDbLine
 10
385.525262535
 20
406.3104579789
 30
0.0
 11
379.1481902701
 21
406.3104579789
 31
0.0
  0
LINE
  5
198
330
16F
100
AcDbEntity
  8
$DDT_AUDIT_GENERATED_(197)
  6
Continuous
 62
     7
100
AcDbLine
 10
353.0167777794
 20
397.6922392008
 30
0.0
 11
352.0167777794
 21
397.6922392008
 31
0.0
  0
LINE
  5
199
330
16F
100
AcDbEntity
  8
$DDT_AUDIT_GENERATED_(197)
  6
Continuous
 62
     7
100
AcDbLine
 10
352.0167777794
 20
376.6922392008
 30
0.0
 11
353.0167777794
 21
376.6922392008
 31
0.0
  0
LINE
  5
19B
330
16F
100
AcDbEntity
  8
$DDT_AUDIT_GENERATED_(19A)
  6
Continuous
 62
     7
100
AcDbLine
 10
334.8912590352
 20
373.9722392008
 30
0.0
 11
334.0167777794
 21
376.1922392008
 31
0.0
  0
LINE
  5
19C
330
16F
100
AcDbEntity
  8
$DDT_AUDIT_GENERATED_(19A)
  6
Continuous
 62
     7
100
AcDbLine
 10
334.0167777794
 20
398.1922392008
 30
0.0
 11
334.8912590352
 21
400.4122392008
 31
0.0
  0
LINE
  5
19D
330
16F
100
AcDbEntity
  8
$DDT_AUDIT_GENERATED_(19A)
  6
Continuous
 62
     7
100
AcDbLine
 10
335.0167777794
 20
400.4122392008
 30
0.0
 11
334.8912590352
 21
400.4122392008
 31
0.0
  0
LINE
  5
19E
330
16F
100
AcDbEntity
  8
$DDT_AUDIT_GENERATED_(19A)
  6
Continuous
 62
     7
100
AcDbLine
 10
334.8912590352
 20
373.9722392008
 30
0.0
 11
335.0167777794
 21
373.9722392008
 31
0.0
  0
LINE
  5
19F
330
16F
100
AcDbEntity
  8
$DDT_AUDIT_GENERATED_(19A)
  6
Continuous
 62
     7
100
AcDbLine
 10
334.4303837787
 20
399.2422392008
 30
0.0
 11
335.0167777794
 21
399.2422392008
 31
0.0
  0
LINE
  5
1A0
330
16F
100
AcDbEntity
  8
$DDT_AUDIT_GENERATED_(19A)
  6
Continuous
 62
     7
100
AcDbLine
 10
334.4303837787
 20
375.1422392008
 30
0.0
 11
335.0167777794
 21
375.1422392008
 31
0.0
  0
LINE
  5
1A2
330
16F
100
AcDbEntity
  8
$DDT_AUDIT_GENERATED_(1A1)
  6
Continuous
 62
     7
100
AcDbLine
 10
352.0167777794
 20
372.6922392008
 30
0.0
 11
352.0167777794
 21
401.6922392008
 31
0.0
  0
LINE
  5
1A3
330
16F
100
AcDbEntity
  8
$DDT_AUDIT_GENERATED_(1A1)
  6
Continuous
 62
     7
100
AcDbLine
 10
335.0167777794
 20
372.6922392008
 30
0.0
 11
335.0167777794
 21
401.6922392008
 31
0.0
  0
LINE
  5
1A4
330
16F
100
AcDbEntity
  8
$DDT_AUDIT_GENERATED_(1A1)
  6
Continuous
 62
     7
100
AcDbLine
 10
338.5167777794
 20
402.1922392008
 30
0.0
 11
338.5167777794
 21
400.1048979745
 31
0.0
  0
LINE
  5
1A5
330
16F
100
AcDbEntity
  8
$DDT_AUDIT_GENERATED_(1A1)
  6
Continuous
 62
     7
100
AcDbLine
 10
338.5167777794
 20
389.2795804272
 30
0.0
 11
338.5167777794
 21
385.1048979745
 31
0.0
  0
LINE
  5
1A6
330
16F
100
AcDbEntity
  8
$DDT_AUDIT_GENERATED_(1A1)
  6
Continuous
 62
     7
100
AcDbLine
 10
338.5167777794
 20
374.2795804272
 30
0.0
 11
338.5167777794
 21
372.1922392008
 31
0.0
  0
LINE
  5
1A7
330
16F
100
AcDbEntity
  8
$DDT_AUDIT_GENERATED_(1A1)
  6
Continuous
 62
     7
100
AcDbLine
 10
338.5167777794
 20
372.1922392008
 30
0.0
 11
335.7210490502
 21
372.1922392008
 31
0.0
  0
ARC
  5
1A8
330
16F
100
AcDbEntity
  8
$DDT_AUDIT_GENERATED_(1A1)
  6
Continuous
 62
     7
100
AcDbCircle
 10
342.2953372985
 20
379.6922392008
 30
0.0
 40
6.601089837288611
100
AcDbArc
 50
124.9187681796
 51
235.0812318204
  0
ARC
  5
1A9
330
16F
100
AcDbEntity
  8
$DDT_AUDIT_GENERATED_(1A1)
  6
Continuous
 62
     7
100
AcDbCircle
 10
342.2953372985
 20
394.6922392008
 30
0.0
 40
6.601089837288616
100
AcDbArc
 50
124.9187681796
 51
235.0812318204
  0
LINE
  5
1AA
330
16F
100
AcDbEntity
  8
$DDT_AUDIT_GENERATED_(1A1)
  6
Continuous
 62
     7
100
AcDbLine
 10
338.5167777794
 20
402.1922392008
 30
0.0
 11
335.7210490502
 21
402.1922392008
 31
0.0
  0
LINE
  5
1AB
330
16F
100
AcDbEntity
  8
$DDT_AUDIT_GENERATED_(1A1)
  6
Continuous
 62
     7
100
AcDbLine
 10
348.5167777794
 20
402.1922392008
 30
0.0
 11
348.5167777794
 21
400.1048979745
 31
0.0
  0
LINE
  5
1AC
330
16F
100
AcDbEntity
  8
$DDT_AUDIT_GENERATED_(1A1)
  6
Continuous
 62
     7
100
AcDbLine
 10
348.5167777794
 20
389.2795804272
 30
0.0
 11
348.5167777794
 21
385.1048979745
 31
0.0
  0
LINE
  5
1AD
330
16F
100
AcDbEntity
  8
$DDT_AUDIT_GENERATED_(1A1)
  6
Continuous
 62
     7
100
AcDbLine
 10
348.5167777794
 20
374.2795804272
 30
0.0
 11
348.5167777794
 21
372.1922392008
 31
0.0
  0
LINE
  5
1AE
330
16F
100
AcDbEntity
  8
$DDT_AUDIT_GENERATED_(1A1)
  6
Continuous
 62
     7
100
AcDbLine
 10
348.5167777794
 20
402.1922392008
 30
0.0
 11
351.3125065085
 21
402.1922392008
 31
0.0
  0
LINE
  5
1AF
330
16F
100
AcDbEntity
  8
$DDT_AUDIT_GENERATED_(1A1)
  6
Continuous
 62
     7
100
AcDbLine
 10
348.5167777794
 20
402.1922392008
 30
0.0
 11
338.5167777794
 21
402.1922392008
 31
0.0
  0
LINE
  5
1B0
330
16F
100
AcDbEntity
  8
$DDT_AUDIT_GENERATED_(1A1)
  6
Continuous
 62
     7
100
AcDbLine
 10
338.5167777794
 20
400.1048979745
 30
0.0
 11
348.5167777794
 21
400.1048979745
 31
0.0
  0
ARC
  5
1B1
330
16F
100
AcDbEntity
  8
$DDT_AUDIT_GENERATED_(1A1)
  6
Continuous
 62
     7
100
AcDbCircle
 10
344.7382182602
 20
394.6922392008
 30
0.0
 40
6.601089837288606
100
AcDbArc
 50
304.9187681796
 51
55.0812318204
  0
LINE
  5
1B2
330
16F
100
AcDbEntity
  8
$DDT_AUDIT_GENERATED_(1A1)
  6
Continuous
 62
     7
100
AcDbLine
 10
348.5167777794
 20
389.2795804272
 30
0.0
 11
338.5167777794
 21
389.2795804272
 31
0.0
  0
LINE
  5
1B3
330
16F
100
AcDbEntity
  8
$DDT_AUDIT_GENERATED_(1A1)
  6
Continuous
 62
     7
100
AcDbLine
 10
338.5167777794
 20
385.1048979745
 30
0.0
 11
348.5167777794
 21
385.1048979745
 31
0.0
  0
ARC
  5
1B4
330
16F
100
AcDbEntity
  8
$DDT_AUDIT_GENERATED_(1A1)
  6
Continuous
 62
     7
100
AcDbCircle
 10
344.7382182602
 20
379.6922392008
 30
0.0
 40
6.601089837288608
100
AcDbArc
 50
304.9187681796
 51
55.0812318204
  0
LINE
  5
1B5
330
16F
100
AcDbEntity
  8
$DDT_AUDIT_GENERATED_(1A1)
  6
Continuous
 62
     7
100
AcDbLine
 10
348.5167777794
 20
374.2795804272
 30
0.0
 11
338.5167777794
 21
374.2795804272
 31
0.0
  0
LINE
  5
1B6
330
16F
100
AcDbEntity
  8
$DDT_AUDIT_GENERATED_(1A1)
  6
Continuous
 62
     7
100
AcDbLine
 10
338.5167777794
 20
372.1922392008
 30
0.0
 11
348.5167777794
 21
372.1922392008
 31
0.0
  0
LINE
  5
1B7
330
16F
100
AcDbEntity
  8
$DDT_AUDIT_GENERATED_(1A1)
  6
Continuous
 62
     7
100
AcDbLine
 10
348.5167777794
 20
372.1922392008
 30
0.0
 11
351.3125065085
 21
372.1922392008
 31
0.0
  0
ARC
  5
1B8
330
16F
100
AcDbEntity
  8
$DDT_AUDIT_GENERATED_(1A1)
  6
Continuous
 62
     7
100
AcDbCircle
 10
345.8810765811
 20
393.7958368044
 30
0.0
 40
10.0
100
AcDbArc
 50
52.1519040322
 51
57.1005523854
  0
ARC
  5
1B9
330
16F
100
AcDbEntity
  8
$DDT_AUDIT_GENERATED_(1A1)
  6
Continuous
 62
     7
100
AcDbCircle
 10
345.8810765811
 20
380.5886415973
 30
0.0
 40
9.999999999999996
100
AcDbArc
 50
302.8958395992
 51
307.8480959678
  0
ARC
  5
1BA
330
16F
100
AcDbEntity
  8
$DDT_AUDIT_GENERATED_(1A1)
  6
Continuous
 62
     7
100
AcDbCircle
 10
341.1524789776
 20
393.7958368044
 30
0.0
 40
9.999999999999996
100
AcDbArc
 50
122.8958395992
 51
127.8480959678
  0
ARC
  5
1BB
330
16F
100
AcDbEntity
  8
$DDT_AUDIT_GENERATED_(1A1)
  6
Continuous
 62
     7
100
AcDbCircle
 10
341.1524789776
 20
380.5886415973
 30
0.0
 40
10.0
100
AcDbArc
 50
232.1519040322
 51
237.1005523854
  0
LINE
  5
1BC
330
16F
100
AcDbEntity
  8
$DDT_AUDIT_GENERATED_(A7)
  6
Continuous
 62
     7
100
AcDbLine
 10
308.0167777794
 20
422.1922392008
 30
0.0
 11
308.0167777794
 21
352.1922392008
 31
0.0
  0
LINE
  5
1BD
330
16F
100
AcDbEntity
  8
$DDT_AUDIT_GENERATED_(A7)
  6
Continuous
 62
     7
100
AcDbLine
 10
334.0167777794
 20
372.3247108594
 30
0.0
 11
334.0167777794
 21
402.0597675423
 31
0.0
  0
LINE
  5
1BE
330
16F
100
AcDbEntity
  8
$DDT_AUDIT_GENERATED_(A7)
  6
Continuous
 62
     7
100
AcDbLine
 10
313.2031413233
 20
422.1922392008
 30
0.0
 11
313.2031413233
 21
352.1922392008
 31
0.0
  0
LINE
  5
1BF
330
16F
100
AcDbEntity
  8
$DDT_AUDIT_GENERATED_(A7)
  6
Continuous
 62
     7
100
AcDbLine
 10
308.0167777794
 20
352.1922392008
 30
0.0
 11
313.2031413233
 21
352.1922392008
 31
0.0
  0
LINE
  5
1C0
330
16F
100
AcDbEntity
  8
$DDT_AUDIT_GENERATED_(A7)
  6
Continuous
 62
     7
100
AcDbLine
 10
313.2031413233
 20
422.1922392008
 30
0.0
 11
308.0167777794
 21
422.1922392008
 31
0.0
  0
LINE
  5
1C1
330
16F
100
AcDbEntity
  8
$DDT_AUDIT_GENERATED_(A7)
  6
Continuous
 62
     7
100
AcDbLine
 10
314.5993415955
 20
352.7602389216
 30
0.0
 11
333.5639279835
 21
371.2507106499
 31
0.0
  0
LINE
  5
1C2
330
16F
100
AcDbEntity
  8
$DDT_AUDIT_GENERATED_(A7)
  6
Continuous
 62
     7
100
AcDbLine
 10
333.5639279835
 20
403.1337677517
 30
0.0
 11
314.5993415955
 21
421.6242394801
 31
0.0
  0
ARC
  5
1C3
330
16F
100
AcDbEntity
  8
$DDT_AUDIT_GENERATED_(A7)
  6
Continuous
 62
     7
100
AcDbCircle
 10
332.5167777794
 20
372.3247108594
 30
0.0
 40
1.500000000000003
100
AcDbArc
 50
314.2747757009
 51
0.0
  0
ARC
  5
1C4
330
16F
100
AcDbEntity
  8
$DDT_AUDIT_GENERATED_(A7)
  6
Continuous
 62
     7
100
AcDbCircle
 10
332.5167777794
 20
402.0597675423
 30
0.0
 40
1.500000000000001
100
AcDbArc
 50
0.0
 51
45.7252242991
  0
ARC
  5
1C5
330
16F
100
AcDbEntity
  8
$DDT_AUDIT_GENERATED_(A7)
  6
Continuous
 62
     7
100
AcDbCircle
 10
313.2031413233
 20
420.1922392008
 30
0.0
 40
2.0
100
AcDbArc
 50
45.7252242991
 51
90.0
  0
ARC
  5
1C6
330
16F
100
AcDbEntity
  8
$DDT_AUDIT_GENERATED_(A7)
  6
Continuous
 62
     7
100
AcDbCircle
 10
313.2031413233
 20
354.1922392008
 30
0.0
 40
2.000000000000002
100
AcDbArc
 50
270.0
 51
314.2747757009
  0
LINE
  5
1C7
330
16F
100
AcDbEntity
  8
02555038_GEHÄUSE
  6
Continuous
 62
     7
100
AcDbLine
 10
466.2163966025
 20
361.3922392008
 30
0.0
 11
440.7163966025
 21
361.3922392008
 31
0.0
  0
LINE
  5
1C8
330
16F
100
AcDbEntity
  8
02555038_GEHÄUSE
  6
Continuous
 62
     7
100
AcDbLine
 10
439.4663966025
 20
362.1139270373
 30
0.0
 11
448.2702441798
 21
362.1139270373
 31
0.0
  0
SPLINE
  5
1C9
330
16F
100
AcDbEntity
  8
02555038_GEHÄUSE
  6
Continuous
 62
     7
100
AcDbSpline
210
0.0
220
0.0
230
1.0
 70
     8
 71
     3
 72
    14
 73
    10
 74
     0
 42
0.0000000009541162
 43
0.0000000001
 40
0.0
 40
0.0
 40
0.0
 40
0.0
 40
0.25
 40
0.25
 40
0.5
 40
0.5
 40
0.75
 40
0.75
 40
1.0
 40
1.0
 40
1.0
 40
1.0
 10
448.2702441798162
 20
362.1139270373213
 30
0.0
 10
449.1202670074646
 20
361.9317792885394
 30
0.0
 10
449.9806533019593
 20
361.785952278254
 30
0.0
 10
451.7279411053413
 20
361.587225864095
 30
0.0
 10
452.6036535149982
 20
361.5362822000465
 30
0.0
 10
454.3444476056462
 20
361.536873937982
 30
0.0
 10
455.2118469783312
 20
361.5880945661265
 30
0.0
 10
456.9411072176972
 20
361.784624510014
 30
0.0
 10
457.8031834038556
 20
361.9297772613126
 30
0.0
 10
458.6625490252294
 20
362.1139270373213
 30
0.0
  0
ARC
  5
1CA
330
16F
100
AcDbEntity
  8
02555038_GEHÄUSE
  6
Continuous
 62
     7
100
AcDbCircle
 10
453.4663966025
 20
353.3922392008
 30
0.0
 40
13.99999999999999
100
AcDbArc
 50
68.2132107017
 51
111.7867892983
  0
LINE
  5
1CB
330
16F
100
AcDbEntity
  8
02555038_GEHÄUSE
  6
Continuous
 62
     7
100
AcDbLine
 10
448.2702441798
 20
366.3922392008
 30
0.0
 11
458.6625490252
 21
366.3922392008
 31
0.0
  0
LINE
  5
1CC
330
16F
100
AcDbEntity
  8
02555038_GEHÄUSE
  6
Continuous
 62
     7
100
AcDbLine
 10
448.2702441798
 20
366.3922392008
 30
0.0
 11
448.2702441798
 21
362.1139270373
 31
0.0
  0
LINE
  5
1CD
330
16F
100
AcDbEntity
  8
02555038_GEHÄUSE
  6
Continuous
 62
     7
100
AcDbLine
 10
458.6625490252
 20
362.1139270373
 30
0.0
 11
458.6625490252
 21
366.3922392008
 31
0.0
  0
LINE
  5
1CE
330
16F
100
AcDbEntity
  8
02555038_GEHÄUSE
  6
Continuous
 62
     7
100
AcDbLine
 10
458.6625490252
 20
362.1139270373
 30
0.0
 11
467.4663966025
 21
362.1139270373
 31
0.0
  0
LINE
  5
1CF
330
16F
100
AcDbEntity
  8
02555038_GEHÄUSE
  6
Continuous
 62
     7
100
AcDbLine
 10
439.4663966025
 20
362.1139270373
 30
0.0
 11
440.7163966025
 21
361.3922392008
 31
0.0
  0
LINE
  5
1D0
330
16F
100
AcDbEntity
  8
02555038_GEHÄUSE
  6
Continuous
 62
     7
100
AcDbLine
 10
466.2163966025
 20
361.3922392008
 30
0.0
 11
467.4663966025
 21
362.1139270373
 31
0.0
  0
LINE
  5
1D1
330
16F
100
AcDbEntity
  8
02555038_GEHÄUSE
  6
Continuous
 62
     7
100
AcDbLine
 10
467.4663966025
 20
362.1139270373
 30
0.0
 11
467.4663966025
 21
372.1922392008
 31
0.0
  0
LINE
  5
1D2
330
16F
100
AcDbEntity
  8
02555038_GEHÄUSE
  6
Continuous
 62
     7
100
AcDbLine
 10
439.4663966025
 20
372.1922392008
 30
0.0
 11
439.4663966025
 21
362.1139270373
 31
0.0
  0
SPLINE
  5
1D3
330
16F
100
AcDbEntity
  8
$DDT_AUDIT_GENERATED_(F9)
  6
Continuous
 62
     7
100
AcDbSpline
210
0.0
220
0.0
230
1.0
 70
     8
 71
     3
 72
     8
 73
     4
 74
     0
 42
0.0000000047086291
 43
0.0000000001
 40
0.4995175668914384
 40
0.4995175668914384
 40
0.4995175668914384
 40
0.4995175668914384
 40
0.4999884298018978
 40
0.4999884298018978
 40
0.4999884298018978
 40
0.4999884298018978
 10
384.7512444337081
 20
372.1398229042907
 30
0.0
 10
384.751243019905
 20
372.1397768114752
 30
0.0
 10
384.7512423138096
 20
372.1397537498004
 30
0.0
 10
384.7512423233644
 20
372.1397537436941
 30
0.0
  0
LINE
  5
1D4
330
16F
100
AcDbEntity
  8
$DDT_AUDIT_GENERATED_(F9)
  6
Continuous
 62
     7
100
AcDbLine
 10
384.5167777794
 20
401.9201659335
 30
0.0
 11
384.5167777794
 21
372.4325758615
 31
0.0
  0
SPLINE
  5
1D5
330
16F
100
AcDbEntity
  8
$DDT_AUDIT_GENERATED_(F9)
  6
Continuous
 62
     7
100
AcDbSpline
210
0.0
220
0.0
230
1.0
 70
     8
 71
     3
 72
    18
 73
    14
 74
     0
 42
0.0000000001355603
 43
0.0000000001
 40
0.6467683022052201
 40
0.6467683022052201
 40
0.6467683022052201
 40
0.6467683022052201
 40
0.6562500000000002
 40
0.6562500000000002
 40
0.6875000000000002
 40
0.6875000000000002
 40
0.7187500000000001
 40
0.7187500000000001
 40
0.7343750000000002
 40
0.7343750000000002
 40
0.7500000000000002
 40
0.7500000000000002
 40
0.7543635626408419
 40
0.7543635626408419
 40
0.7543635626408419
 40
0.7543635626408419
 10
424.5047022030939
 20
371.6073743202514
 30
0.0
 10
424.4790368674924
 20
371.2986715381101
 30
0.0
 10
424.4511788773582
 20
370.9950846087208
 30
0.0
 10
424.3221561897415
 20
369.7162181372146
 30
0.0
 10
424.1993490587113
 20
368.7935509669019
 30
0.0
 10
423.9097587674779
 20
367.0697766806671
 30
0.0
 10
423.7432449363931
 20
366.2692278176248
 30
0.0
 10
423.4611019961378
 20
365.1650481148983
 30
0.0
 10
423.355247402227
 20
364.797779212032
 30
0.0
 10
423.1716232305464
 20
364.1916494369104
 30
0.0
 10
423.0937753901853
 20
363.9514758788384
 30
0.0
 10
423.0565249960371
 20
363.8371624808372
 30
0.0
 10
423.0526430973203
 20
363.82507345829
 30
0.0
 10
423.052680332915
 20
363.8250273826495
 30
0.0
  0
SPLINE
  5
1D6
330
16F
100
AcDbEntity
  8
$DDT_AUDIT_GENERATED_(F9)
  6
Continuous
 62
     7
100
AcDbSpline
210
0.0
220
0.0
230
1.0
 70
     8
 71
     3
 72
     8
 73
     4
 74
     0
 42
0.0000000030180843
 43
0.0000000001
 40
0.7445106672567571
 40
0.7445106672567571
 40
0.7445106672567571
 40
0.7445106672567571
 40
0.7448124756866289
 40
0.7448124756866289
 40
0.7448124756866289
 40
0.7448124756866289
 10
424.4200194485518
 20
406.0972190938508
 30
0.0
 10
424.4200193522232
 20
406.0972243266075
 30
0.0
 10
424.4200172839271
 20
406.0972210757111
 30
0.0
 10
424.4200132457073
 20
406.0972093330781
 30
0.0
  0
LINE
  5
1D7
330
16F
100
AcDbEntity
  8
$DDT_AUDIT_GENERATED_(F9)
  6
Continuous
 62
     7
100
AcDbLine
 10
384.7512423236
 20
372.1397537435
 30
0.0
 11
422.7099448319
 21
363.6423874617
 31
0.0
  0
LINE
  5
1D8
330
16F
100
AcDbEntity
  8
$DDT_AUDIT_GENERATED_(F9)
  6
Continuous
 62
     7
100
AcDbLine
 10
424.4139457289
 20
406.0968407982
 30
0.0
 11
384.787557385
 21
402.2187394898
 31
0.0
  0
SPLINE
  5
1D9
330
16F
100
AcDbEntity
  8
$DDT_AUDIT_GENERATED_(F9)
  6
Continuous
 62
     7
100
AcDbSpline
210
0.0
220
0.0
230
1.0
 70
     8
 71
     3
 72
     8
 73
     4
 74
     0
 42
0.0000000013030176
 43
0.0000000001
 40
0.0
 40
0.0
 40
0.0
 40
0.0
 40
1.0
 40
1.0
 40
1.0
 40
1.0
 10
423.0522392979921
 20
363.8303913257161
 30
0.0
 10
424.0062687427525
 20
366.1681521007316
 30
0.0
 10
424.8202927914228
 20
368.5898504093898
 30
0.0
 10
425.4943114440033
 20
371.0954862516907
 30
0.0
  0
LINE
  5
1DA
330
16F
100
AcDbEntity
  8
$DDT_AUDIT_GENERATED_(F9)
  6
Continuous
 62
     7
100
AcDbLine
 10
425.494311444
 20
403.28899215
 30
0.0
 11
424.714375593
 21
405.869624174
 31
0.0
  0
ARC
  5
1DB
330
16F
100
AcDbEntity
  8
$DDT_AUDIT_GENERATED_(F9)
  6
Continuous
 62
     7
100
AcDbCircle
 10
384.8167771444
 20
372.4325756568
 30
0.0
 40
0.2999984621986306
100
AcDbArc
 50
179.974159244
 51
257.3311644852
  0
ARC
  5
1DC
330
16F
100
AcDbEntity
  8
$DDT_AUDIT_GENERATED_(F9)
  6
Continuous
 62
     7
100
AcDbCircle
 10
384.8167774185
 20
401.9201085183
 30
0.0
 40
0.2999987695455634
100
AcDbArc
 50
98.7324196573
 51
180.0219509614
  0
ARC
  5
1DD
330
16F
100
AcDbEntity
  8
$DDT_AUDIT_GENERATED_(F9)
  6
Continuous
 62
     7
100
AcDbCircle
 10
425.0114005449
 20
371.2250897376
 30
0.0
 40
0.4999999999999399
100
AcDbArc
 50
344.9769881298
 51
0.0
  0
ARC
  5
1DE
330
16F
100
AcDbEntity
  8
$DDT_AUDIT_GENERATED_(F9)
  6
Continuous
 62
     7
100
AcDbCircle
 10
425.0114005449
 20
403.1593886641
 30
0.0
 40
0.5000000000000004
100
AcDbArc
 50
13.2268640928
 51
15.0230118702
  0
ARC
  5
1DF
330
16F
100
AcDbEntity
  8
$DDT_AUDIT_GENERATED_(F9)
  6
Continuous
 62
     7
100
AcDbCircle
 10
422.7842609057
 20
363.9213808546
 30
0.0
 40
0.2829851654870568
100
AcDbArc
 50
255.1815038469
 51
328.2473293981
  0
ARC
  5
1E0
330
16F
100
AcDbEntity
  8
$DDT_AUDIT_GENERATED_(F9)
  6
Continuous
 62
     7
100
AcDbCircle
 10
424.452872386
 20
405.8009384356
 30
0.0
 40
0.2941035800008823
100
AcDbArc
 50
14.7977260278
 51
97.0710150787
  0
SPLINE
  5
1E1
330
16F
100
AcDbEntity
  8
$DDT_AUDIT_GENERATED_(AB)
  6
Continuous
 62
     7
100
AcDbSpline
210
0.0
220
0.0
230
1.0
 70
     8
 71
     3
 72
    35
 73
    31
 74
     0
 42
0.0000000024500817
 43
0.0000000001
 40
0.2172001917604933
 40
0.2172001917604933
 40
0.2172001917604933
 40
0.2172001917604933
 40
0.2684968717132519
 40
0.2684968717132519
 40
0.2684968717132519
 40
0.3206536084561611
 40
0.3206536084561611
 40
0.3206536084561611
 40
0.3734191198488518
 40
0.3734191198488518
 40
0.3734191198488518
 40
0.4271970342010218
 40
0.4271970342010218
 40
0.4271970342010218
 40
0.4819783774851355
 40
0.4819783774851355
 40
0.4819783774851355
 40
0.5373171739363234
 40
0.5373171739363234
 40
0.5373171739363234
 40
0.5924923568322242
 40
0.5924923568322242
 40
0.5924923568322242
 40
0.6468356499108092
 40
0.6468356499108092
 40
0.6468356499108092
 40
0.7000653415663293
 40
0.7000653415663293
 40
0.7000653415663293
 40
0.7173184683071911
 40
0.7173184683071911
 40
0.7173184683071911
 40
0.7173184683071911
 10
426.7498260962083
 20
376.1922387306189
 30
0.0
 10
426.7498208131086
 20
376.1922127109837
 30
0.0
 10
426.7461564199424
 20
376.1741998512885
 30
0.0
 10
426.739140787757
 20
376.1397224839577
 30
0.0
 10
426.732005741911
 20
376.1046582744814
 30
0.0
 10
426.721216026858
 20
376.0516394567447
 30
0.0
 10
426.707690606034
 20
375.985206069267
 30
0.0
 10
426.6940068737678
 20
375.917995096713
 30
0.0
 10
426.6771598947761
 20
375.8352714540542
 30
0.0
 10
426.6585344321989
 20
375.7438642699178
 30
0.0
 10
426.6395551187331
 20
375.6507205107451
 30
0.0
 10
426.6182204719402
 20
375.5460652155455
 30
0.0
 10
426.5962512711895
 20
375.4383621727787
 30
0.0
 10
426.5738795543018
 20
375.328685812311
 30
0.0
 10
426.5502404728501
 20
375.2128624460146
 30
0.0
 10
426.5272545333082
 20
375.1003070488377
 30
0.0
 10
426.5040428184362
 20
374.986646096158
 30
0.0
 10
426.4808535253702
 20
374.8731658853343
 30
0.0
 10
426.4596336994747
 20
374.7693782033402
 30
0.0
 10
426.4384811442096
 20
374.6659195467968
 30
0.0
 10
426.4186919879784
 20
374.5691876120275
 30
0.0
 10
426.402004648592
 20
374.4876487844634
 30
0.0
 10
426.3855682502446
 20
374.4073361222958
 30
0.0
 10
426.3716794820742
 20
374.3395059534232
 30
0.0
 10
426.361603597094
 20
374.2903063929754
 30
0.0
 10
426.3517313341816
 20
374.2421010991605
 30
0.0
 10
426.3452442753351
 20
374.2104363153616
 30
0.0
 10
426.3427398359458
 20
374.1982113198081
 30
0.0
 10
426.3419277625254
 20
374.1942473213201
 30
0.0
 10
426.3415268461957
 20
374.192290209693
 30
0.0
 10
426.3415328073002
 20
374.1923192220025
 30
0.0
  0
ARC
  5
1E2
330
16F
100
AcDbEntity
  8
$DDT_AUDIT_GENERATED_(AB)
  6
Continuous
 62
     7
100
AcDbCircle
 10
367.7667777794
 20
387.1922392008
 30
0.0
 40
59.99999999999999
100
AcDbArc
 50
347.4985965882
 51
349.4350094863
  0
LINE
  5
1E3
330
16F
100
AcDbEntity
  8
$DDT_AUDIT_GENERATED_(AB)
  6
Continuous
 62
     7
100
AcDbLine
 10
426.3415163618
 20
374.1922392008
 30
0.0
 11
426.3440023914
 21
374.1922392008
 31
0.0
  0
SPLINE
  5
1E4
330
16F
100
AcDbEntity
  8
$DDT_AUDIT_GENERATED_(AD)
  6
Continuous
 62
     7
100
AcDbSpline
210
0.0
220
0.0
230
1.0
 70
     8
 71
     3
 72
    10
 73
     6
 74
     0
 42
0.0000000113039475
 43
0.0000000001
 40
0.0
 40
0.0
 40
0.0
 40
0.0
 40
0.2499999999999998
 40
0.2499999999999998
 40
0.479119144358646
 40
0.479119144358646
 40
0.479119144358646
 40
0.479119144358646
 10
427.7007729065436
 20
384.3786620579771
 30
0.0
 10
427.7009196003827
 20
384.3814104269251
 30
0.0
 10
427.7020587656637
 20
384.4543123749934
 30
0.0
 10
427.7014402444636
 20
384.6243370546303
 30
0.0
 10
427.6999571876026
 20
384.7209599967358
 30
0.0
 10
427.6958620567901
 20
384.8023850042407
 30
0.0
  0
LINE
  5
1E5
330
16F
100
AcDbEntity
  8
$DDT_AUDIT_GENERATED_(AD)
  6
Continuous
 62
     7
100
AcDbLine
 10
427.6166513633
 20
384.799202058
 30
0.0
 11
427.6044864063
 21
384.9436046664
 31
0.0
  0
SPLINE
  5
1E6
330
16F
100
AcDbEntity
  8
$DDT_AUDIT_GENERATED_(AD)
  6
Continuous
 62
     7
100
AcDbSpline
210
0.0
220
0.0
230
1.0
 70
     8
 71
     3
 72
    10
 73
     6
 74
     0
 42
0.0000000057170809
 43
0.0000000001
 40
0.0
 40
0.0
 40
0.0
 40
0.0
 40
0.1250000000000001
 40
0.1250000000000001
 40
0.1554035756002349
 40
0.1554035756002349
 40
0.1554035756002349
 40
0.1554035756002349
 10
427.6044864233804
 20
384.9436049151199
 30
0.0
 10
427.6282591597127
 20
385.0490531210839
 30
0.0
 10
427.6492215575771
 20
385.1506848705187
 30
0.0
 10
427.6701376314684
 20
385.1972557496429
 30
0.0
 10
427.6738959988151
 20
385.2011609162121
 30
0.0
 10
427.6773380705817
 20
385.2006133029604
 30
0.0
  0
ARC
  5
1E7
330
16F
100
AcDbEntity
  8
$DDT_AUDIT_GENERATED_(AD)
  6
Continuous
 62
     7
100
AcDbCircle
 10
433.3977659573
 20
388.4594636225
 30
0.0
 40
5.957249596583789
100
AcDbArc
 50
170.3613626802
 51
191.9099968133
  0
ARC
  5
1E8
330
16F
100
AcDbEntity
  8
$DDT_AUDIT_GENERATED_(AD)
  6
Continuous
 62
     7
100
AcDbCircle
 10
367.7667777794
 20
387.1922392008
 30
0.0
 40
59.90220880365388
100
AcDbArc
 50
1.1010435273
 51
1.5695016499
  0
SPLINE
  5
1E9
330
16F
100
AcDbEntity
  8
$DDT_AUDIT_GENERATED_(AD)
  6
Continuous
 62
     7
100
AcDbSpline
210
0.0
220
0.0
230
1.0
 70
     8
 71
     3
 72
    10
 73
     6
 74
     0
 42
0.000000012017939
 43
0.0000000001
 40
0.0
 40
0.0
 40
0.0
 40
0.0
 40
0.2499999999999999
 40
0.2499999999999999
 40
0.424212976065655
 40
0.424212976065655
 40
0.424212976065655
 40
0.424212976065655
 10
427.7337620784639
 20
385.2020677722628
 30
0.0
 10
427.7338686044263
 20
385.2047568355259
 30
0.0
 10
427.7340047869225
 20
385.2747539359165
 30
0.0
 10
427.7315577680905
 20
385.4208754089507
 30
0.0
 10
427.7297920034857
 20
385.4897634714611
 30
0.0
 10
427.726848967448
 20
385.5549391362419
 30
0.0
  0
LINE
  5
1EA
330
16F
100
AcDbEntity
  8
$DDT_AUDIT_GENERATED_(AD)
  6
Continuous
 62
     7
100
AcDbLine
 10
427.5667127684
 20
385.3169506294
 30
0.0
 11
427.5562164646
 21
385.4984161654
 31
0.0
  0
SPLINE
  5
1EB
330
16F
100
AcDbEntity
  8
$DDT_AUDIT_GENERATED_(AD)
  6
Continuous
 62
     7
100
AcDbSpline
210
0.0
220
0.0
230
1.0
 70
     8
 71
     3
 72
    10
 73
     6
 74
     0
 42
0.0000000040467058
 43
0.0000000001
 40
0.0
 40
0.0
 40
0.0
 40
0.0
 40
0.125
 40
0.125
 40
0.2225462720140385
 40
0.2225462720140385
 40
0.2225462720140385
 40
0.2225462720140385
 10
427.5562164799183
 20
385.4984163436914
 30
0.0
 10
427.5907670041174
 20
385.6156469628705
 30
0.0
 10
427.6210549873963
 20
385.7329627895008
 30
0.0
 10
427.6673921460743
 20
385.9419735629066
 30
0.0
 10
427.6852226339515
 20
386.0177563890784
 30
0.0
 10
427.6990819782446
 20
386.022435621144
 30
0.0
  0
ARC
  5
1EC
330
16F
100
AcDbEntity
  8
$DDT_AUDIT_GENERATED_(AD)
  6
Continuous
 62
     7
100
AcDbCircle
 10
653.9563791525
 20
392.6845912817
 30
0.0
 40
226.2562235254604
100
AcDbArc
 50
181.3692603688
 51
181.3904393897
  0
ARC
  5
1ED
330
16F
100
AcDbEntity
  8
$DDT_AUDIT_GENERATED_(AD)
  6
Continuous
 62
     7
100
AcDbCircle
 10
654.4316102916
 20
392.6758069472
 30
0.0
 40
226.631217776926
100
AcDbArc
 50
180.8219535037
 51
181.3852529456
  0
SPLINE
  5
1EE
330
16F
100
AcDbEntity
  8
$DDT_AUDIT_GENERATED_(AD)
  6
Continuous
 62
     7
100
AcDbSpline
210
0.0
220
0.0
230
1.0
 70
     8
 71
     3
 72
     8
 73
     4
 74
     0
 42
0.0000000420495459
 43
0.0000000001
 40
0.7157891647272479
 40
0.7157891647272479
 40
0.7157891647272479
 40
0.7157891647272479
 40
1.0
 40
1.0
 40
1.0
 40
1.0
 10
427.7226719615799
 20
389.4922736415563
 30
0.0
 10
427.7226705634483
 20
389.4922847941442
 30
0.0
 10
427.7229905433136
 20
389.4698604317844
 30
0.0
 10
427.72364084793
 20
389.4247134865485
 30
0.0
  0
SPLINE
  5
1EF
330
16F
100
AcDbEntity
  8
$DDT_AUDIT_GENERATED_(AD)
  6
Continuous
 62
     7
100
AcDbSpline
210
0.0
220
0.0
230
1.0
 70
     8
 71
     3
 72
     8
 73
     4
 74
     0
 42
0.0000000421496712
 43
0.0000000001
 40
0.0
 40
0.0
 40
0.0
 40
0.0
 40
0.2836999273058783
 40
0.2836999273058783
 40
0.2836999273058783
 40
0.2836999273058783
 10
427.8237126747012
 20
389.4247134865485
 30
0.0
 10
427.823065893612
 20
389.4696907582099
 30
0.0
 10
427.8227484403891
 20
389.4919740738894
 30
0.0
 10
427.8227490928958
 20
389.492014313858
 30
0.0
  0
SPLINE
  5
1F0
330
16F
100
AcDbEntity
  8
$DDT_AUDIT_GENERATED_(AD)
  6
Continuous
 62
     7
100
AcDbSpline
210
0.0
220
0.0
230
1.0
 70
     8
 71
     3
 72
    16
 73
    12
 74
     0
 42
0.0000000135868741
 43
0.0000000001
 40
0.0
 40
0.0
 40
0.0
 40
0.0
 40
0.2499999999999997
 40
0.2499999999999997
 40
0.3749999999999997
 40
0.3749999999999997
 40
0.4999999999999998
 40
0.4999999999999998
 40
0.7499999999999999
 40
0.7499999999999999
 40
1.0
 40
1.0
 40
1.0
 40
1.0
 10
427.8514630966617
 20
388.3432992008342
 30
0.0
 10
427.8496106486311
 20
388.4400763295704
 30
0.0
 10
427.8476352784711
 20
388.538297747098
 30
0.0
 10
427.8449116318358
 20
388.6746812536645
 30
0.0
 10
427.8440469349401
 20
388.71830506389
 30
0.0
 10
427.8423345173169
 20
388.8028601356522
 30
0.0
 10
427.8414730103005
 20
388.8438120968476
 30
0.0
 10
427.8392649299453
 20
388.9530375166028
 30
0.0
 10
427.8384240207332
 20
389.0018455847265
 30
0.0
 10
427.8373816515604
 20
389.0641409661758
 30
0.0
 10
427.8372321914766
 20
389.0765198901693
 30
0.0
 10
427.8373149973823
 20
389.0738763436913
 30
0.0
  0
SPLINE
  5
1F1
330
16F
100
AcDbEntity
  8
$DDT_AUDIT_GENERATED_(AD)
  6
Continuous
 62
     7
100
AcDbSpline
210
0.0
220
0.0
230
1.0
 70
     8
 71
     3
 72
    16
 73
    12
 74
     0
 42
0.0000000135866131
 43
0.0000000001
 40
0.0
 40
0.0
 40
0.0
 40
0.0
 40
0.25
 40
0.25
 40
0.5
 40
0.5
 40
0.625
 40
0.625
 40
0.75
 40
0.75
 40
1.0
 40
1.0
 40
1.0
 40
1.0
 10
427.8653068309602
 20
387.6127220579771
 30
0.0
 10
427.8653254051755
 20
387.6100672933403
 30
0.0
 10
427.8650014884453
 20
387.6223988667107
 30
0.0
 10
427.8636439756942
 20
387.6853302136433
 30
0.0
 10
427.8626039698555
 20
387.7347869747863
 30
0.0
 10
427.8606421008299
 20
387.8432481730476
 30
0.0
 10
427.8599214279691
 20
387.8849219857985
 30
0.0
 10
427.8584044162461
 20
387.9688686950981
 30
0.0
 10
427.8576006119897
 20
388.0123420815827
 30
0.0
 10
427.8550745117507
 20
388.1500504142553
 30
0.0
 10
427.8532993226374
 20
388.2475287826261
 30
0.0
 10
427.8514630966617
 20
388.3432992008342
 30
0.0
  0
LINE
  5
1F2
330
16F
100
AcDbEntity
  8
$DDT_AUDIT_GENERATED_(AD)
  6
Continuous
 62
     7
100
AcDbLine
 10
427.7287027215
 20
389.3950049151
 30
0.0
 11
427.6670696311
 21
389.3950049151
 31
0.0
  0
LINE
  5
1F3
330
16F
100
AcDbEntity
  8
$DDT_AUDIT_GENERATED_(AD)
  6
Continuous
 62
     7
100
AcDbLine
 10
427.7690673047
 20
387.2915934865
 30
0.0
 11
427.7073881892
 21
387.2915934865
 31
0.0
  0
LINE
  5
1F4
330
16F
100
AcDbEntity
  8
$DDT_AUDIT_GENERATED_(AD)
  6
Continuous
 62
     7
100
AcDbLine
 10
427.8092351414
 20
388.658402058
 30
0.0
 11
427.7805096693
 21
388.658402058
 31
0.0
  0
LINE
  5
1F5
330
16F
100
AcDbEntity
  8
$DDT_AUDIT_GENERATED_(AD)
  6
Continuous
 62
     7
100
AcDbLine
 10
427.7910561123
 20
388.3241077723
 30
0.0
 11
427.7877451359
 21
388.3241077723
 31
0.0
  0
LINE
  5
1F6
330
16F
100
AcDbEntity
  8
$DDT_AUDIT_GENERATED_(AD)
  6
Continuous
 62
     7
100
AcDbLine
 10
427.8326327156
 20
387.2915934865
 30
0.0
 11
427.7983342943
 21
387.2915934865
 31
0.0
  0
ARC
  5
1F7
330
16F
100
AcDbEntity
  8
$DDT_AUDIT_GENERATED_(AD)
  6
Continuous
 62
     7
100
AcDbCircle
 10
419.3452826682
 20
388.4286759171
 30
0.0
 40
8.484927421653223
100
AcDbArc
 50
358.0646136004
 51
2.076918107
  0
SPLINE
  5
1F8
330
16F
100
AcDbEntity
  8
$DDT_AUDIT_GENERATED_(AD)
  6
Continuous
 62
     7
100
AcDbSpline
210
0.0
220
0.0
230
1.0
 70
     8
 71
     3
 72
    18
 73
    14
 74
     0
 42
0.0000000149745275
 43
0.0000000001
 40
0.0
 40
0.0
 40
0.0
 40
0.0
 40
0.249999999999999
 40
0.249999999999999
 40
0.3749999999999985
 40
0.3749999999999985
 40
0.4999999999999984
 40
0.4999999999999984
 40
0.6249999999999983
 40
0.6249999999999983
 40
0.7499999999999989
 40
0.7499999999999989
 40
1.0
 40
1.0
 40
1.0
 40
1.0
 10
427.8246361270732
 20
388.7361792008342
 30
0.0
 10
427.822155092236
 20
388.8325246635371
 30
0.0
 10
427.8189988150663
 20
388.9287662333364
 30
0.0
 10
427.8133537786541
 20
389.0585468266511
 30
0.0
 10
427.8113574428731
 20
389.0987249327757
 30
0.0
 10
427.8071969735643
 20
389.1762335016855
 30
0.0
 10
427.8050308197491
 20
389.2126040193285
 30
0.0
 10
427.8007074425929
 20
389.2722959677951
 30
0.0
 10
427.7985114127733
 20
389.296515826247
 30
0.0
 10
427.79424810459
 20
389.3362508465555
 30
0.0
 10
427.7921550583662
 20
389.3519166687693
 30
0.0
 10
427.7859482252683
 20
389.388129769234
 30
0.0
 10
427.7820157931877
 20
389.3972205303746
 30
0.0
 10
427.7782580911392
 20
389.3950049151199
 30
0.0
  0
LINE
  5
1F9
330
16F
100
AcDbEntity
  8
$DDT_AUDIT_GENERATED_(AD)
  6
Continuous
 62
     7
100
AcDbLine
 10
427.7782580911
 20
389.3950049151
 30
0.0
 11
427.7287027215
 21
389.3950049151
 31
0.0
  0
ARC
  5
1FA
330
16F
100
AcDbEntity
  8
$DDT_AUDIT_GENERATED_(AD)
  6
Continuous
 62
     7
100
AcDbCircle
 10
367.7667777794
 20
387.1922392008
 30
0.0
 40
60.00237178275996
100
AcDbArc
 50
0.0948726472
 51
2.1038759178
  0
LINE
  5
1FB
330
16F
100
AcDbEntity
  8
$DDT_AUDIT_GENERATED_(AD)
  6
Continuous
 62
     7
100
AcDbLine
 10
427.7690673047
 20
387.2915934865
 30
0.0
 11
427.7983342943
 21
387.2915934865
 31
0.0
  0
ARC
  5
1FC
330
16F
100
AcDbEntity
  8
$DDT_AUDIT_GENERATED_(AD)
  6
Continuous
 62
     7
100
AcDbCircle
 10
367.7667777794
 20
387.1922392008
 30
0.0
 40
60.03163873226857
100
AcDbArc
 50
0.0948263943
 51
1.7188743099
  0
LINE
  5
1FD
330
16F
100
AcDbEntity
  8
$DDT_AUDIT_GENERATED_(AD)
  6
Continuous
 62
     7
100
AcDbLine
 10
427.7714042711
 20
388.9929192008
 30
0.0
 11
427.787590662
 21
388.9929192008
 31
0.0
  0
SPLINE
  5
1FE
330
16F
100
AcDbEntity
  8
$DDT_AUDIT_GENERATED_(AD)
  6
Continuous
 62
     7
100
AcDbSpline
210
0.0
220
0.0
230
1.0
 70
     8
 71
     3
 72
    12
 73
     8
 74
     0
 42
0.0000000295050928
 43
0.0000000001
 40
0.0
 40
0.0
 40
0.0
 40
0.0
 40
0.2500000000000003
 40
0.2500000000000003
 40
0.5000000000000007
 40
0.5000000000000007
 40
1.0
 40
1.0
 40
1.0
 40
1.0
 10
427.7875906620148
 20
388.9929192008343
 30
0.0
 10
427.7893922362355
 20
388.9941534719323
 30
0.0
 10
427.7913385116831
 20
388.9884353449934
 30
0.0
 10
427.795504175727
 20
388.9588769623108
 30
0.0
 10
427.7976742857694
 20
388.9358886488339
 30
0.0
 10
427.8037509813003
 20
388.8359400682764
 30
0.0
 10
427.8070753234367
 20
388.7466774689913
 30
0.0
 10
427.8092351414244
 20
388.6584020579771
 30
0.0
  0
ARC
  5
1FF
330
16F
100
AcDbEntity
  8
$DDT_AUDIT_GENERATED_(AD)
  6
Continuous
 62
     7
100
AcDbCircle
 10
425.2872912862
 20
388.5221181315
 30
0.0
 40
2.525623510599567
100
AcDbArc
 50
355.5033628094
 51
3.0932116846
  0
LINE
  5
200
330
16F
100
AcDbEntity
  8
$DDT_AUDIT_GENERATED_(AD)
  6
Continuous
 62
     7
100
AcDbLine
 10
427.8051407684
 20
388.3241077723
 30
0.0
 11
427.7910561123
 21
388.3241077723
 31
0.0
  0
ARC
  5
201
330
16F
100
AcDbEntity
  8
$DDT_AUDIT_GENERATED_(AD)
  6
Continuous
 62
     7
100
AcDbCircle
 10
389.2880700577
 20
386.2566007287
 30
0.0
 40
38.558455888333
100
AcDbArc
 50
1.538127989
 51
3.0736776814
  0
LINE
  5
202
330
16F
100
AcDbEntity
  8
$DDT_AUDIT_GENERATED_(AD)
  6
Continuous
 62
     7
100
AcDbLine
 10
427.8326327156
 20
387.2915934865
 30
0.0
 11
427.8519641797
 21
387.2915934865
 31
0.0
  0
ELLIPSE
  5
203
330
16F
100
AcDbEntity
  8
$DDT_AUDIT_GENERATED_(AD)
  6
Continuous
 62
     7
100
AcDbEllipse
 10
367.7667746344
 20
386.5784477303
 30
0.0
 11
60.09237002646922
 21
1.374612945172216E-7
 31
0.0
210
0.0
220
0.0
230
1.0
 40
0.7676969279
 41
0.0154591774218488
 42
0.0337584008628919
  0
LINE
  5
204
330
16F
100
AcDbEntity
  8
$DDT_AUDIT_GENERATED_(AD)
  6
Continuous
 62
     7
100
AcDbLine
 10
427.8249063864
 20
388.1355192008
 30
0.0
 11
427.8253698493
 21
388.1421192008
 31
0.0
  0
LINE
  5
205
330
16F
100
AcDbEntity
  8
$DDT_AUDIT_GENERATED_(AD)
  6
Continuous
 62
     7
100
AcDbLine
 10
427.6913212041
 20
388.3432992008
 30
0.0
 11
427.5910279181
 21
388.3432992008
 31
0.0
  0
LINE
  5
206
330
16F
100
AcDbEntity
  8
$DDT_AUDIT_GENERATED_(AD)
  6
Continuous
 62
     7
100
AcDbLine
 10
427.70000174
 20
387.7256334865
 30
0.0
 11
427.6343444052
 21
387.7256334865
 31
0.0
  0
LINE
  5
207
330
16F
100
AcDbEntity
  8
$DDT_AUDIT_GENERATED_(AD)
  6
Continuous
 62
     7
100
AcDbLine
 10
427.7142994176
 20
388.8329334865
 30
0.0
 11
427.614044639
 21
388.8329334865
 31
0.0
  0
SPLINE
  5
208
330
16F
100
AcDbEntity
  8
$DDT_AUDIT_GENERATED_(AD)
  6
Continuous
 62
     7
100
AcDbSpline
210
0.0
220
0.0
230
1.0
 70
     8
 71
     3
 72
     8
 73
     4
 74
     0
 42
0.0000000351812784
 43
0.0000000001
 40
0.0
 40
0.0
 40
0.0
 40
0.0
 40
1.0
 40
1.0
 40
1.0
 40
1.0
 10
427.6691308974312
 20
387.2298363436914
 30
0.0
 10
427.6970818077211
 20
387.2298363436914
 30
0.0
 10
427.7218632058513
 20
387.3167939810912
 30
0.0
 10
427.7406642705544
 20
387.4815963436914
 30
0.0
  0
ARC
  5
209
330
16F
100
AcDbEntity
  8
$DDT_AUDIT_GENERATED_(AD)
  6
Continuous
 62
     7
100
AcDbCircle
 10
367.7667777794
 20
387.1922392008
 30
0.0
 40
59.97458452057514
100
AcDbArc
 50
0.2764338846
 51
1.0997146542
  0
LINE
  5
20A
330
16F
100
AcDbEntity
  8
$DDT_AUDIT_GENERATED_(AD)
  6
Continuous
 62
     7
100
AcDbLine
 10
427.7303154443
 20
388.3432992008
 30
0.0
 11
427.6913212041
 21
388.3432992008
 31
0.0
  0
ARC
  5
20B
330
16F
100
AcDbEntity
  8
$DDT_AUDIT_GENERATED_(AD)
  6
Continuous
 62
     7
100
AcDbCircle
 10
367.7667777794
 20
387.1922392008
 30
0.0
 40
59.93559746750633
100
AcDbArc
 50
0.5099080697
 51
1.1004300872
  0
SPLINE
  5
20C
330
16F
100
AcDbEntity
  8
$DDT_AUDIT_GENERATED_(AD)
  6
Continuous
 62
     7
100
AcDbSpline
210
0.0
220
0.0
230
1.0
 70
     8
 71
     3
 72
     8
 73
     4
 74
     0
 42
0.000000080271486
 43
0.0000000001
 40
0.0
 40
0.0
 40
0.0
 40
0.0
 40
1.0
 40
1.0
 40
1.0
 40
1.0
 10
427.7000017400489
 20
387.7256334865485
 30
0.0
 10
427.6898295383796
 20
387.6542815695433
 30
0.0
 10
427.6775419570578
 20
387.6170426441732
 30
0.0
 10
427.6642521048138
 20
387.6171192008342
 30
0.0
  0
SPLINE
  5
20D
330
16F
100
AcDbEntity
  8
$DDT_AUDIT_GENERATED_(AD)
  6
Continuous
 62
     7
100
AcDbSpline
210
0.0
220
0.0
230
1.0
 70
     8
 71
     3
 72
    14
 73
    10
 74
     0
 42
0.0000000134947657
 43
0.0000000001
 40
0.0
 40
0.0
 40
0.0
 40
0.0
 40
0.25
 40
0.25
 40
0.5
 40
0.5
 40
0.75
 40
0.75
 40
1.0
 40
1.0
 40
1.0
 40
1.0
 10
427.6642521048138
 20
387.6171192008342
 30
0.0
 10
427.6570090048717
 20
387.6141901819595
 30
0.0
 10
427.6493612712214
 20
387.6301378899094
 30
0.0
 10
427.6348213170244
 20
387.7065257084239
 30
0.0
 10
427.6280909733188
 20
387.7661031453935
 30
0.0
 10
427.6181267822275
 20
387.9142677976664
 30
0.0
 10
427.6138638712462
 20
387.9966778212625
 30
0.0
 10
427.6073074607193
 20
388.1663778557198
 30
0.0
 10
427.6050425934582
 20
388.255298217594
 30
0.0
 10
427.6033408743706
 20
388.3432992008342
 30
0.0
  0
SPLINE
  5
20E
330
16F
100
AcDbEntity
  8
$DDT_AUDIT_GENERATED_(AD)
  6
Continuous
 62
     7
100
AcDbSpline
210
0.0
220
0.0
230
1.0
 70
     8
 71
     3
 72
    16
 73
    12
 74
     0
 42
0.0000000134787042
 43
0.0000000001
 40
0.0
 40
0.0
 40
0.0
 40
0.0
 40
0.2500000000000009
 40
0.2500000000000009
 40
0.3750000000000014
 40
0.3750000000000014
 40
0.5000000000000019
 40
0.5000000000000019
 40
0.7500000000000009
 40
0.7500000000000009
 40
1.0
 40
1.0
 40
1.0
 40
1.0
 10
427.6033408743706
 20
388.3432992008342
 30
0.0
 10
427.6014324920017
 20
388.4431630566899
 30
0.0
 10
427.6005357601361
 20
388.5430606294127
 30
0.0
 10
427.6021125123692
 20
388.6817782574678
 30
0.0
 10
427.6031577204505
 20
388.726364698625
 30
0.0
 10
427.6056913009606
 20
388.8112233089064
 30
0.0
 10
427.6071965084674
 20
388.8524409802753
 30
0.0
 10
427.613576740782
 20
388.9566817461031
 30
0.0
 10
427.6201526962986
 20
389.0025958376086
 30
0.0
 10
427.6343255374049
 20
389.0609662717698
 30
0.0
 10
427.6420966340127
 20
389.0720094932639
 30
0.0
 10
427.6499723690879
 20
389.0694792008342
 30
0.0
  0
SPLINE
  5
20F
330
16F
100
AcDbEntity
  8
$DDT_AUDIT_GENERATED_(AD)
  6
Continuous
 62
     7
100
AcDbSpline
210
0.0
220
0.0
230
1.0
 70
     8
 71
     3
 72
     8
 73
     4
 74
     0
 42
0.000000038032084
 43
0.0000000001
 40
0.0
 40
0.0
 40
0.0
 40
0.0
 40
1.0
 40
1.0
 40
1.0
 40
1.0
 10
427.6499723690879
 20
389.0694792008342
 30
0.0
 10
427.6721153908567
 20
389.0694622693777
 30
0.0
 10
427.6946681952239
 20
388.9866331105034
 30
0.0
 10
427.7142994176231
 20
388.8329334865485
 30
0.0
  0
ARC
  5
210
330
16F
100
AcDbEntity
  8
$DDT_AUDIT_GENERATED_(AD)
  6
Continuous
 62
     7
100
AcDbCircle
 10
367.7667777794
 20
387.1922392008
 30
0.0
 40
59.96996938726927
100
AcDbArc
 50
1.5677278136
 51
1.9631603391
  0
SPLINE
  5
211
330
16F
100
AcDbEntity
  8
$DDT_AUDIT_GENERATED_(AD)
  6
Continuous
 62
     7
100
AcDbSpline
210
0.0
220
0.0
230
1.0
 70
     8
 71
     3
 72
     8
 73
     4
 74
     0
 42
0.0000000412487168
 43
0.0000000001
 40
0.0
 40
0.0
 40
0.0
 40
0.0
 40
1.0
 40
1.0
 40
1.0
 40
1.0
 10
427.7015483857962
 20
389.2466249151199
 30
0.0
 10
427.6779627183027
 20
389.3846739864285
 30
0.0
 10
427.6521417454782
 20
389.4567534865485
 30
0.0
 10
427.6263241999356
 20
389.4567534865485
 30
0.0
  0
SPLINE
  5
212
330
16F
100
AcDbEntity
  8
$DDT_AUDIT_GENERATED_(AD)
  6
Continuous
 62
     7
100
AcDbSpline
210
0.0
220
0.0
230
1.0
 70
     8
 71
     3
 72
    14
 73
    10
 74
     0
 42
0.0000000043280213
 43
0.0000000001
 40
0.0
 40
0.0
 40
0.0
 40
0.0
 40
0.25
 40
0.25
 40
0.5
 40
0.5
 40
0.75
 40
0.75
 40
1.0
 40
1.0
 40
1.0
 40
1.0
 10
427.6263241999356
 20
389.4567534865485
 30
0.0
 10
427.6007681359941
 20
389.4644232074058
 30
0.0
 10
427.5739467676751
 20
389.3951063660646
 30
0.0
 10
427.5440359862391
 20
388.9780051897373
 30
0.0
 10
427.5410875167919
 20
388.6596465337657
 30
0.0
 10
427.5529570301603
 20
388.0336278196998
 30
0.0
 10
427.5680335774363
 20
387.7139626697041
 30
0.0
 10
427.6144796016832
 20
387.2896379598886
 30
0.0
 10
427.6439118995441
 20
387.2221739294342
 30
0.0
 10
427.6691308974312
 20
387.2298363436914
 30
0.0
  0
LINE
  5
213
330
16F
100
AcDbEntity
  8
$DDT_AUDIT_GENERATED_(AD)
  6
Continuous
 62
     7
100
AcDbLine
 10
427.8554508052
 20
386.0254649151
 30
0.0
 11
427.8173134936
 21
386.0254649151
 31
0.0
  0
LINE
  5
214
330
16F
100
AcDbEntity
  8
$DDT_AUDIT_GENERATED_(AD)
  6
Continuous
 62
     7
100
AcDbLine
 10
427.6119300777
 20
386.0374049151
 30
0.0
 11
427.5115035182
 21
386.0374049151
 31
0.0
  0
SPLINE
  5
215
330
16F
100
AcDbEntity
  8
$DDT_AUDIT_GENERATED_(AD)
  6
Continuous
 62
     7
100
AcDbSpline
210
0.0
220
0.0
230
1.0
 70
     8
 71
     3
 72
     8
 73
     4
 74
     0
 42
0.000000016791673
 43
0.0000000001
 40
0.0
 40
0.0
 40
0.0
 40
0.0
 40
0.0401277518343526
 40
0.0401277518343526
 40
0.0401277518343526
 40
0.0401277518343526
 10
427.5115035181938
 20
386.03740491512
 30
0.0
 10
427.5180901783839
 20
386.0295789541664
 30
0.0
 10
427.5245694767706
 20
386.0262735925028
 30
0.0
 10
427.530938499994
 20
386.0268476522972
 30
0.0
  0
SPLINE
  5
216
330
16F
100
AcDbEntity
  8
$DDT_AUDIT_GENERATED_(AD)
  6
Continuous
 62
     7
100
AcDbSpline
210
0.0
220
0.0
230
1.0
 70
     8
 71
     3
 72
    10
 73
     6
 74
     0
 42
0.0000000076317064
 43
0.0000000001
 40
0.7358334734387867
 40
0.7358334734387867
 40
0.7358334734387867
 40
0.7358334734387867
 40
0.75
 40
0.75
 40
1.0
 40
1.0
 40
1.0
 40
1.0
 10
427.7440840717052
 20
386.37134677643
 30
0.0
 10
427.7445708308928
 20
386.3628914907163
 30
0.0
 10
427.7450378346755
 20
386.3543937333938
 30
0.0
 10
427.7533829330065
 20
386.1957413467417
 30
0.0
 10
427.7555417413509
 20
386.0297103752562
 30
0.0
 10
427.7554319233752
 20
386.02546491512
 30
0.0
  0
SPLINE
  5
217
330
16F
100
AcDbEntity
  8
$DDT_AUDIT_GENERATED_(AD)
  6
Continuous
 62
     7
100
AcDbSpline
210
0.0
220
0.0
230
1.0
 70
     8
 71
     3
 72
    12
 73
     8
 74
     0
 42
0.0000000068097722
 43
0.0000000001
 40
0.0
 40
0.0
 40
0.0
 40
0.0
 40
0.25
 40
0.25
 40
0.5
 40
0.5
 40
1.0
 40
1.0
 40
1.0
 40
1.0
 10
427.855450805233
 20
386.02546491512
 30
0.0
 10
427.8555568315532
 20
386.0295706274534
 30
0.0
 10
427.8535144894249
 20
386.1908231771583
 30
0.0
 10
427.8381021812511
 20
386.4898935614429
 30
0.0
 10
427.824185007047
 20
386.6385345261751
 30
0.0
 10
427.7616299138468
 20
386.557941504626
 30
0.0
 10
427.6950828618675
 20
385.9384406012118
 30
0.0
 10
427.6119300776746
 20
386.03740491512
 30
0.0
  0
LINE
  5
218
330
16F
100
AcDbEntity
  8
$DDT_AUDIT_GENERATED_(AD)
  6
Continuous
 62
     7
100
AcDbLine
 10
427.5996413056
 20
386.2942906294
 30
0.0
 11
427.4991940853
 21
386.2942906294
 31
0.0
  0
LINE
  5
219
330
16F
100
AcDbEntity
  8
$DDT_AUDIT_GENERATED_(AD)
  6
Continuous
 62
     7
100
AcDbLine
 10
427.4991940853
 20
386.2942906294
 30
0.0
 11
427.5115035437
 21
386.037405058
 31
0.0
  0
ARC
  5
21A
330
16F
100
AcDbEntity
  8
$DDT_AUDIT_GENERATED_(AD)
  6
Continuous
 62
     7
100
AcDbCircle
 10
439.2990818565
 20
386.7252259056
 30
0.0
 40
11.70737436048453
100
AcDbArc
 50
182.1094697044
 51
183.3681289505
  0
SPLINE
  5
21B
330
16F
100
AcDbEntity
  8
$DDT_AUDIT_GENERATED_(AD)
  6
Continuous
 62
     7
100
AcDbSpline
210
0.0
220
0.0
230
1.0
 70
     8
 71
     3
 72
    12
 73
     8
 74
     0
 42
0.0000000035269445
 43
0.0000000001
 40
0.7326141342203096
 40
0.7326141342203096
 40
0.7326141342203096
 40
0.7326141342203096
 40
0.75
 40
0.75
 40
0.8749999999999999
 40
0.8749999999999999
 40
0.9388192688974056
 40
0.9388192688974056
 40
0.9388192688974056
 40
0.9388192688974056
 10
427.7094424619688
 20
386.8480635093705
 30
0.0
 10
427.7065972812377
 20
386.8484549335349
 30
0.0
 10
427.7036057011795
 20
386.8456863977483
 30
0.0
 10
427.6778568511221
 20
386.7932891702565
 30
0.0
 10
427.6502804973954
 20
386.6092320958098
 30
0.0
 10
427.5996973182351
 20
386.3866701051509
 30
0.0
 10
427.5807357364716
 20
386.3233129693988
 30
0.0
 10
427.5604845462965
 20
386.2901662634074
 30
0.0
  0
SPLINE
  5
21C
330
16F
100
AcDbEntity
  8
$DDT_AUDIT_GENERATED_(AD)
  6
Continuous
 62
     7
100
AcDbSpline
210
0.0
220
0.0
230
1.0
 70
     8
 71
     3
 72
     8
 73
     4
 74
     0
 42
0.0000000067394889
 43
0.0000000001
 40
0.0
 40
0.0
 40
0.0
 40
0.0
 40
0.0341684261343251
 40
0.0341684261343251
 40
0.0341684261343251
 40
0.0341684261343251
 10
427.599641305603
 20
386.2942906294056
 30
0.0
 10
427.6113305049341
 20
386.2723267648348
 30
0.0
 10
427.6228305331541
 20
386.2636291706987
 30
0.0
 10
427.6340587389972
 20
386.2655976524443
 30
0.0
  0
SPLINE
  5
21D
330
16F
100
AcDbEntity
  8
$DDT_AUDIT_GENERATED_(AD)
  6
Continuous
 62
     7
100
AcDbSpline
210
0.0
220
0.0
230
1.0
 70
     8
 71
     3
 72
    14
 73
    10
 74
     0
 42
0.0000000033315851
 43
0.0000000001
 40
0.0386226650058215
 40
0.0386226650058215
 40
0.0386226650058215
 40
0.0386226650058215
 40
0.1249999999999999
 40
0.1249999999999999
 40
0.2499999999999999
 40
0.2499999999999999
 40
0.5
 40
0.5
 40
0.5009362120994133
 40
0.5009362120994133
 40
0.5009362120994133
 40
0.5009362120994133
 10
427.638435866775
 20
386.266905512994
 30
0.0
 10
427.6666379147648
 20
386.2788001464349
 30
0.0
 10
427.6930339656726
 20
386.3566924353168
 30
0.0
 10
427.7499416145387
 20
386.606012101175
 30
0.0
 10
427.7776247199944
 20
386.7911698905062
 30
0.0
 10
427.845480560592
 20
386.9334859265493
 30
0.0
 10
427.8595012948748
 20
386.2650634655331
 30
0.0
 10
427.8595384557643
 20
386.259441871738
 30
0.0
 10
427.8595383981245
 20
386.2594304421475
 30
0.0
 10
427.8595381433055
 20
386.2594284805875
 30
0.0
  0
LINE
  5
21E
330
16F
100
AcDbEntity
  8
$DDT_AUDIT_GENERATED_(AD)
  6
Continuous
 62
     7
100
AcDbLine
 10
427.8338170432
 20
385.2020677723
 30
0.0
 11
427.7780509839
 21
385.2020677723
 31
0.0
  0
LINE
  5
21F
330
16F
100
AcDbEntity
  8
$DDT_AUDIT_GENERATED_(AD)
  6
Continuous
 62
     7
100
AcDbLine
 10
427.6565680622
 20
385.4984163437
 30
0.0
 11
427.5562164799
 21
385.4984163437
 31
0.0
  0
LINE
  5
220
330
16F
100
AcDbEntity
  8
$DDT_AUDIT_GENERATED_(AD)
  6
Continuous
 62
     7
100
AcDbLine
 10
427.6670467662
 20
385.3169506294
 30
0.0
 11
427.5667127684
 21
385.3169506294
 31
0.0
  0
SPLINE
  5
221
330
16F
100
AcDbEntity
  8
$DDT_AUDIT_GENERATED_(AD)
  6
Continuous
 62
     7
100
AcDbSpline
210
0.0
220
0.0
230
1.0
 70
     8
 71
     3
 72
    16
 73
    12
 74
     0
 42
0.0000000130811383
 43
0.0000000001
 40
0.0
 40
0.0
 40
0.0
 40
0.0
 40
0.2500000000000003
 40
0.2500000000000003
 40
0.3750000000000002
 40
0.3750000000000002
 40
0.5000000000000002
 40
0.5000000000000002
 40
0.7500000000000001
 40
0.7500000000000001
 40
1.0
 40
1.0
 40
1.0
 40
1.0
 10
427.7483624062997
 20
385.6423563436913
 30
0.0
 10
427.766722721699
 20
385.7270122172259
 30
0.0
 10
427.7828536375821
 20
385.792975273758
 30
0.0
 10
427.8015590579254
 20
385.791148007369
 30
0.0
 10
427.8069418356859
 20
385.7736768508139
 30
0.0
 10
427.8159082158882
 20
385.7175591730299
 30
0.0
 10
427.8195044472586
 20
385.6793318043273
 30
0.0
 10
427.8282028516739
 20
385.550815602008
 30
0.0
 10
427.8311932886169
 20
385.4464968309237
 30
0.0
 10
427.8340643865703
 20
385.2741372409367
 30
0.0
 10
427.8339205634796
 20
385.2046853212726
 30
0.0
 10
427.833817043244
 20
385.2020677722628
 30
0.0
  0
SPLINE
  5
222
330
16F
100
AcDbEntity
  8
$DDT_AUDIT_GENERATED_(AD)
  6
Continuous
 62
     7
100
AcDbSpline
210
0.0
220
0.0
230
1.0
 70
     8
 71
     3
 72
    12
 73
     8
 74
     0
 42
0.0000000041200554
 43
0.0000000001
 40
0.5026375206071614
 40
0.5026375206071614
 40
0.5026375206071614
 40
0.5026375206071614
 40
0.75
 40
0.75
 40
0.875
 40
0.875
 40
1.0
 40
1.0
 40
1.0
 40
1.0
 10
427.8411125782134
 20
385.436020440999
 30
0.0
 10
427.8411413733345
 20
385.4369302636956
 30
0.0
 10
427.8390264270953
 20
385.9023400590536
 30
0.0
 10
427.7958916544671
 20
386.0592714970066
 30
0.0
 10
427.7735320971096
 20
385.9690761700827
 30
0.0
 10
427.7214689876707
 20
385.7336267213486
 30
0.0
 10
427.6911577481084
 20
385.6159768240148
 30
0.0
 10
427.6565680622439
 20
385.4984163436914
 30
0.0
  0
ARC
  5
223
330
16F
100
AcDbEntity
  8
$DDT_AUDIT_GENERATED_(AD)
  6
Continuous
 62
     7
100
AcDbCircle
 10
434.960341758
 20
385.8291359947
 30
0.0
 40
7.311257462727617
100
AcDbArc
 50
182.5926194318
 51
184.0171087194
  0
ELLIPSE
  5
224
330
16F
100
AcDbEntity
  8
$DDT_AUDIT_GENERATED_(AD)
  6
Continuous
 62
     7
100
AcDbEllipse
 10
367.7667794962
 20
386.7165055261
 30
0.0
 11
60.09794589351311
 21
3.868068305977815E-8
 31
0.0
210
0.0
220
0.0
230
1.0
 40
0.2873576115
 41
-0.081130500181672
 42
-0.0622390145625866
  0
LINE
  5
225
330
16F
100
AcDbEntity
  8
$DDT_AUDIT_GENERATED_(AD)
  6
Continuous
 62
     7
100
AcDbLine
 10
427.8008828523
 20
384.378662058
 30
0.0
 11
427.7007729065
 21
384.378662058
 31
0.0
  0
LINE
  5
226
330
16F
100
AcDbEntity
  8
$DDT_AUDIT_GENERATED_(AD)
  6
Continuous
 62
     7
100
AcDbLine
 10
427.7047571895
 20
384.9436049151
 30
0.0
 11
427.6044864234
 21
384.9436049151
 31
0.0
  0
LINE
  5
227
330
16F
100
AcDbEntity
  8
$DDT_AUDIT_GENERATED_(AD)
  6
Continuous
 62
     7
100
AcDbLine
 10
427.7169017826
 20
384.799202058
 30
0.0
 11
427.6166513632
 21
384.799202058
 31
0.0
  0
SPLINE
  5
228
330
16F
100
AcDbEntity
  8
$DDT_AUDIT_GENERATED_(AD)
  6
Continuous
 62
     7
100
AcDbSpline
210
0.0
220
0.0
230
1.0
 70
     8
 71
     3
 72
    12
 73
     8
 74
     0
 42
0.00000001260845
 43
0.0000000001
 40
0.0
 40
0.0
 40
0.0
 40
0.0
 40
0.2499999999999999
 40
0.2499999999999999
 40
0.4999999999999998
 40
0.4999999999999998
 40
1.0
 40
1.0
 40
1.0
 40
1.0
 10
427.7169017826313
 20
384.7992020579771
 30
0.0
 10
427.7371481980394
 20
384.8880240600095
 30
0.0
 10
427.7548738210587
 20
384.9609818910945
 30
0.0
 10
427.7814181670392
 20
384.9747096317275
 30
0.0
 10
427.7898478951882
 20
384.9093201493246
 30
0.0
 10
427.8047750854888
 20
384.6526923927738
 30
0.0
 10
427.8011741153595
 20
384.384128105739
 30
0.0
 10
427.8008828522707
 20
384.3786620579771
 30
0.0
  0
SPLINE
  5
229
330
16F
100
AcDbEntity
  8
$DDT_AUDIT_GENERATED_(AD)
  6
Continuous
 62
     7
100
AcDbSpline
210
0.0
220
0.0
230
1.0
 70
     8
 71
     3
 72
    14
 73
    10
 74
     0
 42
0.0000000055890841
 43
0.0000000001
 40
0.4927009024005731
 40
0.4927009024005731
 40
0.4927009024005731
 40
0.4927009024005731
 40
0.5
 40
0.5
 40
0.75
 40
0.75
 40
0.875
 40
0.875
 40
1.0
 40
1.0
 40
1.0
 40
1.0
 10
427.8113925164119
 20
384.6126762094881
 30
0.0
 10
427.811392703652
 20
384.6126390098273
 30
0.0
 10
427.8113959340573
 20
384.6128913278651
 30
0.0
 10
427.8116376264648
 20
384.6324845293991
 30
0.0
 10
427.8139795486799
 20
384.940159770231
 30
0.0
 10
427.7926058433069
 20
385.1847354543137
 30
0.0
 10
427.781378675438
 20
385.2250830165991
 30
0.0
 10
427.7480487335529
 20
385.1442183867903
 30
0.0
 10
427.7276629894457
 20
385.0453779274306
 30
0.0
 10
427.7047571894692
 20
384.9436049151199
 30
0.0
  0
ARC
  5
22A
330
16F
100
AcDbEntity
  8
$DDT_AUDIT_GENERATED_(AD)
  6
Continuous
 62
     7
100
AcDbCircle
 10
415.8145531166
 20
383.8709008683
 30
0.0
 40
11.9384943300094
100
AcDbArc
 50
4.4596480913
 51
5.1551239209
  0
SPLINE
  5
22B
330
16F
100
AcDbEntity
  8
$DDT_AUDIT_GENERATED_(AD)
  6
Continuous
 62
     7
100
AcDbSpline
210
0.0
220
0.0
230
1.0
 70
     8
 71
     3
 72
    38
 73
    34
 74
     0
 42
0.0000000024501697
 43
0.0000000001
 40
0.3717406024010664
 40
0.3717406024010664
 40
0.3717406024010664
 40
0.3717406024010664
 40
0.3809058736087362
 40
0.3809058736087362
 40
0.3809058736087362
 40
0.4330292361607043
 40
0.4330292361607043
 40
0.4330292361607043
 40
0.4852411841148417
 40
0.4852411841148417
 40
0.4852411841148417
 40
0.5381771066050827
 40
0.5381771066050827
 40
0.5381771066050827
 40
0.5921703322845212
 40
0.5921703322845212
 40
0.5921703322845212
 40
0.6471139579015329
 40
0.6471139579015329
 40
0.6471139579015329
 40
0.702478256852892
 40
0.702478256852892
 40
0.702478256852892
 40
0.7575221434512347
 40
0.7575221434512347
 40
0.7575221434512347
 40
0.8116411134945734
 40
0.8116411134945734
 40
0.8116411134945734
 40
0.864664103809175
 40
0.864664103809175
 40
0.864664103809175
 40
0.8718849485280719
 40
0.8718849485280719
 40
0.8718849485280719
 40
0.8718849485280719
 10
426.341523475031
 20
374.1922738144601
 30
0.0
 10
426.3415193870454
 20
374.1922539165288
 30
0.0
 10
426.3416311818991
 20
374.1927996623899
 30
0.0
 10
426.3418600903751
 20
374.1939170234588
 30
0.0
 10
426.343162390183
 20
374.2002738833289
 30
0.0
 10
426.348287452781
 20
374.225289346891
 30
0.0
 10
426.3567793637384
 20
374.2667511032618
 30
0.0
 10
426.3652875462889
 20
374.308292305688
 30
0.0
 10
426.3773997951814
 20
374.3674390979438
 30
0.0
 10
426.3920814728709
 20
374.4391655823835
 30
0.0
 10
426.4069665165903
 20
374.5118855997618
 30
0.0
 10
426.4248874993829
 20
374.59946655237
 30
0.0
 10
426.4443680070104
 20
374.6947223227029
 30
0.0
 10
426.4642331087144
 20
374.7918586808379
 30
0.0
 10
426.4862532924876
 20
374.8995851630642
 30
0.0
 10
426.508646239371
 20
375.0092021247523
 30
0.0
 10
426.5314253754386
 20
375.1207095426289
 30
0.0
 10
426.5552128416134
 20
375.2372214840661
 30
0.0
 10
426.5780661131607
 20
375.3492240125942
 30
0.0
 10
426.6010866498543
 20
375.4620462976848
 30
0.0
 10
426.6237997953612
 20
375.5734317328424
 30
0.0
 10
426.6442894183982
 20
375.6739632344126
 30
0.0
 10
426.6646570899217
 20
375.7738963858444
 30
0.0
 10
426.6834003213982
 20
375.8659130506502
 30
0.0
 10
426.6988717858321
 20
375.9418935336869
 30
0.0
 10
426.7140847732073
 20
376.0166046338633
 30
0.0
 10
426.7265617798977
 20
376.0779081683687
 30
0.0
 10
426.7351739825198
 20
376.1202288164019
 30
0.0
 10
426.7436144909134
 20
376.1617057533277
 30
0.0
 10
426.7485781467728
 20
376.1861047636866
 30
0.0
 10
426.7496143317983
 20
376.1911978580202
 30
0.0
 10
426.7497554971563
 20
376.1918917191231
 30
0.0
 10
426.7498243510075
 20
376.1922301228549
 30
0.0
 10
426.7498215413004
 20
376.1922162732747
 30
0.0
  0
LINE
  5
22C
330
16F
100
AcDbEntity
  8
$DDT_AUDIT_GENERATED_(AD)
  6
Continuous
 62
     7
100
AcDbLine
 10
427.8373617883
 20
389.074192629
 30
0.0
 11
427.8373050893
 21
389.074192629
 31
0.0
  0
LINE
  5
22D
330
16F
100
AcDbEntity
  8
$DDT_AUDIT_GENERATED_(AD)
  6
Continuous
 62
     7
100
AcDbLine
 10
427.7667777421
 20
387.1943532818
 30
0.0
 11
427.8951593007
 21
387.1943532818
 31
0.0
  0
LINE
  5
22E
330
16F
100
AcDbEntity
  8
$DDT_AUDIT_GENERATED_(AD)
  6
Continuous
 62
     7
100
AcDbLine
 10
427.8227650916
 20
389.4922392008
 30
0.0
 11
427.7229469893
 21
389.4922392008
 31
0.0
  0
LINE
  5
22F
330
16F
100
AcDbEntity
  8
$DDT_AUDIT_GENERATED_(AD)
  6
Continuous
 62
     7
100
AcDbLine
 10
427.8653093117
 20
387.6123673429
 30
0.0
 11
427.8878644752
 21
387.6123673429
 31
0.0
  0
ARC
  5
230
330
16F
100
AcDbEntity
  8
$DDT_AUDIT_GENERATED_(AD)
  6
Continuous
 62
     7
100
AcDbCircle
 10
367.7667777794
 20
387.1922392008
 30
0.0
 40
60.1
100
AcDbArc
 50
1.7940683677
 51
2.1923152964
  0
ARC
  5
231
330
16F
100
AcDbEntity
  8
$DDT_AUDIT_GENERATED_(AD)
  6
Continuous
 62
     7
100
AcDbCircle
 10
367.7667777794
 20
387.1922392008
 30
0.0
 40
60.10000000000001
100
AcDbArc
 50
0.0072863727
 51
0.4008289308
  0
LINE
  5
232
330
16F
100
AcDbEntity
  8
$DDT_AUDIT_GENERATED_(AD)
  6
Continuous
 62
     7
100
AcDbLine
 10
427.7793868845
 20
389.3953252495
 30
0.0
 11
427.6792564721
 21
389.3953252495
 31
0.0
  0
LINE
  5
233
330
16F
100
AcDbEntity
  8
$DDT_AUDIT_GENERATED_(AD)
  6
Continuous
 62
     7
100
AcDbLine
 10
427.5651370088
 20
387.2292957707
 30
0.0
 11
427.6654738927
 21
387.2292957707
 31
0.0
  0
LINE
  5
234
330
16F
100
AcDbEntity
  8
$DDT_AUDIT_GENERATED_(AD)
  6
Continuous
 62
     7
100
AcDbLine
 10
427.6228618621
 20
389.4572940869
 30
0.0
 11
427.5223987835
 21
389.4572940869
 31
0.0
  0
ARC
  5
235
330
16F
100
AcDbEntity
  8
$DDT_AUDIT_GENERATED_(AD)
  6
Continuous
 62
     7
100
AcDbCircle
 10
367.7667777794
 20
387.1922392008
 30
0.0
 40
60.1
100
AcDbArc
 50
358.8880684397
 51
359.1212774748
  0
LINE
  5
236
330
16F
100
AcDbEntity
  8
$DDT_AUDIT_GENERATED_(AD)
  6
Continuous
 62
     7
100
AcDbLine
 10
427.5306297571
 20
386.0253913459
 30
0.0
 11
427.6312977261
 21
386.0253913459
 31
0.0
  0
LINE
  5
237
330
16F
100
AcDbEntity
  8
$DDT_AUDIT_GENERATED_(AD)
  6
Continuous
 62
     7
100
AcDbLine
 10
427.8093297609
 20
386.8491442083
 30
0.0
 11
427.7089917081
 21
386.8491442083
 31
0.0
  0
LINE
  5
238
330
16F
100
AcDbEntity
  8
$DDT_AUDIT_GENERATED_(AD)
  6
Continuous
 62
     7
100
AcDbLine
 10
427.7985807273
 20
386.0257405663
 30
0.0
 11
427.6987884927
 21
386.0257405663
 31
0.0
  0
ARC
  5
239
330
16F
100
AcDbEntity
  8
$DDT_AUDIT_GENERATED_(AD)
  6
Continuous
 62
     7
100
AcDbCircle
 10
367.7667777794
 20
387.1922392008
 30
0.0
 40
60.10000000000001
100
AcDbArc
 50
358.1026369758
 51
358.3394620248
  0
LINE
  5
23A
330
16F
100
AcDbEntity
  8
$DDT_AUDIT_GENERATED_(AD)
  6
Continuous
 62
     7
100
AcDbLine
 10
427.7767892913
 20
385.2023347286
 30
0.0
 11
427.6767044067
 21
385.2023347286
 31
0.0
  0
ARC
  5
23B
330
16F
100
AcDbEntity
  8
$DDT_AUDIT_GENERATED_(AD)
  6
Continuous
 62
     7
100
AcDbCircle
 10
367.7667777794
 20
387.1922392008
 30
0.0
 40
60.10000000000001
100
AcDbArc
 50
357.3166659067
 51
357.5525242269
  0
ARC
  5
23C
330
16F
100
AcDbEntity
  8
$DDT_AUDIT_GENERATED_(AD)
  6
Continuous
 62
     7
100
AcDbCircle
 10
425.4142408632
 20
403.0922392008
 30
0.0
 40
0.2000000000000063
100
AcDbArc
 50
15.4196227967
 51
65.1983810205
  0
ARC
  5
23D
330
16F
100
AcDbEntity
  8
$DDT_AUDIT_GENERATED_(AD)
  6
Continuous
 62
     7
100
AcDbCircle
 10
367.7667777794
 20
387.1922392008
 30
0.0
 40
60.00000000000001
100
AcDbArc
 50
2.1787306592
 51
15.4196227967
  0
ARC
  5
23E
330
16F
100
AcDbEntity
  8
$DDT_AUDIT_GENERATED_(AD)
  6
Continuous
 62
     7
100
AcDbCircle
 10
367.7667777794
 20
387.1922392008
 30
0.0
 40
59.99999999999999
100
AcDbArc
 50
359.6565919196
 51
0.0152751084
  0
ARC
  5
23F
330
16F
100
AcDbEntity
  8
$DDT_AUDIT_GENERATED_(AD)
  6
Continuous
 62
     7
100
AcDbCircle
 10
367.7667777794
 20
387.1922392008
 30
0.0
 40
60.0
100
AcDbArc
 50
349.4295410416
 51
357.3124482818
  0
ARC
  5
240
330
16F
100
AcDbEntity
  8
$DDT_AUDIT_GENERATED_(AD)
  6
Continuous
 62
     7
100
AcDbCircle
 10
367.7667777794
 20
387.1922392008
 30
0.0
 40
59.99999999999999
100
AcDbArc
 50
344.9482531235
 51
347.4945668769
  0
ARC
  5
241
330
16F
100
AcDbEntity
  8
$DDT_AUDIT_GENERATED_(AD)
  6
Continuous
 62
     7
100
AcDbCircle
 10
425.4185238522
 20
371.6884920813
 30
0.0
 40
0.3000000000000034
100
AcDbArc
 50
288.0344620061
 51
344.9692005927
  0
LINE
  5
243
330
16F
100
AcDbEntity
  8
$DDT_AUDIT_GENERATED_(242)
  6
Continuous
 62
     7
100
AcDbLine
 10
384.5167777794
 20
400.6564590429
 30
0.0
 11
383.6159051258
 21
400.6485972463
 31
0.0
  0
LINE
  5
244
330
16F
100
AcDbEntity
  8
$DDT_AUDIT_GENERATED_(242)
  6
Continuous
 62
     7
100
AcDbLine
 10
383.6159051258
 20
373.7358811553
 30
0.0
 11
384.5167777794
 21
373.7280193588
 31
0.0
  0
ARC
  5
245
330
16F
100
AcDbEntity
  8
$DDT_AUDIT_GENERATED_(242)
  6
Continuous
 62
     7
100
AcDbCircle
 10
383.6167777794
 20
400.548601054
 30
0.0
 40
0.0999999999999975
100
AcDbArc
 50
90.5
 51
180.0
  0
ARC
  5
246
330
16F
100
AcDbEntity
  8
$DDT_AUDIT_GENERATED_(242)
  6
Continuous
 62
     7
100
AcDbCircle
 10
383.6167777794
 20
373.8358773476
 30
0.0
 40
0.1000000000000029
100
AcDbArc
 50
180.0
 51
269.5
  0
LINE
  5
247
330
16F
100
AcDbEntity
  8
$DDT_AUDIT_GENERATED_(155)
  6
Continuous
 62
     7
100
AcDbLine
 10
382.6918572961
 20
428.5642739526
 30
0.0
 11
364.2409359089
 21
428.5642739526
 31
0.0
  0
LINE
  5
248
330
16F
100
AcDbEntity
  8
$DDT_AUDIT_GENERATED_(155)
  6
Continuous
 62
     7
100
AcDbLine
 10
380.5644841958
 20
410.1122392008
 30
0.0
 11
366.3683090092
 21
410.1122392008
 31
0.0
  0
ARC
  5
249
330
16F
100
AcDbEntity
  8
$DDT_AUDIT_GENERATED_(155)
  6
Continuous
 62
     7
100
AcDbCircle
 10
373.4663966025
 20
405.1490489934
 30
0.0
 40
28.00000000000087
100
AcDbArc
 50
70.7627384947
 51
90.0
  0
ARC
  5
24A
330
16F
100
AcDbEntity
  8
$DDT_AUDIT_GENERATED_(155)
  6
Continuous
 62
     7
100
AcDbCircle
 10
373.4663966025
 20
405.1490489934
 30
0.0
 40
28.0
100
AcDbArc
 50
90.0
 51
109.2372615053
  0
ARC
  5
24B
330
16F
100
AcDbEntity
  8
$DDT_AUDIT_GENERATED_(155)
  6
Continuous
 62
     7
100
AcDbCircle
 10
382.1646881136
 20
430.0749336274
 30
0.0
 40
1.599999999999046
100
AcDbArc
 50
289.2372615054
 51
70.7627384947
  0
ARC
  5
24C
330
16F
100
AcDbEntity
  8
$DDT_AUDIT_GENERATED_(155)
  6
Continuous
 62
     7
100
AcDbCircle
 10
364.7681050914
 20
430.0749336274
 30
0.0
 40
1.6
100
AcDbArc
 50
109.2372615053
 51
250.7627384946
  0
ARC
  5
24D
330
16F
100
AcDbEntity
  8
$DDT_AUDIT_GENERATED_(155)
  6
Continuous
 62
     7
100
AcDbCircle
 10
373.4663966025
 20
455.0008182614
 30
0.0
 40
28.0
100
AcDbArc
 50
286.5076537505
 51
289.2372615053
  0
ARC
  5
24E
330
16F
100
AcDbEntity
  8
$DDT_AUDIT_GENERATED_(155)
  6
Continuous
 62
     7
100
AcDbCircle
 10
373.4663966025
 20
455.0008182614
 30
0.0
 40
28.0
100
AcDbArc
 50
250.7627384947
 51
253.4923462495
  0
LINE
  5
24F
330
16F
100
AcDbEntity
  8
$DDT_AUDIT_GENERATED_(155)
  6
Continuous
 62
     7
100
AcDbLine
 10
381.0644841958
 20
410.6122392008
 30
0.0
 11
381.0644841958
 21
427.6755373419
 31
0.0
  0
LINE
  5
250
330
16F
100
AcDbEntity
  8
$DDT_AUDIT_GENERATED_(155)
  6
Continuous
 62
     7
100
AcDbLine
 10
365.8683090092
 20
427.6755373419
 30
0.0
 11
365.8683090092
 21
410.6122392008
 31
0.0
  0
ARC
  5
251
330
16F
100
AcDbEntity
  8
$DDT_AUDIT_GENERATED_(155)
  6
Continuous
 62
     7
100
AcDbCircle
 10
380.5644841958
 20
410.6122392008
 30
0.0
 40
0.5000000000000004
100
AcDbArc
 50
270.0
 51
0.0
  0
ARC
  5
252
330
16F
100
AcDbEntity
  8
$DDT_AUDIT_GENERATED_(155)
  6
Continuous
 62
     7
100
AcDbCircle
 10
366.3683090092
 20
410.6122392008
 30
0.0
 40
0.5000000000000004
100
AcDbArc
 50
180.0
 51
270.0
  0
ARC
  5
253
330
16F
100
AcDbEntity
  8
$DDT_AUDIT_GENERATED_(155)
  6
Continuous
 62
     7
100
AcDbCircle
 10
365.3683090092
 20
427.6755373419
 30
0.0
 40
0.5000000000000027
100
AcDbArc
 50
0.0
 51
73.4923462495
  0
ARC
  5
254
330
16F
100
AcDbEntity
  8
$DDT_AUDIT_GENERATED_(155)
  6
Continuous
 62
     7
100
AcDbCircle
 10
381.5644841958
 20
427.6755373419
 30
0.0
 40
0.5000000000000004
100
AcDbArc
 50
106.5076537505
 51
180.0
  0
LINE
  5
255
330
16F
100
AcDbEntity
  8
A4225108_211188_
  6
Continuous
 62
     7
100
AcDbLine
 10
363.2163966025
 20
353.9622392008
 30
0.0
 11
383.7163966025
 21
353.9622392008
 31
0.0
  0
LINE
  5
256
330
16F
100
AcDbEntity
  8
A4225108_211188_
  6
Continuous
 62
     7
100
AcDbLine
 10
382.7163966025
 20
352.9622392008
 30
0.0
 11
364.2163966025
 21
352.9622392008
 31
0.0
  0
LINE
  5
257
330
16F
100
AcDbEntity
  8
A4225108_211188_
  6
Continuous
 62
     7
100
AcDbLine
 10
383.7163966025
 20
353.9622392008
 30
0.0
 11
383.7163966025
 21
366.3104579789
 31
0.0
  0
LINE
  5
258
330
16F
100
AcDbEntity
  8
A4225108_211188_
  6
Continuous
 62
     7
100
AcDbLine
 10
363.2163966025
 20
366.3104579789
 30
0.0
 11
363.2163966025
 21
353.9622392008
 31
0.0
  0
LINE
  5
259
330
16F
100
AcDbEntity
  8
A4225108_211188_
  6
Continuous
 62
     7
100
AcDbLine
 10
363.2163966025
 20
353.9622392008
 30
0.0
 11
364.2163966025
 21
352.9622392008
 31
0.0
  0
LINE
  5
25A
330
16F
100
AcDbEntity
  8
A4225108_211188_
  6
Continuous
 62
     7
100
AcDbLine
 10
382.7163966025
 20
352.9622392008
 30
0.0
 11
383.7163966025
 21
353.9622392008
 31
0.0
  0
LINE
  5
25B
330
16F
100
AcDbEntity
  8
A4225112_211188_
  6
Continuous
 62
     7
100
AcDbLine
 10
367.8663966025
 20
410.1122392008
 30
0.0
 11
367.8663966025
 21
406.3096546982
 31
0.0
  0
LINE
  5
25C
330
16F
100
AcDbEntity
  8
A4225112_211188_
  6
Continuous
 62
     7
100
AcDbLine
 10
379.0663966025
 20
406.3096563687
 30
0.0
 11
379.0663966025
 21
410.1122392008
 31
0.0
  0
ENDBLK
  5
25E
330
16F
100
AcDbEntity
  8
0
100
AcDbBlockEnd
  0
BLOCK
  5
3D4
330
25F
100
AcDbEntity
  8
0
100
AcDbBlockBegin
  2
SE2
 70
     0
 10
0.0
 20
0.0
 30
0.0
  3
SE2
  1

  0
ARC
  5
261
330
25F
100
AcDbEntity
  8
$DDT_AUDIT_GENERATED_(87)
  6
Continuous
 62
     7
100
AcDbCircle
 10
116.349342679
 20
4193.0730312417
 30
0.0
 40
4000.059817441696
100
AcDbArc
 50
270.5273581766
 51
270.9372049402
  0
LINE
  5
262
330
25F
100
AcDbEntity
  8
$DDT_AUDIT_GENERATED_(87)
  6
Continuous
 62
     7
100
AcDbLine
 10
192.9923357664
 20
195.7437136785
 30
0.0
 11
192.9923357664
 21
225.5254617095
 31
0.0
  0
ARC
  5
263
330
25F
100
AcDbEntity
  8
$DDT_AUDIT_GENERATED_(87)
  6
Continuous
 62
     7
100
AcDbCircle
 10
153.35
 20
173.1834945545
 30
0.0
 40
19.99999999999935
100
AcDbArc
 50
90.5273592506
 51
115.5774079471
  0
ARC
  5
264
330
25F
100
AcDbEntity
  8
$DDT_AUDIT_GENERATED_(87)
  6
Continuous
 62
     7
100
AcDbCircle
 10
153.35
 20
173.1834945545
 30
0.0
 40
19.99999999999995
100
AcDbArc
 50
115.5774079471
 51
180.0
  0
LINE
  5
265
330
25F
100
AcDbEntity
  8
$DDT_AUDIT_GENERATED_(87)
  6
Continuous
 62
     7
100
AcDbLine
 10
133.35
 20
173.1834945545
 30
0.0
 11
133.35
 21
123.3785857689
 31
0.0
  0
ARC
  5
266
330
25F
100
AcDbEntity
  8
$DDT_AUDIT_GENERATED_(87)
  6
Continuous
 62
     7
100
AcDbCircle
 10
116.345606054
 20
123.3544105632
 30
0.0
 40
17.0044111309469
100
AcDbArc
 50
270.0148052503
 51
0.0814575529
  0
ARC
  5
267
330
25F
100
AcDbEntity
  8
$DDT_AUDIT_GENERATED_(87)
  6
Continuous
 62
     7
100
AcDbCircle
 10
116.3534546659
 20
123.3534728582
 30
0.0
 40
17.00347320917949
100
AcDbArc
 50
179.9153822185
 51
269.9883589795
  0
LINE
  5
268
330
25F
100
AcDbEntity
  8
$DDT_AUDIT_GENERATED_(87)
  6
Continuous
 62
     7
100
AcDbLine
 10
99.35
 20
123.3785845797
 30
0.0
 11
99.35
 21
173.1834945545
 31
0.0
  0
ARC
  5
269
330
25F
100
AcDbEntity
  8
$DDT_AUDIT_GENERATED_(87)
  6
Continuous
 62
     7
100
AcDbCircle
 10
79.35
 20
173.1834945545
 30
0.0
 40
19.99999999999909
100
AcDbArc
 50
64.9216794324
 51
89.4726407494
  0
ARC
  5
26A
330
25F
100
AcDbEntity
  8
$DDT_AUDIT_GENERATED_(87)
  6
Continuous
 62
     7
100
AcDbCircle
 10
79.35
 20
173.1834945545
 30
0.0
 40
20.00000000000002
100
AcDbArc
 50
0.0
 51
64.9216794324
  0
ARC
  5
26B
330
25F
100
AcDbEntity
  8
$DDT_AUDIT_GENERATED_(87)
  6
Continuous
 62
     7
100
AcDbCircle
 10
116.350657321
 20
4193.0730312409
 30
0.0
 40
4000.05981744093
100
AcDbArc
 50
269.0627950598
 51
269.4726418234
  0
LINE
  5
26C
330
25F
100
AcDbEntity
  8
$DDT_AUDIT_GENERATED_(87)
  6
Continuous
 62
     7
100
AcDbLine
 10
39.7076642336
 20
195.7437136785
 30
0.0
 11
39.7076642336
 21
225.5254617095
 31
0.0
  0
ARC
  5
26D
330
25F
100
AcDbEntity
  8
$DDT_AUDIT_GENERATED_(87)
  6
Continuous
 62
     7
100
AcDbCircle
 10
134.6329803669
 20
762.0067815929
 30
0.0
 40
569.057712914569
100
AcDbArc
 50
269.0726041746
 51
270.9356382968
  0
SPLINE
  5
26E
330
25F
100
AcDbEntity
  8
$DDT_AUDIT_GENERATED_(87)
  6
Continuous
 62
     7
100
AcDbSpline
210
0.0
220
0.0
230
1.0
 70
     8
 71
     3
 72
    17
 73
    13
 74
     0
 42
0.0000013917052344
 43
0.0000000001
 40
0.0
 40
0.0
 40
0.0
 40
0.0
 40
0.1178754986106833
 40
0.1178754986106833
 40
0.1178754986106833
 40
0.270108741616879
 40
0.270108741616879
 40
0.270108741616879
 40
0.5493618275212978
 40
0.5493618275212978
 40
0.5493618275212978
 40
1.0
 40
1.0
 40
1.0
 40
1.0
 10
143.9317734077627
 20
193.0228519940158
 30
0.0
 10
143.9316521454286
 20
193.0231057856806
 30
0.0
 10
143.9314801398969
 20
193.0233391174098
 30
0.0
 10
143.9312791324206
 20
193.0235357622683
 30
0.0
 10
143.9310196521612
 20
193.0237896108308
 30
0.0
 10
143.9307071305126
 20
193.023991987238
 30
0.0
 10
143.9303812873708
 20
193.0241517934161
 30
0.0
 10
143.9297852178129
 20
193.0244441291619
 30
0.0
 10
143.9291285527396
 20
193.024613132692
 30
0.0
 10
143.9284744898912
 20
193.0247265735908
 30
0.0
 10
143.9274170746367
 20
193.024909972078
 30
0.0
 10
143.9263352540555
 20
193.0249521927938
 30
0.0
 10
143.9252621085004
 20
193.0249417002608
 30
0.0
  0
LINE
  5
26F
330
25F
100
AcDbEntity
  8
$DDT_AUDIT_GENERATED_(87)
  6
Continuous
 62
     7
100
AcDbLine
 10
26.5938919478
 20
195.0254617095
 30
0.0
 11
39.7087104289
 21
195.0254617095
 31
0.0
  0
SPLINE
  5
270
330
25F
100
AcDbEntity
  8
$DDT_AUDIT_GENERATED_(87)
  6
Continuous
 62
     7
100
AcDbSpline
210
0.0
220
0.0
230
1.0
 70
     8
 71
     3
 72
    10
 73
     6
 74
     0
 42
0.0000000013735815
 43
0.0000000001
 40
0.2152084308121287
 40
0.2152084308121287
 40
0.2152084308121287
 40
0.2152084308121287
 40
0.2500000000000001
 40
0.2500000000000001
 40
0.4723927753945679
 40
0.4723927753945679
 40
0.4723927753945679
 40
0.4723927753945679
 10
56.47742492073028
 20
193.4613326910967
 30
0.0
 10
56.64384012566072
 20
193.4588415055343
 30
0.0
 10
56.7995421394626
 20
193.4565211066581
 30
0.0
 10
57.86532608357679
 20
193.4406908684665
 30
0.0
 10
58.34735792853876
 20
193.433757024404
 30
0.0
 10
58.3495847567677
 20
193.433741631761
 30
0.0
  0
ARC
  5
271
330
25F
100
AcDbEntity
  8
$DDT_AUDIT_GENERATED_(87)
  6
Continuous
 62
     7
100
AcDbCircle
 10
51.06817959
 20
197.8818531077
 30
0.0
 40
4.33593945308156
100
AcDbArc
 50
242.7981457034
 51
268.0858261597
  0
LINE
  5
272
330
25F
100
AcDbEntity
  8
$DDT_AUDIT_GENERATED_(87)
  6
Continuous
 62
     7
100
AcDbLine
 10
192.9912895711
 20
195.0254617095
 30
0.0
 11
206.1062828507
 21
195.0254617095
 31
0.0
  0
SPLINE
  5
273
330
25F
100
AcDbEntity
  8
$DDT_AUDIT_GENERATED_(87)
  6
Continuous
 62
     7
100
AcDbSpline
210
0.0
220
0.0
230
1.0
 70
     8
 71
     3
 72
    12
 73
     8
 74
     0
 42
0.0000000013735819
 43
0.0000000001
 40
0.5281196970668173
 40
0.5281196970668173
 40
0.5281196970668173
 40
0.5281196970668173
 40
0.625
 40
0.625
 40
0.75
 40
0.75
 40
0.7846795578642792
 40
0.7846795578642792
 40
0.7846795578642792
 40
0.7846795578642792
 10
174.3503510169187
 20
193.433743550148
 30
0.0
 10
174.3510038099345
 20
193.4337517844716
 30
0.0
 10
174.4421911812311
 20
193.4350731622272
 30
0.0
 10
174.8531415124827
 20
193.4410604574508
 30
0.0
 10
175.2297928324317
 20
193.4465600632209
 30
0.0
 10
175.89808205917
 20
193.4564856987674
 30
0.0
 10
176.0531172154409
 20
193.4587958110888
 30
0.0
 10
176.2179644699567
 20
193.4612630766934
 30
0.0
  0
LINE
  5
274
330
25F
100
AcDbEntity
  8
$DDT_AUDIT_GENERATED_(87)
  6
Continuous
 62
     7
100
AcDbLine
 10
192.9912895711
 20
195.0254617095
 30
0.0
 11
187.1328252184
 21
195.0254617095
 31
0.0
  0
LINE
  5
275
330
25F
100
AcDbEntity
  8
$DDT_AUDIT_GENERATED_(87)
  6
Continuous
 62
     7
100
AcDbLine
 10
45.5671747816
 20
195.0254617095
 30
0.0
 11
39.7087104289
 21
195.0254617095
 31
0.0
  0
ARC
  5
276
330
25F
100
AcDbEntity
  8
$DDT_AUDIT_GENERATED_(87)
  6
Continuous
 62
     7
100
AcDbCircle
 10
181.6318213706
 20
197.8818494089
 30
0.0
 40
4.335935724308693
100
AcDbArc
 50
271.9141627871
 51
297.2018653498
  0
ARC
  5
277
330
25F
100
AcDbEntity
  8
$DDT_AUDIT_GENERATED_(87)
  6
Continuous
 62
     7
100
AcDbCircle
 10
45.5385031543
 20
188.2331303099
 30
0.0
 40
6.792391913296716
100
AcDbArc
 50
58.5139713683
 51
89.7581458585
  0
ARC
  5
278
330
25F
100
AcDbEntity
  8
$DDT_AUDIT_GENERATED_(87)
  6
Continuous
 62
     7
100
AcDbCircle
 10
187.1500389275
 20
188.2734499344
 30
0.0
 40
6.752033717535555
100
AcDbArc
 50
90.1460706489
 51
121.5818121243
  0
LINE
  5
279
330
25F
100
AcDbEntity
  8
$DDT_AUDIT_GENERATED_(87)
  6
Continuous
 62
     7
100
AcDbLine
 10
52.9880241759
 20
226.5254617095
 30
0.0
 11
179.7119758241
 21
226.5254617095
 31
0.0
  0
LINE
  5
27A
330
25F
100
AcDbEntity
  8
$DDT_AUDIT_GENERATED_(87)
  6
Continuous
 62
     7
100
AcDbLine
 10
39.7076642336
 20
225.5254617095
 30
0.0
 11
26.3499999999
 21
225.5254617095
 31
0.0
  0
LINE
  5
27B
330
25F
100
AcDbEntity
  8
$DDT_AUDIT_GENERATED_(87)
  6
Continuous
 62
     7
100
AcDbLine
 10
39.7076642336
 20
225.5254617095
 30
0.0
 11
51.436140348
 21
225.5254617095
 31
0.0
  0
LINE
  5
27C
330
25F
100
AcDbEntity
  8
$DDT_AUDIT_GENERATED_(87)
  6
Continuous
 62
     7
100
AcDbLine
 10
51.436140348
 20
225.5254617095
 30
0.0
 11
51.9038448026
 21
226.0254617095
 31
0.0
  0
ARC
  5
27D
330
25F
100
AcDbEntity
  8
$DDT_AUDIT_GENERATED_(87)
  6
Continuous
 62
     7
100
AcDbCircle
 10
53.1183752168
 20
224.8173689764
 30
0.0
 40
1.713059303920494
100
AcDbArc
 50
94.3639998822
 51
135.1522527712
  0
LINE
  5
27E
330
25F
100
AcDbEntity
  8
$DDT_AUDIT_GENERATED_(87)
  6
Continuous
 62
     7
100
AcDbLine
 10
206.35
 20
225.5254617095
 30
0.0
 11
192.9923357664
 21
225.5254617095
 31
0.0
  0
LINE
  5
27F
330
25F
100
AcDbEntity
  8
$DDT_AUDIT_GENERATED_(87)
  6
Continuous
 62
     7
100
AcDbLine
 10
180.7961551974
 20
226.0254617095
 30
0.0
 11
181.263859652
 21
225.5254617095
 31
0.0
  0
ARC
  5
280
330
25F
100
AcDbEntity
  8
$DDT_AUDIT_GENERATED_(87)
  6
Continuous
 62
     7
100
AcDbCircle
 10
179.5816314379
 20
224.8173834061
 30
0.0
 40
1.713044409698441
100
AcDbArc
 50
44.8475620217
 51
85.6361853247
  0
LINE
  5
281
330
25F
100
AcDbEntity
  8
$DDT_AUDIT_GENERATED_(87)
  6
Continuous
 62
     7
100
AcDbLine
 10
181.263859652
 20
225.5254617095
 30
0.0
 11
192.9923357664
 21
225.5254617095
 31
0.0
  0
ARC
  5
282
330
25F
100
AcDbEntity
  8
$DDT_AUDIT_GENERATED_(87)
  6
Continuous
 62
     7
100
AcDbCircle
 10
116.35
 20
123.3498847902
 30
0.0
 40
16.99999999999832
100
AcDbArc
 50
251.4573016754
 51
253.9179780132
  0
ARC
  5
283
330
25F
100
AcDbEntity
  8
$DDT_AUDIT_GENERATED_(87)
  6
Continuous
 62
     7
100
AcDbCircle
 10
116.35
 20
123.3498847902
 30
0.0
 40
16.99999999999832
100
AcDbArc
 50
179.9999973743
 51
189.4275897282
  0
ARC
  5
284
330
25F
100
AcDbEntity
  8
$DDT_AUDIT_GENERATED_(87)
  6
Continuous
 62
     7
100
AcDbCircle
 10
116.35
 20
123.3498847902
 30
0.0
 40
16.99999999999908
100
AcDbArc
 50
286.8947780969
 51
293.2680599599
  0
ARC
  5
285
330
25F
100
AcDbEntity
  8
$DDT_AUDIT_GENERATED_(87)
  6
Continuous
 62
     7
100
AcDbCircle
 10
28.350003775
 20
195.9818162446
 30
0.0
 40
2.000000339001322
100
AcDbArc
 50
180.2032393033
 51
208.5884832309
  0
ARC
  5
286
330
25F
100
AcDbEntity
  8
$DDT_AUDIT_GENERATED_(87)
  6
Continuous
 62
     7
100
AcDbCircle
 10
204.3499957011
 20
195.9818162336
 30
0.0
 40
2.000000373336365
100
AcDbArc
 50
330.6782945237
 51
0.2205186556
  0
LINE
  5
287
330
25F
100
AcDbEntity
  8
$DDT_AUDIT_GENERATED_(87)
  6
Continuous
 62
     7
100
AcDbLine
 10
26.3499999999
 20
225.5254617095
 30
0.0
 11
26.3499999999
 21
195.9809052394
 31
0.0
  0
LINE
  5
288
330
25F
100
AcDbEntity
  8
$DDT_AUDIT_GENERATED_(87)
  6
Continuous
 62
     7
100
AcDbLine
 10
206.35
 20
195.9809436326
 30
0.0
 11
206.35
 21
225.5254617095
 31
0.0
  0
LINE
  5
289
330
25F
100
AcDbEntity
  8
$DDT_AUDIT_GENERATED_(1A1)
  6
Continuous
 62
     7
100
AcDbLine
 10
201.2153810568
 20
230.0254617095
 30
0.0
 11
197.6
 21
230.0254617095
 31
0.0
  0
LINE
  5
28A
330
25F
100
AcDbEntity
  8
$DDT_AUDIT_GENERATED_(1A1)
  6
Continuous
 62
     7
100
AcDbLine
 10
179.7119758241
 20
226.5254617095
 30
0.0
 11
205.85
 21
226.5254617095
 31
0.0
  0
LINE
  5
28B
330
25F
100
AcDbEntity
  8
$DDT_AUDIT_GENERATED_(1A1)
  6
Continuous
 62
     7
100
AcDbLine
 10
176.85
 20
243.5254617095
 30
0.0
 11
205.85
 21
243.5254617095
 31
0.0
  0
LINE
  5
28C
330
25F
100
AcDbEntity
  8
$DDT_AUDIT_GENERATED_(1A1)
  6
Continuous
 62
     7
100
AcDbLine
 10
201.2153810568
 20
240.0254617095
 30
0.0
 11
197.6
 21
240.0254617095
 31
0.0
  0
LINE
  5
28D
330
25F
100
AcDbEntity
  8
$DDT_AUDIT_GENERATED_(1A1)
  6
Continuous
 62
     7
100
AcDbLine
 10
185.1
 20
240.0254617095
 30
0.0
 11
181.4846189432
 21
240.0254617095
 31
0.0
  0
LINE
  5
28E
330
25F
100
AcDbEntity
  8
$DDT_AUDIT_GENERATED_(1A1)
  6
Continuous
 62
     7
100
AcDbLine
 10
175.2346189432
 20
240.0254617095
 30
0.0
 11
175.1
 21
240.0254617095
 31
0.0
  0
LINE
  5
28F
330
25F
100
AcDbEntity
  8
$DDT_AUDIT_GENERATED_(1A1)
  6
Continuous
 62
     7
100
AcDbLine
 10
207.6
 20
240.0254617095
 30
0.0
 11
207.4653810568
 21
240.0254617095
 31
0.0
  0
SPLINE
  5
290
330
25F
100
AcDbEntity
  8
$DDT_AUDIT_GENERATED_(1A1)
  6
Continuous
 62
     7
100
AcDbSpline
210
0.0
220
0.0
230
1.0
 70
     8
 71
     3
 72
    14
 73
    10
 74
     0
 42
0.0000000011014719
 43
0.0000000001
 40
0.0
 40
0.0
 40
0.0
 40
0.0
 40
0.25
 40
0.25
 40
0.5
 40
0.5
 40
0.75
 40
0.75
 40
1.0
 40
1.0
 40
1.0
 40
1.0
 10
207.4653810567666
 20
240.025461709505
 30
0.0
 10
207.1180632081393
 20
241.0032682779581
 30
0.0
 10
206.6201358955559
 20
241.700126772139
 30
0.0
 10
205.5302278309876
 20
242.6068087240087
 30
0.0
 10
204.9363536495826
 20
242.8207558243278
 30
0.0
 10
203.7479485461937
 20
242.8216229773697
 30
0.0
 10
203.1623947637967
 20
242.6143044191006
 30
0.0
 10
202.0621130206902
 20
241.7037059231772
 30
0.0
 10
201.5623162945164
 20
241.0021911106614
 30
0.0
 10
201.2153810567666
 20
240.025461709505
 30
0.0
  0
SPLINE
  5
291
330
25F
100
AcDbEntity
  8
$DDT_AUDIT_GENERATED_(1A1)
  6
Continuous
 62
     7
100
AcDbSpline
210
0.0
220
0.0
230
1.0
 70
     8
 71
     3
 72
    14
 73
    10
 74
     0
 42
0.0000000011014719
 43
0.0000000001
 40
0.0
 40
0.0
 40
0.0
 40
0.0
 40
0.25
 40
0.25
 40
0.5
 40
0.5
 40
0.75
 40
0.75
 40
1.0
 40
1.0
 40
1.0
 40
1.0
 10
181.4846189432334
 20
240.025461709505
 30
0.0
 10
181.1373010946061
 20
241.0032682779581
 30
0.0
 10
180.6393737820227
 20
241.700126772139
 30
0.0
 10
179.5494657174545
 20
242.6068087240087
 30
0.0
 10
178.9555915360495
 20
242.8207558243278
 30
0.0
 10
177.7671864326606
 20
242.8216229773697
 30
0.0
 10
177.1816326502635
 20
242.6143044191006
 30
0.0
 10
176.081350907157
 20
241.7037059231772
 30
0.0
 10
175.5815541809832
 20
241.0021911106614
 30
0.0
 10
175.2346189432334
 20
240.025461709505
 30
0.0
  0
SPLINE
  5
292
330
25F
100
AcDbEntity
  8
$DDT_AUDIT_GENERATED_(1A1)
  6
Continuous
 62
     7
100
AcDbSpline
210
0.0
220
0.0
230
1.0
 70
     8
 71
     3
 72
    14
 73
    10
 74
     0
 42
0.0000000006969408
 43
0.0000000001
 40
0.0
 40
0.0
 40
0.0
 40
0.0
 40
0.25
 40
0.25
 40
0.5
 40
0.5
 40
0.75
 40
0.75
 40
1.0
 40
1.0
 40
1.0
 40
1.0
 10
197.6
 20
240.025461709505
 30
0.0
 10
196.9069116474878
 20
241.0010901522747
 30
0.0
 10
195.899351479657
 20
241.7070688409221
 30
0.0
 10
193.7087060272832
 20
242.6127826053184
 30
0.0
 10
192.5244917237938
 20
242.8230850020083
 30
0.0
 10
190.1444037149693
 20
242.8192701638713
 30
0.0
 10
188.9613801054257
 20
242.6039709213215
 30
0.0
 10
186.7893770655833
 20
241.6987846066833
 30
0.0
 10
185.78787435235
 20
240.9937506452113
 30
0.0
 10
185.1
 20
240.025461709505
 30
0.0
  0
LINE
  5
293
330
25F
100
AcDbEntity
  8
$DDT_AUDIT_GENERATED_(1A1)
  6
Continuous
 62
     7
100
AcDbLine
 10
185.1
 20
230.0254617095
 30
0.0
 11
181.4846189432
 21
230.0254617095
 31
0.0
  0
LINE
  5
294
330
25F
100
AcDbEntity
  8
$DDT_AUDIT_GENERATED_(1A1)
  6
Continuous
 62
     7
100
AcDbLine
 10
175.2346189432
 20
230.0254617095
 30
0.0
 11
175.1
 21
230.0254617095
 31
0.0
  0
LINE
  5
295
330
25F
100
AcDbEntity
  8
$DDT_AUDIT_GENERATED_(1A1)
  6
Continuous
 62
     7
100
AcDbLine
 10
207.4653810568
 20
230.0254617095
 30
0.0
 11
207.6
 21
230.0254617095
 31
0.0
  0
LINE
  5
296
330
25F
100
AcDbEntity
  8
$DDT_AUDIT_GENERATED_(1A1)
  6
Continuous
 62
     7
100
AcDbLine
 10
197.6
 20
240.0254617095
 30
0.0
 11
197.6
 21
230.0254617095
 31
0.0
  0
SPLINE
  5
297
330
25F
100
AcDbEntity
  8
$DDT_AUDIT_GENERATED_(1A1)
  6
Continuous
 62
     7
100
AcDbSpline
210
0.0
220
0.0
230
1.0
 70
     8
 71
     3
 72
    14
 73
    10
 74
     0
 42
0.0000000006969408
 43
0.0000000001
 40
0.0
 40
0.0
 40
0.0
 40
0.0
 40
0.25
 40
0.25
 40
0.5
 40
0.5
 40
0.75
 40
0.75
 40
1.0
 40
1.0
 40
1.0
 40
1.0
 10
197.6
 20
230.025461709505
 30
0.0
 10
196.9069116474878
 20
229.0498332667353
 30
0.0
 10
195.899351479657
 20
228.3438545780879
 30
0.0
 10
193.7087060272832
 20
227.4381408136917
 30
0.0
 10
192.5244917237939
 20
227.2278384170017
 30
0.0
 10
190.1444037149693
 20
227.2316532551387
 30
0.0
 10
188.9613801054257
 20
227.4469524976884
 30
0.0
 10
186.7893770655833
 20
228.3521388123267
 30
0.0
 10
185.78787435235
 20
229.0571727737986
 30
0.0
 10
185.1
 20
230.025461709505
 30
0.0
  0
LINE
  5
298
330
25F
100
AcDbEntity
  8
$DDT_AUDIT_GENERATED_(1A1)
  6
Continuous
 62
     7
100
AcDbLine
 10
185.1
 20
230.0254617095
 30
0.0
 11
185.1
 21
240.0254617095
 31
0.0
  0
LINE
  5
299
330
25F
100
AcDbEntity
  8
$DDT_AUDIT_GENERATED_(1A1)
  6
Continuous
 62
     7
100
AcDbLine
 10
181.4846189432
 20
240.0254617095
 30
0.0
 11
181.4846189432
 21
230.0254617095
 31
0.0
  0
SPLINE
  5
29A
330
25F
100
AcDbEntity
  8
$DDT_AUDIT_GENERATED_(1A1)
  6
Continuous
 62
     7
100
AcDbSpline
210
0.0
220
0.0
230
1.0
 70
     8
 71
     3
 72
    14
 73
    10
 74
     0
 42
0.0000000011014719
 43
0.0000000001
 40
0.0
 40
0.0
 40
0.0
 40
0.0
 40
0.2500000000000001
 40
0.2500000000000001
 40
0.5000000000000001
 40
0.5000000000000001
 40
0.7500000000000002
 40
0.7500000000000002
 40
1.0
 40
1.0
 40
1.0
 40
1.0
 10
181.4846189432334
 20
230.025461709505
 30
0.0
 10
181.1373010946061
 20
229.0476551410519
 30
0.0
 10
180.6393737820227
 20
228.350796646871
 30
0.0
 10
179.5494657174545
 20
227.4441146950013
 30
0.0
 10
178.9555915360495
 20
227.2301675946822
 30
0.0
 10
177.7671864326606
 20
227.2293004416403
 30
0.0
 10
177.1816326502635
 20
227.4366189999094
 30
0.0
 10
176.081350907157
 20
228.3472174958328
 30
0.0
 10
175.5815541809832
 20
229.0487323083486
 30
0.0
 10
175.2346189432334
 20
230.025461709505
 30
0.0
  0
LINE
  5
29B
330
25F
100
AcDbEntity
  8
$DDT_AUDIT_GENERATED_(1A1)
  6
Continuous
 62
     7
100
AcDbLine
 10
175.2346189432
 20
230.0254617095
 30
0.0
 11
175.2346189432
 21
240.0254617095
 31
0.0
  0
LINE
  5
29C
330
25F
100
AcDbEntity
  8
$DDT_AUDIT_GENERATED_(1A1)
  6
Continuous
 62
     7
100
AcDbLine
 10
207.4653810568
 20
240.0254617095
 30
0.0
 11
207.4653810568
 21
230.0254617095
 31
0.0
  0
SPLINE
  5
29D
330
25F
100
AcDbEntity
  8
$DDT_AUDIT_GENERATED_(1A1)
  6
Continuous
 62
     7
100
AcDbSpline
210
0.0
220
0.0
230
1.0
 70
     8
 71
     3
 72
    14
 73
    10
 74
     0
 42
0.0000000011014719
 43
0.0000000001
 40
0.0
 40
0.0
 40
0.0
 40
0.0
 40
0.2499999999999999
 40
0.2499999999999999
 40
0.4999999999999999
 40
0.4999999999999999
 40
0.7499999999999999
 40
0.7499999999999999
 40
1.0
 40
1.0
 40
1.0
 40
1.0
 10
207.4653810567666
 20
230.025461709505
 30
0.0
 10
207.1180632081393
 20
229.0476551410519
 30
0.0
 10
206.6201358955559
 20
228.350796646871
 30
0.0
 10
205.5302278309877
 20
227.4441146950013
 30
0.0
 10
204.9363536495826
 20
227.2301675946822
 30
0.0
 10
203.7479485461937
 20
227.2293004416403
 30
0.0
 10
203.1623947637967
 20
227.4366189999094
 30
0.0
 10
202.0621130206902
 20
228.3472174958328
 30
0.0
 10
201.5623162945164
 20
229.0487323083486
 30
0.0
 10
201.2153810567666
 20
230.025461709505
 30
0.0
  0
LINE
  5
29E
330
25F
100
AcDbEntity
  8
$DDT_AUDIT_GENERATED_(1A1)
  6
Continuous
 62
     7
100
AcDbLine
 10
201.2153810568
 20
230.0254617095
 30
0.0
 11
201.2153810568
 21
240.0254617095
 31
0.0
  0
LINE
  5
29F
330
25F
100
AcDbEntity
  8
$DDT_AUDIT_GENERATED_(1A1)
  6
Continuous
 62
     7
100
AcDbLine
 10
207.6
 20
230.0254617095
 30
0.0
 11
207.6
 21
240.0254617095
 31
0.0
  0
ARC
  5
2A0
330
25F
100
AcDbEntity
  8
$DDT_AUDIT_GENERATED_(1A1)
  6
Continuous
 62
     7
100
AcDbCircle
 10
197.9535976036
 20
232.6611629077
 30
0.0
 40
10.0
100
AcDbArc
 50
322.1519040322
 51
344.7179936136
  0
ARC
  5
2A1
330
25F
100
AcDbEntity
  8
$DDT_AUDIT_GENERATED_(1A1)
  6
Continuous
 62
     7
100
AcDbCircle
 10
184.7464023964
 20
232.6611629077
 30
0.0
 40
9.999999999999993
100
AcDbArc
 50
195.2820063864
 51
217.8480959678
  0
ARC
  5
2A2
330
25F
100
AcDbEntity
  8
$DDT_AUDIT_GENERATED_(1A1)
  6
Continuous
 62
     7
100
AcDbCircle
 10
197.9535976036
 20
237.3897605113
 30
0.0
 40
9.999999999999995
100
AcDbArc
 50
15.2820063864
 51
37.8480959678
  0
ARC
  5
2A3
330
25F
100
AcDbEntity
  8
$DDT_AUDIT_GENERATED_(1A1)
  6
Continuous
 62
     7
100
AcDbCircle
 10
184.7464023964
 20
237.3897605113
 30
0.0
 40
10.0
100
AcDbArc
 50
142.1519040322
 51
164.7179936136
  0
LINE
  5
2A4
330
25F
100
AcDbEntity
  8
$DDT_AUDIT_GENERATED_(1A1)
  6
Continuous
 62
     7
100
AcDbLine
 10
175.1
 20
240.0254617095
 30
0.0
 11
175.1
 21
230.0254617095
 31
0.0
  0
LINE
  5
2A5
330
25F
100
AcDbEntity
  8
$DDT_AUDIT_GENERATED_(197)
  6
Continuous
 62
     7
100
AcDbLine
 10
51.85
 20
226.0632929701
 30
0.0
 11
51.85
 21
226.5254617095
 31
0.0
  0
LINE
  5
2A6
330
25F
100
AcDbEntity
  8
$DDT_AUDIT_GENERATED_(197)
  6
Continuous
 62
     7
100
AcDbLine
 10
30.85
 20
226.5254617095
 30
0.0
 11
30.85
 21
225.5254617095
 31
0.0
  0
ELLIPSE
  5
2A7
330
25F
100
AcDbEntity
  8
$DDT_AUDIT_GENERATED_(19A)
  6
Continuous
 62
     7
100
AcDbEllipse
 10
41.35
 20
248.8584769413
 30
0.0
 11
-13.22
 21
3.469446951953614E-15
 31
0.0
210
0.0
220
0.0
230
1.0
 40
0.3939104756
 41
0.9828339676581118
 42
2.158758685931681
  0
LINE
  5
2A8
330
25F
100
AcDbEntity
  8
$DDT_AUDIT_GENERATED_(19A)
  6
Continuous
 62
     7
100
AcDbLine
 10
54.57
 20
243.5254617095
 30
0.0
 11
54.57
 21
244.5254617095
 31
0.0
  0
LINE
  5
2A9
330
25F
100
AcDbEntity
  8
$DDT_AUDIT_GENERATED_(19A)
  6
Continuous
 62
     7
100
AcDbLine
 10
28.13
 20
244.5254617095
 30
0.0
 11
28.13
 21
243.5254617095
 31
0.0
  0
LINE
  5
2AA
330
25F
100
AcDbEntity
  8
$DDT_AUDIT_GENERATED_(19A)
  6
Continuous
 62
     7
100
AcDbLine
 10
53.4
 20
244.5254617095
 30
0.0
 11
53.4
 21
243.5254617095
 31
0.0
  0
LINE
  5
2AB
330
25F
100
AcDbEntity
  8
$DDT_AUDIT_GENERATED_(19A)
  6
Continuous
 62
     7
100
AcDbLine
 10
29.3
 20
244.5254617095
 30
0.0
 11
29.3
 21
243.5254617095
 31
0.0
  0
LINE
  5
2AC
330
25F
100
AcDbEntity
  8
$DDT_AUDIT_GENERATED_(197)
  6
Continuous
 62
     7
100
AcDbLine
 10
201.85
 20
225.5254617095
 30
0.0
 11
201.85
 21
226.5254617095
 31
0.0
  0
LINE
  5
2AD
330
25F
100
AcDbEntity
  8
$DDT_AUDIT_GENERATED_(197)
  6
Continuous
 62
     7
100
AcDbLine
 10
180.85
 20
226.5254617095
 30
0.0
 11
180.85
 21
226.0632656403
 31
0.0
  0
LINE
  5
2AE
330
25F
100
AcDbEntity
  8
$DDT_AUDIT_GENERATED_(1A1)
  6
Continuous
 62
     7
100
AcDbLine
 10
51.2153810568
 20
230.0254617095
 30
0.0
 11
47.6
 21
230.0254617095
 31
0.0
  0
LINE
  5
2AF
330
25F
100
AcDbEntity
  8
$DDT_AUDIT_GENERATED_(1A1)
  6
Continuous
 62
     7
100
AcDbLine
 10
53.0168248285
 20
226.5254617095
 30
0.0
 11
26.85
 21
226.5254617095
 31
0.0
  0
LINE
  5
2B0
330
25F
100
AcDbEntity
  8
$DDT_AUDIT_GENERATED_(1A1)
  6
Continuous
 62
     7
100
AcDbLine
 10
55.85
 20
243.5254617095
 30
0.0
 11
26.85
 21
243.5254617095
 31
0.0
  0
LINE
  5
2B1
330
25F
100
AcDbEntity
  8
$DDT_AUDIT_GENERATED_(1A1)
  6
Continuous
 62
     7
100
AcDbLine
 10
51.2153810568
 20
240.0254617095
 30
0.0
 11
47.6
 21
240.0254617095
 31
0.0
  0
LINE
  5
2B2
330
25F
100
AcDbEntity
  8
$DDT_AUDIT_GENERATED_(1A1)
  6
Continuous
 62
     7
100
AcDbLine
 10
35.1
 20
240.0254617095
 30
0.0
 11
31.4846189432
 21
240.0254617095
 31
0.0
  0
LINE
  5
2B3
330
25F
100
AcDbEntity
  8
$DDT_AUDIT_GENERATED_(1A1)
  6
Continuous
 62
     7
100
AcDbLine
 10
25.2346189432
 20
240.0254617095
 30
0.0
 11
25.1
 21
240.0254617095
 31
0.0
  0
LINE
  5
2B4
330
25F
100
AcDbEntity
  8
$DDT_AUDIT_GENERATED_(1A1)
  6
Continuous
 62
     7
100
AcDbLine
 10
57.4653810568
 20
240.0254617095
 30
0.0
 11
57.6
 21
240.0254617095
 31
0.0
  0
SPLINE
  5
2B5
330
25F
100
AcDbEntity
  8
$DDT_AUDIT_GENERATED_(1A1)
  6
Continuous
 62
     7
100
AcDbSpline
210
0.0
220
0.0
230
1.0
 70
     8
 71
     3
 72
    14
 73
    10
 74
     0
 42
0.0000000011014719
 43
0.0000000001
 40
0.0
 40
0.0
 40
0.0
 40
0.0
 40
0.25
 40
0.25
 40
0.5
 40
0.5
 40
0.75
 40
0.75
 40
1.0
 40
1.0
 40
1.0
 40
1.0
 10
57.46538105676658
 20
240.025461709505
 30
0.0
 10
57.1180632081393
 20
241.0032682779581
 30
0.0
 10
56.6201358955559
 20
241.700126772139
 30
0.0
 10
55.53022783098765
 20
242.6068087240087
 30
0.0
 10
54.93635364958264
 20
242.8207558243278
 30
0.0
 10
53.74794854619373
 20
242.8216229773697
 30
0.0
 10
53.1623947637967
 20
242.6143044191006
 30
0.0
 10
52.06211302069022
 20
241.7037059231772
 30
0.0
 10
51.56231629451636
 20
241.0021911106614
 30
0.0
 10
51.21538105676657
 20
240.025461709505
 30
0.0
  0
SPLINE
  5
2B6
330
25F
100
AcDbEntity
  8
$DDT_AUDIT_GENERATED_(1A1)
  6
Continuous
 62
     7
100
AcDbSpline
210
0.0
220
0.0
230
1.0
 70
     8
 71
     3
 72
    14
 73
    10
 74
     0
 42
0.0000000011014719
 43
0.0000000001
 40
0.0
 40
0.0
 40
0.0
 40
0.0
 40
0.25
 40
0.25
 40
0.5
 40
0.5
 40
0.75
 40
0.75
 40
1.0
 40
1.0
 40
1.0
 40
1.0
 10
31.48461894323341
 20
240.025461709505
 30
0.0
 10
31.13730109460613
 20
241.0032682779581
 30
0.0
 10
30.63937378202275
 20
241.700126772139
 30
0.0
 10
29.5494657174545
 20
242.6068087240087
 30
0.0
 10
28.95559153604949
 20
242.8207558243278
 30
0.0
 10
27.76718643266059
 20
242.8216229773697
 30
0.0
 10
27.18163265026353
 20
242.6143044191006
 30
0.0
 10
26.08135090715706
 20
241.7037059231772
 30
0.0
 10
25.58155418098322
 20
241.0021911106614
 30
0.0
 10
25.23461894323341
 20
240.025461709505
 30
0.0
  0
SPLINE
  5
2B7
330
25F
100
AcDbEntity
  8
$DDT_AUDIT_GENERATED_(1A1)
  6
Continuous
 62
     7
100
AcDbSpline
210
0.0
220
0.0
230
1.0
 70
     8
 71
     3
 72
    14
 73
    10
 74
     0
 42
0.0000000006969408
 43
0.0000000001
 40
0.0
 40
0.0
 40
0.0
 40
0.0
 40
0.25
 40
0.25
 40
0.5
 40
0.5
 40
0.75
 40
0.75
 40
1.0
 40
1.0
 40
1.0
 40
1.0
 10
47.59999999999999
 20
240.025461709505
 30
0.0
 10
46.90691164748787
 20
241.0010901522747
 30
0.0
 10
45.899351479657
 20
241.7070688409221
 30
0.0
 10
43.70870602728323
 20
242.6127826053183
 30
0.0
 10
42.52449172379384
 20
242.8230850020083
 30
0.0
 10
40.14440371496936
 20
242.8192701638713
 30
0.0
 10
38.96138010542575
 20
242.6039709213215
 30
0.0
 10
36.78937706558329
 20
241.6987846066833
 30
0.0
 10
35.78787435234998
 20
240.9937506452113
 30
0.0
 10
35.09999999999999
 20
240.025461709505
 30
0.0
  0
LINE
  5
2B8
330
25F
100
AcDbEntity
  8
$DDT_AUDIT_GENERATED_(1A1)
  6
Continuous
 62
     7
100
AcDbLine
 10
35.1
 20
230.0254617095
 30
0.0
 11
31.4846189432
 21
230.0254617095
 31
0.0
  0
LINE
  5
2B9
330
25F
100
AcDbEntity
  8
$DDT_AUDIT_GENERATED_(1A1)
  6
Continuous
 62
     7
100
AcDbLine
 10
25.2346189432
 20
230.0254617095
 30
0.0
 11
25.1
 21
230.0254617095
 31
0.0
  0
LINE
  5
2BA
330
25F
100
AcDbEntity
  8
$DDT_AUDIT_GENERATED_(1A1)
  6
Continuous
 62
     7
100
AcDbLine
 10
57.4653810568
 20
230.0254617095
 30
0.0
 11
57.6
 21
230.0254617095
 31
0.0
  0
LINE
  5
2BB
330
25F
100
AcDbEntity
  8
$DDT_AUDIT_GENERATED_(1A1)
  6
Continuous
 62
     7
100
AcDbLine
 10
47.6
 20
240.0254617095
 30
0.0
 11
47.6
 21
230.0254617095
 31
0.0
  0
SPLINE
  5
2BC
330
25F
100
AcDbEntity
  8
$DDT_AUDIT_GENERATED_(1A1)
  6
Continuous
 62
     7
100
AcDbSpline
210
0.0
220
0.0
230
1.0
 70
     8
 71
     3
 72
    14
 73
    10
 74
     0
 42
0.0000000006969408
 43
0.0000000001
 40
0.0
 40
0.0
 40
0.0
 40
0.0
 40
0.25
 40
0.25
 40
0.5
 40
0.5
 40
0.75
 40
0.75
 40
1.0
 40
1.0
 40
1.0
 40
1.0
 10
47.59999999999999
 20
230.025461709505
 30
0.0
 10
46.90691164748787
 20
229.0498332667353
 30
0.0
 10
45.89935147965701
 20
228.3438545780879
 30
0.0
 10
43.70870602728323
 20
227.4381408136917
 30
0.0
 10
42.52449172379386
 20
227.2278384170017
 30
0.0
 10
40.14440371496936
 20
227.2316532551387
 30
0.0
 10
38.96138010542575
 20
227.4469524976884
 30
0.0
 10
36.78937706558327
 20
228.3521388123267
 30
0.0
 10
35.78787435234998
 20
229.0571727737986
 30
0.0
 10
35.09999999999999
 20
230.025461709505
 30
0.0
  0
LINE
  5
2BD
330
25F
100
AcDbEntity
  8
$DDT_AUDIT_GENERATED_(1A1)
  6
Continuous
 62
     7
100
AcDbLine
 10
35.1
 20
230.0254617095
 30
0.0
 11
35.1
 21
240.0254617095
 31
0.0
  0
LINE
  5
2BE
330
25F
100
AcDbEntity
  8
$DDT_AUDIT_GENERATED_(1A1)
  6
Continuous
 62
     7
100
AcDbLine
 10
31.4846189432
 20
240.0254617095
 30
0.0
 11
31.4846189432
 21
230.0254617095
 31
0.0
  0
SPLINE
  5
2BF
330
25F
100
AcDbEntity
  8
$DDT_AUDIT_GENERATED_(1A1)
  6
Continuous
 62
     7
100
AcDbSpline
210
0.0
220
0.0
230
1.0
 70
     8
 71
     3
 72
    14
 73
    10
 74
     0
 42
0.0000000011014719
 43
0.0000000001
 40
0.0
 40
0.0
 40
0.0
 40
0.0
 40
0.2500000000000001
 40
0.2500000000000001
 40
0.5000000000000001
 40
0.5000000000000001
 40
0.7500000000000002
 40
0.7500000000000002
 40
1.0
 40
1.0
 40
1.0
 40
1.0
 10
31.48461894323341
 20
230.025461709505
 30
0.0
 10
31.13730109460615
 20
229.0476551410519
 30
0.0
 10
30.63937378202275
 20
228.350796646871
 30
0.0
 10
29.5494657174545
 20
227.4441146950013
 30
0.0
 10
28.95559153604949
 20
227.2301675946822
 30
0.0
 10
27.76718643266059
 20
227.2293004416403
 30
0.0
 10
27.18163265026353
 20
227.4366189999094
 30
0.0
 10
26.08135090715706
 20
228.3472174958328
 30
0.0
 10
25.58155418098322
 20
229.0487323083486
 30
0.0
 10
25.23461894323341
 20
230.025461709505
 30
0.0
  0
LINE
  5
2C0
330
25F
100
AcDbEntity
  8
$DDT_AUDIT_GENERATED_(1A1)
  6
Continuous
 62
     7
100
AcDbLine
 10
25.2346189432
 20
230.0254617095
 30
0.0
 11
25.2346189432
 21
240.0254617095
 31
0.0
  0
LINE
  5
2C1
330
25F
100
AcDbEntity
  8
$DDT_AUDIT_GENERATED_(1A1)
  6
Continuous
 62
     7
100
AcDbLine
 10
57.4653810568
 20
240.0254617095
 30
0.0
 11
57.4653810568
 21
230.0254617095
 31
0.0
  0
SPLINE
  5
2C2
330
25F
100
AcDbEntity
  8
$DDT_AUDIT_GENERATED_(1A1)
  6
Continuous
 62
     7
100
AcDbSpline
210
0.0
220
0.0
230
1.0
 70
     8
 71
     3
 72
    14
 73
    10
 74
     0
 42
0.0000000011014719
 43
0.0000000001
 40
0.0
 40
0.0
 40
0.0
 40
0.0
 40
0.2499999999999999
 40
0.2499999999999999
 40
0.4999999999999999
 40
0.4999999999999999
 40
0.7499999999999999
 40
0.7499999999999999
 40
1.0
 40
1.0
 40
1.0
 40
1.0
 10
57.46538105676658
 20
230.025461709505
 30
0.0
 10
57.1180632081393
 20
229.0476551410519
 30
0.0
 10
56.62013589555591
 20
228.350796646871
 30
0.0
 10
55.53022783098766
 20
227.4441146950013
 30
0.0
 10
54.93635364958264
 20
227.2301675946822
 30
0.0
 10
53.74794854619373
 20
227.2293004416403
 30
0.0
 10
53.1623947637967
 20
227.4366189999094
 30
0.0
 10
52.06211302069022
 20
228.3472174958328
 30
0.0
 10
51.56231629451636
 20
229.0487323083486
 30
0.0
 10
51.21538105676657
 20
230.025461709505
 30
0.0
  0
LINE
  5
2C3
330
25F
100
AcDbEntity
  8
$DDT_AUDIT_GENERATED_(1A1)
  6
Continuous
 62
     7
100
AcDbLine
 10
51.2153810568
 20
230.0254617095
 30
0.0
 11
51.2153810568
 21
240.0254617095
 31
0.0
  0
LINE
  5
2C4
330
25F
100
AcDbEntity
  8
$DDT_AUDIT_GENERATED_(1A1)
  6
Continuous
 62
     7
100
AcDbLine
 10
57.6
 20
230.0254617095
 30
0.0
 11
57.6
 21
240.0254617095
 31
0.0
  0
ARC
  5
2C5
330
25F
100
AcDbEntity
  8
$DDT_AUDIT_GENERATED_(1A1)
  6
Continuous
 62
     7
100
AcDbCircle
 10
47.9535976036
 20
232.6611629077
 30
0.0
 40
9.999999999999995
100
AcDbArc
 50
322.1519040322
 51
344.7179936136
  0
ARC
  5
2C6
330
25F
100
AcDbEntity
  8
$DDT_AUDIT_GENERATED_(1A1)
  6
Continuous
 62
     7
100
AcDbCircle
 10
34.7464023964
 20
232.6611629077
 30
0.0
 40
9.999999999999991
100
AcDbArc
 50
195.2820063864
 51
217.8480959678
  0
ARC
  5
2C7
330
25F
100
AcDbEntity
  8
$DDT_AUDIT_GENERATED_(1A1)
  6
Continuous
 62
     7
100
AcDbCircle
 10
47.9535976036
 20
237.3897605113
 30
0.0
 40
9.999999999999993
100
AcDbArc
 50
15.2820063864
 51
37.8480959678
  0
ARC
  5
2C8
330
25F
100
AcDbEntity
  8
$DDT_AUDIT_GENERATED_(1A1)
  6
Continuous
 62
     7
100
AcDbCircle
 10
34.7464023964
 20
237.3897605113
 30
0.0
 40
9.999999999999995
100
AcDbArc
 50
142.1519040322
 51
164.7179936136
  0
LINE
  5
2C9
330
25F
100
AcDbEntity
  8
$DDT_AUDIT_GENERATED_(1A1)
  6
Continuous
 62
     7
100
AcDbLine
 10
25.1
 20
240.0254617095
 30
0.0
 11
25.1
 21
230.0254617095
 31
0.0
  0
ELLIPSE
  5
2CA
330
25F
100
AcDbEntity
  8
$DDT_AUDIT_GENERATED_(19A)
  6
Continuous
 62
     7
100
AcDbEllipse
 10
191.35
 20
248.8584769413
 30
0.0
 11
13.21999999999998
 21
3.469446951953615E-15
 31
0.0
210
0.0
220
0.0
230
1.0
 40
0.3939104756
 41
4.124426621247901
 42
5.300351339521477
  0
LINE
  5
2CB
330
25F
100
AcDbEntity
  8
$DDT_AUDIT_GENERATED_(19A)
  6
Continuous
 62
     7
100
AcDbLine
 10
204.57
 20
243.5254617095
 30
0.0
 11
204.57
 21
244.5254617095
 31
0.0
  0
LINE
  5
2CC
330
25F
100
AcDbEntity
  8
$DDT_AUDIT_GENERATED_(19A)
  6
Continuous
 62
     7
100
AcDbLine
 10
178.13
 20
244.5254617095
 30
0.0
 11
178.13
 21
243.5254617095
 31
0.0
  0
LINE
  5
2CD
330
25F
100
AcDbEntity
  8
$DDT_AUDIT_GENERATED_(19A)
  6
Continuous
 62
     7
100
AcDbLine
 10
203.4
 20
244.5254617095
 30
0.0
 11
203.4
 21
243.5254617095
 31
0.0
  0
LINE
  5
2CE
330
25F
100
AcDbEntity
  8
$DDT_AUDIT_GENERATED_(19A)
  6
Continuous
 62
     7
100
AcDbLine
 10
179.3
 20
244.5254617095
 30
0.0
 11
179.3
 21
243.5254617095
 31
0.0
  0
LINE
  5
2CF
330
25F
100
AcDbEntity
  8
$DDT_AUDIT_GENERATED_(A7)
  6
Continuous
 62
     7
100
AcDbLine
 10
6.35
 20
270.5254617095
 30
0.0
 11
76.35
 21
270.5254617095
 31
0.0
  0
LINE
  5
2D0
330
25F
100
AcDbEntity
  8
$DDT_AUDIT_GENERATED_(A7)
  6
Continuous
 62
     7
100
AcDbLine
 10
56.2175283415
 20
244.5254617095
 30
0.0
 11
26.4824716585
 21
244.5254617095
 31
0.0
  0
LINE
  5
2D1
330
25F
100
AcDbEntity
  8
$DDT_AUDIT_GENERATED_(A7)
  6
Continuous
 62
     7
100
AcDbLine
 10
6.35
 20
265.3390981656
 30
0.0
 11
76.35
 21
265.3390981656
 31
0.0
  0
LINE
  5
2D2
330
25F
100
AcDbEntity
  8
$DDT_AUDIT_GENERATED_(A7)
  6
Continuous
 62
     7
100
AcDbLine
 10
6.35
 20
270.5254617095
 30
0.0
 11
6.35
 21
265.3390981656
 31
0.0
  0
LINE
  5
2D3
330
25F
100
AcDbEntity
  8
$DDT_AUDIT_GENERATED_(A7)
  6
Continuous
 62
     7
100
AcDbLine
 10
76.35
 20
265.3390981656
 30
0.0
 11
76.35
 21
270.5254617095
 31
0.0
  0
LINE
  5
2D4
330
25F
100
AcDbEntity
  8
$DDT_AUDIT_GENERATED_(A7)
  6
Continuous
 62
     7
100
AcDbLine
 10
6.9179997208
 20
263.9428978933
 30
0.0
 11
25.4084714491
 21
244.9783115053
 31
0.0
  0
LINE
  5
2D5
330
25F
100
AcDbEntity
  8
$DDT_AUDIT_GENERATED_(A7)
  6
Continuous
 62
     7
100
AcDbLine
 10
57.2915285509
 20
244.9783115053
 30
0.0
 11
75.7820002792
 21
263.9428978933
 31
0.0
  0
ARC
  5
2D6
330
25F
100
AcDbEntity
  8
$DDT_AUDIT_GENERATED_(A7)
  6
Continuous
 62
     7
100
AcDbCircle
 10
26.4824716585
 20
246.0254617095
 30
0.0
 40
1.500000000000002
100
AcDbArc
 50
224.2747757009
 51
270.0
  0
ARC
  5
2D7
330
25F
100
AcDbEntity
  8
$DDT_AUDIT_GENERATED_(A7)
  6
Continuous
 62
     7
100
AcDbCircle
 10
56.2175283415
 20
246.0254617095
 30
0.0
 40
1.500000000000001
100
AcDbArc
 50
270.0
 51
315.7252242991
  0
ARC
  5
2D8
330
25F
100
AcDbEntity
  8
$DDT_AUDIT_GENERATED_(A7)
  6
Continuous
 62
     7
100
AcDbCircle
 10
74.35
 20
265.3390981656
 30
0.0
 40
2.0
100
AcDbArc
 50
315.7252242991
 51
0.0
  0
ARC
  5
2D9
330
25F
100
AcDbEntity
  8
$DDT_AUDIT_GENERATED_(A7)
  6
Continuous
 62
     7
100
AcDbCircle
 10
8.35
 20
265.3390981656
 30
0.0
 40
2.000000000000002
100
AcDbArc
 50
180.0
 51
224.2747757009
  0
LINE
  5
2DA
330
25F
100
AcDbEntity
  8
$DDT_AUDIT_GENERATED_(A7)
  6
Continuous
 62
     7
100
AcDbLine
 10
156.35
 20
270.5254617095
 30
0.0
 11
226.35
 21
270.5254617095
 31
0.0
  0
LINE
  5
2DB
330
25F
100
AcDbEntity
  8
$DDT_AUDIT_GENERATED_(A7)
  6
Continuous
 62
     7
100
AcDbLine
 10
176.4824716585
 20
244.5254617095
 30
0.0
 11
206.2175283415
 21
244.5254617095
 31
0.0
  0
LINE
  5
2DC
330
25F
100
AcDbEntity
  8
$DDT_AUDIT_GENERATED_(A7)
  6
Continuous
 62
     7
100
AcDbLine
 10
156.9179997208
 20
263.9428978933
 30
0.0
 11
225.7820002792
 21
263.9428978933
 31
0.0
  0
LINE
  5
2DD
330
25F
100
AcDbEntity
  8
$DDT_AUDIT_GENERATED_(A7)
  6
Continuous
 62
     7
100
AcDbLine
 10
156.35
 20
270.5254617095
 30
0.0
 11
156.35
 21
265.3390981656
 31
0.0
  0
LINE
  5
2DE
330
25F
100
AcDbEntity
  8
$DDT_AUDIT_GENERATED_(A7)
  6
Continuous
 62
     7
100
AcDbLine
 10
226.35
 20
265.3390981656
 30
0.0
 11
226.35
 21
270.5254617095
 31
0.0
  0
LINE
  5
2DF
330
25F
100
AcDbEntity
  8
$DDT_AUDIT_GENERATED_(A7)
  6
Continuous
 62
     7
100
AcDbLine
 10
156.9179997208
 20
263.9428978933
 30
0.0
 11
175.4084714491
 21
244.9783115053
 31
0.0
  0
LINE
  5
2E0
330
25F
100
AcDbEntity
  8
$DDT_AUDIT_GENERATED_(A7)
  6
Continuous
 62
     7
100
AcDbLine
 10
207.2915285509
 20
244.9783115053
 30
0.0
 11
225.7820002792
 21
263.9428978933
 31
0.0
  0
ARC
  5
2E1
330
25F
100
AcDbEntity
  8
$DDT_AUDIT_GENERATED_(A7)
  6
Continuous
 62
     7
100
AcDbCircle
 10
176.4824716585
 20
246.0254617095
 30
0.0
 40
1.500000000000002
100
AcDbArc
 50
224.2747757009
 51
270.0
  0
ARC
  5
2E2
330
25F
100
AcDbEntity
  8
$DDT_AUDIT_GENERATED_(A7)
  6
Continuous
 62
     7
100
AcDbCircle
 10
206.2175283415
 20
246.0254617095
 30
0.0
 40
1.500000000000001
100
AcDbArc
 50
270.0
 51
315.7252242991
  0
ARC
  5
2E3
330
25F
100
AcDbEntity
  8
$DDT_AUDIT_GENERATED_(A7)
  6
Continuous
 62
     7
100
AcDbCircle
 10
224.35
 20
265.3390981656
 30
0.0
 40
2.0
100
AcDbArc
 50
315.7252242991
 51
0.0
  0
ARC
  5
2E4
330
25F
100
AcDbEntity
  8
$DDT_AUDIT_GENERATED_(A7)
  6
Continuous
 62
     7
100
AcDbCircle
 10
158.35
 20
265.3390981656
 30
0.0
 40
2.000000000000002
100
AcDbArc
 50
180.0
 51
224.2747757009
  0
ARC
  5
2E5
330
25F
100
AcDbEntity
  8
$DDT_AUDIT_GENERATED_(AD)
  6
Continuous
 62
     7
100
AcDbCircle
 10
191.35
 20
210.7754617095
 30
0.0
 40
59.98895782455634
100
AcDbArc
 50
265.7532340932
 51
266.2910088749
  0
SPLINE
  5
2E6
330
25F
100
AcDbEntity
  8
$DDT_AUDIT_GENERATED_(AD)
  6
Continuous
 62
     7
100
AcDbSpline
210
0.0
220
0.0
230
1.0
 70
     8
 71
     3
 72
    23
 73
    19
 74
     0
 42
0.0000000041047128
 43
0.0000000001
 40
0.5005368276484419
 40
0.5005368276484419
 40
0.5005368276484419
 40
0.5005368276484419
 40
0.5223757133550733
 40
0.5223757133550733
 40
0.5223757133550733
 40
0.6224177321103046
 40
0.6224177321103046
 40
0.6224177321103046
 40
0.7222254596018692
 40
0.7222254596018692
 40
0.7222254596018692
 40
0.8018119865480484
 40
0.8018119865480484
 40
0.8018119865480484
 40
0.9112310484921076
 40
0.9112310484921076
 40
0.9112310484921076
 40
1.0
 40
1.0
 40
1.0
 40
1.0
 10
185.2671539198518
 20
151.0957159183029
 30
0.0
 10
185.267224547709
 20
151.0962356433832
 30
0.0
 10
185.2680367604703
 20
151.0966978352782
 30
0.0
 10
185.2695284861512
 20
151.0971073971159
 30
0.0
 10
185.2763423244544
 20
151.0989781754856
 30
0.0
 10
185.3002371996337
 20
151.0995373624488
 30
0.0
 10
185.3468433219016
 20
151.0979347343609
 30
0.0
 10
185.3934790186594
 20
151.0963310893055
 30
0.0
 10
185.4599727852236
 20
151.0929473941281
 30
0.0
 10
185.5393938478128
 20
151.0882870139487
 30
0.0
 10
185.602276401078
 20
151.0845971035481
 30
0.0
 10
185.681900851772
 20
151.0791282918079
 30
0.0
 10
185.7676909387555
 20
151.0727957827667
 30
0.0
 10
185.88577578845
 20
151.064079468276
 30
0.0
 10
186.0172581713742
 20
151.0538208128377
 30
0.0
 10
186.150104297147
 20
151.0431805915919
 30
0.0
 10
186.2585600942414
 20
151.034493897345
 30
0.0
 10
186.369780625317
 20
151.0254048462585
 30
0.0
 10
186.4800228571443
 20
151.0163176587586
 30
0.0
  0
ARC
  5
2E7
330
25F
100
AcDbEntity
  8
$DDT_AUDIT_GENERATED_(AD)
  6
Continuous
 62
     7
100
AcDbCircle
 10
117.9356164374
 20
-690.3195186281
 30
0.0
 40
844.1234063050181
100
AcDbArc
 50
85.2797813134
 51
85.3423469057
  0
ARC
  5
2E8
330
25F
100
AcDbEntity
  8
$DDT_AUDIT_GENERATED_(AD)
  6
Continuous
 62
     7
100
AcDbCircle
 10
189.6437728348
 20
189.8758156357
 30
0.0
 40
39.02932174071728
100
AcDbArc
 50
265.2894115813
 51
265.980075329
  0
ARC
  5
2E9
330
25F
100
AcDbEntity
  8
$DDT_AUDIT_GENERATED_(AD)
  6
Continuous
 62
     7
100
AcDbCircle
 10
191.35
 20
210.7754617095
 30
0.0
 40
59.9595515594302
100
AcDbArc
 50
273.0584914212
 51
273.5822296903
  0
ARC
  5
2EA
330
25F
100
AcDbEntity
  8
$DDT_AUDIT_GENERATED_(AD)
  6
Continuous
 62
     7
100
AcDbCircle
 10
191.35
 20
210.7754617095
 30
0.0
 40
59.95955155943019
100
AcDbArc
 50
271.6110149161
 51
272.1308748302
  0
ARC
  5
2EB
330
25F
100
AcDbEntity
  8
$DDT_AUDIT_GENERATED_(AD)
  6
Continuous
 62
     7
100
AcDbCircle
 10
191.35
 20
210.7754617095
 30
0.0
 40
59.98302798739881
100
AcDbArc
 50
272.1300404543
 51
273.0572932375
  0
ARC
  5
2EC
330
25F
100
AcDbEntity
  8
$DDT_AUDIT_GENERATED_(AD)
  6
Continuous
 62
     7
100
AcDbCircle
 10
191.35
 20
210.7754617095
 30
0.0
 40
59.9595515594302
100
AcDbArc
 50
266.7261100113
 51
267.7020178829
  0
ARC
  5
2ED
330
25F
100
AcDbEntity
  8
$DDT_AUDIT_GENERATED_(AD)
  6
Continuous
 62
     7
100
AcDbCircle
 10
188.9233739072
 20
144.1361829538
 30
0.0
 40
6.727983656738888
100
AcDbArc
 50
83.260321308
 51
89.8087991523
  0
ELLIPSE
  5
2EE
330
25F
100
AcDbEntity
  8
$DDT_AUDIT_GENERATED_(AD)
  6
Continuous
 62
     7
100
AcDbEllipse
 10
190.6146751141
 20
210.7754611947
 30
0.0
 11
1.459084242316777E-8
 21
-59.99235364322941
 31
0.0
210
0.0
220
0.0
230
1.0
 40
0.640813077
 41
-0.0234575104928165
 42
-0.0154849537246937
  0
ARC
  5
2EF
330
25F
100
AcDbEntity
  8
$DDT_AUDIT_GENERATED_(AD)
  6
Continuous
 62
     7
100
AcDbCircle
 10
191.35
 20
210.7754617095
 30
0.0
 40
60.09991787619938
100
AcDbArc
 50
274.1417371209
 51
275.6503268824
  0
LINE
  5
2F0
330
25F
100
AcDbEntity
  8
$DDT_AUDIT_GENERATED_(AD)
  6
Continuous
 62
     7
100
AcDbLine
 10
195.6906571429
 20
150.8729031767
 30
0.0
 11
195.6906571429
 21
150.9732333332
 31
0.0
  0
LINE
  5
2F1
330
25F
100
AcDbEntity
  8
$DDT_AUDIT_GENERATED_(AD)
  6
Continuous
 62
     7
100
AcDbLine
 10
195.6906571429
 20
150.8324986171
 30
0.0
 11
195.6906571429
 21
150.8729031767
 31
0.0
  0
LINE
  5
2F2
330
25F
100
AcDbEntity
  8
$DDT_AUDIT_GENERATED_(AD)
  6
Continuous
 62
     7
100
AcDbLine
 10
197.1268342857
 20
150.99431076
 30
0.0
 11
197.1268342857
 21
151.0948450166
 31
0.0
  0
ARC
  5
2F3
330
25F
100
AcDbEntity
  8
$DDT_AUDIT_GENERATED_(AD)
  6
Continuous
 62
     7
100
AcDbCircle
 10
191.35
 20
210.7754617095
 30
0.0
 40
59.95955155943018
100
AcDbArc
 50
274.1514499804
 51
275.5287678088
  0
ARC
  5
2F4
330
25F
100
AcDbEntity
  8
$DDT_AUDIT_GENERATED_(AD)
  6
Continuous
 62
     7
100
AcDbCircle
 10
191.35
 20
210.7754617095
 30
0.0
 40
60.05961890661619
100
AcDbArc
 50
274.1445210108
 51
275.5195275174
  0
LINE
  5
2F5
330
25F
100
AcDbEntity
  8
$DDT_AUDIT_GENERATED_(AD)
  6
Continuous
 62
     7
100
AcDbLine
 10
197.1268342857
 20
150.99431076
 30
0.0
 11
197.1268342857
 21
150.9808474745
 31
0.0
  0
ARC
  5
2F6
330
25F
100
AcDbEntity
  8
$DDT_AUDIT_GENERATED_(AD)
  6
Continuous
 62
     7
100
AcDbCircle
 10
191.35
 20
210.7754617095
 30
0.0
 40
60.07301978325847
100
AcDbArc
 50
274.6637399485
 51
275.518292419
  0
LINE
  5
2F7
330
25F
100
AcDbEntity
  8
$DDT_AUDIT_GENERATED_(AD)
  6
Continuous
 62
     7
100
AcDbLine
 10
196.2344028571
 20
150.9013411347
 30
0.0
 11
196.2344028571
 21
150.8908181108
 31
0.0
  0
LINE
  5
2F8
330
25F
100
AcDbEntity
  8
$DDT_AUDIT_GENERATED_(AD)
  6
Continuous
 62
     7
100
AcDbLine
 10
196.9832114286
 20
150.9566113426
 30
0.0
 11
196.9832114286
 21
150.9671459425
 31
0.0
  0
ARC
  5
2F9
330
25F
100
AcDbEntity
  8
$DDT_AUDIT_GENERATED_(AD)
  6
Continuous
 62
     7
100
AcDbCircle
 10
191.35
 20
210.7754617095
 30
0.0
 40
60.08350797199177
100
AcDbArc
 50
274.6629240429
 51
275.3797454115
  0
LINE
  5
2FA
330
25F
100
AcDbEntity
  8
$DDT_AUDIT_GENERATED_(AD)
  6
Continuous
 62
     7
100
AcDbLine
 10
196.9832114286
 20
150.9566113426
 30
0.0
 11
196.9832114286
 21
150.9487153419
 31
0.0
  0
ARC
  5
2FB
330
25F
100
AcDbEntity
  8
$DDT_AUDIT_GENERATED_(AD)
  6
Continuous
 62
     7
100
AcDbCircle
 10
191.35
 20
210.7754617095
 30
0.0
 40
60.09136919666577
100
AcDbArc
 50
274.6623126835
 51
275.3790395517
  0
LINE
  5
2FC
330
25F
100
AcDbEntity
  8
$DDT_AUDIT_GENERATED_(AD)
  6
Continuous
 62
     7
100
AcDbLine
 10
196.2344028571
 20
150.882930784
 30
0.0
 11
196.2344028571
 21
150.8763704621
 31
0.0
  0
LINE
  5
2FD
330
25F
100
AcDbEntity
  8
$DDT_AUDIT_GENERATED_(AD)
  6
Continuous
 62
     7
100
AcDbLine
 10
197.26726
 20
150.9695710495
 30
0.0
 11
197.26726
 21
151.0700636484
 31
0.0
  0
ARC
  5
2FE
330
25F
100
AcDbEntity
  8
$DDT_AUDIT_GENERATED_(AD)
  6
Continuous
 62
     7
100
AcDbCircle
 10
191.35
 20
210.7754617095
 30
0.0
 40
59.99790432624099
100
AcDbArc
 50
275.5252226266
 51
275.6599653957
  0
ARC
  5
2FF
330
25F
100
AcDbEntity
  8
$DDT_AUDIT_GENERATED_(AD)
  6
Continuous
 62
     7
100
AcDbCircle
 10
191.35
 20
210.7754617095
 30
0.0
 40
60.09790781334045
100
AcDbArc
 50
274.6618043043
 51
275.650516481
  0
LINE
  5
300
330
25F
100
AcDbEntity
  8
$DDT_AUDIT_GENERATED_(AD)
  6
Continuous
 62
     7
100
AcDbLine
 10
197.26726
 20
150.9695710495
 30
0.0
 11
197.26726
 21
150.9675511724
 31
0.0
  0
LINE
  5
301
330
25F
100
AcDbEntity
  8
$DDT_AUDIT_GENERATED_(AD)
  6
Continuous
 62
     7
100
AcDbLine
 10
195.0963314286
 20
150.8327989055
 30
0.0
 11
195.0963314286
 21
150.9330618242
 31
0.0
  0
LINE
  5
302
330
25F
100
AcDbEntity
  8
$DDT_AUDIT_GENERATED_(AD)
  6
Continuous
 62
     7
100
AcDbLine
 10
194.5491657143
 20
150.8011075076
 30
0.0
 11
194.5491657143
 21
150.901317357
 31
0.0
  0
LINE
  5
303
330
25F
100
AcDbEntity
  8
$DDT_AUDIT_GENERATED_(AD)
  6
Continuous
 62
     7
100
AcDbLine
 10
193.5794285714
 20
150.757235549
 30
0.0
 11
193.5794285714
 21
150.8573720249
 31
0.0
  0
LINE
  5
304
330
25F
100
AcDbEntity
  8
$DDT_AUDIT_GENERATED_(AD)
  6
Continuous
 62
     7
100
AcDbLine
 10
193.0356914286
 20
150.7395035876
 30
0.0
 11
193.0356914286
 21
150.8396104382
 31
0.0
  0
LINE
  5
305
330
25F
100
AcDbEntity
  8
$DDT_AUDIT_GENERATED_(AD)
  6
Continuous
 62
     7
100
AcDbLine
 10
195.0963314286
 20
150.7924213601
 30
0.0
 11
195.0963314286
 21
150.8327989055
 31
0.0
  0
ARC
  5
306
330
25F
100
AcDbEntity
  8
$DDT_AUDIT_GENERATED_(AD)
  6
Continuous
 62
     7
100
AcDbCircle
 10
191.35
 20
210.7754617095
 30
0.0
 40
60.05961890661618
100
AcDbArc
 50
273.0533907324
 51
273.5762534476
  0
LINE
  5
307
330
25F
100
AcDbEntity
  8
$DDT_AUDIT_GENERATED_(AD)
  6
Continuous
 62
     7
100
AcDbLine
 10
194.5491657143
 20
150.8011075076
 30
0.0
 11
194.5491657143
 21
150.7776368717
 31
0.0
  0
ARC
  5
308
330
25F
100
AcDbEntity
  8
$DDT_AUDIT_GENERATED_(AD)
  6
Continuous
 62
     7
100
AcDbCircle
 10
191.35
 20
210.7754617095
 30
0.0
 40
60.08305623499082
100
AcDbArc
 50
272.1264926624
 51
273.052198531
  0
LINE
  5
309
330
25F
100
AcDbEntity
  8
$DDT_AUDIT_GENERATED_(AD)
  6
Continuous
 62
     7
100
AcDbLine
 10
193.5794285714
 20
150.7337820629
 30
0.0
 11
193.5794285714
 21
150.757235549
 31
0.0
  0
ARC
  5
30A
330
25F
100
AcDbEntity
  8
$DDT_AUDIT_GENERATED_(AD)
  6
Continuous
 62
     7
100
AcDbCircle
 10
191.35
 20
210.7754617095
 30
0.0
 40
60.05961890661617
100
AcDbArc
 50
271.6083300443
 51
272.1273228744
  0
LINE
  5
30B
330
25F
100
AcDbEntity
  8
$DDT_AUDIT_GENERATED_(AD)
  6
Continuous
 62
     7
100
AcDbLine
 10
193.0356914286
 20
150.7395035876
 30
0.0
 11
193.0356914286
 21
150.6991887464
 31
0.0
  0
ARC
  5
30C
330
25F
100
AcDbEntity
  8
$DDT_AUDIT_GENERATED_(AD)
  6
Continuous
 62
     7
100
AcDbCircle
 10
191.35
 20
210.7754617095
 30
0.0
 40
60.09991787619938
100
AcDbArc
 50
271.6072513231
 51
272.1258957794
  0
LINE
  5
30D
330
25F
100
AcDbEntity
  8
$DDT_AUDIT_GENERATED_(AD)
  6
Continuous
 62
     7
100
AcDbLine
 10
193.5794285714
 20
150.7169088051
 30
0.0
 11
193.5794285714
 21
150.7250357188
 31
0.0
  0
ARC
  5
30E
330
25F
100
AcDbEntity
  8
$DDT_AUDIT_GENERATED_(AD)
  6
Continuous
 62
     7
100
AcDbCircle
 10
191.35
 20
210.7754617095
 30
0.0
 40
60.09179655673606
100
AcDbArc
 50
272.1261832231
 51
273.0517541699
  0
ARC
  5
30F
330
25F
100
AcDbEntity
  8
$DDT_AUDIT_GENERATED_(AD)
  6
Continuous
 62
     7
100
AcDbCircle
 10
191.35
 20
210.7754617095
 30
0.0
 40
60.09991787619939
100
AcDbArc
 50
273.0513413951
 51
273.5738523363
  0
SPLINE
  5
310
330
25F
100
AcDbEntity
  8
$DDT_AUDIT_GENERATED_(AD)
  6
Continuous
 62
     7
100
AcDbSpline
210
0.0
220
0.0
230
1.0
 70
     8
 71
     3
 72
    10
 73
     6
 74
     0
 42
0.0000000118837493
 43
0.0000000001
 40
0.6476789312724034
 40
0.6476789312724034
 40
0.6476789312724034
 40
0.6476789312724034
 40
0.75
 40
0.75
 40
1.0
 40
1.0
 40
1.0
 40
1.0
 10
192.6420855665092
 20
150.8004247752068
 30
0.0
 10
192.6421878014765
 20
150.8019238332226
 30
0.0
 10
192.6335387665062
 20
150.8033866310915
 30
0.0
 10
192.5726561151522
 20
150.808148452759
 30
0.0
 10
192.4781936554731
 20
150.8110225816037
 30
0.0
 10
192.3475891908674
 20
150.8132715782013
 30
0.0
  0
SPLINE
  5
311
330
25F
100
AcDbEntity
  8
$DDT_AUDIT_GENERATED_(AD)
  6
Continuous
 62
     7
100
AcDbSpline
210
0.0
220
0.0
230
1.0
 70
     8
 71
     3
 72
    12
 73
     8
 74
     0
 42
0.0000000118941734
 43
0.0000000001
 40
0.0
 40
0.0
 40
0.0
 40
0.0
 40
0.125
 40
0.125
 40
0.25
 40
0.25
 40
0.3525280288309197
 40
0.3525280288309197
 40
0.3525280288309197
 40
0.3525280288309197
 10
192.3475891908674
 20
150.7132086270355
 30
0.0
 10
192.4128031465162
 20
150.7120875197198
 30
0.0
 10
192.4689260408252
 20
150.7108178034316
 30
0.0
 10
192.5595362452272
 20
150.7079859534706
 30
0.0
 10
192.594288168504
 20
150.7064018007377
 30
0.0
 10
192.6333811735653
 20
150.7033550166469
 30
0.0
 10
192.6421359487156
 20
150.7018990723513
 30
0.0
 10
192.6421165173716
 20
150.7004019069824
 30
0.0
  0
SPLINE
  5
312
330
25F
100
AcDbEntity
  8
$DDT_AUDIT_GENERATED_(AD)
  6
Continuous
 62
     7
100
AcDbSpline
210
0.0
220
0.0
230
1.0
 70
     8
 71
     3
 72
    14
 73
    10
 74
     0
 42
0.000000006379347
 43
0.0000000001
 40
0.4799366795683816
 40
0.4799366795683816
 40
0.4799366795683816
 40
0.4799366795683816
 40
0.5
 40
0.5
 40
0.75
 40
0.75
 40
0.875
 40
0.875
 40
1.0
 40
1.0
 40
1.0
 40
1.0
 10
192.6015627828808
 20
150.6947096825095
 30
0.0
 10
192.5973179578181
 20
150.6944092884878
 30
0.0
 10
192.5927412810686
 20
150.6941093045963
 30
0.0
 10
192.5266785653825
 20
150.6900810922984
 30
0.0
 10
192.4163586418725
 20
150.6865231592568
 30
0.0
 10
192.2066197466445
 20
150.68217305063
 30
0.0
 10
192.1280616993782
 20
150.6808619936479
 30
0.0
 10
191.963412254424
 20
150.6786715510641
 30
0.0
 10
191.8769672636833
 20
150.6777778560494
 30
0.0
 10
191.7866114285728
 20
150.6770880215679
 30
0.0
  0
ARC
  5
313
330
25F
100
AcDbEntity
  8
$DDT_AUDIT_GENERATED_(AD)
  6
Continuous
 62
     7
100
AcDbCircle
 10
190.7748095668
 20
139.8570120496
 30
0.0
 40
10.96685285029027
100
AcDbArc
 50
89.2756916107
 51
93.7504900754
  0
SPLINE
  5
314
330
25F
100
AcDbEntity
  8
$DDT_AUDIT_GENERATED_(AD)
  6
Continuous
 62
     7
100
AcDbSpline
210
0.0
220
0.0
230
1.0
 70
     8
 71
     3
 72
    10
 73
     6
 74
     0
 42
0.0000000032231615
 43
0.0000000001
 40
0.0
 40
0.0
 40
0.0
 40
0.0
 40
0.5
 40
0.5
 40
0.5456321763829874
 40
0.5456321763829874
 40
0.5456321763829874
 40
0.5456321763829874
 10
191.7866114285728
 20
150.6770880215679
 30
0.0
 10
191.1733228428552
 20
150.6724057912694
 30
0.0
 10
190.4227808420118
 20
150.6792819147103
 30
0.0
 10
190.1286646291883
 20
150.6927843494884
 30
0.0
 10
190.1089979643147
 20
150.6939298641008
 30
0.0
 10
190.094200541093
 20
150.695077242918
 30
0.0
  0
SPLINE
  5
315
330
25F
100
AcDbEntity
  8
$DDT_AUDIT_GENERATED_(AD)
  6
Continuous
 62
     7
100
AcDbSpline
210
0.0
220
0.0
230
1.0
 70
     8
 71
     3
 72
    10
 73
     6
 74
     0
 42
0.0000000044800983
 43
0.0000000001
 40
0.616401611198225
 40
0.616401611198225
 40
0.616401611198225
 40
0.616401611198225
 40
0.75
 40
0.75
 40
1.0
 40
1.0
 40
1.0
 40
1.0
 10
190.0602587827431
 20
150.7003752085942
 30
0.0
 10
190.0607202890054
 20
150.7036498169774
 30
0.0
 10
190.1021006264453
 20
150.7067487396732
 30
0.0
 10
190.3339696970904
 20
150.7141032723872
 30
0.0
 10
190.6077417155079
 20
150.7171243601486
 30
0.0
 10
190.9133885714299
 20
150.718526814157
 30
0.0
  0
ARC
  5
316
330
25F
100
AcDbEntity
  8
$DDT_AUDIT_GENERATED_(AD)
  6
Continuous
 62
     7
100
AcDbCircle
 10
191.3532299831
 20
76.1697550869
 30
0.0
 40
74.65013934626103
100
AcDbArc
 50
89.2367827934
 51
90.3375908281
  0
ARC
  5
317
330
25F
100
AcDbEntity
  8
$DDT_AUDIT_GENERATED_(AD)
  6
Continuous
 62
     7
100
AcDbCircle
 10
191.3400463289
 20
72.3897616911
 30
0.0
 40
78.3299271194872
100
AcDbArc
 50
89.2629950291
 51
90.3120877368
  0
ARC
  5
318
330
25F
100
AcDbEntity
  8
$DDT_AUDIT_GENERATED_(AD)
  6
Continuous
 62
     7
100
AcDbCircle
 10
191.1255609449
 20
143.8659449077
 30
0.0
 40
6.842661370890744
100
AcDbArc
 50
88.1203632903
 51
94.1370783184
  0
ARC
  5
319
330
25F
100
AcDbEntity
  8
$DDT_AUDIT_GENERATED_(AD)
  6
Continuous
 62
     7
100
AcDbCircle
 10
191.5298255142
 20
141.6019708917
 30
0.0
 40
9.104729620149985
100
AcDbArc
 50
86.6108051724
 51
91.1317099389
  0
ARC
  5
31A
330
25F
100
AcDbEntity
  8
$DDT_AUDIT_GENERATED_(AD)
  6
Continuous
 62
     7
100
AcDbCircle
 10
191.5653379461
 20
158.1377922774
 30
0.0
 40
7.463966552267753
100
AcDbArc
 50
268.3467680888
 51
273.86213185
  0
ARC
  5
31B
330
25F
100
AcDbEntity
  8
$DDT_AUDIT_GENERATED_(AD)
  6
Continuous
 62
     7
100
AcDbCircle
 10
191.1346538933
 20
158.1376251513
 30
0.0
 40
7.463799731164071
100
AcDbArc
 50
266.1377785368
 51
271.6533315433
  0
LINE
  5
31C
330
25F
100
AcDbEntity
  8
$DDT_AUDIT_GENERATED_(AD)
  6
Continuous
 62
     7
100
AcDbLine
 10
189.71296
 20
150.7176033618
 30
0.0
 11
189.71296
 21
150.8176736473
 31
0.0
  0
LINE
  5
31D
330
25F
100
AcDbEntity
  8
$DDT_AUDIT_GENERATED_(AD)
  6
Continuous
 62
     7
100
AcDbLine
 10
188.9458257143
 20
150.7639813977
 30
0.0
 11
188.9458257143
 21
150.8641291487
 31
0.0
  0
LINE
  5
31E
330
25F
100
AcDbEntity
  8
$DDT_AUDIT_GENERATED_(AD)
  6
Continuous
 62
     7
100
AcDbLine
 10
187.9257657143
 20
150.8135367674
 30
0.0
 11
187.9257657143
 21
150.9137674237
 31
0.0
  0
LINE
  5
31F
330
25F
100
AcDbEntity
  8
$DDT_AUDIT_GENERATED_(AD)
  6
Continuous
 62
     7
100
AcDbLine
 10
188.5544885714
 20
150.7511833766
 30
0.0
 11
188.5544885714
 21
150.7675233397
 31
0.0
  0
LINE
  5
320
330
25F
100
AcDbEntity
  8
$DDT_AUDIT_GENERATED_(AD)
  6
Continuous
 62
     7
100
AcDbLine
 10
190.0193971429
 20
150.6902753092
 30
0.0
 11
190.0193971429
 21
150.7903000046
 31
0.0
  0
ARC
  5
321
330
25F
100
AcDbEntity
  8
$DDT_AUDIT_GENERATED_(AD)
  6
Continuous
 62
     7
100
AcDbCircle
 10
189.5169551106
 20
153.528191832
 30
0.0
 40
2.817414677562267
100
AcDbArc
 50
266.2313328881
 51
273.9892358051
  0
ARC
  5
322
330
25F
100
AcDbEntity
  8
$DDT_AUDIT_GENERATED_(AD)
  6
Continuous
 62
     7
100
AcDbCircle
 10
188.8773767167
 20
143.2640402484
 30
0.0
 40
7.500253496269946
100
AcDbArc
 50
83.6035511539
 51
89.4770985918
  0
ARC
  5
323
330
25F
100
AcDbEntity
  8
$DDT_AUDIT_GENERATED_(AD)
  6
Continuous
 62
     7
100
AcDbCircle
 10
191.35
 20
210.7754617095
 30
0.0
 40
60.05961890661619
100
AcDbArc
 50
266.7315706788
 51
267.7058486772
  0
LINE
  5
324
330
25F
100
AcDbEntity
  8
$DDT_AUDIT_GENERATED_(AD)
  6
Continuous
 62
     7
100
AcDbLine
 10
187.9257657143
 20
150.8135367674
 30
0.0
 11
187.9257657143
 21
150.7731721842
 31
0.0
  0
ARC
  5
325
330
25F
100
AcDbEntity
  8
$DDT_AUDIT_GENERATED_(AD)
  6
Continuous
 62
     7
100
AcDbCircle
 10
191.35
 20
210.7754617095
 30
0.0
 40
60.09991787619938
100
AcDbArc
 50
266.733764646
 51
267.2669522675
  0
LINE
  5
326
330
25F
100
AcDbEntity
  8
$DDT_AUDIT_GENERATED_(AD)
  6
Continuous
 62
     7
100
AcDbLine
 10
188.48428
 20
150.7439051946
 30
0.0
 11
188.48428
 21
150.7708352177
 31
0.0
  0
ARC
  5
327
330
25F
100
AcDbEntity
  8
$DDT_AUDIT_GENERATED_(AD)
  6
Continuous
 62
     7
100
AcDbCircle
 10
191.35
 20
210.7754617095
 30
0.0
 40
60.07301849863714
100
AcDbArc
 50
267.2657275391
 51
267.6111549993
  0
ARC
  5
328
330
25F
100
AcDbEntity
  8
$DDT_AUDIT_GENERATED_(AD)
  6
Continuous
 62
     7
100
AcDbCircle
 10
188.8030565092
 20
147.7198492379
 30
0.0
 40
3.035104661070945
100
AcDbArc
 50
83.1051360928
 51
89.187626643
  0
ARC
  5
329
330
25F
100
AcDbEntity
  8
$DDT_AUDIT_GENERATED_(AD)
  6
Continuous
 62
     7
100
AcDbCircle
 10
189.0486098528
 20
152.6768651137
 30
0.0
 40
1.947487913172891
100
AcDbArc
 50
264.8961812883
 51
273.4974397794
  0
ARC
  5
32A
330
25F
100
AcDbEntity
  8
$DDT_AUDIT_GENERATED_(AD)
  6
Continuous
 62
     7
100
AcDbCircle
 10
191.35
 20
210.7754617095
 30
0.0
 40
60.08934076470644
100
AcDbArc
 50
267.3334897928
 51
267.6397388417
  0
ARC
  5
32B
330
25F
100
AcDbEntity
  8
$DDT_AUDIT_GENERATED_(AD)
  6
Continuous
 62
     7
100
AcDbCircle
 10
190.1024818332
 20
172.3128943528
 30
0.0
 40
21.61720757547884
100
AcDbArc
 50
265.8935742495
 51
267.9437273656
  0
ARC
  5
32C
330
25F
100
AcDbEntity
  8
$DDT_AUDIT_GENERATED_(AD)
  6
Continuous
 62
     7
100
AcDbCircle
 10
191.35
 20
210.7754617095
 30
0.0
 40
60.09991787619939
100
AcDbArc
 50
268.070866557
 51
268.731376676
  0
ELLIPSE
  5
32D
330
25F
100
AcDbEntity
  8
$DDT_AUDIT_GENERATED_(AD)
  6
Continuous
 62
     7
100
AcDbEllipse
 10
190.6146751699
 20
210.7754648521
 30
0.0
 11
-8.006766083479278E-8
 21
-60.09237002409061
 31
0.0
210
0.0
220
0.0
230
1.0
 40
0.6408130575
 41
6.24942690541373
 42
6.267726128855141
  0
LINE
  5
32E
330
25F
100
AcDbEntity
  8
$DDT_AUDIT_GENERATED_(AD)
  6
Continuous
 62
     7
100
AcDbLine
 10
189.3149542857
 20
150.7173331024
 30
0.0
 11
189.3317714286
 21
150.7168696396
 31
0.0
  0
LINE
  5
32F
330
25F
100
AcDbEntity
  8
$DDT_AUDIT_GENERATED_(AD)
  6
Continuous
 62
     7
100
AcDbLine
 10
187.46938
 20
150.8119240446
 30
0.0
 11
187.46938
 21
150.9121520007
 31
0.0
  0
LINE
  5
330
330
25F
100
AcDbEntity
  8
$DDT_AUDIT_GENERATED_(AD)
  6
Continuous
 62
     7
100
AcDbLine
 10
187.3987
 20
150.8406911031
 30
0.0
 11
187.3987
 21
150.9409672465
 31
0.0
  0
LINE
  5
331
330
25F
100
AcDbEntity
  8
$DDT_AUDIT_GENERATED_(AD)
  6
Continuous
 62
     7
100
AcDbLine
 10
186.4800228571
 20
150.9159152889
 30
0.0
 11
186.4800228571
 21
151.0163176588
 31
0.0
  0
ARC
  5
332
330
25F
100
AcDbEntity
  8
$DDT_AUDIT_GENERATED_(AD)
  6
Continuous
 62
     7
100
AcDbCircle
 10
190.7910690512
 20
203.6204052825
 30
0.0
 40
52.92317476779932
100
AcDbArc
 50
265.3275906289
 51
266.4015019472
  0
LINE
  5
333
330
25F
100
AcDbEntity
  8
$DDT_AUDIT_GENERATED_(AD)
  6
Continuous
 62
     7
100
AcDbLine
 10
187.46938
 20
150.8015752183
 30
0.0
 11
187.46938
 21
150.8119240446
 31
0.0
  0
LINE
  5
334
330
25F
100
AcDbEntity
  8
$DDT_AUDIT_GENERATED_(AD)
  6
Continuous
 62
     7
100
AcDbLine
 10
186.9076857143
 20
150.8509182848
 30
0.0
 11
186.9076857143
 21
150.8422377488
 31
0.0
  0
ARC
  5
335
330
25F
100
AcDbEntity
  8
$DDT_AUDIT_GENERATED_(AD)
  6
Continuous
 62
     7
100
AcDbCircle
 10
189.6576718848
 20
190.0231502637
 30
0.0
 40
39.27730043474716
100
AcDbArc
 50
265.2988752195
 51
265.9851717326
  0
ARC
  5
336
330
25F
100
AcDbEntity
  8
$DDT_AUDIT_GENERATED_(AD)
  6
Continuous
 62
     7
100
AcDbCircle
 10
186.7410927015
 20
156.7029542424
 30
0.0
 40
5.832816886871298
100
AcDbArc
 50
261.1936094741
 51
267.027082927
  0
ARC
  5
337
330
25F
100
AcDbEntity
  8
$DDT_AUDIT_GENERATED_(AD)
  6
Continuous
 62
     7
100
AcDbCircle
 10
185.7520687965
 20
143.163753284
 30
0.0
 40
7.775738492138824
100
AcDbArc
 50
83.6821216912
 51
89.2922887764
  0
ARC
  5
338
330
25F
100
AcDbEntity
  8
$DDT_AUDIT_GENERATED_(AD)
  6
Continuous
 62
     7
100
AcDbCircle
 10
172.8107591316
 20
-23.6479807049
 30
0.0
 40
175.0847079258109
100
AcDbArc
 50
85.2206131826
 51
85.4803046746
  0
LINE
  5
339
330
25F
100
AcDbEntity
  8
$DDT_AUDIT_GENERATED_(AD)
  6
Continuous
 62
     7
100
AcDbLine
 10
187.3987
 20
150.8279400712
 30
0.0
 11
187.3987
 21
150.8406911031
 31
0.0
  0
ARC
  5
33A
330
25F
100
AcDbEntity
  8
$DDT_AUDIT_GENERATED_(AD)
  6
Continuous
 62
     7
100
AcDbCircle
 10
118.0729473
 20
-690.1544025308
 30
0.0
 40
843.8476210215182
100
AcDbArc
 50
85.2875913719
 51
85.3501767118
  0
SPLINE
  5
33B
330
25F
100
AcDbEntity
  8
$DDT_AUDIT_GENERATED_(AD)
  6
Continuous
 62
     7
100
AcDbSpline
210
0.0
220
0.0
230
1.0
 70
     8
 71
     3
 72
    14
 73
    10
 74
     0
 42
0.0000000040876125
 43
0.0000000001
 40
0.0
 40
0.0
 40
0.0
 40
0.0
 40
0.2500000000000001
 40
0.2500000000000001
 40
0.5000000000000001
 40
0.5000000000000001
 40
0.75
 40
0.75
 40
1.0
 40
1.0
 40
1.0
 40
1.0
 10
186.4800228571443
 20
150.9159152889226
 30
0.0
 10
186.1694657109768
 20
150.9414713528641
 30
0.0
 10
185.8403934265427
 20
150.968292721183
 30
0.0
 10
185.383737196553
 20
150.998203502619
 30
0.0
 10
185.2683372033098
 20
151.0011519720663
 30
0.0
 10
185.2661815425629
 20
150.9892824586979
 30
0.0
 10
185.3795444458012
 20
150.9742059114218
 30
0.0
 10
185.84075050505
 20
150.9277598871749
 30
0.0
 10
186.1697615648876
 20
150.8983275893141
 30
0.0
 10
186.4800228571443
 20
150.8731085914269
 30
0.0
  0
ARC
  5
33C
330
25F
100
AcDbEntity
  8
$DDT_AUDIT_GENERATED_(AD)
  6
Continuous
 62
     7
100
AcDbCircle
 10
191.3500398925
 20
210.0792914038
 30
0.0
 40
59.40017728560104
100
AcDbArc
 50
266.217172862
 51
266.7356855902
  0
ARC
  5
33D
330
25F
100
AcDbEntity
  8
$DDT_AUDIT_GENERATED_(AD)
  6
Continuous
 62
     7
100
AcDbCircle
 10
191.3500398925
 20
210.0792914038
 30
0.0
 40
59.40017728560104
100
AcDbArc
 50
267.2611293413
 51
267.5910992803
  0
ARC
  5
33E
330
25F
100
AcDbEntity
  8
$DDT_AUDIT_GENERATED_(AD)
  6
Continuous
 62
     7
100
AcDbCircle
 10
191.3500398925
 20
210.0792914038
 30
0.0
 40
59.40017728560104
100
AcDbArc
 50
271.2482879311
 51
271.627440042
  0
ARC
  5
33F
330
25F
100
AcDbEntity
  8
$DDT_AUDIT_GENERATED_(AD)
  6
Continuous
 62
     7
100
AcDbCircle
 10
191.3500398925
 20
210.0792914038
 30
0.0
 40
59.40017728560104
100
AcDbArc
 50
272.2688236187
 51
273.0947041863
  0
ARC
  5
340
330
25F
100
AcDbEntity
  8
$DDT_AUDIT_GENERATED_(AD)
  6
Continuous
 62
     7
100
AcDbCircle
 10
191.3500398925
 20
210.0792914038
 30
0.0
 40
59.40017728560104
100
AcDbArc
 50
273.5789357517
 51
274.1906261528
  0
LINE
  5
341
330
25F
100
AcDbEntity
  8
$DDT_AUDIT_GENERATED_(AD)
  6
Continuous
 62
     7
100
AcDbLine
 10
192.6425512479
 20
150.6475634643
 30
0.0
 11
192.6425512479
 21
150.8003585902
 31
0.0
  0
LINE
  5
342
330
25F
100
AcDbEntity
  8
$DDT_AUDIT_GENERATED_(AD)
  6
Continuous
 62
     7
100
AcDbLine
 10
190.0574457143
 20
150.8004295635
 30
0.0
 11
190.0574457143
 21
150.6470801882
 31
0.0
  0
LINE
  5
343
330
25F
100
AcDbEntity
  8
$DDT_AUDIT_GENERATED_(AD)
  6
Continuous
 62
     7
100
AcDbLine
 10
185.2672514286
 20
151.095016509
 30
0.0
 11
185.2672514286
 21
150.9945058779
 31
0.0
  0
ARC
  5
344
330
25F
100
AcDbEntity
  8
$DDT_AUDIT_GENERATED_(AD)
  6
Continuous
 62
     7
100
AcDbCircle
 10
191.35
 20
210.7754617095
 30
0.0
 40
60.0
100
AcDbArc
 50
271.2012954466
 51
271.6099285794
  0
ARC
  5
345
330
25F
100
AcDbEntity
  8
$DDT_AUDIT_GENERATED_(AD)
  6
Continuous
 62
     7
100
AcDbCircle
 10
191.35
 20
210.7754617095
 30
0.0
 40
60.0
100
AcDbArc
 50
273.6317097386
 51
274.1486464162
  0
ARC
  5
346
330
25F
100
AcDbEntity
  8
$DDT_AUDIT_GENERATED_(AD)
  6
Continuous
 62
     7
100
AcDbCircle
 10
191.35
 20
210.7754617095
 30
0.0
 40
60.0
100
AcDbArc
 50
275.6597670595
 51
285.4196227967
  0
ARC
  5
347
330
25F
100
AcDbEntity
  8
$DDT_AUDIT_GENERATED_(AD)
  6
Continuous
 62
     7
100
AcDbCircle
 10
191.35
 20
210.7754617095
 30
0.0
 40
60.0
100
AcDbArc
 50
265.5059685859
 51
265.7540170861
  0
ARC
  5
348
330
25F
100
AcDbEntity
  8
$DDT_AUDIT_GENERATED_(AD)
  6
Continuous
 62
     7
100
AcDbCircle
 10
191.35
 20
210.7754617095
 30
0.0
 40
60.0
100
AcDbArc
 50
266.2916924185
 51
266.7283194765
  0
ARC
  5
349
330
25F
100
AcDbEntity
  8
$DDT_AUDIT_GENERATED_(AD)
  6
Continuous
 62
     7
100
AcDbCircle
 10
191.35
 20
210.7754617095
 30
0.0
 40
60.0
100
AcDbArc
 50
265.2512591731
 51
265.5059685859
  0
ARC
  5
34A
330
25F
100
AcDbEntity
  8
$DDT_AUDIT_GENERATED_(AD)
  6
Continuous
 62
     7
100
AcDbCircle
 10
191.35
 20
210.7754617095
 30
0.0
 40
59.99999999999982
100
AcDbArc
 50
254.5803772033
 51
264.1814068163
  0
LINE
  5
34B
330
25F
100
AcDbEntity
  8
$DDT_AUDIT_GENERATED_(F9)
  6
Continuous
 62
     7
100
AcDbLine
 10
183.5957566185
 20
194.0254617095
 30
0.0
 11
206.0876394157
 21
194.0254617095
 31
0.0
  0
SPLINE
  5
34C
330
25F
100
AcDbEntity
  8
$DDT_AUDIT_GENERATED_(F9)
  6
Continuous
 62
     7
100
AcDbSpline
210
0.0
220
0.0
230
1.0
 70
     8
 71
     3
 72
    28
 73
    24
 74
     0
 42
0.0000000000829925
 43
0.0000000001
 40
0.0838692209911868
 40
0.0838692209911868
 40
0.0838692209911868
 40
0.0838692209911868
 40
0.0937500000000002
 40
0.0937500000000002
 40
0.1093750000000002
 40
0.1093750000000002
 40
0.1250000000000003
 40
0.1250000000000003
 40
0.1875000000000003
 40
0.1875000000000003
 40
0.2500000000000003
 40
0.2500000000000003
 40
0.3125000000000003
 40
0.3125000000000003
 40
0.3750000000000004
 40
0.3750000000000004
 40
0.3906250000000004
 40
0.3906250000000004
 40
0.4062500000000003
 40
0.4062500000000003
 40
0.4218750000000003
 40
0.4218750000000003
 40
0.4263963902210431
 40
0.4263963902210431
 40
0.4263963902210431
 40
0.4263963902210431
 10
211.9077033987666
 20
155.4697023832697
 30
0.0
 10
211.7509710264418
 20
155.492159075441
 30
0.0
 10
211.5406358513773
 20
155.4968604648139
 30
0.0
 10
210.846837587881
 20
155.4501749943725
 30
0.0
 10
210.308912645529
 20
155.3724166041205
 30
0.0
 10
209.1610066124693
 20
155.1877973507271
 30
0.0
 10
208.5559084622371
 20
155.0827970498551
 30
0.0
 10
205.5176438197244
 20
154.6134488574154
 30
0.0
 10
202.9087882477854
 20
154.3157287851708
 30
0.0
 10
197.6070110762085
 20
153.9229407237534
 30
0.0
 10
194.8788735930052
 20
153.8238178248927
 30
0.0
 10
189.3243492234914
 20
153.7940551477886
 30
0.0
 10
186.5987234980658
 20
153.8589456129646
 30
0.0
 10
181.2329736211424
 20
154.1819748130439
 30
0.0
 10
178.5841968082991
 20
154.4441711665818
 30
0.0
 10
175.4637174274344
 20
154.8795781695894
 30
0.0
 10
174.8513601428187
 20
154.9710333548135
 30
0.0
 10
173.6460311265434
 20
155.1655478168287
 30
0.0
 10
173.0506588385331
 20
155.2703870834307
 30
0.0
 10
171.9554263032991
 20
155.433524878149
 30
0.0
 10
171.459813567999
 20
155.4910678995592
 30
0.0
 10
171.0045017315788
 20
155.4902742943044
 30
0.0
 10
170.9157167178184
 20
155.4852896733928
 30
0.0
 10
170.8388977941104
 20
155.4763051206994
 30
0.0
  0
SPLINE
  5
34D
330
25F
100
AcDbEntity
  8
$DDT_AUDIT_GENERATED_(F9)
  6
Continuous
 62
     7
100
AcDbSpline
210
0.0
220
0.0
230
1.0
 70
     8
 71
     3
 72
    10
 73
     6
 74
     0
 42
0.0000000003656261
 43
0.0000000001
 40
0.4772568094011114
 40
0.4772568094011114
 40
0.4772568094011114
 40
0.4772568094011114
 40
0.5000000000000002
 40
0.5000000000000002
 40
0.51158816776294
 40
0.51158816776294
 40
0.51158816776294
 40
0.51158816776294
 10
170.6332104713026
 20
154.6521921077282
 30
0.0
 10
170.7511876153569
 20
154.5344828265462
 30
0.0
 10
170.9112969148029
 20
154.4286202927088
 30
0.0
 10
171.2117583985916
 20
154.2875650756931
 30
0.0
 10
171.3233040586867
 20
154.2432245657571
 30
0.0
 10
171.444971760394
 20
154.2021407991212
 30
0.0
  0
SPLINE
  5
34E
330
25F
100
AcDbEntity
  8
$DDT_AUDIT_GENERATED_(F9)
  6
Continuous
 62
     7
100
AcDbSpline
210
0.0
220
0.0
230
1.0
 70
     8
 71
     3
 72
    34
 73
    30
 74
     0
 42
0.0000000000891449
 43
0.0000000001
 40
0.553876593942617
 40
0.553876593942617
 40
0.553876593942617
 40
0.553876593942617
 40
0.5624999999999997
 40
0.5624999999999997
 40
0.5781249999999996
 40
0.5781249999999996
 40
0.5937499999999996
 40
0.5937499999999996
 40
0.6093749999999996
 40
0.6093749999999996
 40
0.6249999999999994
 40
0.6249999999999994
 40
0.6874999999999996
 40
0.6874999999999996
 40
0.7187499999999996
 40
0.7187499999999996
 40
0.7499999999999996
 40
0.7499999999999996
 40
0.8124999999999997
 40
0.8124999999999997
 40
0.8749999999999998
 40
0.8749999999999998
 40
0.8906249999999998
 40
0.8906249999999998
 40
0.9062499999999999
 40
0.9062499999999999
 40
0.921875
 40
0.921875
 40
0.935427633496543
 40
0.935427633496543
 40
0.935427633496543
 40
0.935427633496543
 10
170.1979726072629
 20
155.5330362949479
 30
0.0
 10
170.2034270839809
 20
155.5874258981328
 30
0.0
 10
170.2243075647912
 20
155.6397392564376
 30
0.0
 10
170.3643113468068
 20
155.7672735610118
 30
0.0
 10
170.5559055592836
 20
155.8273232876703
 30
0.0
 10
171.231643534167
 20
155.8394508442
 30
0.0
 10
171.7143038381191
 20
155.7909249411226
 30
0.0
 10
172.8145416733446
 20
155.6338990483928
 30
0.0
 10
173.4121761550033
 20
155.5298093840744
 30
0.0
 10
174.6297975651062
 20
155.3278187035944
 30
0.0
 10
175.2470423334464
 20
155.2336875258787
 30
0.0
 10
178.3904431546948
 20
154.7846623818088
 30
0.0
 10
181.0559716880618
 20
154.5140063984535
 30
0.0
 10
185.1192070323638
 20
154.2622530037659
 30
0.0
 10
186.4914580749867
 20
154.2029536431999
 30
0.0
 10
189.275080919163
 20
154.130178295939
 30
0.0
 10
190.6920117630658
 20
154.1168026709937
 30
0.0
 10
194.8778411808685
 20
154.1389047404668
 30
0.0
 10
197.6229992542142
 20
154.2381555738896
 30
0.0
 10
203.0337953472791
 20
154.6451705649605
 30
0.0
 10
205.6703998954117
 20
154.9519331569384
 30
0.0
 10
208.7477839004939
 20
155.4374687180073
 30
0.0
 10
209.3600989822883
 20
155.5457570388061
 30
0.0
 10
210.5106470023167
 20
155.7277863815812
 30
0.0
 10
211.0408163303055
 20
155.8001790992501
 30
0.0
 10
211.871837079412
 20
155.8493165841263
 30
0.0
 10
212.1514144785836
 20
155.8212110482175
 30
0.0
 10
212.4439754135746
 20
155.7003155231293
 30
0.0
 10
212.4927881791388
 20
155.6196739351222
 30
0.0
 10
212.5017985867817
 20
155.5331816158011
 30
0.0
  0
ARC
  5
34F
330
25F
100
AcDbEntity
  8
$DDT_AUDIT_GENERATED_(F9)
  6
Continuous
 62
     7
100
AcDbCircle
 10
-536.0719822657
 20
288.1335830662
 30
0.0
 40
718.6092557463786
100
AcDbArc
 50
349.3670900156
 51
352.4296531065
  0
ARC
  5
350
330
25F
100
AcDbEntity
  8
$DDT_AUDIT_GENERATED_(F9)
  6
Continuous
 62
     7
100
AcDbCircle
 10
918.7847356735
 20
288.1357963866
 30
0.0
 40
718.6222021365883
100
AcDbArc
 50
187.5453398101
 51
190.6333007468
  0
SPLINE
  5
351
330
25F
100
AcDbEntity
  8
$DDT_AUDIT_GENERATED_(F9)
  6
Continuous
 62
     7
100
AcDbSpline
210
0.0
220
0.0
230
1.0
 70
     8
 71
     3
 72
     8
 73
     4
 74
     0
 42
0.0000000025158565
 43
0.0000000001
 40
0.0
 40
0.0
 40
0.0
 40
0.0
 40
1.0
 40
1.0
 40
1.0
 40
1.0
 10
171.4520260464352
 20
154.2023825295886
 30
0.0
 10
171.5021302128963
 20
154.1709119110586
 30
0.0
 10
172.7692038810363
 20
153.7860937494807
 30
0.0
 10
175.2532470508551
 20
153.0479280448548
 30
0.0
  0
SPLINE
  5
352
330
25F
100
AcDbEntity
  8
$DDT_AUDIT_GENERATED_(F9)
  6
Continuous
 62
     7
100
AcDbSpline
210
0.0
220
0.0
230
1.0
 70
     8
 71
     3
 72
     8
 73
     4
 74
     0
 42
0.0000000025098301
 43
0.0000000001
 40
0.0
 40
0.0
 40
0.0
 40
0.0
 40
1.0
 40
1.0
 40
1.0
 40
1.0
 10
207.4467529491421
 20
153.0479280448548
 30
0.0
 10
209.9310021512379
 20
153.7854816731757
 30
0.0
 10
211.2010455256013
 20
154.1714037566251
 30
0.0
 10
211.2568830722326
 20
154.2056942952031
 30
0.0
  0
ARC
  5
353
330
25F
100
AcDbEntity
  8
$DDT_AUDIT_GENERATED_(F9)
  6
Continuous
 62
     7
100
AcDbCircle
 10
206.087511728
 20
193.7254625962
 30
0.0
 40
0.2999991142304174
100
AcDbArc
 50
9.6231983177
 51
90.0492716374
  0
ARC
  5
354
330
25F
100
AcDbEntity
  8
$DDT_AUDIT_GENERATED_(F9)
  6
Continuous
 62
     7
100
AcDbCircle
 10
175.3828505368
 20
153.5308389439
 30
0.0
 40
0.5000000000000299
100
AcDbArc
 50
254.9769881298
 51
256.7731305786
  0
ARC
  5
355
330
25F
100
AcDbEntity
  8
$DDT_AUDIT_GENERATED_(F9)
  6
Continuous
 62
     7
100
AcDbCircle
 10
207.3171494632
 20
153.5308389439
 30
0.0
 40
0.5000000000000004
100
AcDbArc
 50
283.2268193787
 51
285.0230118702
  0
LINE
  5
356
330
25F
100
AcDbEntity
  8
$DDT_AUDIT_GENERATED_(F9)
  6
Continuous
 62
     7
100
AcDbLine
 10
175.3828505368
 20
153.0308389439
 30
0.0
 11
207.3171494632
 21
153.0308389439
 31
0.0
  0
SPLINE
  5
357
330
25F
100
AcDbEntity
  8
$DDT_AUDIT_GENERATED_(F9)
  6
Continuous
 62
     7
100
AcDbSpline
210
0.0
220
0.0
230
1.0
 70
     8
 71
     3
 72
    12
 73
     8
 74
     0
 42
0.0000000107478443
 43
0.0000000001
 40
0.0
 40
0.0
 40
0.0
 40
0.0
 40
0.0803501210051674
 40
0.2711342517696501
 40
0.5160234784771672
 40
0.9479564642435536
 40
1.0
 40
1.0
 40
1.0
 40
1.0
 10
170.2114805242387
 20
155.5437784838889
 30
0.0
 10
170.2023056215983
 20
155.5061340394254
 30
0.0
 10
170.1757964360924
 20
155.3982360939033
 30
0.0
 10
170.2201712718332
 20
155.2369553232652
 30
0.0
 10
170.2873179363297
 20
155.0207692221662
 30
0.0
 10
170.4033004222801
 20
154.8229417212264
 30
0.0
 10
170.5127997970579
 20
154.7356926511927
 30
0.0
 10
170.5265784263842
 20
154.7247597520644
 30
0.0
  0
SPLINE
  5
358
330
25F
100
AcDbEntity
  8
$DDT_AUDIT_GENERATED_(F9)
  6
Continuous
 62
     7
100
AcDbSpline
210
0.0
220
0.0
230
1.0
 70
     8
 71
     3
 72
    12
 73
     8
 74
     0
 42
0.0000000075847074
 43
0.0000000001
 40
0.0
 40
0.0
 40
0.0
 40
0.0
 40
0.2398645210651672
 40
0.5429300034520116
 40
0.782691377872963
 40
0.9446519477097963
 40
1.0
 40
1.0
 40
1.0
 40
1.0
 10
211.8731317175647
 20
154.4920927110713
 30
0.0
 10
211.9740643653024
 20
154.5551677856877
 30
0.0
 10
212.1617739072009
 20
154.6752209949674
 30
0.0
 10
212.377273019993
 20
154.9461890521718
 30
0.0
 10
212.461319390702
 20
155.1724452840388
 30
0.0
 10
212.5369764220965
 20
155.3782328582307
 30
0.0
 10
212.5069113311809
 20
155.5054071796538
 30
0.0
 10
212.4980401765887
 20
155.5434822980756
 30
0.0
  0
ARC
  5
359
330
25F
100
AcDbEntity
  8
$DDT_AUDIT_GENERATED_(F9)
  6
Continuous
 62
     7
100
AcDbCircle
 10
210.7911516672
 20
156.0499539568
 30
0.0
 40
1.896737327670253
100
AcDbArc
 50
286.3200725058
 51
304.7811055768
  0
LINE
  5
35A
330
25F
100
AcDbEntity
  8
$DDT_AUDIT_GENERATED_(F9)
  6
Continuous
 62
     7
100
AcDbLine
 10
49.106783778
 20
194.0254617095
 30
0.0
 11
26.6124238179
 21
194.0254617095
 31
0.0
  0
SPLINE
  5
35B
330
25F
100
AcDbEntity
  8
$DDT_AUDIT_GENERATED_(F9)
  6
Continuous
 62
     7
100
AcDbSpline
210
0.0
220
0.0
230
1.0
 70
     8
 71
     3
 72
    28
 73
    24
 74
     0
 42
0.0000000000829925
 43
0.0000000001
 40
0.0838692209911868
 40
0.0838692209911868
 40
0.0838692209911868
 40
0.0838692209911868
 40
0.0937500000000002
 40
0.0937500000000002
 40
0.1093750000000002
 40
0.1093750000000002
 40
0.1250000000000003
 40
0.1250000000000003
 40
0.1875000000000003
 40
0.1875000000000003
 40
0.2500000000000003
 40
0.2500000000000003
 40
0.3125000000000003
 40
0.3125000000000003
 40
0.3750000000000004
 40
0.3750000000000004
 40
0.3906250000000004
 40
0.3906250000000004
 40
0.4062500000000003
 40
0.4062500000000003
 40
0.4218750000000003
 40
0.4218750000000003
 40
0.4263963902210431
 40
0.4263963902210431
 40
0.4263963902210431
 40
0.4263963902210431
 10
61.90770339876663
 20
155.4697023832697
 30
0.0
 10
61.75097102644182
 20
155.492159075441
 30
0.0
 10
61.54063585137733
 20
155.4968604648139
 30
0.0
 10
60.84683758788093
 20
155.4501749943725
 30
0.0
 10
60.30891264552897
 20
155.3724166041205
 30
0.0
 10
59.16100661246923
 20
155.1877973507271
 30
0.0
 10
58.55590846223707
 20
155.0827970498551
 30
0.0
 10
55.51764381972436
 20
154.6134488574154
 30
0.0
 10
52.90878824778532
 20
154.3157287851709
 30
0.0
 10
47.60701107620847
 20
153.9229407237534
 30
0.0
 10
44.8788735930052
 20
153.8238178248928
 30
0.0
 10
39.32434922349139
 20
153.7940551477886
 30
0.0
 10
36.59872349806581
 20
153.8589456129647
 30
0.0
 10
31.23297362114241
 20
154.1819748130439
 30
0.0
 10
28.58419680829913
 20
154.4441711665818
 30
0.0
 10
25.46371742743443
 20
154.8795781695894
 30
0.0
 10
24.85136014281872
 20
154.9710333548135
 30
0.0
 10
23.64603112654343
 20
155.1655478168287
 30
0.0
 10
23.05065883853304
 20
155.2703870834307
 30
0.0
 10
21.95542630329911
 20
155.433524878149
 30
0.0
 10
21.45981356799905
 20
155.4910678995592
 30
0.0
 10
21.00450173157879
 20
155.4902742943045
 30
0.0
 10
20.91571671781837
 20
155.4852896733928
 30
0.0
 10
20.83889779411036
 20
155.4763051206995
 30
0.0
  0
SPLINE
  5
35C
330
25F
100
AcDbEntity
  8
$DDT_AUDIT_GENERATED_(F9)
  6
Continuous
 62
     7
100
AcDbSpline
210
0.0
220
0.0
230
1.0
 70
     8
 71
     3
 72
    10
 73
     6
 74
     0
 42
0.0000000003656261
 43
0.0000000001
 40
0.4772568094011114
 40
0.4772568094011114
 40
0.4772568094011114
 40
0.4772568094011114
 40
0.5000000000000002
 40
0.5000000000000002
 40
0.5115881677629399
 40
0.5115881677629399
 40
0.5115881677629399
 40
0.5115881677629399
 10
20.63321047130257
 20
154.6521921077282
 30
0.0
 10
20.75118761535681
 20
154.5344828265462
 30
0.0
 10
20.91129691480287
 20
154.4286202927088
 30
0.0
 10
21.21175839859162
 20
154.2875650756931
 30
0.0
 10
21.32330405868672
 20
154.2432245657571
 30
0.0
 10
21.44497176039398
 20
154.2021407991213
 30
0.0
  0
SPLINE
  5
35D
330
25F
100
AcDbEntity
  8
$DDT_AUDIT_GENERATED_(F9)
  6
Continuous
 62
     7
100
AcDbSpline
210
0.0
220
0.0
230
1.0
 70
     8
 71
     3
 72
    34
 73
    30
 74
     0
 42
0.0000000000891449
 43
0.0000000001
 40
0.553876593942617
 40
0.553876593942617
 40
0.553876593942617
 40
0.553876593942617
 40
0.5624999999999997
 40
0.5624999999999997
 40
0.5781249999999996
 40
0.5781249999999996
 40
0.5937499999999996
 40
0.5937499999999996
 40
0.6093749999999996
 40
0.6093749999999996
 40
0.6249999999999994
 40
0.6249999999999994
 40
0.6874999999999996
 40
0.6874999999999996
 40
0.7187499999999996
 40
0.7187499999999996
 40
0.7499999999999996
 40
0.7499999999999996
 40
0.8124999999999997
 40
0.8124999999999997
 40
0.8749999999999998
 40
0.8749999999999998
 40
0.8906249999999998
 40
0.8906249999999998
 40
0.9062499999999999
 40
0.9062499999999999
 40
0.921875
 40
0.921875
 40
0.935427633496543
 40
0.935427633496543
 40
0.935427633496543
 40
0.935427633496543
 10
20.1979726072629
 20
155.5330362949479
 30
0.0
 10
20.20342708398084
 20
155.5874258981328
 30
0.0
 10
20.22430756479122
 20
155.6397392564377
 30
0.0
 10
20.36431134680682
 20
155.7672735610119
 30
0.0
 10
20.55590555928362
 20
155.8273232876703
 30
0.0
 10
21.23164353416697
 20
155.8394508442
 30
0.0
 10
21.71430383811905
 20
155.7909249411227
 30
0.0
 10
22.81454167334455
 20
155.6338990483928
 30
0.0
 10
23.41217615500323
 20
155.5298093840744
 30
0.0
 10
24.62979756510612
 20
155.3278187035944
 30
0.0
 10
25.24704233344638
 20
155.2336875258788
 30
0.0
 10
28.39044315469476
 20
154.7846623818088
 30
0.0
 10
31.05597168806177
 20
154.5140063984535
 30
0.0
 10
35.11920703236378
 20
154.262253003766
 30
0.0
 10
36.49145807498663
 20
154.2029536431999
 30
0.0
 10
39.27508091916299
 20
154.130178295939
 30
0.0
 10
40.69201176306582
 20
154.1168026709937
 30
0.0
 10
44.8778411808685
 20
154.1389047404668
 30
0.0
 10
47.62299925421418
 20
154.2381555738897
 30
0.0
 10
53.03379534727909
 20
154.6451705649605
 30
0.0
 10
55.67039989541173
 20
154.9519331569384
 30
0.0
 10
58.74778390049389
 20
155.4374687180073
 30
0.0
 10
59.36009898228825
 20
155.5457570388061
 30
0.0
 10
60.51064700231667
 20
155.7277863815812
 30
0.0
 10
61.04081633030552
 20
155.8001790992501
 30
0.0
 10
61.871837079412
 20
155.8493165841263
 30
0.0
 10
62.15141447858358
 20
155.8212110482175
 30
0.0
 10
62.44397541357463
 20
155.7003155231293
 30
0.0
 10
62.49278817913876
 20
155.6196739351222
 30
0.0
 10
62.50179858678173
 20
155.5331816158011
 30
0.0
  0
ARC
  5
35E
330
25F
100
AcDbEntity
  8
$DDT_AUDIT_GENERATED_(F9)
  6
Continuous
 62
     7
100
AcDbCircle
 10
-686.0719822657
 20
288.1335830662
 30
0.0
 40
718.6092557463235
100
AcDbArc
 50
349.3670900156
 51
352.4545494101
  0
ARC
  5
35F
330
25F
100
AcDbEntity
  8
$DDT_AUDIT_GENERATED_(F9)
  6
Continuous
 62
     7
100
AcDbCircle
 10
768.7847356736
 20
288.1357963866
 30
0.0
 40
718.6222021366128
100
AcDbArc
 50
187.5703889613
 51
190.6333007468
  0
SPLINE
  5
360
330
25F
100
AcDbEntity
  8
$DDT_AUDIT_GENERATED_(F9)
  6
Continuous
 62
     7
100
AcDbSpline
210
0.0
220
0.0
230
1.0
 70
     8
 71
     3
 72
     8
 73
     4
 74
     0
 42
0.0000000025158565
 43
0.0000000001
 40
0.0
 40
0.0
 40
0.0
 40
0.0
 40
1.0
 40
1.0
 40
1.0
 40
1.0
 10
21.45202604643515
 20
154.2023825295885
 30
0.0
 10
21.50213021289639
 20
154.1709119110586
 30
0.0
 10
22.76920388103639
 20
153.7860937494807
 30
0.0
 10
25.25324705085511
 20
153.0479280448548
 30
0.0
  0
SPLINE
  5
361
330
25F
100
AcDbEntity
  8
$DDT_AUDIT_GENERATED_(F9)
  6
Continuous
 62
     7
100
AcDbSpline
210
0.0
220
0.0
230
1.0
 70
     8
 71
     3
 72
     8
 73
     4
 74
     0
 42
0.0000000025098301
 43
0.0000000001
 40
0.0
 40
0.0
 40
0.0
 40
0.0
 40
1.0
 40
1.0
 40
1.0
 40
1.0
 10
57.44675294914213
 20
153.0479280448549
 30
0.0
 10
59.93100215123771
 20
153.7854816731758
 30
0.0
 10
61.20104552560117
 20
154.1714037566252
 30
0.0
 10
61.25688307223252
 20
154.2056942952031
 30
0.0
  0
ARC
  5
362
330
25F
100
AcDbEntity
  8
$DDT_AUDIT_GENERATED_(F9)
  6
Continuous
 62
     7
100
AcDbCircle
 10
26.6124191399
 20
193.7254620941
 30
0.0
 40
0.2999996155966444
100
AcDbArc
 50
89.9771675065
 51
170.9530456468
  0
ARC
  5
363
330
25F
100
AcDbEntity
  8
$DDT_AUDIT_GENERATED_(F9)
  6
Continuous
 62
     7
100
AcDbCircle
 10
25.3828505368
 20
153.5308389439
 30
0.0
 40
0.5000000000000299
100
AcDbArc
 50
254.9769881298
 51
256.7730660258
  0
ARC
  5
364
330
25F
100
AcDbEntity
  8
$DDT_AUDIT_GENERATED_(F9)
  6
Continuous
 62
     7
100
AcDbCircle
 10
57.3171494632
 20
153.5308389439
 30
0.0
 40
0.5000000000000004
100
AcDbArc
 50
283.2268647902
 51
285.0230118702
  0
LINE
  5
365
330
25F
100
AcDbEntity
  8
$DDT_AUDIT_GENERATED_(F9)
  6
Continuous
 62
     7
100
AcDbLine
 10
25.3828505368
 20
153.0308389439
 30
0.0
 11
57.3171494632
 21
153.0308389439
 31
0.0
  0
SPLINE
  5
366
330
25F
100
AcDbEntity
  8
$DDT_AUDIT_GENERATED_(F9)
  6
Continuous
 62
     7
100
AcDbSpline
210
0.0
220
0.0
230
1.0
 70
     8
 71
     3
 72
    12
 73
     8
 74
     0
 42
0.0000000107478443
 43
0.0000000001
 40
0.0
 40
0.0
 40
0.0
 40
0.0
 40
0.0803501210051662
 40
0.2711342517696497
 40
0.5160234784771677
 40
0.9479564642435538
 40
1.0
 40
1.0
 40
1.0
 40
1.0
 10
20.2114805242387
 20
155.5437784838889
 30
0.0
 10
20.20230562159825
 20
155.5061340394254
 30
0.0
 10
20.17579643609223
 20
155.3982360939032
 30
0.0
 10
20.22017127183326
 20
155.2369553232652
 30
0.0
 10
20.28731793632955
 20
155.0207692221661
 30
0.0
 10
20.40330042228011
 20
154.8229417212265
 30
0.0
 10
20.51279979705782
 20
154.7356926511927
 30
0.0
 10
20.52657842638416
 20
154.7247597520645
 30
0.0
  0
SPLINE
  5
367
330
25F
100
AcDbEntity
  8
$DDT_AUDIT_GENERATED_(F9)
  6
Continuous
 62
     7
100
AcDbSpline
210
0.0
220
0.0
230
1.0
 70
     8
 71
     3
 72
    12
 73
     8
 74
     0
 42
0.0000000075847074
 43
0.0000000001
 40
0.0
 40
0.0
 40
0.0
 40
0.0
 40
0.239864521065167
 40
0.5429300034520115
 40
0.7826913778729627
 40
0.9446519477097959
 40
1.0
 40
1.0
 40
1.0
 40
1.0
 10
61.87313171756472
 20
154.4920927110713
 30
0.0
 10
61.97406436530242
 20
154.5551677856877
 30
0.0
 10
62.1617739072008
 20
154.6752209949674
 30
0.0
 10
62.37727301999298
 20
154.946189052172
 30
0.0
 10
62.46131939070201
 20
155.1724452840386
 30
0.0
 10
62.53697642209649
 20
155.3782328582308
 30
0.0
 10
62.50691133118089
 20
155.5054071796538
 30
0.0
 10
62.49804017658864
 20
155.5434822980756
 30
0.0
  0
ARC
  5
368
330
25F
100
AcDbEntity
  8
$DDT_AUDIT_GENERATED_(F9)
  6
Continuous
 62
     7
100
AcDbCircle
 10
60.7911516672
 20
156.0499539568
 30
0.0
 40
1.896737327670305
100
AcDbArc
 50
286.3200725058
 51
304.7811055768
  0
ARC
  5
369
330
25F
100
AcDbEntity
  8
$DDT_AUDIT_GENERATED_(AD)
  6
Continuous
 62
     7
100
AcDbCircle
 10
41.35
 20
210.7754617095
 30
0.0
 40
59.98895782455634
100
AcDbArc
 50
265.7532340932
 51
266.2910088749
  0
SPLINE
  5
36A
330
25F
100
AcDbEntity
  8
$DDT_AUDIT_GENERATED_(AD)
  6
Continuous
 62
     7
100
AcDbSpline
210
0.0
220
0.0
230
1.0
 70
     8
 71
     3
 72
    23
 73
    19
 74
     0
 42
0.0000000041047128
 43
0.0000000001
 40
0.5005368276484408
 40
0.5005368276484408
 40
0.5005368276484408
 40
0.5005368276484408
 40
0.5223757133550733
 40
0.5223757133550733
 40
0.5223757133550733
 40
0.6224177321103046
 40
0.6224177321103046
 40
0.6224177321103046
 40
0.7222254596018692
 40
0.7222254596018692
 40
0.7222254596018692
 40
0.8018119865480484
 40
0.8018119865480484
 40
0.8018119865480484
 40
0.9112310484921076
 40
0.9112310484921076
 40
0.9112310484921076
 40
1.0
 40
1.0
 40
1.0
 40
1.0
 10
35.2671539198518
 20
151.0957159183029
 30
0.0
 10
35.26722454770899
 20
151.0962356433832
 30
0.0
 10
35.2680367604703
 20
151.0966978352782
 30
0.0
 10
35.2695284861512
 20
151.0971073971159
 30
0.0
 10
35.27634232445445
 20
151.0989781754856
 30
0.0
 10
35.30023719963367
 20
151.0995373624488
 30
0.0
 10
35.34684332190158
 20
151.0979347343609
 30
0.0
 10
35.3934790186594
 20
151.0963310893055
 30
0.0
 10
35.45997278522358
 20
151.0929473941281
 30
0.0
 10
35.53939384781281
 20
151.0882870139487
 30
0.0
 10
35.60227640107795
 20
151.0845971035481
 30
0.0
 10
35.68190085177203
 20
151.0791282918079
 30
0.0
 10
35.76769093875555
 20
151.0727957827667
 30
0.0
 10
35.88577578845003
 20
151.064079468276
 30
0.0
 10
36.01725817137422
 20
151.0538208128377
 30
0.0
 10
36.150104297147
 20
151.0431805915919
 30
0.0
 10
36.25856009424139
 20
151.034493897345
 30
0.0
 10
36.36978062531696
 20
151.0254048462585
 30
0.0
 10
36.48002285714426
 20
151.0163176587586
 30
0.0
  0
ARC
  5
36B
330
25F
100
AcDbEntity
  8
$DDT_AUDIT_GENERATED_(AD)
  6
Continuous
 62
     7
100
AcDbCircle
 10
-32.0643835626
 20
-690.3195186281
 30
0.0
 40
844.1234063050181
100
AcDbArc
 50
85.2797813134
 51
85.3423469057
  0
ARC
  5
36C
330
25F
100
AcDbEntity
  8
$DDT_AUDIT_GENERATED_(AD)
  6
Continuous
 62
     7
100
AcDbCircle
 10
39.6437728348
 20
189.8758156357
 30
0.0
 40
39.02932174071728
100
AcDbArc
 50
265.2894115813
 51
265.980075329
  0
ARC
  5
36D
330
25F
100
AcDbEntity
  8
$DDT_AUDIT_GENERATED_(AD)
  6
Continuous
 62
     7
100
AcDbCircle
 10
41.35
 20
210.7754617095
 30
0.0
 40
59.9595515594302
100
AcDbArc
 50
273.0584914212
 51
273.5822296903
  0
ARC
  5
36E
330
25F
100
AcDbEntity
  8
$DDT_AUDIT_GENERATED_(AD)
  6
Continuous
 62
     7
100
AcDbCircle
 10
41.35
 20
210.7754617095
 30
0.0
 40
59.95955155943019
100
AcDbArc
 50
271.6110149161
 51
272.1308748302
  0
ARC
  5
36F
330
25F
100
AcDbEntity
  8
$DDT_AUDIT_GENERATED_(AD)
  6
Continuous
 62
     7
100
AcDbCircle
 10
41.35
 20
210.7754617095
 30
0.0
 40
59.98302798739881
100
AcDbArc
 50
272.1300404543
 51
273.0572932375
  0
ARC
  5
370
330
25F
100
AcDbEntity
  8
$DDT_AUDIT_GENERATED_(AD)
  6
Continuous
 62
     7
100
AcDbCircle
 10
41.35
 20
210.7754617095
 30
0.0
 40
59.9595515594302
100
AcDbArc
 50
266.7261100113
 51
267.7020178829
  0
ARC
  5
371
330
25F
100
AcDbEntity
  8
$DDT_AUDIT_GENERATED_(AD)
  6
Continuous
 62
     7
100
AcDbCircle
 10
38.9233739072
 20
144.1361829538
 30
0.0
 40
6.727983656738888
100
AcDbArc
 50
83.260321308
 51
89.8087991523
  0
ELLIPSE
  5
372
330
25F
100
AcDbEntity
  8
$DDT_AUDIT_GENERATED_(AD)
  6
Continuous
 62
     7
100
AcDbEllipse
 10
40.6146751136
 20
210.7754611641
 30
0.0
 11
1.541056171561195E-8
 21
-59.99235361263067
 31
0.0
210
0.0
220
0.0
230
1.0
 40
0.6408130772
 41
-0.0234575105056676
 42
-0.0154849537374124
  0
ARC
  5
373
330
25F
100
AcDbEntity
  8
$DDT_AUDIT_GENERATED_(AD)
  6
Continuous
 62
     7
100
AcDbCircle
 10
41.35
 20
210.7754617095
 30
0.0
 40
60.09991787619938
100
AcDbArc
 50
274.1417371209
 51
275.6503268824
  0
LINE
  5
374
330
25F
100
AcDbEntity
  8
$DDT_AUDIT_GENERATED_(AD)
  6
Continuous
 62
     7
100
AcDbLine
 10
45.6906571429
 20
150.8729031767
 30
0.0
 11
45.6906571429
 21
150.9732333332
 31
0.0
  0
LINE
  5
375
330
25F
100
AcDbEntity
  8
$DDT_AUDIT_GENERATED_(AD)
  6
Continuous
 62
     7
100
AcDbLine
 10
45.6906571429
 20
150.8324986171
 30
0.0
 11
45.6906571429
 21
150.8729031767
 31
0.0
  0
LINE
  5
376
330
25F
100
AcDbEntity
  8
$DDT_AUDIT_GENERATED_(AD)
  6
Continuous
 62
     7
100
AcDbLine
 10
47.1268342857
 20
150.99431076
 30
0.0
 11
47.1268342857
 21
151.0948450166
 31
0.0
  0
ARC
  5
377
330
25F
100
AcDbEntity
  8
$DDT_AUDIT_GENERATED_(AD)
  6
Continuous
 62
     7
100
AcDbCircle
 10
41.35
 20
210.7754617095
 30
0.0
 40
59.95955155943018
100
AcDbArc
 50
274.1514499804
 51
275.5287678088
  0
ARC
  5
378
330
25F
100
AcDbEntity
  8
$DDT_AUDIT_GENERATED_(AD)
  6
Continuous
 62
     7
100
AcDbCircle
 10
41.35
 20
210.7754617095
 30
0.0
 40
60.05961890661619
100
AcDbArc
 50
274.1445210108
 51
275.5195275174
  0
LINE
  5
379
330
25F
100
AcDbEntity
  8
$DDT_AUDIT_GENERATED_(AD)
  6
Continuous
 62
     7
100
AcDbLine
 10
47.1268342857
 20
150.99431076
 30
0.0
 11
47.1268342857
 21
150.9808474745
 31
0.0
  0
ARC
  5
37A
330
25F
100
AcDbEntity
  8
$DDT_AUDIT_GENERATED_(AD)
  6
Continuous
 62
     7
100
AcDbCircle
 10
41.35
 20
210.7754617095
 30
0.0
 40
60.07301978325847
100
AcDbArc
 50
274.6637399485
 51
275.518292419
  0
LINE
  5
37B
330
25F
100
AcDbEntity
  8
$DDT_AUDIT_GENERATED_(AD)
  6
Continuous
 62
     7
100
AcDbLine
 10
46.2344028571
 20
150.9013411347
 30
0.0
 11
46.2344028571
 21
150.8908181108
 31
0.0
  0
LINE
  5
37C
330
25F
100
AcDbEntity
  8
$DDT_AUDIT_GENERATED_(AD)
  6
Continuous
 62
     7
100
AcDbLine
 10
46.9832114286
 20
150.9566113426
 30
0.0
 11
46.9832114286
 21
150.9671459425
 31
0.0
  0
ARC
  5
37D
330
25F
100
AcDbEntity
  8
$DDT_AUDIT_GENERATED_(AD)
  6
Continuous
 62
     7
100
AcDbCircle
 10
41.35
 20
210.7754617095
 30
0.0
 40
60.08350797199177
100
AcDbArc
 50
274.6629240429
 51
275.3797454115
  0
LINE
  5
37E
330
25F
100
AcDbEntity
  8
$DDT_AUDIT_GENERATED_(AD)
  6
Continuous
 62
     7
100
AcDbLine
 10
46.9832114286
 20
150.9566113426
 30
0.0
 11
46.9832114286
 21
150.9487153419
 31
0.0
  0
ARC
  5
37F
330
25F
100
AcDbEntity
  8
$DDT_AUDIT_GENERATED_(AD)
  6
Continuous
 62
     7
100
AcDbCircle
 10
41.35
 20
210.7754617095
 30
0.0
 40
60.09136919666577
100
AcDbArc
 50
274.6623126835
 51
275.3790395517
  0
LINE
  5
380
330
25F
100
AcDbEntity
  8
$DDT_AUDIT_GENERATED_(AD)
  6
Continuous
 62
     7
100
AcDbLine
 10
46.2344028571
 20
150.882930784
 30
0.0
 11
46.2344028571
 21
150.8763704621
 31
0.0
  0
LINE
  5
381
330
25F
100
AcDbEntity
  8
$DDT_AUDIT_GENERATED_(AD)
  6
Continuous
 62
     7
100
AcDbLine
 10
47.26726
 20
150.9695710495
 30
0.0
 11
47.26726
 21
151.0700636484
 31
0.0
  0
ARC
  5
382
330
25F
100
AcDbEntity
  8
$DDT_AUDIT_GENERATED_(AD)
  6
Continuous
 62
     7
100
AcDbCircle
 10
41.35
 20
210.7754617095
 30
0.0
 40
59.99790432624099
100
AcDbArc
 50
275.5252226266
 51
275.6599653957
  0
ARC
  5
383
330
25F
100
AcDbEntity
  8
$DDT_AUDIT_GENERATED_(AD)
  6
Continuous
 62
     7
100
AcDbCircle
 10
41.35
 20
210.7754617095
 30
0.0
 40
60.09790781334045
100
AcDbArc
 50
274.6618043043
 51
275.650516481
  0
LINE
  5
384
330
25F
100
AcDbEntity
  8
$DDT_AUDIT_GENERATED_(AD)
  6
Continuous
 62
     7
100
AcDbLine
 10
47.26726
 20
150.9695710495
 30
0.0
 11
47.26726
 21
150.9675511724
 31
0.0
  0
LINE
  5
385
330
25F
100
AcDbEntity
  8
$DDT_AUDIT_GENERATED_(AD)
  6
Continuous
 62
     7
100
AcDbLine
 10
45.0963314286
 20
150.8327989055
 30
0.0
 11
45.0963314286
 21
150.9330618242
 31
0.0
  0
LINE
  5
386
330
25F
100
AcDbEntity
  8
$DDT_AUDIT_GENERATED_(AD)
  6
Continuous
 62
     7
100
AcDbLine
 10
44.5491657143
 20
150.8011075076
 30
0.0
 11
44.5491657143
 21
150.901317357
 31
0.0
  0
LINE
  5
387
330
25F
100
AcDbEntity
  8
$DDT_AUDIT_GENERATED_(AD)
  6
Continuous
 62
     7
100
AcDbLine
 10
43.5794285714
 20
150.757235549
 30
0.0
 11
43.5794285714
 21
150.8573720249
 31
0.0
  0
LINE
  5
388
330
25F
100
AcDbEntity
  8
$DDT_AUDIT_GENERATED_(AD)
  6
Continuous
 62
     7
100
AcDbLine
 10
43.0356914286
 20
150.7395035876
 30
0.0
 11
43.0356914286
 21
150.8396104382
 31
0.0
  0
LINE
  5
389
330
25F
100
AcDbEntity
  8
$DDT_AUDIT_GENERATED_(AD)
  6
Continuous
 62
     7
100
AcDbLine
 10
45.0963314286
 20
150.7924213601
 30
0.0
 11
45.0963314286
 21
150.8327989055
 31
0.0
  0
ARC
  5
38A
330
25F
100
AcDbEntity
  8
$DDT_AUDIT_GENERATED_(AD)
  6
Continuous
 62
     7
100
AcDbCircle
 10
41.35
 20
210.7754617095
 30
0.0
 40
60.05961890661618
100
AcDbArc
 50
273.0533907324
 51
273.5762534476
  0
LINE
  5
38B
330
25F
100
AcDbEntity
  8
$DDT_AUDIT_GENERATED_(AD)
  6
Continuous
 62
     7
100
AcDbLine
 10
44.5491657143
 20
150.8011075076
 30
0.0
 11
44.5491657143
 21
150.7776368717
 31
0.0
  0
ARC
  5
38C
330
25F
100
AcDbEntity
  8
$DDT_AUDIT_GENERATED_(AD)
  6
Continuous
 62
     7
100
AcDbCircle
 10
41.35
 20
210.7754617095
 30
0.0
 40
60.08305623499082
100
AcDbArc
 50
272.1264926624
 51
273.052198531
  0
LINE
  5
38D
330
25F
100
AcDbEntity
  8
$DDT_AUDIT_GENERATED_(AD)
  6
Continuous
 62
     7
100
AcDbLine
 10
43.5794285714
 20
150.7337820629
 30
0.0
 11
43.5794285714
 21
150.757235549
 31
0.0
  0
ARC
  5
38E
330
25F
100
AcDbEntity
  8
$DDT_AUDIT_GENERATED_(AD)
  6
Continuous
 62
     7
100
AcDbCircle
 10
41.35
 20
210.7754617095
 30
0.0
 40
60.05961890661617
100
AcDbArc
 50
271.6083300443
 51
272.1273228744
  0
LINE
  5
38F
330
25F
100
AcDbEntity
  8
$DDT_AUDIT_GENERATED_(AD)
  6
Continuous
 62
     7
100
AcDbLine
 10
43.0356914286
 20
150.7395035876
 30
0.0
 11
43.0356914286
 21
150.6991887464
 31
0.0
  0
ARC
  5
390
330
25F
100
AcDbEntity
  8
$DDT_AUDIT_GENERATED_(AD)
  6
Continuous
 62
     7
100
AcDbCircle
 10
41.35
 20
210.7754617095
 30
0.0
 40
60.09991787619938
100
AcDbArc
 50
271.6072513231
 51
272.1258957794
  0
LINE
  5
391
330
25F
100
AcDbEntity
  8
$DDT_AUDIT_GENERATED_(AD)
  6
Continuous
 62
     7
100
AcDbLine
 10
43.5794285714
 20
150.7169088051
 30
0.0
 11
43.5794285714
 21
150.7250357188
 31
0.0
  0
ARC
  5
392
330
25F
100
AcDbEntity
  8
$DDT_AUDIT_GENERATED_(AD)
  6
Continuous
 62
     7
100
AcDbCircle
 10
41.35
 20
210.7754617095
 30
0.0
 40
60.09179655673606
100
AcDbArc
 50
272.1261832231
 51
273.0517541699
  0
ARC
  5
393
330
25F
100
AcDbEntity
  8
$DDT_AUDIT_GENERATED_(AD)
  6
Continuous
 62
     7
100
AcDbCircle
 10
41.35
 20
210.7754617095
 30
0.0
 40
60.09991787619939
100
AcDbArc
 50
273.0513413951
 51
273.5738523363
  0
SPLINE
  5
394
330
25F
100
AcDbEntity
  8
$DDT_AUDIT_GENERATED_(AD)
  6
Continuous
 62
     7
100
AcDbSpline
210
0.0
220
0.0
230
1.0
 70
     8
 71
     3
 72
    10
 73
     6
 74
     0
 42
0.0000000118837493
 43
0.0000000001
 40
0.6476789312724037
 40
0.6476789312724037
 40
0.6476789312724037
 40
0.6476789312724037
 40
0.75
 40
0.75
 40
1.0
 40
1.0
 40
1.0
 40
1.0
 10
42.64208556650917
 20
150.8004247752068
 30
0.0
 10
42.64218780147652
 20
150.8019238332226
 30
0.0
 10
42.63353876650621
 20
150.8033866310915
 30
0.0
 10
42.57265611515223
 20
150.808148452759
 30
0.0
 10
42.47819365547313
 20
150.8110225816037
 30
0.0
 10
42.34758919086738
 20
150.8132715782013
 30
0.0
  0
SPLINE
  5
395
330
25F
100
AcDbEntity
  8
$DDT_AUDIT_GENERATED_(AD)
  6
Continuous
 62
     7
100
AcDbSpline
210
0.0
220
0.0
230
1.0
 70
     8
 71
     3
 72
    12
 73
     8
 74
     0
 42
0.0000000118941734
 43
0.0000000001
 40
0.0
 40
0.0
 40
0.0
 40
0.0
 40
0.125
 40
0.125
 40
0.25
 40
0.25
 40
0.3525280288309197
 40
0.3525280288309197
 40
0.3525280288309197
 40
0.3525280288309197
 10
42.34758919086738
 20
150.7132086270355
 30
0.0
 10
42.41280314651623
 20
150.7120875197198
 30
0.0
 10
42.46892604082518
 20
150.7108178034316
 30
0.0
 10
42.55953624522716
 20
150.7079859534706
 30
0.0
 10
42.59428816850401
 20
150.7064018007377
 30
0.0
 10
42.63338117356524
 20
150.7033550166469
 30
0.0
 10
42.64213594871558
 20
150.7018990723513
 30
0.0
 10
42.64211651737161
 20
150.7004019069824
 30
0.0
  0
SPLINE
  5
396
330
25F
100
AcDbEntity
  8
$DDT_AUDIT_GENERATED_(AD)
  6
Continuous
 62
     7
100
AcDbSpline
210
0.0
220
0.0
230
1.0
 70
     8
 71
     3
 72
    14
 73
    10
 74
     0
 42
0.000000006379347
 43
0.0000000001
 40
0.4799366795683799
 40
0.4799366795683799
 40
0.4799366795683799
 40
0.4799366795683799
 40
0.5
 40
0.5
 40
0.75
 40
0.75
 40
0.875
 40
0.875
 40
1.0
 40
1.0
 40
1.0
 40
1.0
 10
42.60156278288084
 20
150.6947096825095
 30
0.0
 10
42.59731795781816
 20
150.6944092884878
 30
0.0
 10
42.59274128106864
 20
150.6941093045963
 30
0.0
 10
42.52667856538253
 20
150.6900810922984
 30
0.0
 10
42.41635864187253
 20
150.6865231592568
 30
0.0
 10
42.2066197466445
 20
150.68217305063
 30
0.0
 10
42.1280616993782
 20
150.6808619936479
 30
0.0
 10
41.96341225442397
 20
150.6786715510641
 30
0.0
 10
41.87696726368333
 20
150.6777778560494
 30
0.0
 10
41.7866114285728
 20
150.6770880215679
 30
0.0
  0
ARC
  5
397
330
25F
100
AcDbEntity
  8
$DDT_AUDIT_GENERATED_(AD)
  6
Continuous
 62
     7
100
AcDbCircle
 10
40.7748095668
 20
139.8570120496
 30
0.0
 40
10.96685285029027
100
AcDbArc
 50
89.2756916107
 51
93.7504900754
  0
SPLINE
  5
398
330
25F
100
AcDbEntity
  8
$DDT_AUDIT_GENERATED_(AD)
  6
Continuous
 62
     7
100
AcDbSpline
210
0.0
220
0.0
230
1.0
 70
     8
 71
     3
 72
    10
 73
     6
 74
     0
 42
0.0000000032231615
 43
0.0000000001
 40
0.0
 40
0.0
 40
0.0
 40
0.0
 40
0.5
 40
0.5
 40
0.5456321763829874
 40
0.5456321763829874
 40
0.5456321763829874
 40
0.5456321763829874
 10
41.7866114285728
 20
150.6770880215679
 30
0.0
 10
41.1733228428552
 20
150.6724057912694
 30
0.0
 10
40.42278084201181
 20
150.6792819147103
 30
0.0
 10
40.12866462918826
 20
150.6927843494884
 30
0.0
 10
40.10899796431475
 20
150.6939298641008
 30
0.0
 10
40.09420054109299
 20
150.695077242918
 30
0.0
  0
SPLINE
  5
399
330
25F
100
AcDbEntity
  8
$DDT_AUDIT_GENERATED_(AD)
  6
Continuous
 62
     7
100
AcDbSpline
210
0.0
220
0.0
230
1.0
 70
     8
 71
     3
 72
    10
 73
     6
 74
     0
 42
0.0000000044800983
 43
0.0000000001
 40
0.616401611198225
 40
0.616401611198225
 40
0.616401611198225
 40
0.616401611198225
 40
0.75
 40
0.75
 40
1.0
 40
1.0
 40
1.0
 40
1.0
 10
40.06025878274309
 20
150.7003752085942
 30
0.0
 10
40.06072028900537
 20
150.7036498169774
 30
0.0
 10
40.10210062644533
 20
150.7067487396732
 30
0.0
 10
40.3339696970904
 20
150.7141032723872
 30
0.0
 10
40.60774171550788
 20
150.7171243601486
 30
0.0
 10
40.91338857142994
 20
150.718526814157
 30
0.0
  0
ARC
  5
39A
330
25F
100
AcDbEntity
  8
$DDT_AUDIT_GENERATED_(AD)
  6
Continuous
 62
     7
100
AcDbCircle
 10
41.3532299831
 20
76.1697550869
 30
0.0
 40
74.65013934626103
100
AcDbArc
 50
89.2367827934
 51
90.3375908281
  0
ARC
  5
39B
330
25F
100
AcDbEntity
  8
$DDT_AUDIT_GENERATED_(AD)
  6
Continuous
 62
     7
100
AcDbCircle
 10
41.3400463289
 20
72.3897616911
 30
0.0
 40
78.3299271194872
100
AcDbArc
 50
89.2629950291
 51
90.3120877368
  0
ARC
  5
39C
330
25F
100
AcDbEntity
  8
$DDT_AUDIT_GENERATED_(AD)
  6
Continuous
 62
     7
100
AcDbCircle
 10
41.1255609449
 20
143.8659449077
 30
0.0
 40
6.842661370890744
100
AcDbArc
 50
88.1203632903
 51
94.1370783184
  0
ARC
  5
39D
330
25F
100
AcDbEntity
  8
$DDT_AUDIT_GENERATED_(AD)
  6
Continuous
 62
     7
100
AcDbCircle
 10
41.5298255142
 20
141.6019708917
 30
0.0
 40
9.104729620149985
100
AcDbArc
 50
86.6108051724
 51
91.1317099389
  0
ARC
  5
39E
330
25F
100
AcDbEntity
  8
$DDT_AUDIT_GENERATED_(AD)
  6
Continuous
 62
     7
100
AcDbCircle
 10
41.5653379461
 20
158.1377922774
 30
0.0
 40
7.463966552267753
100
AcDbArc
 50
268.3467680888
 51
273.86213185
  0
ARC
  5
39F
330
25F
100
AcDbEntity
  8
$DDT_AUDIT_GENERATED_(AD)
  6
Continuous
 62
     7
100
AcDbCircle
 10
41.1346538933
 20
158.1376251513
 30
0.0
 40
7.463799731164071
100
AcDbArc
 50
266.1377785368
 51
271.6533315433
  0
LINE
  5
3A0
330
25F
100
AcDbEntity
  8
$DDT_AUDIT_GENERATED_(AD)
  6
Continuous
 62
     7
100
AcDbLine
 10
39.71296
 20
150.7176033618
 30
0.0
 11
39.71296
 21
150.8176736473
 31
0.0
  0
LINE
  5
3A1
330
25F
100
AcDbEntity
  8
$DDT_AUDIT_GENERATED_(AD)
  6
Continuous
 62
     7
100
AcDbLine
 10
38.9458257143
 20
150.7639813977
 30
0.0
 11
38.9458257143
 21
150.8641291487
 31
0.0
  0
LINE
  5
3A2
330
25F
100
AcDbEntity
  8
$DDT_AUDIT_GENERATED_(AD)
  6
Continuous
 62
     7
100
AcDbLine
 10
37.9257657143
 20
150.8135367674
 30
0.0
 11
37.9257657143
 21
150.9137674237
 31
0.0
  0
LINE
  5
3A3
330
25F
100
AcDbEntity
  8
$DDT_AUDIT_GENERATED_(AD)
  6
Continuous
 62
     7
100
AcDbLine
 10
38.5544885714
 20
150.7511833766
 30
0.0
 11
38.5544885714
 21
150.7675233397
 31
0.0
  0
LINE
  5
3A4
330
25F
100
AcDbEntity
  8
$DDT_AUDIT_GENERATED_(AD)
  6
Continuous
 62
     7
100
AcDbLine
 10
40.0193971429
 20
150.6902753092
 30
0.0
 11
40.0193971429
 21
150.7903000046
 31
0.0
  0
ARC
  5
3A5
330
25F
100
AcDbEntity
  8
$DDT_AUDIT_GENERATED_(AD)
  6
Continuous
 62
     7
100
AcDbCircle
 10
39.5169551106
 20
153.528191832
 30
0.0
 40
2.817414677562267
100
AcDbArc
 50
266.2313328881
 51
273.9892358051
  0
ARC
  5
3A6
330
25F
100
AcDbEntity
  8
$DDT_AUDIT_GENERATED_(AD)
  6
Continuous
 62
     7
100
AcDbCircle
 10
38.8773767167
 20
143.2640402484
 30
0.0
 40
7.500253496269946
100
AcDbArc
 50
83.6035511539
 51
89.4770985918
  0
ARC
  5
3A7
330
25F
100
AcDbEntity
  8
$DDT_AUDIT_GENERATED_(AD)
  6
Continuous
 62
     7
100
AcDbCircle
 10
41.35
 20
210.7754617095
 30
0.0
 40
60.05961890661619
100
AcDbArc
 50
266.7315706788
 51
267.7058486772
  0
LINE
  5
3A8
330
25F
100
AcDbEntity
  8
$DDT_AUDIT_GENERATED_(AD)
  6
Continuous
 62
     7
100
AcDbLine
 10
37.9257657143
 20
150.8135367674
 30
0.0
 11
37.9257657143
 21
150.7731721842
 31
0.0
  0
ARC
  5
3A9
330
25F
100
AcDbEntity
  8
$DDT_AUDIT_GENERATED_(AD)
  6
Continuous
 62
     7
100
AcDbCircle
 10
41.35
 20
210.7754617095
 30
0.0
 40
60.09991787619938
100
AcDbArc
 50
266.733764646
 51
267.2669522675
  0
LINE
  5
3AA
330
25F
100
AcDbEntity
  8
$DDT_AUDIT_GENERATED_(AD)
  6
Continuous
 62
     7
100
AcDbLine
 10
38.48428
 20
150.7439051946
 30
0.0
 11
38.48428
 21
150.7708352177
 31
0.0
  0
ARC
  5
3AB
330
25F
100
AcDbEntity
  8
$DDT_AUDIT_GENERATED_(AD)
  6
Continuous
 62
     7
100
AcDbCircle
 10
41.35
 20
210.7754617095
 30
0.0
 40
60.07301849863714
100
AcDbArc
 50
267.2657275391
 51
267.6111549993
  0
ARC
  5
3AC
330
25F
100
AcDbEntity
  8
$DDT_AUDIT_GENERATED_(AD)
  6
Continuous
 62
     7
100
AcDbCircle
 10
38.8030565092
 20
147.7198492379
 30
0.0
 40
3.035104661070945
100
AcDbArc
 50
83.1051360928
 51
89.187626643
  0
ARC
  5
3AD
330
25F
100
AcDbEntity
  8
$DDT_AUDIT_GENERATED_(AD)
  6
Continuous
 62
     7
100
AcDbCircle
 10
39.0486098528
 20
152.6768651137
 30
0.0
 40
1.947487913172891
100
AcDbArc
 50
264.8961812883
 51
273.4974397794
  0
ARC
  5
3AE
330
25F
100
AcDbEntity
  8
$DDT_AUDIT_GENERATED_(AD)
  6
Continuous
 62
     7
100
AcDbCircle
 10
41.35
 20
210.7754617095
 30
0.0
 40
60.08934076470644
100
AcDbArc
 50
267.3334897928
 51
267.6397388417
  0
ARC
  5
3AF
330
25F
100
AcDbEntity
  8
$DDT_AUDIT_GENERATED_(AD)
  6
Continuous
 62
     7
100
AcDbCircle
 10
40.1024818332
 20
172.3128943528
 30
0.0
 40
21.61720757544632
100
AcDbArc
 50
265.8935742495
 51
267.9437273656
  0
ARC
  5
3B0
330
25F
100
AcDbEntity
  8
$DDT_AUDIT_GENERATED_(AD)
  6
Continuous
 62
     7
100
AcDbCircle
 10
41.35
 20
210.7754617095
 30
0.0
 40
60.09991787619939
100
AcDbArc
 50
268.070866557
 51
268.731376676
  0
ELLIPSE
  5
3B1
330
25F
100
AcDbEntity
  8
$DDT_AUDIT_GENERATED_(AD)
  6
Continuous
 62
     7
100
AcDbEllipse
 10
40.6146751699
 20
210.7754648544
 30
0.0
 11
-8.013084640268175E-8
 21
-60.09237002644905
 31
0.0
210
0.0
220
0.0
230
1.0
 40
0.6408130575
 41
6.249426905415092
 42
6.267726128856089
  0
LINE
  5
3B2
330
25F
100
AcDbEntity
  8
$DDT_AUDIT_GENERATED_(AD)
  6
Continuous
 62
     7
100
AcDbLine
 10
39.3149542857
 20
150.7173331024
 30
0.0
 11
39.3317714286
 21
150.7168696396
 31
0.0
  0
LINE
  5
3B3
330
25F
100
AcDbEntity
  8
$DDT_AUDIT_GENERATED_(AD)
  6
Continuous
 62
     7
100
AcDbLine
 10
37.46938
 20
150.8119240446
 30
0.0
 11
37.46938
 21
150.9121520007
 31
0.0
  0
LINE
  5
3B4
330
25F
100
AcDbEntity
  8
$DDT_AUDIT_GENERATED_(AD)
  6
Continuous
 62
     7
100
AcDbLine
 10
37.3987
 20
150.8406911031
 30
0.0
 11
37.3987
 21
150.9409672465
 31
0.0
  0
LINE
  5
3B5
330
25F
100
AcDbEntity
  8
$DDT_AUDIT_GENERATED_(AD)
  6
Continuous
 62
     7
100
AcDbLine
 10
36.4800228571
 20
150.9159152889
 30
0.0
 11
36.4800228571
 21
151.0163176588
 31
0.0
  0
ARC
  5
3B6
330
25F
100
AcDbEntity
  8
$DDT_AUDIT_GENERATED_(AD)
  6
Continuous
 62
     7
100
AcDbCircle
 10
40.7910690512
 20
203.6204052825
 30
0.0
 40
52.92317476779932
100
AcDbArc
 50
265.3275906289
 51
266.4015019472
  0
LINE
  5
3B7
330
25F
100
AcDbEntity
  8
$DDT_AUDIT_GENERATED_(AD)
  6
Continuous
 62
     7
100
AcDbLine
 10
37.46938
 20
150.8015752183
 30
0.0
 11
37.46938
 21
150.8119240446
 31
0.0
  0
LINE
  5
3B8
330
25F
100
AcDbEntity
  8
$DDT_AUDIT_GENERATED_(AD)
  6
Continuous
 62
     7
100
AcDbLine
 10
36.9076857143
 20
150.8509182848
 30
0.0
 11
36.9076857143
 21
150.8422377488
 31
0.0
  0
ARC
  5
3B9
330
25F
100
AcDbEntity
  8
$DDT_AUDIT_GENERATED_(AD)
  6
Continuous
 62
     7
100
AcDbCircle
 10
39.6576718848
 20
190.0231502637
 30
0.0
 40
39.27730043474716
100
AcDbArc
 50
265.2988752195
 51
265.9851717326
  0
ARC
  5
3BA
330
25F
100
AcDbEntity
  8
$DDT_AUDIT_GENERATED_(AD)
  6
Continuous
 62
     7
100
AcDbCircle
 10
36.7410927015
 20
156.7029542424
 30
0.0
 40
5.832816886871298
100
AcDbArc
 50
261.1936094741
 51
267.027082927
  0
ARC
  5
3BB
330
25F
100
AcDbEntity
  8
$DDT_AUDIT_GENERATED_(AD)
  6
Continuous
 62
     7
100
AcDbCircle
 10
35.7520687965
 20
143.163753284
 30
0.0
 40
7.775738492138975
100
AcDbArc
 50
83.6821216912
 51
89.2922887764
  0
ARC
  5
3BC
330
25F
100
AcDbEntity
  8
$DDT_AUDIT_GENERATED_(AD)
  6
Continuous
 62
     7
100
AcDbCircle
 10
22.8107591316
 20
-23.6479807049
 30
0.0
 40
175.0847079258109
100
AcDbArc
 50
85.2206131826
 51
85.4803046746
  0
LINE
  5
3BD
330
25F
100
AcDbEntity
  8
$DDT_AUDIT_GENERATED_(AD)
  6
Continuous
 62
     7
100
AcDbLine
 10
37.3987
 20
150.8279400712
 30
0.0
 11
37.3987
 21
150.8406911031
 31
0.0
  0
ARC
  5
3BE
330
25F
100
AcDbEntity
  8
$DDT_AUDIT_GENERATED_(AD)
  6
Continuous
 62
     7
100
AcDbCircle
 10
-31.9270527
 20
-690.1544025308
 30
0.0
 40
843.8476210215182
100
AcDbArc
 50
85.2875913719
 51
85.3501767118
  0
SPLINE
  5
3BF
330
25F
100
AcDbEntity
  8
$DDT_AUDIT_GENERATED_(AD)
  6
Continuous
 62
     7
100
AcDbSpline
210
0.0
220
0.0
230
1.0
 70
     8
 71
     3
 72
    14
 73
    10
 74
     0
 42
0.0000000040876125
 43
0.0000000001
 40
0.0
 40
0.0
 40
0.0
 40
0.0
 40
0.2500000000000001
 40
0.2500000000000001
 40
0.5000000000000001
 40
0.5000000000000001
 40
0.75
 40
0.75
 40
1.0
 40
1.0
 40
1.0
 40
1.0
 10
36.48002285714426
 20
150.9159152889226
 30
0.0
 10
36.16946571097677
 20
150.9414713528641
 30
0.0
 10
35.84039342654273
 20
150.968292721183
 30
0.0
 10
35.38373719655299
 20
150.998203502619
 30
0.0
 10
35.26833720330984
 20
151.0011519720663
 30
0.0
 10
35.26618154256292
 20
150.9892824586979
 30
0.0
 10
35.37954444580114
 20
150.9742059114218
 30
0.0
 10
35.84075050504998
 20
150.9277598871749
 30
0.0
 10
36.16976156488763
 20
150.8983275893141
 30
0.0
 10
36.48002285714426
 20
150.8731085914269
 30
0.0
  0
ARC
  5
3C0
330
25F
100
AcDbEntity
  8
$DDT_AUDIT_GENERATED_(AD)
  6
Continuous
 62
     7
100
AcDbCircle
 10
41.3500398925
 20
210.0792914038
 30
0.0
 40
59.40017728560104
100
AcDbArc
 50
266.217172862
 51
266.7356855902
  0
ARC
  5
3C1
330
25F
100
AcDbEntity
  8
$DDT_AUDIT_GENERATED_(AD)
  6
Continuous
 62
     7
100
AcDbCircle
 10
41.3500398925
 20
210.0792914038
 30
0.0
 40
59.40017728560104
100
AcDbArc
 50
267.2611293413
 51
267.5910992803
  0
ARC
  5
3C2
330
25F
100
AcDbEntity
  8
$DDT_AUDIT_GENERATED_(AD)
  6
Continuous
 62
     7
100
AcDbCircle
 10
41.3500398925
 20
210.0792914038
 30
0.0
 40
59.40017728560104
100
AcDbArc
 50
271.2482879311
 51
271.627440042
  0
ARC
  5
3C3
330
25F
100
AcDbEntity
  8
$DDT_AUDIT_GENERATED_(AD)
  6
Continuous
 62
     7
100
AcDbCircle
 10
41.3500398925
 20
210.0792914038
 30
0.0
 40
59.40017728560104
100
AcDbArc
 50
272.2688236187
 51
273.0947041863
  0
ARC
  5
3C4
330
25F
100
AcDbEntity
  8
$DDT_AUDIT_GENERATED_(AD)
  6
Continuous
 62
     7
100
AcDbCircle
 10
41.3500398925
 20
210.0792914038
 30
0.0
 40
59.40017728560104
100
AcDbArc
 50
273.5789357517
 51
274.1906261528
  0
LINE
  5
3C5
330
25F
100
AcDbEntity
  8
$DDT_AUDIT_GENERATED_(AD)
  6
Continuous
 62
     7
100
AcDbLine
 10
42.6425512479
 20
150.6475634643
 30
0.0
 11
42.6425512479
 21
150.8003585902
 31
0.0
  0
LINE
  5
3C6
330
25F
100
AcDbEntity
  8
$DDT_AUDIT_GENERATED_(AD)
  6
Continuous
 62
     7
100
AcDbLine
 10
40.0574457143
 20
150.8004295635
 30
0.0
 11
40.0574457143
 21
150.6470801882
 31
0.0
  0
LINE
  5
3C7
330
25F
100
AcDbEntity
  8
$DDT_AUDIT_GENERATED_(AD)
  6
Continuous
 62
     7
100
AcDbLine
 10
35.2672514286
 20
151.095016509
 30
0.0
 11
35.2672514286
 21
150.9945058779
 31
0.0
  0
ARC
  5
3C8
330
25F
100
AcDbEntity
  8
$DDT_AUDIT_GENERATED_(AD)
  6
Continuous
 62
     7
100
AcDbCircle
 10
41.35
 20
210.7754617095
 30
0.0
 40
60.0
100
AcDbArc
 50
271.2012954466
 51
271.6099285794
  0
ARC
  5
3C9
330
25F
100
AcDbEntity
  8
$DDT_AUDIT_GENERATED_(AD)
  6
Continuous
 62
     7
100
AcDbCircle
 10
41.35
 20
210.7754617095
 30
0.0
 40
60.0
100
AcDbArc
 50
273.6317097386
 51
274.1486464162
  0
ARC
  5
3CA
330
25F
100
AcDbEntity
  8
$DDT_AUDIT_GENERATED_(AD)
  6
Continuous
 62
     7
100
AcDbCircle
 10
41.35
 20
210.7754617095
 30
0.0
 40
60.0
100
AcDbArc
 50
275.6597670595
 51
285.4196227967
  0
ARC
  5
3CB
330
25F
100
AcDbEntity
  8
$DDT_AUDIT_GENERATED_(AD)
  6
Continuous
 62
     7
100
AcDbCircle
 10
41.35
 20
210.7754617095
 30
0.0
 40
60.0
100
AcDbArc
 50
265.5059685859
 51
265.7540170861
  0
ARC
  5
3CC
330
25F
100
AcDbEntity
  8
$DDT_AUDIT_GENERATED_(AD)
  6
Continuous
 62
     7
100
AcDbCircle
 10
41.35
 20
210.7754617095
 30
0.0
 40
60.0
100
AcDbArc
 50
266.2916924185
 51
266.7283194765
  0
ARC
  5
3CD
330
25F
100
AcDbEntity
  8
$DDT_AUDIT_GENERATED_(AD)
  6
Continuous
 62
     7
100
AcDbCircle
 10
41.35
 20
210.7754617095
 30
0.0
 40
60.0
100
AcDbArc
 50
265.2512591731
 51
265.5059685859
  0
ARC
  5
3CE
330
25F
100
AcDbEntity
  8
$DDT_AUDIT_GENERATED_(AD)
  6
Continuous
 62
     7
100
AcDbCircle
 10
41.35
 20
210.7754617095
 30
0.0
 40
59.99999999999981
100
AcDbArc
 50
254.5803772033
 51
264.1814068163
  0
LINE
  5
3CF
330
25F
100
AcDbEntity
  8
$DDT_AUDIT_GENERATED_(242)
  6
Continuous
 62
     7
100
AcDbLine
 10
204.8142198421
 20
194.0254617095
 30
0.0
 11
204.8063580455
 21
194.9263343631
 31
0.0
  0
ARC
  5
3D0
330
25F
100
AcDbEntity
  8
$DDT_AUDIT_GENERATED_(242)
  6
Continuous
 62
     7
100
AcDbCircle
 10
204.7063618532
 20
194.9254617095
 30
0.0
 40
0.0999999999999941
100
AcDbArc
 50
0.5
 51
90.0
  0
LINE
  5
3D1
330
25F
100
AcDbEntity
  8
$DDT_AUDIT_GENERATED_(242)
  6
Continuous
 62
     7
100
AcDbLine
 10
27.8936419544
 20
194.9263343631
 30
0.0
 11
27.8857801579
 21
194.0254617095
 31
0.0
  0
ARC
  5
3D2
330
25F
100
AcDbEntity
  8
$DDT_AUDIT_GENERATED_(242)
  6
Continuous
 62
     7
100
AcDbCircle
 10
27.9936381467
 20
194.9254617095
 30
0.0
 40
0.1000000000000029
100
AcDbArc
 50
90.0
 51
179.5
  0
CIRCLE
  5
3D3
330
25F
100
AcDbEntity
  8
$DDT_AUDIT_GENERATED_(155)
  6
Continuous
 62
     7
100
AcDbCircle
 10
116.35
 20
205.0758428863
 30
0.0
 40
10.29829151108908
  0
ENDBLK
  5
3D5
330
25F
100
AcDbEntity
  8
0
100
AcDbBlockEnd
  0
ENDSEC
  0
SECTION
  2
ENTITIES
  0
INSERT
  5
5F
330
1F
100
AcDbEntity
  8
Default
100
AcDbBlockReference
  2
SEANNOT_GROUP
 10
0.0
 20
0.0
 30
0.0
  0
INSERT
  5
6A
330
1F
100
AcDbEntity
  8
Default
100
AcDbBlockReference
  2
SEANNOT_GROUP1
 10
0.0
 20
0.0
 30
0.0
  0
INSERT
  5
74
330
1F
100
AcDbEntity
  8
Default
100
AcDbBlockReference
  2
SEANNOT_GROUP2
 10
0.0
 20
0.0
 30
0.0
  0
INSERT
  5
7A
330
1F
100
AcDbEntity
  8
Default
100
AcDbBlockReference
  2
SEANNOT_GROUP3
 10
0.0
 20
0.0
 30
0.0
  0
INSERT
  5
80
330
1F
100
AcDbEntity
  8
Default
100
AcDbBlockReference
  2
SEANNOT_GROUP4
 10
0.0
 20
0.0
 30
0.0
  0
INSERT
  5
86
330
1F
100
AcDbEntity
  8
Default
100
AcDbBlockReference
  2
SE
 10
0.0
 20
0.0
 30
0.0
  0
INSERT
  5
170
330
1F
100
AcDbEntity
  8
Default
100
AcDbBlockReference
  2
SE1
 10
0.0
 20
0.0
 30
0.0
  0
INSERT
  5
260
330
1F
100
AcDbEntity
  8
Default
100
AcDbBlockReference
  2
SE2
 10
0.0
 20
0.0
 30
0.0
  0
TEXT
  5
3D7
330
1F
100
AcDbEntity
  8
Default
  6
Continuous
 62
     7
100
AcDbText
 10
5.9362635081
 20
53.4225120485
 30
0.0
 40
10.0
  1
Grohe AG^J
  7
SEACAD_seiso_ttf
 11
5.9362635081
 21
63.4225120485
 31
0.0
100
AcDbText
 73
     3
  0
TEXT
  5
3D8
330
1F
100
AcDbEntity
  8
Default
  6
Continuous
 62
     7
100
AcDbText
 10
5.9362635081
 20
37.0588756849
 30
0.0
 40
10.0
  1
 
  7
SEACAD_seiso_ttf
 11
5.9362635081
 21
47.0588756849
 31
0.0
100
AcDbText
 73
     3
  0
TEXT
  5
3D9
330
1F
100
AcDbEntity
  8
Default
  6
Continuous
 62
     7
100
AcDbText
 10
5.9362635081
 20
20.6952393213
 30
0.0
 40
10.0
  1
ecn: 
  7
SEACAD_seiso_ttf
 11
5.9362635081
 21
30.6952393213
 31
0.0
100
AcDbText
 73
     3
  0
TEXT
  5
3DA
330
1F
100
AcDbEntity
  8
Default
  6
Continuous
 62
     7
100
AcDbText
 10
5.9362635081
 20
4.3316029576
 30
0.0
 40
10.0
  1
unit: mm
  7
SEACAD_seiso_ttf
 11
5.9362635081
 21
14.3316029576
 31
0.0
100
AcDbText
 73
     3
  0
LINE
  5
3DB
330
1F
100
AcDbEntity
  8
Default
  6
Continuous
 62
     7
100
AcDbLine
 10
0.0
 20
0.0
 30
0.0
 11
100.0
 21
0.0
 31
0.0
  0
LINE
  5
3DC
330
1F
100
AcDbEntity
  8
Default
  6
Continuous
 62
     7
100
AcDbLine
 10
0.0
 20
0.0
 30
0.0
 11
0.0
 21
100.0
 31
0.0
  0
TEXT
  5
3DD
330
1F
100
AcDbEntity
  8
Default
  6
Continuous
 62
     7
100
AcDbText
 10
24.3923665681
 20
-18.2375342018
 30
0.0
 40
10.0
  1
100 mm
  7
SEACAD_seiso_ttf
 11
24.3923665681
 21
-8.2375342018
 31
0.0
100
AcDbText
 73
     3
  0
TEXT
  5
3DE
330
1F
100
AcDbEntity
  8
Default
  6
Continuous
 62
     7
100
AcDbText
 10
-7.6150308803
 20
24.6231930421
 30
0.0
 40
10.0
  1
100 mm
 50
90.0
  7
SEACAD_seiso_ttf
 11
-17.6150308803
 21
24.6231930421
 31
0.0
100
AcDbText
 73
     3
  0
TEXT
  5
3DF
330
1F
100
AcDbEntity
  8
Default
  6
Continuous
 62
     7
100
AcDbText
 10
28.4878128572
 20
20.0907663715
 30
0.0
 40
10.0
  1
211219
  7
SEACAD_seiso_ttf
 11
28.4878128572
 21
30.0907663715
 31
0.0
100
AcDbText
 73
     3
  0
TEXT
  5
3E0
330
1F
100
AcDbEntity
  8
Default
  6
Continuous
 62
     7
100
AcDbText
 10
5.9012241913
 20
36.7242780188
 30
0.0
 40
10.0
  1
25483001
  7
SEACAD_seiso_ttf
 11
5.9012241913
 21
46.7242780188
 31
0.0
100
AcDbText
 73
     3
  0
ENDSEC
  0
SECTION
  2
OBJECTS
  0
DICTIONARY
  5
C
330
0
100
AcDbDictionary
281
     1
  3
ACAD_GROUP
350
D
  3
ACAD_LAYOUT
350
1A
  3
ACAD_MLEADERSTYLE
350
3E4
  3
ACAD_MLINESTYLE
350
17
  3
ACAD_PLOTSETTINGS
350
19
  3
ACAD_PLOTSTYLENAME
350
E
  3
ACAD_SCALELIST
350
3B
  3
ACAD_TABLESTYLE
350
3E3
  3
ACAD_VISUALSTYLE
350
2A
  3
AcDbVariableDictionary
350
3E1
  0
DICTIONARY
  5
D
102
{ACAD_REACTORS
330
C
102
}
330
C
100
AcDbDictionary
281
     1
  0
DICTIONARY
  5
1A
102
{ACAD_REACTORS
330
C
102
}
330
C
100
AcDbDictionary
281
     1
  3
Layout1
350
1E
  3
Model
350
22
  0
DICTIONARY
  5
3E4
102
{ACAD_REACTORS
330
C
102
}
330
C
100
AcDbDictionary
281
     1
  0
DICTIONARY
  5
17
102
{ACAD_REACTORS
330
C
102
}
330
C
100
AcDbDictionary
281
     1
  3
Standard
350
18
  0
DICTIONARY
  5
19
102
{ACAD_REACTORS
330
C
102
}
330
C
100
AcDbDictionary
281
     1
  0
ACDBDICTIONARYWDFLT
  5
E
102
{ACAD_REACTORS
330
C
102
}
330
C
100
AcDbDictionary
281
     1
  3
Normal
350
F
100
AcDbDictionaryWithDefault
340
F
  0
DICTIONARY
  5
3B
102
{ACAD_REACTORS
330
C
102
}
330
C
100
AcDbDictionary
281
     1
  3
A0
350
3C
  3
A1
350
3D
  3
A2
350
3E
  3
A3
350
3F
  3
A4
350
40
  3
A5
350
41
  3
A6
350
42
  3
A7
350
43
  3
A8
350
44
  3
A9
350
45
  3
B0
350
46
  3
B1
350
47
  3
B2
350
48
  3
B3
350
49
  3
B4
350
4A
  3
B5
350
4B
  3
B6
350
4C
  3
B7
350
4D
  3
B8
350
4E
  3
B9
350
4F
  3
C0
350
50
  3
C1
350
51
  3
C2
350
52
  3
C3
350
53
  3
C4
350
54
  3
C5
350
55
  3
C6
350
56
  3
C7
350
57
  3
C8
350
58
  3
C9
350
59
  3
D0
350
5A
  3
D1
350
5B
  3
D2
350
5C
  0
DICTIONARY
  5
3E3
102
{ACAD_REACTORS
330
C
102
}
330
C
100
AcDbDictionary
281
     1
  0
DICTIONARY
  5
2A
102
{ACAD_REACTORS
330
C
102
}
330
C
100
AcDbDictionary
281
     1
  3
2dWireframe
350
2F
  3
3D Hidden
350
31
  3
3dWireframe
350
30
  3
Basic
350
32
  3
Brighten
350
36
  3
ColorChange
350
3A
  3
Conceptual
350
34
  3
Dim
350
35
  3
Facepattern
350
39
  3
Flat
350
2B
  3
FlatWithEdges
350
2C
  3
Gouraud
350
2D
  3
GouraudWithEdges
350
2E
  3
Linepattern
350
38
  3
Realistic
350
33
  3
Thicken
350
37
  0
DICTIONARY
  5
3E1
102
{ACAD_REACTORS
330
C
102
}
330
C
100
AcDbDictionary
281
     1
  3
CANNOSCALE
350
3E2
  3
PSOLHEIGHT
350
3E6
  3
PSOLWIDTH
350
3E5
  0
LAYOUT
  5
1E
102
{ACAD_REACTORS
330
1A
102
}
330
1A
100
AcDbPlotSettings
  1

  2
none_device
  4

  6

 40
0.0
 41
0.0
 42
0.0
 43
0.0
 44
0.0
 45
0.0
 46
0.0
 47
0.0
 48
0.0
 49
0.0
140
0.0
141
0.0
142
1.0
143
1.0
 70
   688
 72
     0
 73
     0
 74
     5
  7

 75
    16
147
1.0
148
0.0
149
0.0
100
AcDbLayout
  1
Layout1
 70
     1
 71
     1
 10
0.0
 20
0.0
 11
1682.0
 21
2378.0
 12
0.0
 22
0.0
 32
0.0
 14
0.0
 24
0.0
 34
0.0
 15
1682.0
 25
2378.0
 35
0.0
146
0.0
 13
0.0
 23
0.0
 33
0.0
 16
1.0
 26
0.0
 36
0.0
 17
0.0
 27
1.0
 37
0.0
 76
     0
330
1B
  0
LAYOUT
  5
22
102
{ACAD_REACTORS
330
1A
102
}
330
1A
100
AcDbPlotSettings
  1

  2
none_device
  4

  6

 40
0.0
 41
0.0
 42
0.0
 43
0.0
 44
0.0
 45
0.0
 46
0.0
 47
0.0
 48
0.0
 49
0.0
140
0.0
141
0.0
142
1.0
143
1.0
 70
  1712
 72
     0
 73
     0
 74
     0
  7

 75
     0
147
1.0
148
0.0
149
0.0
100
AcDbLayout
  1
Model
 70
     1
 71
     0
 10
0.0
 20
0.0
 11
1682.0
 21
2378.0
 12
0.0
 22
0.0
 32
0.0
 14
0.0
 24
0.0
 34
0.0
 15
1682.0
 25
2378.0
 35
0.0
146
0.0
 13
0.0
 23
0.0
 33
0.0
 16
1.0
 26
0.0
 36
0.0
 17
0.0
 27
1.0
 37
0.0
 76
     0
330
1F
331
29
  0
MLINESTYLE
  5
18
102
{ACAD_REACTORS
330
17
102
}
330
17
100
AcDbMlineStyle
  2
Standard
 70
     0
  3

 62
   256
 51
90.0
 52
90.0
 71
     2
 49
0.5
 62
   256
  6
BYLAYER
 49
-0.5
 62
   256
  6
BYLAYER
  0
ACDBPLACEHOLDER
  5
F
102
{ACAD_REACTORS
330
E
102
}
330
E
  0
SCALE
  5
3C
102
{ACAD_REACTORS
330
3B
102
}
330
3B
100
AcDbScale
 70
     0
300
1:1
140
1.0
141
1.0
290
     1
  0
SCALE
  5
3D
102
{ACAD_REACTORS
330
3B
102
}
330
3B
100
AcDbScale
 70
     0
300
1:2
140
1.0
141
2.0
290
     0
  0
SCALE
  5
3E
102
{ACAD_REACTORS
330
3B
102
}
330
3B
100
AcDbScale
 70
     0
300
1:4
140
1.0
141
4.0
290
     0
  0
SCALE
  5
3F
102
{ACAD_REACTORS
330
3B
102
}
330
3B
100
AcDbScale
 70
     0
300
1:5
140
1.0
141
5.0
290
     0
  0
SCALE
  5
40
102
{ACAD_REACTORS
330
3B
102
}
330
3B
100
AcDbScale
 70
     0
300
1:8
140
1.0
141
8.0
290
     0
  0
SCALE
  5
41
102
{ACAD_REACTORS
330
3B
102
}
330
3B
100
AcDbScale
 70
     0
300
1:10
140
1.0
141
10.0
290
     0
  0
SCALE
  5
42
102
{ACAD_REACTORS
330
3B
102
}
330
3B
100
AcDbScale
 70
     0
300
1:16
140
1.0
141
16.0
290
     0
  0
SCALE
  5
43
102
{ACAD_REACTORS
330
3B
102
}
330
3B
100
AcDbScale
 70
     0
300
1:20
140
1.0
141
20.0
290
     0
  0
SCALE
  5
44
102
{ACAD_REACTORS
330
3B
102
}
330
3B
100
AcDbScale
 70
     0
300
1:30
140
1.0
141
30.0
290
     0
  0
SCALE
  5
45
102
{ACAD_REACTORS
330
3B
102
}
330
3B
100
AcDbScale
 70
     0
300
1:40
140
1.0
141
40.0
290
     0
  0
SCALE
  5
46
102
{ACAD_REACTORS
330
3B
102
}
330
3B
100
AcDbScale
 70
     0
300
1:50
140
1.0
141
50.0
290
     0
  0
SCALE
  5
47
102
{ACAD_REACTORS
330
3B
102
}
330
3B
100
AcDbScale
 70
     0
300
1:100
140
1.0
141
100.0
290
     0
  0
SCALE
  5
48
102
{ACAD_REACTORS
330
3B
102
}
330
3B
100
AcDbScale
 70
     0
300
2:1
140
2.0
141
1.0
290
     0
  0
SCALE
  5
49
102
{ACAD_REACTORS
330
3B
102
}
330
3B
100
AcDbScale
 70
     0
300
4:1
140
4.0
141
1.0
290
     0
  0
SCALE
  5
4A
102
{ACAD_REACTORS
330
3B
102
}
330
3B
100
AcDbScale
 70
     0
300
8:1
140
8.0
141
1.0
290
     0
  0
SCALE
  5
4B
102
{ACAD_REACTORS
330
3B
102
}
330
3B
100
AcDbScale
 70
     0
300
10:1
140
10.0
141
1.0
290
     0
  0
SCALE
  5
4C
102
{ACAD_REACTORS
330
3B
102
}
330
3B
100
AcDbScale
 70
     0
300
100:1
140
100.0
141
1.0
290
     0
  0
SCALE
  5
4D
102
{ACAD_REACTORS
330
3B
102
}
330
3B
100
AcDbScale
 70
     0
300
1/128" = 1'-0"
140
0.0078125
141
12.0
290
     0
  0
SCALE
  5
4E
102
{ACAD_REACTORS
330
3B
102
}
330
3B
100
AcDbScale
 70
     0
300
1/64" = 1'-0"
140
0.015625
141
12.0
290
     0
  0
SCALE
  5
4F
102
{ACAD_REACTORS
330
3B
102
}
330
3B
100
AcDbScale
 70
     0
300
1/32" = 1'-0"
140
0.03125
141
12.0
290
     0
  0
SCALE
  5
50
102
{ACAD_REACTORS
330
3B
102
}
330
3B
100
AcDbScale
 70
     0
300
1/16" = 1'-0"
140
0.0625
141
12.0
290
     0
  0
SCALE
  5
51
102
{ACAD_REACTORS
330
3B
102
}
330
3B
100
AcDbScale
 70
     0
300
3/32" = 1'-0"
140
0.09375
141
12.0
290
     0
  0
SCALE
  5
52
102
{ACAD_REACTORS
330
3B
102
}
330
3B
100
AcDbScale
 70
     0
300
1/8" = 1'-0"
140
0.125
141
12.0
290
     0
  0
SCALE
  5
53
102
{ACAD_REACTORS
330
3B
102
}
330
3B
100
AcDbScale
 70
     0
300
3/16" = 1'-0"
140
0.1875
141
12.0
290
     0
  0
SCALE
  5
54
102
{ACAD_REACTORS
330
3B
102
}
330
3B
100
AcDbScale
 70
     0
300
1/4" = 1'-0"
140
0.25
141
12.0
290
     0
  0
SCALE
  5
55
102
{ACAD_REACTORS
330
3B
102
}
330
3B
100
AcDbScale
 70
     0
300
3/8" = 1'-0"
140
0.375
141
12.0
290
     0
  0
SCALE
  5
56
102
{ACAD_REACTORS
330
3B
102
}
330
3B
100
AcDbScale
 70
     0
300
1/2" = 1'-0"
140
0.5
141
12.0
290
     0
  0
SCALE
  5
57
102
{ACAD_REACTORS
330
3B
102
}
330
3B
100
AcDbScale
 70
     0
300
3/4" = 1'-0"
140
0.75
141
12.0
290
     0
  0
SCALE
  5
58
102
{ACAD_REACTORS
330
3B
102
}
330
3B
100
AcDbScale
 70
     0
300
1" = 1'-0"
140
1.0
141
12.0
290
     0
  0
SCALE
  5
59
102
{ACAD_REACTORS
330
3B
102
}
330
3B
100
AcDbScale
 70
     0
300
1-1/2" = 1'-0"
140
1.5
141
12.0
290
     0
  0
SCALE
  5
5A
102
{ACAD_REACTORS
330
3B
102
}
330
3B
100
AcDbScale
 70
     0
300
3" = 1'-0"
140
3.0
141
12.0
290
     0
  0
SCALE
  5
5B
102
{ACAD_REACTORS
330
3B
102
}
330
3B
100
AcDbScale
 70
     0
300
6" = 1'-0"
140
6.0
141
12.0
290
     0
  0
SCALE
  5
5C
102
{ACAD_REACTORS
330
3B
102
}
330
3B
100
AcDbScale
 70
     0
300
1'-0" = 1'-0"
140
12.0
141
12.0
290
     0
  0
VISUALSTYLE
  5
2F
102
{ACAD_REACTORS
330
2A
102
}
330
2A
100
AcDbVisualStyle
  2
2dWireframe
 70
     4
 71
     0
 72
     2
 73
     0
 90
        0
 40
-0.6
 41
-30.0
 62
     5
 63
     7
 74
     1
 91
        4
 64
     7
 65
   257
 75
     1
175
     1
 42
1.0
 92
        0
 66
   257
 43
1.0
 76
     1
 77
     6
 78
     2
 67
     7
 79
     5
170
     0
171
     0
290
     0
174
     0
 93
        1
 44
0.0
173
     0
291
     0
 45
0.0
1001
ACAD
1000
AcDbSavedByObjectVersion
1070
     0
  0
VISUALSTYLE
  5
31
102
{ACAD_REACTORS
330
2A
102
}
330
2A
100
AcDbVisualStyle
  2
3D Hidden
 70
     6
 71
     1
 72
     2
 73
     2
 90
        0
 40
-0.6
 41
-30.0
 62
     5
 63
     7
 74
     2
 91
        2
 64
     7
 65
   257
 75
     2
175
     1
 42
40.0
 92
        0
 66
   257
 43
1.0
 76
     1
 77
     6
 78
     2
 67
     7
 79
     3
170
     0
171
     0
290
     0
174
     0
 93
        1
 44
0.0
173
     0
291
     0
 45
0.0
1001
ACAD
1000
AcDbSavedByObjectVersion
1070
     0
  0
VISUALSTYLE
  5
30
102
{ACAD_REACTORS
330
2A
102
}
330
2A
100
AcDbVisualStyle
  2
3dWireframe
 70
     5
 71
     0
 72
     2
 73
     0
 90
        0
 40
-0.6
 41
-30.0
 62
     5
 63
     7
 74
     1
 91
        4
 64
     7
 65
   257
 75
     1
175
     1
 42
1.0
 92
        0
 66
   257
 43
1.0
 76
     1
 77
     6
 78
     2
 67
     7
 79
     5
170
     0
171
     0
290
     0
174
     0
 93
        1
 44
0.0
173
     0
291
     0
 45
0.0
1001
ACAD
1000
AcDbSavedByObjectVersion
1070
     0
  0
VISUALSTYLE
  5
32
102
{ACAD_REACTORS
330
2A
102
}
330
2A
100
AcDbVisualStyle
  2
Basic
 70
     7
 71
     1
 72
     0
 73
     1
 90
        0
 40
-0.6
 41
-30.0
 62
     5
 63
     7
 74
     0
 91
        4
 64
     7
 65
   257
 75
     1
175
     1
 42
1.0
 92
        8
 66
     7
 43
1.0
 76
     1
 77
     6
 78
     2
 67
     7
 79
     5
170
     0
171
     0
290
     0
174
     0
 93
        1
 44
0.0
173
     0
291
     1
 45
0.0
1001
ACAD
1000
AcDbSavedByObjectVersion
1070
     0
  0
VISUALSTYLE
  5
36
102
{ACAD_REACTORS
330
2A
102
}
330
2A
100
AcDbVisualStyle
  2
Brighten
 70
    12
 71
     2
 72
     2
 73
     0
 90
        0
 40
-0.6
 41
-30.0
 62
     5
 63
     7
 74
     1
 91
        4
 64
     7
 65
   257
 75
     1
175
     1
 42
1.0
 92
        8
 66
     7
 43
1.0
 76
     1
 77
     6
 78
     2
 67
     7
 79
     5
170
     0
171
     0
290
     0
174
     0
 93
        1
 44
50.0
173
     0
291
     1
 45
0.0
1001
ACAD
1000
AcDbSavedByObjectVersion
1070
     0
  0
VISUALSTYLE
  5
3A
102
{ACAD_REACTORS
330
2A
102
}
330
2A
100
AcDbVisualStyle
  2
ColorChange
 70
    16
 71
     2
 72
     2
 73
     3
 90
        0
 40
-0.6
 41
-30.0
 62
     5
 63
     8
 74
     1
 91
        4
 64
     7
 65
   257
 75
     1
175
     1
 42
1.0
 92
        8
 66
     8
 43
1.0
 76
     1
 77
     6
 78
     2
 67
     7
 79
     5
170
     0
171
     0
290
     0
174
     0
 93
        1
 44
0.0
173
     0
291
     1
 45
0.0
1001
ACAD
1000
AcDbSavedByObjectVersion
1070
     0
  0
VISUALSTYLE
  5
34
102
{ACAD_REACTORS
330
2A
102
}
330
2A
100
AcDbVisualStyle
  2
Conceptual
 70
     9
 71
     3
 72
     2
 73
     0
 90
        0
 40
-0.6
 41
-30.0
 62
     5
 63
     7
 74
     2
 91
        2
 64
     7
 65
   257
 75
     1
175
     1
 42
40.0
 92
        8
 66
     7
 43
1.0
 76
     1
 77
     6
 78
     2
 67
     7
 79
     3
170
     0
171
     0
290
     0
174
     0
 93
        1
 44
0.0
173
     0
291
     0
 45
0.0
1001
ACAD
1000
AcDbSavedByObjectVersion
1070
     0
  0
VISUALSTYLE
  5
35
102
{ACAD_REACTORS
330
2A
102
}
330
2A
100
AcDbVisualStyle
  2
Dim
 70
    11
 71
     2
 72
     2
 73
     0
 90
        0
 40
-0.6
 41
-30.0
 62
     5
 63
     7
 74
     1
 91
        4
 64
     7
 65
   257
 75
     1
175
     1
 42
1.0
 92
        8
 66
     7
 43
1.0
 76
     1
 77
     6
 78
     2
 67
     7
 79
     5
170
     0
171
     0
290
     0
174
     0
 93
        1
 44
-50.0
173
     0
291
     1
 45
0.0
1001
ACAD
1000
AcDbSavedByObjectVersion
1070
     0
  0
VISUALSTYLE
  5
39
102
{ACAD_REACTORS
330
2A
102
}
330
2A
100
AcDbVisualStyle
  2
Facepattern
 70
    15
 71
     2
 72
     2
 73
     0
 90
        0
 40
-0.6
 41
-30.0
 62
     5
 63
     7
 74
     1
 91
        4
 64
     7
 65
   257
 75
     1
175
     1
 42
1.0
 92
        8
 66
     7
 43
1.0
 76
     1
 77
     6
 78
     2
 67
     7
 79
     5
170
     0
171
     0
290
     0
174
     0
 93
        1
 44
0.0
173
     0
291
     1
 45
0.0
1001
ACAD
1000
AcDbSavedByObjectVersion
1070
     0
  0
VISUALSTYLE
  5
2B
102
{ACAD_REACTORS
330
2A
102
}
330
2A
100
AcDbVisualStyle
  2
Flat
 70
     0
 71
     2
 72
     1
 73
     1
 90
        2
 40
-0.6
 41
30.0
 62
     5
 63
     7
 74
     0
 91
        4
 64
     7
 65
   257
 75
     1
175
     1
 42
1.0
 92
        8
 66
     7
 43
1.0
 76
     1
 77
     6
 78
     2
 67
     7
 79
     5
170
     0
171
     0
290
     0
174
     0
 93
       13
 44
0.0
173
     0
291
     1
 45
0.0
1001
ACAD
1000
AcDbSavedByObjectVersion
1070
     0
  0
VISUALSTYLE
  5
2C
102
{ACAD_REACTORS
330
2A
102
}
330
2A
100
AcDbVisualStyle
  2
FlatWithEdges
 70
     1
 71
     2
 72
     1
 73
     1
 90
        2
 40
-0.6
 41
30.0
 62
     5
 63
     7
 74
     1
 91
        4
 64
     7
 65
   257
 75
     1
175
     1
 42
1.0
 92
        0
 66
   257
 43
1.0
 76
     1
 77
     6
 78
     2
 67
     7
 79
     5
170
     0
171
     0
290
     0
174
     0
 93
       13
 44
0.0
173
     0
291
     1
 45
0.0
1001
ACAD
1000
AcDbSavedByObjectVersion
1070
     0
  0
VISUALSTYLE
  5
2D
102
{ACAD_REACTORS
330
2A
102
}
330
2A
100
AcDbVisualStyle
  2
Gouraud
 70
     2
 71
     2
 72
     2
 73
     1
 90
        2
 40
-0.6
 41
30.0
 62
     5
 63
     7
 74
     0
 91
        4
 64
     7
 65
   257
 75
     1
175
     1
 42
1.0
 92
        0
 66
     7
 43
1.0
 76
     1
 77
     6
 78
     2
 67
     7
 79
     5
170
     0
171
     0
290
     0
174
     0
 93
       13
 44
0.0
173
     0
291
     1
 45
0.0
1001
ACAD
1000
AcDbSavedByObjectVersion
1070
     0
  0
VISUALSTYLE
  5
2E
102
{ACAD_REACTORS
330
2A
102
}
330
2A
100
AcDbVisualStyle
  2
GouraudWithEdges
 70
     3
 71
     2
 72
     2
 73
     1
 90
        2
 40
-0.6
 41
30.0
 62
     5
 63
     7
 74
     1
 91
        4
 64
     7
 65
   257
 75
     1
175
     1
 42
1.0
 92
        0
 66
   257
 43
1.0
 76
     1
 77
     6
 78
     2
 67
     7
 79
     5
170
     0
171
     0
290
     0
174
     0
 93
       13
 44
0.0
173
     0
291
     1
 45
0.0
1001
ACAD
1000
AcDbSavedByObjectVersion
1070
     0
  0
VISUALSTYLE
  5
38
102
{ACAD_REACTORS
330
2A
102
}
330
2A
100
AcDbVisualStyle
  2
Linepattern
 70
    14
 71
     2
 72
     2
 73
     0
 90
        0
 40
-0.6
 41
-30.0
 62
     5
 63
     7
 74
     1
 91
        4
 64
     7
 65
   257
 75
     7
175
     7
 42
1.0
 92
        8
 66
     7
 43
1.0
 76
     1
 77
     6
 78
     2
 67
     7
 79
     5
170
     0
171
     0
290
     0
174
     0
 93
        1
 44
0.0
173
     0
291
     1
 45
0.0
1001
ACAD
1000
AcDbSavedByObjectVersion
1070
     0
  0
VISUALSTYLE
  5
33
102
{ACAD_REACTORS
330
2A
102
}
330
2A
100
AcDbVisualStyle
  2
Realistic
 70
     8
 71
     2
 72
     2
 73
     0
 90
        0
 40
-0.6
 41
-30.0
 62
     5
 63
     7
 74
     1
 91
        0
 64
     7
 65
   257
 75
     1
175
     1
 42
1.0
 92
        8
 66
     8
 43
1.0
 76
     1
 77
     6
 78
     2
 67
     7
 79
     5
170
     0
171
     0
290
     0
174
     0
 93
       13
 44
0.0
173
     0
291
     0
 45
0.0
1001
ACAD
1000
AcDbSavedByObjectVersion
1070
     0
  0
VISUALSTYLE
  5
37
102
{ACAD_REACTORS
330
2A
102
}
330
2A
100
AcDbVisualStyle
  2
Thicken
 70
    13
 71
     2
 72
     2
 73
     0
 90
        0
 40
-0.6
 41
-30.0
 62
     5
 63
     7
 74
     1
 91
        4
 64
     7
 65
   257
 75
     1
175
     1
 42
1.0
 92
       12
 66
     7
 43
1.0
 76
     1
 77
     6
 78
     2
 67
     7
 79
     5
170
     0
171
     0
290
     0
174
     0
 93
        1
 44
0.0
173
     0
291
     1
 45
0.0
1001
ACAD
1000
AcDbSavedByObjectVersion
1070
     0
  0
DICTIONARYVAR
  5
3E2
102
{ACAD_REACTORS
330
3E1
102
}
330
3E1
100
DictionaryVariables
280
     0
  1
1:1
  0
DICTIONARYVAR
  5
3E6
102
{ACAD_REACTORS
330
3E1
102
}
330
3E1
100
DictionaryVariables
280
     0
  1
80.000000
  0
DICTIONARYVAR
  5
3E5
102
{ACAD_REACTORS
330
3E1
102
}
330
3E1
100
DictionaryVariables
280
     0
  1
5.000000
  0
ENDSEC
  0
EOF
