  0
SECTION
  2
HEADER
  9
$ACADVER
  1
AC1015
  9
$ACADMAINTVER
 70
     6
  9
$DWGCODEPAGE
  3
ANSI_1252
  9
$INSBASE
 10
0.0
 20
0.0
 30
0.0
  9
$EXTMIN
 10
0.0
 20
0.0
 30
0.0
  9
$EXTMAX
 10
1682.0
 20
2378.0
 30
0.0
  9
$LIMMIN
 10
0.0
 20
0.0
  9
$LIMMAX
 10
1682.0
 20
2378.0
  9
$ORTHOMODE
 70
     0
  9
$REGENMODE
 70
     1
  9
$FILLMODE
 70
     1
  9
$QTEXTMODE
 70
     0
  9
$MIRRTEXT
 70
     1
  9
$LTSCALE
 40
1.0
  9
$ATTMODE
 70
     1
  9
$TEXTSIZE
 40
2.5
  9
$TRACEWID
 40
1.0
  9
$TEXTSTYLE
  7
Standard
  9
$CLAYER
  8
0
  9
$CELTYPE
  6
ByLayer
  9
$CECOLOR
 62
   256
  9
$CELTSCALE
 40
1.0
  9
$DISPSILH
 70
     0
  9
$DIMSCALE
 40
1.0
  9
$DIMASZ
 40
2.5
  9
$DIMEXO
 40
0.625
  9
$DIMDLI
 40
3.75
  9
$DIMRND
 40
0.0
  9
$DIMDLE
 40
0.0
  9
$DIMEXE
 40
1.25
  9
$DIMTP
 40
0.0
  9
$DIMTM
 40
0.0
  9
$DIMTXT
 40
2.5
  9
$DIMCEN
 40
2.5
  9
$DIMTSZ
 40
0.0
  9
$DIMTOL
 70
     0
  9
$DIMLIM
 70
     0
  9
$DIMTIH
 70
     0
  9
$DIMTOH
 70
     0
  9
$DIMSE1
 70
     0
  9
$DIMSE2
 70
     0
  9
$DIMTAD
 70
     1
  9
$DIMZIN
 70
     8
  9
$DIMBLK
  1

  9
$DIMASO
 70
     1
  9
$DIMSHO
 70
     1
  9
$DIMPOST
  1

  9
$DIMAPOST
  1

  9
$DIMALT
 70
     0
  9
$DIMALTD
 70
     3
  9
$DIMALTF
 40
0.0393700787
  9
$DIMLFAC
 40
1.0
  9
$DIMTOFL
 70
     1
  9
$DIMTVP
 40
0.0
  9
$DIMTIX
 70
     0
  9
$DIMSOXD
 70
     0
  9
$DIMSAH
 70
     0
  9
$DIMBLK1
  1

  9
$DIMBLK2
  1

  9
$DIMSTYLE
  2
ISO-25
  9
$DIMCLRD
 70
     0
  9
$DIMCLRE
 70
     0
  9
$DIMCLRT
 70
     0
  9
$DIMTFAC
 40
1.0
  9
$DIMGAP
 40
0.625
  9
$DIMJUST
 70
     0
  9
$DIMSD1
 70
     0
  9
$DIMSD2
 70
     0
  9
$DIMTOLJ
 70
     0
  9
$DIMTZIN
 70
     8
  9
$DIMALTZ
 70
     0
  9
$DIMALTTZ
 70
     0
  9
$DIMUPT
 70
     0
  9
$DIMDEC
 70
     2
  9
$DIMTDEC
 70
     2
  9
$DIMALTU
 70
     2
  9
$DIMALTTD
 70
     3
  9
$DIMTXSTY
  7
Standard
  9
$DIMAUNIT
 70
     0
  9
$DIMADEC
 70
     0
  9
$DIMALTRND
 40
0.0
  9
$DIMAZIN
 70
     0
  9
$DIMDSEP
 70
    44
  9
$DIMATFIT
 70
     3
  9
$DIMFRAC
 70
     0
  9
$DIMLDRBLK
  1

  9
$DIMLUNIT
 70
     2
  9
$DIMLWD
 70
    -2
  9
$DIMLWE
 70
    -2
  9
$DIMTMOVE
 70
     0
  9
$LUNITS
 70
     2
  9
$LUPREC
 70
     4
  9
$SKETCHINC
 40
1.0
  9
$FILLETRAD
 40
10.0
  9
$AUNITS
 70
     0
  9
$AUPREC
 70
     0
  9
$MENU
  1
.
  9
$ELEVATION
 40
0.0
  9
$PELEVATION
 40
0.0
  9
$THICKNESS
 40
0.0
  9
$LIMCHECK
 70
     0
  9
$CHAMFERA
 40
10.0
  9
$CHAMFERB
 40
10.0
  9
$CHAMFERC
 40
20.0
  9
$CHAMFERD
 40
0.0
  9
$SKPOLY
 70
     0
  9
$TDCREATE
 40
2455497.637751574
  9
$TDUCREATE
 40
2455497.554418241
  9
$TDUPDATE
 40
2455497.637751586
  9
$TDUUPDATE
 40
2455497.554418252
  9
$TDINDWG
 40
0.0000000116
  9
$TDUSRTIMER
 40
0.0000000116
  9
$USRTIMER
 70
     1
  9
$ANGBASE
 50
0.0
  9
$ANGDIR
 70
     0
  9
$PDMODE
 70
     0
  9
$PDSIZE
 40
0.0
  9
$PLINEWID
 40
0.0
  9
$SPLFRAME
 70
     0
  9
$SPLINETYPE
 70
     6
  9
$SPLINESEGS
 70
     8
  9
$HANDSEED
  5
293
  9
$SURFTAB1
 70
     6
  9
$SURFTAB2
 70
     6
  9
$SURFTYPE
 70
     6
  9
$SURFU
 70
     6
  9
$SURFV
 70
     6
  9
$UCSBASE
  2

  9
$UCSNAME
  2

  9
$UCSORG
 10
0.0
 20
0.0
 30
0.0
  9
$UCSXDIR
 10
1.0
 20
0.0
 30
0.0
  9
$UCSYDIR
 10
0.0
 20
1.0
 30
0.0
  9
$UCSORTHOREF
  2

  9
$UCSORTHOVIEW
 70
     0
  9
$UCSORGTOP
 10
0.0
 20
0.0
 30
0.0
  9
$UCSORGBOTTOM
 10
0.0
 20
0.0
 30
0.0
  9
$UCSORGLEFT
 10
0.0
 20
0.0
 30
0.0
  9
$UCSORGRIGHT
 10
0.0
 20
0.0
 30
0.0
  9
$UCSORGFRONT
 10
0.0
 20
0.0
 30
0.0
  9
$UCSORGBACK
 10
0.0
 20
0.0
 30
0.0
  9
$PUCSBASE
  2

  9
$PUCSNAME
  2

  9
$PUCSORG
 10
0.0
 20
0.0
 30
0.0
  9
$PUCSXDIR
 10
1.0
 20
0.0
 30
0.0
  9
$PUCSYDIR
 10
0.0
 20
1.0
 30
0.0
  9
$PUCSORTHOREF
  2

  9
$PUCSORTHOVIEW
 70
     0
  9
$PUCSORGTOP
 10
0.0
 20
0.0
 30
0.0
  9
$PUCSORGBOTTOM
 10
0.0
 20
0.0
 30
0.0
  9
$PUCSORGLEFT
 10
0.0
 20
0.0
 30
0.0
  9
$PUCSORGRIGHT
 10
0.0
 20
0.0
 30
0.0
  9
$PUCSORGFRONT
 10
0.0
 20
0.0
 30
0.0
  9
$PUCSORGBACK
 10
0.0
 20
0.0
 30
0.0
  9
$USERI1
 70
     0
  9
$USERI2
 70
     0
  9
$USERI3
 70
     0
  9
$USERI4
 70
     0
  9
$USERI5
 70
     0
  9
$USERR1
 40
0.0
  9
$USERR2
 40
0.0
  9
$USERR3
 40
0.0
  9
$USERR4
 40
0.0
  9
$USERR5
 40
0.0
  9
$WORLDVIEW
 70
     1
  9
$SHADEDGE
 70
     3
  9
$SHADEDIF
 70
    70
  9
$TILEMODE
 70
     1
  9
$MAXACTVP
 70
    64
  9
$PINSBASE
 10
0.0
 20
0.0
 30
0.0
  9
$PLIMCHECK
 70
     0
  9
$PEXTMIN
 10
0.0
 20
0.0
 30
0.0
  9
$PEXTMAX
 10
1682.0
 20
2378.0
 30
0.0
  9
$PLIMMIN
 10
0.0
 20
0.0
  9
$PLIMMAX
 10
1682.0
 20
2378.0
  9
$UNITMODE
 70
     0
  9
$VISRETAIN
 70
     1
  9
$PLINEGEN
 70
     0
  9
$PSLTSCALE
 70
     1
  9
$TREEDEPTH
 70
  3020
  9
$CMLSTYLE
  2
Standard
  9
$CMLJUST
 70
     0
  9
$CMLSCALE
 40
20.0
  9
$PROXYGRAPHICS
 70
     1
  9
$MEASUREMENT
 70
     1
  9
$CELWEIGHT
370
    -1
  9
$ENDCAPS
280
     0
  9
$JOINSTYLE
280
     0
  9
$LWDISPLAY
290
     0
  9
$INSUNITS
 70
     4
  9
$HYPERLINKBASE
  1

  9
$STYLESHEET
  1

  9
$XEDIT
290
     1
  9
$CEPSNTYPE
380
     0
  9
$PSTYLEMODE
290
     1
  9
$FINGERPRINTGUID
  2
{94F8BDBD-01D5-42D5-95E5-2224AE799B37}
  9
$VERSIONGUID
  2
{FAEB1C32-E019-11D5-929B-00C0DF256EC4}
  9
$EXTNAMES
290
     1
  9
$PSVPSCALE
 40
0.0
  9
$OLESTARTUP
290
     0
  0
ENDSEC
  0
SECTION
  2
CLASSES
  0
CLASS
  1
ACDBDICTIONARYWDFLT
  2
AcDbDictionaryWithDefault
  3
ObjectDBX Classes
 90
        0
280
     0
281
     0
  0
CLASS
  1
VISUALSTYLE
  2
AcDbVisualStyle
  3
ObjectDBX Classes
 90
     4095
280
     0
281
     0
  0
CLASS
  1
SCALE
  2
AcDbScale
  3
ObjectDBX Classes
 90
     1153
280
     0
281
     0
  0
CLASS
  1
DICTIONARYVAR
  2
AcDbDictionaryVar
  3
ObjectDBX Classes
 90
        0
280
     0
281
     0
  0
CLASS
  1
ACDBPLACEHOLDER
  2
AcDbPlaceHolder
  3
ObjectDBX Classes
 90
        0
280
     0
281
     0
  0
CLASS
  1
LAYOUT
  2
AcDbLayout
  3
ObjectDBX Classes
 90
        0
280
     0
281
     0
  0
ENDSEC
  0
SECTION
  2
TABLES
  0
TABLE
  2
VPORT
  5
8
330
0
100
AcDbSymbolTable
 70
     1
  0
VPORT
  5
29
330
8
100
AcDbSymbolTableRecord
100
AcDbViewportTableRecord
  2
*Active
 70
     0
 10
0.0
 20
0.0
 11
1.0
 21
1.0
 12
344.1869158879
 22
148.5
 13
0.0
 23
0.0
 14
10.0
 24
10.0
 15
10.0
 25
10.0
 16
0.0
 26
0.0
 36
1.0
 17
0.0
 27
0.0
 37
0.0
 40
297.0
 41
1.9729729729
 42
50.0
 43
0.0
 44
0.0
 50
0.0
 51
0.0
 71
     0
 72
   100
 73
     1
 74
     3
 75
     0
 76
     0
 77
     0
 78
     0
281
     0
 65
     1
110
0.0
120
0.0
130
0.0
111
1.0
121
0.0
131
0.0
112
0.0
122
1.0
132
0.0
 79
     0
146
0.0
  0
ENDTAB
  0
TABLE
  2
LTYPE
  5
5
330
0
100
AcDbSymbolTable
 70
     2
  0
LTYPE
  5
14
330
5
100
AcDbSymbolTableRecord
100
AcDbLinetypeTableRecord
  2
ByBlock
 70
     0
  3

 72
    65
 73
     0
 40
0.0
  0
LTYPE
  5
15
330
5
100
AcDbSymbolTableRecord
100
AcDbLinetypeTableRecord
  2
ByLayer
 70
     0
  3

 72
    65
 73
     0
 40
0.0
  0
LTYPE
  5
16
330
5
100
AcDbSymbolTableRecord
100
AcDbLinetypeTableRecord
  2
Continuous
 70
     0
  3
Solid line
 72
    65
 73
     0
 40
0.0
  0
LTYPE
  5
60
330
5
100
AcDbSymbolTableRecord
100
AcDbLinetypeTableRecord
  2
CENTER2
 70
     0
  3
Center (.5x) ___ _ ___ _ ___ _ ___ _ ___ _ ___
 72
    65
 73
     4
 40
28.575
 49
19.05
 74
     4
 75
     0
340
0
 46
0.0
 50
0.0
 44
0.0
 45
0.0
 49
-3.175
 74
     4
 75
     0
340
0
 46
0.0
 50
0.0
 44
0.0
 45
0.0
 49
3.175
 74
     4
 75
     0
340
0
 46
0.0
 50
0.0
 44
0.0
 45
0.0
 49
-3.175
 74
     4
 75
     0
340
0
 46
0.0
 50
0.0
 44
0.0
 45
0.0
  0
ENDTAB
  0
TABLE
  2
LAYER
  5
2
330
0
100
AcDbSymbolTable
 70
    17
  0
LAYER
  5
10
330
2
100
AcDbSymbolTableRecord
100
AcDbLayerTableRecord
  2
0
 70
     0
 62
     7
  6
Continuous
370
    -3
390
F
  0
LAYER
  5
5D
330
2
100
AcDbSymbolTableRecord
100
AcDbLayerTableRecord
  2
Default
 70
     0
 62
     7
  6
Continuous
370
    -3
390
F
  0
LAYER
  5
77
330
2
100
AcDbSymbolTableRecord
100
AcDbLayerTableRecord
  2
$DDT_AUDIT_GENERATED_(77)
 70
     0
 62
     7
  6
Continuous
370
    -3
390
F
  0
LAYER
  5
82
330
2
100
AcDbSymbolTableRecord
100
AcDbLayerTableRecord
  2
$DDT_AUDIT_GENERATED_(82)
 70
     0
 62
     7
  6
Continuous
370
    -3
390
F
  0
LAYER
  5
8B
330
2
100
AcDbSymbolTableRecord
100
AcDbLayerTableRecord
  2
$DDT_AUDIT_GENERATED_(8B)
 70
     0
 62
     7
  6
Continuous
370
    -3
390
F
  0
LAYER
  5
93
330
2
100
AcDbSymbolTableRecord
100
AcDbLayerTableRecord
  2
$DDT_AUDIT_GENERATED_(93)
 70
     0
 62
     7
  6
Continuous
370
    -3
390
F
  0
LAYER
  5
CD
330
2
100
AcDbSymbolTableRecord
100
AcDbLayerTableRecord
  2
$DDT_AUDIT_GENERATED_(CD)
 70
     0
 62
     7
  6
Continuous
370
    -3
390
F
  0
LAYER
  5
D0
330
2
100
AcDbSymbolTableRecord
100
AcDbLayerTableRecord
  2
$DDT_AUDIT_GENERATED_(D0)
 70
     0
 62
     7
  6
Continuous
370
    -3
390
F
  0
LAYER
  5
DE
330
2
100
AcDbSymbolTableRecord
100
AcDbLayerTableRecord
  2
$DDT_AUDIT_GENERATED_(DE)
 70
     0
 62
     7
  6
Continuous
370
    -3
390
F
  0
LAYER
  5
EA
330
2
100
AcDbSymbolTableRecord
100
AcDbLayerTableRecord
  2
$DDT_AUDIT_GENERATED_(EA)
 70
     0
 62
     7
  6
Continuous
370
    -3
390
F
  0
LAYER
  5
F8
330
2
100
AcDbSymbolTableRecord
100
AcDbLayerTableRecord
  2
$DDT_AUDIT_GENERATED_(F8)
 70
     0
 62
     7
  6
Continuous
370
    -3
390
F
  0
LAYER
  5
102
330
2
100
AcDbSymbolTableRecord
100
AcDbLayerTableRecord
  2
$DDT_AUDIT_GENERATED_(102)
 70
     0
 62
     7
  6
Continuous
370
    -3
390
F
  0
LAYER
  5
1B2
330
2
100
AcDbSymbolTableRecord
100
AcDbLayerTableRecord
  2
$DDT_AUDIT_GENERATED_(1B2)
 70
     0
 62
     7
  6
Continuous
370
    -3
390
F
  0
LAYER
  5
1CD
330
2
100
AcDbSymbolTableRecord
100
AcDbLayerTableRecord
  2
$DDT_AUDIT_GENERATED_(1CD)
 70
     0
 62
     7
  6
Continuous
370
    -3
390
F
  0
LAYER
  5
1E6
330
2
100
AcDbSymbolTableRecord
100
AcDbLayerTableRecord
  2
$DDT_AUDIT_GENERATED_(1E6)
 70
     0
 62
     7
  6
Continuous
370
    -3
390
F
  0
LAYER
  5
1F6
330
2
100
AcDbSymbolTableRecord
100
AcDbLayerTableRecord
  2
$DDT_AUDIT_GENERATED_(1F6)
 70
     0
 62
     7
  6
Continuous
370
    -3
390
F
  0
LAYER
  5
21B
330
2
100
AcDbSymbolTableRecord
100
AcDbLayerTableRecord
  2
$DDT_AUDIT_GENERATED_(21B)
 70
     0
 62
     7
  6
Continuous
370
    -3
390
F
  0
ENDTAB
  0
TABLE
  2
STYLE
  5
3
330
0
100
AcDbSymbolTable
 70
     2
  0
STYLE
  5
11
330
3
100
AcDbSymbolTableRecord
100
AcDbTextStyleTableRecord
  2
Standard
 70
     0
 40
0.0
 41
1.0
 50
0.0
 71
     0
 42
2.5
  3
txt
  4

  0
STYLE
  5
282
330
3
100
AcDbSymbolTableRecord
100
AcDbTextStyleTableRecord
  2
SEACAD_seiso_ttf
 70
     0
 40
0.0
 41
1.0
 50
0.0
 71
     0
 42
0.2
  3
seiso.ttf
  4

  0
ENDTAB
  0
TABLE
  2
VIEW
  5
6
330
0
100
AcDbSymbolTable
 70
     0
  0
ENDTAB
  0
TABLE
  2
UCS
  5
7
330
0
100
AcDbSymbolTable
 70
     0
  0
ENDTAB
  0
TABLE
  2
APPID
  5
9
330
0
100
AcDbSymbolTable
 70
     1
  0
APPID
  5
12
330
9
100
AcDbSymbolTableRecord
100
AcDbRegAppTableRecord
  2
ACAD
 70
     0
  0
ENDTAB
  0
TABLE
  2
DIMSTYLE
  5
A
330
0
100
AcDbSymbolTable
 70
     1
100
AcDbDimStyleTable
  0
DIMSTYLE
105
27
330
A
100
AcDbSymbolTableRecord
100
AcDbDimStyleTableRecord
  2
ISO-25
 70
     0
 41
2.5
 42
0.625
 43
3.75
 44
1.25
 73
     0
 74
     0
 77
     1
 78
     8
140
2.5
141
2.5
143
0.0393700787
147
0.625
171
     3
172
     1
271
     2
272
     2
274
     3
278
    44
283
     0
284
     8
340
11
  0
ENDTAB
  0
TABLE
  2
BLOCK_RECORD
  5
1
330
0
100
AcDbSymbolTable
 70
     7
  0
BLOCK_RECORD
  5
1F
330
1
100
AcDbSymbolTableRecord
100
AcDbBlockTableRecord
  2
*Model_Space
340
22
  0
BLOCK_RECORD
  5
1B
330
1
100
AcDbSymbolTableRecord
100
AcDbBlockTableRecord
  2
*Paper_Space
340
1E
  0
BLOCK_RECORD
  5
5E
330
1
100
AcDbSymbolTableRecord
100
AcDbBlockTableRecord
  2
SEANNOT_GROUP
340
0
102
{BLKREFS
331
5F
102
}
  0
BLOCK_RECORD
  5
65
330
1
100
AcDbSymbolTableRecord
100
AcDbBlockTableRecord
  2
SEANNOT_GROUP1
340
0
102
{BLKREFS
331
66
102
}
  0
BLOCK_RECORD
  5
6B
330
1
100
AcDbSymbolTableRecord
100
AcDbBlockTableRecord
  2
SEANNOT_GROUP2
340
0
102
{BLKREFS
331
6C
102
}
  0
BLOCK_RECORD
  5
75
330
1
100
AcDbSymbolTableRecord
100
AcDbBlockTableRecord
  2
SE
340
0
102
{BLKREFS
331
76
102
}
  0
BLOCK_RECORD
  5
1B8
330
1
100
AcDbSymbolTableRecord
100
AcDbBlockTableRecord
  2
SE1
340
0
102
{BLKREFS
331
1B9
102
}
  0
BLOCK_RECORD
  5
228
330
1
100
AcDbSymbolTableRecord
100
AcDbBlockTableRecord
  2
SE2
340
0
102
{BLKREFS
331
229
102
}
  0
ENDTAB
  0
ENDSEC
  0
SECTION
  2
BLOCKS
  0
BLOCK
  5
20
330
1F
100
AcDbEntity
  8
0
100
AcDbBlockBegin
  2
*Model_Space
 70
     0
 10
0.0
 20
0.0
 30
0.0
  3
*Model_Space
  1

  0
ENDBLK
  5
21
330
1F
100
AcDbEntity
  8
0
100
AcDbBlockEnd
  0
BLOCK
  5
1C
330
1B
100
AcDbEntity
 67
     1
  8
0
100
AcDbBlockBegin
  2
*Paper_Space
 70
     0
 10
0.0
 20
0.0
 30
0.0
  3
*Paper_Space
  1

  0
ENDBLK
  5
1D
330
1B
100
AcDbEntity
 67
     1
  8
0
100
AcDbBlockEnd
  0
BLOCK
  5
63
330
5E
100
AcDbEntity
  8
0
100
AcDbBlockBegin
  2
SEANNOT_GROUP
 70
     0
 10
0.0
 20
0.0
 30
0.0
  3
SEANNOT_GROUP
  1

  0
LINE
  5
61
330
5E
100
AcDbEntity
  8
Default
  6
CENTER2
 62
     7
100
AcDbLine
 10
147.1184022921
 20
455.7879106741
 30
0.0
 11
107.1184031862
 21
455.7879106741
 31
0.0
  0
LINE
  5
62
330
5E
100
AcDbEntity
  8
Default
  6
CENTER2
 62
     7
100
AcDbLine
 10
127.1184027391
 20
475.7879102271
 30
0.0
 11
127.1184027391
 21
435.7879111211
 31
0.0
  0
ENDBLK
  5
64
330
5E
100
AcDbEntity
  8
0
100
AcDbBlockEnd
  0
BLOCK
  5
69
330
65
100
AcDbEntity
  8
0
100
AcDbBlockBegin
  2
SEANNOT_GROUP1
 70
     0
 10
0.0
 20
0.0
 30
0.0
  3
SEANNOT_GROUP1
  1

  0
LINE
  5
67
330
65
100
AcDbEntity
  8
Default
  6
CENTER2
 62
     7
100
AcDbLine
 10
380.9103342447
 20
455.7879106741
 30
0.0
 11
340.9103351387
 21
455.7879106741
 31
0.0
  0
LINE
  5
68
330
65
100
AcDbEntity
  8
Default
  6
CENTER2
 62
     7
100
AcDbLine
 10
360.9103346917
 20
475.7879102271
 30
0.0
 11
360.9103346917
 21
435.7879111211
 31
0.0
  0
ENDBLK
  5
6A
330
65
100
AcDbEntity
  8
0
100
AcDbBlockEnd
  0
BLOCK
  5
73
330
6B
100
AcDbEntity
  8
0
100
AcDbBlockBegin
  2
SEANNOT_GROUP2
 70
     0
 10
0.0
 20
0.0
 30
0.0
  3
SEANNOT_GROUP2
  1

  0
LINE
  5
6D
330
6B
100
AcDbEntity
  8
Default
  6
CENTER2
 62
     7
100
AcDbLine
 10
147.1184022921
 20
270.3865790813
 30
0.0
 11
107.1184031862
 21
270.3865790813
 31
0.0
  0
LINE
  5
6E
330
6B
100
AcDbEntity
  8
Default
  6
CENTER2
 62
     7
100
AcDbLine
 10
127.1184027391
 20
290.3865786343
 30
0.0
 11
127.1184027391
 21
250.3865795283
 31
0.0
  0
LINE
  5
6F
330
6B
100
AcDbEntity
  8
Default
  6
CENTER2
 62
     7
100
AcDbLine
 10
152.1184021804
 20
270.3865790813
 30
0.0
 11
158.1184027391
 21
270.3865790813
 31
0.0
  0
LINE
  5
70
330
6B
100
AcDbEntity
  8
Default
  6
CENTER2
 62
     7
100
AcDbLine
 10
127.1184027391
 20
295.3865785225
 30
0.0
 11
127.1184027391
 21
301.3865790813
 31
0.0
  0
LINE
  5
71
330
6B
100
AcDbEntity
  8
Default
  6
CENTER2
 62
     7
100
AcDbLine
 10
102.1184032979
 20
270.3865790813
 30
0.0
 11
96.1184027391
 21
270.3865790813
 31
0.0
  0
LINE
  5
72
330
6B
100
AcDbEntity
  8
Default
  6
CENTER2
 62
     7
100
AcDbLine
 10
127.1184027391
 20
245.3865796401
 30
0.0
 11
127.1184027391
 21
239.3865790813
 31
0.0
  0
ENDBLK
  5
74
330
6B
100
AcDbEntity
  8
0
100
AcDbBlockEnd
  0
BLOCK
  5
1B6
330
75
100
AcDbEntity
  8
0
100
AcDbBlockBegin
  2
SE
 70
     0
 10
0.0
 20
0.0
 30
0.0
  3
SE
  1

  0
SPLINE
  5
78
330
75
100
AcDbEntity
  8
$DDT_AUDIT_GENERATED_(77)
  6
Continuous
 62
     7
100
AcDbSpline
210
0.0
220
0.0
230
1.0
 70
     8
 71
     3
 72
    14
 73
    10
 74
     0
 42
0.000000000134719
 43
0.0000000001
 40
0.3921239039889711
 40
0.3921239039889711
 40
0.3921239039889711
 40
0.3921239039889711
 40
0.4374999999999996
 40
0.4374999999999996
 40
0.4999999999999997
 40
0.4999999999999997
 40
0.5624999999999997
 40
0.5624999999999997
 40
0.6074407493303214
 40
0.6074407493303214
 40
0.6074407493303214
 40
0.6074407493303214
 10
119.0924195654991
 20
637.786959787071
 30
0.0
 10
120.1342286627508
 20
637.7318898979474
 30
0.0
 10
121.228429625963
 20
637.7104000988483
 30
0.0
 10
123.9006441675568
 20
637.6841969396451
 30
0.0
 10
125.4822954526204
 20
637.6879106751404
 30
0.0
 10
128.7136043264642
 20
637.6879106727702
 30
0.0
 10
130.2970444289296
 20
637.6842357396247
 30
0.0
 10
132.9526692578083
 20
637.7095600274464
 30
0.0
 10
134.0396102034651
 20
637.7304821938939
 30
0.0
 10
135.0716129597601
 20
637.7832893811434
 30
0.0
  0
SPLINE
  5
79
330
75
100
AcDbEntity
  8
$DDT_AUDIT_GENERATED_(77)
  6
Continuous
 62
     7
100
AcDbSpline
210
0.0
220
0.0
230
1.0
 70
     8
 71
     3
 72
    14
 73
    10
 74
     0
 42
0.000000000134719
 43
0.0000000001
 40
0.392123903833158
 40
0.392123903833158
 40
0.392123903833158
 40
0.392123903833158
 40
0.4375000000000012
 40
0.4375000000000012
 40
0.5000000000000012
 40
0.5000000000000012
 40
0.5625000000000013
 40
0.5625000000000013
 40
0.6074407493760527
 40
0.6074407493760527
 40
0.6074407493760527
 40
0.6074407493760527
 10
135.1443859188843
 20
673.7888615606475
 30
0.0
 10
134.1025768189942
 20
673.8439314500553
 30
0.0
 10
133.0083758528789
 20
673.865421249207
 30
0.0
 10
130.3361613087782
 20
673.891624408388
 30
0.0
 10
128.7545100247919
 20
673.8879106729006
 30
0.0
 10
125.5232011537636
 20
673.8879106752709
 30
0.0
 10
123.9397610515723
 20
673.8915856084047
 30
0.0
 10
121.2841362235561
 20
673.8662613206474
 30
0.0
 10
120.1971952772666
 20
673.8453391542209
 30
0.0
 10
119.1651925204682
 20
673.7925319669915
 30
0.0
  0
LINE
  5
7A
330
75
100
AcDbEntity
  8
$DDT_AUDIT_GENERATED_(77)
  6
Continuous
 62
     7
100
AcDbLine
 10
109.1184027391
 20
596.7879106741
 30
0.0
 11
145.1184027391
 21
596.7879106741
 31
0.0
  0
LINE
  5
7B
330
75
100
AcDbEntity
  8
$DDT_AUDIT_GENERATED_(77)
  6
Continuous
 62
     7
100
AcDbLine
 10
109.6184027391
 20
683.7879106741
 30
0.0
 11
144.6184027391
 21
683.7879106741
 31
0.0
  0
LINE
  5
7C
330
75
100
AcDbEntity
  8
$DDT_AUDIT_GENERATED_(77)
  6
Continuous
 62
     7
100
AcDbLine
 10
145.1184027391
 20
673.7879106741
 30
0.0
 11
145.1184027391
 21
683.2879106741
 31
0.0
  0
LINE
  5
7D
330
75
100
AcDbEntity
  8
$DDT_AUDIT_GENERATED_(77)
  6
Continuous
 62
     7
100
AcDbLine
 10
145.1184027391
 20
596.7879106741
 30
0.0
 11
145.1184027391
 21
637.7879106741
 31
0.0
  0
LINE
  5
7E
330
75
100
AcDbEntity
  8
$DDT_AUDIT_GENERATED_(77)
  6
Continuous
 62
     7
100
AcDbLine
 10
109.1184027391
 20
637.7879106741
 30
0.0
 11
109.1184027391
 21
596.7879106741
 31
0.0
  0
LINE
  5
7F
330
75
100
AcDbEntity
  8
$DDT_AUDIT_GENERATED_(77)
  6
Continuous
 62
     7
100
AcDbLine
 10
109.1184027391
 20
683.2879106741
 30
0.0
 11
109.1184027391
 21
673.7879106741
 31
0.0
  0
ARC
  5
80
330
75
100
AcDbEntity
  8
$DDT_AUDIT_GENERATED_(77)
  6
Continuous
 62
     7
100
AcDbCircle
 10
144.6184027391
 20
683.2879106741
 30
0.0
 40
0.5000000000000004
100
AcDbArc
 50
0.0
 51
90.0
  0
ARC
  5
81
330
75
100
AcDbEntity
  8
$DDT_AUDIT_GENERATED_(77)
  6
Continuous
 62
     7
100
AcDbCircle
 10
109.6184027391
 20
683.2879106741
 30
0.0
 40
0.5000000000000004
100
AcDbArc
 50
90.0
 51
180.0
  0
LINE
  5
83
330
75
100
AcDbEntity
  8
$DDT_AUDIT_GENERATED_(82)
  6
Continuous
 62
     7
100
AcDbLine
 10
72.1184027391
 20
638.2879106741
 30
0.0
 11
72.1184027391
 21
673.2879106741
 31
0.0
  0
LINE
  5
84
330
75
100
AcDbEntity
  8
$DDT_AUDIT_GENERATED_(82)
  6
Continuous
 62
     7
100
AcDbLine
 10
182.1184027391
 20
673.2879106741
 30
0.0
 11
182.1184027391
 21
638.2879106741
 31
0.0
  0
ARC
  5
85
330
75
100
AcDbEntity
  8
$DDT_AUDIT_GENERATED_(82)
  6
Continuous
 62
     7
100
AcDbCircle
 10
72.6184027391
 20
673.2879106741
 30
0.0
 40
0.5000000000000004
100
AcDbArc
 50
90.0
 51
180.0
  0
ARC
  5
86
330
75
100
AcDbEntity
  8
$DDT_AUDIT_GENERATED_(82)
  6
Continuous
 62
     7
100
AcDbCircle
 10
72.6184027391
 20
638.2879106741
 30
0.0
 40
0.5000000000000004
100
AcDbArc
 50
180.0
 51
270.0
  0
ARC
  5
87
330
75
100
AcDbEntity
  8
$DDT_AUDIT_GENERATED_(82)
  6
Continuous
 62
     7
100
AcDbCircle
 10
181.6184027391
 20
673.2879106741
 30
0.0
 40
0.5000000000000004
100
AcDbArc
 50
0.0
 51
90.0
  0
ARC
  5
88
330
75
100
AcDbEntity
  8
$DDT_AUDIT_GENERATED_(82)
  6
Continuous
 62
     7
100
AcDbCircle
 10
181.6184027391
 20
638.2879106741
 30
0.0
 40
0.5000000000000004
100
AcDbArc
 50
270.0
 51
0.0
  0
LINE
  5
89
330
75
100
AcDbEntity
  8
$DDT_AUDIT_GENERATED_(82)
  6
Continuous
 62
     7
100
AcDbLine
 10
181.6184027391
 20
673.7879106741
 30
0.0
 11
72.6184027391
 21
673.7879106741
 31
0.0
  0
LINE
  5
8A
330
75
100
AcDbEntity
  8
$DDT_AUDIT_GENERATED_(82)
  6
Continuous
 62
     7
100
AcDbLine
 10
72.6184027391
 20
637.7879106741
 30
0.0
 11
181.6184027391
 21
637.7879106741
 31
0.0
  0
LINE
  5
8C
330
75
100
AcDbEntity
  8
$DDT_AUDIT_GENERATED_(8B)
  6
Continuous
 62
     7
100
AcDbLine
 10
68.1984027391
 20
641.4379106741
 30
0.0
 11
68.1984027391
 21
670.1379106741
 31
0.0
  0
LINE
  5
8D
330
75
100
AcDbEntity
  8
$DDT_AUDIT_GENERATED_(8B)
  6
Continuous
 62
     7
100
AcDbLine
 10
72.1184027391
 20
670.6379106741
 30
0.0
 11
68.6984027391
 21
670.6379106741
 31
0.0
  0
LINE
  5
8E
330
75
100
AcDbEntity
  8
$DDT_AUDIT_GENERATED_(8B)
  6
Continuous
 62
     7
100
AcDbLine
 10
68.6984027391
 20
640.9379106741
 30
0.0
 11
72.1184027391
 21
640.9379106741
 31
0.0
  0
LINE
  5
8F
330
75
100
AcDbEntity
  8
$DDT_AUDIT_GENERATED_(8B)
  6
Continuous
 62
     7
100
AcDbLine
 10
67.9984027391
 20
648.2879106741
 30
0.0
 11
68.1984027391
 21
648.2879106741
 31
0.0
  0
LINE
  5
90
330
75
100
AcDbEntity
  8
$DDT_AUDIT_GENERATED_(8B)
  6
Continuous
 62
     7
100
AcDbLine
 10
68.1984027391
 20
663.2879106741
 30
0.0
 11
67.9984027391
 21
663.2879106741
 31
0.0
  0
ARC
  5
91
330
75
100
AcDbEntity
  8
$DDT_AUDIT_GENERATED_(8B)
  6
Continuous
 62
     7
100
AcDbCircle
 10
68.6984027391
 20
670.1379106741
 30
0.0
 40
0.5000000000000004
100
AcDbArc
 50
90.0
 51
180.0
  0
ARC
  5
92
330
75
100
AcDbEntity
  8
$DDT_AUDIT_GENERATED_(8B)
  6
Continuous
 62
     7
100
AcDbCircle
 10
68.6984027391
 20
641.4379106741
 30
0.0
 40
0.5000000000000004
100
AcDbArc
 50
180.0
 51
270.0
  0
LINE
  5
94
330
75
100
AcDbEntity
  8
$DDT_AUDIT_GENERATED_(93)
  6
Continuous
 62
     7
100
AcDbLine
 10
67.9984027391
 20
646.0379106741
 30
0.0
 11
67.9984027391
 21
665.5379106741
 31
0.0
  0
ARC
  5
95
330
75
100
AcDbEntity
  8
$DDT_AUDIT_GENERATED_(93)
  6
Continuous
 62
     7
100
AcDbCircle
 10
52.4984027264
 20
673.0869247489
 30
0.0
 40
9.643008853318312
100
AcDbArc
 50
231.5221308857
 51
308.4778726016
  0
SPLINE
  5
96
330
75
100
AcDbEntity
  8
$DDT_AUDIT_GENERATED_(93)
  6
Continuous
 62
     7
100
AcDbSpline
210
0.0
220
0.0
230
1.0
 70
     8
 71
     3
 72
    14
 73
    10
 74
     0
 42
0.0000000002598618
 43
0.0000000001
 40
0.0
 40
0.0
 40
0.0
 40
0.0
 40
0.1250000000000001
 40
0.1250000000000001
 40
0.1875000000000001
 40
0.1875000000000001
 40
0.2500000000000001
 40
0.2500000000000001
 40
0.2506472005983312
 40
0.2506472005983312
 40
0.2506472005983312
 40
0.2506472005983312
 10
52.49840273914413
 20
657.141456559561
 30
0.0
 10
54.13027024626948
 20
657.141456559561
 30
0.0
 10
55.64742203633858
 20
656.2776971099997
 30
0.0
 10
57.26773132835111
 20
654.4927043503169
 30
0.0
 10
57.71059915854981
 20
653.8082158095791
 30
0.0
 10
58.32460696417391
 20
652.3820743134644
 30
0.0
 10
58.49505573773847
 20
651.636473084735
 30
0.0
 10
58.49838715709428
 20
650.9268075178746
 30
0.0
 10
58.4984032568605
 20
650.9195400457644
 30
0.0
 10
58.49840134413805
 20
650.9122785760538
 30
0.0
  0
SPLINE
  5
97
330
75
100
AcDbEntity
  8
$DDT_AUDIT_GENERATED_(93)
  6
Continuous
 62
     7
100
AcDbSpline
210
0.0
220
0.0
230
1.0
 70
     8
 71
     3
 72
    14
 73
    10
 74
     0
 42
0.000000000261539
 43
0.0000000001
 40
0.7505640454311336
 40
0.7505640454311336
 40
0.7505640454311336
 40
0.7505640454311336
 40
0.8125000000000002
 40
0.8125000000000002
 40
0.8750000000000001
 40
0.8750000000000001
 40
0.9375000000000001
 40
0.9375000000000001
 40
1.0
 40
1.0
 40
1.0
 40
1.0
 10
46.49840354845622
 20
650.912512040466
 30
0.0
 10
46.4983990827637
 20
651.6105938724652
 30
0.0
 10
46.66389907692785
 20
652.3526962948683
 30
0.0
 10
47.27081248524892
 20
653.7822221851821
 30
0.0
 10
47.71384786607524
 20
654.4725769669433
 30
0.0
 10
48.79733752179405
 20
655.672813476395
 30
0.0
 10
49.43529325764298
 20
656.1851167127963
 30
0.0
 10
50.87965519312249
 20
656.9255806644449
 30
0.0
 10
51.68246898558146
 20
657.141456559561
 30
0.0
 10
52.49840273914413
 20
657.141456559561
 30
0.0
  0
LINE
  5
98
330
75
100
AcDbEntity
  8
$DDT_AUDIT_GENERATED_(93)
  6
Continuous
 62
     7
100
AcDbLine
 10
44.9984027391
 20
646.5379106741
 30
0.0
 11
44.9984027391
 21
665.0379106741
 31
0.0
  0
ELLIPSE
  5
99
330
75
100
AcDbEntity
  8
$DDT_AUDIT_GENERATED_(93)
  6
Continuous
 62
     7
100
AcDbEllipse
 10
52.4984027391
 20
637.2879106741
 30
0.0
 11
6.000000000000005
 21
-4.510281037539698E-14
 31
0.0
210
0.0
220
0.0
230
1.0
 40
0.8660254038
 41
5.816142346775168
 42
6.283185307179573
  0
ELLIPSE
  5
9A
330
75
100
AcDbEntity
  8
$DDT_AUDIT_GENERATED_(93)
  6
Continuous
 62
     7
100
AcDbEllipse
 10
52.4984027391
 20
637.2879106741
 30
0.0
 11
6.000000000000005
 21
-4.510281037539698E-14
 31
0.0
210
0.0
220
0.0
230
1.0
 40
0.8660254038
 41
2.654334180156467
 42
3.621794613297769
  0
ELLIPSE
  5
9B
330
75
100
AcDbEntity
  8
$DDT_AUDIT_GENERATED_(93)
  6
Continuous
 62
     7
100
AcDbEllipse
 10
52.4984027391
 20
637.2879106741
 30
0.0
 11
6.000000000000005
 21
-4.510281037539698E-14
 31
0.0
210
0.0
220
0.0
230
1.0
 40
0.8660254038
 41
0.4671037930577724
 42
2.654334180156467
  0
ELLIPSE
  5
9C
330
75
100
AcDbEntity
  8
$DDT_AUDIT_GENERATED_(93)
  6
Continuous
 62
     7
100
AcDbEllipse
 10
52.4984027391
 20
637.2879106741
 30
0.0
 11
6.000000000000005
 21
-4.510281037539698E-14
 31
0.0
210
0.0
220
0.0
230
1.0
 40
0.8660254038
 41
0.0000000000000087
 42
0.4671037930577724
  0
LINE
  5
9D
330
75
100
AcDbEntity
  8
$DDT_AUDIT_GENERATED_(93)
  6
Continuous
 62
     7
100
AcDbLine
 10
46.9984027391
 20
693.2879106741
 30
0.0
 11
57.9984027391
 21
693.2879106741
 31
0.0
  0
LINE
  5
9E
330
75
100
AcDbEntity
  8
$DDT_AUDIT_GENERATED_(93)
  6
Continuous
 62
     7
100
AcDbLine
 10
46.4984027391
 20
692.7879106741
 30
0.0
 11
46.4984027391
 21
665.5296580544
 31
0.0
  0
LINE
  5
9F
330
75
100
AcDbEntity
  8
$DDT_AUDIT_GENERATED_(93)
  6
Continuous
 62
     7
100
AcDbLine
 10
58.4984027391
 20
665.5312770321
 30
0.0
 11
58.4984027391
 21
692.7879106741
 31
0.0
  0
LINE
  5
A0
330
75
100
AcDbEntity
  8
$DDT_AUDIT_GENERATED_(93)
  6
Continuous
 62
     7
100
AcDbLine
 10
58.4984027391
 20
637.2879106741
 30
0.0
 11
58.4984027391
 21
650.9170369839
 31
0.0
  0
LINE
  5
A1
330
75
100
AcDbEntity
  8
$DDT_AUDIT_GENERATED_(93)
  6
Continuous
 62
     7
100
AcDbLine
 10
46.4984027391
 20
650.9162274951
 30
0.0
 11
46.4984027391
 21
637.2879106741
 31
0.0
  0
LINE
  5
A2
330
75
100
AcDbEntity
  8
$DDT_AUDIT_GENERATED_(93)
  6
Continuous
 62
     7
100
AcDbLine
 10
45.4984027391
 20
646.0379106741
 30
0.0
 11
46.4984027391
 21
646.0379106741
 31
0.0
  0
LINE
  5
A3
330
75
100
AcDbEntity
  8
$DDT_AUDIT_GENERATED_(93)
  6
Continuous
 62
     7
100
AcDbLine
 10
58.4984027391
 20
646.0379106741
 30
0.0
 11
67.9984027391
 21
646.0379106741
 31
0.0
  0
LINE
  5
A4
330
75
100
AcDbEntity
  8
$DDT_AUDIT_GENERATED_(93)
  6
Continuous
 62
     7
100
AcDbLine
 10
46.5118714173
 20
665.5379106741
 30
0.0
 11
45.4984027391
 21
665.5379106741
 31
0.0
  0
LINE
  5
A5
330
75
100
AcDbEntity
  8
$DDT_AUDIT_GENERATED_(93)
  6
Continuous
 62
     7
100
AcDbLine
 10
67.9984027391
 20
665.5379106741
 30
0.0
 11
58.4875925271
 21
665.5379106741
 31
0.0
  0
ARC
  5
A6
330
75
100
AcDbEntity
  8
$DDT_AUDIT_GENERATED_(93)
  6
Continuous
 62
     7
100
AcDbCircle
 10
45.4984027391
 20
665.0379106741
 30
0.0
 40
0.5000000000000004
100
AcDbArc
 50
90.0
 51
180.0
  0
ARC
  5
A7
330
75
100
AcDbEntity
  8
$DDT_AUDIT_GENERATED_(93)
  6
Continuous
 62
     7
100
AcDbCircle
 10
45.4984027391
 20
646.5379106741
 30
0.0
 40
0.4999999999975024
100
AcDbArc
 50
180.0
 51
270.0
  0
ARC
  5
A8
330
75
100
AcDbEntity
  8
$DDT_AUDIT_GENERATED_(93)
  6
Continuous
 62
     7
100
AcDbCircle
 10
52.492641842
 20
638.4507548522
 30
0.0
 40
6.417480948209408
100
AcDbArc
 50
214.8166394651
 51
216.6484032217
  0
ARC
  5
A9
330
75
100
AcDbEntity
  8
$DDT_AUDIT_GENERATED_(93)
  6
Continuous
 62
     7
100
AcDbCircle
 10
52.492641842
 20
638.4507548522
 30
0.0
 40
6.417480948209408
100
AcDbArc
 50
267.3195726405
 51
271.513056548
  0
ARC
  5
AA
330
75
100
AcDbEntity
  8
$DDT_AUDIT_GENERATED_(93)
  6
Continuous
 62
     7
100
AcDbCircle
 10
52.492641842
 20
638.4507548522
 30
0.0
 40
6.417480948209408
100
AcDbArc
 50
323.8749885183
 51
325.3943515401
  0
ARC
  5
AB
330
75
100
AcDbEntity
  8
$DDT_AUDIT_GENERATED_(93)
  6
Continuous
 62
     7
100
AcDbCircle
 10
52.3501373941
 20
638.1398707596
 30
0.0
 40
6.116896946479519
100
AcDbArc
 50
212.6986969687
 51
271.388908564
  0
ARC
  5
AC
330
75
100
AcDbEntity
  8
$DDT_AUDIT_GENERATED_(93)
  6
Continuous
 62
     7
100
AcDbCircle
 10
52.6487347779
 20
638.1352612989
 30
0.0
 40
6.1123393218664
100
AcDbArc
 50
268.5906770691
 51
327.9975022597
  0
ARC
  5
AD
330
75
100
AcDbEntity
  8
$DDT_AUDIT_GENERATED_(93)
  6
Continuous
 62
     7
100
AcDbCircle
 10
46.9984027391
 20
692.7879106741
 30
0.0
 40
0.5000000000000004
100
AcDbArc
 50
90.0
 51
180.0
  0
ARC
  5
AE
330
75
100
AcDbEntity
  8
$DDT_AUDIT_GENERATED_(93)
  6
Continuous
 62
     7
100
AcDbCircle
 10
57.9984027391
 20
692.7879106741
 30
0.0
 40
0.5000000000000004
100
AcDbArc
 50
0.0
 51
90.0
  0
LINE
  5
AF
330
75
100
AcDbEntity
  8
$DDT_AUDIT_GENERATED_(8B)
  6
Continuous
 62
     7
100
AcDbLine
 10
186.0384027391
 20
670.1379106741
 30
0.0
 11
186.0384027391
 21
641.4379106741
 31
0.0
  0
LINE
  5
B0
330
75
100
AcDbEntity
  8
$DDT_AUDIT_GENERATED_(8B)
  6
Continuous
 62
     7
100
AcDbLine
 10
182.1184027391
 20
640.9379106741
 30
0.0
 11
185.5384027391
 21
640.9379106741
 31
0.0
  0
LINE
  5
B1
330
75
100
AcDbEntity
  8
$DDT_AUDIT_GENERATED_(8B)
  6
Continuous
 62
     7
100
AcDbLine
 10
185.5384027391
 20
670.6379106741
 30
0.0
 11
182.1184027391
 21
670.6379106741
 31
0.0
  0
LINE
  5
B2
330
75
100
AcDbEntity
  8
$DDT_AUDIT_GENERATED_(8B)
  6
Continuous
 62
     7
100
AcDbLine
 10
186.2384027392
 20
663.2879106741
 30
0.0
 11
186.0384027391
 21
663.2879106741
 31
0.0
  0
LINE
  5
B3
330
75
100
AcDbEntity
  8
$DDT_AUDIT_GENERATED_(8B)
  6
Continuous
 62
     7
100
AcDbLine
 10
186.0384027391
 20
648.2879106741
 30
0.0
 11
186.2384027392
 21
648.2879106741
 31
0.0
  0
ARC
  5
B4
330
75
100
AcDbEntity
  8
$DDT_AUDIT_GENERATED_(8B)
  6
Continuous
 62
     7
100
AcDbCircle
 10
185.5384027391
 20
641.4379106741
 30
0.0
 40
0.5000000000000004
100
AcDbArc
 50
270.0
 51
0.0
  0
ARC
  5
B5
330
75
100
AcDbEntity
  8
$DDT_AUDIT_GENERATED_(8B)
  6
Continuous
 62
     7
100
AcDbCircle
 10
185.5384027391
 20
670.1379106741
 30
0.0
 40
0.5000000000000004
100
AcDbArc
 50
0.0
 51
90.0
  0
LINE
  5
B6
330
75
100
AcDbEntity
  8
$DDT_AUDIT_GENERATED_(93)
  6
Continuous
 62
     7
100
AcDbLine
 10
186.2384027392
 20
665.5379106741
 30
0.0
 11
186.2384027392
 21
646.0379106741
 31
0.0
  0
SPLINE
  5
B7
330
75
100
AcDbEntity
  8
$DDT_AUDIT_GENERATED_(93)
  6
Continuous
 62
     7
100
AcDbSpline
210
0.0
220
0.0
230
1.0
 70
     8
 71
     3
 72
    22
 73
    18
 74
     0
 42
0.0000000002606264
 43
0.0000000001
 40
0.250647200598332
 40
0.250647200598332
 40
0.250647200598332
 40
0.250647200598332
 40
0.3124999999999999
 40
0.3124999999999999
 40
0.3749999999999999
 40
0.3749999999999999
 40
0.4374999999999999
 40
0.4374999999999999
 40
0.5
 40
0.5
 40
0.625
 40
0.625
 40
0.6875
 40
0.6875
 40
0.75
 40
0.75
 40
0.7505640454311323
 40
0.7505640454311323
 40
0.7505640454311323
 40
0.7505640454311323
 10
207.7384013441383
 20
650.9135443633552
 30
0.0
 10
207.7382185457316
 20
651.6076798818789
 30
0.0
 10
207.5735172929131
 20
652.3503688744227
 30
0.0
 10
206.967303851718
 20
653.7800289697624
 30
0.0
 10
206.5249198466392
 20
654.469039935623
 30
0.0
 10
205.4486400327722
 20
655.6640024427793
 30
0.0
 10
204.806234140418
 20
656.1803432968265
 30
0.0
 10
203.3794158161003
 20
656.9164746752746
 30
0.0
 10
202.57857341866
 20
657.1371681277951
 30
0.0
 10
200.1322813031896
 20
657.1498411748795
 30
0.0
 10
198.6061566665676
 20
656.292440447413
 30
0.0
 10
196.9721490825698
 20
654.4979395503779
 30
0.0
 10
196.5322995605864
 20
653.8209584029041
 30
0.0
 10
195.9098380230199
 20
652.3779932522093
 30
0.0
 10
195.7414937204567
 20
651.6378964218986
 30
0.0
 10
195.7384173560532
 20
650.9260293947186
 30
0.0
 10
195.7384035891251
 20
650.9196673911606
 30
0.0
 10
195.7384035484565
 20
650.9133103621217
 30
0.0
  0
ARC
  5
B8
330
75
100
AcDbEntity
  8
$DDT_AUDIT_GENERATED_(93)
  6
Continuous
 62
     7
100
AcDbCircle
 10
201.7384027264
 20
673.0869247489
 30
0.0
 40
9.643008853318467
100
AcDbArc
 50
231.5221308857
 51
308.4778726016
  0
LINE
  5
B9
330
75
100
AcDbEntity
  8
$DDT_AUDIT_GENERATED_(93)
  6
Continuous
 62
     7
100
AcDbLine
 10
209.2384027391
 20
665.0379106741
 30
0.0
 11
209.2384027391
 21
646.5379106741
 31
0.0
  0
LINE
  5
BA
330
75
100
AcDbEntity
  8
$DDT_AUDIT_GENERATED_(93)
  6
Continuous
 62
     7
100
AcDbLine
 10
196.2384027391
 20
693.2879106741
 30
0.0
 11
207.2384027391
 21
693.2879106741
 31
0.0
  0
ELLIPSE
  5
BB
330
75
100
AcDbEntity
  8
$DDT_AUDIT_GENERATED_(93)
  6
Continuous
 62
     7
100
AcDbEllipse
 10
201.7384027391
 20
637.0379106741
 30
0.0
 11
5.500000000000005
 21
3.122502256758253E-14
 31
0.0
210
0.0
220
0.0
230
1.0
 40
0.8660254038
 41
0.0
 42
6.283185307179586
  0
ELLIPSE
  5
BC
330
75
100
AcDbEntity
  8
$DDT_AUDIT_GENERATED_(93)
  6
Continuous
 62
     7
100
AcDbEllipse
 10
201.7384027391
 20
637.2879106741
 30
0.0
 11
-6.000000000000005
 21
-2.081668171172169E-14
 31
0.0
210
0.0
220
0.0
230
1.0
 40
0.8660254038
 41
5.795926833746261
 42
6.283185307179586
  0
ELLIPSE
  5
BD
330
75
100
AcDbEntity
  8
$DDT_AUDIT_GENERATED_(93)
  6
Continuous
 62
     7
100
AcDbEllipse
 10
201.7384027391
 20
637.2879106741
 30
0.0
 11
-6.000000000000005
 21
-2.081668171172169E-14
 31
0.0
210
0.0
220
0.0
230
1.0
 40
0.8660254038
 41
2.674549693185371
 42
3.608696446647543
  0
ELLIPSE
  5
BE
330
75
100
AcDbEntity
  8
$DDT_AUDIT_GENERATED_(93)
  6
Continuous
 62
     7
100
AcDbEllipse
 10
201.7384027391
 20
637.2879106741
 30
0.0
 11
-6.000000000000005
 21
-2.081668171172169E-14
 31
0.0
210
0.0
220
0.0
230
1.0
 40
0.8660254038
 41
0.0
 42
0.4802019597080157
  0
LINE
  5
BF
330
75
100
AcDbEntity
  8
$DDT_AUDIT_GENERATED_(93)
  6
Continuous
 62
     7
100
AcDbLine
 10
207.7384027391
 20
637.2879106741
 30
0.0
 11
207.7384027391
 21
650.9170369839
 31
0.0
  0
LINE
  5
C0
330
75
100
AcDbEntity
  8
$DDT_AUDIT_GENERATED_(93)
  6
Continuous
 62
     7
100
AcDbLine
 10
195.7384027391
 20
650.9162274951
 30
0.0
 11
195.7384027391
 21
637.2879106741
 31
0.0
  0
LINE
  5
C1
330
75
100
AcDbEntity
  8
$DDT_AUDIT_GENERATED_(93)
  6
Continuous
 62
     7
100
AcDbLine
 10
195.7384027391
 20
692.7879106741
 30
0.0
 11
195.7384027391
 21
665.5296580544
 31
0.0
  0
LINE
  5
C2
330
75
100
AcDbEntity
  8
$DDT_AUDIT_GENERATED_(93)
  6
Continuous
 62
     7
100
AcDbLine
 10
207.7384027391
 20
665.5312770321
 30
0.0
 11
207.7384027391
 21
692.7879106741
 31
0.0
  0
LINE
  5
C3
330
75
100
AcDbEntity
  8
$DDT_AUDIT_GENERATED_(93)
  6
Continuous
 62
     7
100
AcDbLine
 10
195.7518714173
 20
665.5379106741
 30
0.0
 11
186.2384027392
 21
665.5379106741
 31
0.0
  0
LINE
  5
C4
330
75
100
AcDbEntity
  8
$DDT_AUDIT_GENERATED_(93)
  6
Continuous
 62
     7
100
AcDbLine
 10
208.7384027391
 20
665.5379106741
 30
0.0
 11
207.7275925271
 21
665.5379106741
 31
0.0
  0
LINE
  5
C5
330
75
100
AcDbEntity
  8
$DDT_AUDIT_GENERATED_(93)
  6
Continuous
 62
     7
100
AcDbLine
 10
186.2384027392
 20
646.0379106741
 30
0.0
 11
195.7384027391
 21
646.0379106741
 31
0.0
  0
LINE
  5
C6
330
75
100
AcDbEntity
  8
$DDT_AUDIT_GENERATED_(93)
  6
Continuous
 62
     7
100
AcDbLine
 10
207.7384027391
 20
646.0379106741
 30
0.0
 11
208.7384027391
 21
646.0379106741
 31
0.0
  0
ARC
  5
C7
330
75
100
AcDbEntity
  8
$DDT_AUDIT_GENERATED_(93)
  6
Continuous
 62
     7
100
AcDbCircle
 10
208.7384027391
 20
646.5379106741
 30
0.0
 40
0.4999999999999987
100
AcDbArc
 50
270.0
 51
0.0
  0
ARC
  5
C8
330
75
100
AcDbEntity
  8
$DDT_AUDIT_GENERATED_(93)
  6
Continuous
 62
     7
100
AcDbCircle
 10
208.7384027391
 20
665.0379106741
 30
0.0
 40
0.4999999999975024
100
AcDbArc
 50
0.0
 51
90.0
  0
ARC
  5
C9
330
75
100
AcDbEntity
  8
$DDT_AUDIT_GENERATED_(93)
  6
Continuous
 62
     7
100
AcDbCircle
 10
207.2384027391
 20
692.7879106741
 30
0.0
 40
0.5000000000000004
100
AcDbArc
 50
0.0
 51
90.0
  0
ARC
  5
CA
330
75
100
AcDbEntity
  8
$DDT_AUDIT_GENERATED_(93)
  6
Continuous
 62
     7
100
AcDbCircle
 10
196.2384027391
 20
692.7879106741
 30
0.0
 40
0.5000000000000004
100
AcDbArc
 50
90.0
 51
180.0
  0
ARC
  5
CB
330
75
100
AcDbEntity
  8
$DDT_AUDIT_GENERATED_(93)
  6
Continuous
 62
     7
100
AcDbCircle
 10
201.5901373941
 20
638.1398707596
 30
0.0
 40
6.116896946479421
100
AcDbArc
 50
212.6986969687
 51
271.388908564
  0
ARC
  5
CC
330
75
100
AcDbEntity
  8
$DDT_AUDIT_GENERATED_(93)
  6
Continuous
 62
     7
100
AcDbCircle
 10
201.8887347779
 20
638.1352612989
 30
0.0
 40
6.112339321866437
100
AcDbArc
 50
268.5906770691
 51
327.9975022597
  0
LINE
  5
CE
330
75
100
AcDbEntity
  8
$DDT_AUDIT_GENERATED_(CD)
  6
Continuous
 62
     7
100
AcDbLine
 10
141.6184027391
 20
683.7879106741
 30
0.0
 11
141.6184027391
 21
684.2879106741
 31
0.0
  0
LINE
  5
CF
330
75
100
AcDbEntity
  8
$DDT_AUDIT_GENERATED_(CD)
  6
Continuous
 62
     7
100
AcDbLine
 10
112.6184027391
 20
684.2879106741
 30
0.0
 11
112.6184027391
 21
683.7879106741
 31
0.0
  0
LINE
  5
D1
330
75
100
AcDbEntity
  8
$DDT_AUDIT_GENERATED_(D0)
  6
Continuous
 62
     7
100
AcDbLine
 10
154.6184027391
 20
455.7879106741
 30
0.0
 11
99.6184027391
 21
455.7879106741
 31
0.0
  0
LINE
  5
D2
330
75
100
AcDbEntity
  8
$DDT_AUDIT_GENERATED_(D0)
  6
Continuous
 62
     7
100
AcDbLine
 10
105.1184027391
 20
465.7879106741
 30
0.0
 11
149.1184027391
 21
465.7879106741
 31
0.0
  0
LINE
  5
D3
330
75
100
AcDbEntity
  8
$DDT_AUDIT_GENERATED_(D0)
  6
Continuous
 62
     7
100
AcDbLine
 10
100.1184027391
 20
461.7879106741
 30
0.0
 11
154.1184027391
 21
461.7879106741
 31
0.0
  0
LINE
  5
D4
330
75
100
AcDbEntity
  8
$DDT_AUDIT_GENERATED_(D0)
  6
Continuous
 62
     7
100
AcDbLine
 10
154.6184027391
 20
455.7879106741
 30
0.0
 11
154.6184027391
 21
461.2879106741
 31
0.0
  0
LINE
  5
D5
330
75
100
AcDbEntity
  8
$DDT_AUDIT_GENERATED_(D0)
  6
Continuous
 62
     7
100
AcDbLine
 10
99.6184027391
 20
461.2879106741
 30
0.0
 11
99.6184027391
 21
455.7879106741
 31
0.0
  0
LINE
  5
D6
330
75
100
AcDbEntity
  8
$DDT_AUDIT_GENERATED_(D0)
  6
Continuous
 62
     7
100
AcDbLine
 10
149.6184027391
 20
462.2879106741
 30
0.0
 11
149.6184027391
 21
465.2879106741
 31
0.0
  0
LINE
  5
D7
330
75
100
AcDbEntity
  8
$DDT_AUDIT_GENERATED_(D0)
  6
Continuous
 62
     7
100
AcDbLine
 10
104.6184027391
 20
465.2879106741
 30
0.0
 11
104.6184027391
 21
462.2879106741
 31
0.0
  0
ARC
  5
D8
330
75
100
AcDbEntity
  8
$DDT_AUDIT_GENERATED_(D0)
  6
Continuous
 62
     7
100
AcDbCircle
 10
105.1184027391
 20
465.2879106741
 30
0.0
 40
0.5000000000000004
100
AcDbArc
 50
90.0
 51
180.0
  0
ARC
  5
D9
330
75
100
AcDbEntity
  8
$DDT_AUDIT_GENERATED_(D0)
  6
Continuous
 62
     7
100
AcDbCircle
 10
149.1184027391
 20
465.2879106741
 30
0.0
 40
0.5000000000000004
100
AcDbArc
 50
0.0
 51
90.0
  0
ARC
  5
DA
330
75
100
AcDbEntity
  8
$DDT_AUDIT_GENERATED_(D0)
  6
Continuous
 62
     7
100
AcDbCircle
 10
104.1184027391
 20
462.2879106741
 30
0.0
 40
0.5000000000000004
100
AcDbArc
 50
270.0
 51
0.0
  0
ARC
  5
DB
330
75
100
AcDbEntity
  8
$DDT_AUDIT_GENERATED_(D0)
  6
Continuous
 62
     7
100
AcDbCircle
 10
150.1184027391
 20
462.2879106741
 30
0.0
 40
0.5000000000000004
100
AcDbArc
 50
180.0
 51
270.0
  0
ARC
  5
DC
330
75
100
AcDbEntity
  8
$DDT_AUDIT_GENERATED_(D0)
  6
Continuous
 62
     7
100
AcDbCircle
 10
100.1184027391
 20
461.2879106741
 30
0.0
 40
0.5000000000000004
100
AcDbArc
 50
90.0
 51
180.0
  0
ARC
  5
DD
330
75
100
AcDbEntity
  8
$DDT_AUDIT_GENERATED_(D0)
  6
Continuous
 62
     7
100
AcDbCircle
 10
154.1184027391
 20
461.2879106741
 30
0.0
 40
0.5000000000000004
100
AcDbArc
 50
0.0
 51
90.0
  0
LINE
  5
DF
330
75
100
AcDbEntity
  8
$DDT_AUDIT_GENERATED_(DE)
  6
Continuous
 62
     7
100
AcDbLine
 10
112.1184027391
 20
684.2879106741
 30
0.0
 11
142.1184027391
 21
684.2879106741
 31
0.0
  0
LINE
  5
E0
330
75
100
AcDbEntity
  8
$DDT_AUDIT_GENERATED_(DE)
  6
Continuous
 62
     7
100
AcDbLine
 10
138.6184027391
 20
691.6379106741
 30
0.0
 11
115.6184027391
 21
691.6379106741
 31
0.0
  0
LINE
  5
E1
330
75
100
AcDbEntity
  8
$DDT_AUDIT_GENERATED_(DE)
  6
Continuous
 62
     7
100
AcDbLine
 10
112.6184027391
 20
691.2879106741
 30
0.0
 11
141.6184027391
 21
691.2879106741
 31
0.0
  0
LINE
  5
E2
330
75
100
AcDbEntity
  8
$DDT_AUDIT_GENERATED_(DE)
  6
Continuous
 62
     7
100
AcDbLine
 10
112.1184027391
 20
690.7879106741
 30
0.0
 11
112.1184027391
 21
684.2879106741
 31
0.0
  0
LINE
  5
E3
330
75
100
AcDbEntity
  8
$DDT_AUDIT_GENERATED_(DE)
  6
Continuous
 62
     7
100
AcDbLine
 10
142.1184027391
 20
684.2879106741
 30
0.0
 11
142.1184027391
 21
690.7879106741
 31
0.0
  0
LINE
  5
E4
330
75
100
AcDbEntity
  8
$DDT_AUDIT_GENERATED_(DE)
  6
Continuous
 62
     7
100
AcDbLine
 10
115.6184027391
 20
691.6379106741
 30
0.0
 11
115.6184027391
 21
691.2879106741
 31
0.0
  0
LINE
  5
E5
330
75
100
AcDbEntity
  8
$DDT_AUDIT_GENERATED_(DE)
  6
Continuous
 62
     7
100
AcDbLine
 10
138.6184027391
 20
691.2879106741
 30
0.0
 11
138.6184027391
 21
691.6379106741
 31
0.0
  0
LINE
  5
E6
330
75
100
AcDbEntity
  8
$DDT_AUDIT_GENERATED_(DE)
  6
Continuous
 62
     7
100
AcDbLine
 10
138.6184027391
 20
691.6379106741
 30
0.0
 11
137.9684027391
 21
692.2879106741
 31
0.0
  0
LINE
  5
E7
330
75
100
AcDbEntity
  8
$DDT_AUDIT_GENERATED_(DE)
  6
Continuous
 62
     7
100
AcDbLine
 10
116.2684027391
 20
692.2879106741
 30
0.0
 11
115.6184027391
 21
691.6379106741
 31
0.0
  0
ARC
  5
E8
330
75
100
AcDbEntity
  8
$DDT_AUDIT_GENERATED_(DE)
  6
Continuous
 62
     7
100
AcDbCircle
 10
112.6184027391
 20
690.7879106741
 30
0.0
 40
0.5000000000000004
100
AcDbArc
 50
90.0
 51
180.0
  0
ARC
  5
E9
330
75
100
AcDbEntity
  8
$DDT_AUDIT_GENERATED_(DE)
  6
Continuous
 62
     7
100
AcDbCircle
 10
141.6184027391
 20
690.7879106741
 30
0.0
 40
0.5000000000000004
100
AcDbArc
 50
0.0
 51
90.0
  0
LINE
  5
EB
330
75
100
AcDbEntity
  8
$DDT_AUDIT_GENERATED_(EA)
  6
Continuous
 62
     7
100
AcDbLine
 10
115.6184027391
 20
692.2879106741
 30
0.0
 11
138.6184027391
 21
692.2879106741
 31
0.0
  0
ELLIPSE
  5
EC
330
75
100
AcDbEntity
  8
$DDT_AUDIT_GENERATED_(EA)
  6
Continuous
 62
     7
100
AcDbEllipse
 10
127.1184027391
 20
795.8950813575
 30
0.0
 11
11.50000000000001
 21
0.0
 31
0.0
210
0.0
220
0.0
230
1.0
 40
0.1736481777
 41
0.0
 42
3.141592653589793
  0
ELLIPSE
  5
ED
330
75
100
AcDbEntity
  8
$DDT_AUDIT_GENERATED_(EA)
  6
Continuous
 62
     7
100
AcDbEllipse
 10
127.1184027391
 20
795.8950813575
 30
0.0
 11
11.50000000000001
 21
0.0
 31
0.0
210
0.0
220
0.0
230
1.0
 40
0.1736481777
 41
6.217676592614325
 42
6.283185307179586
  0
ELLIPSE
  5
EE
330
75
100
AcDbEntity
  8
$DDT_AUDIT_GENERATED_(EA)
  6
Continuous
 62
     7
100
AcDbEllipse
 10
127.1184027391
 20
795.8950813575
 30
0.0
 11
10.24999999999988
 21
0.0
 31
0.0
210
0.0
220
0.0
230
1.0
 40
0.1736481777
 41
0.9391823736509006
 42
2.202410279938874
  0
LINE
  5
EF
330
75
100
AcDbEntity
  8
$DDT_AUDIT_GENERATED_(EA)
  6
Continuous
 62
     7
100
AcDbLine
 10
115.6184027391
 20
779.4612174681
 30
0.0
 11
115.6184027391
 21
692.2879106741
 31
0.0
  0
LINE
  5
F0
330
75
100
AcDbEntity
  8
$DDT_AUDIT_GENERATED_(EA)
  6
Continuous
 62
     7
100
AcDbLine
 10
138.6184027391
 20
692.2879106741
 30
0.0
 11
138.6184027391
 21
779.4760065059
 31
0.0
  0
ARC
  5
F1
330
75
100
AcDbEntity
  8
$DDT_AUDIT_GENERATED_(EA)
  6
Continuous
 62
     7
100
AcDbCircle
 10
127.1184027391
 20
863.2879106741
 30
0.0
 40
11.5
100
AcDbArc
 50
0.0
 51
180.0
  0
LINE
  5
F2
330
75
100
AcDbEntity
  8
$DDT_AUDIT_GENERATED_(EA)
  6
Continuous
 62
     7
100
AcDbLine
 10
115.6184027391
 20
795.8950813575
 30
0.0
 11
115.6184027391
 21
795.7668599562
 31
0.0
  0
LINE
  5
F3
330
75
100
AcDbEntity
  8
$DDT_AUDIT_GENERATED_(EA)
  6
Continuous
 62
     7
100
AcDbLine
 10
115.6184027391
 20
863.2879106741
 30
0.0
 11
115.6184027391
 21
801.3115239991
 31
0.0
  0
LINE
  5
F4
330
75
100
AcDbEntity
  8
$DDT_AUDIT_GENERATED_(EA)
  6
Continuous
 62
     7
100
AcDbLine
 10
138.6184027391
 20
801.3115239991
 30
0.0
 11
138.6184027391
 21
863.2879106741
 31
0.0
  0
LINE
  5
F5
330
75
100
AcDbEntity
  8
$DDT_AUDIT_GENERATED_(EA)
  6
Continuous
 62
     7
100
AcDbLine
 10
138.6184027391
 20
795.7295980276
 30
0.0
 11
138.6184027391
 21
795.8950813575
 31
0.0
  0
LINE
  5
F6
330
75
100
AcDbEntity
  8
$DDT_AUDIT_GENERATED_(EA)
  6
Continuous
 62
     7
100
AcDbLine
 10
138.6184027391
 20
795.8950813575
 30
0.0
 11
138.6184027391
 21
801.3115239991
 31
0.0
  0
LINE
  5
F7
330
75
100
AcDbEntity
  8
$DDT_AUDIT_GENERATED_(EA)
  6
Continuous
 62
     7
100
AcDbLine
 10
115.6184027391
 20
801.3115239991
 30
0.0
 11
115.6184027391
 21
795.8950813575
 31
0.0
  0
ELLIPSE
  5
F9
330
75
100
AcDbEntity
  8
$DDT_AUDIT_GENERATED_(F8)
  6
Continuous
 62
     7
100
AcDbEllipse
 10
127.1184027391
 20
778.9071476181
 30
0.0
 11
10.075
 21
0.0
 31
0.0
210
0.0
220
0.0
230
1.0
 40
0.1736481777
 41
0.0
 42
4.049339897731584
  0
ELLIPSE
  5
FA
330
75
100
AcDbEntity
  8
$DDT_AUDIT_GENERATED_(F8)
  6
Continuous
 62
     7
100
AcDbEllipse
 10
127.1184027391
 20
778.9071476181
 30
0.0
 11
10.075
 21
0.0
 31
0.0
210
0.0
220
0.0
230
1.0
 40
0.1736481777
 41
5.375438063037794
 42
6.283185307179586
  0
ELLIPSE
  5
FB
330
75
100
AcDbEntity
  8
$DDT_AUDIT_GENERATED_(F8)
  6
Continuous
 62
     7
100
AcDbEllipse
 10
127.1184027391
 20
778.9071476181
 30
0.0
 11
10.57500000000001
 21
0.0
 31
0.0
210
0.0
220
0.0
230
1.0
 40
0.1736481777
 41
1.178179048409148
 42
1.838536966119694
  0
ELLIPSE
  5
FC
330
75
100
AcDbEntity
  8
$DDT_AUDIT_GENERATED_(F8)
  6
Continuous
 62
     7
100
AcDbEllipse
 10
127.1184027391
 20
795.5011582563
 30
0.0
 11
-11.575
 21
0.0
 31
0.0
210
0.0
220
0.0
230
1.0
 40
0.1736481777
 41
3.141592653589793
 42
3.389873886886606
  0
ELLIPSE
  5
FD
330
75
100
AcDbEntity
  8
$DDT_AUDIT_GENERATED_(F8)
  6
Continuous
 62
     7
100
AcDbEllipse
 10
127.1184027391
 20
795.6488794193
 30
0.0
 11
11.425
 21
0.0
 31
0.0
210
0.0
220
0.0
230
1.0
 40
0.1736481777
 41
0.14071902286582
 42
2.952456059862028
  0
LINE
  5
FE
330
75
100
AcDbEntity
  8
$DDT_AUDIT_GENERATED_(F8)
  6
Continuous
 62
     7
100
AcDbLine
 10
138.6934027391
 20
779.8919553711
 30
0.0
 11
138.6934027391
 21
795.5011582563
 31
0.0
  0
LINE
  5
FF
330
75
100
AcDbEntity
  8
$DDT_AUDIT_GENERATED_(F8)
  6
Continuous
 62
     7
100
AcDbLine
 10
115.5434027391
 20
795.5011582563
 30
0.0
 11
115.5434027391
 21
779.8919553711
 31
0.0
  0
SPLINE
  5
100
330
75
100
AcDbEntity
  8
$DDT_AUDIT_GENERATED_(F8)
  6
Continuous
 62
     7
100
AcDbSpline
210
0.0
220
0.0
230
1.0
 70
     8
 71
     3
 72
    40
 73
    36
 74
     0
 42
0.0000000003976114
 43
0.0000000001
 40
0.0
 40
0.0
 40
0.0
 40
0.0
 40
0.0205285452043221
 40
0.0394715003372987
 40
0.0593418602654323
 40
0.0820929089204261
 40
0.1104089752409979
 40
0.1465342391319632
 40
0.1805692943864274
 40
0.216390611386172
 40
0.2509396185548403
 40
0.2847941879742092
 40
0.3182544965941957
 40
0.3514749448540089
 40
0.3845429767985154
 40
0.417512335449578
 40
0.4504186373160196
 40
0.4832874168489192
 40
0.5161386998919701
 40
0.5489899262707472
 40
0.5818526110661281
 40
0.6147446929947133
 40
0.6476875069764858
 40
0.6807087502802216
 40
0.7138473384859549
 40
0.7471618572722318
 40
0.7807465370117375
 40
0.8147639409336714
 40
0.8495175155529808
 40
0.8856215211442776
 40
0.9196553681770525
 40
0.9437268024335717
 40
0.9644186989444946
 40
0.9834748540918519
 40
1.0
 40
1.0
 40
1.0
 40
1.0
 10
115.5434027391442
 20
779.8919553710939
 30
0.0
 10
115.5572469298883
 20
779.7377189205931
 30
0.0
 10
115.5820964290936
 20
779.4898792992028
 30
0.0
 10
115.7554658503899
 20
779.1419720182536
 30
0.0
 10
115.9774098758717
 20
778.8697639560149
 30
0.0
 10
116.2661501369587
 20
778.628047263239
 30
0.0
 10
116.6538619444363
 20
778.3963349453124
 30
0.0
 10
117.155136951079
 20
778.1796867286905
 30
0.0
 10
117.7861125311022
 20
777.9746239561593
 30
0.0
 10
118.5034857614028
 20
777.7930064439732
 30
0.0
 10
119.3148026945012
 20
777.630115735932
 30
0.0
 10
120.1930083895788
 20
777.48851501582
 30
0.0
 10
121.1350799399752
 20
777.3666027877993
 30
0.0
 10
122.1347627419541
 20
777.2641132311813
 30
0.0
 10
123.1836390364011
 20
777.1813069997505
 30
0.0
 10
124.271930169673
 20
777.1186004991363
 30
0.0
 10
125.3889535024923
 20
777.0763940981609
 30
0.0
 10
126.5234330064471
 20
777.0549867200076
 30
0.0
 10
127.6637430417661
 20
777.0545316868931
 30
0.0
 10
128.7980570280581
 20
777.0750148780974
 30
0.0
 10
129.9146049094091
 20
777.1162455930643
 30
0.0
 10
131.0018724380748
 20
777.1778649814715
 30
0.0
 10
132.0488577334513
 20
777.2593759930779
 30
0.0
 10
133.0452299286614
 20
777.3601888565498
 30
0.0
 10
133.9815896013315
 20
777.4797061000621
 30
0.0
 10
134.8498143288753
 20
777.6174861899984
 30
0.0
 10
135.64357905568
 20
777.77356706314
 30
0.0
 10
136.3592599399058
 20
777.9492274973559
 30
0.0
 10
136.9976995350796
 20
778.1487671771524
 30
0.0
 10
137.5432783817559
 20
778.3750576955299
 30
0.0
 10
137.964723577514
 20
778.6198390279533
 30
0.0
 10
138.28387188996
 20
778.8924590229881
 30
0.0
 10
138.5091343405132
 20
779.1845790871827
 30
0.0
 10
138.6630331110097
 20
779.5264111736926
 30
0.0
 10
138.6800689894131
 20
779.7509184515983
 30
0.0
 10
138.6882989700638
 20
779.8752766897386
 30
0.0
  0
ARC
  5
101
330
75
100
AcDbEntity
  8
$DDT_AUDIT_GENERATED_(F8)
  6
Continuous
 62
     7
100
AcDbCircle
 10
116.1756531561
 20
795.4726182261
 30
0.0
 40
0.6328942432122617
100
AcDbArc
 50
126.3514718144
 51
177.4154007406
  0
ELLIPSE
  5
103
330
75
100
AcDbEntity
  8
$DDT_AUDIT_GENERATED_(102)
  6
Continuous
 62
     7
100
AcDbEllipse
 10
127.1184027391
 20
778.6609456798
 30
0.0
 11
-9.000000000000002
 21
0.0
 31
0.0
210
0.0
220
0.0
230
1.0
 40
0.1736481777
 41
0.0
 42
6.283185307179586
  0
ELLIPSE
  5
104
330
75
100
AcDbEntity
  8
$DDT_AUDIT_GENERATED_(102)
  6
Continuous
 62
     7
100
AcDbEllipse
 10
127.1184027391
 20
778.6609456798
 30
0.0
 11
-5.249999999999998
 21
0.0
 31
0.0
210
0.0
220
0.0
230
1.0
 40
0.1736481777
 41
0.0
 42
6.283185307179586
  0
ELLIPSE
  5
105
330
75
100
AcDbEntity
  8
$DDT_AUDIT_GENERATED_(102)
  6
Continuous
 62
     7
100
AcDbEllipse
 10
127.1184027391
 20
778.6609456798
 30
0.0
 11
-6.249999999999998
 21
0.0
 31
0.0
210
0.0
220
0.0
230
1.0
 40
0.1736481777
 41
0.0
 42
6.283185307179586
  0
ELLIPSE
  5
106
330
75
100
AcDbEntity
  8
$DDT_AUDIT_GENERATED_(102)
  6
Continuous
 62
     7
100
AcDbEllipse
 10
127.1184027391
 20
778.6609456798
 30
0.0
 11
2.750000000000002
 21
0.0
 31
0.0
210
0.0
220
0.0
230
1.0
 40
0.1736481777
 41
0.0
 42
6.283185307179586
  0
ELLIPSE
  5
107
330
75
100
AcDbEntity
  8
$DDT_AUDIT_GENERATED_(102)
  6
Continuous
 62
     7
100
AcDbEllipse
 10
127.1184027391
 20
778.6609456798
 30
0.0
 11
2.15
 21
0.0
 31
0.0
210
0.0
220
0.0
230
1.0
 40
0.1736481777
 41
0.0
 42
6.283185307179586
  0
ELLIPSE
  5
108
330
75
100
AcDbEntity
  8
$DDT_AUDIT_GENERATED_(102)
  6
Continuous
 62
     7
100
AcDbEllipse
 10
127.1184027391
 20
778.8579072304
 30
0.0
 11
0.5196299438963558
 21
0.0
 31
0.0
210
0.0
220
0.0
230
1.0
 40
0.1736481777
 41
0.0
 42
6.283185307179586
  0
ELLIPSE
  5
109
330
75
100
AcDbEntity
  8
$DDT_AUDIT_GENERATED_(102)
  6
Continuous
 62
     7
100
AcDbEllipse
 10
127.1184027391
 20
778.6609456798
 30
0.0
 11
8.700000000000003
 21
0.0
 31
0.0
210
0.0
220
0.0
230
1.0
 40
0.1736481777
 41
0.0
 42
6.283185307179586
  0
ARC
  5
10A
330
75
100
AcDbEntity
  8
$DDT_AUDIT_GENERATED_(102)
  6
Continuous
 62
     7
100
AcDbCircle
 10
118.8752796184
 20
778.8579072304
 30
0.0
 40
0.2568762259796855
100
AcDbArc
 50
176.1238526717
 51
183.8761473284
  0
ARC
  5
10B
330
75
100
AcDbEntity
  8
$DDT_AUDIT_GENERATED_(102)
  6
Continuous
 62
     7
100
AcDbCircle
 10
121.0576392259
 20
778.8579072304
 30
0.0
 40
0.1892348465220819
100
AcDbArc
 50
174.7349422714
 51
180.0
  0
ELLIPSE
  5
10C
330
75
100
AcDbEntity
  8
$DDT_AUDIT_GENERATED_(102)
  6
Continuous
 62
     7
100
AcDbEllipse
 10
127.1184027392
 20
778.8579072304
 30
0.0
 11
-8.500000000025578
 21
-1.942890293094024E-13
 31
0.0
210
0.0
220
0.0
230
1.0
 40
0.1736481777
 41
0.0117649772882063
 42
0.2500344105106616
  0
LINE
  5
10D
330
75
100
AcDbEntity
  8
$DDT_AUDIT_GENERATED_(102)
  6
Continuous
 62
     7
100
AcDbLine
 10
120.8692027904
 20
778.8752720482
 30
0.0
 11
120.8692027904
 21
779.1306981788
 31
0.0
  0
LINE
  5
10E
330
75
100
AcDbEntity
  8
$DDT_AUDIT_GENERATED_(102)
  6
Continuous
 62
     7
100
AcDbLine
 10
120.8692027904
 20
778.8752720482
 30
0.0
 11
118.6189909948
 21
778.8752720482
 31
0.0
  0
LINE
  5
10F
330
75
100
AcDbEntity
  8
$DDT_AUDIT_GENERATED_(102)
  6
Continuous
 62
     7
100
AcDbLine
 10
120.8684027391
 20
778.8405424127
 30
0.0
 11
118.6189909948
 21
778.8405424127
 31
0.0
  0
LINE
  5
110
330
75
100
AcDbEntity
  8
$DDT_AUDIT_GENERATED_(102)
  6
Continuous
 62
     7
100
AcDbLine
 10
128.4026169153
 20
778.8020224956
 30
0.0
 11
127.6722653597
 21
779.0216884826
 31
0.0
  0
LINE
  5
111
330
75
100
AcDbEntity
  8
$DDT_AUDIT_GENERATED_(102)
  6
Continuous
 62
     7
100
AcDbLine
 10
128.4026169153
 20
778.960371435
 30
0.0
 11
128.4026169153
 21
778.8020224956
 31
0.0
  0
LINE
  5
112
330
75
100
AcDbEntity
  8
$DDT_AUDIT_GENERATED_(102)
  6
Continuous
 62
     7
100
AcDbLine
 10
127.9696042134
 20
778.7586104512
 30
0.0
 11
127.638032683
 21
778.8583363803
 31
0.0
  0
ELLIPSE
  5
113
330
75
100
AcDbEntity
  8
$DDT_AUDIT_GENERATED_(102)
  6
Continuous
 62
     7
100
AcDbEllipse
 10
127.1184027391
 20
779.1014482508
 30
0.0
 11
2.150000000005988
 21
-7.910339050454240E-13
 31
0.0
210
0.0
220
0.0
230
1.0
 40
0.1736481777
 41
-1.163740259644675
 42
-0.9306548427465451
  0
ELLIPSE
  5
114
330
75
100
AcDbEntity
  8
$DDT_AUDIT_GENERATED_(102)
  6
Continuous
 62
     7
100
AcDbEllipse
 10
127.1184027392
 20
778.8579072304
 30
0.0
 11
-8.500000000026485
 21
2.081668171172169E-13
 31
0.0
210
0.0
220
0.0
230
1.0
 40
0.1736481777
 41
6.171271384816426
 42
6.27142032989155
  0
ELLIPSE
  5
115
330
75
100
AcDbEntity
  8
$DDT_AUDIT_GENERATED_(102)
  6
Continuous
 62
     7
100
AcDbEllipse
 10
127.1184027176
 20
778.8579072314
 30
0.0
 11
-6.249999978492083
 21
-9.754003160722391E-10
 31
0.0
210
0.0
220
0.0
230
1.0
 40
0.1736481779
 41
-0.2778000710451822
 42
-0.2457987054975357
  0
LINE
  5
116
330
75
100
AcDbEntity
  8
$DDT_AUDIT_GENERATED_(102)
  6
Continuous
 62
     7
100
AcDbLine
 10
121.1080210195
 20
779.1555409964
 30
0.0
 11
121.1080210195
 21
779.4404318266
 31
0.0
  0
LINE
  5
117
330
75
100
AcDbEntity
  8
$DDT_AUDIT_GENERATED_(102)
  6
Continuous
 62
     7
100
AcDbLine
 10
121.1080210195
 20
779.1555409964
 30
0.0
 11
119.1040268421
 21
779.2487846189
 31
0.0
  0
LINE
  5
118
330
75
100
AcDbEntity
  8
$DDT_AUDIT_GENERATED_(102)
  6
Continuous
 62
     7
100
AcDbLine
 10
121.0562572105
 20
779.1219947445
 30
0.0
 11
119.0277379521
 21
779.2163794918
 31
0.0
  0
ELLIPSE
  5
119
330
75
100
AcDbEntity
  8
$DDT_AUDIT_GENERATED_(102)
  6
Continuous
 62
     7
100
AcDbEllipse
 10
127.1184027894
 20
778.8579072254
 30
0.0
 11
-6.250000050794513
 21
4.483996507431698E-9
 31
0.0
210
0.0
220
0.0
230
1.0
 40
0.1736481773
 41
-0.5395994561333284
 42
-0.5075980907912996
  0
LINE
  5
11A
330
75
100
AcDbEntity
  8
$DDT_AUDIT_GENERATED_(102)
  6
Continuous
 62
     7
100
AcDbLine
 10
121.7564368302
 20
779.4155266952
 30
0.0
 11
121.7564368302
 21
779.7644452784
 31
0.0
  0
LINE
  5
11B
330
75
100
AcDbEntity
  8
$DDT_AUDIT_GENERATED_(102)
  6
Continuous
 62
     7
100
AcDbLine
 10
121.7564368302
 20
779.4155266952
 30
0.0
 11
120.1836569991
 21
779.5732070302
 31
0.0
  0
LINE
  5
11C
330
75
100
AcDbEntity
  8
$DDT_AUDIT_GENERATED_(102)
  6
Continuous
 62
     7
100
AcDbLine
 10
121.6564368302
 20
779.3854499486
 30
0.0
 11
120.0639736644
 21
779.5451036525
 31
0.0
  0
ELLIPSE
  5
11D
330
75
100
AcDbEntity
  8
$DDT_AUDIT_GENERATED_(102)
  6
Continuous
 62
     7
100
AcDbEllipse
 10
127.1184027799
 20
778.8579072233
 30
0.0
 11
-6.250000043204113
 21
5.175193606987705E-9
 31
0.0
210
0.0
220
0.0
230
1.0
 40
0.1736481777
 41
-0.801398843620162
 42
-0.7693974782770034
  0
LINE
  5
11E
330
75
100
AcDbEntity
  8
$DDT_AUDIT_GENERATED_(102)
  6
Continuous
 62
     7
100
AcDbLine
 10
122.7702617565
 20
779.6375115491
 30
0.0
 11
122.7702617565
 21
779.9694704827
 31
0.0
  0
LINE
  5
11F
330
75
100
AcDbEntity
  8
$DDT_AUDIT_GENERATED_(102)
  6
Continuous
 62
     7
100
AcDbLine
 10
122.7702617565
 20
779.6375115491
 30
0.0
 11
121.6375684107
 21
779.8342016845
 31
0.0
  0
LINE
  5
120
330
75
100
AcDbEntity
  8
$DDT_AUDIT_GENERATED_(102)
  6
Continuous
 62
     7
100
AcDbLine
 10
122.6288404002
 20
779.6129539883
 30
0.0
 11
121.4830529886
 21
779.8119178843
 31
0.0
  0
ELLIPSE
  5
121
330
75
100
AcDbEntity
  8
$DDT_AUDIT_GENERATED_(102)
  6
Continuous
 62
     7
100
AcDbEllipse
 10
127.1184027684
 20
778.8579072216
 30
0.0
 11
-6.250000036581765
 21
4.552677679292572E-9
 31
0.0
210
0.0
220
0.0
230
1.0
 40
0.1736481781
 41
-1.063198231710426
 42
-1.031196866369556
  0
LINE
  5
122
330
75
100
AcDbEntity
  8
$DDT_AUDIT_GENERATED_(102)
  6
Continuous
 62
     7
100
AcDbLine
 10
124.0804053051
 20
779.806367657
 30
0.0
 11
124.0804053051
 21
780.0765838564
 31
0.0
  0
LINE
  5
123
330
75
100
AcDbEntity
  8
$DDT_AUDIT_GENERATED_(102)
  6
Continuous
 62
     7
100
AcDbLine
 10
124.0804053051
 20
779.806367657
 30
0.0
 11
123.3589606286
 21
780.0233547445
 31
0.0
  0
LINE
  5
124
330
75
100
AcDbEntity
  8
$DDT_AUDIT_GENERATED_(102)
  6
Continuous
 62
     7
100
AcDbLine
 10
123.9072002244
 20
779.7890028392
 30
0.0
 11
123.1792225034
 21
780.007954854
 31
0.0
  0
ELLIPSE
  5
125
330
75
100
AcDbEntity
  8
$DDT_AUDIT_GENERATED_(102)
  6
Continuous
 62
     7
100
AcDbEllipse
 10
127.1184027543
 20
778.8579072206
 30
0.0
 11
-6.250000031213641
 21
2.618863459424858E-9
 31
0.0
210
0.0
220
0.0
230
1.0
 40
0.1736481784
 41
-1.324997620422478
 42
-1.29299625508169
  0
LINE
  5
126
330
75
100
AcDbEntity
  8
$DDT_AUDIT_GENERATED_(102)
  6
Continuous
 62
     7
100
AcDbLine
 10
125.5975833584
 20
779.9105877542
 30
0.0
 11
125.5975833584
 21
780.1484235961
 31
0.0
  0
LINE
  5
127
330
75
100
AcDbEntity
  8
$DDT_AUDIT_GENERATED_(102)
  6
Continuous
 62
     7
100
AcDbLine
 10
125.5975833584
 20
779.9105877542
 30
0.0
 11
125.2491389119
 21
780.1364019938
 31
0.0
  0
LINE
  5
128
330
75
100
AcDbEntity
  8
$DDT_AUDIT_GENERATED_(102)
  6
Continuous
 62
     7
100
AcDbLine
 10
125.4043981931
 20
779.9015990631
 30
0.0
 11
125.0542059514
 21
780.1285459857
 31
0.0
  0
ARC
  5
129
330
75
100
AcDbEntity
  8
$DDT_AUDIT_GENERATED_(102)
  6
Continuous
 62
     7
100
AcDbCircle
 10
127.1184027391
 20
743.9553612056
 30
0.0
 40
35.9878471439235
100
AcDbArc
 50
89.8407911065
 51
90.1592088935
  0
LINE
  5
12A
330
75
100
AcDbEntity
  8
$DDT_AUDIT_GENERATED_(102)
  6
Continuous
 62
     7
100
AcDbLine
 10
127.2184027391
 20
779.9430694134
 30
0.0
 11
127.2184027391
 21
780.1715850244
 31
0.0
  0
LINE
  5
12B
330
75
100
AcDbEntity
  8
$DDT_AUDIT_GENERATED_(102)
  6
Continuous
 62
     7
100
AcDbLine
 10
127.0184027391
 20
779.9430694134
 30
0.0
 11
127.0184027391
 21
780.1715850244
 31
0.0
  0
ELLIPSE
  5
12C
330
75
100
AcDbEntity
  8
$DDT_AUDIT_GENERATED_(102)
  6
Continuous
 62
     7
100
AcDbEllipse
 10
127.1184027258
 20
778.8579072218
 30
0.0
 11
6.250000027489147
 21
2.306418944719724E-9
 31
0.0
210
0.0
220
0.0
230
1.0
 40
0.1736481783
 41
1.292996255218194
 42
1.324997620576993
  0
LINE
  5
12D
330
75
100
AcDbEntity
  8
$DDT_AUDIT_GENERATED_(102)
  6
Continuous
 62
     7
100
AcDbLine
 10
128.8324072852
 20
779.9015990631
 30
0.0
 11
129.1825995269
 21
780.1285459857
 31
0.0
  0
LINE
  5
12E
330
75
100
AcDbEntity
  8
$DDT_AUDIT_GENERATED_(102)
  6
Continuous
 62
     7
100
AcDbLine
 10
128.6392221199
 20
779.9105877542
 30
0.0
 11
128.9876665663
 21
780.1364019938
 31
0.0
  0
LINE
  5
12F
330
75
100
AcDbEntity
  8
$DDT_AUDIT_GENERATED_(102)
  6
Continuous
 62
     7
100
AcDbLine
 10
128.6392221199
 20
779.9105877542
 30
0.0
 11
128.6392221199
 21
780.1484235961
 31
0.0
  0
ELLIPSE
  5
130
330
75
100
AcDbEntity
  8
$DDT_AUDIT_GENERATED_(102)
  6
Continuous
 62
     7
100
AcDbEllipse
 10
127.1184027104
 20
778.8579072218
 30
0.0
 11
6.250000035974637
 21
4.475655956959201E-9
 31
0.0
210
0.0
220
0.0
230
1.0
 40
0.1736481781
 41
1.031196866406045
 42
1.063198231749358
  0
LINE
  5
131
330
75
100
AcDbEntity
  8
$DDT_AUDIT_GENERATED_(102)
  6
Continuous
 62
     7
100
AcDbLine
 10
130.3296052539
 20
779.7890028392
 30
0.0
 11
131.0575829749
 21
780.007954854
 31
0.0
  0
LINE
  5
132
330
75
100
AcDbEntity
  8
$DDT_AUDIT_GENERATED_(102)
  6
Continuous
 62
     7
100
AcDbLine
 10
130.1564001732
 20
779.806367657
 30
0.0
 11
130.8778448497
 21
780.0233547445
 31
0.0
  0
LINE
  5
133
330
75
100
AcDbEntity
  8
$DDT_AUDIT_GENERATED_(102)
  6
Continuous
 62
     7
100
AcDbLine
 10
130.1564001732
 20
779.806367657
 30
0.0
 11
130.1564001732
 21
780.0765838564
 31
0.0
  0
ELLIPSE
  5
134
330
75
100
AcDbEntity
  8
$DDT_AUDIT_GENERATED_(102)
  6
Continuous
 62
     7
100
AcDbEllipse
 10
127.1184026886
 20
778.8579072216
 30
0.0
 11
6.250000053675828
 21
6.423556131451846E-9
 31
0.0
210
0.0
220
0.0
230
1.0
 40
0.1736481777
 41
0.7693974777058118
 42
0.8013988430131432
  0
LINE
  5
135
330
75
100
AcDbEntity
  8
$DDT_AUDIT_GENERATED_(102)
  6
Continuous
 62
     7
100
AcDbLine
 10
131.607965078
 20
779.6129539883
 30
0.0
 11
132.7537524897
 21
779.8119178843
 31
0.0
  0
LINE
  5
136
330
75
100
AcDbEntity
  8
$DDT_AUDIT_GENERATED_(102)
  6
Continuous
 62
     7
100
AcDbLine
 10
131.4665437218
 20
779.6375115491
 30
0.0
 11
132.5992370676
 21
779.8342016845
 31
0.0
  0
LINE
  5
137
330
75
100
AcDbEntity
  8
$DDT_AUDIT_GENERATED_(102)
  6
Continuous
 62
     7
100
AcDbLine
 10
131.4665437218
 20
779.6375115491
 30
0.0
 11
131.4665437218
 21
779.9694704827
 31
0.0
  0
ELLIPSE
  5
138
330
75
100
AcDbEntity
  8
$DDT_AUDIT_GENERATED_(102)
  6
Continuous
 62
     7
100
AcDbEllipse
 10
127.1184026896
 20
778.8579072255
 30
0.0
 11
6.250000050036166
 21
4.416716992139413E-9
 31
0.0
210
0.0
220
0.0
230
1.0
 40
0.1736481773
 41
0.5075980908222525
 42
0.5395994561664822
  0
LINE
  5
139
330
75
100
AcDbEntity
  8
$DDT_AUDIT_GENERATED_(102)
  6
Continuous
 62
     7
100
AcDbLine
 10
132.5803686481
 20
779.3854499486
 30
0.0
 11
134.1728318139
 21
779.5451036525
 31
0.0
  0
LINE
  5
13A
330
75
100
AcDbEntity
  8
$DDT_AUDIT_GENERATED_(102)
  6
Continuous
 62
     7
100
AcDbLine
 10
132.4803686481
 20
779.4155266952
 30
0.0
 11
134.0531484792
 21
779.5732070302
 31
0.0
  0
LINE
  5
13B
330
75
100
AcDbEntity
  8
$DDT_AUDIT_GENERATED_(102)
  6
Continuous
 62
     7
100
AcDbLine
 10
132.4803686481
 20
779.4155266952
 30
0.0
 11
132.4803686481
 21
779.7644452784
 31
0.0
  0
ELLIPSE
  5
13C
330
75
100
AcDbEntity
  8
$DDT_AUDIT_GENERATED_(102)
  6
Continuous
 62
     7
100
AcDbEllipse
 10
127.1184027084
 20
778.857907229
 30
0.0
 11
6.250000030792827
 21
1.447189590386699E-9
 31
0.0
210
0.0
220
0.0
230
1.0
 40
0.1736481773
 41
0.2457987044171816
 42
0.277800069826229
  0
LINE
  5
13D
330
75
100
AcDbEntity
  8
$DDT_AUDIT_GENERATED_(102)
  6
Continuous
 62
     7
100
AcDbLine
 10
133.1805482678
 20
779.1219947445
 30
0.0
 11
135.2090675262
 21
779.2163794918
 31
0.0
  0
LINE
  5
13E
330
75
100
AcDbEntity
  8
$DDT_AUDIT_GENERATED_(102)
  6
Continuous
 62
     7
100
AcDbLine
 10
133.1287844588
 20
779.1555409964
 30
0.0
 11
135.1327786362
 21
779.2487846189
 31
0.0
  0
LINE
  5
13F
330
75
100
AcDbEntity
  8
$DDT_AUDIT_GENERATED_(102)
  6
Continuous
 62
     7
100
AcDbLine
 10
133.1287844588
 20
779.1555409964
 30
0.0
 11
133.1287844588
 21
779.4404318266
 31
0.0
  0
ARC
  5
140
330
75
100
AcDbEntity
  8
$DDT_AUDIT_GENERATED_(102)
  6
Continuous
 62
     7
100
AcDbCircle
 10
135.3615258599
 20
778.8579072304
 30
0.0
 40
0.2568762259794977
100
AcDbArc
 50
356.1238526716
 51
3.8761473283
  0
ELLIPSE
  5
141
330
75
100
AcDbEntity
  8
$DDT_AUDIT_GENERATED_(102)
  6
Continuous
 62
     7
100
AcDbEllipse
 10
127.1184027391
 20
778.8579072304
 30
0.0
 11
8.500000000001508
 21
6.106226635438361E-13
 31
0.0
210
0.0
220
0.0
230
1.0
 40
0.1736481777
 41
0.0117649772880837
 42
0.1119139223633224
  0
ARC
  5
142
330
75
100
AcDbEntity
  8
$DDT_AUDIT_GENERATED_(102)
  6
Continuous
 62
     7
100
AcDbCircle
 10
133.1791662524
 20
778.8579072304
 30
0.0
 40
0.1892348465220823
100
AcDbArc
 50
0.0
 51
5.2650577286
  0
LINE
  5
143
330
75
100
AcDbEntity
  8
$DDT_AUDIT_GENERATED_(102)
  6
Continuous
 62
     7
100
AcDbLine
 10
133.3684027391
 20
778.8405424127
 30
0.0
 11
135.6178144835
 21
778.8405424127
 31
0.0
  0
LINE
  5
144
330
75
100
AcDbEntity
  8
$DDT_AUDIT_GENERATED_(102)
  6
Continuous
 62
     7
100
AcDbLine
 10
133.3676026879
 20
778.8752720482
 30
0.0
 11
135.6178144835
 21
778.8752720482
 31
0.0
  0
LINE
  5
145
330
75
100
AcDbEntity
  8
$DDT_AUDIT_GENERATED_(102)
  6
Continuous
 62
     7
100
AcDbLine
 10
133.3676026879
 20
778.8752720482
 30
0.0
 11
133.3676026879
 21
779.1306981788
 31
0.0
  0
ELLIPSE
  5
146
330
75
100
AcDbEntity
  8
$DDT_AUDIT_GENERATED_(102)
  6
Continuous
 62
     7
100
AcDbEllipse
 10
127.1184027133
 20
778.8579072316
 30
0.0
 11
8.500000025840022
 21
-1.211614142349049E-9
 31
0.0
210
0.0
220
0.0
230
1.0
 40
0.1736481774
 41
-0.2735643646501345
 42
-0.2500344101109091
  0
ELLIPSE
  5
147
330
75
100
AcDbEntity
  8
$DDT_AUDIT_GENERATED_(102)
  6
Continuous
 62
     7
100
AcDbEllipse
 10
127.1184027391
 20
778.8579072304
 30
0.0
 11
8.500000000032045
 21
-3.330669073875470E-13
 31
0.0
210
0.0
220
0.0
230
1.0
 40
0.1736481777
 41
6.033150896669035
 42
6.271420329891663
  0
LINE
  5
148
330
75
100
AcDbEntity
  8
$DDT_AUDIT_GENERATED_(102)
  6
Continuous
 62
     7
100
AcDbLine
 10
135.3540859558
 20
778.4926874226
 30
0.0
 11
135.3540859558
 21
778.8405424127
 31
0.0
  0
LINE
  5
149
330
75
100
AcDbEntity
  8
$DDT_AUDIT_GENERATED_(102)
  6
Continuous
 62
     7
100
AcDbLine
 10
133.3360324465
 20
778.5506304459
 30
0.0
 11
135.3023221468
 21
778.4591411707
 31
0.0
  0
LINE
  5
14A
330
75
100
AcDbEntity
  8
$DDT_AUDIT_GENERATED_(102)
  6
Continuous
 62
     7
100
AcDbLine
 10
133.3533941239
 20
778.5857773908
 30
0.0
 11
135.3540859558
 21
778.4926874226
 31
0.0
  0
ELLIPSE
  5
14B
330
75
100
AcDbEntity
  8
$DDT_AUDIT_GENERATED_(102)
  6
Continuous
 62
     7
100
AcDbEllipse
 10
127.1184031484
 20
778.8579071894
 30
0.0
 11
8.499999586463195
 21
3.666071612951072E-8
 31
0.0
210
0.0
220
0.0
230
1.0
 40
0.1736481801
 41
-0.5353637660011383
 42
-0.5118338107707698
  0
ELLIPSE
  5
14C
330
75
100
AcDbEntity
  8
$DDT_AUDIT_GENERATED_(102)
  6
Continuous
 62
     7
100
AcDbEllipse
 10
127.1184027391
 20
778.8579072304
 30
0.0
 11
8.500000000029299
 21
-1.831867990631508E-12
 31
0.0
210
0.0
220
0.0
230
1.0
 40
0.1736481777
 41
-0.5118337983092625
 42
-0.2735643650867416
  0
LINE
  5
14D
330
75
100
AcDbEntity
  8
$DDT_AUDIT_GENERATED_(102)
  6
Continuous
 62
     7
100
AcDbLine
 10
134.529109227
 20
778.1349919234
 30
0.0
 11
134.529109227
 21
778.4951179088
 31
0.0
  0
LINE
  5
14E
330
75
100
AcDbEntity
  8
$DDT_AUDIT_GENERATED_(102)
  6
Continuous
 62
     7
100
AcDbLine
 10
132.9180053286
 20
778.2564121404
 30
0.0
 11
134.429109227
 21
778.1049151768
 31
0.0
  0
LINE
  5
14F
330
75
100
AcDbEntity
  8
$DDT_AUDIT_GENERATED_(102)
  6
Continuous
 62
     7
100
AcDbLine
 10
132.9904368918
 20
778.2892527834
 30
0.0
 11
134.529109227
 21
778.1349919234
 31
0.0
  0
ELLIPSE
  5
150
330
75
100
AcDbEntity
  8
$DDT_AUDIT_GENERATED_(102)
  6
Continuous
 62
     7
100
AcDbEllipse
 10
127.1184030491
 20
778.8579071767
 30
0.0
 11
8.499999671299268
 21
3.920812285951314E-8
 31
0.0
210
0.0
220
0.0
230
1.0
 40
0.1736481777
 41
-0.7971631546839104
 42
-0.7736331995012042
  0
ELLIPSE
  5
151
330
75
100
AcDbEntity
  8
$DDT_AUDIT_GENERATED_(102)
  6
Continuous
 62
     7
100
AcDbEllipse
 10
127.1184027391
 20
778.8579072304
 30
0.0
 11
8.50000000002011
 21
-2.511879593214417E-12
 31
0.0
210
0.0
220
0.0
230
1.0
 40
0.1736481777
 41
-0.7736331861084302
 42
-0.5353637528858028
  0
LINE
  5
152
330
75
100
AcDbEntity
  8
$DDT_AUDIT_GENERATED_(102)
  6
Continuous
 62
     7
100
AcDbLine
 10
133.1991050978
 20
777.8265619077
 30
0.0
 11
133.1991050978
 21
778.228230252
 31
0.0
  0
LINE
  5
153
330
75
100
AcDbEntity
  8
$DDT_AUDIT_GENERATED_(102)
  6
Continuous
 62
     7
100
AcDbLine
 10
132.0062687127
 20
777.9845806507
 30
0.0
 11
133.0576837416
 21
777.8020043469
 31
0.0
  0
LINE
  5
154
330
75
100
AcDbEntity
  8
$DDT_AUDIT_GENERATED_(102)
  6
Continuous
 62
     7
100
AcDbLine
 10
132.1293882454
 20
778.0123162898
 30
0.0
 11
133.1991050978
 21
777.8265619077
 31
0.0
  0
ELLIPSE
  5
155
330
75
100
AcDbEntity
  8
$DDT_AUDIT_GENERATED_(102)
  6
Continuous
 62
     7
100
AcDbEllipse
 10
127.1184029589
 20
778.8579071644
 30
0.0
 11
8.499999725335787
 21
3.406884496737206E-8
 31
0.0
210
0.0
220
0.0
230
1.0
 40
0.1736481754
 41
-1.058962540686842
 42
-1.035432585502519
  0
ELLIPSE
  5
156
330
75
100
AcDbEntity
  8
$DDT_AUDIT_GENERATED_(102)
  6
Continuous
 62
     7
100
AcDbEllipse
 10
127.1184027392
 20
778.8579072304
 30
0.0
 11
8.499999999993339
 21
7.355227538141662E-13
 31
0.0
210
0.0
220
0.0
230
1.0
 40
0.1736481777
 41
-1.035432573908865
 42
-0.7971631406857593
  0
LINE
  5
157
330
75
100
AcDbEntity
  8
$DDT_AUDIT_GENERATED_(102)
  6
Continuous
 62
     7
100
AcDbLine
 10
131.4547111517
 20
777.5884163714
 30
0.0
 11
131.4547111517
 21
777.8793566143
 31
0.0
  0
LINE
  5
158
330
75
100
AcDbEntity
  8
$DDT_AUDIT_GENERATED_(102)
  6
Continuous
 62
     7
100
AcDbLine
 10
130.6392070384
 20
777.7642342063
 30
0.0
 11
131.2815060709
 21
777.5710515536
 31
0.0
  0
LINE
  5
159
330
75
100
AcDbEntity
  8
$DDT_AUDIT_GENERATED_(102)
  6
Continuous
 62
     7
100
AcDbLine
 10
130.8032992928
 20
777.7843398657
 30
0.0
 11
131.4547111517
 21
777.5884163714
 31
0.0
  0
ELLIPSE
  5
15A
330
75
100
AcDbEntity
  8
$DDT_AUDIT_GENERATED_(102)
  6
Continuous
 62
     7
100
AcDbEllipse
 10
127.118402861
 20
778.8579071514
 30
0.0
 11
8.499999748867012
 21
2.108509200571262E-8
 31
0.0
210
0.0
220
0.0
230
1.0
 40
0.1736481735
 41
-1.320761923964401
 42
-1.297231968736775
  0
ELLIPSE
  5
15B
330
75
100
AcDbEntity
  8
$DDT_AUDIT_GENERATED_(102)
  6
Continuous
 62
     7
100
AcDbEllipse
 10
127.1184027392
 20
778.8579072304
 30
0.0
 11
8.499999999972976
 21
3.136380044566067E-12
 31
0.0
210
0.0
220
0.0
230
1.0
 40
0.1736481777
 41
-1.297231961709023
 42
-1.05896252848539
  0
LINE
  5
15C
330
75
100
AcDbEntity
  8
$DDT_AUDIT_GENERATED_(102)
  6
Continuous
 62
     7
100
AcDbLine
 10
129.4148049534
 20
777.4367845391
 30
0.0
 11
129.4148049534
 21
777.6515576821
 31
0.0
  0
LINE
  5
15D
330
75
100
AcDbEntity
  8
$DDT_AUDIT_GENERATED_(102)
  6
Continuous
 62
     7
100
AcDbLine
 10
128.9222172937
 20
777.6218277728
 30
0.0
 11
129.2216197881
 21
777.427795848
 31
0.0
  0
LINE
  5
15E
330
75
100
AcDbEntity
  8
$DDT_AUDIT_GENERATED_(102)
  6
Continuous
 62
     7
100
AcDbLine
 10
129.1129680748
 20
777.6323941002
 30
0.0
 11
129.4148049534
 21
777.4367845391
 31
0.0
  0
ARC
  5
15F
330
75
100
AcDbEntity
  8
$DDT_AUDIT_GENERATED_(102)
  6
Continuous
 62
     7
100
AcDbCircle
 10
127.1184027391
 20
826.3281613484
 30
0.0
 40
48.94626363161534
100
AcDbArc
 50
269.8829413828
 51
270.1170586172
  0
ELLIPSE
  5
160
330
75
100
AcDbEntity
  8
$DDT_AUDIT_GENERATED_(102)
  6
Continuous
 62
     7
100
AcDbEllipse
 10
127.1184027391
 20
778.8579072304
 30
0.0
 11
8.500000000008406
 21
-3.191891195797325E-13
 31
0.0
210
0.0
220
0.0
230
1.0
 40
0.1736481777
 41
4.724153957673008
 42
4.962423390895754
  0
LINE
  5
161
330
75
100
AcDbEntity
  8
$DDT_AUDIT_GENERATED_(102)
  6
Continuous
 62
     7
100
AcDbLine
 10
127.0184027391
 20
777.5757834968
 30
0.0
 11
127.0184027391
 21
777.3819998698
 31
0.0
  0
LINE
  5
162
330
75
100
AcDbEntity
  8
$DDT_AUDIT_GENERATED_(102)
  6
Continuous
 62
     7
100
AcDbLine
 10
127.2184027391
 20
777.5757834968
 30
0.0
 11
127.2184027391
 21
777.3819998698
 31
0.0
  0
ELLIPSE
  5
163
330
75
100
AcDbEntity
  8
$DDT_AUDIT_GENERATED_(102)
  6
Continuous
 62
     7
100
AcDbEllipse
 10
127.1184026255
 20
778.8579071567
 30
0.0
 11
-8.499999765554387
 21
1.966601881342456E-8
 31
0.0
210
0.0
220
0.0
230
1.0
 40
0.1736481738
 41
1.297231968260127
 42
1.320761923444662
  0
ELLIPSE
  5
164
330
75
100
AcDbEntity
  8
$DDT_AUDIT_GENERATED_(102)
  6
Continuous
 62
     7
100
AcDbEllipse
 10
127.1184027391
 20
778.8579072304
 30
0.0
 11
-8.49999999999733
 21
6.938893903907228E-14
 31
0.0
210
0.0
220
0.0
230
1.0
 40
0.1736481777
 41
1.32076191628384
 42
1.55903134950688
  0
LINE
  5
165
330
75
100
AcDbEntity
  8
$DDT_AUDIT_GENERATED_(102)
  6
Continuous
 62
     7
100
AcDbLine
 10
124.8220005249
 20
777.4367845391
 30
0.0
 11
124.8220005249
 21
777.6515576821
 31
0.0
  0
LINE
  5
166
330
75
100
AcDbEntity
  8
$DDT_AUDIT_GENERATED_(102)
  6
Continuous
 62
     7
100
AcDbLine
 10
125.1238374035
 20
777.6323941002
 30
0.0
 11
124.8220005249
 21
777.4367845391
 31
0.0
  0
LINE
  5
167
330
75
100
AcDbEntity
  8
$DDT_AUDIT_GENERATED_(102)
  6
Continuous
 62
     7
100
AcDbLine
 10
125.3145881846
 20
777.6218277728
 30
0.0
 11
125.0151856902
 21
777.427795848
 31
0.0
  0
ELLIPSE
  5
168
330
75
100
AcDbEntity
  8
$DDT_AUDIT_GENERATED_(102)
  6
Continuous
 62
     7
100
AcDbEllipse
 10
127.118402504
 20
778.8579071597
 30
0.0
 11
-8.499999706085349
 21
3.644905210986593E-8
 31
0.0
210
0.0
220
0.0
230
1.0
 40
0.1736481753
 41
1.035432586307138
 42
1.058962541534217
  0
ELLIPSE
  5
169
330
75
100
AcDbEntity
  8
$DDT_AUDIT_GENERATED_(102)
  6
Continuous
 62
     7
100
AcDbEllipse
 10
127.1184027392
 20
778.8579072304
 30
0.0
 11
-8.500000000018247
 21
-1.929012505286209E-12
 31
0.0
210
0.0
220
0.0
230
1.0
 40
0.1736481777
 41
1.058962528484194
 42
1.297231961706722
  0
LINE
  5
16A
330
75
100
AcDbEntity
  8
$DDT_AUDIT_GENERATED_(102)
  6
Continuous
 62
     7
100
AcDbLine
 10
122.7820943266
 20
777.5884163714
 30
0.0
 11
122.7820943266
 21
777.8793566143
 31
0.0
  0
LINE
  5
16B
330
75
100
AcDbEntity
  8
$DDT_AUDIT_GENERATED_(102)
  6
Continuous
 62
     7
100
AcDbLine
 10
123.4335061855
 20
777.7843398657
 30
0.0
 11
122.7820943266
 21
777.5884163714
 31
0.0
  0
LINE
  5
16C
330
75
100
AcDbEntity
  8
$DDT_AUDIT_GENERATED_(102)
  6
Continuous
 62
     7
100
AcDbLine
 10
123.5975984399
 20
777.7642342063
 30
0.0
 11
122.9552994073
 21
777.5710515536
 31
0.0
  0
ELLIPSE
  5
16D
330
75
100
AcDbEntity
  8
$DDT_AUDIT_GENERATED_(102)
  6
Continuous
 62
     7
100
AcDbEllipse
 10
127.1184024046
 20
778.8579071724
 30
0.0
 11
-8.49999964514887
 21
4.232764139189271E-8
 31
0.0
210
0.0
220
0.0
230
1.0
 40
0.1736481777
 41
0.7736332005637944
 42
0.7971631557948379
  0
ELLIPSE
  5
16E
330
75
100
AcDbEntity
  8
$DDT_AUDIT_GENERATED_(102)
  6
Continuous
 62
     7
100
AcDbEllipse
 10
127.1184027391
 20
778.8579072304
 30
0.0
 11
-8.499999999992655
 21
8.187894806610529E-13
 31
0.0
210
0.0
220
0.0
230
1.0
 40
0.1736481777
 41
0.7971631406858108
 42
1.035432573908927
  0
LINE
  5
16F
330
75
100
AcDbEntity
  8
$DDT_AUDIT_GENERATED_(102)
  6
Continuous
 62
     7
100
AcDbLine
 10
121.0377003805
 20
777.8265619077
 30
0.0
 11
121.0377003805
 21
778.228230252
 31
0.0
  0
LINE
  5
170
330
75
100
AcDbEntity
  8
$DDT_AUDIT_GENERATED_(102)
  6
Continuous
 62
     7
100
AcDbLine
 10
122.1074172329
 20
778.0123162898
 30
0.0
 11
121.0377003805
 21
777.8265619077
 31
0.0
  0
LINE
  5
171
330
75
100
AcDbEntity
  8
$DDT_AUDIT_GENERATED_(102)
  6
Continuous
 62
     7
100
AcDbLine
 10
122.2305367656
 20
777.9845806507
 30
0.0
 11
121.1791217367
 21
777.8020043469
 31
0.0
  0
ELLIPSE
  5
172
330
75
100
AcDbEntity
  8
$DDT_AUDIT_GENERATED_(102)
  6
Continuous
 62
     7
100
AcDbEllipse
 10
127.1184023306
 20
778.8579071894
 30
0.0
 11
-8.499999587176285
 21
3.659793301746816E-8
 31
0.0
210
0.0
220
0.0
230
1.0
 40
0.1736481801
 41
0.5118338107499477
 42
0.5353637659790997
  0
ELLIPSE
  5
173
330
75
100
AcDbEntity
  8
$DDT_AUDIT_GENERATED_(102)
  6
Continuous
 62
     7
100
AcDbEllipse
 10
127.1184027392
 20
778.8579072304
 30
0.0
 11
-8.500000000025606
 21
-2.303712776097200E-12
 31
0.0
210
0.0
220
0.0
230
1.0
 40
0.1736481777
 41
0.5353637528856646
 42
0.7736331861081922
  0
LINE
  5
174
330
75
100
AcDbEntity
  8
$DDT_AUDIT_GENERATED_(102)
  6
Continuous
 62
     7
100
AcDbLine
 10
119.7076962513
 20
778.1349919234
 30
0.0
 11
119.7076962513
 21
778.4951179088
 31
0.0
  0
LINE
  5
175
330
75
100
AcDbEntity
  8
$DDT_AUDIT_GENERATED_(102)
  6
Continuous
 62
     7
100
AcDbLine
 10
121.2463685865
 20
778.2892527834
 30
0.0
 11
119.7076962513
 21
778.1349919234
 31
0.0
  0
LINE
  5
176
330
75
100
AcDbEntity
  8
$DDT_AUDIT_GENERATED_(102)
  6
Continuous
 62
     7
100
AcDbLine
 10
121.3188001497
 20
778.2564121404
 30
0.0
 11
119.8076962513
 21
778.1049151768
 31
0.0
  0
ELLIPSE
  5
177
330
75
100
AcDbEntity
  8
$DDT_AUDIT_GENERATED_(102)
  6
Continuous
 62
     7
100
AcDbEllipse
 10
127.1184022173
 20
778.8579072061
 30
0.0
 11
-8.499999477890862
 21
2.421778055872181E-8
 31
0.0
210
0.0
220
0.0
230
1.0
 40
0.1736481824
 41
0.2500344185777374
 42
0.2735643739015331
  0
ELLIPSE
  5
178
330
75
100
AcDbEntity
  8
$DDT_AUDIT_GENERATED_(102)
  6
Continuous
 62
     7
100
AcDbEllipse
 10
127.1184027392
 20
778.8579072304
 30
0.0
 11
-8.50000000001959
 21
-1.651456749129920E-12
 31
0.0
210
0.0
220
0.0
230
1.0
 40
0.1736481777
 41
0.2735643650869198
 42
0.5118337983095812
  0
LINE
  5
179
330
75
100
AcDbEntity
  8
$DDT_AUDIT_GENERATED_(102)
  6
Continuous
 62
     7
100
AcDbLine
 10
118.8827195225
 20
778.4926874226
 30
0.0
 11
118.8827195225
 21
778.8405424127
 31
0.0
  0
LINE
  5
17A
330
75
100
AcDbEntity
  8
$DDT_AUDIT_GENERATED_(102)
  6
Continuous
 62
     7
100
AcDbLine
 10
120.8834113544
 20
778.5857773908
 30
0.0
 11
118.8827195225
 21
778.4926874226
 31
0.0
  0
LINE
  5
17B
330
75
100
AcDbEntity
  8
$DDT_AUDIT_GENERATED_(102)
  6
Continuous
 62
     7
100
AcDbLine
 10
120.9007730318
 20
778.5506304459
 30
0.0
 11
118.9344833315
 21
778.4591411707
 31
0.0
  0
LINE
  5
17C
330
75
100
AcDbEntity
  8
$DDT_AUDIT_GENERATED_(102)
  6
Continuous
 62
     7
100
AcDbLine
 10
124.3739765696
 20
779.0979623946
 30
0.0
 11
124.3739765696
 21
778.8882956615
 31
0.0
  0
ELLIPSE
  5
17D
330
75
100
AcDbEntity
  8
$DDT_AUDIT_GENERATED_(102)
  6
Continuous
 62
     7
100
AcDbEllipse
 10
127.1184027391
 20
778.8579072304
 30
0.0
 11
2.750000000002432
 21
0.0
 31
0.0
210
0.0
220
0.0
230
1.0
 40
0.1736481777
 41
3.077913261332817
 42
3.141592653589793
  0
LINE
  5
17E
330
75
100
AcDbEntity
  8
$DDT_AUDIT_GENERATED_(102)
  6
Continuous
 62
     7
100
AcDbLine
 10
124.3739765696
 20
778.8882956615
 30
0.0
 11
122.0342756977
 21
778.8882956615
 31
0.0
  0
LINE
  5
17F
330
75
100
AcDbEntity
  8
$DDT_AUDIT_GENERATED_(102)
  6
Continuous
 62
     7
100
AcDbLine
 10
124.3684027391
 20
778.8275187993
 30
0.0
 11
121.9567821382
 21
778.8275187993
 31
0.0
  0
LINE
  5
180
330
75
100
AcDbEntity
  8
$DDT_AUDIT_GENERATED_(102)
  6
Continuous
 62
     7
100
AcDbLine
 10
124.8291599575
 20
779.4813642703
 30
0.0
 11
124.8291599575
 21
779.1225066853
 31
0.0
  0
ELLIPSE
  5
181
330
75
100
AcDbEntity
  8
$DDT_AUDIT_GENERATED_(102)
  6
Continuous
 62
     7
100
AcDbEllipse
 10
127.1184027392
 20
778.8579072304
 30
0.0
 11
-2.750000000080818
 21
7.951972413877684E-12
 31
0.0
210
0.0
220
0.0
230
1.0
 40
0.1736481777
 41
-0.5872781678465522
 42
-0.4599193833346193
  0
LINE
  5
182
330
75
100
AcDbEntity
  8
$DDT_AUDIT_GENERATED_(102)
  6
Continuous
 62
     7
100
AcDbLine
 10
124.8291599575
 20
779.1225066853
 30
0.0
 11
123.2622585542
 21
779.2795976736
 31
0.0
  0
LINE
  5
183
330
75
100
AcDbEntity
  8
$DDT_AUDIT_GENERATED_(102)
  6
Continuous
 62
     7
100
AcDbLine
 10
124.6541599575
 20
779.0698723787
 30
0.0
 11
123.0294917162
 21
779.2327548289
 31
0.0
  0
LINE
  5
184
330
75
100
AcDbEntity
  8
$DDT_AUDIT_GENERATED_(102)
  6
Continuous
 62
     7
100
AcDbLine
 10
125.8977441
 20
779.5476146404
 30
0.0
 11
125.8977441
 21
779.2858184988
 31
0.0
  0
ELLIPSE
  5
185
330
75
100
AcDbEntity
  8
$DDT_AUDIT_GENERATED_(102)
  6
Continuous
 62
     7
100
AcDbEllipse
 10
127.1184027391
 20
778.8579072304
 30
0.0
 11
-2.750000000002468
 21
3.885780586188048E-13
 31
0.0
210
0.0
220
0.0
230
1.0
 40
0.1736481777
 41
-1.110876943453263
 42
-0.9835181589392992
  0
LINE
  5
186
330
75
100
AcDbEntity
  8
$DDT_AUDIT_GENERATED_(102)
  6
Continuous
 62
     7
100
AcDbLine
 10
125.8977441
 20
779.2858184988
 30
0.0
 11
125.1624633295
 21
779.5069670332
 31
0.0
  0
LINE
  5
187
330
75
100
AcDbEntity
  8
$DDT_AUDIT_GENERATED_(102)
  6
Continuous
 62
     7
100
AcDbLine
 10
125.5946352087
 20
779.2554300677
 30
0.0
 11
124.8403280665
 21
779.4823011157
 31
0.0
  0
ARC
  5
188
330
75
100
AcDbEntity
  8
$DDT_AUDIT_GENERATED_(102)
  6
Continuous
 62
     7
100
AcDbCircle
 10
127.1184027391
 20
763.5299514152
 30
0.0
 40
15.80548925698538
100
AcDbArc
 50
89.3656022836
 51
90.6343977164
  0
LINE
  5
189
330
75
100
AcDbEntity
  8
$DDT_AUDIT_GENERATED_(102)
  6
Continuous
 62
     7
100
AcDbLine
 10
127.2934027391
 20
779.3344718335
 30
0.0
 11
127.2934027391
 21
779.572091998
 31
0.0
  0
LINE
  5
18A
330
75
100
AcDbEntity
  8
$DDT_AUDIT_GENERATED_(102)
  6
Continuous
 62
     7
100
AcDbLine
 10
126.9434027391
 20
779.3344718335
 30
0.0
 11
126.9434027391
 21
779.572091998
 31
0.0
  0
ELLIPSE
  5
18B
330
75
100
AcDbEntity
  8
$DDT_AUDIT_GENERATED_(102)
  6
Continuous
 62
     7
100
AcDbEllipse
 10
127.1184027391
 20
778.8579072304
 30
0.0
 11
2.749999999997635
 21
-2.220446049250313E-13
 31
0.0
210
0.0
220
0.0
230
1.0
 40
0.1736481777
 41
0.9835181589399064
 42
1.110876943454012
  0
LINE
  5
18C
330
75
100
AcDbEntity
  8
$DDT_AUDIT_GENERATED_(102)
  6
Continuous
 62
     7
100
AcDbLine
 10
128.3390613782
 20
779.5476146404
 30
0.0
 11
128.3390613782
 21
779.2858184988
 31
0.0
  0
LINE
  5
18D
330
75
100
AcDbEntity
  8
$DDT_AUDIT_GENERATED_(102)
  6
Continuous
 62
     7
100
AcDbLine
 10
128.6421702696
 20
779.2554300677
 30
0.0
 11
129.3964774118
 21
779.4823011157
 31
0.0
  0
LINE
  5
18E
330
75
100
AcDbEntity
  8
$DDT_AUDIT_GENERATED_(102)
  6
Continuous
 62
     7
100
AcDbLine
 10
128.3390613782
 20
779.2858184988
 30
0.0
 11
129.0743421488
 21
779.5069670332
 31
0.0
  0
ELLIPSE
  5
18F
330
75
100
AcDbEntity
  8
$DDT_AUDIT_GENERATED_(102)
  6
Continuous
 62
     7
100
AcDbEllipse
 10
127.1184027391
 20
778.8579072304
 30
0.0
 11
2.750000000064561
 21
5.065392549852277E-12
 31
0.0
210
0.0
220
0.0
230
1.0
 40
0.1736481777
 41
0.4599193833359643
 42
0.5872781678483452
  0
LINE
  5
190
330
75
100
AcDbEntity
  8
$DDT_AUDIT_GENERATED_(102)
  6
Continuous
 62
     7
100
AcDbLine
 10
129.4076455208
 20
779.4813642703
 30
0.0
 11
129.4076455208
 21
779.1225066853
 31
0.0
  0
LINE
  5
191
330
75
100
AcDbEntity
  8
$DDT_AUDIT_GENERATED_(102)
  6
Continuous
 62
     7
100
AcDbLine
 10
129.5826455208
 20
779.0698723787
 30
0.0
 11
131.2073137621
 21
779.2327548289
 31
0.0
  0
LINE
  5
192
330
75
100
AcDbEntity
  8
$DDT_AUDIT_GENERATED_(102)
  6
Continuous
 62
     7
100
AcDbLine
 10
129.4076455208
 20
779.1225066853
 30
0.0
 11
130.9745469241
 21
779.2795976736
 31
0.0
  0
ELLIPSE
  5
193
330
75
100
AcDbEntity
  8
$DDT_AUDIT_GENERATED_(102)
  6
Continuous
 62
     7
100
AcDbEllipse
 10
127.1184027391
 20
778.8579072304
 30
0.0
 11
-2.750000000003951
 21
0.0
 31
0.0
210
0.0
220
0.0
230
1.0
 40
0.1736481777
 41
3.141592653589793
 42
3.205272045846824
  0
LINE
  5
194
330
75
100
AcDbEntity
  8
$DDT_AUDIT_GENERATED_(102)
  6
Continuous
 62
     7
100
AcDbLine
 10
129.8628289087
 20
779.0979623946
 30
0.0
 11
129.8628289087
 21
778.8882956615
 31
0.0
  0
LINE
  5
195
330
75
100
AcDbEntity
  8
$DDT_AUDIT_GENERATED_(102)
  6
Continuous
 62
     7
100
AcDbLine
 10
129.8684027391
 20
778.8275187993
 30
0.0
 11
132.2800233401
 21
778.8275187993
 31
0.0
  0
LINE
  5
196
330
75
100
AcDbEntity
  8
$DDT_AUDIT_GENERATED_(102)
  6
Continuous
 62
     7
100
AcDbLine
 10
129.8628289087
 20
778.8882956615
 30
0.0
 11
132.2025297806
 21
778.8882956615
 31
0.0
  0
ELLIPSE
  5
197
330
75
100
AcDbEntity
  8
$DDT_AUDIT_GENERATED_(102)
  6
Continuous
 62
     7
100
AcDbEllipse
 10
127.1184027422
 20
778.8579072301
 30
0.0
 11
5.249999996871701
 21
2.822048150719070E-10
 31
0.0
210
0.0
220
0.0
230
1.0
 40
0.1736481777
 41
-0.5569382850277531
 42
-0.4902592664824121
  0
LINE
  5
198
330
75
100
AcDbEntity
  8
$DDT_AUDIT_GENERATED_(102)
  6
Continuous
 62
     7
100
AcDbLine
 10
129.798688309
 20
778.5541034594
 30
0.0
 11
131.5750094996
 21
778.3760169181
 31
0.0
  0
LINE
  5
199
330
75
100
AcDbEntity
  8
$DDT_AUDIT_GENERATED_(102)
  6
Continuous
 62
     7
100
AcDbLine
 10
129.8574613431
 20
778.618390196
 30
0.0
 11
131.7500094996
 21
778.4286512247
 31
0.0
  0
LINE
  5
19A
330
75
100
AcDbEntity
  8
$DDT_AUDIT_GENERATED_(102)
  6
Continuous
 62
     7
100
AcDbLine
 10
131.7500094996
 20
778.8275187993
 30
0.0
 11
131.7500094996
 21
778.4286512247
 31
0.0
  0
ELLIPSE
  5
19B
330
75
100
AcDbEntity
  8
$DDT_AUDIT_GENERATED_(102)
  6
Continuous
 62
     7
100
AcDbEllipse
 10
127.118402741
 20
778.8579072299
 30
0.0
 11
5.24999999769751
 21
2.872008186827202E-10
 31
0.0
210
0.0
220
0.0
230
1.0
 40
0.1736481776
 41
-1.080537060630931
 42
-1.013858042084955
  0
LINE
  5
19C
330
75
100
AcDbEntity
  8
$DDT_AUDIT_GENERATED_(102)
  6
Continuous
 62
     7
100
AcDbLine
 10
128.8189453278
 20
778.2856624824
 30
0.0
 11
129.5903895548
 21
778.0536371568
 31
0.0
  0
LINE
  5
19D
330
75
100
AcDbEntity
  8
$DDT_AUDIT_GENERATED_(102)
  6
Continuous
 62
     7
100
AcDbLine
 10
129.0850896581
 20
778.3271686509
 30
0.0
 11
129.8934984462
 21
778.0840255879
 31
0.0
  0
LINE
  5
19E
330
75
100
AcDbEntity
  8
$DDT_AUDIT_GENERATED_(102)
  6
Continuous
 62
     7
100
AcDbLine
 10
129.8934984462
 20
778.5445981911
 30
0.0
 11
129.8934984462
 21
778.0840255879
 31
0.0
  0
ARC
  5
19F
330
75
100
AcDbEntity
  8
$DDT_AUDIT_GENERATED_(102)
  6
Continuous
 62
     7
100
AcDbCircle
 10
127.1184027391
 20
808.1635048666
 30
0.0
 40
30.21725070549441
100
AcDbArc
 50
269.6681757198
 51
270.3318242802
  0
LINE
  5
1A0
330
75
100
AcDbEntity
  8
$DDT_AUDIT_GENERATED_(102)
  6
Continuous
 62
     7
100
AcDbLine
 10
126.9434027391
 20
778.1843810767
 30
0.0
 11
126.9434027391
 21
777.9467609123
 31
0.0
  0
LINE
  5
1A1
330
75
100
AcDbEntity
  8
$DDT_AUDIT_GENERATED_(102)
  6
Continuous
 62
     7
100
AcDbLine
 10
127.2934027391
 20
778.1843810767
 30
0.0
 11
127.2934027391
 21
777.9467609123
 31
0.0
  0
ELLIPSE
  5
1A2
330
75
100
AcDbEntity
  8
$DDT_AUDIT_GENERATED_(102)
  6
Continuous
 62
     7
100
AcDbEllipse
 10
127.1184027375
 20
778.8579072299
 30
0.0
 11
-5.249999997916118
 21
2.602779103355601E-10
 31
0.0
210
0.0
220
0.0
230
1.0
 40
0.1736481776
 41
1.013858042070934
 42
1.080537060614737
  0
LINE
  5
1A3
330
75
100
AcDbEntity
  8
$DDT_AUDIT_GENERATED_(102)
  6
Continuous
 62
     7
100
AcDbLine
 10
125.1517158202
 20
778.3271686509
 30
0.0
 11
124.3433070321
 21
778.0840255879
 31
0.0
  0
LINE
  5
1A4
330
75
100
AcDbEntity
  8
$DDT_AUDIT_GENERATED_(102)
  6
Continuous
 62
     7
100
AcDbLine
 10
125.4178601505
 20
778.2856624824
 30
0.0
 11
124.6464159235
 21
778.0536371568
 31
0.0
  0
LINE
  5
1A5
330
75
100
AcDbEntity
  8
$DDT_AUDIT_GENERATED_(102)
  6
Continuous
 62
     7
100
AcDbLine
 10
124.3433070321
 20
778.5445981911
 30
0.0
 11
124.3433070321
 21
778.0840255879
 31
0.0
  0
ELLIPSE
  5
1A6
330
75
100
AcDbEntity
  8
$DDT_AUDIT_GENERATED_(102)
  6
Continuous
 62
     7
100
AcDbEllipse
 10
127.1184027361
 20
778.8579072301
 30
0.0
 11
-5.249999996927309
 21
2.661759701538813E-10
 31
0.0
210
0.0
220
0.0
230
1.0
 40
0.1736481777
 41
0.4902592664796588
 42
0.5569382850245184
  0
LINE
  5
1A7
330
75
100
AcDbEntity
  8
$DDT_AUDIT_GENERATED_(102)
  6
Continuous
 62
     7
100
AcDbLine
 10
124.3793441352
 20
778.618390196
 30
0.0
 11
122.4867959787
 21
778.4286512247
 31
0.0
  0
LINE
  5
1A8
330
75
100
AcDbEntity
  8
$DDT_AUDIT_GENERATED_(102)
  6
Continuous
 62
     7
100
AcDbLine
 10
124.4381171692
 20
778.5541034594
 30
0.0
 11
122.6617959787
 21
778.3760169181
 31
0.0
  0
LINE
  5
1A9
330
75
100
AcDbEntity
  8
$DDT_AUDIT_GENERATED_(102)
  6
Continuous
 62
     7
100
AcDbLine
 10
122.4867959787
 20
778.8275187993
 30
0.0
 11
122.4867959787
 21
778.4286512247
 31
0.0
  0
LINE
  5
1AA
330
75
100
AcDbEntity
  8
$DDT_AUDIT_GENERATED_(102)
  6
Continuous
 62
     7
100
AcDbLine
 10
118.1184027391
 20
779.6934810407
 30
0.0
 11
118.1184027391
 21
778.6609456798
 31
0.0
  0
LINE
  5
1AB
330
75
100
AcDbEntity
  8
$DDT_AUDIT_GENERATED_(102)
  6
Continuous
 62
     7
100
AcDbLine
 10
136.1184027391
 20
778.6609456798
 30
0.0
 11
136.1184027391
 21
779.6934810407
 31
0.0
  0
LINE
  5
1AC
330
75
100
AcDbEntity
  8
$DDT_AUDIT_GENERATED_(102)
  6
Continuous
 62
     7
100
AcDbLine
 10
120.8684027391
 20
778.8579072304
 30
0.0
 11
120.8684027391
 21
778.6609456798
 31
0.0
  0
LINE
  5
1AD
330
75
100
AcDbEntity
  8
$DDT_AUDIT_GENERATED_(102)
  6
Continuous
 62
     7
100
AcDbLine
 10
133.3684027391
 20
778.6609456798
 30
0.0
 11
133.3684027391
 21
778.8579072304
 31
0.0
  0
LINE
  5
1AE
330
75
100
AcDbEntity
  8
$DDT_AUDIT_GENERATED_(102)
  6
Continuous
 62
     7
100
AcDbLine
 10
124.3684027391
 20
778.8579072304
 30
0.0
 11
124.3684027391
 21
778.6609456798
 31
0.0
  0
LINE
  5
1AF
330
75
100
AcDbEntity
  8
$DDT_AUDIT_GENERATED_(102)
  6
Continuous
 62
     7
100
AcDbLine
 10
129.8684027391
 20
778.6609456798
 30
0.0
 11
129.8684027391
 21
778.8579072304
 31
0.0
  0
LINE
  5
1B0
330
75
100
AcDbEntity
  8
$DDT_AUDIT_GENERATED_(102)
  6
Continuous
 62
     7
100
AcDbLine
 10
126.5987727952
 20
779.0232210907
 30
0.0
 11
126.5987727952
 21
778.8579072304
 31
0.0
  0
LINE
  5
1B1
330
75
100
AcDbEntity
  8
$DDT_AUDIT_GENERATED_(102)
  6
Continuous
 62
     7
100
AcDbLine
 10
127.638032683
 20
778.8579072304
 30
0.0
 11
127.638032683
 21
779.0232210907
 31
0.0
  0
LINE
  5
1B3
330
75
100
AcDbEntity
  8
$DDT_AUDIT_GENERATED_(1B2)
  6
Continuous
 62
     7
100
AcDbLine
 10
145.1184027391
 20
596.7879106741
 30
0.0
 11
109.1184027391
 21
596.7879106741
 31
0.0
  0
LINE
  5
1B4
330
75
100
AcDbEntity
  8
$DDT_AUDIT_GENERATED_(1B2)
  6
Continuous
 62
     7
100
AcDbLine
 10
145.1184027391
 20
465.7879106741
 30
0.0
 11
145.1184027391
 21
596.7879106741
 31
0.0
  0
LINE
  5
1B5
330
75
100
AcDbEntity
  8
$DDT_AUDIT_GENERATED_(1B2)
  6
Continuous
 62
     7
100
AcDbLine
 10
109.1184027391
 20
596.7879106741
 30
0.0
 11
109.1184027391
 21
465.7879106741
 31
0.0
  0
ENDBLK
  5
1B7
330
75
100
AcDbEntity
  8
0
100
AcDbBlockEnd
  0
BLOCK
  5
226
330
1B8
100
AcDbEntity
  8
0
100
AcDbBlockBegin
  2
SE1
 70
     0
 10
0.0
 20
0.0
 30
0.0
  3
SE1
  1

  0
ARC
  5
1BA
330
1B8
100
AcDbEntity
  8
$DDT_AUDIT_GENERATED_(77)
  6
Continuous
 62
     7
100
AcDbCircle
 10
378.9103346906
 20
655.6879104743
 30
0.0
 40
18.00000000013796
100
AcDbArc
 50
179.6816878009
 51
190.3741476209
  0
ARC
  5
1BB
330
1B8
100
AcDbEntity
  8
$DDT_AUDIT_GENERATED_(77)
  6
Continuous
 62
     7
100
AcDbCircle
 10
378.9103346906
 20
655.6879104743
 30
0.0
 40
18.00000000013796
100
AcDbArc
 50
229.3707022371
 51
270.0000005518
  0
ARC
  5
1BC
330
1B8
100
AcDbEntity
  8
$DDT_AUDIT_GENERATED_(77)
  6
Continuous
 62
     7
100
AcDbCircle
 10
378.9103346906
 20
655.8879108739
 30
0.0
 40
18.00000000000007
100
AcDbArc
 50
109.0867161282
 51
180.3183121201
  0
ARC
  5
1BD
330
1B8
100
AcDbEntity
  8
$DDT_AUDIT_GENERATED_(77)
  6
Continuous
 62
     7
100
AcDbCircle
 10
325.825949117
 20
655.7879106616
 30
0.0
 40
18.02605698210122
100
AcDbArc
 50
341.3985870846
 51
18.6014113526
  0
LINE
  5
1BE
330
1B8
100
AcDbEntity
  8
$DDT_AUDIT_GENERATED_(77)
  6
Continuous
 62
     7
100
AcDbLine
 10
378.9103346917
 20
596.7879106741
 30
0.0
 11
342.9103346917
 21
596.7879106741
 31
0.0
  0
LINE
  5
1BF
330
1B8
100
AcDbEntity
  8
$DDT_AUDIT_GENERATED_(77)
  6
Continuous
 62
     7
100
AcDbLine
 10
373.0103347404
 20
683.7879106741
 30
0.0
 11
343.4103346917
 21
683.7879106741
 31
0.0
  0
LINE
  5
1C0
330
1B8
100
AcDbEntity
  8
$DDT_AUDIT_GENERATED_(77)
  6
Continuous
 62
     7
100
AcDbLine
 10
378.9103346917
 20
596.7879106741
 30
0.0
 11
378.9103346917
 21
637.6879109916
 31
0.0
  0
LINE
  5
1C1
330
1B8
100
AcDbEntity
  8
$DDT_AUDIT_GENERATED_(77)
  6
Continuous
 62
     7
100
AcDbLine
 10
342.9103346917
 20
650.0379106741
 30
0.0
 11
342.9103346917
 21
596.7879106741
 31
0.0
  0
LINE
  5
1C2
330
1B8
100
AcDbEntity
  8
$DDT_AUDIT_GENERATED_(77)
  6
Continuous
 62
     7
100
AcDbLine
 10
342.9103346917
 20
683.2879106741
 30
0.0
 11
342.9103346917
 21
661.5344179353
 31
0.0
  0
ARC
  5
1C3
330
1B8
100
AcDbEntity
  8
$DDT_AUDIT_GENERATED_(77)
  6
Continuous
 62
     7
100
AcDbCircle
 10
343.4103346917
 20
683.2879106741
 30
0.0
 40
0.5000000000000004
100
AcDbArc
 50
90.0
 51
180.0
  0
ARC
  5
1C4
330
1B8
100
AcDbEntity
  8
$DDT_AUDIT_GENERATED_(82)
  6
Continuous
 62
     7
100
AcDbCircle
 10
379.0103347404
 20
655.7879106741
 30
0.0
 40
15.0
100
AcDbArc
 50
353.5781784782
 51
0.0
  0
ARC
  5
1C5
330
1B8
100
AcDbEntity
  8
$DDT_AUDIT_GENERATED_(82)
  6
Continuous
 62
     7
100
AcDbCircle
 10
379.0103347404
 20
655.7879106741
 30
0.0
 40
15.0
100
AcDbArc
 50
233.5781784782
 51
306.4218215218
  0
ARC
  5
1C6
330
1B8
100
AcDbEntity
  8
$DDT_AUDIT_GENERATED_(82)
  6
Continuous
 62
     7
100
AcDbCircle
 10
379.0103347404
 20
655.7879106741
 30
0.0
 40
15.0
100
AcDbArc
 50
113.5781784782
 51
186.4218215218
  0
ARC
  5
1C7
330
1B8
100
AcDbEntity
  8
$DDT_AUDIT_GENERATED_(82)
  6
Continuous
 62
     7
100
AcDbCircle
 10
379.0103347404
 20
655.7879106741
 30
0.0
 40
15.0
100
AcDbArc
 50
0.0
 51
66.4218215218
  0
ARC
  5
1C8
330
1B8
100
AcDbEntity
  8
$DDT_AUDIT_GENERATED_(82)
  6
Continuous
 62
     7
100
AcDbCircle
 10
379.0103347404
 20
655.7879106741
 30
0.0
 40
18.0
100
AcDbArc
 50
349.4712206345
 51
0.0
  0
ARC
  5
1C9
330
1B8
100
AcDbEntity
  8
$DDT_AUDIT_GENERATED_(82)
  6
Continuous
 62
     7
100
AcDbCircle
 10
379.0103347404
 20
655.7879106741
 30
0.0
 40
18.0
100
AcDbArc
 50
229.4712206345
 51
310.5287793655
  0
ARC
  5
1CA
330
1B8
100
AcDbEntity
  8
$DDT_AUDIT_GENERATED_(82)
  6
Continuous
 62
     7
100
AcDbCircle
 10
379.0103347404
 20
655.7879106741
 30
0.0
 40
18.0
100
AcDbArc
 50
109.4712206345
 51
190.5287793655
  0
ARC
  5
1CB
330
1B8
100
AcDbEntity
  8
$DDT_AUDIT_GENERATED_(82)
  6
Continuous
 62
     7
100
AcDbCircle
 10
379.0103347404
 20
655.7879106741
 30
0.0
 40
18.0
100
AcDbArc
 50
0.0
 51
70.5287793655
  0
LINE
  5
1CC
330
1B8
100
AcDbEntity
  8
$DDT_AUDIT_GENERATED_(82)
  6
Continuous
 62
     7
100
AcDbLine
 10
371.2518749156
 20
639.5441694751
 30
0.0
 11
371.2529754275
 21
639.545269987
 31
0.0
  0
ARC
  5
1CE
330
1B8
100
AcDbEntity
  8
$DDT_AUDIT_GENERATED_(1CD)
  6
Continuous
 62
     7
100
AcDbCircle
 10
325.6416251509
 20
655.788022967
 30
0.0
 40
18.00513847714657
100
AcDbArc
 50
357.6082170472
 51
16.4249939535
  0
LINE
  5
1CF
330
1B8
100
AcDbEntity
  8
$DDT_AUDIT_GENERATED_(1CD)
  6
Continuous
 62
     7
100
AcDbLine
 10
342.9103346917
 20
660.827910386
 30
0.0
 11
342.9103346917
 21
650.7128727677
 31
0.0
  0
ARC
  5
1D0
330
1B8
100
AcDbEntity
  8
$DDT_AUDIT_GENERATED_(1CD)
  6
Continuous
 62
     7
100
AcDbCircle
 10
343.2882994096
 20
650.6646886072
 30
0.0
 40
0.3628625958735521
100
AcDbArc
 50
196.5028718261
 51
223.0841382136
  0
SPLINE
  5
1D1
330
1B8
100
AcDbEntity
  8
$DDT_AUDIT_GENERATED_(1CD)
  6
Continuous
 62
     7
100
AcDbSpline
210
0.0
220
0.0
230
1.0
 70
     8
 71
     3
 72
    11
 73
     7
 74
     0
 42
0.0000000190313879
 43
0.0000000001
 40
0.5985668833507478
 40
0.5985668833507478
 40
0.5985668833507478
 40
0.5985668833507478
 40
0.6065648057224737
 40
0.8111252791855499
 40
0.9839746611839694
 40
1.0
 40
1.0
 40
1.0
 40
1.0
 10
343.0260008897866
 20
661.1622030814398
 30
0.0
 10
343.0250327151439
 20
661.161225016166
 30
0.0
 10
342.9994496912742
 20
661.1350862073314
 30
0.0
 10
342.9602511159156
 20
661.0806658671345
 30
0.0
 10
342.9300102805188
 20
661.0155702008132
 30
0.0
 10
342.9245758955404
 20
660.9849753592249
 30
0.0
 10
342.9240456835316
 20
660.9819594040949
 30
0.0
  0
ARC
  5
1D2
330
1B8
100
AcDbEntity
  8
$DDT_AUDIT_GENERATED_(8B)
  6
Continuous
 62
     7
100
AcDbCircle
 10
379.0103347404
 20
655.7879106741
 30
0.0
 40
14.85
100
AcDbArc
 50
353.8310078895
 51
0.0
  0
ARC
  5
1D3
330
1B8
100
AcDbEntity
  8
$DDT_AUDIT_GENERATED_(8B)
  6
Continuous
 62
     7
100
AcDbCircle
 10
379.0103347404
 20
655.7879106741
 30
0.0
 40
14.85
100
AcDbArc
 50
233.8310078895
 51
306.1689921105
  0
ARC
  5
1D4
330
1B8
100
AcDbEntity
  8
$DDT_AUDIT_GENERATED_(8B)
  6
Continuous
 62
     7
100
AcDbCircle
 10
379.0103347404
 20
655.7879106741
 30
0.0
 40
14.85
100
AcDbArc
 50
113.8310078895
 51
186.1689921105
  0
ARC
  5
1D5
330
1B8
100
AcDbEntity
  8
$DDT_AUDIT_GENERATED_(8B)
  6
Continuous
 62
     7
100
AcDbCircle
 10
379.0103347404
 20
655.7879106741
 30
0.0
 40
14.85
100
AcDbArc
 50
0.0
 51
66.1689921105
  0
CIRCLE
  5
1D6
330
1B8
100
AcDbEntity
  8
$DDT_AUDIT_GENERATED_(93)
  6
Continuous
 62
     7
100
AcDbCircle
 10
379.0103347404
 20
655.7879106741
 30
0.0
 40
9.75
  0
LINE
  5
1D7
330
1B8
100
AcDbEntity
  8
$DDT_AUDIT_GENERATED_(93)
  6
Continuous
 62
     7
100
AcDbLine
 10
343.7843820985
 20
641.8010503949
 30
0.0
 11
349.2843820985
 21
632.2747709533
 31
0.0
  0
LINE
  5
1D8
330
1B8
100
AcDbEntity
  8
$DDT_AUDIT_GENERATED_(93)
  6
Continuous
 62
     7
100
AcDbLine
 10
408.7362873823
 20
632.2747709533
 30
0.0
 11
414.2362873823
 21
641.8010503949
 31
0.0
  0
LINE
  5
1D9
330
1B8
100
AcDbEntity
  8
$DDT_AUDIT_GENERATED_(93)
  6
Continuous
 62
     7
100
AcDbLine
 10
384.5103347404
 20
693.2879106741
 30
0.0
 11
373.5103347404
 21
693.2879106741
 31
0.0
  0
LINE
  5
1DA
330
1B8
100
AcDbEntity
  8
$DDT_AUDIT_GENERATED_(93)
  6
Continuous
 62
     7
100
AcDbLine
 10
373.0103347404
 20
692.7879106741
 30
0.0
 11
373.0103347404
 21
663.4731237486
 31
0.0
  0
LINE
  5
1DB
330
1B8
100
AcDbEntity
  8
$DDT_AUDIT_GENERATED_(93)
  6
Continuous
 62
     7
100
AcDbLine
 10
385.0103347404
 20
663.4818347015
 30
0.0
 11
385.0103347404
 21
692.7879106741
 31
0.0
  0
LINE
  5
1DC
330
1B8
100
AcDbEntity
  8
$DDT_AUDIT_GENERATED_(93)
  6
Continuous
 62
     7
100
AcDbLine
 10
414.0532746804
 20
642.4840630968
 30
0.0
 11
388.6659244964
 21
657.1414565596
 31
0.0
  0
LINE
  5
1DD
330
1B8
100
AcDbEntity
  8
$DDT_AUDIT_GENERATED_(93)
  6
Continuous
 62
     7
100
AcDbLine
 10
382.6734684029
 20
646.7447962377
 30
0.0
 11
408.0532746804
 21
632.0917582514
 31
0.0
  0
LINE
  5
1DE
330
1B8
100
AcDbEntity
  8
$DDT_AUDIT_GENERATED_(93)
  6
Continuous
 62
     7
100
AcDbLine
 10
349.9673948004
 20
632.0917582514
 30
0.0
 11
375.3547449844
 21
646.7491517141
 31
0.0
  0
LINE
  5
1DF
330
1B8
100
AcDbEntity
  8
$DDT_AUDIT_GENERATED_(93)
  6
Continuous
 62
     7
100
AcDbLine
 10
369.3472010779
 20
657.1371010831
 30
0.0
 11
343.9673948004
 21
642.4840630968
 31
0.0
  0
ARC
  5
1E0
330
1B8
100
AcDbEntity
  8
$DDT_AUDIT_GENERATED_(93)
  6
Continuous
 62
     7
100
AcDbCircle
 10
344.2173948004
 20
642.0510503949
 30
0.0
 40
0.4999999999999985
100
AcDbArc
 50
120.0
 51
210.0
  0
ARC
  5
1E1
330
1B8
100
AcDbEntity
  8
$DDT_AUDIT_GENERATED_(93)
  6
Continuous
 62
     7
100
AcDbCircle
 10
349.7173948004
 20
632.5247709533
 30
0.0
 40
0.4999999999999989
100
AcDbArc
 50
210.0
 51
300.0
  0
ARC
  5
1E2
330
1B8
100
AcDbEntity
  8
$DDT_AUDIT_GENERATED_(93)
  6
Continuous
 62
     7
100
AcDbCircle
 10
408.3032746804
 20
632.5247709533
 30
0.0
 40
0.4999999999999989
100
AcDbArc
 50
240.0
 51
330.0
  0
ARC
  5
1E3
330
1B8
100
AcDbEntity
  8
$DDT_AUDIT_GENERATED_(93)
  6
Continuous
 62
     7
100
AcDbCircle
 10
413.8032746804
 20
642.0510503949
 30
0.0
 40
0.500000000000002
100
AcDbArc
 50
330.0
 51
60.0
  0
ARC
  5
1E4
330
1B8
100
AcDbEntity
  8
$DDT_AUDIT_GENERATED_(93)
  6
Continuous
 62
     7
100
AcDbCircle
 10
373.5103347404
 20
692.7879106741
 30
0.0
 40
0.5000000000000004
100
AcDbArc
 50
90.0
 51
180.0
  0
ARC
  5
1E5
330
1B8
100
AcDbEntity
  8
$DDT_AUDIT_GENERATED_(93)
  6
Continuous
 62
     7
100
AcDbCircle
 10
384.5103347404
 20
692.7879106741
 30
0.0
 40
0.5000000000000004
100
AcDbArc
 50
0.0
 51
90.0
  0
ARC
  5
1E7
330
1B8
100
AcDbEntity
  8
$DDT_AUDIT_GENERATED_(1E6)
  6
Continuous
 62
     7
100
AcDbCircle
 10
379.0103347404
 20
655.7879106741
 30
0.0
 40
14.95
100
AcDbArc
 50
233.6618370306
 51
306.3381629694
  0
LINE
  5
1E8
330
1B8
100
AcDbEntity
  8
$DDT_AUDIT_GENERATED_(CD)
  6
Continuous
 62
     7
100
AcDbLine
 10
346.4103346917
 20
684.2879106741
 30
0.0
 11
346.4103346917
 21
683.7879106741
 31
0.0
  0
LINE
  5
1E9
330
1B8
100
AcDbEntity
  8
$DDT_AUDIT_GENERATED_(D0)
  6
Continuous
 62
     7
100
AcDbLine
 10
388.4103346917
 20
455.7879106741
 30
0.0
 11
333.4103346917
 21
455.7879106741
 31
0.0
  0
LINE
  5
1EA
330
1B8
100
AcDbEntity
  8
$DDT_AUDIT_GENERATED_(D0)
  6
Continuous
 62
     7
100
AcDbLine
 10
382.9103346917
 20
465.7879106741
 30
0.0
 11
338.9103346917
 21
465.7879106741
 31
0.0
  0
LINE
  5
1EB
330
1B8
100
AcDbEntity
  8
$DDT_AUDIT_GENERATED_(D0)
  6
Continuous
 62
     7
100
AcDbLine
 10
387.9103346917
 20
461.7879106741
 30
0.0
 11
333.9103346917
 21
461.7879106741
 31
0.0
  0
LINE
  5
1EC
330
1B8
100
AcDbEntity
  8
$DDT_AUDIT_GENERATED_(D0)
  6
Continuous
 62
     7
100
AcDbLine
 10
388.4103346917
 20
455.7879106741
 30
0.0
 11
388.4103346917
 21
461.2879106741
 31
0.0
  0
LINE
  5
1ED
330
1B8
100
AcDbEntity
  8
$DDT_AUDIT_GENERATED_(D0)
  6
Continuous
 62
     7
100
AcDbLine
 10
333.4103346917
 20
461.2879106741
 30
0.0
 11
333.4103346917
 21
455.7879106741
 31
0.0
  0
LINE
  5
1EE
330
1B8
100
AcDbEntity
  8
$DDT_AUDIT_GENERATED_(D0)
  6
Continuous
 62
     7
100
AcDbLine
 10
383.4103346917
 20
462.2879106741
 30
0.0
 11
383.4103346917
 21
465.2879106741
 31
0.0
  0
LINE
  5
1EF
330
1B8
100
AcDbEntity
  8
$DDT_AUDIT_GENERATED_(D0)
  6
Continuous
 62
     7
100
AcDbLine
 10
338.4103346917
 20
465.2879106741
 30
0.0
 11
338.4103346917
 21
462.2879106741
 31
0.0
  0
ARC
  5
1F0
330
1B8
100
AcDbEntity
  8
$DDT_AUDIT_GENERATED_(D0)
  6
Continuous
 62
     7
100
AcDbCircle
 10
338.9103346917
 20
465.2879106741
 30
0.0
 40
0.5000000000000004
100
AcDbArc
 50
90.0
 51
180.0
  0
ARC
  5
1F1
330
1B8
100
AcDbEntity
  8
$DDT_AUDIT_GENERATED_(D0)
  6
Continuous
 62
     7
100
AcDbCircle
 10
382.9103346917
 20
465.2879106741
 30
0.0
 40
0.5000000000000004
100
AcDbArc
 50
0.0
 51
90.0
  0
ARC
  5
1F2
330
1B8
100
AcDbEntity
  8
$DDT_AUDIT_GENERATED_(D0)
  6
Continuous
 62
     7
100
AcDbCircle
 10
337.9103346917
 20
462.2879106741
 30
0.0
 40
0.5000000000000004
100
AcDbArc
 50
270.0
 51
0.0
  0
ARC
  5
1F3
330
1B8
100
AcDbEntity
  8
$DDT_AUDIT_GENERATED_(D0)
  6
Continuous
 62
     7
100
AcDbCircle
 10
383.9103346917
 20
462.2879106741
 30
0.0
 40
0.5000000000000004
100
AcDbArc
 50
180.0
 51
270.0
  0
ARC
  5
1F4
330
1B8
100
AcDbEntity
  8
$DDT_AUDIT_GENERATED_(D0)
  6
Continuous
 62
     7
100
AcDbCircle
 10
333.9103346917
 20
461.2879106741
 30
0.0
 40
0.5000000000000004
100
AcDbArc
 50
90.0
 51
180.0
  0
ARC
  5
1F5
330
1B8
100
AcDbEntity
  8
$DDT_AUDIT_GENERATED_(D0)
  6
Continuous
 62
     7
100
AcDbCircle
 10
387.9103346917
 20
461.2879106741
 30
0.0
 40
0.5000000000000004
100
AcDbArc
 50
0.0
 51
90.0
  0
LINE
  5
1F7
330
1B8
100
AcDbEntity
  8
$DDT_AUDIT_GENERATED_(1F6)
  6
Continuous
 62
     7
100
AcDbLine
 10
353.5603346917
 20
689.4379106741
 30
0.0
 11
353.5603346917
 21
689.3879106741
 31
0.0
  0
LINE
  5
1F8
330
1B8
100
AcDbEntity
  8
$DDT_AUDIT_GENERATED_(DE)
  6
Continuous
 62
     7
100
AcDbLine
 10
345.9103346917
 20
684.2879106741
 30
0.0
 11
373.0103347404
 21
684.2879106741
 31
0.0
  0
LINE
  5
1F9
330
1B8
100
AcDbEntity
  8
$DDT_AUDIT_GENERATED_(DE)
  6
Continuous
 62
     7
100
AcDbLine
 10
372.4103346917
 20
691.6379106741
 30
0.0
 11
349.4103346917
 21
691.6379106741
 31
0.0
  0
LINE
  5
1FA
330
1B8
100
AcDbEntity
  8
$DDT_AUDIT_GENERATED_(DE)
  6
Continuous
 62
     7
100
AcDbLine
 10
358.0103346917
 20
689.4379106741
 30
0.0
 11
345.9103346917
 21
689.4379106741
 31
0.0
  0
LINE
  5
1FB
330
1B8
100
AcDbEntity
  8
$DDT_AUDIT_GENERATED_(DE)
  6
Continuous
 62
     7
100
AcDbLine
 10
358.0103346917
 20
687.8879106741
 30
0.0
 11
345.9103346917
 21
687.8879106741
 31
0.0
  0
LINE
  5
1FC
330
1B8
100
AcDbEntity
  8
$DDT_AUDIT_GENERATED_(DE)
  6
Continuous
 62
     7
100
AcDbLine
 10
358.0103346917
 20
687.8879106741
 30
0.0
 11
358.0103346917
 21
689.4379106741
 31
0.0
  0
LINE
  5
1FD
330
1B8
100
AcDbEntity
  8
$DDT_AUDIT_GENERATED_(DE)
  6
Continuous
 62
     7
100
AcDbLine
 10
346.4103346917
 20
691.2879106741
 30
0.0
 11
373.0103347404
 21
691.2879106741
 31
0.0
  0
LINE
  5
1FE
330
1B8
100
AcDbEntity
  8
$DDT_AUDIT_GENERATED_(DE)
  6
Continuous
 62
     7
100
AcDbLine
 10
345.9103346917
 20
687.8879106741
 30
0.0
 11
345.9103346917
 21
684.2879106741
 31
0.0
  0
LINE
  5
1FF
330
1B8
100
AcDbEntity
  8
$DDT_AUDIT_GENERATED_(DE)
  6
Continuous
 62
     7
100
AcDbLine
 10
345.9103346917
 20
690.7879106741
 30
0.0
 11
345.9103346917
 21
689.4379106741
 31
0.0
  0
LINE
  5
200
330
1B8
100
AcDbEntity
  8
$DDT_AUDIT_GENERATED_(DE)
  6
Continuous
 62
     7
100
AcDbLine
 10
349.4103346917
 20
691.6379106741
 30
0.0
 11
349.4103346917
 21
691.2879106741
 31
0.0
  0
LINE
  5
201
330
1B8
100
AcDbEntity
  8
$DDT_AUDIT_GENERATED_(DE)
  6
Continuous
 62
     7
100
AcDbLine
 10
372.4103346917
 20
691.2879106741
 30
0.0
 11
372.4103346917
 21
691.6379106741
 31
0.0
  0
LINE
  5
202
330
1B8
100
AcDbEntity
  8
$DDT_AUDIT_GENERATED_(DE)
  6
Continuous
 62
     7
100
AcDbLine
 10
372.4103346917
 20
691.6379106741
 30
0.0
 11
371.7603346917
 21
692.2879106741
 31
0.0
  0
LINE
  5
203
330
1B8
100
AcDbEntity
  8
$DDT_AUDIT_GENERATED_(DE)
  6
Continuous
 62
     7
100
AcDbLine
 10
350.0603346917
 20
692.2879106741
 30
0.0
 11
349.4103346917
 21
691.6379106741
 31
0.0
  0
ARC
  5
204
330
1B8
100
AcDbEntity
  8
$DDT_AUDIT_GENERATED_(DE)
  6
Continuous
 62
     7
100
AcDbCircle
 10
346.4103346917
 20
690.7879106741
 30
0.0
 40
0.5000000000000004
100
AcDbArc
 50
90.0
 51
180.0
  0
LINE
  5
205
330
1B8
100
AcDbEntity
  8
$DDT_AUDIT_GENERATED_(EA)
  6
Continuous
 62
     7
100
AcDbLine
 10
349.4103346917
 20
692.2879106741
 30
0.0
 11
372.4103346917
 21
692.2879106741
 31
0.0
  0
LINE
  5
206
330
1B8
100
AcDbEntity
  8
$DDT_AUDIT_GENERATED_(EA)
  6
Continuous
 62
     7
100
AcDbLine
 10
522.0512703044
 20
797.8920354007
 30
0.0
 11
499.4006919851
 21
793.8981273144
 31
0.0
  0
LINE
  5
207
330
1B8
100
AcDbEntity
  8
$DDT_AUDIT_GENERATED_(EA)
  6
Continuous
 62
     7
100
AcDbLine
 10
349.4103346917
 20
788.2879106741
 30
0.0
 11
349.4103346917
 21
692.2879106741
 31
0.0
  0
LINE
  5
208
330
1B8
100
AcDbEntity
  8
$DDT_AUDIT_GENERATED_(EA)
  6
Continuous
 62
     7
100
AcDbLine
 10
372.4103346917
 20
692.2879106741
 30
0.0
 11
372.4103346917
 21
788.2879106741
 31
0.0
  0
ARC
  5
209
330
1B8
100
AcDbEntity
  8
$DDT_AUDIT_GENERATED_(EA)
  6
Continuous
 62
     7
100
AcDbCircle
 10
435.9103346917
 20
788.2879106741
 30
0.0
 40
63.49999999999999
100
AcDbArc
 50
90.0
 51
180.0
  0
ARC
  5
20A
330
1B8
100
AcDbEntity
  8
$DDT_AUDIT_GENERATED_(EA)
  6
Continuous
 62
     7
100
AcDbCircle
 10
435.9103346917
 20
788.2879106741
 30
0.0
 40
63.49999999999994
100
AcDbArc
 50
10.0
 51
90.0
  0
ARC
  5
20B
330
1B8
100
AcDbEntity
  8
$DDT_AUDIT_GENERATED_(EA)
  6
Continuous
 62
     7
100
AcDbCircle
 10
435.9103346917
 20
788.2879106741
 30
0.0
 40
86.49999999999999
100
AcDbArc
 50
10.0
 51
180.0
  0
LINE
  5
20C
330
1B8
100
AcDbEntity
  8
$DDT_AUDIT_GENERATED_(EA)
  6
Continuous
 62
     7
100
AcDbLine
 10
522.0512703044
 20
797.8920354007
 30
0.0
 11
521.0962053273
 21
803.3084780423
 31
0.0
  0
LINE
  5
20D
330
1B8
100
AcDbEntity
  8
$DDT_AUDIT_GENERATED_(EA)
  6
Continuous
 62
     7
100
AcDbLine
 10
498.445627008
 20
799.3145699559
 30
0.0
 11
499.4006919851
 21
793.8981273144
 31
0.0
  0
LINE
  5
20E
330
1B8
100
AcDbEntity
  8
$DDT_AUDIT_GENERATED_(EA)
  6
Continuous
 62
     7
100
AcDbLine
 10
500.6317016764
 20
794.1151875365
 30
0.0
 11
500.6751137208
 21
793.8689855982
 31
0.0
  0
LINE
  5
20F
330
1B8
100
AcDbEntity
  8
$DDT_AUDIT_GENERATED_(EA)
  6
Continuous
 62
     7
100
AcDbLine
 10
520.8636726576
 20
797.4287732404
 30
0.0
 11
520.8202606132
 21
797.6749751786
 31
0.0
  0
LINE
  5
210
330
1B8
100
AcDbEntity
  8
$DDT_AUDIT_GENERATED_(F8)
  6
Continuous
 62
     7
100
AcDbLine
 10
524.1357541976
 20
780.7434770969
 30
0.0
 11
503.3070702214
 21
777.0708181393
 31
0.0
  0
LINE
  5
211
330
1B8
100
AcDbEntity
  8
$DDT_AUDIT_GENERATED_(F8)
  6
Continuous
 62
     7
100
AcDbLine
 10
499.517964611
 20
793.6649489894
 30
0.0
 11
522.0208217674
 21
797.6328098491
 31
0.0
  0
LINE
  5
212
330
1B8
100
AcDbEntity
  8
$DDT_AUDIT_GENERATED_(F8)
  6
Continuous
 62
     7
100
AcDbLine
 10
524.946913773
 20
781.9019330276
 30
0.0
 11
522.194590157
 21
797.5111359128
 31
0.0
  0
LINE
  5
213
330
1B8
100
AcDbEntity
  8
$DDT_AUDIT_GENERATED_(F8)
  6
Continuous
 62
     7
100
AcDbLine
 10
499.3962906747
 20
793.4911805998
 30
0.0
 11
502.1486142908
 21
777.8819777146
 31
0.0
  0
ARC
  5
214
330
1B8
100
AcDbEntity
  8
$DDT_AUDIT_GENERATED_(F8)
  6
Continuous
 62
     7
100
AcDbCircle
 10
523.96210602
 20
781.7282848499
 30
0.0
 40
0.9999999999999913
100
AcDbArc
 50
280.0
 51
10.0
  0
ARC
  5
215
330
1B8
100
AcDbEntity
  8
$DDT_AUDIT_GENERATED_(F8)
  6
Continuous
 62
     7
100
AcDbCircle
 10
503.1334220438
 20
778.0556258923
 30
0.0
 40
1.000000000000005
100
AcDbArc
 50
190.0
 51
280.0
  0
ARC
  5
216
330
1B8
100
AcDbEntity
  8
$DDT_AUDIT_GENERATED_(F8)
  6
Continuous
 62
     7
100
AcDbCircle
 10
522.046868994
 20
797.4850886862
 30
0.0
 40
0.1500000000000037
100
AcDbArc
 50
10.0
 51
100.0
  0
ARC
  5
217
330
1B8
100
AcDbEntity
  8
$DDT_AUDIT_GENERATED_(F8)
  6
Continuous
 62
     7
100
AcDbCircle
 10
499.5440118377
 20
793.5172278265
 30
0.0
 40
0.1500000000000085
100
AcDbArc
 50
100.0
 51
190.0
  0
LINE
  5
218
330
1B8
100
AcDbEntity
  8
$DDT_AUDIT_GENERATED_(102)
  6
Continuous
 62
     7
100
AcDbLine
 10
504.9015544768
 20
777.0981120808
 30
0.0
 11
522.6280940311
 21
780.2237792788
 31
0.0
  0
LINE
  5
219
330
1B8
100
AcDbEntity
  8
$DDT_AUDIT_GENERATED_(102)
  6
Continuous
 62
     7
100
AcDbLine
 10
504.8581424324
 20
777.3443140191
 30
0.0
 11
504.9015544768
 21
777.0981120808
 31
0.0
  0
LINE
  5
21A
330
1B8
100
AcDbEntity
  8
$DDT_AUDIT_GENERATED_(102)
  6
Continuous
 62
     7
100
AcDbLine
 10
522.6280940311
 20
780.2237792788
 30
0.0
 11
522.5846819866
 21
780.4699812171
 31
0.0
  0
LINE
  5
21C
330
1B8
100
AcDbEntity
  8
$DDT_AUDIT_GENERATED_(21B)
  6
Continuous
 62
     7
100
AcDbLine
 10
357.4103346917
 20
689.3879106741
 30
0.0
 11
345.9103346917
 21
689.3879106741
 31
0.0
  0
LINE
  5
21D
330
1B8
100
AcDbEntity
  8
$DDT_AUDIT_GENERATED_(21B)
  6
Continuous
 62
     7
100
AcDbLine
 10
357.4103346917
 20
689.3879106741
 30
0.0
 11
357.9103346917
 21
689.3879106741
 31
0.0
  0
LINE
  5
21E
330
1B8
100
AcDbEntity
  8
$DDT_AUDIT_GENERATED_(21B)
  6
Continuous
 62
     7
100
AcDbLine
 10
357.9103346917
 20
689.3879106741
 30
0.0
 11
358.0103346917
 21
689.3879106741
 31
0.0
  0
LINE
  5
21F
330
1B8
100
AcDbEntity
  8
$DDT_AUDIT_GENERATED_(21B)
  6
Continuous
 62
     7
100
AcDbLine
 10
357.4103346917
 20
687.8879106741
 30
0.0
 11
345.9103346917
 21
687.8879106741
 31
0.0
  0
LINE
  5
220
330
1B8
100
AcDbEntity
  8
$DDT_AUDIT_GENERATED_(21B)
  6
Continuous
 62
     7
100
AcDbLine
 10
357.9103346917
 20
689.3879106741
 30
0.0
 11
357.9103346917
 21
687.8879106741
 31
0.0
  0
LINE
  5
221
330
1B8
100
AcDbEntity
  8
$DDT_AUDIT_GENERATED_(21B)
  6
Continuous
 62
     7
100
AcDbLine
 10
357.4103346917
 20
689.3879106741
 30
0.0
 11
357.4103346917
 21
687.8879106741
 31
0.0
  0
LINE
  5
222
330
1B8
100
AcDbEntity
  8
$DDT_AUDIT_GENERATED_(21B)
  6
Continuous
 62
     7
100
AcDbLine
 10
345.9103346917
 20
689.3879106741
 30
0.0
 11
345.9103346917
 21
687.8879106741
 31
0.0
  0
LINE
  5
223
330
1B8
100
AcDbEntity
  8
$DDT_AUDIT_GENERATED_(1B2)
  6
Continuous
 62
     7
100
AcDbLine
 10
378.9103346917
 20
596.7879106741
 30
0.0
 11
342.9103346917
 21
596.7879106741
 31
0.0
  0
LINE
  5
224
330
1B8
100
AcDbEntity
  8
$DDT_AUDIT_GENERATED_(1B2)
  6
Continuous
 62
     7
100
AcDbLine
 10
378.9103346917
 20
465.7879106741
 30
0.0
 11
378.9103346917
 21
596.7879106741
 31
0.0
  0
LINE
  5
225
330
1B8
100
AcDbEntity
  8
$DDT_AUDIT_GENERATED_(1B2)
  6
Continuous
 62
     7
100
AcDbLine
 10
342.9103346917
 20
596.7879106741
 30
0.0
 11
342.9103346917
 21
465.7879106741
 31
0.0
  0
ENDBLK
  5
227
330
1B8
100
AcDbEntity
  8
0
100
AcDbBlockEnd
  0
BLOCK
  5
280
330
228
100
AcDbEntity
  8
0
100
AcDbBlockBegin
  2
SE2
 70
     0
 10
0.0
 20
0.0
 30
0.0
  3
SE2
  1

  0
ARC
  5
22A
330
228
100
AcDbEntity
  8
$DDT_AUDIT_GENERATED_(77)
  6
Continuous
 62
     7
100
AcDbCircle
 10
127.1184027391
 20
270.3865790813
 30
0.0
 40
18.0
100
AcDbArc
 50
309.7090165531
 51
0.0
  0
ARC
  5
22B
330
228
100
AcDbEntity
  8
$DDT_AUDIT_GENERATED_(77)
  6
Continuous
 62
     7
100
AcDbCircle
 10
127.1184027391
 20
270.3865790813
 30
0.0
 40
18.0
100
AcDbArc
 50
0.0
 51
230.2909834469
  0
LINE
  5
22C
330
228
100
AcDbEntity
  8
$DDT_AUDIT_GENERATED_(82)
  6
Continuous
 62
     7
100
AcDbLine
 10
72.1184027391
 20
269.7865790326
 30
0.0
 11
72.1184027391
 21
234.7865790326
 31
0.0
  0
LINE
  5
22D
330
228
100
AcDbEntity
  8
$DDT_AUDIT_GENERATED_(82)
  6
Continuous
 62
     7
100
AcDbLine
 10
182.1184027391
 20
234.7865790326
 30
0.0
 11
182.1184027391
 21
269.7865790326
 31
0.0
  0
ARC
  5
22E
330
228
100
AcDbEntity
  8
$DDT_AUDIT_GENERATED_(82)
  6
Continuous
 62
     7
100
AcDbCircle
 10
72.6184027391
 20
269.7865790326
 30
0.0
 40
0.5000000000000004
100
AcDbArc
 50
90.0
 51
180.0
  0
ARC
  5
22F
330
228
100
AcDbEntity
  8
$DDT_AUDIT_GENERATED_(82)
  6
Continuous
 62
     7
100
AcDbCircle
 10
72.6184027391
 20
234.7865790326
 30
0.0
 40
0.5000000000000004
100
AcDbArc
 50
180.0
 51
270.0
  0
ARC
  5
230
330
228
100
AcDbEntity
  8
$DDT_AUDIT_GENERATED_(82)
  6
Continuous
 62
     7
100
AcDbCircle
 10
181.6184027391
 20
269.7865790326
 30
0.0
 40
0.5000000000000004
100
AcDbArc
 50
0.0
 51
90.0
  0
ARC
  5
231
330
228
100
AcDbEntity
  8
$DDT_AUDIT_GENERATED_(82)
  6
Continuous
 62
     7
100
AcDbCircle
 10
181.6184027391
 20
234.7865790326
 30
0.0
 40
0.5000000000000004
100
AcDbArc
 50
270.0
 51
0.0
  0
LINE
  5
232
330
228
100
AcDbEntity
  8
$DDT_AUDIT_GENERATED_(82)
  6
Continuous
 62
     7
100
AcDbLine
 10
109.1186805193
 20
270.2865790326
 30
0.0
 11
72.6184027391
 21
270.2865790326
 31
0.0
  0
LINE
  5
233
330
228
100
AcDbEntity
  8
$DDT_AUDIT_GENERATED_(82)
  6
Continuous
 62
     7
100
AcDbLine
 10
181.6184027391
 20
270.2865790326
 30
0.0
 11
145.118124959
 21
270.2865790326
 31
0.0
  0
LINE
  5
234
330
228
100
AcDbEntity
  8
$DDT_AUDIT_GENERATED_(82)
  6
Continuous
 62
     7
100
AcDbLine
 10
72.6184027391
 20
234.2865790326
 30
0.0
 11
115.6184027391
 21
234.2865790326
 31
0.0
  0
LINE
  5
235
330
228
100
AcDbEntity
  8
$DDT_AUDIT_GENERATED_(82)
  6
Continuous
 62
     7
100
AcDbLine
 10
138.6184027391
 20
234.2865790326
 30
0.0
 11
181.6184027391
 21
234.2865790326
 31
0.0
  0
LINE
  5
236
330
228
100
AcDbEntity
  8
$DDT_AUDIT_GENERATED_(8B)
  6
Continuous
 62
     7
100
AcDbLine
 10
68.1984027391
 20
266.6365790326
 30
0.0
 11
68.1984027391
 21
237.9365790326
 31
0.0
  0
LINE
  5
237
330
228
100
AcDbEntity
  8
$DDT_AUDIT_GENERATED_(8B)
  6
Continuous
 62
     7
100
AcDbLine
 10
72.1184027391
 20
267.1365790326
 30
0.0
 11
68.6984027391
 21
267.1365790326
 31
0.0
  0
LINE
  5
238
330
228
100
AcDbEntity
  8
$DDT_AUDIT_GENERATED_(8B)
  6
Continuous
 62
     7
100
AcDbLine
 10
68.6984027391
 20
237.4365790326
 30
0.0
 11
72.1184027391
 21
237.4365790326
 31
0.0
  0
LINE
  5
239
330
228
100
AcDbEntity
  8
$DDT_AUDIT_GENERATED_(8B)
  6
Continuous
 62
     7
100
AcDbLine
 10
67.9984027391
 20
244.7865790326
 30
0.0
 11
68.1984027391
 21
244.7865790326
 31
0.0
  0
LINE
  5
23A
330
228
100
AcDbEntity
  8
$DDT_AUDIT_GENERATED_(8B)
  6
Continuous
 62
     7
100
AcDbLine
 10
68.1984027391
 20
259.7865790326
 30
0.0
 11
67.9984027391
 21
259.7865790326
 31
0.0
  0
ARC
  5
23B
330
228
100
AcDbEntity
  8
$DDT_AUDIT_GENERATED_(8B)
  6
Continuous
 62
     7
100
AcDbCircle
 10
68.6984027391
 20
266.6365790326
 30
0.0
 40
0.5000000000000004
100
AcDbArc
 50
90.0
 51
180.0
  0
ARC
  5
23C
330
228
100
AcDbEntity
  8
$DDT_AUDIT_GENERATED_(8B)
  6
Continuous
 62
     7
100
AcDbCircle
 10
68.6984027391
 20
237.9365790326
 30
0.0
 40
0.5000000000000004
100
AcDbArc
 50
180.0
 51
270.0
  0
LINE
  5
23D
330
228
100
AcDbEntity
  8
$DDT_AUDIT_GENERATED_(93)
  6
Continuous
 62
     7
100
AcDbLine
 10
67.9984027391
 20
262.0365790326
 30
0.0
 11
67.9984027391
 21
242.5365790326
 31
0.0
  0
SPLINE
  5
23E
330
228
100
AcDbEntity
  8
$DDT_AUDIT_GENERATED_(93)
  6
Continuous
 62
     7
100
AcDbSpline
210
0.0
220
0.0
230
1.0
 70
     8
 71
     3
 72
     8
 73
     4
 74
     0
 42
0.0000000002821995
 43
0.0000000001
 40
0.0
 40
0.0
 40
0.0
 40
0.0
 40
0.0984500272196264
 40
0.0984500272196264
 40
0.0984500272196264
 40
0.0984500272196264
 10
52.4984027391441
 20
242.6309892766173
 30
0.0
 10
53.78366194310662
 20
242.6309892766172
 30
0.0
 10
54.99776136994214
 20
242.5348921904932
 30
0.0
 10
55.98327254411953
 20
242.5359310788769
 30
0.0
  0
SPLINE
  5
23F
330
228
100
AcDbEntity
  8
$DDT_AUDIT_GENERATED_(93)
  6
Continuous
 62
     7
100
AcDbSpline
210
0.0
220
0.0
230
1.0
 70
     8
 71
     3
 72
    10
 73
     6
 74
     0
 42
0.0000000002806668
 43
0.0000000001
 40
0.9023432343625463
 40
0.9023432343625463
 40
0.9023432343625463
 40
0.9023432343625463
 40
0.9375000000000001
 40
0.9375000000000001
 40
1.0
 40
1.0
 40
1.0
 40
1.0
 10
49.02085976917017
 20
242.5366936660749
 30
0.0
 10
49.37165889191972
 20
242.5372145243394
 30
0.0
 10
49.75124147289221
 20
242.5503857148448
 30
0.0
 10
50.87965519312246
 20
242.5960613357525
 30
0.0
 10
51.68246898558143
 20
242.6309892766173
 30
0.0
 10
52.4984027391441
 20
242.6309892766173
 30
0.0
  0
SPLINE
  5
240
330
228
100
AcDbEntity
  8
$DDT_AUDIT_GENERATED_(93)
  6
Continuous
 62
     7
100
AcDbSpline
210
0.0
220
0.0
230
1.0
 70
     8
 71
     3
 72
    12
 73
     8
 74
     0
 42
0.0000000002817549
 43
0.0000000001
 40
0.4022822089976069
 40
0.4022822089976069
 40
0.4022822089976069
 40
0.4022822089976069
 40
0.4375
 40
0.4375
 40
0.5
 40
0.5
 40
0.5987838826946917
 40
0.5987838826946917
 40
0.5987838826946917
 40
0.5987838826946917
 10
55.98522533438383
 20
262.0363545055577
 30
0.0
 10
55.6342706107654
 20
262.0360620107815
 30
0.0
 10
55.25482009461255
 20
262.0231009658945
 30
0.0
 10
54.13941581610008
 20
261.9780776216827
 30
0.0
 10
53.33857341865978
 20
261.942769923395
 30
0.0
 10
51.23432013552124
 20
261.9412418509016
 30
0.0
 10
50.01090864207443
 20
262.0385412169718
 30
0.0
 10
49.01679014935219
 20
262.037394798489
 30
0.0
  0
LINE
  5
241
330
228
100
AcDbEntity
  8
$DDT_AUDIT_GENERATED_(93)
  6
Continuous
 62
     7
100
AcDbLine
 10
44.9984027391
 20
261.5365790326
 30
0.0
 11
44.9984027391
 21
243.0365790326
 31
0.0
  0
ELLIPSE
  5
242
330
228
100
AcDbEntity
  8
$DDT_AUDIT_GENERATED_(93)
  6
Continuous
 62
     7
100
AcDbEllipse
 10
52.4984027391
 20
284.3295189726
 30
0.0
 11
-6.000000000000005
 21
3.469446951953614E-15
 31
0.0
210
0.0
220
0.0
230
1.0
 40
0.5
 41
6.270279610261002
 42
6.283185307179586
  0
ELLIPSE
  5
243
330
228
100
AcDbEntity
  8
$DDT_AUDIT_GENERATED_(93)
  6
Continuous
 62
     7
100
AcDbEllipse
 10
52.4984027391
 20
220.2436390926
 30
0.0
 11
-6.000000000000005
 21
1.387778780781446E-14
 31
0.0
210
0.0
220
0.0
230
1.0
 40
0.5
 41
6.270279610260907
 42
6.283185307179586
  0
CIRCLE
  5
244
330
228
100
AcDbEntity
  8
$DDT_AUDIT_GENERATED_(93)
  6
Continuous
 62
     7
100
AcDbCircle
 10
52.4984027391
 20
252.2865790326
 30
0.0
 40
6.0
  0
LINE
  5
245
330
228
100
AcDbEntity
  8
$DDT_AUDIT_GENERATED_(93)
  6
Continuous
 62
     7
100
AcDbLine
 10
58.4984027391
 20
220.2436390926
 30
0.0
 11
58.4984027391
 21
242.5365790326
 31
0.0
  0
LINE
  5
246
330
228
100
AcDbEntity
  8
$DDT_AUDIT_GENERATED_(93)
  6
Continuous
 62
     7
100
AcDbLine
 10
46.4984027391
 20
242.5365790326
 30
0.0
 11
46.4984027391
 21
220.2436390926
 31
0.0
  0
LINE
  5
247
330
228
100
AcDbEntity
  8
$DDT_AUDIT_GENERATED_(93)
  6
Continuous
 62
     7
100
AcDbLine
 10
55.9761481913
 20
242.5365790326
 30
0.0
 11
67.9984027391
 21
242.5365790326
 31
0.0
  0
LINE
  5
248
330
228
100
AcDbEntity
  8
$DDT_AUDIT_GENERATED_(93)
  6
Continuous
 62
     7
100
AcDbLine
 10
45.4984027391
 20
242.5365790326
 30
0.0
 11
49.035191847
 21
242.5365790326
 31
0.0
  0
LINE
  5
249
330
228
100
AcDbEntity
  8
$DDT_AUDIT_GENERATED_(93)
  6
Continuous
 62
     7
100
AcDbLine
 10
49.0261047602
 20
262.0365790326
 30
0.0
 11
45.4984027391
 21
262.0365790326
 31
0.0
  0
LINE
  5
24A
330
228
100
AcDbEntity
  8
$DDT_AUDIT_GENERATED_(93)
  6
Continuous
 62
     7
100
AcDbLine
 10
67.9984027391
 20
262.0365790326
 30
0.0
 11
55.9776882783
 21
262.0365790326
 31
0.0
  0
LINE
  5
24B
330
228
100
AcDbEntity
  8
$DDT_AUDIT_GENERATED_(93)
  6
Continuous
 62
     7
100
AcDbLine
 10
46.4984027391
 20
284.3295189726
 30
0.0
 11
46.4984027391
 21
262.0365790326
 31
0.0
  0
LINE
  5
24C
330
228
100
AcDbEntity
  8
$DDT_AUDIT_GENERATED_(93)
  6
Continuous
 62
     7
100
AcDbLine
 10
58.4984027391
 20
262.0365790326
 30
0.0
 11
58.4984027391
 21
284.3295189726
 31
0.0
  0
ARC
  5
24D
330
228
100
AcDbEntity
  8
$DDT_AUDIT_GENERATED_(93)
  6
Continuous
 62
     7
100
AcDbCircle
 10
45.4984027391
 20
261.5365790326
 30
0.0
 40
0.5000000000000004
100
AcDbArc
 50
90.0
 51
180.0
  0
ARC
  5
24E
330
228
100
AcDbEntity
  8
$DDT_AUDIT_GENERATED_(93)
  6
Continuous
 62
     7
100
AcDbCircle
 10
45.4984027391
 20
243.0365790326
 30
0.0
 40
0.4999999999975024
100
AcDbArc
 50
180.0
 51
270.0
  0
SPLINE
  5
24F
330
228
100
AcDbEntity
  8
$DDT_AUDIT_GENERATED_(93)
  6
Continuous
 62
     7
100
AcDbSpline
210
0.0
220
0.0
230
1.0
 70
     8
 71
     3
 72
    19
 73
    15
 74
     0
 42
0.0000000013423319
 43
0.0000000001
 40
0.0
 40
0.0
 40
0.0
 40
0.0
 40
0.0368293719948338
 40
0.1198368686864547
 40
0.2032973286744982
 40
0.2894673087775751
 40
0.3790013371620032
 40
0.4709153177916034
 40
0.5637333606446293
 40
0.6563648709222561
 40
0.7486129020605435
 40
0.8405146180941097
 40
0.9321765154176511
 40
1.0
 40
1.0
 40
1.0
 40
1.0
 10
58.4832691189408
 20
284.3440027092058
 30
0.0
 10
58.48687824743862
 20
284.4206339204048
 30
0.0
 10
58.49519435911227
 20
284.6330447572866
 30
0.0
 10
58.38541069546929
 20
285.0214722505152
 30
0.0
 10
58.16468047992382
 20
285.4593348211707
 30
0.0
 10
57.83108475086138
 20
285.8747773474884
 30
0.0
 10
57.39327283592802
 20
286.2598806857243
 30
0.0
 10
56.8530841391735
 20
286.6090073593996
 30
0.0
 10
56.2228730646864
 20
286.9128487673892
 30
0.0
 10
55.51908980178661
 20
287.1645685051215
 30
0.0
 10
54.75602734547299
 20
287.3602221901955
 30
0.0
 10
53.95705520387683
 20
287.4961136325745
 30
0.0
 10
53.18059204623252
 20
287.5682739272299
 30
0.0
 10
52.72643175116018
 20
287.5764350055529
 30
0.0
 10
52.49840273914419
 20
287.5795189726287
 30
0.0
  0
SPLINE
  5
250
330
228
100
AcDbEntity
  8
$DDT_AUDIT_GENERATED_(93)
  6
Continuous
 62
     7
100
AcDbSpline
210
0.0
220
0.0
230
1.0
 70
     8
 71
     3
 72
    19
 73
    15
 74
     0
 42
0.0000000013480977
 43
0.0000000001
 40
0.0
 40
0.0
 40
0.0
 40
0.0
 40
0.0485806357445494
 40
0.1406315525058016
 40
0.2328531465897749
 40
0.3253181491456755
 40
0.4181680433598156
 40
0.5115496043438477
 40
0.6055725711339762
 40
0.7001685555742874
 40
0.794416450418433
 40
0.8864776118019515
 40
0.9746636149783497
 40
1.0
 40
1.0
 40
1.0
 40
1.0
 10
52.49840273914419
 20
287.5795189726287
 30
0.0
 10
52.33601613884387
 20
287.5779555268139
 30
0.0
 10
51.93653318474689
 20
287.5726989426748
 30
0.0
 10
51.21603572586125
 20
287.5177099011197
 30
0.0
 10
50.41222229885242
 20
287.3948363530048
 30
0.0
 10
49.64036795466914
 20
287.2123088741284
 30
0.0
 10
48.92390211403971
 20
286.9731660035354
 30
0.0
 10
48.27356966720087
 20
286.6793891603546
 30
0.0
 10
47.70232510593755
 20
286.3329803816241
 30
0.0
 10
47.22433622499445
 20
285.9369847408122
 30
0.0
 10
46.85132396818298
 20
285.494582209972
 30
0.0
 10
46.6103662682909
 20
285.0232041583643
 30
0.0
 10
46.49919410646078
 20
284.6306768241019
 30
0.0
 10
46.50893529135522
 20
284.4300385554065
 30
0.0
 10
46.51176734076839
 20
284.3776741969157
 30
0.0
  0
SPLINE
  5
251
330
228
100
AcDbEntity
  8
$DDT_AUDIT_GENERATED_(93)
  6
Continuous
 62
     7
100
AcDbSpline
210
0.0
220
0.0
230
1.0
 70
     8
 71
     3
 72
    30
 73
    26
 74
     0
 42
0.0000000006669902
 43
0.0000000001
 40
0.0
 40
0.0
 40
0.0
 40
0.0
 40
0.0292557294747302
 40
0.0703908781902412
 40
0.1119175590959809
 40
0.1548854001954178
 40
0.1994957603353238
 40
0.2451875472338447
 40
0.2912319588492621
 40
0.3371564746481576
 40
0.3828891529849441
 40
0.4284560757993479
 40
0.4739118500864367
 40
0.5193158251188075
 40
0.564727076112039
 40
0.6101881463311772
 40
0.6557603177090401
 40
0.7015126095510158
 40
0.7475176625737496
 40
0.7938345163295096
 40
0.8404483414488618
 40
0.8869875966558992
 40
0.932585323093985
 40
0.9763413226377662
 40
1.0
 40
1.0
 40
1.0
 40
1.0
 10
46.51176734076829
 20
220.2917943168672
 30
0.0
 10
46.50856562438582
 20
220.1689153082494
 30
0.0
 10
46.50514254124144
 20
219.918360759472
 30
0.0
 10
46.63375792095661
 20
219.4915651191556
 30
0.0
 10
46.87079777954381
 20
219.0568101166607
 30
0.0
 10
47.21801522019947
 20
218.64512746854
 30
0.0
 10
47.66999488905863
 20
218.2643480000567
 30
0.0
 10
48.2229932771247
 20
217.9207858960736
 30
0.0
 10
48.86393677158416
 20
217.6235854880003
 30
0.0
 10
49.57667057905768
 20
217.3791393588704
 30
0.0
 10
50.34490190271801
 20
217.1914137737901
 30
0.0
 10
51.15340599865925
 20
217.0627625010411
 30
0.0
 10
51.98681065429653
 20
216.994738099253
 30
0.0
 10
52.8294830375875
 20
216.9881409206415
 30
0.0
 10
53.66557163234872
 20
217.0429841813132
 30
0.0
 10
54.47939966884668
 20
217.1584690473285
 30
0.0
 10
55.25582466044157
 20
217.3330693241873
 30
0.0
 10
55.98063576205101
 20
217.5647800313482
 30
0.0
 10
56.64051839007558
 20
217.8513655269375
 30
0.0
 10
57.2230511994396
 20
218.1908461756357
 30
0.0
 10
57.71446157832416
 20
218.5803962714283
 30
0.0
 10
58.102002497012
 20
219.0170495257682
 30
0.0
 10
58.36286434920795
 20
219.4853612624217
 30
0.0
 10
58.4930995622962
 20
219.9182265362864
 30
0.0
 10
58.48687306625791
 20
220.1588052753524
 30
0.0
 10
58.48326911894067
 20
220.2581228291573
 30
0.0
  0
LINE
  5
252
330
228
100
AcDbEntity
  8
$DDT_AUDIT_GENERATED_(8B)
  6
Continuous
 62
     7
100
AcDbLine
 10
186.0384027391
 20
237.9365790326
 30
0.0
 11
186.0384027391
 21
266.6365790326
 31
0.0
  0
LINE
  5
253
330
228
100
AcDbEntity
  8
$DDT_AUDIT_GENERATED_(8B)
  6
Continuous
 62
     7
100
AcDbLine
 10
182.1184027391
 20
237.4365790326
 30
0.0
 11
185.5384027391
 21
237.4365790326
 31
0.0
  0
LINE
  5
254
330
228
100
AcDbEntity
  8
$DDT_AUDIT_GENERATED_(8B)
  6
Continuous
 62
     7
100
AcDbLine
 10
185.5384027391
 20
267.1365790326
 30
0.0
 11
182.1184027391
 21
267.1365790326
 31
0.0
  0
LINE
  5
255
330
228
100
AcDbEntity
  8
$DDT_AUDIT_GENERATED_(8B)
  6
Continuous
 62
     7
100
AcDbLine
 10
186.2384027392
 20
259.7865790326
 30
0.0
 11
186.0384027391
 21
259.7865790326
 31
0.0
  0
LINE
  5
256
330
228
100
AcDbEntity
  8
$DDT_AUDIT_GENERATED_(8B)
  6
Continuous
 62
     7
100
AcDbLine
 10
186.0384027391
 20
244.7865790326
 30
0.0
 11
186.2384027392
 21
244.7865790326
 31
0.0
  0
ARC
  5
257
330
228
100
AcDbEntity
  8
$DDT_AUDIT_GENERATED_(8B)
  6
Continuous
 62
     7
100
AcDbCircle
 10
185.5384027391
 20
237.9365790326
 30
0.0
 40
0.5000000000000004
100
AcDbArc
 50
270.0
 51
0.0
  0
ARC
  5
258
330
228
100
AcDbEntity
  8
$DDT_AUDIT_GENERATED_(8B)
  6
Continuous
 62
     7
100
AcDbCircle
 10
185.5384027391
 20
266.6365790326
 30
0.0
 40
0.5000000000000004
100
AcDbArc
 50
0.0
 51
90.0
  0
LINE
  5
259
330
228
100
AcDbEntity
  8
$DDT_AUDIT_GENERATED_(93)
  6
Continuous
 62
     7
100
AcDbLine
 10
186.2384027392
 20
242.5365790326
 30
0.0
 11
186.2384027392
 21
262.0365790326
 31
0.0
  0
SPLINE
  5
25A
330
228
100
AcDbEntity
  8
$DDT_AUDIT_GENERATED_(93)
  6
Continuous
 62
     7
100
AcDbSpline
210
0.0
220
0.0
230
1.0
 70
     8
 71
     3
 72
    12
 73
     8
 74
     0
 42
0.0000000002817549
 43
0.0000000001
 40
0.4022822089976143
 40
0.4022822089976143
 40
0.4022822089976143
 40
0.4022822089976143
 40
0.4374999999999999
 40
0.4374999999999999
 40
0.5
 40
0.5
 40
0.5987838826946846
 40
0.5987838826946846
 40
0.5987838826946846
 40
0.5987838826946846
 10
205.2252253343838
 20
242.5368035596511
 30
0.0
 10
204.8742706107654
 20
242.5370960544273
 30
0.0
 10
204.4948200946126
 20
242.5500570993143
 30
0.0
 10
203.3794158161002
 20
242.5950804435261
 30
0.0
 10
202.5785734186599
 20
242.6303881418138
 30
0.0
 10
200.4743201355215
 20
242.6319162143071
 30
0.0
 10
199.2509086420748
 20
242.534616848237
 30
0.0
 10
198.2567901493526
 20
242.5357632667198
 30
0.0
  0
SPLINE
  5
25B
330
228
100
AcDbEntity
  8
$DDT_AUDIT_GENERATED_(93)
  6
Continuous
 62
     7
100
AcDbSpline
210
0.0
220
0.0
230
1.0
 70
     8
 71
     3
 72
     8
 73
     4
 74
     0
 42
0.0000000002822023
 43
0.0000000001
 40
0.0
 40
0.0
 40
0.0
 40
0.0
 40
0.0984565339952382
 40
0.0984565339952382
 40
0.0984565339952382
 40
0.0984565339952382
 10
201.7384027391443
 20
261.9421687885916
 30
0.0
 10
200.4530585896162
 20
261.9421687885915
 30
0.0
 10
199.2388836237336
 20
262.0382785776646
 30
0.0
 10
198.253337533458
 20
262.0372267790717
 30
0.0
  0
SPLINE
  5
25C
330
228
100
AcDbEntity
  8
$DDT_AUDIT_GENERATED_(93)
  6
Continuous
 62
     7
100
AcDbSpline
210
0.0
220
0.0
230
1.0
 70
     8
 71
     3
 72
    10
 73
     6
 74
     0
 42
0.0000000002806797
 43
0.0000000001
 40
0.9023151690163186
 40
0.9023151690163186
 40
0.9023151690163186
 40
0.9023151690163186
 40
0.9375000000000001
 40
0.9375000000000001
 40
1.0
 40
1.0
 40
1.0
 40
1.0
 10
205.216785773934
 20
262.0364656223342
 30
0.0
 10
204.8657526044608
 20
262.0359645676822
 30
0.0
 10
204.4858882975386
 20
262.0227854769723
 30
0.0
 10
203.357150285166
 20
261.9770967294563
 30
0.0
 10
202.554336492707
 20
261.9421687885916
 30
0.0
 10
201.7384027391443
 20
261.9421687885916
 30
0.0
  0
LINE
  5
25D
330
228
100
AcDbEntity
  8
$DDT_AUDIT_GENERATED_(93)
  6
Continuous
 62
     7
100
AcDbLine
 10
209.2384027391
 20
243.0365790326
 30
0.0
 11
209.2384027391
 21
261.5365790326
 31
0.0
  0
ELLIPSE
  5
25E
330
228
100
AcDbEntity
  8
$DDT_AUDIT_GENERATED_(93)
  6
Continuous
 62
     7
100
AcDbEllipse
 10
201.7384027391
 20
284.3295189726
 30
0.0
 11
6.000000000000005
 21
5.204170427930421E-15
 31
0.0
210
0.0
220
0.0
230
1.0
 40
0.5
 41
6.270279610261372
 42
6.283185307179586
  0
CIRCLE
  5
25F
330
228
100
AcDbEntity
  8
$DDT_AUDIT_GENERATED_(93)
  6
Continuous
 62
     7
100
AcDbCircle
 10
201.7384027391
 20
252.2865790326
 30
0.0
 40
6.0
  0
ELLIPSE
  5
260
330
228
100
AcDbEntity
  8
$DDT_AUDIT_GENERATED_(93)
  6
Continuous
 62
     7
100
AcDbEllipse
 10
201.7384027391
 20
220.2436390926
 30
0.0
 11
6.000000000000005
 21
1.387778780781446E-14
 31
0.0
210
0.0
220
0.0
230
1.0
 40
0.5
 41
3.128686956671579
 42
3.141592653589793
  0
LINE
  5
261
330
228
100
AcDbEntity
  8
$DDT_AUDIT_GENERATED_(93)
  6
Continuous
 62
     7
100
AcDbLine
 10
207.7384027391
 20
220.2436390926
 30
0.0
 11
207.7384027391
 21
242.5365790326
 31
0.0
  0
LINE
  5
262
330
228
100
AcDbEntity
  8
$DDT_AUDIT_GENERATED_(93)
  6
Continuous
 62
     7
100
AcDbLine
 10
195.7384027391
 20
242.5365790326
 30
0.0
 11
195.7384027391
 21
220.2436390926
 31
0.0
  0
LINE
  5
263
330
228
100
AcDbEntity
  8
$DDT_AUDIT_GENERATED_(93)
  6
Continuous
 62
     7
100
AcDbLine
 10
198.260334855
 20
262.0365790326
 30
0.0
 11
186.2384027392
 21
262.0365790326
 31
0.0
  0
LINE
  5
264
330
228
100
AcDbEntity
  8
$DDT_AUDIT_GENERATED_(93)
  6
Continuous
 62
     7
100
AcDbLine
 10
208.7384027391
 20
262.0365790326
 30
0.0
 11
205.2030197134
 21
262.0365790326
 31
0.0
  0
LINE
  5
265
330
228
100
AcDbEntity
  8
$DDT_AUDIT_GENERATED_(93)
  6
Continuous
 62
     7
100
AcDbLine
 10
205.2176882783
 20
242.5365790326
 30
0.0
 11
208.7384027391
 21
242.5365790326
 31
0.0
  0
LINE
  5
266
330
228
100
AcDbEntity
  8
$DDT_AUDIT_GENERATED_(93)
  6
Continuous
 62
     7
100
AcDbLine
 10
186.2384027392
 20
242.5365790326
 30
0.0
 11
198.2661047602
 21
242.5365790326
 31
0.0
  0
LINE
  5
267
330
228
100
AcDbEntity
  8
$DDT_AUDIT_GENERATED_(93)
  6
Continuous
 62
     7
100
AcDbLine
 10
195.7384027391
 20
284.3295189726
 30
0.0
 11
195.7384027391
 21
262.0365790326
 31
0.0
  0
LINE
  5
268
330
228
100
AcDbEntity
  8
$DDT_AUDIT_GENERATED_(93)
  6
Continuous
 62
     7
100
AcDbLine
 10
207.7384027391
 20
262.0365790326
 30
0.0
 11
207.7384027391
 21
284.3295189726
 31
0.0
  0
ARC
  5
269
330
228
100
AcDbEntity
  8
$DDT_AUDIT_GENERATED_(93)
  6
Continuous
 62
     7
100
AcDbCircle
 10
208.7384027391
 20
243.0365790326
 30
0.0
 40
0.5000000000000004
100
AcDbArc
 50
270.0
 51
0.0
  0
ARC
  5
26A
330
228
100
AcDbEntity
  8
$DDT_AUDIT_GENERATED_(93)
  6
Continuous
 62
     7
100
AcDbCircle
 10
208.7384027391
 20
261.5365790326
 30
0.0
 40
0.4999999999975024
100
AcDbArc
 50
0.0
 51
90.0
  0
SPLINE
  5
26B
330
228
100
AcDbEntity
  8
$DDT_AUDIT_GENERATED_(93)
  6
Continuous
 62
     7
100
AcDbSpline
210
0.0
220
0.0
230
1.0
 70
     8
 71
     3
 72
    30
 73
    26
 74
     0
 42
0.0000000006669902
 43
0.0000000001
 40
0.0
 40
0.0
 40
0.0
 40
0.0
 40
0.0292557294747281
 40
0.0703908781902387
 40
0.1119175590959785
 40
0.1548854001954165
 40
0.1994957603353222
 40
0.2451875472338407
 40
0.2912319588492572
 40
0.3371564746481527
 40
0.3828891529849395
 40
0.4284560757993434
 40
0.4739118500864306
 40
0.5193158251188029
 40
0.5647270761120352
 40
0.6101881463311731
 40
0.655760317709036
 40
0.7015126095510095
 40
0.7475176625737447
 40
0.7938345163295042
 40
0.8404483414488567
 40
0.8869875966558938
 40
0.9325853230939803
 40
0.9763413226377621
 40
1.0
 40
1.0
 40
1.0
 40
1.0
 10
207.72503813752
 20
284.2813637483416
 30
0.0
 10
207.7282398539025
 20
284.4042427569594
 30
0.0
 10
207.7316629370469
 20
284.6547973057368
 30
0.0
 10
207.6030475573316
 20
285.0815929460531
 30
0.0
 10
207.3660076987446
 20
285.5163479485481
 30
0.0
 10
207.0187902580889
 20
285.9280305966687
 30
0.0
 10
206.5668105892297
 20
286.3088100651521
 30
0.0
 10
206.0138122011636
 20
286.6523721691352
 30
0.0
 10
205.3728687067043
 20
286.9495725772084
 30
0.0
 10
204.6601348992307
 20
287.1940187063383
 30
0.0
 10
203.8919035755705
 20
287.3817442914187
 30
0.0
 10
203.0833994796291
 20
287.5103955641677
 30
0.0
 10
202.2499948239919
 20
287.5784199659558
 30
0.0
 10
201.4073224407009
 20
287.5850171445673
 30
0.0
 10
200.5712338459397
 20
287.5301738838955
 30
0.0
 10
199.7574058094417
 20
287.4146890178804
 30
0.0
 10
198.9809808178468
 20
287.2400887410215
 30
0.0
 10
198.2561697162374
 20
287.0083780338605
 30
0.0
 10
197.5962870882128
 20
286.7217925382714
 30
0.0
 10
197.0137542788488
 20
286.3823118895731
 30
0.0
 10
196.5223438999641
 20
285.9927617937805
 30
0.0
 10
196.1348029812764
 20
285.5561085394406
 30
0.0
 10
195.8739411290803
 20
285.0877968027871
 30
0.0
 10
195.7437059159921
 20
284.6549315289224
 30
0.0
 10
195.7499324120304
 20
284.4143527898564
 30
0.0
 10
195.7535363593477
 20
284.3150352360514
 30
0.0
  0
SPLINE
  5
26C
330
228
100
AcDbEntity
  8
$DDT_AUDIT_GENERATED_(93)
  6
Continuous
 62
     7
100
AcDbSpline
210
0.0
220
0.0
230
1.0
 70
     8
 71
     3
 72
    30
 73
    26
 74
     0
 42
0.0000000006669902
 43
0.0000000001
 40
0.0
 40
0.0
 40
0.0
 40
0.0
 40
0.0292557294747285
 40
0.0703908781902392
 40
0.1119175590959779
 40
0.1548854001954162
 40
0.1994957603353217
 40
0.2451875472338403
 40
0.291231958849257
 40
0.3371564746481527
 40
0.3828891529849394
 40
0.4284560757993426
 40
0.4739118500864314
 40
0.519315825118803
 40
0.5647270761120344
 40
0.6101881463311725
 40
0.6557603177090352
 40
0.7015126095510108
 40
0.7475176625737452
 40
0.7938345163295041
 40
0.8404483414488573
 40
0.8869875966558949
 40
0.9325853230939811
 40
0.9763413226377626
 40
1.0
 40
1.0
 40
1.0
 40
1.0
 10
195.7517673407686
 20
220.2917943168671
 30
0.0
 10
195.7485656243861
 20
220.1689153082493
 30
0.0
 10
195.7451425412417
 20
219.9183607594719
 30
0.0
 10
195.8737579209571
 20
219.4915651191557
 30
0.0
 10
196.1107977795441
 20
219.0568101166606
 30
0.0
 10
196.4580152201997
 20
218.64512746854
 30
0.0
 10
196.9099948890589
 20
218.2643480000566
 30
0.0
 10
197.4629932771251
 20
217.9207858960736
 30
0.0
 10
198.1039367715844
 20
217.6235854880003
 30
0.0
 10
198.8166705790579
 20
217.3791393588704
 30
0.0
 10
199.5849019027182
 20
217.1914137737901
 30
0.0
 10
200.3934059986595
 20
217.062762501041
 30
0.0
 10
201.2268106542967
 20
216.994738099253
 30
0.0
 10
202.0694830375877
 20
216.9881409206414
 30
0.0
 10
202.905571632349
 20
217.0429841813133
 30
0.0
 10
203.719399668847
 20
217.1584690473283
 30
0.0
 10
204.4958246604417
 20
217.3330693241873
 30
0.0
 10
205.2206357620513
 20
217.5647800313482
 30
0.0
 10
205.8805183900759
 20
217.8513655269374
 30
0.0
 10
206.4630511994399
 20
218.1908461756357
 30
0.0
 10
206.9544615783244
 20
218.5803962714282
 30
0.0
 10
207.3420024970122
 20
219.0170495257681
 30
0.0
 10
207.6028643492083
 20
219.4853612624217
 30
0.0
 10
207.7330995622966
 20
219.9182265362863
 30
0.0
 10
207.7268730662582
 20
220.1588052753524
 30
0.0
 10
207.723269118941
 20
220.2581228291573
 30
0.0
  0
ARC
  5
26D
330
228
100
AcDbEntity
  8
$DDT_AUDIT_GENERATED_(D0)
  6
Continuous
 62
     7
100
AcDbCircle
 10
127.1184027391
 20
270.3865790813
 30
0.0
 40
22.5
100
AcDbArc
 50
359.7453511287
 51
0.0
  0
ARC
  5
26E
330
228
100
AcDbEntity
  8
$DDT_AUDIT_GENERATED_(D0)
  6
Continuous
 62
     7
100
AcDbCircle
 10
127.1184027391
 20
270.3865790813
 30
0.0
 40
22.5
100
AcDbArc
 50
0.0
 51
180.2546488713
  0
ARC
  5
26F
330
228
100
AcDbEntity
  8
$DDT_AUDIT_GENERATED_(D0)
  6
Continuous
 62
     7
100
AcDbCircle
 10
127.1184027391
 20
270.3865790813
 30
0.0
 40
27.5
100
AcDbArc
 50
359.7916511503
 51
0.0
  0
ARC
  5
270
330
228
100
AcDbEntity
  8
$DDT_AUDIT_GENERATED_(D0)
  6
Continuous
 62
     7
100
AcDbCircle
 10
127.1184027391
 20
270.3865790813
 30
0.0
 40
27.5
100
AcDbArc
 50
0.0
 51
180.2083488497
  0
ARC
  5
271
330
228
100
AcDbEntity
  8
$DDT_AUDIT_GENERATED_(DE)
  6
Continuous
 62
     7
100
AcDbCircle
 10
127.1184027391
 20
270.3865790813
 30
0.0
 40
14.99999999999999
100
AcDbArc
 50
320.0554948102
 51
0.0
  0
ARC
  5
272
330
228
100
AcDbEntity
  8
$DDT_AUDIT_GENERATED_(DE)
  6
Continuous
 62
     7
100
AcDbCircle
 10
127.1184027391
 20
270.3865790813
 30
0.0
 40
14.99999999999999
100
AcDbArc
 50
0.0
 51
219.9445051898
  0
ARC
  5
273
330
228
100
AcDbEntity
  8
$DDT_AUDIT_GENERATED_(EA)
  6
Continuous
 62
     7
100
AcDbCircle
 10
127.1184027391
 20
270.3865790813
 30
0.0
 40
11.5
100
AcDbArc
 50
0.0
 51
180.0
  0
ELLIPSE
  5
274
330
228
100
AcDbEntity
  8
$DDT_AUDIT_GENERATED_(EA)
  6
Continuous
 62
     7
100
AcDbEllipse
 10
127.1184027391
 20
120.5709326282
 30
0.0
 11
-11.50000000000006
 21
-2.026157019940911E-12
 31
0.0
210
0.0
220
0.0
230
1.0
 40
0.984807753
 41
0.0000000000000005
 42
3.141592653589793
  0
LINE
  5
275
330
228
100
AcDbEntity
  8
$DDT_AUDIT_GENERATED_(EA)
  6
Continuous
 62
     7
100
AcDbLine
 10
115.6184027391
 20
270.3865790813
 30
0.0
 11
115.6184027391
 21
121.5259976054
 31
0.0
  0
LINE
  5
276
330
228
100
AcDbEntity
  8
$DDT_AUDIT_GENERATED_(EA)
  6
Continuous
 62
     7
100
AcDbLine
 10
138.6184027391
 20
121.5259976054
 30
0.0
 11
138.6184027391
 21
270.3865790813
 31
0.0
  0
LINE
  5
277
330
228
100
AcDbEntity
  8
$DDT_AUDIT_GENERATED_(EA)
  6
Continuous
 62
     7
100
AcDbLine
 10
138.6184027391
 20
120.5709326282
 30
0.0
 11
138.6184027391
 21
121.5259976054
 31
0.0
  0
LINE
  5
278
330
228
100
AcDbEntity
  8
$DDT_AUDIT_GENERATED_(EA)
  6
Continuous
 62
     7
100
AcDbLine
 10
115.6184027391
 20
121.5259976054
 30
0.0
 11
115.6184027391
 21
120.5709326282
 31
0.0
  0
ELLIPSE
  5
279
330
228
100
AcDbEntity
  8
$DDT_AUDIT_GENERATED_(F8)
  6
Continuous
 62
     7
100
AcDbEllipse
 10
127.1184027391
 20
117.7491497411
 30
0.0
 11
11.575
 21
8.326672684688675E-14
 31
0.0
210
0.0
220
0.0
230
1.0
 40
0.984807753
 41
3.141592653589783
 42
6.283185307179586
  0
ELLIPSE
  5
27A
330
228
100
AcDbEntity
  8
$DDT_AUDIT_GENERATED_(F8)
  6
Continuous
 62
     7
100
AcDbEllipse
 10
127.1184027391
 20
120.5014733571
 30
0.0
 11
11.57499999999997
 21
-1.082467449009528E-12
 31
0.0
210
0.0
220
0.0
230
1.0
 40
0.984807753
 41
3.027693654143627
 42
6.283185307179586
  0
ELLIPSE
  5
27B
330
228
100
AcDbEntity
  8
$DDT_AUDIT_GENERATED_(F8)
  6
Continuous
 62
     7
100
AcDbEllipse
 10
127.1184027391
 20
120.5014733571
 30
0.0
 11
11.57499999999997
 21
-1.082467449009528E-12
 31
0.0
210
0.0
220
0.0
230
1.0
 40
0.984807753
 41
0.0
 42
0.1138989994463385
  0
LINE
  5
27C
330
228
100
AcDbEntity
  8
$DDT_AUDIT_GENERATED_(F8)
  6
Continuous
 62
     7
100
AcDbLine
 10
138.6934027391
 20
117.7491497411
 30
0.0
 11
138.6934027391
 21
120.5014733571
 31
0.0
  0
LINE
  5
27D
330
228
100
AcDbEntity
  8
$DDT_AUDIT_GENERATED_(F8)
  6
Continuous
 62
     7
100
AcDbLine
 10
115.5434027391
 20
120.5014733571
 30
0.0
 11
115.5434027391
 21
117.7491497411
 31
0.0
  0
ARC
  5
27E
330
228
100
AcDbEntity
  8
$DDT_AUDIT_GENERATED_(1B2)
  6
Continuous
 62
     7
100
AcDbCircle
 10
127.1184027391
 20
270.3865790813
 30
0.0
 40
18.0
100
AcDbArc
 50
359.9991157993
 51
0.0
  0
ARC
  5
27F
330
228
100
AcDbEntity
  8
$DDT_AUDIT_GENERATED_(1B2)
  6
Continuous
 62
     7
100
AcDbCircle
 10
127.1184027391
 20
270.3865790813
 30
0.0
 40
18.0
100
AcDbArc
 50
0.0
 51
180.0008842007
  0
ENDBLK
  5
281
330
228
100
AcDbEntity
  8
0
100
AcDbBlockEnd
  0
ENDSEC
  0
SECTION
  2
ENTITIES
  0
INSERT
  5
5F
330
1F
100
AcDbEntity
  8
Default
100
AcDbBlockReference
  2
SEANNOT_GROUP
 10
0.0
 20
0.0
 30
0.0
  0
INSERT
  5
66
330
1F
100
AcDbEntity
  8
Default
100
AcDbBlockReference
  2
SEANNOT_GROUP1
 10
0.0
 20
0.0
 30
0.0
  0
INSERT
  5
6C
330
1F
100
AcDbEntity
  8
Default
100
AcDbBlockReference
  2
SEANNOT_GROUP2
 10
0.0
 20
0.0
 30
0.0
  0
INSERT
  5
76
330
1F
100
AcDbEntity
  8
Default
100
AcDbBlockReference
  2
SE
 10
0.0
 20
0.0
 30
0.0
  0
INSERT
  5
1B9
330
1F
100
AcDbEntity
  8
Default
100
AcDbBlockReference
  2
SE1
 10
0.0
 20
0.0
 30
0.0
  0
INSERT
  5
229
330
1F
100
AcDbEntity
  8
Default
100
AcDbBlockReference
  2
SE2
 10
0.0
 20
0.0
 30
0.0
  0
TEXT
  5
283
330
1F
100
AcDbEntity
  8
Default
  6
Continuous
 62
     7
100
AcDbText
 10
5.9362635081
 20
53.4225120485
 30
0.0
 40
10.0
  1
Grohe AG^J
  7
SEACAD_seiso_ttf
 11
5.9362635081
 21
63.4225120485
 31
0.0
100
AcDbText
 73
     3
  0
TEXT
  5
284
330
1F
100
AcDbEntity
  8
Default
  6
Continuous
 62
     7
100
AcDbText
 10
5.9362635081
 20
37.0588756849
 30
0.0
 40
10.0
  1
 
  7
SEACAD_seiso_ttf
 11
5.9362635081
 21
47.0588756849
 31
0.0
100
AcDbText
 73
     3
  0
TEXT
  5
285
330
1F
100
AcDbEntity
  8
Default
  6
Continuous
 62
     7
100
AcDbText
 10
5.9362635081
 20
20.6952393213
 30
0.0
 40
10.0
  1
ecn: 
  7
SEACAD_seiso_ttf
 11
5.9362635081
 21
30.6952393213
 31
0.0
100
AcDbText
 73
     3
  0
TEXT
  5
286
330
1F
100
AcDbEntity
  8
Default
  6
Continuous
 62
     7
100
AcDbText
 10
5.9362635081
 20
4.3316029576
 30
0.0
 40
10.0
  1
unit: mm
  7
SEACAD_seiso_ttf
 11
5.9362635081
 21
14.3316029576
 31
0.0
100
AcDbText
 73
     3
  0
LINE
  5
287
330
1F
100
AcDbEntity
  8
Default
  6
Continuous
 62
     7
100
AcDbLine
 10
0.0
 20
0.0
 30
0.0
 11
100.0
 21
0.0
 31
0.0
  0
LINE
  5
288
330
1F
100
AcDbEntity
  8
Default
  6
Continuous
 62
     7
100
AcDbLine
 10
0.0
 20
0.0
 30
0.0
 11
0.0
 21
100.0
 31
0.0
  0
TEXT
  5
289
330
1F
100
AcDbEntity
  8
Default
  6
Continuous
 62
     7
100
AcDbText
 10
24.3923665681
 20
-18.2375342018
 30
0.0
 40
10.0
  1
100 mm
  7
SEACAD_seiso_ttf
 11
24.3923665681
 21
-8.2375342018
 31
0.0
100
AcDbText
 73
     3
  0
TEXT
  5
28A
330
1F
100
AcDbEntity
  8
Default
  6
Continuous
 62
     7
100
AcDbText
 10
-7.6150308803
 20
24.6231930421
 30
0.0
 40
10.0
  1
100 mm
 50
90.0
  7
SEACAD_seiso_ttf
 11
-17.6150308803
 21
24.6231930421
 31
0.0
100
AcDbText
 73
     3
  0
TEXT
  5
28B
330
1F
100
AcDbEntity
  8
Default
  6
Continuous
 62
     7
100
AcDbText
 10
28.4878128572
 20
20.0907663715
 30
0.0
 40
10.0
  1
216724
  7
SEACAD_seiso_ttf
 11
28.4878128572
 21
30.0907663715
 31
0.0
100
AcDbText
 73
     3
  0
TEXT
  5
28C
330
1F
100
AcDbEntity
  8
Default
  6
Continuous
 62
     7
100
AcDbText
 10
5.9012241913
 20
36.7242780188
 30
0.0
 40
10.0
  1
21044000
  7
SEACAD_seiso_ttf
 11
5.9012241913
 21
46.7242780188
 31
0.0
100
AcDbText
 73
     3
  0
ENDSEC
  0
SECTION
  2
OBJECTS
  0
DICTIONARY
  5
C
330
0
100
AcDbDictionary
281
     1
  3
ACAD_GROUP
350
D
  3
ACAD_LAYOUT
350
1A
  3
ACAD_MLEADERSTYLE
350
290
  3
ACAD_MLINESTYLE
350
17
  3
ACAD_PLOTSETTINGS
350
19
  3
ACAD_PLOTSTYLENAME
350
E
  3
ACAD_SCALELIST
350
3B
  3
ACAD_TABLESTYLE
350
28F
  3
ACAD_VISUALSTYLE
350
2A
  3
AcDbVariableDictionary
350
28D
  0
DICTIONARY
  5
D
102
{ACAD_REACTORS
330
C
102
}
330
C
100
AcDbDictionary
281
     1
  0
DICTIONARY
  5
1A
102
{ACAD_REACTORS
330
C
102
}
330
C
100
AcDbDictionary
281
     1
  3
Layout1
350
1E
  3
Model
350
22
  0
DICTIONARY
  5
290
102
{ACAD_REACTORS
330
C
102
}
330
C
100
AcDbDictionary
281
     1
  0
DICTIONARY
  5
17
102
{ACAD_REACTORS
330
C
102
}
330
C
100
AcDbDictionary
281
     1
  3
Standard
350
18
  0
DICTIONARY
  5
19
102
{ACAD_REACTORS
330
C
102
}
330
C
100
AcDbDictionary
281
     1
  0
ACDBDICTIONARYWDFLT
  5
E
102
{ACAD_REACTORS
330
C
102
}
330
C
100
AcDbDictionary
281
     1
  3
Normal
350
F
100
AcDbDictionaryWithDefault
340
F
  0
DICTIONARY
  5
3B
102
{ACAD_REACTORS
330
C
102
}
330
C
100
AcDbDictionary
281
     1
  3
A0
350
3C
  3
A1
350
3D
  3
A2
350
3E
  3
A3
350
3F
  3
A4
350
40
  3
A5
350
41
  3
A6
350
42
  3
A7
350
43
  3
A8
350
44
  3
A9
350
45
  3
B0
350
46
  3
B1
350
47
  3
B2
350
48
  3
B3
350
49
  3
B4
350
4A
  3
B5
350
4B
  3
B6
350
4C
  3
B7
350
4D
  3
B8
350
4E
  3
B9
350
4F
  3
C0
350
50
  3
C1
350
51
  3
C2
350
52
  3
C3
350
53
  3
C4
350
54
  3
C5
350
55
  3
C6
350
56
  3
C7
350
57
  3
C8
350
58
  3
C9
350
59
  3
D0
350
5A
  3
D1
350
5B
  3
D2
350
5C
  0
DICTIONARY
  5
28F
102
{ACAD_REACTORS
330
C
102
}
330
C
100
AcDbDictionary
281
     1
  0
DICTIONARY
  5
2A
102
{ACAD_REACTORS
330
C
102
}
330
C
100
AcDbDictionary
281
     1
  3
2dWireframe
350
2F
  3
3D Hidden
350
31
  3
3dWireframe
350
30
  3
Basic
350
32
  3
Brighten
350
36
  3
ColorChange
350
3A
  3
Conceptual
350
34
  3
Dim
350
35
  3
Facepattern
350
39
  3
Flat
350
2B
  3
FlatWithEdges
350
2C
  3
Gouraud
350
2D
  3
GouraudWithEdges
350
2E
  3
Linepattern
350
38
  3
Realistic
350
33
  3
Thicken
350
37
  0
DICTIONARY
  5
28D
102
{ACAD_REACTORS
330
C
102
}
330
C
100
AcDbDictionary
281
     1
  3
CANNOSCALE
350
28E
  3
PSOLHEIGHT
350
292
  3
PSOLWIDTH
350
291
  0
LAYOUT
  5
1E
102
{ACAD_REACTORS
330
1A
102
}
330
1A
100
AcDbPlotSettings
  1

  2
none_device
  4

  6

 40
0.0
 41
0.0
 42
0.0
 43
0.0
 44
0.0
 45
0.0
 46
0.0
 47
0.0
 48
0.0
 49
0.0
140
0.0
141
0.0
142
1.0
143
1.0
 70
   688
 72
     0
 73
     0
 74
     5
  7

 75
    16
147
1.0
148
0.0
149
0.0
100
AcDbLayout
  1
Layout1
 70
     1
 71
     1
 10
0.0
 20
0.0
 11
1682.0
 21
2378.0
 12
0.0
 22
0.0
 32
0.0
 14
0.0
 24
0.0
 34
0.0
 15
1682.0
 25
2378.0
 35
0.0
146
0.0
 13
0.0
 23
0.0
 33
0.0
 16
1.0
 26
0.0
 36
0.0
 17
0.0
 27
1.0
 37
0.0
 76
     0
330
1B
  0
LAYOUT
  5
22
102
{ACAD_REACTORS
330
1A
102
}
330
1A
100
AcDbPlotSettings
  1

  2
none_device
  4

  6

 40
0.0
 41
0.0
 42
0.0
 43
0.0
 44
0.0
 45
0.0
 46
0.0
 47
0.0
 48
0.0
 49
0.0
140
0.0
141
0.0
142
1.0
143
1.0
 70
  1712
 72
     0
 73
     0
 74
     0
  7

 75
     0
147
1.0
148
0.0
149
0.0
100
AcDbLayout
  1
Model
 70
     1
 71
     0
 10
0.0
 20
0.0
 11
1682.0
 21
2378.0
 12
0.0
 22
0.0
 32
0.0
 14
0.0
 24
0.0
 34
0.0
 15
1682.0
 25
2378.0
 35
0.0
146
0.0
 13
0.0
 23
0.0
 33
0.0
 16
1.0
 26
0.0
 36
0.0
 17
0.0
 27
1.0
 37
0.0
 76
     0
330
1F
331
29
  0
MLINESTYLE
  5
18
102
{ACAD_REACTORS
330
17
102
}
330
17
100
AcDbMlineStyle
  2
Standard
 70
     0
  3

 62
   256
 51
90.0
 52
90.0
 71
     2
 49
0.5
 62
   256
  6
BYLAYER
 49
-0.5
 62
   256
  6
BYLAYER
  0
ACDBPLACEHOLDER
  5
F
102
{ACAD_REACTORS
330
E
102
}
330
E
  0
SCALE
  5
3C
102
{ACAD_REACTORS
330
3B
102
}
330
3B
100
AcDbScale
 70
     0
300
1:1
140
1.0
141
1.0
290
     1
  0
SCALE
  5
3D
102
{ACAD_REACTORS
330
3B
102
}
330
3B
100
AcDbScale
 70
     0
300
1:2
140
1.0
141
2.0
290
     0
  0
SCALE
  5
3E
102
{ACAD_REACTORS
330
3B
102
}
330
3B
100
AcDbScale
 70
     0
300
1:4
140
1.0
141
4.0
290
     0
  0
SCALE
  5
3F
102
{ACAD_REACTORS
330
3B
102
}
330
3B
100
AcDbScale
 70
     0
300
1:5
140
1.0
141
5.0
290
     0
  0
SCALE
  5
40
102
{ACAD_REACTORS
330
3B
102
}
330
3B
100
AcDbScale
 70
     0
300
1:8
140
1.0
141
8.0
290
     0
  0
SCALE
  5
41
102
{ACAD_REACTORS
330
3B
102
}
330
3B
100
AcDbScale
 70
     0
300
1:10
140
1.0
141
10.0
290
     0
  0
SCALE
  5
42
102
{ACAD_REACTORS
330
3B
102
}
330
3B
100
AcDbScale
 70
     0
300
1:16
140
1.0
141
16.0
290
     0
  0
SCALE
  5
43
102
{ACAD_REACTORS
330
3B
102
}
330
3B
100
AcDbScale
 70
     0
300
1:20
140
1.0
141
20.0
290
     0
  0
SCALE
  5
44
102
{ACAD_REACTORS
330
3B
102
}
330
3B
100
AcDbScale
 70
     0
300
1:30
140
1.0
141
30.0
290
     0
  0
SCALE
  5
45
102
{ACAD_REACTORS
330
3B
102
}
330
3B
100
AcDbScale
 70
     0
300
1:40
140
1.0
141
40.0
290
     0
  0
SCALE
  5
46
102
{ACAD_REACTORS
330
3B
102
}
330
3B
100
AcDbScale
 70
     0
300
1:50
140
1.0
141
50.0
290
     0
  0
SCALE
  5
47
102
{ACAD_REACTORS
330
3B
102
}
330
3B
100
AcDbScale
 70
     0
300
1:100
140
1.0
141
100.0
290
     0
  0
SCALE
  5
48
102
{ACAD_REACTORS
330
3B
102
}
330
3B
100
AcDbScale
 70
     0
300
2:1
140
2.0
141
1.0
290
     0
  0
SCALE
  5
49
102
{ACAD_REACTORS
330
3B
102
}
330
3B
100
AcDbScale
 70
     0
300
4:1
140
4.0
141
1.0
290
     0
  0
SCALE
  5
4A
102
{ACAD_REACTORS
330
3B
102
}
330
3B
100
AcDbScale
 70
     0
300
8:1
140
8.0
141
1.0
290
     0
  0
SCALE
  5
4B
102
{ACAD_REACTORS
330
3B
102
}
330
3B
100
AcDbScale
 70
     0
300
10:1
140
10.0
141
1.0
290
     0
  0
SCALE
  5
4C
102
{ACAD_REACTORS
330
3B
102
}
330
3B
100
AcDbScale
 70
     0
300
100:1
140
100.0
141
1.0
290
     0
  0
SCALE
  5
4D
102
{ACAD_REACTORS
330
3B
102
}
330
3B
100
AcDbScale
 70
     0
300
1/128" = 1'-0"
140
0.0078125
141
12.0
290
     0
  0
SCALE
  5
4E
102
{ACAD_REACTORS
330
3B
102
}
330
3B
100
AcDbScale
 70
     0
300
1/64" = 1'-0"
140
0.015625
141
12.0
290
     0
  0
SCALE
  5
4F
102
{ACAD_REACTORS
330
3B
102
}
330
3B
100
AcDbScale
 70
     0
300
1/32" = 1'-0"
140
0.03125
141
12.0
290
     0
  0
SCALE
  5
50
102
{ACAD_REACTORS
330
3B
102
}
330
3B
100
AcDbScale
 70
     0
300
1/16" = 1'-0"
140
0.0625
141
12.0
290
     0
  0
SCALE
  5
51
102
{ACAD_REACTORS
330
3B
102
}
330
3B
100
AcDbScale
 70
     0
300
3/32" = 1'-0"
140
0.09375
141
12.0
290
     0
  0
SCALE
  5
52
102
{ACAD_REACTORS
330
3B
102
}
330
3B
100
AcDbScale
 70
     0
300
1/8" = 1'-0"
140
0.125
141
12.0
290
     0
  0
SCALE
  5
53
102
{ACAD_REACTORS
330
3B
102
}
330
3B
100
AcDbScale
 70
     0
300
3/16" = 1'-0"
140
0.1875
141
12.0
290
     0
  0
SCALE
  5
54
102
{ACAD_REACTORS
330
3B
102
}
330
3B
100
AcDbScale
 70
     0
300
1/4" = 1'-0"
140
0.25
141
12.0
290
     0
  0
SCALE
  5
55
102
{ACAD_REACTORS
330
3B
102
}
330
3B
100
AcDbScale
 70
     0
300
3/8" = 1'-0"
140
0.375
141
12.0
290
     0
  0
SCALE
  5
56
102
{ACAD_REACTORS
330
3B
102
}
330
3B
100
AcDbScale
 70
     0
300
1/2" = 1'-0"
140
0.5
141
12.0
290
     0
  0
SCALE
  5
57
102
{ACAD_REACTORS
330
3B
102
}
330
3B
100
AcDbScale
 70
     0
300
3/4" = 1'-0"
140
0.75
141
12.0
290
     0
  0
SCALE
  5
58
102
{ACAD_REACTORS
330
3B
102
}
330
3B
100
AcDbScale
 70
     0
300
1" = 1'-0"
140
1.0
141
12.0
290
     0
  0
SCALE
  5
59
102
{ACAD_REACTORS
330
3B
102
}
330
3B
100
AcDbScale
 70
     0
300
1-1/2" = 1'-0"
140
1.5
141
12.0
290
     0
  0
SCALE
  5
5A
102
{ACAD_REACTORS
330
3B
102
}
330
3B
100
AcDbScale
 70
     0
300
3" = 1'-0"
140
3.0
141
12.0
290
     0
  0
SCALE
  5
5B
102
{ACAD_REACTORS
330
3B
102
}
330
3B
100
AcDbScale
 70
     0
300
6" = 1'-0"
140
6.0
141
12.0
290
     0
  0
SCALE
  5
5C
102
{ACAD_REACTORS
330
3B
102
}
330
3B
100
AcDbScale
 70
     0
300
1'-0" = 1'-0"
140
12.0
141
12.0
290
     0
  0
VISUALSTYLE
  5
2F
102
{ACAD_REACTORS
330
2A
102
}
330
2A
100
AcDbVisualStyle
  2
2dWireframe
 70
     4
 71
     0
 72
     2
 73
     0
 90
        0
 40
-0.6
 41
-30.0
 62
     5
 63
     7
 74
     1
 91
        4
 64
     7
 65
   257
 75
     1
175
     1
 42
1.0
 92
        0
 66
   257
 43
1.0
 76
     1
 77
     6
 78
     2
 67
     7
 79
     5
170
     0
171
     0
290
     0
174
     0
 93
        1
 44
0.0
173
     0
291
     0
 45
0.0
1001
ACAD
1000
AcDbSavedByObjectVersion
1070
     0
  0
VISUALSTYLE
  5
31
102
{ACAD_REACTORS
330
2A
102
}
330
2A
100
AcDbVisualStyle
  2
3D Hidden
 70
     6
 71
     1
 72
     2
 73
     2
 90
        0
 40
-0.6
 41
-30.0
 62
     5
 63
     7
 74
     2
 91
        2
 64
     7
 65
   257
 75
     2
175
     1
 42
40.0
 92
        0
 66
   257
 43
1.0
 76
     1
 77
     6
 78
     2
 67
     7
 79
     3
170
     0
171
     0
290
     0
174
     0
 93
        1
 44
0.0
173
     0
291
     0
 45
0.0
1001
ACAD
1000
AcDbSavedByObjectVersion
1070
     0
  0
VISUALSTYLE
  5
30
102
{ACAD_REACTORS
330
2A
102
}
330
2A
100
AcDbVisualStyle
  2
3dWireframe
 70
     5
 71
     0
 72
     2
 73
     0
 90
        0
 40
-0.6
 41
-30.0
 62
     5
 63
     7
 74
     1
 91
        4
 64
     7
 65
   257
 75
     1
175
     1
 42
1.0
 92
        0
 66
   257
 43
1.0
 76
     1
 77
     6
 78
     2
 67
     7
 79
     5
170
     0
171
     0
290
     0
174
     0
 93
        1
 44
0.0
173
     0
291
     0
 45
0.0
1001
ACAD
1000
AcDbSavedByObjectVersion
1070
     0
  0
VISUALSTYLE
  5
32
102
{ACAD_REACTORS
330
2A
102
}
330
2A
100
AcDbVisualStyle
  2
Basic
 70
     7
 71
     1
 72
     0
 73
     1
 90
        0
 40
-0.6
 41
-30.0
 62
     5
 63
     7
 74
     0
 91
        4
 64
     7
 65
   257
 75
     1
175
     1
 42
1.0
 92
        8
 66
     7
 43
1.0
 76
     1
 77
     6
 78
     2
 67
     7
 79
     5
170
     0
171
     0
290
     0
174
     0
 93
        1
 44
0.0
173
     0
291
     1
 45
0.0
1001
ACAD
1000
AcDbSavedByObjectVersion
1070
     0
  0
VISUALSTYLE
  5
36
102
{ACAD_REACTORS
330
2A
102
}
330
2A
100
AcDbVisualStyle
  2
Brighten
 70
    12
 71
     2
 72
     2
 73
     0
 90
        0
 40
-0.6
 41
-30.0
 62
     5
 63
     7
 74
     1
 91
        4
 64
     7
 65
   257
 75
     1
175
     1
 42
1.0
 92
        8
 66
     7
 43
1.0
 76
     1
 77
     6
 78
     2
 67
     7
 79
     5
170
     0
171
     0
290
     0
174
     0
 93
        1
 44
50.0
173
     0
291
     1
 45
0.0
1001
ACAD
1000
AcDbSavedByObjectVersion
1070
     0
  0
VISUALSTYLE
  5
3A
102
{ACAD_REACTORS
330
2A
102
}
330
2A
100
AcDbVisualStyle
  2
ColorChange
 70
    16
 71
     2
 72
     2
 73
     3
 90
        0
 40
-0.6
 41
-30.0
 62
     5
 63
     8
 74
     1
 91
        4
 64
     7
 65
   257
 75
     1
175
     1
 42
1.0
 92
        8
 66
     8
 43
1.0
 76
     1
 77
     6
 78
     2
 67
     7
 79
     5
170
     0
171
     0
290
     0
174
     0
 93
        1
 44
0.0
173
     0
291
     1
 45
0.0
1001
ACAD
1000
AcDbSavedByObjectVersion
1070
     0
  0
VISUALSTYLE
  5
34
102
{ACAD_REACTORS
330
2A
102
}
330
2A
100
AcDbVisualStyle
  2
Conceptual
 70
     9
 71
     3
 72
     2
 73
     0
 90
        0
 40
-0.6
 41
-30.0
 62
     5
 63
     7
 74
     2
 91
        2
 64
     7
 65
   257
 75
     1
175
     1
 42
40.0
 92
        8
 66
     7
 43
1.0
 76
     1
 77
     6
 78
     2
 67
     7
 79
     3
170
     0
171
     0
290
     0
174
     0
 93
        1
 44
0.0
173
     0
291
     0
 45
0.0
1001
ACAD
1000
AcDbSavedByObjectVersion
1070
     0
  0
VISUALSTYLE
  5
35
102
{ACAD_REACTORS
330
2A
102
}
330
2A
100
AcDbVisualStyle
  2
Dim
 70
    11
 71
     2
 72
     2
 73
     0
 90
        0
 40
-0.6
 41
-30.0
 62
     5
 63
     7
 74
     1
 91
        4
 64
     7
 65
   257
 75
     1
175
     1
 42
1.0
 92
        8
 66
     7
 43
1.0
 76
     1
 77
     6
 78
     2
 67
     7
 79
     5
170
     0
171
     0
290
     0
174
     0
 93
        1
 44
-50.0
173
     0
291
     1
 45
0.0
1001
ACAD
1000
AcDbSavedByObjectVersion
1070
     0
  0
VISUALSTYLE
  5
39
102
{ACAD_REACTORS
330
2A
102
}
330
2A
100
AcDbVisualStyle
  2
Facepattern
 70
    15
 71
     2
 72
     2
 73
     0
 90
        0
 40
-0.6
 41
-30.0
 62
     5
 63
     7
 74
     1
 91
        4
 64
     7
 65
   257
 75
     1
175
     1
 42
1.0
 92
        8
 66
     7
 43
1.0
 76
     1
 77
     6
 78
     2
 67
     7
 79
     5
170
     0
171
     0
290
     0
174
     0
 93
        1
 44
0.0
173
     0
291
     1
 45
0.0
1001
ACAD
1000
AcDbSavedByObjectVersion
1070
     0
  0
VISUALSTYLE
  5
2B
102
{ACAD_REACTORS
330
2A
102
}
330
2A
100
AcDbVisualStyle
  2
Flat
 70
     0
 71
     2
 72
     1
 73
     1
 90
        2
 40
-0.6
 41
30.0
 62
     5
 63
     7
 74
     0
 91
        4
 64
     7
 65
   257
 75
     1
175
     1
 42
1.0
 92
        8
 66
     7
 43
1.0
 76
     1
 77
     6
 78
     2
 67
     7
 79
     5
170
     0
171
     0
290
     0
174
     0
 93
       13
 44
0.0
173
     0
291
     1
 45
0.0
1001
ACAD
1000
AcDbSavedByObjectVersion
1070
     0
  0
VISUALSTYLE
  5
2C
102
{ACAD_REACTORS
330
2A
102
}
330
2A
100
AcDbVisualStyle
  2
FlatWithEdges
 70
     1
 71
     2
 72
     1
 73
     1
 90
        2
 40
-0.6
 41
30.0
 62
     5
 63
     7
 74
     1
 91
        4
 64
     7
 65
   257
 75
     1
175
     1
 42
1.0
 92
        0
 66
   257
 43
1.0
 76
     1
 77
     6
 78
     2
 67
     7
 79
     5
170
     0
171
     0
290
     0
174
     0
 93
       13
 44
0.0
173
     0
291
     1
 45
0.0
1001
ACAD
1000
AcDbSavedByObjectVersion
1070
     0
  0
VISUALSTYLE
  5
2D
102
{ACAD_REACTORS
330
2A
102
}
330
2A
100
AcDbVisualStyle
  2
Gouraud
 70
     2
 71
     2
 72
     2
 73
     1
 90
        2
 40
-0.6
 41
30.0
 62
     5
 63
     7
 74
     0
 91
        4
 64
     7
 65
   257
 75
     1
175
     1
 42
1.0
 92
        0
 66
     7
 43
1.0
 76
     1
 77
     6
 78
     2
 67
     7
 79
     5
170
     0
171
     0
290
     0
174
     0
 93
       13
 44
0.0
173
     0
291
     1
 45
0.0
1001
ACAD
1000
AcDbSavedByObjectVersion
1070
     0
  0
VISUALSTYLE
  5
2E
102
{ACAD_REACTORS
330
2A
102
}
330
2A
100
AcDbVisualStyle
  2
GouraudWithEdges
 70
     3
 71
     2
 72
     2
 73
     1
 90
        2
 40
-0.6
 41
30.0
 62
     5
 63
     7
 74
     1
 91
        4
 64
     7
 65
   257
 75
     1
175
     1
 42
1.0
 92
        0
 66
   257
 43
1.0
 76
     1
 77
     6
 78
     2
 67
     7
 79
     5
170
     0
171
     0
290
     0
174
     0
 93
       13
 44
0.0
173
     0
291
     1
 45
0.0
1001
ACAD
1000
AcDbSavedByObjectVersion
1070
     0
  0
VISUALSTYLE
  5
38
102
{ACAD_REACTORS
330
2A
102
}
330
2A
100
AcDbVisualStyle
  2
Linepattern
 70
    14
 71
     2
 72
     2
 73
     0
 90
        0
 40
-0.6
 41
-30.0
 62
     5
 63
     7
 74
     1
 91
        4
 64
     7
 65
   257
 75
     7
175
     7
 42
1.0
 92
        8
 66
     7
 43
1.0
 76
     1
 77
     6
 78
     2
 67
     7
 79
     5
170
     0
171
     0
290
     0
174
     0
 93
        1
 44
0.0
173
     0
291
     1
 45
0.0
1001
ACAD
1000
AcDbSavedByObjectVersion
1070
     0
  0
VISUALSTYLE
  5
33
102
{ACAD_REACTORS
330
2A
102
}
330
2A
100
AcDbVisualStyle
  2
Realistic
 70
     8
 71
     2
 72
     2
 73
     0
 90
        0
 40
-0.6
 41
-30.0
 62
     5
 63
     7
 74
     1
 91
        0
 64
     7
 65
   257
 75
     1
175
     1
 42
1.0
 92
        8
 66
     8
 43
1.0
 76
     1
 77
     6
 78
     2
 67
     7
 79
     5
170
     0
171
     0
290
     0
174
     0
 93
       13
 44
0.0
173
     0
291
     0
 45
0.0
1001
ACAD
1000
AcDbSavedByObjectVersion
1070
     0
  0
VISUALSTYLE
  5
37
102
{ACAD_REACTORS
330
2A
102
}
330
2A
100
AcDbVisualStyle
  2
Thicken
 70
    13
 71
     2
 72
     2
 73
     0
 90
        0
 40
-0.6
 41
-30.0
 62
     5
 63
     7
 74
     1
 91
        4
 64
     7
 65
   257
 75
     1
175
     1
 42
1.0
 92
       12
 66
     7
 43
1.0
 76
     1
 77
     6
 78
     2
 67
     7
 79
     5
170
     0
171
     0
290
     0
174
     0
 93
        1
 44
0.0
173
     0
291
     1
 45
0.0
1001
ACAD
1000
AcDbSavedByObjectVersion
1070
     0
  0
DICTIONARYVAR
  5
28E
102
{ACAD_REACTORS
330
28D
102
}
330
28D
100
DictionaryVariables
280
     0
  1
1:1
  0
DICTIONARYVAR
  5
292
102
{ACAD_REACTORS
330
28D
102
}
330
28D
100
DictionaryVariables
280
     0
  1
80.000000
  0
DICTIONARYVAR
  5
291
102
{ACAD_REACTORS
330
28D
102
}
330
28D
100
DictionaryVariables
280
     0
  1
5.000000
  0
ENDSEC
  0
EOF
