  0
SECTION
  2
HEADER
  9
$ACADVER
  1
AC1015
  9
$ACADMAINTVER
 70
     6
  9
$DWGCODEPAGE
  3
ANSI_1252
  9
$INSBASE
 10
0.0
 20
0.0
 30
0.0
  9
$EXTMIN
 10
0.0
 20
0.0
 30
0.0
  9
$EXTMAX
 10
1682.0
 20
2378.0
 30
0.0
  9
$LIMMIN
 10
0.0
 20
0.0
  9
$LIMMAX
 10
1682.0
 20
2378.0
  9
$ORTHOMODE
 70
     0
  9
$REGENMODE
 70
     1
  9
$FILLMODE
 70
     1
  9
$QTEXTMODE
 70
     0
  9
$MIRRTEXT
 70
     1
  9
$LTSCALE
 40
1.0
  9
$ATTMODE
 70
     1
  9
$TEXTSIZE
 40
2.5
  9
$TRACEWID
 40
1.0
  9
$TEXTSTYLE
  7
Standard
  9
$CLAYER
  8
0
  9
$CELTYPE
  6
ByLayer
  9
$CECOLOR
 62
   256
  9
$CELTSCALE
 40
1.0
  9
$DISPSILH
 70
     0
  9
$DIMSCALE
 40
1.0
  9
$DIMASZ
 40
2.5
  9
$DIMEXO
 40
0.625
  9
$DIMDLI
 40
3.75
  9
$DIMRND
 40
0.0
  9
$DIMDLE
 40
0.0
  9
$DIMEXE
 40
1.25
  9
$DIMTP
 40
0.0
  9
$DIMTM
 40
0.0
  9
$DIMTXT
 40
2.5
  9
$DIMCEN
 40
2.5
  9
$DIMTSZ
 40
0.0
  9
$DIMTOL
 70
     0
  9
$DIMLIM
 70
     0
  9
$DIMTIH
 70
     0
  9
$DIMTOH
 70
     0
  9
$DIMSE1
 70
     0
  9
$DIMSE2
 70
     0
  9
$DIMTAD
 70
     1
  9
$DIMZIN
 70
     8
  9
$DIMBLK
  1

  9
$DIMASO
 70
     1
  9
$DIMSHO
 70
     1
  9
$DIMPOST
  1

  9
$DIMAPOST
  1

  9
$DIMALT
 70
     0
  9
$DIMALTD
 70
     3
  9
$DIMALTF
 40
0.0393700787
  9
$DIMLFAC
 40
1.0
  9
$DIMTOFL
 70
     1
  9
$DIMTVP
 40
0.0
  9
$DIMTIX
 70
     0
  9
$DIMSOXD
 70
     0
  9
$DIMSAH
 70
     0
  9
$DIMBLK1
  1

  9
$DIMBLK2
  1

  9
$DIMSTYLE
  2
ISO-25
  9
$DIMCLRD
 70
     0
  9
$DIMCLRE
 70
     0
  9
$DIMCLRT
 70
     0
  9
$DIMTFAC
 40
1.0
  9
$DIMGAP
 40
0.625
  9
$DIMJUST
 70
     0
  9
$DIMSD1
 70
     0
  9
$DIMSD2
 70
     0
  9
$DIMTOLJ
 70
     0
  9
$DIMTZIN
 70
     8
  9
$DIMALTZ
 70
     0
  9
$DIMALTTZ
 70
     0
  9
$DIMUPT
 70
     0
  9
$DIMDEC
 70
     2
  9
$DIMTDEC
 70
     2
  9
$DIMALTU
 70
     2
  9
$DIMALTTD
 70
     3
  9
$DIMTXSTY
  7
Standard
  9
$DIMAUNIT
 70
     0
  9
$DIMADEC
 70
     0
  9
$DIMALTRND
 40
0.0
  9
$DIMAZIN
 70
     0
  9
$DIMDSEP
 70
    44
  9
$DIMATFIT
 70
     3
  9
$DIMFRAC
 70
     0
  9
$DIMLDRBLK
  1

  9
$DIMLUNIT
 70
     2
  9
$DIMLWD
 70
    -2
  9
$DIMLWE
 70
    -2
  9
$DIMTMOVE
 70
     0
  9
$LUNITS
 70
     2
  9
$LUPREC
 70
     4
  9
$SKETCHINC
 40
1.0
  9
$FILLETRAD
 40
10.0
  9
$AUNITS
 70
     0
  9
$AUPREC
 70
     0
  9
$MENU
  1
.
  9
$ELEVATION
 40
0.0
  9
$PELEVATION
 40
0.0
  9
$THICKNESS
 40
0.0
  9
$LIMCHECK
 70
     0
  9
$CHAMFERA
 40
10.0
  9
$CHAMFERB
 40
10.0
  9
$CHAMFERC
 40
20.0
  9
$CHAMFERD
 40
0.0
  9
$SKPOLY
 70
     0
  9
$TDCREATE
 40
2455492.3593539
  9
$TDUCREATE
 40
2455492.276020567
  9
$TDUPDATE
 40
2455492.359353912
  9
$TDUUPDATE
 40
2455492.276020579
  9
$TDINDWG
 40
0.0000000116
  9
$TDUSRTIMER
 40
0.0000000116
  9
$USRTIMER
 70
     1
  9
$ANGBASE
 50
0.0
  9
$ANGDIR
 70
     0
  9
$PDMODE
 70
     0
  9
$PDSIZE
 40
0.0
  9
$PLINEWID
 40
0.0
  9
$SPLFRAME
 70
     0
  9
$SPLINETYPE
 70
     6
  9
$SPLINESEGS
 70
     8
  9
$HANDSEED
  5
185
  9
$SURFTAB1
 70
     6
  9
$SURFTAB2
 70
     6
  9
$SURFTYPE
 70
     6
  9
$SURFU
 70
     6
  9
$SURFV
 70
     6
  9
$UCSBASE
  2

  9
$UCSNAME
  2

  9
$UCSORG
 10
0.0
 20
0.0
 30
0.0
  9
$UCSXDIR
 10
1.0
 20
0.0
 30
0.0
  9
$UCSYDIR
 10
0.0
 20
1.0
 30
0.0
  9
$UCSORTHOREF
  2

  9
$UCSORTHOVIEW
 70
     0
  9
$UCSORGTOP
 10
0.0
 20
0.0
 30
0.0
  9
$UCSORGBOTTOM
 10
0.0
 20
0.0
 30
0.0
  9
$UCSORGLEFT
 10
0.0
 20
0.0
 30
0.0
  9
$UCSORGRIGHT
 10
0.0
 20
0.0
 30
0.0
  9
$UCSORGFRONT
 10
0.0
 20
0.0
 30
0.0
  9
$UCSORGBACK
 10
0.0
 20
0.0
 30
0.0
  9
$PUCSBASE
  2

  9
$PUCSNAME
  2

  9
$PUCSORG
 10
0.0
 20
0.0
 30
0.0
  9
$PUCSXDIR
 10
1.0
 20
0.0
 30
0.0
  9
$PUCSYDIR
 10
0.0
 20
1.0
 30
0.0
  9
$PUCSORTHOREF
  2

  9
$PUCSORTHOVIEW
 70
     0
  9
$PUCSORGTOP
 10
0.0
 20
0.0
 30
0.0
  9
$PUCSORGBOTTOM
 10
0.0
 20
0.0
 30
0.0
  9
$PUCSORGLEFT
 10
0.0
 20
0.0
 30
0.0
  9
$PUCSORGRIGHT
 10
0.0
 20
0.0
 30
0.0
  9
$PUCSORGFRONT
 10
0.0
 20
0.0
 30
0.0
  9
$PUCSORGBACK
 10
0.0
 20
0.0
 30
0.0
  9
$USERI1
 70
     0
  9
$USERI2
 70
     0
  9
$USERI3
 70
     0
  9
$USERI4
 70
     0
  9
$USERI5
 70
     0
  9
$USERR1
 40
0.0
  9
$USERR2
 40
0.0
  9
$USERR3
 40
0.0
  9
$USERR4
 40
0.0
  9
$USERR5
 40
0.0
  9
$WORLDVIEW
 70
     1
  9
$SHADEDGE
 70
     3
  9
$SHADEDIF
 70
    70
  9
$TILEMODE
 70
     1
  9
$MAXACTVP
 70
    64
  9
$PINSBASE
 10
0.0
 20
0.0
 30
0.0
  9
$PLIMCHECK
 70
     0
  9
$PEXTMIN
 10
0.0
 20
0.0
 30
0.0
  9
$PEXTMAX
 10
1682.0
 20
2378.0
 30
0.0
  9
$PLIMMIN
 10
0.0
 20
0.0
  9
$PLIMMAX
 10
1682.0
 20
2378.0
  9
$UNITMODE
 70
     0
  9
$VISRETAIN
 70
     1
  9
$PLINEGEN
 70
     0
  9
$PSLTSCALE
 70
     1
  9
$TREEDEPTH
 70
  3020
  9
$CMLSTYLE
  2
Standard
  9
$CMLJUST
 70
     0
  9
$CMLSCALE
 40
20.0
  9
$PROXYGRAPHICS
 70
     1
  9
$MEASUREMENT
 70
     1
  9
$CELWEIGHT
370
    -1
  9
$ENDCAPS
280
     0
  9
$JOINSTYLE
280
     0
  9
$LWDISPLAY
290
     0
  9
$INSUNITS
 70
     4
  9
$HYPERLINKBASE
  1

  9
$STYLESHEET
  1

  9
$XEDIT
290
     1
  9
$CEPSNTYPE
380
     0
  9
$PSTYLEMODE
290
     1
  9
$FINGERPRINTGUID
  2
{6BBD0809-C7D2-48F1-93F4-7FE215A1E5CC}
  9
$VERSIONGUID
  2
{FAEB1C32-E019-11D5-929B-00C0DF256EC4}
  9
$EXTNAMES
290
     1
  9
$PSVPSCALE
 40
0.0
  9
$OLESTARTUP
290
     0
  0
ENDSEC
  0
SECTION
  2
CLASSES
  0
CLASS
  1
ACDBDICTIONARYWDFLT
  2
AcDbDictionaryWithDefault
  3
ObjectDBX Classes
 90
        0
280
     0
281
     0
  0
CLASS
  1
VISUALSTYLE
  2
AcDbVisualStyle
  3
ObjectDBX Classes
 90
     4095
280
     0
281
     0
  0
CLASS
  1
SCALE
  2
AcDbScale
  3
ObjectDBX Classes
 90
     1153
280
     0
281
     0
  0
CLASS
  1
DICTIONARYVAR
  2
AcDbDictionaryVar
  3
ObjectDBX Classes
 90
        0
280
     0
281
     0
  0
CLASS
  1
ACDBPLACEHOLDER
  2
AcDbPlaceHolder
  3
ObjectDBX Classes
 90
        0
280
     0
281
     0
  0
CLASS
  1
LAYOUT
  2
AcDbLayout
  3
ObjectDBX Classes
 90
        0
280
     0
281
     0
  0
ENDSEC
  0
SECTION
  2
TABLES
  0
TABLE
  2
VPORT
  5
8
330
0
100
AcDbSymbolTable
 70
     1
  0
VPORT
  5
29
330
8
100
AcDbSymbolTableRecord
100
AcDbViewportTableRecord
  2
*Active
 70
     0
 10
0.0
 20
0.0
 11
1.0
 21
1.0
 12
344.1869158879
 22
148.5
 13
0.0
 23
0.0
 14
10.0
 24
10.0
 15
10.0
 25
10.0
 16
0.0
 26
0.0
 36
1.0
 17
0.0
 27
0.0
 37
0.0
 40
297.0
 41
1.9729729729
 42
50.0
 43
0.0
 44
0.0
 50
0.0
 51
0.0
 71
     0
 72
   100
 73
     1
 74
     3
 75
     0
 76
     0
 77
     0
 78
     0
281
     0
 65
     1
110
0.0
120
0.0
130
0.0
111
1.0
121
0.0
131
0.0
112
0.0
122
1.0
132
0.0
 79
     0
146
0.0
  0
ENDTAB
  0
TABLE
  2
LTYPE
  5
5
330
0
100
AcDbSymbolTable
 70
     3
  0
LTYPE
  5
14
330
5
100
AcDbSymbolTableRecord
100
AcDbLinetypeTableRecord
  2
ByBlock
 70
     0
  3

 72
    65
 73
     0
 40
0.0
  0
LTYPE
  5
15
330
5
100
AcDbSymbolTableRecord
100
AcDbLinetypeTableRecord
  2
ByLayer
 70
     0
  3

 72
    65
 73
     0
 40
0.0
  0
LTYPE
  5
16
330
5
100
AcDbSymbolTableRecord
100
AcDbLinetypeTableRecord
  2
Continuous
 70
     0
  3
Solid line
 72
    65
 73
     0
 40
0.0
  0
LTYPE
  5
60
330
5
100
AcDbSymbolTableRecord
100
AcDbLinetypeTableRecord
  2
CENTER2
 70
     0
  3
Center (.5x) ___ _ ___ _ ___ _ ___ _ ___ _ ___
 72
    65
 73
     4
 40
28.575
 49
19.05
 74
     4
 75
     0
340
0
 46
0.0
 50
0.0
 44
0.0
 45
0.0
 49
-3.175
 74
     4
 75
     0
340
0
 46
0.0
 50
0.0
 44
0.0
 45
0.0
 49
3.175
 74
     4
 75
     0
340
0
 46
0.0
 50
0.0
 44
0.0
 45
0.0
 49
-3.175
 74
     4
 75
     0
340
0
 46
0.0
 50
0.0
 44
0.0
 45
0.0
  0
LTYPE
  5
152
330
5
100
AcDbSymbolTableRecord
100
AcDbLinetypeTableRecord
  2
HIDDEN2
 70
     0
  3
Hidden (.5x) _ _ _ _ _ _ _ _ _ _ _ _ _ _ _ _ _ 
 72
    65
 73
     2
 40
4.7625
 49
3.175
 74
     4
 75
     0
340
0
 46
0.0
 50
0.0
 44
0.0
 45
0.0
 49
-1.5875
 74
     4
 75
     0
340
0
 46
0.0
 50
0.0
 44
0.0
 45
0.0
  0
ENDTAB
  0
TABLE
  2
LAYER
  5
2
330
0
100
AcDbSymbolTable
 70
    15
  0
LAYER
  5
10
330
2
100
AcDbSymbolTableRecord
100
AcDbLayerTableRecord
  2
0
 70
     0
 62
     7
  6
Continuous
370
    -3
390
F
  0
LAYER
  5
5D
330
2
100
AcDbSymbolTableRecord
100
AcDbLayerTableRecord
  2
Default
 70
     0
 62
     7
  6
Continuous
370
    -3
390
F
  0
LAYER
  5
77
330
2
100
AcDbSymbolTableRecord
100
AcDbLayerTableRecord
  2
$DDT_AUDIT_GENERATED_(77)
 70
     0
 62
     7
  6
Continuous
370
    -3
390
F
  0
LAYER
  5
85
330
2
100
AcDbSymbolTableRecord
100
AcDbLayerTableRecord
  2
$DDT_AUDIT_GENERATED_(85)
 70
     0
 62
     7
  6
Continuous
370
    -3
390
F
  0
LAYER
  5
89
330
2
100
AcDbSymbolTableRecord
100
AcDbLayerTableRecord
  2
$DDT_AUDIT_GENERATED_(89)
 70
     0
 62
     7
  6
Continuous
370
    -3
390
F
  0
LAYER
  5
92
330
2
100
AcDbSymbolTableRecord
100
AcDbLayerTableRecord
  2
$DDT_AUDIT_GENERATED_(92)
 70
     0
 62
     7
  6
Continuous
370
    -3
390
F
  0
LAYER
  5
97
330
2
100
AcDbSymbolTableRecord
100
AcDbLayerTableRecord
  2
$DDT_AUDIT_GENERATED_(97)
 70
     0
 62
     7
  6
Continuous
370
    -3
390
F
  0
LAYER
  5
A6
330
2
100
AcDbSymbolTableRecord
100
AcDbLayerTableRecord
  2
$DDT_AUDIT_GENERATED_(A6)
 70
     0
 62
     7
  6
Continuous
370
    -3
390
F
  0
LAYER
  5
BC
330
2
100
AcDbSymbolTableRecord
100
AcDbLayerTableRecord
  2
$DDT_AUDIT_GENERATED_(BC)
 70
     0
 62
     7
  6
Continuous
370
    -3
390
F
  0
LAYER
  5
BF
330
2
100
AcDbSymbolTableRecord
100
AcDbLayerTableRecord
  2
$DDT_AUDIT_GENERATED_(BF)
 70
     0
 62
     7
  6
Continuous
370
    -3
390
F
  0
LAYER
  5
C5
330
2
100
AcDbSymbolTableRecord
100
AcDbLayerTableRecord
  2
06828131_MOUSSEU
 70
     0
 62
     7
  6
Continuous
370
    -3
390
F
  0
LAYER
  5
C9
330
2
100
AcDbSymbolTableRecord
100
AcDbLayerTableRecord
  2
$DDT_AUDIT_GENERATED_(C9)
 70
     0
 62
     7
  6
Continuous
370
    -3
390
F
  0
LAYER
  5
EC
330
2
100
AcDbSymbolTableRecord
100
AcDbLayerTableRecord
  2
$DDT_AUDIT_GENERATED_(EC)
 70
     0
 62
     7
  6
Continuous
370
    -3
390
F
  0
LAYER
  5
103
330
2
100
AcDbSymbolTableRecord
100
AcDbLayerTableRecord
  2
$DDT_AUDIT_GENERATED_(103)
 70
     0
 62
     7
  6
Continuous
370
    -3
390
F
  0
LAYER
  5
12C
330
2
100
AcDbSymbolTableRecord
100
AcDbLayerTableRecord
  2
$DDT_AUDIT_GENERATED_(12C)
 70
     0
 62
     7
  6
Continuous
370
    -3
390
F
  0
ENDTAB
  0
TABLE
  2
STYLE
  5
3
330
0
100
AcDbSymbolTable
 70
     2
  0
STYLE
  5
11
330
3
100
AcDbSymbolTableRecord
100
AcDbTextStyleTableRecord
  2
Standard
 70
     0
 40
0.0
 41
1.0
 50
0.0
 71
     0
 42
2.5
  3
txt
  4

  0
STYLE
  5
174
330
3
100
AcDbSymbolTableRecord
100
AcDbTextStyleTableRecord
  2
SEACAD_seiso_ttf
 70
     0
 40
0.0
 41
1.0
 50
0.0
 71
     0
 42
0.2
  3
seiso.ttf
  4

  0
ENDTAB
  0
TABLE
  2
VIEW
  5
6
330
0
100
AcDbSymbolTable
 70
     0
  0
ENDTAB
  0
TABLE
  2
UCS
  5
7
330
0
100
AcDbSymbolTable
 70
     0
  0
ENDTAB
  0
TABLE
  2
APPID
  5
9
330
0
100
AcDbSymbolTable
 70
     1
  0
APPID
  5
12
330
9
100
AcDbSymbolTableRecord
100
AcDbRegAppTableRecord
  2
ACAD
 70
     0
  0
ENDTAB
  0
TABLE
  2
DIMSTYLE
  5
A
330
0
100
AcDbSymbolTable
 70
     1
100
AcDbDimStyleTable
  0
DIMSTYLE
105
27
330
A
100
AcDbSymbolTableRecord
100
AcDbDimStyleTableRecord
  2
ISO-25
 70
     0
 41
2.5
 42
0.625
 43
3.75
 44
1.25
 73
     0
 74
     0
 77
     1
 78
     8
140
2.5
141
2.5
143
0.0393700787
147
0.625
171
     3
172
     1
271
     2
272
     2
274
     3
278
    44
283
     0
284
     8
340
11
  0
ENDTAB
  0
TABLE
  2
BLOCK_RECORD
  5
1
330
0
100
AcDbSymbolTable
 70
     7
  0
BLOCK_RECORD
  5
1F
330
1
100
AcDbSymbolTableRecord
100
AcDbBlockTableRecord
  2
*Model_Space
340
22
  0
BLOCK_RECORD
  5
1B
330
1
100
AcDbSymbolTableRecord
100
AcDbBlockTableRecord
  2
*Paper_Space
340
1E
  0
BLOCK_RECORD
  5
5E
330
1
100
AcDbSymbolTableRecord
100
AcDbBlockTableRecord
  2
SEANNOT_GROUP
340
0
102
{BLKREFS
331
5F
102
}
  0
BLOCK_RECORD
  5
65
330
1
100
AcDbSymbolTableRecord
100
AcDbBlockTableRecord
  2
SEANNOT_GROUP1
340
0
102
{BLKREFS
331
66
102
}
  0
BLOCK_RECORD
  5
6B
330
1
100
AcDbSymbolTableRecord
100
AcDbBlockTableRecord
  2
SEANNOT_GROUP2
340
0
102
{BLKREFS
331
6C
102
}
  0
BLOCK_RECORD
  5
75
330
1
100
AcDbSymbolTableRecord
100
AcDbBlockTableRecord
  2
SE
340
0
102
{BLKREFS
331
76
102
}
  0
BLOCK_RECORD
  5
CD
330
1
100
AcDbSymbolTableRecord
100
AcDbBlockTableRecord
  2
SE1
340
0
102
{BLKREFS
331
CE
102
}
  0
BLOCK_RECORD
  5
118
330
1
100
AcDbSymbolTableRecord
100
AcDbBlockTableRecord
  2
SE2
340
0
102
{BLKREFS
331
119
102
}
  0
ENDTAB
  0
ENDSEC
  0
SECTION
  2
BLOCKS
  0
BLOCK
  5
20
330
1F
100
AcDbEntity
  8
0
100
AcDbBlockBegin
  2
*Model_Space
 70
     0
 10
0.0
 20
0.0
 30
0.0
  3
*Model_Space
  1

  0
ENDBLK
  5
21
330
1F
100
AcDbEntity
  8
0
100
AcDbBlockEnd
  0
BLOCK
  5
1C
330
1B
100
AcDbEntity
 67
     1
  8
0
100
AcDbBlockBegin
  2
*Paper_Space
 70
     0
 10
0.0
 20
0.0
 30
0.0
  3
*Paper_Space
  1

  0
ENDBLK
  5
1D
330
1B
100
AcDbEntity
 67
     1
  8
0
100
AcDbBlockEnd
  0
BLOCK
  5
63
330
5E
100
AcDbEntity
  8
0
100
AcDbBlockBegin
  2
SEANNOT_GROUP
 70
     0
 10
0.0
 20
0.0
 30
0.0
  3
SEANNOT_GROUP
  1

  0
LINE
  5
61
330
5E
100
AcDbEntity
  8
Default
  6
CENTER2
 62
     7
100
AcDbLine
 10
123.5175773539
 20
500.195551598
 30
0.0
 11
83.517578248
 21
500.195551598
 31
0.0
  0
LINE
  5
62
330
5E
100
AcDbEntity
  8
Default
  6
CENTER2
 62
     7
100
AcDbLine
 10
103.5175778009
 20
520.195551151
 30
0.0
 11
103.5175778009
 21
480.195552045
 31
0.0
  0
ENDBLK
  5
64
330
5E
100
AcDbEntity
  8
0
100
AcDbBlockEnd
  0
BLOCK
  5
69
330
65
100
AcDbEntity
  8
0
100
AcDbBlockBegin
  2
SEANNOT_GROUP1
 70
     0
 10
0.0
 20
0.0
 30
0.0
  3
SEANNOT_GROUP1
  1

  0
LINE
  5
67
330
65
100
AcDbEntity
  8
Default
  6
CENTER2
 62
     7
100
AcDbLine
 10
383.5744553218
 20
500.195551598
 30
0.0
 11
343.5744562159
 21
500.195551598
 31
0.0
  0
LINE
  5
68
330
65
100
AcDbEntity
  8
Default
  6
CENTER2
 62
     7
100
AcDbLine
 10
363.5744557688
 20
520.195551151
 30
0.0
 11
363.5744557688
 21
480.195552045
 31
0.0
  0
ENDBLK
  5
6A
330
65
100
AcDbEntity
  8
0
100
AcDbBlockEnd
  0
BLOCK
  5
73
330
6B
100
AcDbEntity
  8
0
100
AcDbBlockBegin
  2
SEANNOT_GROUP2
 70
     0
 10
0.0
 20
0.0
 30
0.0
  3
SEANNOT_GROUP2
  1

  0
LINE
  5
6D
330
6B
100
AcDbEntity
  8
Default
  6
CENTER2
 62
     7
100
AcDbLine
 10
124.1175772727
 20
352.55
 30
0.0
 11
84.1175781668
 21
352.55
 31
0.0
  0
LINE
  5
6E
330
6B
100
AcDbEntity
  8
Default
  6
CENTER2
 62
     7
100
AcDbLine
 10
104.1175777197
 20
372.549999553
 30
0.0
 11
104.1175777197
 21
332.550000447
 31
0.0
  0
LINE
  5
6F
330
6B
100
AcDbEntity
  8
Default
  6
CENTER2
 62
     7
100
AcDbLine
 10
129.1175771609
 20
352.55
 30
0.0
 11
131.6175777197
 21
352.55
 31
0.0
  0
LINE
  5
70
330
6B
100
AcDbEntity
  8
Default
  6
CENTER2
 62
     7
100
AcDbLine
 10
104.1175777197
 20
377.5499994412
 30
0.0
 11
104.1175777197
 21
380.05
 31
0.0
  0
LINE
  5
71
330
6B
100
AcDbEntity
  8
Default
  6
CENTER2
 62
     7
100
AcDbLine
 10
79.1175782785
 20
352.55
 30
0.0
 11
76.6175777197
 21
352.55
 31
0.0
  0
LINE
  5
72
330
6B
100
AcDbEntity
  8
Default
  6
CENTER2
 62
     7
100
AcDbLine
 10
104.1175777197
 20
327.5500005588
 30
0.0
 11
104.1175777197
 21
325.05
 31
0.0
  0
ENDBLK
  5
74
330
6B
100
AcDbEntity
  8
0
100
AcDbBlockEnd
  0
BLOCK
  5
CB
330
75
100
AcDbEntity
  8
0
100
AcDbBlockBegin
  2
SE
 70
     0
 10
0.0
 20
0.0
 30
0.0
  3
SE
  1

  0
LINE
  5
78
330
75
100
AcDbEntity
  8
$DDT_AUDIT_GENERATED_(77)
  6
Continuous
 62
     7
100
AcDbLine
 10
148.4175778009
 20
613.895551598
 30
0.0
 11
148.4175778009
 21
562.895551598
 31
0.0
  0
LINE
  5
79
330
75
100
AcDbEntity
  8
$DDT_AUDIT_GENERATED_(77)
  6
Continuous
 62
     7
100
AcDbLine
 10
79.9006574926
 20
614.395551598
 30
0.0
 11
79.9006574926
 21
562.395551598
 31
0.0
  0
SPLINE
  5
7A
330
75
100
AcDbEntity
  8
$DDT_AUDIT_GENERATED_(77)
  6
Continuous
 62
     7
100
AcDbSpline
210
0.0
220
0.0
230
1.0
 70
     8
 71
     3
 72
    34
 73
    30
 74
     0
 42
0.0000000001250112
 43
0.0000000001
 40
0.5003300637028526
 40
0.5003300637028526
 40
0.5003300637028526
 40
0.5003300637028526
 40
0.5312500000000008
 40
0.5312500000000008
 40
0.5625000000000007
 40
0.5625000000000007
 40
0.6250000000000008
 40
0.6250000000000008
 40
0.6562500000000007
 40
0.6562500000000007
 40
0.6875000000000007
 40
0.6875000000000007
 40
0.7187500000000007
 40
0.7187500000000007
 40
0.7500000000000006
 40
0.7500000000000006
 40
0.7812500000000006
 40
0.7812500000000006
 40
0.8125000000000006
 40
0.8125000000000006
 40
0.8750000000000003
 40
0.8750000000000003
 40
0.9062500000000003
 40
0.9062500000000003
 40
0.9375000000000003
 40
0.9375000000000003
 40
0.9687500000000001
 40
0.9687500000000001
 40
1.0
 40
1.0
 40
1.0
 40
1.0
 10
121.7175769302564
 20
562.3955523592267
 30
0.0
 10
121.7175239132896
 20
562.3955988467193
 30
0.0
 10
121.5924155377437
 20
562.4836089700366
 30
0.0
 10
121.1016876478839
 20
562.8235108986152
 30
0.0
 10
120.7392162961423
 20
563.0731900183241
 30
0.0
 10
119.3231806109056
 20
564.0216775884173
 30
0.0
 10
117.9736860612302
 20
564.9021548269009
 30
0.0
 10
115.5282082578393
 20
566.2920360308993
 30
0.0
 10
114.6460021535399
 20
566.7646187143068
 30
0.0
 10
112.7318440993259
 20
567.6842471421044
 30
0.0
 10
111.702196305469
 20
568.1290772966559
 30
0.0
 10
109.5416126570867
 20
568.901167881392
 30
0.0
 10
108.3882255364701
 20
569.2356179929506
 30
0.0
 10
105.993094372785
 20
569.7004177743638
 30
0.0
 10
104.7694342753861
 20
569.8279428179762
 30
0.0
 10
102.262604536124
 20
569.8277324188208
 30
0.0
 10
101.0352392270092
 20
569.6993928177386
 30
0.0
 10
98.64389673286917
 20
569.234729186259
 30
0.0
 10
97.48759825454397
 20
568.8992934528567
 30
0.0
 10
94.24868829153641
 20
567.7411083455768
 30
0.0
 10
92.31721135344421
 20
566.7527954503644
 30
0.0
 10
89.87146112588476
 20
565.3623869959438
 30
0.0
 10
89.12132281785395
 20
564.9060948194051
 30
0.0
 10
87.81473545133096
 20
564.0833801591496
 30
0.0
 10
87.25010652375825
 20
563.7121796254766
 30
0.0
 10
86.31050139504185
 20
563.0830703166561
 30
0.0
 10
85.93814061955453
 20
562.8267211729678
 30
0.0
 10
85.4459005647425
 20
562.485823775828
 30
0.0
 10
85.31757780091836
 20
562.3955515980083
 30
0.0
 10
85.31757780091836
 20
562.3955515980083
 30
0.0
  0
ARC
  5
7B
330
75
100
AcDbEntity
  8
$DDT_AUDIT_GENERATED_(77)
  6
Continuous
 62
     7
100
AcDbCircle
 10
97.1175782423
 20
635.8957425157
 30
0.0
 40
25.8491919206309
100
AcDbArc
 50
236.2794347318
 51
303.7205656109
  0
ARC
  5
7C
330
75
100
AcDbEntity
  8
$DDT_AUDIT_GENERATED_(77)
  6
Continuous
 62
     7
100
AcDbCircle
 10
176.0775778009
 20
588.395551598
 30
0.0
 40
100.0
100
AcDbArc
 50
165.1504721945
 51
194.8495278055
  0
ARC
  5
7D
330
75
100
AcDbEntity
  8
$DDT_AUDIT_GENERATED_(77)
  6
Continuous
 62
     7
100
AcDbCircle
 10
147.9175778009
 20
562.895551598
 30
0.0
 40
0.5000000000000004
100
AcDbArc
 50
270.0
 51
0.0
  0
ARC
  5
7E
330
75
100
AcDbEntity
  8
$DDT_AUDIT_GENERATED_(77)
  6
Continuous
 62
     7
100
AcDbCircle
 10
147.9175778009
 20
613.895551598
 30
0.0
 40
0.5000000000000004
100
AcDbArc
 50
0.0
 51
90.0
  0
ARC
  5
7F
330
75
100
AcDbEntity
  8
$DDT_AUDIT_GENERATED_(77)
  6
Continuous
 62
     7
100
AcDbCircle
 10
79.9006574926
 20
613.895551598
 30
0.0
 40
0.5000000000000004
100
AcDbArc
 50
90.0
 51
165.1504721945
  0
ARC
  5
80
330
75
100
AcDbEntity
  8
$DDT_AUDIT_GENERATED_(77)
  6
Continuous
 62
     7
100
AcDbCircle
 10
79.9006574926
 20
562.895551598
 30
0.0
 40
0.49999999999999
100
AcDbArc
 50
194.8495278055
 51
270.0
  0
LINE
  5
81
330
75
100
AcDbEntity
  8
$DDT_AUDIT_GENERATED_(77)
  6
Continuous
 62
     7
100
AcDbLine
 10
82.7768615118
 20
614.395551598
 30
0.0
 11
79.9006574926
 21
614.395551598
 31
0.0
  0
LINE
  5
82
330
75
100
AcDbEntity
  8
$DDT_AUDIT_GENERATED_(77)
  6
Continuous
 62
     7
100
AcDbLine
 10
147.9175778009
 20
614.395551598
 30
0.0
 11
111.4545681597
 21
614.395551598
 31
0.0
  0
LINE
  5
83
330
75
100
AcDbEntity
  8
$DDT_AUDIT_GENERATED_(77)
  6
Continuous
 62
     7
100
AcDbLine
 10
121.7169313417
 20
562.395551598
 30
0.0
 11
147.9175778009
 21
562.395551598
 31
0.0
  0
LINE
  5
84
330
75
100
AcDbEntity
  8
$DDT_AUDIT_GENERATED_(77)
  6
Continuous
 62
     7
100
AcDbLine
 10
79.9006574926
 20
562.395551598
 30
0.0
 11
85.3175778009
 21
562.395551598
 31
0.0
  0
LINE
  5
86
330
75
100
AcDbEntity
  8
$DDT_AUDIT_GENERATED_(85)
  6
Continuous
 62
     7
100
AcDbLine
 10
85.5175778009
 20
504.695551598
 30
0.0
 11
121.5175778009
 21
504.695551598
 31
0.0
  0
LINE
  5
87
330
75
100
AcDbEntity
  8
$DDT_AUDIT_GENERATED_(85)
  6
Continuous
 62
     7
100
AcDbLine
 10
85.5175778009
 20
562.5350903205
 30
0.0
 11
85.5175778009
 21
504.695551598
 31
0.0
  0
LINE
  5
88
330
75
100
AcDbEntity
  8
$DDT_AUDIT_GENERATED_(85)
  6
Continuous
 62
     7
100
AcDbLine
 10
121.5175778009
 20
504.695551598
 30
0.0
 11
121.5175778009
 21
562.5351519846
 31
0.0
  0
LINE
  5
8A
330
75
100
AcDbEntity
  8
$DDT_AUDIT_GENERATED_(89)
  6
Continuous
 62
     7
100
AcDbLine
 10
76.5175778009
 20
500.195551598
 30
0.0
 11
130.5175778009
 21
500.195551598
 31
0.0
  0
LINE
  5
8B
330
75
100
AcDbEntity
  8
$DDT_AUDIT_GENERATED_(89)
  6
Continuous
 62
     7
100
AcDbLine
 10
85.5175778009
 20
504.695551598
 30
0.0
 11
121.5175778009
 21
504.695551598
 31
0.0
  0
LINE
  5
8C
330
75
100
AcDbEntity
  8
$DDT_AUDIT_GENERATED_(89)
  6
Continuous
 62
     7
100
AcDbLine
 10
76.5175778009
 20
503.0765701695
 30
0.0
 11
76.5175778009
 21
500.195551598
 31
0.0
  0
LINE
  5
8D
330
75
100
AcDbEntity
  8
$DDT_AUDIT_GENERATED_(89)
  6
Continuous
 62
     7
100
AcDbLine
 10
130.5175778009
 20
500.195551598
 30
0.0
 11
130.5175778009
 21
503.0765701695
 31
0.0
  0
ARC
  5
8E
330
75
100
AcDbEntity
  8
$DDT_AUDIT_GENERATED_(89)
  6
Continuous
 62
     7
100
AcDbCircle
 10
94.220323314
 20
405.07496025
 30
0.0
 40
100.0
100
AcDbArc
 50
94.9926216254
 51
99.9560038527
  0
ARC
  5
8F
330
75
100
AcDbEntity
  8
$DDT_AUDIT_GENERATED_(89)
  6
Continuous
 62
     7
100
AcDbCircle
 10
112.8148322878
 20
405.07496025
 30
0.0
 40
100.0
100
AcDbArc
 50
80.0439961473
 51
85.0073783746
  0
ARC
  5
90
330
75
100
AcDbEntity
  8
$DDT_AUDIT_GENERATED_(89)
  6
Continuous
 62
     7
100
AcDbCircle
 10
130.0175778009
 20
503.0765701695
 30
0.0
 40
0.5000000000000004
100
AcDbArc
 50
0.0
 51
80.0439961473
  0
ARC
  5
91
330
75
100
AcDbEntity
  8
$DDT_AUDIT_GENERATED_(89)
  6
Continuous
 62
     7
100
AcDbCircle
 10
77.0175778009
 20
503.0765701695
 30
0.0
 40
0.5000000000000148
100
AcDbArc
 50
99.9560038527
 51
180.0
  0
LINE
  5
93
330
75
100
AcDbEntity
  8
$DDT_AUDIT_GENERATED_(92)
  6
Continuous
 62
     7
100
AcDbLine
 10
83.1175778009
 20
765.895551598
 30
0.0
 11
83.1175778009
 21
614.2040553159
 31
0.0
  0
LINE
  5
94
330
75
100
AcDbEntity
  8
$DDT_AUDIT_GENERATED_(92)
  6
Continuous
 62
     7
100
AcDbLine
 10
111.1175778009
 20
614.2045651688
 30
0.0
 11
111.1175778009
 21
765.895551598
 31
0.0
  0
LINE
  5
95
330
75
100
AcDbEntity
  8
$DDT_AUDIT_GENERATED_(92)
  6
Continuous
 62
     7
100
AcDbLine
 10
83.1175778009
 20
813.895551598
 30
0.0
 11
83.1175778009
 21
765.895551598
 31
0.0
  0
LINE
  5
96
330
75
100
AcDbEntity
  8
$DDT_AUDIT_GENERATED_(92)
  6
Continuous
 62
     7
100
AcDbLine
 10
111.1175778009
 20
765.895551598
 30
0.0
 11
111.1175778009
 21
813.895551598
 31
0.0
  0
LINE
  5
98
330
75
100
AcDbEntity
  8
$DDT_AUDIT_GENERATED_(97)
  6
Continuous
 62
     7
100
AcDbLine
 10
185.0175778009
 20
573.2325643345
 30
0.0
 11
185.0175778009
 21
574.2393354219
 31
0.0
  0
LINE
  5
99
330
75
100
AcDbEntity
  8
$DDT_AUDIT_GENERATED_(97)
  6
Continuous
 62
     7
100
AcDbLine
 10
171.7175778009
 20
613.6965701826
 30
0.0
 11
171.7175778009
 21
563.0945330135
 31
0.0
  0
SPLINE
  5
9A
330
75
100
AcDbEntity
  8
$DDT_AUDIT_GENERATED_(97)
  6
Continuous
 62
     7
100
AcDbSpline
210
0.0
220
0.0
230
1.0
 70
    12
 71
     2
 72
     6
 73
     3
 74
     0
 42
0.0000000404085156
 43
0.0000000001
 40
0.0
 40
0.0
 40
0.0
 40
1.0
 40
1.0
 40
1.0
 10
185.0175778009184
 20
573.2325643345389
 30
0.0
 41
1.0
 10
184.9377564467073
 20
573.1380448893628
 30
0.0
 41
1.0
 10
184.856950513217
 20
573.0443092543114
 30
0.0
 41
1.0
  0
LINE
  5
9B
330
75
100
AcDbEntity
  8
$DDT_AUDIT_GENERATED_(97)
  6
Continuous
 62
     7
100
AcDbLine
 10
184.8569505132
 20
573.0443092543
 30
0.0
 11
184.8569505132
 21
572.395551598
 31
0.0
  0
LINE
  5
9C
330
75
100
AcDbEntity
  8
$DDT_AUDIT_GENERATED_(97)
  6
Continuous
 62
     7
100
AcDbLine
 10
148.4175778009
 20
562.895551598
 30
0.0
 11
148.4175778009
 21
613.895551598
 31
0.0
  0
LINE
  5
9D
330
75
100
AcDbEntity
  8
$DDT_AUDIT_GENERATED_(97)
  6
Continuous
 62
     7
100
AcDbLine
 10
148.9175587644
 20
614.3911885541
 30
0.0
 11
148.9175587644
 21
562.3999146419
 31
0.0
  0
ARC
  5
9E
330
75
100
AcDbEntity
  8
$DDT_AUDIT_GENERATED_(97)
  6
Continuous
 62
     7
100
AcDbCircle
 10
165.6475778009
 20
588.395551598
 30
0.0
 40
25.00000000000011
100
AcDbArc
 50
73.3090788129
 51
75.9481422426
  0
ARC
  5
9F
330
75
100
AcDbEntity
  8
$DDT_AUDIT_GENERATED_(97)
  6
Continuous
 62
     7
100
AcDbCircle
 10
165.6475778009
 20
588.395551598
 30
0.0
 40
25.00000000000011
100
AcDbArc
 50
284.0518577574
 51
320.2081805004
  0
LINE
  5
A0
330
75
100
AcDbEntity
  8
$DDT_AUDIT_GENERATED_(97)
  6
Continuous
 62
     7
100
AcDbLine
 10
148.9175587644
 20
562.3999146419
 30
0.0
 11
171.2219408448
 21
562.59455205
 31
0.0
  0
LINE
  5
A1
330
75
100
AcDbEntity
  8
$DDT_AUDIT_GENERATED_(97)
  6
Continuous
 62
     7
100
AcDbLine
 10
171.2219408448
 20
614.196551146
 30
0.0
 11
148.9175587644
 21
614.3911885541
 31
0.0
  0
ARC
  5
A2
330
75
100
AcDbEntity
  8
$DDT_AUDIT_GENERATED_(97)
  6
Continuous
 62
     7
100
AcDbCircle
 10
171.2175778009
 20
613.6965701826
 30
0.0
 40
0.5000000000000004
100
AcDbArc
 50
0.0
 51
89.500025649
  0
ARC
  5
A3
330
75
100
AcDbEntity
  8
$DDT_AUDIT_GENERATED_(97)
  6
Continuous
 62
     7
100
AcDbCircle
 10
171.2175778009
 20
563.0945330135
 30
0.0
 40
0.5000000000000024
100
AcDbArc
 50
270.499974351
 51
0.0
  0
LINE
  5
A4
330
75
100
AcDbEntity
  8
$DDT_AUDIT_GENERATED_(97)
  6
Continuous
 62
     7
100
AcDbLine
 10
148.9175587644
 20
614.3911885541
 30
0.0
 11
148.4175778009
 21
613.895551598
 31
0.0
  0
LINE
  5
A5
330
75
100
AcDbEntity
  8
$DDT_AUDIT_GENERATED_(97)
  6
Continuous
 62
     7
100
AcDbLine
 10
148.4175778009
 20
562.895551598
 30
0.0
 11
148.9175587644
 21
562.3999146419
 31
0.0
  0
LINE
  5
A7
330
75
100
AcDbEntity
  8
$DDT_AUDIT_GENERATED_(A6)
  6
Continuous
 62
     7
100
AcDbLine
 10
195.9680744836
 20
670.1003038613
 30
0.0
 11
197.3802221818
 21
616.172558968
 31
0.0
  0
LINE
  5
A8
330
75
100
AcDbEntity
  8
$DDT_AUDIT_GENERATED_(A6)
  6
Continuous
 62
     7
100
AcDbLine
 10
180.1156194249
 20
669.6851927165
 30
0.0
 11
181.5399719086
 21
615.2913658668
 31
0.0
  0
ARC
  5
A9
330
75
100
AcDbEntity
  8
$DDT_AUDIT_GENERATED_(A6)
  6
Continuous
 62
     7
100
AcDbCircle
 10
186.8137192716
 20
669.8409456221
 30
0.0
 40
6.699910486308571
100
AcDbArc
 50
1.6679242745
 51
181.3320757255
  0
ARC
  5
AA
330
75
100
AcDbEntity
  8
$DDT_AUDIT_GENERATED_(A6)
  6
Continuous
 62
     7
100
AcDbCircle
 10
186.792275298
 20
669.8600271035
 30
0.0
 40
9.178944580626473
100
AcDbArc
 50
1.5
 51
181.5
  0
LINE
  5
AB
330
75
100
AcDbEntity
  8
$DDT_AUDIT_GENERATED_(A6)
  6
Continuous
 62
     7
100
AcDbLine
 10
179.0287795129
 20
615.6860594231
 30
0.0
 11
177.6164761125
 21
669.6197503457
 31
0.0
  0
LINE
  5
AC
330
75
100
AcDbEntity
  8
$DDT_AUDIT_GENERATED_(A6)
  6
Continuous
 62
     7
100
AcDbLine
 10
194.934576937
 20
615.6637694816
 30
0.0
 11
193.5107910826
 21
670.0359576309
 31
0.0
  0
SPLINE
  5
AD
330
75
100
AcDbEntity
  8
$DDT_AUDIT_GENERATED_(A6)
  6
Continuous
 62
     7
100
AcDbSpline
210
0.0
220
0.0
230
1.0
 70
     8
 71
     3
 72
    32
 73
    28
 74
     0
 42
0.0000000000960638
 43
0.0000000001
 40
0.5004653444350237
 40
0.5004653444350237
 40
0.5004653444350237
 40
0.5004653444350237
 40
0.5625
 40
0.5625
 40
0.625
 40
0.625
 40
0.65625
 40
0.65625
 40
0.6875
 40
0.6875
 40
0.71875
 40
0.71875
 40
0.75
 40
0.75
 40
0.7812500000000001
 40
0.7812500000000001
 40
0.8125000000000001
 40
0.8125000000000001
 40
0.8437500000000001
 40
0.8437500000000001
 40
0.8750000000000001
 40
0.8750000000000001
 40
0.9062500000000001
 40
0.9062500000000001
 40
0.9375000000000001
 40
0.9375000000000001
 40
1.0
 40
1.0
 40
1.0
 40
1.0
 10
204.56458998895
 20
563.1779654722267
 30
0.0
 10
204.5640481906265
 20
563.1851893645601
 30
0.0
 10
204.5452587538107
 20
563.8731678373673
 30
0.0
 10
204.47539424814
 20
566.4558360694343
 30
0.0
 10
204.4231796286344
 20
568.3927617704883
 30
0.0
 10
204.3265042724834
 20
571.9857647113046
 30
0.0
 10
204.2905849696676
 20
573.3216409484346
 30
0.0
 10
204.2146242157414
 20
576.1483520098326
 30
0.0
 10
204.1745462217184
 20
577.6405228181292
 30
0.0
 10
204.0901842895167
 20
580.7828971694813
 30
0.0
 10
204.0458384296176
 20
582.4354276029923
 30
0.0
 10
203.9567392305316
 20
585.7569940354789
 30
0.0
 10
203.9115149471911
 20
587.4435672548079
 30
0.0
 10
203.8196687748677
 20
590.8701376674351
 30
0.0
 10
203.7742477909549
 20
592.5653363711342
 30
0.0
 10
203.6853270435542
 20
595.8852889570453
 30
0.0
 10
203.6412440955081
 20
597.5318271076453
 30
0.0
 10
203.5569093242366
 20
600.6831559806452
 30
0.0
 10
203.5169755051289
 20
602.1760479572753
 30
0.0
 10
203.4415056027325
 20
604.9988591107104
 30
0.0
 10
203.4057433833646
 20
606.3372619252438
 30
0.0
 10
203.3416600513398
 20
608.7372371273779
 30
0.0
 10
203.3129611918287
 20
609.8129264951644
 30
0.0
 10
203.2623624627358
 20
611.7114933158977
 30
0.0
 10
203.2407828552109
 20
612.5223795983217
 30
0.0
 10
203.1890702305585
 20
614.4695989689981
 30
0.0
 10
203.1709346343198
 20
615.1592460702938
 30
0.0
 10
203.1712867244973
 20
615.1592478493684
 30
0.0
  0
SPLINE
  5
AE
330
75
100
AcDbEntity
  8
$DDT_AUDIT_GENERATED_(A6)
  6
Continuous
 62
     7
100
AcDbSpline
210
0.0
220
0.0
230
1.0
 70
     8
 71
     3
 72
     8
 73
     4
 74
     0
 42
0.0000000053672716
 43
0.0000000001
 40
0.9994632728377638
 40
0.9994632728377638
 40
0.9994632728377638
 40
0.9994632728377638
 40
1.0
 40
1.0
 40
1.0
 40
1.0
 10
203.8614972640461
 20
614.6557717568165
 30
0.0
 10
203.8614915543599
 20
614.6558710900982
 30
0.0
 10
203.8614871763848
 20
614.6559207732569
 30
0.0
 10
203.8614841314938
 20
614.6559207561397
 30
0.0
  0
ARC
  5
AF
330
75
100
AcDbEntity
  8
$DDT_AUDIT_GENERATED_(A6)
  6
Continuous
 62
     7
100
AcDbCircle
 10
351.054748301
 20
685.8465847971
 30
0.0
 40
200.0609259467375
100
AcDbArc
 50
207.5180280182
 51
217.9256378446
  0
LINE
  5
B0
330
75
100
AcDbEntity
  8
$DDT_AUDIT_GENERATED_(A6)
  6
Continuous
 62
     7
100
AcDbLine
 10
173.2892395291
 20
594.7204501889
 30
0.0
 11
172.7748736727
 21
614.3632897613
 31
0.0
  0
ARC
  5
B1
330
75
100
AcDbEntity
  8
$DDT_AUDIT_GENERATED_(A6)
  6
Continuous
 62
     7
100
AcDbCircle
 10
176.2882115014
 20
594.7989810334
 30
0.0
 40
2.999999997318047
100
AcDbArc
 50
181.4999999942
 51
207.5180282733
  0
ARC
  5
B2
330
75
100
AcDbEntity
  8
$DDT_AUDIT_GENERATED_(A6)
  6
Continuous
 62
     7
100
AcDbCircle
 10
199.9691801311
 20
536.829071609
 30
0.0
 40
26.42363409284818
100
AcDbArc
 50
84.3736830864
 51
93.2416182737
  0
ARC
  5
B3
330
75
100
AcDbEntity
  8
$DDT_AUDIT_GENERATED_(A6)
  6
Continuous
 62
     7
100
AcDbCircle
 10
107.8795493913
 20
586.59405872
 30
0.0
 40
100.0000000000001
100
AcDbArc
 50
346.7899103268
 51
16.2973183297
  0
LINE
  5
B4
330
75
100
AcDbEntity
  8
$DDT_AUDIT_GENERATED_(A6)
  6
Continuous
 62
     7
100
AcDbLine
 10
177.8595195502
 20
614.4964358994
 30
0.0
 11
172.7748736727
 21
614.3632897613
 31
0.0
  0
LINE
  5
B5
330
75
100
AcDbEntity
  8
$DDT_AUDIT_GENERATED_(A6)
  6
Continuous
 62
     7
100
AcDbLine
 10
203.1712867165
 20
615.1592478492
 30
0.0
 11
198.6102955013
 21
615.039814091
 31
0.0
  0
LINE
  5
B6
330
75
100
AcDbEntity
  8
$DDT_AUDIT_GENERATED_(A6)
  6
Continuous
 62
     7
100
AcDbLine
 10
202.5207223876
 20
563.1243870132
 30
0.0
 11
204.564585897
 21
563.1779074628
 31
0.0
  0
LINE
  5
B7
330
75
100
AcDbEntity
  8
$DDT_AUDIT_GENERATED_(A6)
  6
Continuous
 62
     7
100
AcDbLine
 10
193.2284143598
 20
562.881059364
 30
0.0
 11
195.9050841484
 21
562.9511504291
 31
0.0
  0
ARC
  5
B8
330
75
100
AcDbEntity
  8
$DDT_AUDIT_GENERATED_(A6)
  6
Continuous
 62
     7
100
AcDbCircle
 10
198.5788831633
 20
616.239402881
 30
0.0
 40
1.199999999999998
100
AcDbArc
 50
181.5
 51
271.5
  0
ARC
  5
B9
330
75
100
AcDbEntity
  8
$DDT_AUDIT_GENERATED_(A6)
  6
Continuous
 62
     7
100
AcDbCircle
 10
177.8281072122
 20
615.6960246894
 30
0.0
 40
1.200000000000004
100
AcDbArc
 50
271.5
 51
1.5
  0
SPLINE
  5
BA
330
75
100
AcDbEntity
  8
$DDT_AUDIT_GENERATED_(A6)
  6
Continuous
 62
     7
100
AcDbSpline
210
0.0
220
0.0
230
1.0
 70
     8
 71
     3
 72
    13
 73
     9
 74
     0
 42
0.0000000105559343
 43
0.0000000001
 40
0.0
 40
0.0
 40
0.0
 40
0.0
 40
0.1292363135581278
 40
0.3789250027050141
 40
0.5806950883548604
 40
0.7510556450649595
 40
0.893413993637908
 40
1.0
 40
1.0
 40
1.0
 40
1.0
 10
204.5641627278934
 20
563.1935004735404
 30
0.0
 10
204.6084698298741
 20
563.1916720798104
 30
0.0
 10
204.7202210828341
 20
563.1885232104969
 30
0.0
 10
204.8965578285652
 20
563.2648928492781
 30
0.0
 10
205.0495155022716
 20
563.3846634204812
 30
0.0
 10
205.1471401161703
 20
563.5130896068081
 30
0.0
 10
205.2051764000636
 20
563.6344189232403
 30
0.0
 10
205.2227588122546
 20
563.7046754383009
 30
0.0
 10
205.2312123875575
 20
563.7402054811571
 30
0.0
  0
SPLINE
  5
BB
330
75
100
AcDbEntity
  8
$DDT_AUDIT_GENERATED_(A6)
  6
Continuous
 62
     7
100
AcDbSpline
210
0.0
220
0.0
230
1.0
 70
     8
 71
     3
 72
    12
 73
     8
 74
     0
 42
0.0000000101674995
 43
0.0000000001
 40
0.0
 40
0.0
 40
0.0
 40
0.0
 40
0.1795701165840771
 40
0.3918211187226107
 40
0.6408841146174532
 40
0.8918635930606411
 40
1.0
 40
1.0
 40
1.0
 40
1.0
 10
203.8695798717968
 20
614.5990670434586
 30
0.0
 10
203.8546790353795
 20
614.6607382217627
 30
0.0
 10
203.8246861559884
 20
614.7752249183516
 30
0.0
 10
203.6994573959008
 20
614.9511503501791
 30
0.0
 10
203.5158452326995
 20
615.0873778671445
 30
0.0
 10
203.3188069528169
 20
615.1580505009119
 30
0.0
 10
203.2098624996833
 20
615.147143671389
 30
0.0
 10
203.1717609719984
 20
615.1428923034366
 30
0.0
  0
LINE
  5
BD
330
75
100
AcDbEntity
  8
$DDT_AUDIT_GENERATED_(BC)
  6
Continuous
 62
     7
100
AcDbLine
 10
198.4337550239
 20
563.2033789002
 30
0.0
 11
195.9279936873
 21
562.8065052933
 31
0.0
  0
LINE
  5
BE
330
75
100
AcDbEntity
  8
$DDT_AUDIT_GENERATED_(BC)
  6
Continuous
 62
     7
100
AcDbLine
 10
195.9050841484
 20
562.9511504291
 30
0.0
 11
195.9279936873
 21
562.8065052933
 31
0.0
  0
LINE
  5
C0
330
75
100
AcDbEntity
  8
$DDT_AUDIT_GENERATED_(BF)
  6
Continuous
 62
     7
100
AcDbLine
 10
86.7175778009
 20
792.845551598
 30
0.0
 11
107.5175778009
 21
792.845551598
 31
0.0
  0
LINE
  5
C1
330
75
100
AcDbEntity
  8
$DDT_AUDIT_GENERATED_(BF)
  6
Continuous
 62
     7
100
AcDbLine
 10
108.5175778009
 20
793.845551598
 30
0.0
 11
108.5175778009
 21
805.7690517364
 31
0.0
  0
LINE
  5
C2
330
75
100
AcDbEntity
  8
$DDT_AUDIT_GENERATED_(BF)
  6
Continuous
 62
     7
100
AcDbLine
 10
85.7175778009
 20
805.7690517364
 30
0.0
 11
85.7175778009
 21
793.845551598
 31
0.0
  0
ARC
  5
C3
330
75
100
AcDbEntity
  8
$DDT_AUDIT_GENERATED_(BF)
  6
Continuous
 62
     7
100
AcDbCircle
 10
107.5175778009
 20
793.845551598
 30
0.0
 40
1.000000000000001
100
AcDbArc
 50
270.0
 51
0.0
  0
ARC
  5
C4
330
75
100
AcDbEntity
  8
$DDT_AUDIT_GENERATED_(BF)
  6
Continuous
 62
     7
100
AcDbCircle
 10
86.7175778009
 20
793.845551598
 30
0.0
 40
1.000000000000001
100
AcDbArc
 50
180.0
 51
270.0
  0
LINE
  5
C6
330
75
100
AcDbEntity
  8
06828131_MOUSSEU
  6
Continuous
 62
     7
100
AcDbLine
 10
106.1175778009
 20
792.395551598
 30
0.0
 11
88.1175778009
 21
792.395551598
 31
0.0
  0
LINE
  5
C7
330
75
100
AcDbEntity
  8
06828131_MOUSSEU
  6
Continuous
 62
     7
100
AcDbLine
 10
88.1175778009
 20
792.845551598
 30
0.0
 11
88.1175778009
 21
792.395551598
 31
0.0
  0
LINE
  5
C8
330
75
100
AcDbEntity
  8
06828131_MOUSSEU
  6
Continuous
 62
     7
100
AcDbLine
 10
106.1175778009
 20
792.395551598
 30
0.0
 11
106.1175778009
 21
792.845551598
 31
0.0
  0
CIRCLE
  5
CA
330
75
100
AcDbEntity
  8
$DDT_AUDIT_GENERATED_(C9)
  6
Continuous
 62
     7
100
AcDbCircle
 10
97.1175778009
 20
813.895551598
 30
0.0
 40
14.0
  0
ENDBLK
  5
CC
330
75
100
AcDbEntity
  8
0
100
AcDbBlockEnd
  0
BLOCK
  5
116
330
CD
100
AcDbEntity
  8
0
100
AcDbBlockBegin
  2
SE1
 70
     0
 10
0.0
 20
0.0
 30
0.0
  3
SE1
  1

  0
CIRCLE
  5
CF
330
CD
100
AcDbEntity
  8
$DDT_AUDIT_GENERATED_(77)
  6
Continuous
 62
     7
100
AcDbCircle
 10
363.5744557688
 20
588.395551598
 30
0.0
 40
26.0
  0
LINE
  5
D0
330
CD
100
AcDbEntity
  8
$DDT_AUDIT_GENERATED_(85)
  6
Continuous
 62
     7
100
AcDbLine
 10
381.5744557688
 20
504.695551598
 30
0.0
 11
345.5744557688
 21
504.695551598
 31
0.0
  0
LINE
  5
D1
330
CD
100
AcDbEntity
  8
$DDT_AUDIT_GENERATED_(85)
  6
Continuous
 62
     7
100
AcDbLine
 10
345.5744557688
 20
569.6338885587
 30
0.0
 11
345.5744557688
 21
504.695551598
 31
0.0
  0
LINE
  5
D2
330
CD
100
AcDbEntity
  8
$DDT_AUDIT_GENERATED_(85)
  6
Continuous
 62
     7
100
AcDbLine
 10
381.5744557688
 20
504.695551598
 30
0.0
 11
381.5744557688
 21
569.6338885587
 31
0.0
  0
LINE
  5
D3
330
CD
100
AcDbEntity
  8
$DDT_AUDIT_GENERATED_(89)
  6
Continuous
 62
     7
100
AcDbLine
 10
390.5744557688
 20
500.195551598
 30
0.0
 11
336.5744557688
 21
500.195551598
 31
0.0
  0
LINE
  5
D4
330
CD
100
AcDbEntity
  8
$DDT_AUDIT_GENERATED_(89)
  6
Continuous
 62
     7
100
AcDbLine
 10
381.5744557688
 20
504.695551598
 30
0.0
 11
345.5744557688
 21
504.695551598
 31
0.0
  0
LINE
  5
D5
330
CD
100
AcDbEntity
  8
$DDT_AUDIT_GENERATED_(89)
  6
Continuous
 62
     7
100
AcDbLine
 10
336.5744557688
 20
503.0765701695
 30
0.0
 11
336.5744557688
 21
500.195551598
 31
0.0
  0
LINE
  5
D6
330
CD
100
AcDbEntity
  8
$DDT_AUDIT_GENERATED_(89)
  6
Continuous
 62
     7
100
AcDbLine
 10
390.5744557688
 20
500.195551598
 30
0.0
 11
390.5744557688
 21
503.0765701695
 31
0.0
  0
ARC
  5
D7
330
CD
100
AcDbEntity
  8
$DDT_AUDIT_GENERATED_(89)
  6
Continuous
 62
     7
100
AcDbCircle
 10
354.2772012819
 20
405.07496025
 30
0.0
 40
100.0
100
AcDbArc
 50
94.9926216254
 51
99.9560038527
  0
ARC
  5
D8
330
CD
100
AcDbEntity
  8
$DDT_AUDIT_GENERATED_(89)
  6
Continuous
 62
     7
100
AcDbCircle
 10
372.8717102557
 20
405.07496025
 30
0.0
 40
100.0
100
AcDbArc
 50
80.0439961473
 51
85.0073783746
  0
ARC
  5
D9
330
CD
100
AcDbEntity
  8
$DDT_AUDIT_GENERATED_(89)
  6
Continuous
 62
     7
100
AcDbCircle
 10
390.0744557688
 20
503.0765701695
 30
0.0
 40
0.5000000000000004
100
AcDbArc
 50
0.0
 51
80.0439961473
  0
ARC
  5
DA
330
CD
100
AcDbEntity
  8
$DDT_AUDIT_GENERATED_(89)
  6
Continuous
 62
     7
100
AcDbCircle
 10
337.0744557688
 20
503.0765701695
 30
0.0
 40
0.5000000000000148
100
AcDbArc
 50
99.9560038527
 51
180.0
  0
LINE
  5
DB
330
CD
100
AcDbEntity
  8
$DDT_AUDIT_GENERATED_(92)
  6
Continuous
 62
     7
100
AcDbLine
 10
489.5744557688
 20
800.1390985668
 30
0.0
 11
489.5744557688
 21
827.895551598
 31
0.0
  0
LINE
  5
DC
330
CD
100
AcDbEntity
  8
$DDT_AUDIT_GENERATED_(92)
  6
Continuous
 62
     7
100
AcDbLine
 10
484.0744557688
 20
800.1390985668
 30
0.0
 11
484.0744557688
 21
799.895551598
 31
0.0
  0
LINE
  5
DD
330
CD
100
AcDbEntity
  8
$DDT_AUDIT_GENERATED_(92)
  6
Continuous
 62
     7
100
AcDbLine
 10
484.0744557688
 20
800.1390985668
 30
0.0
 11
489.5744557688
 21
800.1390985668
 31
0.0
  0
ARC
  5
DE
330
CD
100
AcDbEntity
  8
$DDT_AUDIT_GENERATED_(92)
  6
Continuous
 62
     7
100
AcDbCircle
 10
464.5744557709
 20
786.1586245117
 30
0.0
 40
14.00948485002887
100
AcDbArc
 50
78.6795821058
 51
101.320416977
  0
LINE
  5
DF
330
CD
100
AcDbEntity
  8
$DDT_AUDIT_GENERATED_(92)
  6
Continuous
 62
     7
100
AcDbLine
 10
349.5744557688
 20
765.895551598
 30
0.0
 11
349.5744557688
 21
610.3044538982
 31
0.0
  0
LINE
  5
E0
330
CD
100
AcDbEntity
  8
$DDT_AUDIT_GENERATED_(92)
  6
Continuous
 62
     7
100
AcDbLine
 10
377.5744557688
 20
610.3044538982
 30
0.0
 11
377.5744557688
 21
765.895551598
 31
0.0
  0
ARC
  5
E1
330
CD
100
AcDbEntity
  8
$DDT_AUDIT_GENERATED_(92)
  6
Continuous
 62
     7
100
AcDbCircle
 10
411.5744557688
 20
765.895551598
 30
0.0
 40
34.0
100
AcDbArc
 50
90.0
 51
180.0
  0
ARC
  5
E2
330
CD
100
AcDbEntity
  8
$DDT_AUDIT_GENERATED_(92)
  6
Continuous
 62
     7
100
AcDbCircle
 10
411.5744557688
 20
765.895551598
 30
0.0
 40
62.0
100
AcDbArc
 50
90.0
 51
180.0
  0
LINE
  5
E3
330
CD
100
AcDbEntity
  8
$DDT_AUDIT_GENERATED_(92)
  6
Continuous
 62
     7
100
AcDbLine
 10
489.5744557688
 20
827.895551598
 30
0.0
 11
411.5744557688
 21
827.895551598
 31
0.0
  0
LINE
  5
E4
330
CD
100
AcDbEntity
  8
$DDT_AUDIT_GENERATED_(92)
  6
Continuous
 62
     7
100
AcDbLine
 10
467.3244557688
 20
799.895551598
 30
0.0
 11
484.0744557688
 21
799.895551598
 31
0.0
  0
LINE
  5
E5
330
CD
100
AcDbEntity
  8
$DDT_AUDIT_GENERATED_(92)
  6
Continuous
 62
     7
100
AcDbLine
 10
411.5744557688
 20
799.895551598
 30
0.0
 11
461.8602328558
 21
799.895551598
 31
0.0
  0
ARC
  5
E6
330
CD
100
AcDbEntity
  8
$DDT_AUDIT_GENERATED_(A6)
  6
Continuous
 62
     7
100
AcDbCircle
 10
363.509733137
 20
589.1681862019
 30
0.0
 40
25.99550762182643
100
AcDbArc
 50
3.4987945901
 51
57.1753088517
  0
ARC
  5
E7
330
CD
100
AcDbEntity
  8
$DDT_AUDIT_GENERATED_(A6)
  6
Continuous
 62
     7
100
AcDbCircle
 10
363.509733137
 20
589.1681862019
 30
0.0
 40
25.99550762182643
100
AcDbArc
 50
122.5370216132
 51
180.0011938142
  0
ARC
  5
E8
330
CD
100
AcDbEntity
  8
$DDT_AUDIT_GENERATED_(A6)
  6
Continuous
 62
     7
100
AcDbCircle
 10
363.5094557688
 20
588.8224601243
 30
0.0
 40
25.91768275871276
100
AcDbArc
 50
169.7981767302
 51
185.0649088221
  0
ARC
  5
E9
330
CD
100
AcDbEntity
  8
$DDT_AUDIT_GENERATED_(A6)
  6
Continuous
 62
     7
100
AcDbCircle
 10
364.57687865
 20
588.0964783273
 30
0.0
 40
27.10190679122357
100
AcDbArc
 50
165.853042034
 51
168.6872681782
  0
ELLIPSE
  5
EA
330
CD
100
AcDbEntity
  8
$DDT_AUDIT_GENERATED_(A6)
  6
Continuous
 62
     7
100
AcDbEllipse
 10
363.5094557688
 20
588.3721993119
 30
0.0
 11
25.99999999999362
 21
-4.675639253347947E-9
 31
0.0
210
0.0
220
0.0
230
1.0
 40
0.999657325
 41
2.136442599374311
 42
2.894849356939289
  0
LINE
  5
EB
330
CD
100
AcDbEntity
  8
$DDT_AUDIT_GENERATED_(A6)
  6
Continuous
 62
     7
100
AcDbLine
 10
337.5094557688
 20
589.1686473679
 30
0.0
 11
337.5094557688
 21
588.4469851683
 31
0.0
  0
LINE
  5
ED
330
CD
100
AcDbEntity
  8
$DDT_AUDIT_GENERATED_(EC)
  6
Continuous
 62
     7
100
AcDbLine
 10
489.7744557688
 20
800.1027998784
 30
0.0
 11
489.7744557688
 21
799.895551598
 31
0.0
  0
LINE
  5
EE
330
CD
100
AcDbEntity
  8
$DDT_AUDIT_GENERATED_(EC)
  6
Continuous
 62
     7
100
AcDbLine
 10
489.7744557688
 20
801.1953301432
 30
0.0
 11
489.7744557688
 21
800.1027998784
 31
0.0
  0
ARC
  5
EF
330
CD
100
AcDbEntity
  8
$DDT_AUDIT_GENERATED_(EC)
  6
Continuous
 62
     7
100
AcDbCircle
 10
487.6744557688
 20
813.895551598
 30
0.0
 40
12.92500000000951
100
AcDbArc
 50
80.6493688947
 51
81.5467759949
  0
LINE
  5
F0
330
CD
100
AcDbEntity
  8
$DDT_AUDIT_GENERATED_(EC)
  6
Continuous
 62
     7
100
AcDbLine
 10
489.5744557688
 20
801.1953301432
 30
0.0
 11
489.7744557688
 21
801.1953301432
 31
0.0
  0
LINE
  5
F1
330
CD
100
AcDbEntity
  8
$DDT_AUDIT_GENERATED_(EC)
  6
Continuous
 62
     7
100
AcDbLine
 10
466.6244557688
 20
799.895551598
 30
0.0
 11
465.0744557688
 21
799.895551598
 31
0.0
  0
LINE
  5
F2
330
CD
100
AcDbEntity
  8
$DDT_AUDIT_GENERATED_(EC)
  6
Continuous
 62
     7
100
AcDbLine
 10
465.9621160756
 20
800.095551598
 30
0.0
 11
464.6243156414
 21
800.095551598
 31
0.0
  0
LINE
  5
F3
330
CD
100
AcDbEntity
  8
$DDT_AUDIT_GENERATED_(EC)
  6
Continuous
 62
     7
100
AcDbLine
 10
485.2744557688
 20
800.1027998784
 30
0.0
 11
489.7744557688
 21
800.1027998784
 31
0.0
  0
LINE
  5
F4
330
CD
100
AcDbEntity
  8
$DDT_AUDIT_GENERATED_(EC)
  6
Continuous
 62
     7
100
AcDbLine
 10
485.2744557688
 20
800.1390985668
 30
0.0
 11
485.2744557688
 21
800.1027998784
 31
0.0
  0
LINE
  5
F5
330
CD
100
AcDbEntity
  8
$DDT_AUDIT_GENERATED_(EC)
  6
Continuous
 62
     7
100
AcDbLine
 10
484.7744557688
 20
800.0250793638
 30
0.0
 11
484.7744557688
 21
799.895551598
 31
0.0
  0
ARC
  5
F6
330
CD
100
AcDbEntity
  8
$DDT_AUDIT_GENERATED_(EC)
  6
Continuous
 62
     7
100
AcDbCircle
 10
482.8744557688
 20
813.895551598
 30
0.0
 40
14.00000000001285
100
AcDbArc
 50
277.7999255879
 51
279.8708896061
  0
LINE
  5
F7
330
CD
100
AcDbEntity
  8
$DDT_AUDIT_GENERATED_(EC)
  6
Continuous
 62
     7
100
AcDbLine
 10
484.7744557688
 20
800.0250793638
 30
0.0
 11
484.7744557688
 21
800.1390985668
 31
0.0
  0
LINE
  5
F8
330
CD
100
AcDbEntity
  8
$DDT_AUDIT_GENERATED_(EC)
  6
Continuous
 62
     7
100
AcDbLine
 10
465.0744557688
 20
799.895551598
 30
0.0
 11
464.6243156414
 21
800.095551598
 31
0.0
  0
LINE
  5
F9
330
CD
100
AcDbEntity
  8
$DDT_AUDIT_GENERATED_(EC)
  6
Continuous
 62
     7
100
AcDbLine
 10
484.7744557688
 20
799.895551598
 30
0.0
 11
489.7744557688
 21
799.895551598
 31
0.0
  0
LINE
  5
FA
330
CD
100
AcDbEntity
  8
$DDT_AUDIT_GENERATED_(EC)
  6
Continuous
 62
     7
100
AcDbLine
 10
466.6244557688
 20
799.895551598
 30
0.0
 11
466.7289706127
 21
800.0000664419
 31
0.0
  0
LINE
  5
FB
330
CD
100
AcDbEntity
  8
$DDT_AUDIT_GENERATED_(BF)
  6
Continuous
 62
     7
100
AcDbLine
 10
576.5744557688
 20
792.845551598
 30
0.0
 11
597.3744557688
 21
792.845551598
 31
0.0
  0
LINE
  5
FC
330
CD
100
AcDbEntity
  8
$DDT_AUDIT_GENERATED_(BF)
  6
Continuous
 62
     7
100
AcDbLine
 10
598.3744557688
 20
793.845551598
 30
0.0
 11
598.3744557688
 21
800.1876655745
 31
0.0
  0
LINE
  5
FD
330
CD
100
AcDbEntity
  8
$DDT_AUDIT_GENERATED_(BF)
  6
Continuous
 62
     7
100
AcDbLine
 10
575.5744557688
 20
800.1872025134
 30
0.0
 11
575.5744557688
 21
793.845551598
 31
0.0
  0
ARC
  5
FE
330
CD
100
AcDbEntity
  8
$DDT_AUDIT_GENERATED_(BF)
  6
Continuous
 62
     7
100
AcDbCircle
 10
597.3744557688
 20
793.845551598
 30
0.0
 40
1.000000000000001
100
AcDbArc
 50
270.0
 51
0.0
  0
ARC
  5
FF
330
CD
100
AcDbEntity
  8
$DDT_AUDIT_GENERATED_(BF)
  6
Continuous
 62
     7
100
AcDbCircle
 10
576.5744557688
 20
793.845551598
 30
0.0
 40
1.000000000000001
100
AcDbArc
 50
180.0
 51
270.0
  0
LINE
  5
100
330
CD
100
AcDbEntity
  8
06828131_MOUSSEU
  6
Continuous
 62
     7
100
AcDbLine
 10
577.9744557688
 20
792.395551598
 30
0.0
 11
595.9744557688
 21
792.395551598
 31
0.0
  0
LINE
  5
101
330
CD
100
AcDbEntity
  8
06828131_MOUSSEU
  6
Continuous
 62
     7
100
AcDbLine
 10
577.9744557688
 20
792.845551598
 30
0.0
 11
577.9744557688
 21
792.395551598
 31
0.0
  0
LINE
  5
102
330
CD
100
AcDbEntity
  8
06828131_MOUSSEU
  6
Continuous
 62
     7
100
AcDbLine
 10
595.9744557688
 20
792.395551598
 30
0.0
 11
595.9744557688
 21
792.845551598
 31
0.0
  0
LINE
  5
104
330
CD
100
AcDbEntity
  8
$DDT_AUDIT_GENERATED_(103)
  6
Continuous
 62
     7
100
AcDbLine
 10
572.8488057694
 20
800.0539476447
 30
0.0
 11
572.5744557688
 21
799.895551598
 31
0.0
  0
LINE
  5
105
330
CD
100
AcDbEntity
  8
$DDT_AUDIT_GENERATED_(103)
  6
Continuous
 62
     7
100
AcDbLine
 10
571.4744557688
 20
799.895551598
 30
0.0
 11
571.2744557688
 21
799.895551598
 31
0.0
  0
LINE
  5
106
330
CD
100
AcDbEntity
  8
$DDT_AUDIT_GENERATED_(103)
  6
Continuous
 62
     7
100
AcDbLine
 10
572.5744557688
 20
799.895551598
 30
0.0
 11
571.4744557688
 21
799.895551598
 31
0.0
  0
ARC
  5
107
330
CD
100
AcDbEntity
  8
$DDT_AUDIT_GENERATED_(103)
  6
Continuous
 62
     7
100
AcDbCircle
 10
571.2744557688
 20
800.195551598
 30
0.0
 40
0.2999999999999947
100
AcDbArc
 50
211.3046406185
 51
270.0
  0
LINE
  5
108
330
CD
100
AcDbEntity
  8
$DDT_AUDIT_GENERATED_(103)
  6
Continuous
 62
     7
100
AcDbLine
 10
572.532013676
 20
800.0539476447
 30
0.0
 11
572.5744557688
 21
799.895551598
 31
0.0
  0
LINE
  5
109
330
CD
100
AcDbEntity
  8
$DDT_AUDIT_GENERATED_(C9)
  6
Continuous
 62
     7
100
AcDbLine
 10
609.7744557688
 20
800.895551598
 30
0.0
 11
609.7744557688
 21
826.895551598
 31
0.0
  0
SPLINE
  5
10A
330
CD
100
AcDbEntity
  8
$DDT_AUDIT_GENERATED_(C9)
  6
Continuous
 62
     7
100
AcDbSpline
210
0.0
220
0.0
230
1.0
 70
     8
 71
     3
 72
    24
 73
    20
 74
     0
 42
0.0000000001846023
 43
0.0000000001
 40
0.5003840407870944
 40
0.5003840407870944
 40
0.5003840407870944
 40
0.5003840407870944
 40
0.5625000000000011
 40
0.5625000000000011
 40
0.6250000000000009
 40
0.6250000000000009
 40
0.6875000000000008
 40
0.6875000000000008
 40
0.7500000000000007
 40
0.7500000000000007
 40
0.7812500000000006
 40
0.7812500000000006
 40
0.8125000000000004
 40
0.8125000000000004
 40
0.8750000000000003
 40
0.8750000000000003
 40
0.9375000000000002
 40
0.9375000000000002
 40
1.0
 40
1.0
 40
1.0
 40
1.0
 10
598.7244544863049
 20
799.8955529813499
 30
0.0
 10
598.7242248191868
 20
799.8957786230922
 30
0.0
 10
598.4045886029201
 20
800.1666856613261
 30
0.0
 10
597.2785003857672
 20
801.0890738302837
 30
0.0
 10
596.4744789471164
 20
801.7385379511794
 30
0.0
 10
594.5836223764837
 20
803.1511597173952
 30
0.0
 10
593.4784571859568
 20
803.9351898011455
 30
0.0
 10
591.0089056409098
 20
805.340812650462
 30
0.0
 10
589.585193830194
 20
805.9945257976701
 30
0.0
 10
587.2743901654442
 20
806.3162607663802
 30
0.0
 10
586.493848527566
 20
806.3068762654528
 30
0.0
 10
584.9495503635959
 20
806.0560840215282
 30
0.0
 10
584.21351392579
 20
805.8234952077053
 30
0.0
 10
582.1238400903638
 20
804.9592687863077
 30
0.0
 10
580.9064018918214
 20
804.1933479387383
 30
0.0
 10
578.7347611625462
 20
802.7060902527767
 30
0.0
 10
577.7816528482864
 20
801.9694572629413
 30
0.0
 10
576.2607436801438
 20
800.7613318925146
 30
0.0
 10
575.6887138725504
 20
800.2836969002841
 30
0.0
 10
575.4136383236688
 20
800.0539476447085
 30
0.0
  0
LINE
  5
10B
330
CD
100
AcDbEntity
  8
$DDT_AUDIT_GENERATED_(C9)
  6
Continuous
 62
     7
100
AcDbLine
 10
489.7744557688
 20
800.6105977027
 30
0.0
 11
489.7744557688
 21
827.395551598
 31
0.0
  0
LINE
  5
10C
330
CD
100
AcDbEntity
  8
$DDT_AUDIT_GENERATED_(C9)
  6
Continuous
 62
     7
100
AcDbLine
 10
570.7744557688
 20
799.9872806774
 30
0.0
 11
570.7744557688
 21
799.895551598
 31
0.0
  0
LINE
  5
10D
330
CD
100
AcDbEntity
  8
$DDT_AUDIT_GENERATED_(C9)
  6
Continuous
 62
     7
100
AcDbLine
 10
571.2744557688
 20
800.0539476447
 30
0.0
 11
575.4136383237
 21
800.0539476447
 31
0.0
  0
SPLINE
  5
10E
330
CD
100
AcDbEntity
  8
$DDT_AUDIT_GENERATED_(C9)
  6
Continuous
 62
     7
100
AcDbSpline
210
0.0
220
0.0
230
1.0
 70
     8
 71
     3
 72
    10
 73
     6
 74
     0
 42
0.0000000192350883
 43
0.0000000001
 40
0.0
 40
0.0
 40
0.0
 40
0.0
 40
0.5
 40
0.5
 40
1.0
 40
1.0
 40
1.0
 40
1.0
 10
571.2744557688152
 20
800.0539476447085
 30
0.0
 10
571.1418073369509
 20
800.0539476447085
 30
0.0
 10
571.012102677087
 20
800.0454237549714
 30
0.0
 10
570.8281555187122
 20
800.0193990225778
 30
0.0
 10
570.7744557688152
 20
800.0024371056869
 30
0.0
 10
570.7744557688152
 20
799.9872806774372
 30
0.0
  0
ARC
  5
10F
330
CD
100
AcDbEntity
  8
$DDT_AUDIT_GENERATED_(C9)
  6
Continuous
 62
     7
100
AcDbCircle
 10
608.7744557688
 20
826.895551598
 30
0.0
 40
1.000000000000001
100
AcDbArc
 50
0.0
 51
90.0
  0
ARC
  5
110
330
CD
100
AcDbEntity
  8
$DDT_AUDIT_GENERATED_(C9)
  6
Continuous
 62
     7
100
AcDbCircle
 10
608.7744557688
 20
800.895551598
 30
0.0
 40
1.000000000000001
100
AcDbArc
 50
270.0
 51
0.0
  0
LINE
  5
111
330
CD
100
AcDbEntity
  8
$DDT_AUDIT_GENERATED_(C9)
  6
Continuous
 62
     7
100
AcDbLine
 10
598.7052043712
 20
799.895551598
 30
0.0
 11
608.7744557688
 21
799.895551598
 31
0.0
  0
LINE
  5
112
330
CD
100
AcDbEntity
  8
$DDT_AUDIT_GENERATED_(C9)
  6
Continuous
 62
     7
100
AcDbLine
 10
490.2744557688
 20
799.895551598
 30
0.0
 11
570.7744557688
 21
799.895551598
 31
0.0
  0
LINE
  5
113
330
CD
100
AcDbEntity
  8
$DDT_AUDIT_GENERATED_(C9)
  6
Continuous
 62
     7
100
AcDbLine
 10
608.7744557688
 20
827.895551598
 30
0.0
 11
490.2744557688
 21
827.895551598
 31
0.0
  0
ARC
  5
114
330
CD
100
AcDbEntity
  8
$DDT_AUDIT_GENERATED_(C9)
  6
Continuous
 62
     7
100
AcDbCircle
 10
490.2744557688
 20
800.395551598
 30
0.0
 40
0.5000000000000004
100
AcDbArc
 50
180.0
 51
270.0
  0
ARC
  5
115
330
CD
100
AcDbEntity
  8
$DDT_AUDIT_GENERATED_(C9)
  6
Continuous
 62
     7
100
AcDbCircle
 10
490.2744557688
 20
827.395551598
 30
0.0
 40
0.5000000000000004
100
AcDbArc
 50
90.0
 51
180.0
  0
ENDBLK
  5
117
330
CD
100
AcDbEntity
  8
0
100
AcDbBlockEnd
  0
BLOCK
  5
172
330
118
100
AcDbEntity
  8
0
100
AcDbBlockBegin
  2
SE2
 70
     0
 10
0.0
 20
0.0
 30
0.0
  3
SE2
  1

  0
LINE
  5
11A
330
118
100
AcDbEntity
  8
$DDT_AUDIT_GENERATED_(77)
  6
Continuous
 62
     7
100
AcDbLine
 10
148.4175778009
 20
327.05
 30
0.0
 11
148.4175778009
 21
378.05
 31
0.0
  0
LINE
  5
11B
330
118
100
AcDbEntity
  8
$DDT_AUDIT_GENERATED_(77)
  6
Continuous
 62
     7
100
AcDbLine
 10
79.9006574926
 20
326.55
 30
0.0
 11
79.9006574926
 21
378.55
 31
0.0
  0
ARC
  5
11C
330
118
100
AcDbEntity
  8
$DDT_AUDIT_GENERATED_(77)
  6
Continuous
 62
     7
100
AcDbCircle
 10
97.1175778009
 20
352.55
 30
0.0
 40
14.35
100
AcDbArc
 50
347.6499268548
 51
0.0
  0
ARC
  5
11D
330
118
100
AcDbEntity
  8
$DDT_AUDIT_GENERATED_(77)
  6
Continuous
 62
     7
100
AcDbCircle
 10
97.1175778009
 20
352.55
 30
0.0
 40
14.35
100
AcDbArc
 50
0.0
 51
192.6456560433
  0
ARC
  5
11E
330
118
100
AcDbEntity
  8
$DDT_AUDIT_GENERATED_(77)
  6
Continuous
 62
     7
100
AcDbCircle
 10
176.0775778009
 20
352.55
 30
0.0
 40
100.0
100
AcDbArc
 50
165.1504721945
 51
194.8495278055
  0
ARC
  5
11F
330
118
100
AcDbEntity
  8
$DDT_AUDIT_GENERATED_(77)
  6
Continuous
 62
     7
100
AcDbCircle
 10
147.9175778009
 20
327.05
 30
0.0
 40
0.5000000000000004
100
AcDbArc
 50
270.0
 51
0.0
  0
ARC
  5
120
330
118
100
AcDbEntity
  8
$DDT_AUDIT_GENERATED_(77)
  6
Continuous
 62
     7
100
AcDbCircle
 10
147.9175778009
 20
378.05
 30
0.0
 40
0.5000000000000004
100
AcDbArc
 50
0.0
 51
90.0
  0
ARC
  5
121
330
118
100
AcDbEntity
  8
$DDT_AUDIT_GENERATED_(77)
  6
Continuous
 62
     7
100
AcDbCircle
 10
79.9006574926
 20
378.05
 30
0.0
 40
0.5000000000000004
100
AcDbArc
 50
90.0
 51
165.1504721945
  0
ARC
  5
122
330
118
100
AcDbEntity
  8
$DDT_AUDIT_GENERATED_(77)
  6
Continuous
 62
     7
100
AcDbCircle
 10
79.9006574926
 20
327.05
 30
0.0
 40
0.4999999999999919
100
AcDbArc
 50
194.8495278055
 51
270.0
  0
LINE
  5
123
330
118
100
AcDbEntity
  8
$DDT_AUDIT_GENERATED_(77)
  6
Continuous
 62
     7
100
AcDbLine
 10
147.9175778009
 20
378.55
 30
0.0
 11
79.9006574926
 21
378.55
 31
0.0
  0
LINE
  5
124
330
118
100
AcDbEntity
  8
$DDT_AUDIT_GENERATED_(77)
  6
Continuous
 62
     7
100
AcDbLine
 10
79.9006574926
 20
326.55
 30
0.0
 11
83.1175778009
 21
326.55
 31
0.0
  0
LINE
  5
125
330
118
100
AcDbEntity
  8
$DDT_AUDIT_GENERATED_(77)
  6
Continuous
 62
     7
100
AcDbLine
 10
111.1175778009
 20
326.55
 30
0.0
 11
147.9175778009
 21
326.55
 31
0.0
  0
ARC
  5
126
330
118
100
AcDbEntity
  8
$DDT_AUDIT_GENERATED_(92)
  6
Continuous
 62
     7
100
AcDbCircle
 10
97.1175778009
 20
352.55
 30
0.0
 40
14.0
100
AcDbArc
 50
0.0
 51
180.0
  0
LINE
  5
127
330
118
100
AcDbEntity
  8
$DDT_AUDIT_GENERATED_(92)
  6
Continuous
 62
     7
100
AcDbLine
 10
111.1175778009
 20
226.55
 30
0.0
 11
83.1175778009
 21
226.55
 31
0.0
  0
LINE
  5
128
330
118
100
AcDbEntity
  8
$DDT_AUDIT_GENERATED_(92)
  6
Continuous
 62
     7
100
AcDbLine
 10
83.1175778009
 20
352.55
 30
0.0
 11
83.1175778009
 21
304.55
 31
0.0
  0
LINE
  5
129
330
118
100
AcDbEntity
  8
$DDT_AUDIT_GENERATED_(92)
  6
Continuous
 62
     7
100
AcDbLine
 10
111.1175778009
 20
304.55
 30
0.0
 11
111.1175778009
 21
352.55
 31
0.0
  0
LINE
  5
12A
330
118
100
AcDbEntity
  8
$DDT_AUDIT_GENERATED_(92)
  6
Continuous
 62
     7
100
AcDbLine
 10
111.1175778009
 20
226.55
 30
0.0
 11
111.1175778009
 21
304.55
 31
0.0
  0
LINE
  5
12B
330
118
100
AcDbEntity
  8
$DDT_AUDIT_GENERATED_(92)
  6
Continuous
 62
     7
100
AcDbLine
 10
83.1175778009
 20
304.55
 30
0.0
 11
83.1175778009
 21
226.55
 31
0.0
  0
LINE
  5
12D
330
118
100
AcDbEntity
  8
$DDT_AUDIT_GENERATED_(12C)
  6
Continuous
 62
     7
100
AcDbLine
 10
197.65061611
 20
349.115
 30
0.0
 11
197.7560102944
 21
349.115
 31
0.0
  0
LINE
  5
12E
330
118
100
AcDbEntity
  8
$DDT_AUDIT_GENERATED_(12C)
  6
Continuous
 62
     7
100
AcDbLine
 10
198.5496457824
 20
350.9782079175
 30
0.0
 11
198.5496457824
 21
350.7280063778
 31
0.0
  0
LINE
  5
12F
330
118
100
AcDbEntity
  8
$DDT_AUDIT_GENERATED_(97)
  6
Continuous
 62
     7
100
AcDbLine
 10
171.7175778009
 20
327.2489814154
 30
0.0
 11
171.7175778009
 21
377.8510185846
 31
0.0
  0
LINE
  5
130
330
118
100
AcDbEntity
  8
$DDT_AUDIT_GENERATED_(97)
  6
Continuous
 62
     7
100
AcDbLine
 10
148.4175778009
 20
378.05
 30
0.0
 11
148.4175778009
 21
327.05
 31
0.0
  0
LINE
  5
131
330
118
100
AcDbEntity
  8
$DDT_AUDIT_GENERATED_(97)
  6
Continuous
 62
     7
100
AcDbLine
 10
148.9175587644
 20
326.5543630439
 30
0.0
 11
148.9175587644
 21
378.5456369561
 31
0.0
  0
ARC
  5
132
330
118
100
AcDbEntity
  8
$DDT_AUDIT_GENERATED_(97)
  6
Continuous
 62
     7
100
AcDbCircle
 10
165.6475778009
 20
352.55
 30
0.0
 40
25.00000000000011
100
AcDbArc
 50
284.0518577574
 51
287.553689976
  0
ARC
  5
133
330
118
100
AcDbEntity
  8
$DDT_AUDIT_GENERATED_(97)
  6
Continuous
 62
     7
100
AcDbCircle
 10
165.6475778009
 20
352.55
 30
0.0
 40
25.00000000000011
100
AcDbArc
 50
72.4647416859
 51
75.9481422426
  0
LINE
  5
134
330
118
100
AcDbEntity
  8
$DDT_AUDIT_GENERATED_(97)
  6
Continuous
 62
     7
100
AcDbLine
 10
148.9175587644
 20
326.5543630439
 30
0.0
 11
171.2219408448
 21
326.749000452
 31
0.0
  0
LINE
  5
135
330
118
100
AcDbEntity
  8
$DDT_AUDIT_GENERATED_(97)
  6
Continuous
 62
     7
100
AcDbLine
 10
171.2219408448
 20
378.350999548
 30
0.0
 11
148.9175587644
 21
378.5456369561
 31
0.0
  0
ARC
  5
136
330
118
100
AcDbEntity
  8
$DDT_AUDIT_GENERATED_(97)
  6
Continuous
 62
     7
100
AcDbCircle
 10
171.2175778009
 20
377.8510185846
 30
0.0
 40
0.5000000000000004
100
AcDbArc
 50
0.0
 51
89.500025649
  0
ARC
  5
137
330
118
100
AcDbEntity
  8
$DDT_AUDIT_GENERATED_(97)
  6
Continuous
 62
     7
100
AcDbCircle
 10
171.2175778009
 20
327.2489814154
 30
0.0
 40
0.5000000000000024
100
AcDbArc
 50
270.499974351
 51
0.0
  0
LINE
  5
138
330
118
100
AcDbEntity
  8
$DDT_AUDIT_GENERATED_(97)
  6
Continuous
 62
     7
100
AcDbLine
 10
148.9175587644
 20
378.5456369561
 30
0.0
 11
148.4175778009
 21
378.05
 31
0.0
  0
LINE
  5
139
330
118
100
AcDbEntity
  8
$DDT_AUDIT_GENERATED_(97)
  6
Continuous
 62
     7
100
AcDbLine
 10
148.4175778009
 20
327.05
 30
0.0
 11
148.9175587644
 21
326.5543630439
 31
0.0
  0
LINE
  5
13A
330
118
100
AcDbEntity
  8
$DDT_AUDIT_GENERATED_(A6)
  6
Continuous
 62
     7
100
AcDbLine
 10
195.9680744836
 20
351.2268781941
 30
0.0
 11
197.3802221818
 21
351.2268781941
 31
0.0
  0
LINE
  5
13B
330
118
100
AcDbEntity
  8
$DDT_AUDIT_GENERATED_(A6)
  6
Continuous
 62
     7
100
AcDbLine
 10
180.1156194249
 20
348.615
 30
0.0
 11
181.5399719086
 21
348.615
 31
0.0
  0
SPLINE
  5
13C
330
118
100
AcDbEntity
  8
$DDT_AUDIT_GENERATED_(A6)
  6
Continuous
 62
     7
100
AcDbSpline
210
0.0
220
0.0
230
1.0
 70
     8
 71
     3
 72
    18
 73
    14
 74
     0
 42
0.0000000007413811
 43
0.0000000001
 40
0.0
 40
0.0
 40
0.0
 40
0.0
 40
0.1250000000000007
 40
0.1250000000000007
 40
0.2500000000000014
 40
0.2500000000000014
 40
0.5000000000000014
 40
0.5000000000000014
 40
0.6250000000000014
 40
0.6250000000000014
 40
0.7500000000000016
 40
0.7500000000000016
 40
1.0
 40
1.0
 40
1.0
 40
1.0
 10
193.5107910825795
 20
348.7272289094321
 30
0.0
 10
193.4876546200092
 20
348.7272289094321
 30
0.0
 10
193.2901518646985
 20
348.7242477066343
 30
0.0
 10
192.5739394565062
 20
348.7133871993783
 30
0.0
 10
192.0560569561529
 20
348.7055503399358
 30
0.0
 10
190.1528272413042
 20
348.6790283503796
 30
0.0
 10
188.3873702417959
 20
348.657718860681
 30
0.0
 10
185.770894295538
 20
348.6357830564142
 30
0.0
 10
184.898830465518
 20
348.6299362721095
 30
0.0
 10
183.2960656676344
 20
348.6215388180814
 30
0.0
 10
182.570411253358
 20
348.6189662785017
 30
0.0
 10
180.7414379373826
 20
348.6143413724685
 30
0.0
 10
180.0693466056432
 20
348.6149999999994
 30
0.0
 10
180.1156194248907
 20
348.6149999999995
 30
0.0
  0
SPLINE
  5
13D
330
118
100
AcDbEntity
  8
$DDT_AUDIT_GENERATED_(A6)
  6
Continuous
 62
     7
100
AcDbSpline
210
0.0
220
0.0
230
1.0
 70
     8
 71
     3
 72
    20
 73
    16
 74
     0
 42
0.0000000005403091
 43
0.0000000001
 40
0.0082552273131095
 40
0.0082552273131095
 40
0.0082552273131095
 40
0.0082552273131095
 40
0.25
 40
0.25
 40
0.375
 40
0.375
 40
0.5
 40
0.5
 40
0.625
 40
0.625
 40
0.75
 40
0.75
 40
0.875
 40
0.875
 40
1.0
 40
1.0
 40
1.0
 40
1.0
 10
177.6133845695016
 20
351.1149980057361
 30
0.0
 10
177.6143434807675
 20
351.1149606125204
 30
0.0
 10
178.5247510173259
 20
351.1144433525973
 30
0.0
 10
180.9733743362424
 20
351.1189407150295
 30
0.0
 10
181.9673911031835
 20
351.121500127164
 30
0.0
 10
184.1651215540233
 20
351.1298720743369
 30
0.0
 10
185.361605236071
 20
351.1357063747776
 30
0.0
 10
187.755017275657
 20
351.1503067717852
 30
0.0
 10
188.9686280570754
 20
351.1591867414788
 30
0.0
 10
191.2004759689333
 20
351.1778017841904
 30
0.0
 10
192.2418870231589
 20
351.1876968835651
 30
0.0
 10
193.9791577186289
 20
351.2053160244632
 30
0.0
 10
194.6873792954374
 20
351.2131147852237
 30
0.0
 10
195.6665451521993
 20
351.2239168459234
 30
0.0
 10
195.9363293329755
 20
351.2268781940902
 30
0.0
 10
195.9680744835882
 20
351.2268781940901
 30
0.0
  0
ELLIPSE
  5
13E
330
118
100
AcDbEntity
  8
$DDT_AUDIT_GENERATED_(A6)
  6
Continuous
 62
     7
100
AcDbEllipse
 10
193.4689311711
 20
351.2268781941
 30
0.0
 11
5.093148125467906E-12
 21
-2.500000000000103
 31
0.0
210
0.0
220
0.0
230
1.0
 40
0.999657325
 41
0.0167504875699418
 42
1.57079632679286
  0
SPLINE
  5
13F
330
118
100
AcDbEntity
  8
$DDT_AUDIT_GENERATED_(A6)
  6
Continuous
 62
     7
100
AcDbSpline
210
0.0
220
0.0
230
1.0
 70
     8
 71
     3
 72
    18
 73
    14
 74
     0
 42
0.0000000007439331
 43
0.0000000001
 40
0.0
 40
0.0
 40
0.0
 40
0.0
 40
0.1250000000000002
 40
0.1250000000000002
 40
0.2500000000000004
 40
0.2500000000000004
 40
0.4999999999999992
 40
0.4999999999999992
 40
0.624999999999999
 40
0.624999999999999
 40
0.7499999999999987
 40
0.7499999999999987
 40
1.0
 40
1.0
 40
1.0
 40
1.0
 10
180.1156194248907
 20
356.6149999999998
 30
0.0
 10
180.0924829827181
 20
356.6149999999998
 30
0.0
 10
180.2445815431836
 20
356.6150518888366
 30
0.0
 10
180.8760580684742
 20
356.6146205567802
 30
0.0
 10
181.3551682400206
 20
356.6141040754221
 30
0.0
 10
183.161835268569
 20
356.6095434089909
 30
0.0
 10
184.8897432172505
 20
356.6015849913623
 30
0.0
 10
187.5061362998084
 20
356.5796787225014
 30
0.0
 10
188.3871741748331
 20
356.5708376664321
 30
0.0
 10
190.0247418050301
 20
356.5520869690525
 30
0.0
 10
190.7759185903544
 20
356.5422863386038
 30
0.0
 10
192.7024980560928
 20
356.5154460691303
 30
0.0
 10
193.4645181791269
 20
356.5027710905671
 30
0.0
 10
193.5107910825795
 20
356.5027710905671
 30
0.0
  0
LINE
  5
140
330
118
100
AcDbEntity
  8
$DDT_AUDIT_GENERATED_(A6)
  6
Continuous
 62
     7
100
AcDbLine
 10
195.9680744836
 20
354.0031218059
 30
0.0
 11
195.9680744836
 21
351.2268781941
 31
0.0
  0
ARC
  5
141
330
118
100
AcDbEntity
  8
$DDT_AUDIT_GENERATED_(A6)
  6
Continuous
 62
     7
100
AcDbCircle
 10
177.0727473451
 20
-1240.2609859346
 30
0.0
 40
1594.376078162605
100
AcDbArc
 50
89.3209583004
 51
89.9805741658
  0
ELLIPSE
  5
142
330
118
100
AcDbEntity
  8
$DDT_AUDIT_GENERATED_(A6)
  6
Continuous
 62
     7
100
AcDbEllipse
 10
193.4689311711
 20
354.0031218059
 30
0.0
 11
0.0
 21
2.499143312438832
 31
0.0
210
0.0
220
0.0
230
1.0
 40
1.0
 41
-1.570796326794897
 42
-0.0167447486714403
  0
ARC
  5
143
330
118
100
AcDbEntity
  8
$DDT_AUDIT_GENERATED_(A6)
  6
Continuous
 62
     7
100
AcDbCircle
 10
195.0049687302
 20
353.8712977436
 30
0.0
 40
3.606904334970662
100
AcDbArc
 50
1.1212908317
 51
90.3088235896
  0
ARC
  5
144
330
118
100
AcDbEntity
  8
$DDT_AUDIT_GENERATED_(A6)
  6
Continuous
 62
     7
100
AcDbCircle
 10
195.0059648274
 20
351.3576809809
 30
0.0
 40
3.605888582339801
100
AcDbArc
 50
269.6752616846
 51
358.8946238941
  0
LINE
  5
145
330
118
100
AcDbEntity
  8
$DDT_AUDIT_GENERATED_(A6)
  6
Continuous
 62
     7
100
AcDbLine
 10
181.5399719086
 20
356.615
 30
0.0
 11
180.1156194249
 21
356.615
 31
0.0
  0
LINE
  5
146
330
118
100
AcDbEntity
  8
$DDT_AUDIT_GENERATED_(A6)
  6
Continuous
 62
     7
100
AcDbLine
 10
197.3802221818
 20
354.0031218059
 30
0.0
 11
195.9680744836
 21
354.0031218059
 31
0.0
  0
ARC
  5
147
330
118
100
AcDbEntity
  8
$DDT_AUDIT_GENERATED_(A6)
  6
Continuous
 62
     7
100
AcDbCircle
 10
194.8922760588
 20
354.015155494
 30
0.0
 40
2.487975225073624
100
AcDbArc
 50
359.7228741585
 51
89.0258027684
  0
ARC
  5
148
330
118
100
AcDbEntity
  8
$DDT_AUDIT_GENERATED_(A6)
  6
Continuous
 62
     7
100
AcDbCircle
 10
194.8918627443
 20
351.215248891
 30
0.0
 40
2.488386611988775
100
AcDbArc
 50
270.9835542262
 51
0.2677688469
  0
ARC
  5
149
330
118
100
AcDbEntity
  8
$DDT_AUDIT_GENERATED_(A6)
  6
Continuous
 62
     7
100
AcDbCircle
 10
1235.1083774996
 20
352.615
 30
0.0
 40
1037.729083731132
100
AcDbArc
 50
179.9233580846
 51
180.0766419154
  0
ELLIPSE
  5
14A
330
118
100
AcDbEntity
  8
$DDT_AUDIT_GENERATED_(A6)
  6
Continuous
 62
     7
100
AcDbEllipse
 10
198.5798109717
 20
351.2268781941
 30
0.0
 11
-1.199998926409582
 21
-0.001605184043900138
 31
0.0
210
0.0
220
0.0
230
1.0
 40
0.0510164019
 41
4.686174898228082
 42
6.256971225022777
  0
ELLIPSE
  5
14B
330
118
100
AcDbEntity
  8
$DDT_AUDIT_GENERATED_(A6)
  6
Continuous
 62
     7
100
AcDbEllipse
 10
198.5798109717
 20
354.0031218059
 30
0.0
 11
-1.199998926409582
 21
0.001605184043899054
 31
0.0
210
0.0
220
0.0
230
1.0
 40
0.0510164019
 41
0.0262140821568085
 42
1.597010408951528
  0
SPLINE
  5
14C
330
118
100
AcDbEntity
  8
$DDT_AUDIT_GENERATED_(A6)
  6
Continuous
 62
     7
100
AcDbSpline
210
0.0
220
0.0
230
1.0
 70
     8
 71
     3
 72
    22
 73
    18
 74
     0
 42
0.0000000000958772
 43
0.0000000001
 40
0.0
 40
0.0
 40
0.0
 40
0.0
 40
0.03125
 40
0.03125
 40
0.0625
 40
0.0625
 40
0.09375
 40
0.09375
 40
0.125
 40
0.125
 40
0.15625
 40
0.15625
 40
0.1875
 40
0.1875
 40
0.21875
 40
0.21875
 40
0.2499262469166805
 40
0.2499262469166805
 40
0.2499262469166805
 40
0.2499262469166805
 10
203.1712867244973
 20
352.615056314813
 30
0.0
 10
203.171462769586
 20
354.3321242302423
 30
0.0
 10
203.1762474795133
 20
356.0511736835732
 30
0.0
 10
203.1944817760927
 20
359.3866745815675
 30
0.0
 10
203.2078516355013
 20
361.0060526331472
 30
0.0
 10
203.2430962347571
 20
364.1480700106934
 30
0.0
 10
203.2651269073642
 20
365.6714571391232
 30
0.0
 10
203.3159257294522
 20
368.4872035350601
 30
0.0
 10
203.3448616603147
 20
369.797988281289
 30
0.0
 10
203.4100401122056
 20
372.2189688959729
 30
0.0
 10
203.4455494115978
 20
373.2996533983564
 30
0.0
 10
203.5211918427947
 20
375.1793811734724
 30
0.0
 10
203.5618870654189
 20
375.9900483626817
 30
0.0
 10
203.6465487501166
 20
377.2943993111345
 30
0.0
 10
203.6900330580308
 20
377.7844973389376
 30
0.0
 10
203.7791615217791
 20
378.4456281134978
 30
0.0
 10
203.8252240116058
 20
378.6149605084162
 30
0.0
 10
203.8705982434082
 20
378.6149999327358
 30
0.0
  0
SPLINE
  5
14D
330
118
100
AcDbEntity
  8
$DDT_AUDIT_GENERATED_(A6)
  6
Continuous
 62
     7
100
AcDbSpline
210
0.0
220
0.0
230
1.0
 70
     8
 71
     3
 72
    10
 73
     6
 74
     0
 42
0.0000000022799507
 43
0.0000000001
 40
0.2499262469166805
 40
0.2499262469166805
 40
0.2499262469166805
 40
0.2499262469166805
 40
0.25
 40
0.25
 40
0.2506004555862478
 40
0.2506004555862478
 40
0.2506004555862478
 40
0.2506004555862478
 10
203.8705982434082
 20
378.6149999327358
 30
0.0
 10
203.8707055844075
 20
378.6150000260012
 30
0.0
 10
203.8708129215549
 20
378.6149991718269
 30
0.0
 10
203.871794101124
 20
378.6149827014735
 30
0.0
 10
203.8726678201706
 20
378.6149072598764
 30
0.0
 10
203.8735414119259
 20
378.614771028611
 30
0.0
  0
SPLINE
  5
14E
330
118
100
AcDbEntity
  8
$DDT_AUDIT_GENERATED_(A6)
  6
Continuous
 62
     7
100
AcDbSpline
210
0.0
220
0.0
230
1.0
 70
     8
 71
     3
 72
     8
 73
     4
 74
     0
 42
0.0000000022634209
 43
0.0000000001
 40
0.7500729132556431
 40
0.7500729132556431
 40
0.7500729132556431
 40
0.7500729132556431
 40
0.750523074228771
 40
0.750523074228771
 40
0.750523074228771
 40
0.750523074228771
 10
203.8652704226702
 20
326.6149999946148
 30
0.0
 10
203.8646089274609
 20
326.6150002832037
 30
0.0
 10
203.8639475366641
 20
326.6150356392297
 30
0.0
 10
203.8632862516503
 20
326.6151060391529
 30
0.0
  0
SPLINE
  5
14F
330
118
100
AcDbEntity
  8
$DDT_AUDIT_GENERATED_(A6)
  6
Continuous
 62
     7
100
AcDbSpline
210
0.0
220
0.0
230
1.0
 70
     8
 71
     3
 72
    20
 73
    16
 74
     0
 42
0.0000000000957238
 43
0.0000000001
 40
0.750523074228771
 40
0.750523074228771
 40
0.750523074228771
 40
0.750523074228771
 40
0.7812500000000001
 40
0.7812500000000001
 40
0.8125000000000001
 40
0.8125000000000001
 40
0.8437500000000001
 40
0.8437500000000001
 40
0.8750000000000001
 40
0.8750000000000001
 40
0.9062500000000001
 40
0.9062500000000001
 40
0.9375000000000001
 40
0.9375000000000001
 40
1.0
 40
1.0
 40
1.0
 40
1.0
 10
203.8632862516503
 20
326.6151060391529
 30
0.0
 10
203.8181484970526
 20
326.6199113717876
 30
0.0
 10
203.7735035965331
 20
326.7879899170605
 30
0.0
 10
203.6853270435542
 20
327.4412343732304
 30
0.0
 10
203.6412440955081
 20
327.9388015190619
 30
0.0
 10
203.5569093242366
 20
329.2434814009387
 30
0.0
 10
203.5169755051289
 20
330.0415095272289
 30
0.0
 10
203.4415056027325
 20
331.9244149509486
 30
0.0
 10
203.4057433833646
 20
333.021586623574
 30
0.0
 10
203.3416600513398
 20
335.4199477433212
 30
0.0
 10
203.3129611918287
 20
336.7274402310389
 30
0.0
 10
203.2623624627358
 20
339.5627223513468
 30
0.0
 10
203.2407828552109
 20
341.0792870362081
 30
0.0
 10
203.1890702305585
 20
345.7694909266577
 30
0.0
 10
203.1709346343198
 20
349.1809204839544
 30
0.0
 10
203.1712867244973
 20
352.615056314813
 30
0.0
  0
SPLINE
  5
150
330
118
100
AcDbEntity
  8
$DDT_AUDIT_GENERATED_(A6)
  6
Continuous
 62
     7
100
AcDbSpline
210
0.0
220
0.0
230
1.0
 70
     8
 71
     3
 72
    22
 73
    18
 74
     0
 42
0.0000000001012961
 43
0.0000000001
 40
0.0
 40
0.0
 40
0.0
 40
0.0
 40
0.0625
 40
0.0625
 40
0.09375
 40
0.09375
 40
0.125
 40
0.125
 40
0.1562499999999999
 40
0.1562499999999999
 40
0.1874999999999999
 40
0.1874999999999999
 40
0.2187499999999999
 40
0.2187499999999999
 40
0.2499999999999999
 40
0.2499999999999999
 40
0.259446487589976
 40
0.259446487589976
 40
0.259446487589976
 40
0.259446487589976
 10
203.8614841314938
 20
352.6149838925544
 30
0.0
 10
203.861129564588
 20
349.2497488994194
 30
0.0
 10
203.878903371215
 20
345.9067646160383
 30
0.0
 10
203.9295980452255
 20
341.3106627143744
 30
0.0
 10
203.9507540593295
 20
339.8245256522534
 30
0.0
 10
204.0003615245659
 20
337.0461292723471
 30
0.0
 10
204.0284989695763
 20
335.7648696885821
 30
0.0
 10
204.0913301011162
 20
333.4146281424572
 30
0.0
 10
204.1263941744914
 20
332.3394696014835
 30
0.0
 10
204.2003919350985
 20
330.494341902441
 30
0.0
 10
204.2395473293001
 20
329.7123250369934
 30
0.0
 10
204.3222392057418
 20
328.4338216410383
 30
0.0
 10
204.3654638900195
 20
327.9462374515977
 30
0.0
 10
204.4526543486104
 20
327.3006967395729
 30
0.0
 10
204.4971919520177
 20
327.135829642824
 30
0.0
 10
204.5558344883335
 20
327.1368105098634
 30
0.0
 10
204.5693840488528
 20
327.1520642997098
 30
0.0
 10
204.5828716899808
 20
327.1821874224803
 30
0.0
  0
SPLINE
  5
151
330
118
100
AcDbEntity
  8
$DDT_AUDIT_GENERATED_(A6)
  6
Continuous
 62
     7
100
AcDbSpline
210
0.0
220
0.0
230
1.0
 70
     8
 71
     3
 72
     8
 73
     4
 74
     0
 42
0.0000000007336965
 43
0.0000000001
 40
0.259446487589976
 40
0.259446487589976
 40
0.259446487589976
 40
0.259446487589976
 40
0.2661576134674488
 40
0.2661576134674488
 40
0.2661576134674488
 40
0.2661576134674488
 10
204.5828716899808
 20
327.1821874224803
 30
0.0
 10
204.5924537972496
 20
327.2035879765814
 30
0.0
 10
204.6020046525964
 20
327.2324933724189
 30
0.0
 10
204.6115244901107
 20
327.268847394099
 30
0.0
  0
SPLINE
  5
153
330
118
100
AcDbEntity
  8
$DDT_AUDIT_GENERATED_(A6)
  6
HIDDEN2
 62
     7
100
AcDbSpline
210
0.0
220
0.0
230
1.0
 70
     8
 71
     3
 72
    10
 73
     6
 74
     0
 42
0.0000000003408066
 43
0.0000000001
 40
0.2718604910375936
 40
0.2718604910375936
 40
0.2718604910375936
 40
0.2718604910375936
 40
0.2812499999999999
 40
0.2812499999999999
 40
0.2863356569143791
 40
0.2863356569143791
 40
0.2863356569143791
 40
0.2863356569143791
 10
204.6357263041646
 20
327.3776259448142
 30
0.0
 10
204.6489719523264
 20
327.4461432912036
 30
0.0
 10
204.6621572734104
 20
327.5291475862396
 30
0.0
 10
204.6823921702647
 20
327.679205844371
 30
0.0
 10
204.6894961531803
 20
327.7363534330646
 30
0.0
 10
204.696586568498
 20
327.7978437718264
 30
0.0
  0
SPLINE
  5
154
330
118
100
AcDbEntity
  8
$DDT_AUDIT_GENERATED_(A6)
  6
HIDDEN2
 62
     7
100
AcDbSpline
210
0.0
220
0.0
230
1.0
 70
     8
 71
     3
 72
    10
 73
     6
 74
     0
 42
0.000000000336748
 43
0.0000000001
 40
0.707514696518838
 40
0.707514696518838
 40
0.707514696518838
 40
0.707514696518838
 40
0.71875
 40
0.71875
 40
0.7337546951614008
 40
0.7337546951614008
 40
0.7337546951614008
 40
0.7337546951614008
 10
204.7273775439052
 20
377.1905181272772
 30
0.0
 10
204.7118377025907
 20
377.3493044521618
 30
0.0
 10
204.6961387944478
 20
377.487724178077
 30
0.0
 10
204.6592662976086
 20
377.761177565699
 30
0.0
 10
204.6381025331311
 20
377.8798255149766
 30
0.0
 10
204.6168601662501
 20
377.9610091801363
 30
0.0
  0
SPLINE
  5
155
330
118
100
AcDbEntity
  8
$DDT_AUDIT_GENERATED_(A6)
  6
Continuous
 62
     7
100
AcDbSpline
210
0.0
220
0.0
230
1.0
 70
     8
 71
     3
 72
     8
 73
     4
 74
     0
 42
0.0000000007074465
 43
0.0000000001
 40
0.7337546951614008
 40
0.7337546951614008
 40
0.7337546951614008
 40
0.7337546951614008
 40
0.7393067886814221
 40
0.7393067886814221
 40
0.7393067886814221
 40
0.7393067886814221
 10
204.6168601662501
 20
377.9610091801363
 30
0.0
 10
204.6089999860704
 20
377.9910490640804
 30
0.0
 10
204.6011290438403
 20
378.0159594291675
 30
0.0
 10
204.5932473666855
 20
378.0357532112553
 30
0.0
  0
SPLINE
  5
156
330
118
100
AcDbEntity
  8
$DDT_AUDIT_GENERATED_(A6)
  6
Continuous
 62
     7
100
AcDbSpline
210
0.0
220
0.0
230
1.0
 70
     8
 71
     3
 72
    24
 73
    20
 74
     0
 42
0.0000000001017297
 43
0.0000000001
 40
0.7393067886814221
 40
0.7393067886814221
 40
0.7393067886814221
 40
0.7393067886814221
 40
0.75
 40
0.75
 40
0.78125
 40
0.78125
 40
0.8125
 40
0.8125
 40
0.84375
 40
0.84375
 40
0.875
 40
0.875
 40
0.90625
 40
0.90625
 40
0.9375
 40
0.9375
 40
0.96875
 40
0.96875
 40
1.0
 40
1.0
 40
1.0
 40
1.0
 10
204.5932473666855
 20
378.0357532112553
 30
0.0
 10
204.5780674279729
 20
378.0738756048885
 30
0.0
 10
204.5628476692143
 20
378.0930185855062
 30
0.0
 10
204.5029940301949
 20
378.0940226612286
 30
0.0
 10
204.4577160192972
 20
377.9280688698065
 30
0.0
 10
204.370215047819
 20
377.2794372907544
 30
0.0
 10
204.3275746880353
 20
376.799172357536
 30
0.0
 10
204.2445551752632
 20
375.5209912898345
 30
0.0
 10
204.2046488136929
 20
374.7265889440952
 30
0.0
 10
204.1304716687546
 20
372.8845751374591
 30
0.0
 10
204.0956496893416
 20
371.8255729775493
 30
0.0
 10
204.0317316475129
 20
369.453165767461
 30
0.0
 10
204.0033546340289
 20
368.1686799821405
 30
0.0
 10
203.9535356290285
 20
365.4094273774799
 30
0.0
 10
203.9319290675505
 20
363.916604759166
 30
0.0
 10
203.8973610464508
 20
360.8376273093342
 30
0.0
 10
203.8842466831722
 20
359.2507396798017
 30
0.0
 10
203.8663577826628
 20
355.9821606636327
 30
0.0
 10
203.8616614149467
 20
354.297601389122
 30
0.0
 10
203.8614841314938
 20
352.6149838925544
 30
0.0
  0
SPLINE
  5
157
330
118
100
AcDbEntity
  8
$DDT_AUDIT_GENERATED_(A6)
  6
Continuous
 62
     7
100
AcDbSpline
210
0.0
220
0.0
230
1.0
 70
     8
 71
     3
 72
     8
 73
     4
 74
     0
 42
0.0000000002057146
 43
0.0000000001
 40
0.0
 40
0.0
 40
0.0
 40
0.0
 40
0.0566826699826576
 40
0.0566826699826576
 40
0.0566826699826576
 40
0.0566826699826576
 10
173.6276150071858
 20
378.1229234755877
 30
0.0
 10
174.4867805240379
 20
378.4527462061528
 30
0.0
 10
175.3857393753141
 20
378.6136012131573
 30
0.0
 10
176.3076080599944
 20
378.6131611094407
 30
0.0
  0
SPLINE
  5
158
330
118
100
AcDbEntity
  8
$DDT_AUDIT_GENERATED_(A6)
  6
Continuous
 62
     7
100
AcDbSpline
210
0.0
220
0.0
230
1.0
 70
     8
 71
     3
 72
     8
 73
     4
 74
     0
 42
0.0000000002047668
 43
0.0000000001
 40
0.94362731149457
 40
0.94362731149457
 40
0.94362731149457
 40
0.94362731149457
 40
1.0
 40
1.0
 40
1.0
 40
1.0
 10
176.305025370994
 20
326.615044971602
 30
0.0
 10
175.3908979539075
 20
326.615228848013
 30
0.0
 10
174.4905492030717
 20
326.7758070458599
 30
0.0
 10
173.627615007308
 20
327.107076524424
 30
0.0
  0
SPLINE
  5
159
330
118
100
AcDbEntity
  8
$DDT_AUDIT_GENERATED_(A6)
  6
Continuous
 62
     7
100
AcDbSpline
210
0.0
220
0.0
230
1.0
 70
     8
 71
     3
 72
    10
 73
     6
 74
     0
 42
0.0000000209765404
 43
0.0000000001
 40
0.0
 40
0.0
 40
0.0
 40
0.0
 40
0.5
 40
0.5
 40
1.0
 40
1.0
 40
1.0
 40
1.0
 10
173.2892395291053
 20
377.8275380871164
 30
0.0
 10
173.2950978322256
 20
377.8839069384805
 30
0.0
 10
173.3258934157235
 20
377.9372913695459
 30
0.0
 10
173.4396875371663
 20
378.0369506479186
 30
0.0
 10
173.5210965430335
 20
378.0820323899754
 30
0.0
 10
173.6276150071858
 20
378.1229234755877
 30
0.0
  0
ELLIPSE
  5
15A
330
118
100
AcDbEntity
  8
$DDT_AUDIT_GENERATED_(A6)
  6
Continuous
 62
     7
100
AcDbEllipse
 10
173.4554743287
 20
352.615
 30
0.0
 11
2.081668171172169E-14
 21
-26.00000000000002
 31
0.0
210
0.0
220
0.0
230
1.0
 40
0.0261769483
 41
3.388335950420275
 42
6.036442010349059
  0
SPLINE
  5
15B
330
118
100
AcDbEntity
  8
$DDT_AUDIT_GENERATED_(A6)
  6
Continuous
 62
     7
100
AcDbSpline
210
0.0
220
0.0
230
1.0
 70
     8
 71
     3
 72
    10
 73
     6
 74
     0
 42
0.0000000209744174
 43
0.0000000001
 40
0.0
 40
0.0
 40
0.0
 40
0.0
 40
0.5
 40
0.5
 40
1.0
 40
1.0
 40
1.0
 40
1.0
 10
173.627615007308
 20
327.107076524424
 30
0.0
 10
173.5222637463324
 20
327.1475195355017
 30
0.0
 10
173.4409869061853
 20
327.1922432877664
 30
0.0
 10
173.3267206179075
 20
327.2916584106741
 30
0.0
 10
173.295177597229
 20
327.3453255591343
 30
0.0
 10
173.2892395291053
 20
327.4024619128834
 30
0.0
  0
LINE
  5
15C
330
118
100
AcDbEntity
  8
$DDT_AUDIT_GENERATED_(A6)
  6
Continuous
 62
     7
100
AcDbLine
 10
177.6133307174
 20
354.1149990889
 30
0.0
 11
177.6133307174
 21
351.1150002135
 31
0.0
  0
ARC
  5
15D
330
118
100
AcDbEntity
  8
$DDT_AUDIT_GENERATED_(A6)
  6
Continuous
 62
     7
100
AcDbCircle
 10
180.1133307199
 20
351.1150000033
 30
0.0
 40
2.499999999994268
100
AcDbArc
 50
180.0178076204
 51
270.0004922609
  0
ARC
  5
15E
330
118
100
AcDbEntity
  8
$DDT_AUDIT_GENERATED_(A6)
  6
Continuous
 62
     7
100
AcDbCircle
 10
180.1105671533
 20
354.1206221256
 30
0.0
 40
2.494017138066701
100
AcDbArc
 50
92.0964923372
 51
180.1040603705
  0
ARC
  5
15F
330
118
100
AcDbEntity
  8
$DDT_AUDIT_GENERATED_(A6)
  6
Continuous
 62
     7
100
AcDbCircle
 10
107.8795493913
 20
352.6251133341
 30
0.0
 40
100.0
100
AcDbArc
 50
345.3228651231
 51
14.6657871789
  0
LINE
  5
160
330
118
100
AcDbEntity
  8
$DDT_AUDIT_GENERATED_(A6)
  6
Continuous
 62
     7
100
AcDbLine
 10
203.8706056153
 20
378.615
 30
0.0
 11
176.3114309603
 21
378.615
 31
0.0
  0
LINE
  5
161
330
118
100
AcDbEntity
  8
$DDT_AUDIT_GENERATED_(A6)
  6
Continuous
 62
     7
100
AcDbLine
 10
176.3079548422
 20
326.615
 30
0.0
 11
203.8652803081
 21
326.615
 31
0.0
  0
ARC
  5
162
330
118
100
AcDbEntity
  8
$DDT_AUDIT_GENERATED_(A6)
  6
Continuous
 62
     7
100
AcDbCircle
 10
203.8922685476
 20
377.8871328637
 30
0.0
 40
0.709246340508019
100
AcDbArc
 50
19.7656897222
 51
91.5134832499
  0
ARC
  5
163
330
118
100
AcDbEntity
  8
$DDT_AUDIT_GENERATED_(A6)
  6
Continuous
 62
     7
100
AcDbCircle
 10
203.886700371
 20
327.3356749819
 30
0.0
 40
0.7031434094732891
100
AcDbArc
 50
268.0730143414
 51
339.8981011744
  0
LINE
  5
164
330
118
100
AcDbEntity
  8
$DDT_AUDIT_GENERATED_(EC)
  6
Continuous
 62
     7
100
AcDbLine
 10
99.0175778009
 20
226.55
 30
0.0
 11
99.2175778009
 21
226.35
 31
0.0
  0
LINE
  5
165
330
118
100
AcDbEntity
  8
$DDT_AUDIT_GENERATED_(EC)
  6
Continuous
 62
     7
100
AcDbLine
 10
95.0175778009
 20
226.35
 30
0.0
 11
95.2175778009
 21
226.55
 31
0.0
  0
LINE
  5
166
330
118
100
AcDbEntity
  8
$DDT_AUDIT_GENERATED_(EC)
  6
Continuous
 62
     7
100
AcDbLine
 10
110.0425778009
 20
226.35
 30
0.0
 11
110.0425778009
 21
226.55
 31
0.0
  0
LINE
  5
167
330
118
100
AcDbEntity
  8
$DDT_AUDIT_GENERATED_(EC)
  6
Continuous
 62
     7
100
AcDbLine
 10
84.1925778009
 20
226.55
 30
0.0
 11
84.1925778009
 21
226.35
 31
0.0
  0
LINE
  5
168
330
118
100
AcDbEntity
  8
$DDT_AUDIT_GENERATED_(103)
  6
Continuous
 62
     7
100
AcDbLine
 10
98.6175778009
 20
226.55
 30
0.0
 11
98.6175778009
 21
226.35
 31
0.0
  0
LINE
  5
169
330
118
100
AcDbEntity
  8
$DDT_AUDIT_GENERATED_(103)
  6
Continuous
 62
     7
100
AcDbLine
 10
95.6175778009
 20
226.35
 30
0.0
 11
95.6175778009
 21
226.55
 31
0.0
  0
LINE
  5
16A
330
118
100
AcDbEntity
  8
$DDT_AUDIT_GENERATED_(C9)
  6
Continuous
 62
     7
100
AcDbLine
 10
84.1175778009
 20
106.35
 30
0.0
 11
110.1175778009
 21
106.35
 31
0.0
  0
LINE
  5
16B
330
118
100
AcDbEntity
  8
$DDT_AUDIT_GENERATED_(C9)
  6
Continuous
 62
     7
100
AcDbLine
 10
110.6175778009
 20
226.35
 30
0.0
 11
83.6175778009
 21
226.35
 31
0.0
  0
ARC
  5
16C
330
118
100
AcDbEntity
  8
$DDT_AUDIT_GENERATED_(C9)
  6
Continuous
 62
     7
100
AcDbCircle
 10
110.1175778009
 20
107.35
 30
0.0
 40
1.000000000000001
100
AcDbArc
 50
270.0
 51
0.0
  0
ARC
  5
16D
330
118
100
AcDbEntity
  8
$DDT_AUDIT_GENERATED_(C9)
  6
Continuous
 62
     7
100
AcDbCircle
 10
84.1175778009
 20
107.35
 30
0.0
 40
1.000000000000001
100
AcDbArc
 50
180.0
 51
270.0
  0
LINE
  5
16E
330
118
100
AcDbEntity
  8
$DDT_AUDIT_GENERATED_(C9)
  6
Continuous
 62
     7
100
AcDbLine
 10
83.1175778009
 20
225.85
 30
0.0
 11
83.1175778009
 21
107.35
 31
0.0
  0
LINE
  5
16F
330
118
100
AcDbEntity
  8
$DDT_AUDIT_GENERATED_(C9)
  6
Continuous
 62
     7
100
AcDbLine
 10
111.1175778009
 20
107.35
 30
0.0
 11
111.1175778009
 21
225.85
 31
0.0
  0
ARC
  5
170
330
118
100
AcDbEntity
  8
$DDT_AUDIT_GENERATED_(C9)
  6
Continuous
 62
     7
100
AcDbCircle
 10
83.6175778009
 20
225.85
 30
0.0
 40
0.5000000000000004
100
AcDbArc
 50
90.0
 51
180.0
  0
ARC
  5
171
330
118
100
AcDbEntity
  8
$DDT_AUDIT_GENERATED_(C9)
  6
Continuous
 62
     7
100
AcDbCircle
 10
110.6175778009
 20
225.85
 30
0.0
 40
0.5000000000000004
100
AcDbArc
 50
0.0
 51
90.0
  0
ENDBLK
  5
173
330
118
100
AcDbEntity
  8
0
100
AcDbBlockEnd
  0
ENDSEC
  0
SECTION
  2
ENTITIES
  0
INSERT
  5
5F
330
1F
100
AcDbEntity
  8
Default
100
AcDbBlockReference
  2
SEANNOT_GROUP
 10
0.0
 20
0.0
 30
0.0
  0
INSERT
  5
66
330
1F
100
AcDbEntity
  8
Default
100
AcDbBlockReference
  2
SEANNOT_GROUP1
 10
0.0
 20
0.0
 30
0.0
  0
INSERT
  5
6C
330
1F
100
AcDbEntity
  8
Default
100
AcDbBlockReference
  2
SEANNOT_GROUP2
 10
0.0
 20
0.0
 30
0.0
  0
INSERT
  5
76
330
1F
100
AcDbEntity
  8
Default
100
AcDbBlockReference
  2
SE
 10
0.0
 20
0.0
 30
0.0
  0
INSERT
  5
CE
330
1F
100
AcDbEntity
  8
Default
100
AcDbBlockReference
  2
SE1
 10
0.0
 20
0.0
 30
0.0
  0
INSERT
  5
119
330
1F
100
AcDbEntity
  8
Default
100
AcDbBlockReference
  2
SE2
 10
0.0
 20
0.0
 30
0.0
  0
TEXT
  5
175
330
1F
100
AcDbEntity
  8
Default
  6
Continuous
 62
     7
100
AcDbText
 10
5.9362635081
 20
53.4225120485
 30
0.0
 40
10.0
  1
Grohe AG^J
  7
SEACAD_seiso_ttf
 11
5.9362635081
 21
63.4225120485
 31
0.0
100
AcDbText
 73
     3
  0
TEXT
  5
176
330
1F
100
AcDbEntity
  8
Default
  6
Continuous
 62
     7
100
AcDbText
 10
5.9362635081
 20
37.0588756849
 30
0.0
 40
10.0
  1
 
  7
SEACAD_seiso_ttf
 11
5.9362635081
 21
47.0588756849
 31
0.0
100
AcDbText
 73
     3
  0
TEXT
  5
177
330
1F
100
AcDbEntity
  8
Default
  6
Continuous
 62
     7
100
AcDbText
 10
5.9362635081
 20
20.6952393213
 30
0.0
 40
10.0
  1
ecn: 
  7
SEACAD_seiso_ttf
 11
5.9362635081
 21
30.6952393213
 31
0.0
100
AcDbText
 73
     3
  0
TEXT
  5
178
330
1F
100
AcDbEntity
  8
Default
  6
Continuous
 62
     7
100
AcDbText
 10
5.9362635081
 20
4.3316029576
 30
0.0
 40
10.0
  1
unit: mm
  7
SEACAD_seiso_ttf
 11
5.9362635081
 21
14.3316029576
 31
0.0
100
AcDbText
 73
     3
  0
LINE
  5
179
330
1F
100
AcDbEntity
  8
Default
  6
Continuous
 62
     7
100
AcDbLine
 10
0.0
 20
0.0
 30
0.0
 11
100.0
 21
0.0
 31
0.0
  0
LINE
  5
17A
330
1F
100
AcDbEntity
  8
Default
  6
Continuous
 62
     7
100
AcDbLine
 10
0.0
 20
0.0
 30
0.0
 11
0.0
 21
100.0
 31
0.0
  0
TEXT
  5
17B
330
1F
100
AcDbEntity
  8
Default
  6
Continuous
 62
     7
100
AcDbText
 10
24.3923665681
 20
-18.2375342018
 30
0.0
 40
10.0
  1
100 mm
  7
SEACAD_seiso_ttf
 11
24.3923665681
 21
-8.2375342018
 31
0.0
100
AcDbText
 73
     3
  0
TEXT
  5
17C
330
1F
100
AcDbEntity
  8
Default
  6
Continuous
 62
     7
100
AcDbText
 10
-7.6150308803
 20
24.6231930421
 30
0.0
 40
10.0
  1
100 mm
 50
90.0
  7
SEACAD_seiso_ttf
 11
-17.6150308803
 21
24.6231930421
 31
0.0
100
AcDbText
 73
     3
  0
TEXT
  5
17D
330
1F
100
AcDbEntity
  8
Default
  6
Continuous
 62
     7
100
AcDbText
 10
28.4878128572
 20
20.0907663715
 30
0.0
 40
10.0
  1
217532
  7
SEACAD_seiso_ttf
 11
28.4878128572
 21
30.0907663715
 31
0.0
100
AcDbText
 73
     3
  0
TEXT
  5
17E
330
1F
100
AcDbEntity
  8
Default
  6
Continuous
 62
     7
100
AcDbText
 10
5.9012241913
 20
36.7242780188
 30
0.0
 40
10.0
  1
32454000
  7
SEACAD_seiso_ttf
 11
5.9012241913
 21
46.7242780188
 31
0.0
100
AcDbText
 73
     3
  0
ENDSEC
  0
SECTION
  2
OBJECTS
  0
DICTIONARY
  5
C
330
0
100
AcDbDictionary
281
     1
  3
ACAD_GROUP
350
D
  3
ACAD_LAYOUT
350
1A
  3
ACAD_MLEADERSTYLE
350
182
  3
ACAD_MLINESTYLE
350
17
  3
ACAD_PLOTSETTINGS
350
19
  3
ACAD_PLOTSTYLENAME
350
E
  3
ACAD_SCALELIST
350
3B
  3
ACAD_TABLESTYLE
350
181
  3
ACAD_VISUALSTYLE
350
2A
  3
AcDbVariableDictionary
350
17F
  0
DICTIONARY
  5
D
102
{ACAD_REACTORS
330
C
102
}
330
C
100
AcDbDictionary
281
     1
  0
DICTIONARY
  5
1A
102
{ACAD_REACTORS
330
C
102
}
330
C
100
AcDbDictionary
281
     1
  3
Layout1
350
1E
  3
Model
350
22
  0
DICTIONARY
  5
182
102
{ACAD_REACTORS
330
C
102
}
330
C
100
AcDbDictionary
281
     1
  0
DICTIONARY
  5
17
102
{ACAD_REACTORS
330
C
102
}
330
C
100
AcDbDictionary
281
     1
  3
Standard
350
18
  0
DICTIONARY
  5
19
102
{ACAD_REACTORS
330
C
102
}
330
C
100
AcDbDictionary
281
     1
  0
ACDBDICTIONARYWDFLT
  5
E
102
{ACAD_REACTORS
330
C
102
}
330
C
100
AcDbDictionary
281
     1
  3
Normal
350
F
100
AcDbDictionaryWithDefault
340
F
  0
DICTIONARY
  5
3B
102
{ACAD_REACTORS
330
C
102
}
330
C
100
AcDbDictionary
281
     1
  3
A0
350
3C
  3
A1
350
3D
  3
A2
350
3E
  3
A3
350
3F
  3
A4
350
40
  3
A5
350
41
  3
A6
350
42
  3
A7
350
43
  3
A8
350
44
  3
A9
350
45
  3
B0
350
46
  3
B1
350
47
  3
B2
350
48
  3
B3
350
49
  3
B4
350
4A
  3
B5
350
4B
  3
B6
350
4C
  3
B7
350
4D
  3
B8
350
4E
  3
B9
350
4F
  3
C0
350
50
  3
C1
350
51
  3
C2
350
52
  3
C3
350
53
  3
C4
350
54
  3
C5
350
55
  3
C6
350
56
  3
C7
350
57
  3
C8
350
58
  3
C9
350
59
  3
D0
350
5A
  3
D1
350
5B
  3
D2
350
5C
  0
DICTIONARY
  5
181
102
{ACAD_REACTORS
330
C
102
}
330
C
100
AcDbDictionary
281
     1
  0
DICTIONARY
  5
2A
102
{ACAD_REACTORS
330
C
102
}
330
C
100
AcDbDictionary
281
     1
  3
2dWireframe
350
2F
  3
3D Hidden
350
31
  3
3dWireframe
350
30
  3
Basic
350
32
  3
Brighten
350
36
  3
ColorChange
350
3A
  3
Conceptual
350
34
  3
Dim
350
35
  3
Facepattern
350
39
  3
Flat
350
2B
  3
FlatWithEdges
350
2C
  3
Gouraud
350
2D
  3
GouraudWithEdges
350
2E
  3
Linepattern
350
38
  3
Realistic
350
33
  3
Thicken
350
37
  0
DICTIONARY
  5
17F
102
{ACAD_REACTORS
330
C
102
}
330
C
100
AcDbDictionary
281
     1
  3
CANNOSCALE
350
180
  3
PSOLHEIGHT
350
184
  3
PSOLWIDTH
350
183
  0
LAYOUT
  5
1E
102
{ACAD_REACTORS
330
1A
102
}
330
1A
100
AcDbPlotSettings
  1

  2
none_device
  4

  6

 40
0.0
 41
0.0
 42
0.0
 43
0.0
 44
0.0
 45
0.0
 46
0.0
 47
0.0
 48
0.0
 49
0.0
140
0.0
141
0.0
142
1.0
143
1.0
 70
   688
 72
     0
 73
     0
 74
     5
  7

 75
    16
147
1.0
148
0.0
149
0.0
100
AcDbLayout
  1
Layout1
 70
     1
 71
     1
 10
0.0
 20
0.0
 11
1682.0
 21
2378.0
 12
0.0
 22
0.0
 32
0.0
 14
0.0
 24
0.0
 34
0.0
 15
1682.0
 25
2378.0
 35
0.0
146
0.0
 13
0.0
 23
0.0
 33
0.0
 16
1.0
 26
0.0
 36
0.0
 17
0.0
 27
1.0
 37
0.0
 76
     0
330
1B
  0
LAYOUT
  5
22
102
{ACAD_REACTORS
330
1A
102
}
330
1A
100
AcDbPlotSettings
  1

  2
none_device
  4

  6

 40
0.0
 41
0.0
 42
0.0
 43
0.0
 44
0.0
 45
0.0
 46
0.0
 47
0.0
 48
0.0
 49
0.0
140
0.0
141
0.0
142
1.0
143
1.0
 70
  1712
 72
     0
 73
     0
 74
     0
  7

 75
     0
147
1.0
148
0.0
149
0.0
100
AcDbLayout
  1
Model
 70
     1
 71
     0
 10
0.0
 20
0.0
 11
1682.0
 21
2378.0
 12
0.0
 22
0.0
 32
0.0
 14
0.0
 24
0.0
 34
0.0
 15
1682.0
 25
2378.0
 35
0.0
146
0.0
 13
0.0
 23
0.0
 33
0.0
 16
1.0
 26
0.0
 36
0.0
 17
0.0
 27
1.0
 37
0.0
 76
     0
330
1F
331
29
  0
MLINESTYLE
  5
18
102
{ACAD_REACTORS
330
17
102
}
330
17
100
AcDbMlineStyle
  2
Standard
 70
     0
  3

 62
   256
 51
90.0
 52
90.0
 71
     2
 49
0.5
 62
   256
  6
BYLAYER
 49
-0.5
 62
   256
  6
BYLAYER
  0
ACDBPLACEHOLDER
  5
F
102
{ACAD_REACTORS
330
E
102
}
330
E
  0
SCALE
  5
3C
102
{ACAD_REACTORS
330
3B
102
}
330
3B
100
AcDbScale
 70
     0
300
1:1
140
1.0
141
1.0
290
     1
  0
SCALE
  5
3D
102
{ACAD_REACTORS
330
3B
102
}
330
3B
100
AcDbScale
 70
     0
300
1:2
140
1.0
141
2.0
290
     0
  0
SCALE
  5
3E
102
{ACAD_REACTORS
330
3B
102
}
330
3B
100
AcDbScale
 70
     0
300
1:4
140
1.0
141
4.0
290
     0
  0
SCALE
  5
3F
102
{ACAD_REACTORS
330
3B
102
}
330
3B
100
AcDbScale
 70
     0
300
1:5
140
1.0
141
5.0
290
     0
  0
SCALE
  5
40
102
{ACAD_REACTORS
330
3B
102
}
330
3B
100
AcDbScale
 70
     0
300
1:8
140
1.0
141
8.0
290
     0
  0
SCALE
  5
41
102
{ACAD_REACTORS
330
3B
102
}
330
3B
100
AcDbScale
 70
     0
300
1:10
140
1.0
141
10.0
290
     0
  0
SCALE
  5
42
102
{ACAD_REACTORS
330
3B
102
}
330
3B
100
AcDbScale
 70
     0
300
1:16
140
1.0
141
16.0
290
     0
  0
SCALE
  5
43
102
{ACAD_REACTORS
330
3B
102
}
330
3B
100
AcDbScale
 70
     0
300
1:20
140
1.0
141
20.0
290
     0
  0
SCALE
  5
44
102
{ACAD_REACTORS
330
3B
102
}
330
3B
100
AcDbScale
 70
     0
300
1:30
140
1.0
141
30.0
290
     0
  0
SCALE
  5
45
102
{ACAD_REACTORS
330
3B
102
}
330
3B
100
AcDbScale
 70
     0
300
1:40
140
1.0
141
40.0
290
     0
  0
SCALE
  5
46
102
{ACAD_REACTORS
330
3B
102
}
330
3B
100
AcDbScale
 70
     0
300
1:50
140
1.0
141
50.0
290
     0
  0
SCALE
  5
47
102
{ACAD_REACTORS
330
3B
102
}
330
3B
100
AcDbScale
 70
     0
300
1:100
140
1.0
141
100.0
290
     0
  0
SCALE
  5
48
102
{ACAD_REACTORS
330
3B
102
}
330
3B
100
AcDbScale
 70
     0
300
2:1
140
2.0
141
1.0
290
     0
  0
SCALE
  5
49
102
{ACAD_REACTORS
330
3B
102
}
330
3B
100
AcDbScale
 70
     0
300
4:1
140
4.0
141
1.0
290
     0
  0
SCALE
  5
4A
102
{ACAD_REACTORS
330
3B
102
}
330
3B
100
AcDbScale
 70
     0
300
8:1
140
8.0
141
1.0
290
     0
  0
SCALE
  5
4B
102
{ACAD_REACTORS
330
3B
102
}
330
3B
100
AcDbScale
 70
     0
300
10:1
140
10.0
141
1.0
290
     0
  0
SCALE
  5
4C
102
{ACAD_REACTORS
330
3B
102
}
330
3B
100
AcDbScale
 70
     0
300
100:1
140
100.0
141
1.0
290
     0
  0
SCALE
  5
4D
102
{ACAD_REACTORS
330
3B
102
}
330
3B
100
AcDbScale
 70
     0
300
1/128" = 1'-0"
140
0.0078125
141
12.0
290
     0
  0
SCALE
  5
4E
102
{ACAD_REACTORS
330
3B
102
}
330
3B
100
AcDbScale
 70
     0
300
1/64" = 1'-0"
140
0.015625
141
12.0
290
     0
  0
SCALE
  5
4F
102
{ACAD_REACTORS
330
3B
102
}
330
3B
100
AcDbScale
 70
     0
300
1/32" = 1'-0"
140
0.03125
141
12.0
290
     0
  0
SCALE
  5
50
102
{ACAD_REACTORS
330
3B
102
}
330
3B
100
AcDbScale
 70
     0
300
1/16" = 1'-0"
140
0.0625
141
12.0
290
     0
  0
SCALE
  5
51
102
{ACAD_REACTORS
330
3B
102
}
330
3B
100
AcDbScale
 70
     0
300
3/32" = 1'-0"
140
0.09375
141
12.0
290
     0
  0
SCALE
  5
52
102
{ACAD_REACTORS
330
3B
102
}
330
3B
100
AcDbScale
 70
     0
300
1/8" = 1'-0"
140
0.125
141
12.0
290
     0
  0
SCALE
  5
53
102
{ACAD_REACTORS
330
3B
102
}
330
3B
100
AcDbScale
 70
     0
300
3/16" = 1'-0"
140
0.1875
141
12.0
290
     0
  0
SCALE
  5
54
102
{ACAD_REACTORS
330
3B
102
}
330
3B
100
AcDbScale
 70
     0
300
1/4" = 1'-0"
140
0.25
141
12.0
290
     0
  0
SCALE
  5
55
102
{ACAD_REACTORS
330
3B
102
}
330
3B
100
AcDbScale
 70
     0
300
3/8" = 1'-0"
140
0.375
141
12.0
290
     0
  0
SCALE
  5
56
102
{ACAD_REACTORS
330
3B
102
}
330
3B
100
AcDbScale
 70
     0
300
1/2" = 1'-0"
140
0.5
141
12.0
290
     0
  0
SCALE
  5
57
102
{ACAD_REACTORS
330
3B
102
}
330
3B
100
AcDbScale
 70
     0
300
3/4" = 1'-0"
140
0.75
141
12.0
290
     0
  0
SCALE
  5
58
102
{ACAD_REACTORS
330
3B
102
}
330
3B
100
AcDbScale
 70
     0
300
1" = 1'-0"
140
1.0
141
12.0
290
     0
  0
SCALE
  5
59
102
{ACAD_REACTORS
330
3B
102
}
330
3B
100
AcDbScale
 70
     0
300
1-1/2" = 1'-0"
140
1.5
141
12.0
290
     0
  0
SCALE
  5
5A
102
{ACAD_REACTORS
330
3B
102
}
330
3B
100
AcDbScale
 70
     0
300
3" = 1'-0"
140
3.0
141
12.0
290
     0
  0
SCALE
  5
5B
102
{ACAD_REACTORS
330
3B
102
}
330
3B
100
AcDbScale
 70
     0
300
6" = 1'-0"
140
6.0
141
12.0
290
     0
  0
SCALE
  5
5C
102
{ACAD_REACTORS
330
3B
102
}
330
3B
100
AcDbScale
 70
     0
300
1'-0" = 1'-0"
140
12.0
141
12.0
290
     0
  0
VISUALSTYLE
  5
2F
102
{ACAD_REACTORS
330
2A
102
}
330
2A
100
AcDbVisualStyle
  2
2dWireframe
 70
     4
 71
     0
 72
     2
 73
     0
 90
        0
 40
-0.6
 41
-30.0
 62
     5
 63
     7
 74
     1
 91
        4
 64
     7
 65
   257
 75
     1
175
     1
 42
1.0
 92
        0
 66
   257
 43
1.0
 76
     1
 77
     6
 78
     2
 67
     7
 79
     5
170
     0
171
     0
290
     0
174
     0
 93
        1
 44
0.0
173
     0
291
     0
 45
0.0
1001
ACAD
1000
AcDbSavedByObjectVersion
1070
     0
  0
VISUALSTYLE
  5
31
102
{ACAD_REACTORS
330
2A
102
}
330
2A
100
AcDbVisualStyle
  2
3D Hidden
 70
     6
 71
     1
 72
     2
 73
     2
 90
        0
 40
-0.6
 41
-30.0
 62
     5
 63
     7
 74
     2
 91
        2
 64
     7
 65
   257
 75
     2
175
     1
 42
40.0
 92
        0
 66
   257
 43
1.0
 76
     1
 77
     6
 78
     2
 67
     7
 79
     3
170
     0
171
     0
290
     0
174
     0
 93
        1
 44
0.0
173
     0
291
     0
 45
0.0
1001
ACAD
1000
AcDbSavedByObjectVersion
1070
     0
  0
VISUALSTYLE
  5
30
102
{ACAD_REACTORS
330
2A
102
}
330
2A
100
AcDbVisualStyle
  2
3dWireframe
 70
     5
 71
     0
 72
     2
 73
     0
 90
        0
 40
-0.6
 41
-30.0
 62
     5
 63
     7
 74
     1
 91
        4
 64
     7
 65
   257
 75
     1
175
     1
 42
1.0
 92
        0
 66
   257
 43
1.0
 76
     1
 77
     6
 78
     2
 67
     7
 79
     5
170
     0
171
     0
290
     0
174
     0
 93
        1
 44
0.0
173
     0
291
     0
 45
0.0
1001
ACAD
1000
AcDbSavedByObjectVersion
1070
     0
  0
VISUALSTYLE
  5
32
102
{ACAD_REACTORS
330
2A
102
}
330
2A
100
AcDbVisualStyle
  2
Basic
 70
     7
 71
     1
 72
     0
 73
     1
 90
        0
 40
-0.6
 41
-30.0
 62
     5
 63
     7
 74
     0
 91
        4
 64
     7
 65
   257
 75
     1
175
     1
 42
1.0
 92
        8
 66
     7
 43
1.0
 76
     1
 77
     6
 78
     2
 67
     7
 79
     5
170
     0
171
     0
290
     0
174
     0
 93
        1
 44
0.0
173
     0
291
     1
 45
0.0
1001
ACAD
1000
AcDbSavedByObjectVersion
1070
     0
  0
VISUALSTYLE
  5
36
102
{ACAD_REACTORS
330
2A
102
}
330
2A
100
AcDbVisualStyle
  2
Brighten
 70
    12
 71
     2
 72
     2
 73
     0
 90
        0
 40
-0.6
 41
-30.0
 62
     5
 63
     7
 74
     1
 91
        4
 64
     7
 65
   257
 75
     1
175
     1
 42
1.0
 92
        8
 66
     7
 43
1.0
 76
     1
 77
     6
 78
     2
 67
     7
 79
     5
170
     0
171
     0
290
     0
174
     0
 93
        1
 44
50.0
173
     0
291
     1
 45
0.0
1001
ACAD
1000
AcDbSavedByObjectVersion
1070
     0
  0
VISUALSTYLE
  5
3A
102
{ACAD_REACTORS
330
2A
102
}
330
2A
100
AcDbVisualStyle
  2
ColorChange
 70
    16
 71
     2
 72
     2
 73
     3
 90
        0
 40
-0.6
 41
-30.0
 62
     5
 63
     8
 74
     1
 91
        4
 64
     7
 65
   257
 75
     1
175
     1
 42
1.0
 92
        8
 66
     8
 43
1.0
 76
     1
 77
     6
 78
     2
 67
     7
 79
     5
170
     0
171
     0
290
     0
174
     0
 93
        1
 44
0.0
173
     0
291
     1
 45
0.0
1001
ACAD
1000
AcDbSavedByObjectVersion
1070
     0
  0
VISUALSTYLE
  5
34
102
{ACAD_REACTORS
330
2A
102
}
330
2A
100
AcDbVisualStyle
  2
Conceptual
 70
     9
 71
     3
 72
     2
 73
     0
 90
        0
 40
-0.6
 41
-30.0
 62
     5
 63
     7
 74
     2
 91
        2
 64
     7
 65
   257
 75
     1
175
     1
 42
40.0
 92
        8
 66
     7
 43
1.0
 76
     1
 77
     6
 78
     2
 67
     7
 79
     3
170
     0
171
     0
290
     0
174
     0
 93
        1
 44
0.0
173
     0
291
     0
 45
0.0
1001
ACAD
1000
AcDbSavedByObjectVersion
1070
     0
  0
VISUALSTYLE
  5
35
102
{ACAD_REACTORS
330
2A
102
}
330
2A
100
AcDbVisualStyle
  2
Dim
 70
    11
 71
     2
 72
     2
 73
     0
 90
        0
 40
-0.6
 41
-30.0
 62
     5
 63
     7
 74
     1
 91
        4
 64
     7
 65
   257
 75
     1
175
     1
 42
1.0
 92
        8
 66
     7
 43
1.0
 76
     1
 77
     6
 78
     2
 67
     7
 79
     5
170
     0
171
     0
290
     0
174
     0
 93
        1
 44
-50.0
173
     0
291
     1
 45
0.0
1001
ACAD
1000
AcDbSavedByObjectVersion
1070
     0
  0
VISUALSTYLE
  5
39
102
{ACAD_REACTORS
330
2A
102
}
330
2A
100
AcDbVisualStyle
  2
Facepattern
 70
    15
 71
     2
 72
     2
 73
     0
 90
        0
 40
-0.6
 41
-30.0
 62
     5
 63
     7
 74
     1
 91
        4
 64
     7
 65
   257
 75
     1
175
     1
 42
1.0
 92
        8
 66
     7
 43
1.0
 76
     1
 77
     6
 78
     2
 67
     7
 79
     5
170
     0
171
     0
290
     0
174
     0
 93
        1
 44
0.0
173
     0
291
     1
 45
0.0
1001
ACAD
1000
AcDbSavedByObjectVersion
1070
     0
  0
VISUALSTYLE
  5
2B
102
{ACAD_REACTORS
330
2A
102
}
330
2A
100
AcDbVisualStyle
  2
Flat
 70
     0
 71
     2
 72
     1
 73
     1
 90
        2
 40
-0.6
 41
30.0
 62
     5
 63
     7
 74
     0
 91
        4
 64
     7
 65
   257
 75
     1
175
     1
 42
1.0
 92
        8
 66
     7
 43
1.0
 76
     1
 77
     6
 78
     2
 67
     7
 79
     5
170
     0
171
     0
290
     0
174
     0
 93
       13
 44
0.0
173
     0
291
     1
 45
0.0
1001
ACAD
1000
AcDbSavedByObjectVersion
1070
     0
  0
VISUALSTYLE
  5
2C
102
{ACAD_REACTORS
330
2A
102
}
330
2A
100
AcDbVisualStyle
  2
FlatWithEdges
 70
     1
 71
     2
 72
     1
 73
     1
 90
        2
 40
-0.6
 41
30.0
 62
     5
 63
     7
 74
     1
 91
        4
 64
     7
 65
   257
 75
     1
175
     1
 42
1.0
 92
        0
 66
   257
 43
1.0
 76
     1
 77
     6
 78
     2
 67
     7
 79
     5
170
     0
171
     0
290
     0
174
     0
 93
       13
 44
0.0
173
     0
291
     1
 45
0.0
1001
ACAD
1000
AcDbSavedByObjectVersion
1070
     0
  0
VISUALSTYLE
  5
2D
102
{ACAD_REACTORS
330
2A
102
}
330
2A
100
AcDbVisualStyle
  2
Gouraud
 70
     2
 71
     2
 72
     2
 73
     1
 90
        2
 40
-0.6
 41
30.0
 62
     5
 63
     7
 74
     0
 91
        4
 64
     7
 65
   257
 75
     1
175
     1
 42
1.0
 92
        0
 66
     7
 43
1.0
 76
     1
 77
     6
 78
     2
 67
     7
 79
     5
170
     0
171
     0
290
     0
174
     0
 93
       13
 44
0.0
173
     0
291
     1
 45
0.0
1001
ACAD
1000
AcDbSavedByObjectVersion
1070
     0
  0
VISUALSTYLE
  5
2E
102
{ACAD_REACTORS
330
2A
102
}
330
2A
100
AcDbVisualStyle
  2
GouraudWithEdges
 70
     3
 71
     2
 72
     2
 73
     1
 90
        2
 40
-0.6
 41
30.0
 62
     5
 63
     7
 74
     1
 91
        4
 64
     7
 65
   257
 75
     1
175
     1
 42
1.0
 92
        0
 66
   257
 43
1.0
 76
     1
 77
     6
 78
     2
 67
     7
 79
     5
170
     0
171
     0
290
     0
174
     0
 93
       13
 44
0.0
173
     0
291
     1
 45
0.0
1001
ACAD
1000
AcDbSavedByObjectVersion
1070
     0
  0
VISUALSTYLE
  5
38
102
{ACAD_REACTORS
330
2A
102
}
330
2A
100
AcDbVisualStyle
  2
Linepattern
 70
    14
 71
     2
 72
     2
 73
     0
 90
        0
 40
-0.6
 41
-30.0
 62
     5
 63
     7
 74
     1
 91
        4
 64
     7
 65
   257
 75
     7
175
     7
 42
1.0
 92
        8
 66
     7
 43
1.0
 76
     1
 77
     6
 78
     2
 67
     7
 79
     5
170
     0
171
     0
290
     0
174
     0
 93
        1
 44
0.0
173
     0
291
     1
 45
0.0
1001
ACAD
1000
AcDbSavedByObjectVersion
1070
     0
  0
VISUALSTYLE
  5
33
102
{ACAD_REACTORS
330
2A
102
}
330
2A
100
AcDbVisualStyle
  2
Realistic
 70
     8
 71
     2
 72
     2
 73
     0
 90
        0
 40
-0.6
 41
-30.0
 62
     5
 63
     7
 74
     1
 91
        0
 64
     7
 65
   257
 75
     1
175
     1
 42
1.0
 92
        8
 66
     8
 43
1.0
 76
     1
 77
     6
 78
     2
 67
     7
 79
     5
170
     0
171
     0
290
     0
174
     0
 93
       13
 44
0.0
173
     0
291
     0
 45
0.0
1001
ACAD
1000
AcDbSavedByObjectVersion
1070
     0
  0
VISUALSTYLE
  5
37
102
{ACAD_REACTORS
330
2A
102
}
330
2A
100
AcDbVisualStyle
  2
Thicken
 70
    13
 71
     2
 72
     2
 73
     0
 90
        0
 40
-0.6
 41
-30.0
 62
     5
 63
     7
 74
     1
 91
        4
 64
     7
 65
   257
 75
     1
175
     1
 42
1.0
 92
       12
 66
     7
 43
1.0
 76
     1
 77
     6
 78
     2
 67
     7
 79
     5
170
     0
171
     0
290
     0
174
     0
 93
        1
 44
0.0
173
     0
291
     1
 45
0.0
1001
ACAD
1000
AcDbSavedByObjectVersion
1070
     0
  0
DICTIONARYVAR
  5
180
102
{ACAD_REACTORS
330
17F
102
}
330
17F
100
DictionaryVariables
280
     0
  1
1:1
  0
DICTIONARYVAR
  5
184
102
{ACAD_REACTORS
330
17F
102
}
330
17F
100
DictionaryVariables
280
     0
  1
80.000000
  0
DICTIONARYVAR
  5
183
102
{ACAD_REACTORS
330
17F
102
}
330
17F
100
DictionaryVariables
280
     0
  1
5.000000
  0
ENDSEC
  0
EOF
