  0
SECTION
  2
HEADER
  9
$ACADVER
  1
AC1015
  9
$ACADMAINTVER
 70
     6
  9
$DWGCODEPAGE
  3
ANSI_1252
  9
$INSBASE
 10
0.0
 20
0.0
 30
0.0
  9
$EXTMIN
 10
0.0
 20
0.0
 30
0.0
  9
$EXTMAX
 10
1682.0
 20
2378.0
 30
0.0
  9
$LIMMIN
 10
0.0
 20
0.0
  9
$LIMMAX
 10
1682.0
 20
2378.0
  9
$ORTHOMODE
 70
     0
  9
$REGENMODE
 70
     1
  9
$FILLMODE
 70
     1
  9
$QTEXTMODE
 70
     0
  9
$MIRRTEXT
 70
     1
  9
$LTSCALE
 40
1.0
  9
$ATTMODE
 70
     1
  9
$TEXTSIZE
 40
2.5
  9
$TRACEWID
 40
1.0
  9
$TEXTSTYLE
  7
Standard
  9
$CLAYER
  8
0
  9
$CELTYPE
  6
ByLayer
  9
$CECOLOR
 62
   256
  9
$CELTSCALE
 40
1.0
  9
$DISPSILH
 70
     0
  9
$DIMSCALE
 40
1.0
  9
$DIMASZ
 40
2.5
  9
$DIMEXO
 40
0.625
  9
$DIMDLI
 40
3.75
  9
$DIMRND
 40
0.0
  9
$DIMDLE
 40
0.0
  9
$DIMEXE
 40
1.25
  9
$DIMTP
 40
0.0
  9
$DIMTM
 40
0.0
  9
$DIMTXT
 40
2.5
  9
$DIMCEN
 40
2.5
  9
$DIMTSZ
 40
0.0
  9
$DIMTOL
 70
     0
  9
$DIMLIM
 70
     0
  9
$DIMTIH
 70
     0
  9
$DIMTOH
 70
     0
  9
$DIMSE1
 70
     0
  9
$DIMSE2
 70
     0
  9
$DIMTAD
 70
     1
  9
$DIMZIN
 70
     8
  9
$DIMBLK
  1

  9
$DIMASO
 70
     1
  9
$DIMSHO
 70
     1
  9
$DIMPOST
  1

  9
$DIMAPOST
  1

  9
$DIMALT
 70
     0
  9
$DIMALTD
 70
     3
  9
$DIMALTF
 40
0.0393700787
  9
$DIMLFAC
 40
1.0
  9
$DIMTOFL
 70
     1
  9
$DIMTVP
 40
0.0
  9
$DIMTIX
 70
     0
  9
$DIMSOXD
 70
     0
  9
$DIMSAH
 70
     0
  9
$DIMBLK1
  1

  9
$DIMBLK2
  1

  9
$DIMSTYLE
  2
ISO-25
  9
$DIMCLRD
 70
     0
  9
$DIMCLRE
 70
     0
  9
$DIMCLRT
 70
     0
  9
$DIMTFAC
 40
1.0
  9
$DIMGAP
 40
0.625
  9
$DIMJUST
 70
     0
  9
$DIMSD1
 70
     0
  9
$DIMSD2
 70
     0
  9
$DIMTOLJ
 70
     0
  9
$DIMTZIN
 70
     8
  9
$DIMALTZ
 70
     0
  9
$DIMALTTZ
 70
     0
  9
$DIMUPT
 70
     0
  9
$DIMDEC
 70
     2
  9
$DIMTDEC
 70
     2
  9
$DIMALTU
 70
     2
  9
$DIMALTTD
 70
     3
  9
$DIMTXSTY
  7
Standard
  9
$DIMAUNIT
 70
     0
  9
$DIMADEC
 70
     0
  9
$DIMALTRND
 40
0.0
  9
$DIMAZIN
 70
     0
  9
$DIMDSEP
 70
    44
  9
$DIMATFIT
 70
     3
  9
$DIMFRAC
 70
     0
  9
$DIMLDRBLK
  1

  9
$DIMLUNIT
 70
     2
  9
$DIMLWD
 70
    -2
  9
$DIMLWE
 70
    -2
  9
$DIMTMOVE
 70
     0
  9
$LUNITS
 70
     2
  9
$LUPREC
 70
     4
  9
$SKETCHINC
 40
1.0
  9
$FILLETRAD
 40
10.0
  9
$AUNITS
 70
     0
  9
$AUPREC
 70
     0
  9
$MENU
  1
.
  9
$ELEVATION
 40
0.0
  9
$PELEVATION
 40
0.0
  9
$THICKNESS
 40
0.0
  9
$LIMCHECK
 70
     0
  9
$CHAMFERA
 40
10.0
  9
$CHAMFERB
 40
10.0
  9
$CHAMFERC
 40
20.0
  9
$CHAMFERD
 40
0.0
  9
$SKPOLY
 70
     0
  9
$TDCREATE
 40
2455490.491472257
  9
$TDUCREATE
 40
2455490.408138924
  9
$TDUPDATE
 40
2455490.491472268
  9
$TDUUPDATE
 40
2455490.408138935
  9
$TDINDWG
 40
0.0000000116
  9
$TDUSRTIMER
 40
0.0000000116
  9
$USRTIMER
 70
     1
  9
$ANGBASE
 50
0.0
  9
$ANGDIR
 70
     0
  9
$PDMODE
 70
     0
  9
$PDSIZE
 40
0.0
  9
$PLINEWID
 40
0.0
  9
$SPLFRAME
 70
     0
  9
$SPLINETYPE
 70
     6
  9
$SPLINESEGS
 70
     8
  9
$HANDSEED
  5
1C2
  9
$SURFTAB1
 70
     6
  9
$SURFTAB2
 70
     6
  9
$SURFTYPE
 70
     6
  9
$SURFU
 70
     6
  9
$SURFV
 70
     6
  9
$UCSBASE
  2

  9
$UCSNAME
  2

  9
$UCSORG
 10
0.0
 20
0.0
 30
0.0
  9
$UCSXDIR
 10
1.0
 20
0.0
 30
0.0
  9
$UCSYDIR
 10
0.0
 20
1.0
 30
0.0
  9
$UCSORTHOREF
  2

  9
$UCSORTHOVIEW
 70
     0
  9
$UCSORGTOP
 10
0.0
 20
0.0
 30
0.0
  9
$UCSORGBOTTOM
 10
0.0
 20
0.0
 30
0.0
  9
$UCSORGLEFT
 10
0.0
 20
0.0
 30
0.0
  9
$UCSORGRIGHT
 10
0.0
 20
0.0
 30
0.0
  9
$UCSORGFRONT
 10
0.0
 20
0.0
 30
0.0
  9
$UCSORGBACK
 10
0.0
 20
0.0
 30
0.0
  9
$PUCSBASE
  2

  9
$PUCSNAME
  2

  9
$PUCSORG
 10
0.0
 20
0.0
 30
0.0
  9
$PUCSXDIR
 10
1.0
 20
0.0
 30
0.0
  9
$PUCSYDIR
 10
0.0
 20
1.0
 30
0.0
  9
$PUCSORTHOREF
  2

  9
$PUCSORTHOVIEW
 70
     0
  9
$PUCSORGTOP
 10
0.0
 20
0.0
 30
0.0
  9
$PUCSORGBOTTOM
 10
0.0
 20
0.0
 30
0.0
  9
$PUCSORGLEFT
 10
0.0
 20
0.0
 30
0.0
  9
$PUCSORGRIGHT
 10
0.0
 20
0.0
 30
0.0
  9
$PUCSORGFRONT
 10
0.0
 20
0.0
 30
0.0
  9
$PUCSORGBACK
 10
0.0
 20
0.0
 30
0.0
  9
$USERI1
 70
     0
  9
$USERI2
 70
     0
  9
$USERI3
 70
     0
  9
$USERI4
 70
     0
  9
$USERI5
 70
     0
  9
$USERR1
 40
0.0
  9
$USERR2
 40
0.0
  9
$USERR3
 40
0.0
  9
$USERR4
 40
0.0
  9
$USERR5
 40
0.0
  9
$WORLDVIEW
 70
     1
  9
$SHADEDGE
 70
     3
  9
$SHADEDIF
 70
    70
  9
$TILEMODE
 70
     1
  9
$MAXACTVP
 70
    64
  9
$PINSBASE
 10
0.0
 20
0.0
 30
0.0
  9
$PLIMCHECK
 70
     0
  9
$PEXTMIN
 10
0.0
 20
0.0
 30
0.0
  9
$PEXTMAX
 10
1682.0
 20
2378.0
 30
0.0
  9
$PLIMMIN
 10
0.0
 20
0.0
  9
$PLIMMAX
 10
1682.0
 20
2378.0
  9
$UNITMODE
 70
     0
  9
$VISRETAIN
 70
     1
  9
$PLINEGEN
 70
     0
  9
$PSLTSCALE
 70
     1
  9
$TREEDEPTH
 70
  3020
  9
$CMLSTYLE
  2
Standard
  9
$CMLJUST
 70
     0
  9
$CMLSCALE
 40
20.0
  9
$PROXYGRAPHICS
 70
     1
  9
$MEASUREMENT
 70
     1
  9
$CELWEIGHT
370
    -1
  9
$ENDCAPS
280
     0
  9
$JOINSTYLE
280
     0
  9
$LWDISPLAY
290
     0
  9
$INSUNITS
 70
     4
  9
$HYPERLINKBASE
  1

  9
$STYLESHEET
  1

  9
$XEDIT
290
     1
  9
$CEPSNTYPE
380
     0
  9
$PSTYLEMODE
290
     1
  9
$FINGERPRINTGUID
  2
{5BEB5857-242C-478E-9A5E-EAE2768AEEAD}
  9
$VERSIONGUID
  2
{FAEB1C32-E019-11D5-929B-00C0DF256EC4}
  9
$EXTNAMES
290
     1
  9
$PSVPSCALE
 40
0.0
  9
$OLESTARTUP
290
     0
  0
ENDSEC
  0
SECTION
  2
CLASSES
  0
CLASS
  1
ACDBDICTIONARYWDFLT
  2
AcDbDictionaryWithDefault
  3
ObjectDBX Classes
 90
        0
280
     0
281
     0
  0
CLASS
  1
VISUALSTYLE
  2
AcDbVisualStyle
  3
ObjectDBX Classes
 90
     4095
280
     0
281
     0
  0
CLASS
  1
SCALE
  2
AcDbScale
  3
ObjectDBX Classes
 90
     1153
280
     0
281
     0
  0
CLASS
  1
DICTIONARYVAR
  2
AcDbDictionaryVar
  3
ObjectDBX Classes
 90
        0
280
     0
281
     0
  0
CLASS
  1
ACDBPLACEHOLDER
  2
AcDbPlaceHolder
  3
ObjectDBX Classes
 90
        0
280
     0
281
     0
  0
CLASS
  1
LAYOUT
  2
AcDbLayout
  3
ObjectDBX Classes
 90
        0
280
     0
281
     0
  0
ENDSEC
  0
SECTION
  2
TABLES
  0
TABLE
  2
VPORT
  5
8
330
0
100
AcDbSymbolTable
 70
     1
  0
VPORT
  5
29
330
8
100
AcDbSymbolTableRecord
100
AcDbViewportTableRecord
  2
*Active
 70
     0
 10
0.0
 20
0.0
 11
1.0
 21
1.0
 12
344.1869158879
 22
148.5
 13
0.0
 23
0.0
 14
10.0
 24
10.0
 15
10.0
 25
10.0
 16
0.0
 26
0.0
 36
1.0
 17
0.0
 27
0.0
 37
0.0
 40
297.0
 41
1.9729729729
 42
50.0
 43
0.0
 44
0.0
 50
0.0
 51
0.0
 71
     0
 72
   100
 73
     1
 74
     3
 75
     0
 76
     0
 77
     0
 78
     0
281
     0
 65
     1
110
0.0
120
0.0
130
0.0
111
1.0
121
0.0
131
0.0
112
0.0
122
1.0
132
0.0
 79
     0
146
0.0
  0
ENDTAB
  0
TABLE
  2
LTYPE
  5
5
330
0
100
AcDbSymbolTable
 70
     2
  0
LTYPE
  5
14
330
5
100
AcDbSymbolTableRecord
100
AcDbLinetypeTableRecord
  2
ByBlock
 70
     0
  3

 72
    65
 73
     0
 40
0.0
  0
LTYPE
  5
15
330
5
100
AcDbSymbolTableRecord
100
AcDbLinetypeTableRecord
  2
ByLayer
 70
     0
  3

 72
    65
 73
     0
 40
0.0
  0
LTYPE
  5
16
330
5
100
AcDbSymbolTableRecord
100
AcDbLinetypeTableRecord
  2
Continuous
 70
     0
  3
Solid line
 72
    65
 73
     0
 40
0.0
  0
LTYPE
  5
60
330
5
100
AcDbSymbolTableRecord
100
AcDbLinetypeTableRecord
  2
CENTER2
 70
     0
  3
Center (.5x) ___ _ ___ _ ___ _ ___ _ ___ _ ___
 72
    65
 73
     4
 40
28.575
 49
19.05
 74
     4
 75
     0
340
0
 46
0.0
 50
0.0
 44
0.0
 45
0.0
 49
-3.175
 74
     4
 75
     0
340
0
 46
0.0
 50
0.0
 44
0.0
 45
0.0
 49
3.175
 74
     4
 75
     0
340
0
 46
0.0
 50
0.0
 44
0.0
 45
0.0
 49
-3.175
 74
     4
 75
     0
340
0
 46
0.0
 50
0.0
 44
0.0
 45
0.0
  0
ENDTAB
  0
TABLE
  2
LAYER
  5
2
330
0
100
AcDbSymbolTable
 70
     6
  0
LAYER
  5
10
330
2
100
AcDbSymbolTableRecord
100
AcDbLayerTableRecord
  2
0
 70
     0
 62
     7
  6
Continuous
370
    -3
390
F
  0
LAYER
  5
5D
330
2
100
AcDbSymbolTableRecord
100
AcDbLayerTableRecord
  2
Default
 70
     0
 62
     7
  6
Continuous
370
    -3
390
F
  0
LAYER
  5
77
330
2
100
AcDbSymbolTableRecord
100
AcDbLayerTableRecord
  2
02284038_ROSETTE
 70
     0
 62
     7
  6
Continuous
370
    -3
390
F
  0
LAYER
  5
7F
330
2
100
AcDbSymbolTableRecord
100
AcDbLayerTableRecord
  2
400564040_HEBEL_
 70
     0
 62
     7
  6
Continuous
370
    -3
390
F
  0
LAYER
  5
E4
330
2
100
AcDbSymbolTableRecord
100
AcDbLayerTableRecord
  2
02693038_KAPPE__
 70
     0
 62
     7
  6
Continuous
370
    -3
390
F
  0
LAYER
  5
139
330
2
100
AcDbSymbolTableRecord
100
AcDbLayerTableRecord
  2
DV2_Default
 70
     0
 62
     7
  6
Continuous
370
    -3
390
F
  0
ENDTAB
  0
TABLE
  2
STYLE
  5
3
330
0
100
AcDbSymbolTable
 70
     2
  0
STYLE
  5
11
330
3
100
AcDbSymbolTableRecord
100
AcDbTextStyleTableRecord
  2
Standard
 70
     0
 40
0.0
 41
1.0
 50
0.0
 71
     0
 42
2.5
  3
txt
  4

  0
STYLE
  5
1B1
330
3
100
AcDbSymbolTableRecord
100
AcDbTextStyleTableRecord
  2
SEACAD_seiso_ttf
 70
     0
 40
0.0
 41
1.0
 50
0.0
 71
     0
 42
0.2
  3
seiso.ttf
  4

  0
ENDTAB
  0
TABLE
  2
VIEW
  5
6
330
0
100
AcDbSymbolTable
 70
     0
  0
ENDTAB
  0
TABLE
  2
UCS
  5
7
330
0
100
AcDbSymbolTable
 70
     0
  0
ENDTAB
  0
TABLE
  2
APPID
  5
9
330
0
100
AcDbSymbolTable
 70
     1
  0
APPID
  5
12
330
9
100
AcDbSymbolTableRecord
100
AcDbRegAppTableRecord
  2
ACAD
 70
     0
  0
ENDTAB
  0
TABLE
  2
DIMSTYLE
  5
A
330
0
100
AcDbSymbolTable
 70
     1
100
AcDbDimStyleTable
  0
DIMSTYLE
105
27
330
A
100
AcDbSymbolTableRecord
100
AcDbDimStyleTableRecord
  2
ISO-25
 70
     0
 41
2.5
 42
0.625
 43
3.75
 44
1.25
 73
     0
 74
     0
 77
     1
 78
     8
140
2.5
141
2.5
143
0.0393700787
147
0.625
171
     3
172
     1
271
     2
272
     2
274
     3
278
    44
283
     0
284
     8
340
11
  0
ENDTAB
  0
TABLE
  2
BLOCK_RECORD
  5
1
330
0
100
AcDbSymbolTable
 70
     7
  0
BLOCK_RECORD
  5
1F
330
1
100
AcDbSymbolTableRecord
100
AcDbBlockTableRecord
  2
*Model_Space
340
22
  0
BLOCK_RECORD
  5
1B
330
1
100
AcDbSymbolTableRecord
100
AcDbBlockTableRecord
  2
*Paper_Space
340
1E
  0
BLOCK_RECORD
  5
5E
330
1
100
AcDbSymbolTableRecord
100
AcDbBlockTableRecord
  2
SEANNOT_GROUP
340
0
102
{BLKREFS
331
5F
102
}
  0
BLOCK_RECORD
  5
69
330
1
100
AcDbSymbolTableRecord
100
AcDbBlockTableRecord
  2
SEANNOT_GROUP1
340
0
102
{BLKREFS
331
6A
102
}
  0
BLOCK_RECORD
  5
6F
330
1
100
AcDbSymbolTableRecord
100
AcDbBlockTableRecord
  2
SEANNOT_GROUP2
340
0
102
{BLKREFS
331
70
102
}
  0
BLOCK_RECORD
  5
75
330
1
100
AcDbSymbolTableRecord
100
AcDbBlockTableRecord
  2
SE
340
0
102
{BLKREFS
331
76
102
}
  0
BLOCK_RECORD
  5
D9
330
1
100
AcDbSymbolTableRecord
100
AcDbBlockTableRecord
  2
SE1
340
0
102
{BLKREFS
331
DA
102
}
  0
BLOCK_RECORD
  5
13D
330
1
100
AcDbSymbolTableRecord
100
AcDbBlockTableRecord
  2
SE2
340
0
102
{BLKREFS
331
13E
102
}
  0
ENDTAB
  0
ENDSEC
  0
SECTION
  2
BLOCKS
  0
BLOCK
  5
20
330
1F
100
AcDbEntity
  8
0
100
AcDbBlockBegin
  2
*Model_Space
 70
     0
 10
0.0
 20
0.0
 30
0.0
  3
*Model_Space
  1

  0
ENDBLK
  5
21
330
1F
100
AcDbEntity
  8
0
100
AcDbBlockEnd
  0
BLOCK
  5
1C
330
1B
100
AcDbEntity
 67
     1
  8
0
100
AcDbBlockBegin
  2
*Paper_Space
 70
     0
 10
0.0
 20
0.0
 30
0.0
  3
*Paper_Space
  1

  0
ENDBLK
  5
1D
330
1B
100
AcDbEntity
 67
     1
  8
0
100
AcDbBlockEnd
  0
BLOCK
  5
67
330
5E
100
AcDbEntity
  8
0
100
AcDbBlockBegin
  2
SEANNOT_GROUP
 70
     0
 10
0.0
 20
0.0
 30
0.0
  3
SEANNOT_GROUP
  1

  0
LINE
  5
61
330
5E
100
AcDbEntity
  8
Default
  6
CENTER2
 62
     7
100
AcDbLine
 10
101.3499957914
 20
411.1791924934
 30
0.0
 11
61.3499966855
 21
411.1791924934
 31
0.0
  0
LINE
  5
62
330
5E
100
AcDbEntity
  8
Default
  6
CENTER2
 62
     7
100
AcDbLine
 10
81.3499962384
 20
431.1791920464
 30
0.0
 11
81.3499962384
 21
391.1791929405
 31
0.0
  0
LINE
  5
63
330
5E
100
AcDbEntity
  8
Default
  6
CENTER2
 62
     7
100
AcDbLine
 10
106.3499956796
 20
411.1791924934
 30
0.0
 11
112.6070411089
 21
411.1791924934
 31
0.0
  0
LINE
  5
64
330
5E
100
AcDbEntity
  8
Default
  6
CENTER2
 62
     7
100
AcDbLine
 10
81.3499962384
 20
436.1791919346
 30
0.0
 11
81.3499962384
 21
442.436237364
 31
0.0
  0
LINE
  5
65
330
5E
100
AcDbEntity
  8
Default
  6
CENTER2
 62
     7
100
AcDbLine
 10
56.3499967972
 20
411.1791924934
 30
0.0
 11
50.0929513679
 21
411.1791924934
 31
0.0
  0
LINE
  5
66
330
5E
100
AcDbEntity
  8
Default
  6
CENTER2
 62
     7
100
AcDbLine
 10
81.3499962384
 20
386.1791930522
 30
0.0
 11
81.3499962384
 21
379.9221476229
 31
0.0
  0
ENDBLK
  5
68
330
5E
100
AcDbEntity
  8
0
100
AcDbBlockEnd
  0
BLOCK
  5
6D
330
69
100
AcDbEntity
  8
0
100
AcDbBlockBegin
  2
SEANNOT_GROUP1
 70
     0
 10
0.0
 20
0.0
 30
0.0
  3
SEANNOT_GROUP1
  1

  0
LINE
  5
6B
330
69
100
AcDbEntity
  8
Default
  6
CENTER2
 62
     7
100
AcDbLine
 10
272.0586746692
 20
411.3061859753
 30
0.0
 11
232.0586755633
 21
411.3061859753
 31
0.0
  0
LINE
  5
6C
330
69
100
AcDbEntity
  8
Default
  6
CENTER2
 62
     7
100
AcDbLine
 10
252.0586751163
 20
431.3061855282
 30
0.0
 11
252.0586751163
 21
391.3061864223
 31
0.0
  0
ENDBLK
  5
6E
330
69
100
AcDbEntity
  8
0
100
AcDbBlockEnd
  0
BLOCK
  5
73
330
6F
100
AcDbEntity
  8
0
100
AcDbBlockBegin
  2
SEANNOT_GROUP2
 70
     0
 10
0.0
 20
0.0
 30
0.0
  3
SEANNOT_GROUP2
  1

  0
LINE
  5
71
330
6F
100
AcDbEntity
  8
Default
  6
CENTER2
 62
     7
100
AcDbLine
 10
101.349999553
 20
194.5234623781
 30
0.0
 11
61.350000447
 21
194.5234623781
 31
0.0
  0
LINE
  5
72
330
6F
100
AcDbEntity
  8
Default
  6
CENTER2
 62
     7
100
AcDbLine
 10
81.35
 20
214.523461931
 30
0.0
 11
81.35
 21
174.5234628251
 31
0.0
  0
ENDBLK
  5
74
330
6F
100
AcDbEntity
  8
0
100
AcDbBlockEnd
  0
BLOCK
  5
D7
330
75
100
AcDbEntity
  8
0
100
AcDbBlockBegin
  2
SE
 70
     0
 10
0.0
 20
0.0
 30
0.0
  3
SE
  1

  0
ARC
  5
78
330
75
100
AcDbEntity
  8
02284038_ROSETTE
  6
Continuous
 62
     7
100
AcDbCircle
 10
81.35
 20
424.3061859753
 30
0.0
 40
60.33561234973714
100
AcDbArc
 50
287.7958741359
 51
0.0
  0
ARC
  5
79
330
75
100
AcDbEntity
  8
02284038_ROSETTE
  6
Continuous
 62
     7
100
AcDbCircle
 10
81.35
 20
424.3061859753
 30
0.0
 40
60.33561234973714
100
AcDbArc
 50
0.0
 51
252.2124504752
  0
ARC
  5
7A
330
75
100
AcDbEntity
  8
02284038_ROSETTE
  6
Continuous
 62
     7
100
AcDbCircle
 10
81.3500047064
 20
411.2514430829
 30
0.0
 40
28.72326814033084
100
AcDbArc
 50
317.8595975805
 51
0.0
  0
ARC
  5
7B
330
75
100
AcDbEntity
  8
02284038_ROSETTE
  6
Continuous
 62
     7
100
AcDbCircle
 10
81.3500047064
 20
411.2514430829
 30
0.0
 40
28.72326814033084
100
AcDbArc
 50
0.0
 51
222.1401049028
  0
CIRCLE
  5
7C
330
75
100
AcDbEntity
  8
02284038_ROSETTE
  6
Continuous
 62
     7
100
AcDbCircle
 10
117.35
 20
421.3061859753
 30
0.0
 40
2.600000000005738
  0
CIRCLE
  5
7D
330
75
100
AcDbEntity
  8
02284038_ROSETTE
  6
Continuous
 62
     7
100
AcDbCircle
 10
45.35
 20
421.3061859753
 30
0.0
 40
2.600000000005738
  0
ARC
  5
7E
330
75
100
AcDbEntity
  8
02284038_ROSETTE
  6
Continuous
 62
     7
100
AcDbCircle
 10
81.35
 20
424.3061859753
 30
0.0
 40
74.99999999999989
100
AcDbArc
 50
283.6057466879
 51
256.3880453121
  0
SPLINE
  5
80
330
75
100
AcDbEntity
  8
400564040_HEBEL_
  6
Continuous
 62
     7
100
AcDbSpline
210
0.0
220
0.0
230
1.0
 70
     8
 71
     3
 72
     8
 73
     4
 74
     0
 42
0.0000000001122432
 43
0.0000000001
 40
0.8471968219659145
 40
0.8471968219659145
 40
0.8471968219659145
 40
0.8471968219659145
 40
0.8489989598218153
 40
0.8489989598218153
 40
0.8489989598218153
 40
0.8489989598218153
 10
57.10280648745501
 20
402.7327091558691
 30
0.0
 10
57.08557970007734
 20
402.7836259611057
 30
0.0
 10
57.06841073968278
 20
402.8343146020048
 30
0.0
 10
57.05129925913369
 20
402.8847795253023
 30
0.0
  0
SPLINE
  5
81
330
75
100
AcDbEntity
  8
400564040_HEBEL_
  6
Continuous
 62
     7
100
AcDbSpline
210
0.0
220
0.0
230
1.0
 70
     8
 71
     3
 72
     8
 73
     4
 74
     0
 42
0.0000000001256232
 43
0.0000000001
 40
0.8157882937132055
 40
0.8157882937132055
 40
0.8157882937132055
 40
0.8157882937132055
 40
0.8169005210194185
 40
0.8169005210194185
 40
0.8169005210194185
 40
0.8169005210194185
 10
105.6285636108022
 20
402.8029916670978
 30
0.0
 10
105.6380526755779
 20
402.831006700362
 30
0.0
 10
105.6475259520592
 20
402.8589580607256
 30
0.0
 10
105.6569824586282
 20
402.886843525317
 30
0.0
  0
ARC
  5
82
330
75
100
AcDbEntity
  8
400564040_HEBEL_
  6
Continuous
 62
     7
100
AcDbCircle
 10
102.9478765926
 20
411.5949916909
 30
0.0
 40
5.978120672835934
100
AcDbArc
 50
354.7135619421
 51
4.5236997319
  0
SPLINE
  5
83
330
75
100
AcDbEntity
  8
400564040_HEBEL_
  6
Continuous
 62
     7
100
AcDbSpline
210
0.0
220
0.0
230
1.0
 70
     8
 71
     3
 72
    34
 73
    30
 74
     0
 42
0.000000000118135
 43
0.0000000001
 40
0.0
 40
0.0
 40
0.0
 40
0.0
 40
0.1249999999999999
 40
0.1249999999999999
 40
0.1874999999999999
 40
0.1874999999999999
 40
0.2499999999999998
 40
0.2499999999999998
 40
0.3124999999999998
 40
0.3124999999999998
 40
0.3749999999999998
 40
0.3749999999999998
 40
0.4999999999999997
 40
0.4999999999999997
 40
0.5624999999999998
 40
0.5624999999999998
 40
0.6249999999999998
 40
0.6249999999999998
 40
0.6874999999999997
 40
0.6874999999999997
 40
0.7499999999999997
 40
0.7499999999999997
 40
0.8124999999999997
 40
0.8124999999999997
 40
0.8749999999999997
 40
0.8749999999999997
 40
0.9374999999999998
 40
0.9374999999999998
 40
1.0
 40
1.0
 40
1.0
 40
1.0
 10
108.9073741925533
 20
412.0664947500725
 30
0.0
 10
108.5193101152864
 20
415.5876546044458
 30
0.0
 10
107.6448099037023
 20
419.0288432608504
 30
0.0
 10
105.4979374863097
 20
423.8489949117962
 30
0.0
 10
104.6313256888103
 20
425.4103016244824
 30
0.0
 10
102.6515990130096
 20
428.3011320244892
 30
0.0
 10
101.5366368224995
 20
429.6490352735948
 30
0.0
 10
99.05126751933558
 20
432.1457272798294
 30
0.0
 10
97.68279504145477
 20
433.2851689694166
 30
0.0
 10
94.79406291010244
 20
435.2544736780541
 30
0.0
 10
93.25992391990616
 20
436.0963490933044
 30
0.0
 10
88.37809237334672
 20
438.1775878486354
 30
0.0
 10
84.90010753523265
 20
438.918888582695
 30
0.0
 10
79.59697320281911
 20
438.9220087696295
 30
0.0
 10
77.8559185349063
 20
438.736563370813
 30
0.0
 10
74.42269367964978
 20
438.0236862674636
 30
0.0
 10
72.71579185406557
 20
437.4877623665415
 30
0.0
 10
69.4832371629723
 20
436.1135248152906
 30
0.0
 10
67.94479110775619
 20
435.2742511801562
 30
0.0
 10
65.02562902250123
 20
433.2873525176902
 30
0.0
 10
63.66206980505308
 20
432.1499488999997
 30
0.0
 10
61.18861688994235
 20
429.6681280614468
 30
0.0
 10
60.06073678703969
 20
428.3090973691014
 30
0.0
 10
58.06193807650527
 20
425.3884656824263
 30
0.0
 10
57.21310958341398
 20
423.85474475949
 30
0.0
 10
55.78627933944819
 20
420.6552724468987
 30
0.0
 10
55.20544614337934
 20
418.9785812292637
 30
0.0
 10
54.31032863766841
 20
415.5620772646614
 30
0.0
 10
53.99422396440995
 20
413.8270685570243
 30
0.0
 10
53.80018287085593
 20
412.0664944952225
 30
0.0
  0
ARC
  5
84
330
75
100
AcDbEntity
  8
400564040_HEBEL_
  6
Continuous
 62
     7
100
AcDbCircle
 10
59.7610594129
 20
411.5950020324
 30
0.0
 40
5.979494484633739
100
AcDbArc
 50
175.4774436216
 51
185.2853185893
  0
SPLINE
  5
85
330
75
100
AcDbEntity
  8
400564040_HEBEL_
  6
Continuous
 62
     7
100
AcDbSpline
210
0.0
220
0.0
230
1.0
 70
     8
 71
     3
 72
    14
 73
    10
 74
     0
 42
0.0000000001162157
 43
0.0000000001
 40
0.0
 40
0.0
 40
0.0
 40
0.0
 40
0.0625
 40
0.0625
 40
0.125
 40
0.125
 40
0.1875000000000001
 40
0.1875000000000001
 40
0.2004422171228896
 40
0.2004422171228896
 40
0.2004422171228896
 40
0.2004422171228896
 10
53.80698773902315
 20
411.0441982612257
 30
0.0
 10
53.89839410149703
 20
409.2433996733728
 30
0.0
 10
54.14401391899659
 20
407.4468202445087
 30
0.0
 10
54.9354276063785
 20
403.9631157470243
 30
0.0
 10
55.47879203700744
 20
402.2679954955553
 30
0.0
 10
56.87766537922001
 20
398.9765447933329
 30
0.0
 10
57.73809199534388
 20
397.3771824014924
 30
0.0
 10
58.92980341805826
 20
395.588445913509
 30
0.0
 10
59.13995689902822
 20
395.2858677103798
 30
0.0
 10
59.35587867745902
 20
394.9876124234096
 30
0.0
  0
SPLINE
  5
86
330
75
100
AcDbEntity
  8
400564040_HEBEL_
  6
Continuous
 62
     7
100
AcDbSpline
210
0.0
220
0.0
230
1.0
 70
     8
 71
     3
 72
    14
 73
    10
 74
     0
 42
0.0000000001161656
 43
0.0000000001
 40
0.7993722382030432
 40
0.7993722382030432
 40
0.7993722382030432
 40
0.7993722382030432
 40
0.8125
 40
0.8125
 40
0.875
 40
0.875
 40
0.9375
 40
0.9375
 40
1.0
 40
1.0
 40
1.0
 40
1.0
 10
103.3377866943286
 20
394.968951654944
 30
0.0
 10
103.559355047001
 20
395.2742507212328
 30
0.0
 10
103.7747665078717
 20
395.5839541943747
 30
0.0
 10
104.978254164724
 20
397.3910297195779
 30
0.0
 10
105.8223381134509
 20
398.960491333235
 30
0.0
 10
107.220327412809
 20
402.2460780793447
 30
0.0
 10
107.7763734059235
 20
403.9748209175796
 30
0.0
 10
108.5678081493838
 20
407.4682921638421
 30
0.0
 10
108.8091934832773
 20
409.2433987984055
 30
0.0
 10
108.9005695351257
 20
411.0441981627138
 30
0.0
  0
CIRCLE
  5
87
330
75
100
AcDbEntity
  8
400564040_HEBEL_
  6
Continuous
 62
     7
100
AcDbCircle
 10
70.8483782249
 20
394.9317360868
 30
0.0
 40
0.9000000000000077
  0
CIRCLE
  5
88
330
75
100
AcDbEntity
  8
400564040_HEBEL_
  6
Continuous
 62
     7
100
AcDbCircle
 10
91.8483782249
 20
394.9317360868
 30
0.0
 40
0.9000000000000076
  0
LINE
  5
89
330
75
100
AcDbEntity
  8
400564040_HEBEL_
  6
Continuous
 62
     7
100
AcDbLine
 10
87.3309646789
 20
402.1159450393
 30
0.0
 11
87.3309646789
 21
401.7102705468
 31
0.0
  0
LINE
  5
8A
330
75
100
AcDbEntity
  8
400564040_HEBEL_
  6
Continuous
 62
     7
100
AcDbLine
 10
86.2889975639
 20
402.1159450393
 30
0.0
 11
87.3309646789
 21
402.1159450393
 31
0.0
  0
LINE
  5
8B
330
75
100
AcDbEntity
  8
400564040_HEBEL_
  6
Continuous
 62
     7
100
AcDbLine
 10
86.2889975639
 20
402.6375265298
 30
0.0
 11
86.2889975639
 21
402.1159450393
 31
0.0
  0
LINE
  5
8C
330
75
100
AcDbEntity
  8
400564040_HEBEL_
  6
Continuous
 62
     7
100
AcDbLine
 10
87.0444168231
 20
402.6375265298
 30
0.0
 11
86.2889975639
 21
402.6375265298
 31
0.0
  0
LINE
  5
8D
330
75
100
AcDbEntity
  8
400564040_HEBEL_
  6
Continuous
 62
     7
100
AcDbLine
 10
87.0444168231
 20
403.030322467
 30
0.0
 11
87.0444168231
 21
402.6375265298
 31
0.0
  0
LINE
  5
8E
330
75
100
AcDbEntity
  8
400564040_HEBEL_
  6
Continuous
 62
     7
100
AcDbLine
 10
86.2889975639
 20
403.030322467
 30
0.0
 11
87.0444168231
 21
403.030322467
 31
0.0
  0
LINE
  5
8F
330
75
100
AcDbEntity
  8
400564040_HEBEL_
  6
Continuous
 62
     7
100
AcDbLine
 10
86.2889975639
 20
403.4265666064
 30
0.0
 11
86.2889975639
 21
403.030322467
 31
0.0
  0
LINE
  5
90
330
75
100
AcDbEntity
  8
400564040_HEBEL_
  6
Continuous
 62
     7
100
AcDbLine
 10
87.1893005704
 20
403.4265666064
 30
0.0
 11
86.2889975639
 21
403.4265666064
 31
0.0
  0
LINE
  5
91
330
75
100
AcDbEntity
  8
400564040_HEBEL_
  6
Continuous
 62
     7
100
AcDbLine
 10
87.1893005704
 20
403.8322410989
 30
0.0
 11
87.1893005704
 21
403.4265666064
 31
0.0
  0
LINE
  5
92
330
75
100
AcDbEntity
  8
400564040_HEBEL_
  6
Continuous
 62
     7
100
AcDbLine
 10
85.740463097
 20
403.8322410989
 30
0.0
 11
87.1893005704
 21
403.8322410989
 31
0.0
  0
LINE
  5
93
330
75
100
AcDbEntity
  8
400564040_HEBEL_
  6
Continuous
 62
     7
100
AcDbLine
 10
85.740463097
 20
401.7102705468
 30
0.0
 11
85.740463097
 21
403.8322410989
 31
0.0
  0
LINE
  5
94
330
75
100
AcDbEntity
  8
400564040_HEBEL_
  6
Continuous
 62
     7
100
AcDbLine
 10
87.3309646789
 20
401.7102705468
 30
0.0
 11
85.740463097
 21
401.7102705468
 31
0.0
  0
SPLINE
  5
95
330
75
100
AcDbEntity
  8
400564040_HEBEL_
  6
Continuous
 62
     7
100
AcDbSpline
210
0.0
220
0.0
230
1.0
 70
     8
 71
     3
 72
    16
 73
    12
 74
     0
 42
0.0000000027440175
 43
0.0000000001
 40
0.0
 40
0.0
 40
0.0
 40
0.0
 40
0.2500000000000007
 40
0.2500000000000007
 40
0.5000000000000012
 40
0.5000000000000012
 40
0.6250000000000011
 40
0.6250000000000011
 40
0.750000000000001
 40
0.750000000000001
 40
1.0
 40
1.0
 40
1.0
 40
1.0
 10
81.36497392731113
 20
398.7716484299683
 30
0.0
 10
81.67866902979826
 20
398.7744404403793
 30
0.0
 10
81.97218857104485
 20
398.8484116957683
 30
0.0
 10
82.55005298047254
 20
399.0267175959339
 30
0.0
 10
82.83383745806007
 20
399.1337841853161
 30
0.0
 10
83.26691929499596
 20
399.2627606300267
 30
0.0
 10
83.41242455546575
 20
399.300505754796
 30
0.0
 10
83.70854684005882
 20
399.3538142057619
 30
0.0
 10
83.86117009325353
 20
399.369290930974
 30
0.0
 10
84.31763343965152
 20
399.3598208828333
 30
0.0
 10
84.61103984638035
 20
399.2861827718355
 30
0.0
 10
84.9016091973111
 20
399.1958979664145
 30
0.0
  0
LINE
  5
96
330
75
100
AcDbEntity
  8
400564040_HEBEL_
  6
Continuous
 62
     7
100
AcDbLine
 10
84.9016091973
 20
399.1958979664
 30
0.0
 11
85.1956082173
 21
399.3415784908
 31
0.0
  0
SPLINE
  5
97
330
75
100
AcDbEntity
  8
400564040_HEBEL_
  6
Continuous
 62
     7
100
AcDbSpline
210
0.0
220
0.0
230
1.0
 70
     8
 71
     3
 72
    18
 73
    14
 74
     0
 42
0.0000000012553391
 43
0.0000000001
 40
0.0
 40
0.0
 40
0.0
 40
0.0
 40
0.1249999999999999
 40
0.1249999999999999
 40
0.2499999999999999
 40
0.2499999999999999
 40
0.5
 40
0.5
 40
0.7500000000000001
 40
0.7500000000000001
 40
0.875
 40
0.875
 40
1.0
 40
1.0
 40
1.0
 40
1.0
 10
85.19560821731122
 20
399.3415784907621
 30
0.0
 10
84.88293721136893
 20
399.4470973514165
 30
0.0
 10
84.5692607238198
 20
399.5484106663876
 30
0.0
 10
83.91757628700772
 20
399.6256497479873
 30
0.0
 10
83.5804768682959
 20
399.5773537066111
 30
0.0
 10
82.63122627903013
 20
399.3190969389579
 30
0.0
 10
82.02279918440672
 20
399.0028528190296
 30
0.0
 10
80.67901327771379
 20
399.0125926439453
 30
0.0
 10
80.08490547620956
 20
399.3241627499629
 30
0.0
 10
79.14290224218503
 20
399.5784732610708
 30
0.0
 10
78.8087155785042
 20
399.6256102290518
 30
0.0
 10
78.15850725080284
 20
399.5477549531215
 30
0.0
 10
77.84591911633566
 20
399.4467289876266
 30
0.0
 10
77.53433963029846
 20
399.3415784883955
 30
0.0
  0
LINE
  5
98
330
75
100
AcDbEntity
  8
400564040_HEBEL_
  6
Continuous
 62
     7
100
AcDbLine
 10
77.5343396303
 20
399.3415784884
 30
0.0
 11
77.8283386573
 21
399.1958979664
 31
0.0
  0
SPLINE
  5
99
330
75
100
AcDbEntity
  8
400564040_HEBEL_
  6
Continuous
 62
     7
100
AcDbSpline
210
0.0
220
0.0
230
1.0
 70
     8
 71
     3
 72
    16
 73
    12
 74
     0
 42
0.0000000027440008
 43
0.0000000001
 40
0.0
 40
0.0
 40
0.0
 40
0.0
 40
0.25
 40
0.25
 40
0.3749999999999999
 40
0.3749999999999999
 40
0.4999999999999999
 40
0.4999999999999999
 40
0.7499999999999999
 40
0.7499999999999999
 40
1.0
 40
1.0
 40
1.0
 40
1.0
 10
77.82833865731124
 20
399.1958979664145
 30
0.0
 10
78.11898002406936
 20
399.2862051483696
 30
0.0
 10
78.4125205656848
 20
399.3599302097689
 30
0.0
 10
78.8697065611965
 20
399.3692574973662
 30
0.0
 10
79.02172572226256
 20
399.3537643354149
 30
0.0
 10
79.31752538661912
 20
399.3004967854181
 30
0.0
 10
79.46297360391134
 20
399.2627752090411
 30
0.0
 10
79.89601683521225
 20
399.1338156224178
 30
0.0
 10
80.1797726769247
 20
399.0267617299859
 30
0.0
 10
80.75759900368735
 20
398.8484547260255
 30
0.0
 10
81.0511212448312
 20
398.7744418429035
 30
0.0
 10
81.36497392731113
 20
398.7716484299683
 30
0.0
  0
ELLIPSE
  5
9A
330
75
100
AcDbEntity
  8
400564040_HEBEL_
  6
Continuous
 62
     7
100
AcDbEllipse
 10
81.35
 20
400.683164878
 30
0.0
 11
0.0
 21
4.354421319509284
 31
0.0
210
0.0
220
0.0
230
1.0
 40
1.0
 41
0.7623855104601391
 42
0.9198866068414624
  0
LINE
  5
9B
330
75
100
AcDbEntity
  8
400564040_HEBEL_
  6
Continuous
 62
     7
100
AcDbLine
 10
80.0191752566
 20
401.7102705468
 30
0.0
 11
79.3085195793
 21
402.5616470506
 31
0.0
  0
LINE
  5
9C
330
75
100
AcDbEntity
  8
400564040_HEBEL_
  6
Continuous
 62
     7
100
AcDbLine
 10
79.3205032704
 20
401.7102705468
 30
0.0
 11
80.0191752566
 21
401.7102705468
 31
0.0
  0
LINE
  5
9D
330
75
100
AcDbEntity
  8
400564040_HEBEL_
  6
Continuous
 62
     7
100
AcDbLine
 10
78.9361354316
 20
403.8322410989
 30
0.0
 11
77.9070818241
 21
403.8322410989
 31
0.0
  0
LINE
  5
9E
330
75
100
AcDbEntity
  8
400564040_HEBEL_
  6
Continuous
 62
     7
100
AcDbLine
 10
78.4705186193
 20
403.4266063029
 30
0.0
 11
78.8355217277
 21
403.4266063029
 31
0.0
  0
SPLINE
  5
9F
330
75
100
AcDbEntity
  8
400564040_HEBEL_
  6
Continuous
 62
     7
100
AcDbSpline
210
0.0
220
0.0
230
1.0
 70
     8
 71
     3
 72
    18
 73
    14
 74
     0
 42
0.0000000086229127
 43
0.0000000001
 40
0.0
 40
0.0
 40
0.0
 40
0.0
 40
0.2500000000000047
 40
0.2500000000000047
 40
0.3750000000000041
 40
0.3750000000000041
 40
0.5000000000000036
 40
0.5000000000000036
 40
0.625000000000003
 40
0.625000000000003
 40
0.7500000000000029
 40
0.7500000000000029
 40
1.0
 40
1.0
 40
1.0
 40
1.0
 10
79.71003452582161
 20
403.1676039621137
 30
0.0
 10
79.70988447076361
 20
403.2625881811005
 30
0.0
 10
79.69416370046325
 20
403.3575405326779
 30
0.0
 10
79.63604627756183
 20
403.4860924768033
 30
0.0
 10
79.61122140310039
 20
403.5261213875322
 30
0.0
 10
79.55642361688153
 20
403.6034837281986
 30
0.0
 10
79.52563356546678
 20
403.6405991174988
 30
0.0
 10
79.45316823121642
 20
403.7022997128896
 30
0.0
 10
79.41090349832821
 20
403.727692993713
 30
0.0
 10
79.32316568135226
 20
403.7695256063856
 30
0.0
 10
79.2774190077014
 20
403.7860992389152
 30
0.0
 10
79.13533212866967
 20
403.8245722218472
 30
0.0
 10
79.03585679091618
 20
403.8345451037679
 30
0.0
 10
78.9361354316334
 20
403.8322410989308
 30
0.0
  0
LINE
  5
A0
330
75
100
AcDbEntity
  8
400564040_HEBEL_
  6
Continuous
 62
     7
100
AcDbLine
 10
77.9070818241
 20
403.8322410989
 30
0.0
 11
77.9070818241
 21
401.7102705468
 31
0.0
  0
LINE
  5
A1
330
75
100
AcDbEntity
  8
400564040_HEBEL_
  6
Continuous
 62
     7
100
AcDbLine
 10
77.9070818241
 20
401.7102705468
 30
0.0
 11
78.4705186193
 21
401.7102705468
 31
0.0
  0
LINE
  5
A2
330
75
100
AcDbEntity
  8
400564040_HEBEL_
  6
Continuous
 62
     7
100
AcDbLine
 10
78.4705186193
 20
401.7102705468
 30
0.0
 11
78.4705186193
 21
403.4266063029
 31
0.0
  0
SPLINE
  5
A3
330
75
100
AcDbEntity
  8
400564040_HEBEL_
  6
Continuous
 62
     7
100
AcDbSpline
210
0.0
220
0.0
230
1.0
 70
     8
 71
     3
 72
    12
 73
     8
 74
     0
 42
0.0000000185652635
 43
0.0000000001
 40
0.0
 40
0.0
 40
0.0
 40
0.0
 40
0.2499999999999986
 40
0.2499999999999986
 40
0.4999999999999972
 40
0.4999999999999972
 40
1.0
 40
1.0
 40
1.0
 40
1.0
 10
78.8355217276875
 20
403.4266063029193
 30
0.0
 10
78.88164888031436
 20
403.427898211314
 30
0.0
 10
78.92752891839906
 20
403.4214311488136
 30
0.0
 10
79.0119712212718
 20
403.3901909777234
 30
0.0
 10
79.05105525932935
 20
403.3658283720549
 30
0.0
 10
79.13446753260467
 20
403.2641872916462
 30
0.0
 10
79.15956496130494
 20
403.1768022346419
 30
0.0
 10
79.15967921074798
 20
403.0891355086439
 30
0.0
  0
SPLINE
  5
A4
330
75
100
AcDbEntity
  8
400564040_HEBEL_
  6
Continuous
 62
     7
100
AcDbSpline
210
0.0
220
0.0
230
1.0
 70
     8
 71
     3
 72
    12
 73
     8
 74
     0
 42
0.0000000195503124
 43
0.0000000001
 40
0.0
 40
0.0
 40
0.0
 40
0.0
 40
0.25
 40
0.25
 40
0.5
 40
0.5
 40
1.0
 40
1.0
 40
1.0
 40
1.0
 10
79.15967921074798
 20
403.0891355086439
 30
0.0
 10
79.15962629088551
 20
403.0485286493493
 30
0.0
 10
79.15534251121056
 20
403.0085096526329
 30
0.0
 10
79.13193864601635
 20
402.930544821984
 30
0.0
 10
79.11287217713975
 20
402.8928129309518
 30
0.0
 10
79.03932022495998
 20
402.7904873622742
 30
0.0
 10
78.95123728845606
 20
402.7557597384418
 30
0.0
 10
78.86505403444735
 20
402.7518982933495
 30
0.0
  0
LINE
  5
A5
330
75
100
AcDbEntity
  8
400564040_HEBEL_
  6
Continuous
 62
     7
100
AcDbLine
 10
78.8650540344
 20
402.7518982933
 30
0.0
 11
78.5413506736
 21
402.7518982933
 31
0.0
  0
LINE
  5
A6
330
75
100
AcDbEntity
  8
400564040_HEBEL_
  6
Continuous
 62
     7
100
AcDbLine
 10
78.5413506736
 20
402.7518982933
 30
0.0
 11
79.3205032704
 21
401.7102705468
 31
0.0
  0
ARC
  5
A7
330
75
100
AcDbEntity
  8
400564040_HEBEL_
  6
Continuous
 62
     7
100
AcDbCircle
 10
79.0849730108
 20
403.145774894
 30
0.0
 40
0.6254425678829021
100
AcDbArc
 50
290.9419205749
 51
2.0001317432
  0
ELLIPSE
  5
A8
330
75
100
AcDbEntity
  8
400564040_HEBEL_
  6
Continuous
 62
     7
100
AcDbEllipse
 10
81.35
 20
400.683164878
 30
0.0
 11
0.0
 21
4.29556133921702
 31
0.0
210
0.0
220
0.0
230
1.0
 40
1.0
 41
1.140131366047867
 42
1.307805529023857
  0
SPLINE
  5
A9
330
75
100
AcDbEntity
  8
400564040_HEBEL_
  6
Continuous
 62
     7
100
AcDbSpline
210
0.0
220
0.0
230
1.0
 70
     8
 71
     3
 72
    16
 73
    12
 74
     0
 42
0.0000000052788098
 43
0.0000000001
 40
0.0
 40
0.0
 40
0.0
 40
0.0
 40
0.2499999999999999
 40
0.2499999999999999
 40
0.3749999999999987
 40
0.3749999999999987
 40
0.4999999999999976
 40
0.4999999999999976
 40
0.7499999999999988
 40
0.7499999999999988
 40
1.0
 40
1.0
 40
1.0
 40
1.0
 10
75.22512006884764
 20
402.7713692835116
 30
0.0
 10
75.22533079193308
 20
402.6141832827062
 30
0.0
 10
75.24776850707042
 20
402.4612827002426
 30
0.0
 10
75.33585797876673
 20
402.2453135256798
 30
0.0
 10
75.3735512318502
 20
402.1784375817149
 30
0.0
 10
75.45720512545716
 20
402.0496685685317
 30
0.0
 10
75.5036790847045
 20
401.986768500456
 30
0.0
 10
75.67200821283342
 20
401.8251877488528
 30
0.0
 10
75.81759117560033
 20
401.7544092684133
 30
0.0
 10
76.12120952952368
 20
401.6627366227032
 30
0.0
 10
76.284450139704
 20
401.6439225978338
 30
0.0
 10
76.44858543422609
 20
401.6479762755
 30
0.0
  0
SPLINE
  5
AA
330
75
100
AcDbEntity
  8
400564040_HEBEL_
  6
Continuous
 62
     7
100
AcDbSpline
210
0.0
220
0.0
230
1.0
 70
     8
 71
     3
 72
    20
 73
    16
 74
     0
 42
0.0000000052961837
 43
0.0000000001
 40
0.0
 40
0.0
 40
0.0
 40
0.0
 40
0.2500000000000008
 40
0.2500000000000008
 40
0.3750000000000007
 40
0.3750000000000007
 40
0.5000000000000006
 40
0.5000000000000006
 40
0.6250000000000004
 40
0.6250000000000004
 40
0.7500000000000002
 40
0.7500000000000002
 40
0.8750000000000001
 40
0.8750000000000001
 40
1.0
 40
1.0
 40
1.0
 40
1.0
 10
76.44858543422609
 20
403.8945353702143
 30
0.0
 10
76.29034110968155
 20
403.8984435575792
 30
0.0
 10
76.13411436985656
 20
403.8821263517372
 30
0.0
 10
75.90393424173477
 20
403.814862582787
 30
0.0
 10
75.82881805461511
 20
403.7853115719294
 30
0.0
 10
75.68700886316687
 20
403.711347592357
 30
0.0
 10
75.61904996371501
 20
403.6660119362646
 30
0.0
 10
75.50505957720844
 20
403.5575265012474
 30
0.0
 10
75.45757731375282
 20
403.4934886965131
 30
0.0
 10
75.37207847960997
 20
403.3617333961984
 30
0.0
 10
75.33424816639383
 20
403.2938553361944
 30
0.0
 10
75.27645534462408
 20
403.1509323669073
 30
0.0
 10
75.25588500444434
 20
403.0752556757532
 30
0.0
 10
75.23051980124512
 20
402.923817146048
 30
0.0
 10
75.22523291877565
 20
402.847727212353
 30
0.0
 10
75.22512006884764
 20
402.7713692835116
 30
0.0
  0
ARC
  5
AB
330
75
100
AcDbEntity
  8
400564040_HEBEL_
  6
Continuous
 62
     7
100
AcDbCircle
 10
76.4485854342
 20
401.7626676281
 30
0.0
 40
2.131867742159089
100
AcDbArc
 50
64.2321607572
 51
90.0
  0
LINE
  5
AC
330
75
100
AcDbEntity
  8
400564040_HEBEL_
  6
Continuous
 62
     7
100
AcDbLine
 10
77.3753630709
 20
403.2652126801
 30
0.0
 11
77.3753630709
 21
403.6825486875
 31
0.0
  0
ARC
  5
AD
330
75
100
AcDbEntity
  8
400564040_HEBEL_
  6
Continuous
 62
     7
100
AcDbCircle
 10
76.5764925717
 20
402.0472963967
 30
0.0
 40
1.456541845567786
100
AcDbArc
 50
56.7378415112
 51
89.962986049
  0
ARC
  5
AE
330
75
100
AcDbEntity
  8
400564040_HEBEL_
  6
Continuous
 62
     7
100
AcDbCircle
 10
76.5049584682
 20
402.8125381417
 30
0.0
 40
0.6950885137551921
100
AcDbArc
 50
84.0150416931
 51
183.4048834654
  0
SPLINE
  5
AF
330
75
100
AcDbEntity
  8
400564040_HEBEL_
  6
Continuous
 62
     7
100
AcDbSpline
210
0.0
220
0.0
230
1.0
 70
     8
 71
     3
 72
    14
 73
    10
 74
     0
 42
0.0000000092870008
 43
0.0000000001
 40
0.0
 40
0.0
 40
0.0
 40
0.0
 40
0.25
 40
0.25
 40
0.5
 40
0.5
 40
0.75
 40
0.75
 40
1.0
 40
1.0
 40
1.0
 40
1.0
 10
76.40677873674112
 20
402.0386738281365
 30
0.0
 10
76.31316406895603
 20
402.0355764737351
 30
0.0
 10
76.2209206897908
 20
402.0536899115232
 30
0.0
 10
76.06007351963098
 20
402.1320666300492
 30
0.0
 10
75.99128539196121
 20
402.1918251616155
 30
0.0
 10
75.89834757452543
 20
402.3416144559766
 30
0.0
 10
75.86377440774514
 20
402.4223054820453
 30
0.0
 10
75.81961658930159
 20
402.5921574212838
 30
0.0
 10
75.8111956957069
 20
402.681744356748
 30
0.0
 10
75.81109694592811
 20
402.7712558228571
 30
0.0
  0
ARC
  5
B0
330
75
100
AcDbEntity
  8
400564040_HEBEL_
  6
Continuous
 62
     7
100
AcDbCircle
 10
76.4073860109
 20
403.113708244
 30
0.0
 40
1.075034587389571
100
AcDbArc
 50
269.9676342978
 51
296.0810813458
  0
LINE
  5
B1
330
75
100
AcDbEntity
  8
400564040_HEBEL_
  6
Continuous
 62
     7
100
AcDbLine
 10
76.8800170374
 20
402.7712558229
 30
0.0
 11
76.8800170374
 21
402.1481414276
 31
0.0
  0
LINE
  5
B2
330
75
100
AcDbEntity
  8
400564040_HEBEL_
  6
Continuous
 62
     7
100
AcDbLine
 10
77.4466734715
 20
402.7712558229
 30
0.0
 11
76.8800170374
 21
402.7712558229
 31
0.0
  0
LINE
  5
B3
330
75
100
AcDbEntity
  8
400564040_HEBEL_
  6
Continuous
 62
     7
100
AcDbLine
 10
77.4466734715
 20
401.9019533388
 30
0.0
 11
77.4466734715
 21
402.7712558229
 31
0.0
  0
ARC
  5
B4
330
75
100
AcDbEntity
  8
400564040_HEBEL_
  6
Continuous
 62
     7
100
AcDbCircle
 10
76.4485854342
 20
403.7361256243
 30
0.0
 40
2.08814934882992
100
AcDbArc
 50
269.9999999999
 51
298.5533809614
  0
LINE
  5
B5
330
75
100
AcDbEntity
  8
400564040_HEBEL_
  6
Continuous
 62
     7
100
AcDbLine
 10
77.0850770371
 20
399.803940824
 30
0.0
 11
77.0844911007
 21
400.0475277747
 31
0.0
  0
LINE
  5
B6
330
75
100
AcDbEntity
  8
400564040_HEBEL_
  6
Continuous
 62
     7
100
AcDbLine
 10
76.5918133673
 20
399.9012770541
 30
0.0
 11
76.7993420873
 21
399.7182188405
 31
0.0
  0
LINE
  5
B7
330
75
100
AcDbEntity
  8
400564040_HEBEL_
  6
Continuous
 62
     7
100
AcDbLine
 10
85.9306057673
 20
399.7182188405
 30
0.0
 11
86.1381344873
 21
399.9012770541
 31
0.0
  0
SPLINE
  5
B8
330
75
100
AcDbEntity
  8
400564040_HEBEL_
  6
Continuous
 62
     7
100
AcDbSpline
210
0.0
220
0.0
230
1.0
 70
     8
 71
     3
 72
    22
 73
    18
 74
     0
 42
0.0000000021207451
 43
0.0000000001
 40
0.0
 40
0.0
 40
0.0
 40
0.0
 40
0.1249999999999994
 40
0.1249999999999994
 40
0.2499999999999991
 40
0.2499999999999991
 40
0.3749999999999988
 40
0.3749999999999988
 40
0.4374999999999988
 40
0.4374999999999988
 40
0.4999999999999988
 40
0.4999999999999988
 40
0.7499999999999993
 40
0.7499999999999993
 40
0.8749999999999997
 40
0.8749999999999997
 40
1.0
 40
1.0
 40
1.0
 40
1.0
 10
76.79934208731116
 20
399.71821884046
 30
0.0
 10
76.98758608139333
 20
399.7746930259439
 30
0.0
 10
77.17589284334885
 20
399.8311860421189
 30
0.0
 10
77.55263023750571
 20
399.9442092361925
 30
0.0
 10
77.7407926766003
 20
400.0017935619537
 30
0.0
 10
78.1183686246271
 20
400.1125631888988
 30
0.0
 10
78.30953229633353
 20
400.1588668707261
 30
0.0
 10
78.60522817011234
 20
400.1935664256261
 30
0.0
 10
78.70439348038545
 20
400.1989236885796
 30
0.0
 10
78.8991373308056
 20
400.1945167370575
 30
0.0
 10
78.99544002295629
 20
400.185246614197
 30
0.0
 10
79.47311757667485
 20
400.1131610676543
 30
0.0
 10
79.84264009300855
 20
399.9756299623374
 30
0.0
 10
80.39920599467311
 20
399.788675272144
 30
0.0
 10
80.58559902506589
 20
399.7287714356071
 30
0.0
 10
80.96672378920744
 20
399.6367285735951
 30
0.0
 10
81.16132095197852
 20
399.6041278400347
 30
0.0
 10
81.36497392731113
 20
399.6023152480533
 30
0.0
  0
LINE
  5
B9
330
75
100
AcDbEntity
  8
400564040_HEBEL_
  6
Continuous
 62
     7
100
AcDbLine
 10
85.6155302685
 20
400.0564114115
 30
0.0
 11
85.6149445591
 21
399.8129188584
 31
0.0
  0
SPLINE
  5
BA
330
75
100
AcDbEntity
  8
400564040_HEBEL_
  6
Continuous
 62
     7
100
AcDbSpline
210
0.0
220
0.0
230
1.0
 70
     8
 71
     3
 72
    22
 73
    18
 74
     0
 42
0.0000000021207008
 43
0.0000000001
 40
0.0
 40
0.0
 40
0.0
 40
0.0
 40
0.1249999999999997
 40
0.1249999999999997
 40
0.2499999999999994
 40
0.2499999999999994
 40
0.4999999999999986
 40
0.4999999999999986
 40
0.5624999999999987
 40
0.5624999999999987
 40
0.6249999999999987
 40
0.6249999999999987
 40
0.7499999999999992
 40
0.7499999999999992
 40
0.8749999999999996
 40
0.8749999999999996
 40
1.0
 40
1.0
 40
1.0
 40
1.0
 10
81.36497392731113
 20
399.6023152480533
 30
0.0
 10
81.56803687856764
 20
399.6041225885872
 30
0.0
 10
81.76249087678636
 20
399.6365897852395
 30
0.0
 10
82.14364478044143
 20
399.7285632704488
 30
0.0
 10
82.33022364251222
 20
399.7885043561289
 30
0.0
 10
82.88744858136626
 20
399.9756709580866
 30
0.0
 10
83.25491536024106
 20
400.1133546212992
 30
0.0
 10
83.7390269553058
 20
400.1858054289848
 30
0.0
 10
83.8380060891079
 20
400.1950865960539
 30
0.0
 10
84.03551194045852
 20
400.198705084892
 30
0.0
 10
84.13309851682455
 20
400.192837625725
 30
0.0
 10
84.4232264093069
 20
400.1580014592595
 30
0.0
 10
84.61318665872152
 20
400.1121377364988
 30
0.0
 10
84.99011844474404
 20
400.0014645325102
 30
0.0
 10
85.17818132656545
 20
399.943950118828
 30
0.0
 10
85.55449383923437
 20
399.8310543914292
 30
0.0
 10
85.7425834959924
 20
399.774626507952
 30
0.0
 10
85.93060576731122
 20
399.71821884046
 30
0.0
  0
SPLINE
  5
BB
330
75
100
AcDbEntity
  8
400564040_HEBEL_
  6
Continuous
 62
     7
100
AcDbSpline
210
0.0
220
0.0
230
1.0
 70
     8
 71
     3
 72
    20
 73
    16
 74
     0
 42
0.0000000010049864
 43
0.0000000001
 40
0.0
 40
0.0
 40
0.0
 40
0.0
 40
0.125
 40
0.125
 40
0.2499999999999999
 40
0.2499999999999999
 40
0.4999999999999999
 40
0.4999999999999999
 40
0.6249999999999999
 40
0.6249999999999999
 40
0.75
 40
0.75
 40
0.875
 40
0.875
 40
1.0
 40
1.0
 40
1.0
 40
1.0
 10
86.13813448731113
 20
399.9012770541396
 30
0.0
 10
85.74356420570702
 20
400.0184047099701
 30
0.0
 10
85.34869960252263
 20
400.1356197347645
 30
0.0
 10
84.5583958397853
 20
400.3702203406365
 30
0.0
 10
84.14823721424493
 20
400.4649195232204
 30
0.0
 10
82.9413131224321
 20
400.3265353307222
 30
0.0
 10
82.18577588788973
 20
399.8388219651492
 30
0.0
 10
80.95628059044442
 20
399.8380972352989
 30
0.0
 10
80.55370757920464
 20
399.9664652111863
 30
0.0
 10
79.77675736870485
 20
400.2286446198914
 30
0.0
 10
79.39237044930321
 20
400.3720417194612
 30
0.0
 10
78.57483965666499
 20
400.4656359761749
 30
0.0
 10
78.16653485537691
 20
400.3687310036187
 30
0.0
 10
77.37867930813766
 20
400.1348571472148
 30
0.0
 10
76.98507739851796
 20
400.0180169513017
 30
0.0
 10
76.5918133673111
 20
399.9012770541396
 30
0.0
  0
LINE
  5
BC
330
75
100
AcDbEntity
  8
400564040_HEBEL_
  6
Continuous
 62
     7
100
AcDbLine
 10
85.1408927551
 20
401.7102705468
 30
0.0
 11
85.1408927551
 21
403.8322410989
 31
0.0
  0
LINE
  5
BD
330
75
100
AcDbEntity
  8
400564040_HEBEL_
  6
Continuous
 62
     7
100
AcDbLine
 10
83.0620731514
 20
401.7102705468
 30
0.0
 11
83.6106076183
 21
401.7102705468
 31
0.0
  0
LINE
  5
BE
330
75
100
AcDbEntity
  8
400564040_HEBEL_
  6
Continuous
 62
     7
100
AcDbLine
 10
83.6106076183
 20
403.8322410989
 30
0.0
 11
83.0620731514
 21
403.8322410989
 31
0.0
  0
LINE
  5
BF
330
75
100
AcDbEntity
  8
400564040_HEBEL_
  6
Continuous
 62
     7
100
AcDbLine
 10
84.5888994762
 20
403.8322410989
 30
0.0
 11
84.5888994762
 21
403.0496403
 31
0.0
  0
LINE
  5
C0
330
75
100
AcDbEntity
  8
400564040_HEBEL_
  6
Continuous
 62
     7
100
AcDbLine
 10
85.1408927551
 20
403.8322410989
 30
0.0
 11
84.5888994762
 21
403.8322410989
 31
0.0
  0
ELLIPSE
  5
C1
330
75
100
AcDbEntity
  8
400564040_HEBEL_
  6
Continuous
 62
     7
100
AcDbEllipse
 10
81.35
 20
400.683164878
 30
0.0
 11
0.0
 21
4.303833560098867
 31
0.0
210
0.0
220
0.0
230
1.0
 40
1.0
 41
-1.077586513717939
 42
-0.8422786722968176
  0
LINE
  5
C2
330
75
100
AcDbEntity
  8
400564040_HEBEL_
  6
Continuous
 62
     7
100
AcDbLine
 10
84.5888994762
 20
403.0496403
 30
0.0
 11
83.6106076183
 21
403.0496403
 31
0.0
  0
LINE
  5
C3
330
75
100
AcDbEntity
  8
400564040_HEBEL_
  6
Continuous
 62
     7
100
AcDbLine
 10
83.6106076183
 20
403.0496403
 30
0.0
 11
83.6106076183
 21
403.8322410989
 31
0.0
  0
LINE
  5
C4
330
75
100
AcDbEntity
  8
400564040_HEBEL_
  6
Continuous
 62
     7
100
AcDbLine
 10
83.0620731514
 20
403.8322410989
 30
0.0
 11
83.0620731514
 21
401.7102705468
 31
0.0
  0
LINE
  5
C5
330
75
100
AcDbEntity
  8
400564040_HEBEL_
  6
Continuous
 62
     7
100
AcDbLine
 10
83.6106076183
 20
401.7102705468
 30
0.0
 11
83.6106076183
 21
402.6117694191
 31
0.0
  0
LINE
  5
C6
330
75
100
AcDbEntity
  8
400564040_HEBEL_
  6
Continuous
 62
     7
100
AcDbLine
 10
83.6106076183
 20
402.6117694191
 30
0.0
 11
84.5888994762
 21
402.6117694191
 31
0.0
  0
LINE
  5
C7
330
75
100
AcDbEntity
  8
400564040_HEBEL_
  6
Continuous
 62
     7
100
AcDbLine
 10
84.5888994762
 20
402.6117694191
 30
0.0
 11
84.5888994762
 21
401.7102705468
 31
0.0
  0
LINE
  5
C8
330
75
100
AcDbEntity
  8
400564040_HEBEL_
  6
Continuous
 62
     7
100
AcDbLine
 10
84.5888994762
 20
401.7102705468
 30
0.0
 11
85.1408927551
 21
401.7102705468
 31
0.0
  0
LINE
  5
C9
330
75
100
AcDbEntity
  8
400564040_HEBEL_
  6
Continuous
 62
     7
100
AcDbLine
 10
87.0062962993
 20
400.7041714199
 30
0.0
 11
86.8229792633
 21
400.4450260983
 31
0.0
  0
LINE
  5
CA
330
75
100
AcDbEntity
  8
400564040_HEBEL_
  6
Continuous
 62
     7
100
AcDbLine
 10
75.9069685913
 20
400.4450260983
 30
0.0
 11
75.7236515553
 21
400.7041714199
 31
0.0
  0
SPLINE
  5
CB
330
75
100
AcDbEntity
  8
400564040_HEBEL_
  6
Continuous
 62
     7
100
AcDbSpline
210
0.0
220
0.0
230
1.0
 70
     8
 71
     3
 72
    22
 73
    18
 74
     0
 42
0.000000001777099
 43
0.0000000001
 40
0.0
 40
0.0
 40
0.0
 40
0.0
 40
0.125
 40
0.125
 40
0.25
 40
0.25
 40
0.375
 40
0.375
 40
0.5
 40
0.5
 40
0.625
 40
0.625
 40
0.75
 40
0.75
 40
0.875
 40
0.875
 40
1.0
 40
1.0
 40
1.0
 40
1.0
 10
81.36497392731113
 20
400.4329820661384
 30
0.0
 10
81.12749828679596
 20
400.4350956932096
 30
0.0
 10
80.89992292383626
 20
400.4790611319683
 30
0.0
 10
80.45249212893518
 20
400.5987053235547
 30
0.0
 10
80.23276660749092
 20
400.6751026933851
 30
0.0
 10
79.79352805906068
 20
400.8241658873327
 30
0.0
 10
79.57385419220914
 20
400.8974842720025
 30
0.0
 10
79.1224192026958
 20
401.0045760986632
 30
0.0
 10
78.88698422235962
 20
401.0369662947306
 30
0.0
 10
78.42472273015105
 20
401.0136255528041
 30
0.0
 10
78.19455082062134
 20
400.9637094783891
 30
0.0
 10
77.74120749363095
 20
400.8341642482068
 30
0.0
 10
77.51767733045607
 20
400.7546150526992
 30
0.0
 10
77.06922728756179
 20
400.6042468090816
 30
0.0
 10
76.84439543079998
 20
400.5329858558348
 30
0.0
 10
76.38535093066832
 20
400.4392022407088
 30
0.0
 10
76.15059228505048
 20
400.419398164402
 30
0.0
 10
75.90696859128713
 20
400.4450260983186
 30
0.0
  0
ELLIPSE
  5
CC
330
75
100
AcDbEntity
  8
400564040_HEBEL_
  6
Continuous
 62
     7
100
AcDbEllipse
 10
81.35
 20
400.683164878
 30
0.0
 11
0.0
 21
4.26702563163447
 31
0.0
210
0.0
220
0.0
230
1.0
 40
1.0
 41
4.70978573602492
 42
4.754538000797326
  0
SPLINE
  5
CD
330
75
100
AcDbEntity
  8
400564040_HEBEL_
  6
Continuous
 62
     7
100
AcDbSpline
210
0.0
220
0.0
230
1.0
 70
     8
 71
     3
 72
    24
 73
    20
 74
     0
 42
0.0000000017777256
 43
0.0000000001
 40
0.0
 40
0.0
 40
0.0
 40
0.0
 40
0.0625
 40
0.0625
 40
0.1250000000000001
 40
0.1250000000000001
 40
0.2499999999999998
 40
0.2499999999999998
 40
0.3749999999999998
 40
0.3749999999999998
 40
0.4999999999999998
 40
0.4999999999999998
 40
0.6249999999999998
 40
0.6249999999999998
 40
0.7499999999999998
 40
0.7499999999999998
 40
0.8749999999999999
 40
0.8749999999999999
 40
1.0
 40
1.0
 40
1.0
 40
1.0
 10
86.82297926332453
 20
400.4450260983162
 30
0.0
 10
86.70725581263177
 20
400.4328525986831
 30
0.0
 10
86.59184306933552
 20
400.429713190042
 30
0.0
 10
86.36174158494177
 20
400.4436169458784
 30
0.0
 10
86.24701619463725
 20
400.4598464264008
 30
0.0
 10
85.90344501565669
 20
400.5280635096465
 30
0.0
 10
85.67677397690953
 20
400.5991050843818
 30
0.0
 10
85.22939151548552
 20
400.748650132069
 30
0.0
 10
85.00699035935985
 20
400.8280706605914
 30
0.0
 10
84.55389927507491
 20
400.9592320433923
 30
0.0
 10
84.32154334361672
 20
401.0111016559181
 30
0.0
 10
83.85649551494994
 20
401.0378770516991
 30
0.0
 10
83.6200230888979
 20
401.0067899935132
 30
0.0
 10
83.16606658561231
 20
400.9005640679325
 30
0.0
 10
82.94520943167582
 20
400.8271078005185
 30
0.0
 10
82.50371410975252
 20
400.6773593653532
 30
0.0
 10
82.28310665986648
 20
400.6004620622125
 30
0.0
 10
81.83344540074978
 20
400.4797350236191
 30
0.0
 10
81.6045434108571
 20
400.4351143292402
 30
0.0
 10
81.36497392731113
 20
400.4329820661384
 30
0.0
  0
SPLINE
  5
CE
330
75
100
AcDbEntity
  8
400564040_HEBEL_
  6
Continuous
 62
     7
100
AcDbSpline
210
0.0
220
0.0
230
1.0
 70
     8
 71
     3
 72
    22
 73
    18
 74
     0
 42
0.0000000008545276
 43
0.0000000001
 40
0.0
 40
0.0
 40
0.0
 40
0.0
 40
0.1249999999999999
 40
0.1249999999999999
 40
0.2499999999999999
 40
0.2499999999999999
 40
0.3749999999999999
 40
0.3749999999999999
 40
0.5
 40
0.5
 40
0.625
 40
0.625
 40
0.7500000000000001
 40
0.7500000000000001
 40
0.8750000000000001
 40
0.8750000000000001
 40
1.0
 40
1.0
 40
1.0
 40
1.0
 10
75.72365155531125
 20
400.7041714198608
 30
0.0
 10
76.19887038102151
 20
400.6230733621607
 30
0.0
 10
76.68841713861077
 20
400.7236454235324
 30
0.0
 10
77.62428395339177
 20
401.0281025582165
 30
0.0
 10
78.08404437836255
 20
401.2182453426665
 30
0.0
 10
79.069283237057
 20
401.2963596378846
 30
0.0
 10
79.53355190310425
 20
401.1425162168716
 30
0.0
 10
80.44834561246674
 20
400.8322062826645
 30
0.0
 10
80.9213351762877
 20
400.6600438518372
 30
0.0
 10
81.88451733315439
 20
400.678705665354
 30
0.0
 10
82.35130587917457
 20
400.8570321723135
 30
0.0
 10
83.2703355128906
 20
401.1662420842079
 30
0.0
 10
83.76051802197482
 20
401.3043286295238
 30
0.0
 10
84.71368065589544
 20
401.193880272963
 30
0.0
 10
85.16047918948662
 20
401.008160448719
 30
0.0
 10
86.07115795837875
 20
400.7163165396418
 30
0.0
 10
86.54553396163635
 20
400.6255404216233
 30
0.0
 10
87.00629629931112
 20
400.7041714198608
 30
0.0
  0
ELLIPSE
  5
CF
330
75
100
AcDbEntity
  8
400564040_HEBEL_
  6
Continuous
 62
     7
100
AcDbEllipse
 10
81.35
 20
400.683164878
 30
0.0
 11
0.0
 21
4.267282270004062
 31
0.0
210
0.0
220
0.0
230
1.0
 40
1.0
 41
1.530913895438629
 42
1.573399571154666
  0
SPLINE
  5
D0
330
75
100
AcDbEntity
  8
400564040_HEBEL_
  6
Continuous
 62
     7
100
AcDbSpline
210
0.0
220
0.0
230
1.0
 70
    11
 71
     3
 72
   107
 73
   103
 74
     0
 42
0.0000000012848444
 43
0.0000000001
 40
0.0
 40
0.0
 40
0.0
 40
0.0
 40
0.049801820341267
 40
0.049801820341267
 40
0.049801820341267
 40
0.0741535038912326
 40
0.0741535038912326
 40
0.0741535038912326
 40
0.1237899013132418
 40
0.1237899013132418
 40
0.1237899013132418
 40
0.1497091325454376
 40
0.1497091325454376
 40
0.1497091325454376
 40
0.1756216189933811
 40
0.1756216189933811
 40
0.1756216189933811
 40
0.2015289691594906
 40
0.2015289691594906
 40
0.2015289691594906
 40
0.2542557077563073
 40
0.2542557077563073
 40
0.2542557077563073
 40
0.2829423702930038
 40
0.2829423702930038
 40
0.2829423702930038
 40
0.3114192657211188
 40
0.3114192657211188
 40
0.3114192657211188
 40
0.339410277383173
 40
0.339410277383173
 40
0.339410277383173
 40
0.3667513412538338
 40
0.3667513412538338
 40
0.3667513412538338
 40
0.3933458457220848
 40
0.3933458457220848
 40
0.3933458457220848
 40
0.419174095973981
 40
0.419174095973981
 40
0.419174095973981
 40
0.4442929086261517
 40
0.4442929086261517
 40
0.4442929086261517
 40
0.4688271813066922
 40
0.4688271813066922
 40
0.4688271813066922
 40
0.4929565285213693
 40
0.4929565285213693
 40
0.4929565285213693
 40
0.5169000492232417
 40
0.5169000492232417
 40
0.5169000492232417
 40
0.5408431996208198
 40
0.5408431996208198
 40
0.5408431996208198
 40
0.5647831273438468
 40
0.5647831273438468
 40
0.5647831273438468
 40
0.6136054938199091
 40
0.6136054938199091
 40
0.6136054938199091
 40
0.6388003257339011
 40
0.6388003257339011
 40
0.6388003257339011
 40
0.663986461039832
 40
0.663986461039832
 40
0.663986461039832
 40
0.6891652716519008
 40
0.6891652716519008
 40
0.6891652716519008
 40
0.7403364578313922
 40
0.7403364578313922
 40
0.7403364578313922
 40
0.7693509903564473
 40
0.7693509903564473
 40
0.7693509903564473
 40
0.7983679442431116
 40
0.7983679442431116
 40
0.7983679442431116
 40
0.8268571553306019
 40
0.8268571553306019
 40
0.8268571553306019
 40
0.854494739478506
 40
0.854494739478506
 40
0.854494739478506
 40
0.8811819774021129
 40
0.8811819774021129
 40
0.8811819774021129
 40
0.9069502051701585
 40
0.9069502051701585
 40
0.9069502051701585
 40
0.9319323509868325
 40
0.9319323509868325
 40
0.9319323509868325
 40
0.9563286066643625
 40
0.9563286066643625
 40
0.9563286066643625
 40
0.9779119522047083
 40
0.9779119522047083
 40
0.9779119522047083
 40
1.0
 40
1.0
 40
1.0
 40
1.0
 10
82.66738308010339
 20
402.7691804050124
 30
0.0
 10
82.66721044341169
 20
402.645171639298
 30
0.0
 10
82.64395899165393
 20
402.5197125380797
 30
0.0
 10
82.6001762344997
 20
402.4031932727355
 30
0.0
 10
82.5785306262657
 20
402.3455877098773
 30
0.0
 10
82.551770222899
 20
402.2895292165549
 30
0.0
 10
82.5205357963358
 20
402.2360630900349
 30
0.0
 10
82.45747309358497
 20
402.1281143035523
 30
0.0
 10
82.37470437524568
 20
402.028928638549
 30
0.0
 10
82.2791412725577
 20
401.9450309046458
 30
0.0
 10
82.22878289146678
 20
401.9008197610378
 30
0.0
 10
82.17444989655576
 20
401.8603430102129
 30
0.0
 10
82.11726101652629
 20
401.8242495120572
 30
0.0
 10
82.06008118187681
 20
401.7881617226932
 30
0.0
 10
81.99969457916279
 20
401.756230110872
 30
0.0
 10
81.93724835659899
 20
401.7289249909475
 30
0.0
 10
81.87480970913545
 20
401.7016231832974
 30
0.0
 10
81.80994312805386
 20
401.6787831056369
 30
0.0
 10
81.74380507411932
 20
401.6607192031506
 30
0.0
 10
81.61037199117084
 20
401.6242754002951
 30
0.0
 10
81.46939869513373
 20
401.6069360196964
 30
0.0
 10
81.33044734507298
 20
401.6096092959323
 30
0.0
 10
81.25423393636662
 20
401.6110755608824
 30
0.0
 10
81.17788854694044
 20
401.6184913419474
 30
0.0
 10
81.10297924449188
 20
401.6317383712792
 30
0.0
 10
81.02861714963922
 20
401.6448886319208
 30
0.0
 10
80.95516112503543
 20
401.6638761434928
 30
0.0
 10
80.88414490553453
 20
401.6883938867348
 30
0.0
 10
80.81433759630654
 20
401.7124942640304
 30
0.0
 10
80.74641176170036
 20
401.7421038832767
 30
0.0
 10
80.68181764328055
 20
401.7767323068252
 30
0.0
 10
80.61871995997143
 20
401.8105585027084
 30
0.0
 10
80.55837346733306
 20
401.8494051645529
 30
0.0
 10
80.50210659797628
 20
401.8926068681042
 30
0.0
 10
80.44737262818995
 20
401.9346316113311
 30
0.0
 10
80.39612970525792
 20
401.9810637800728
 30
0.0
 10
80.34954771687819
 20
402.0310760405339
 30
0.0
 10
80.30430484295141
 20
402.0796505748881
 30
0.0
 10
80.26315489698486
 20
402.1319323158676
 30
0.0
 10
80.22707541680302
 20
402.186950625442
 30
0.0
 10
80.1919847262706
 20
402.240461110215
 30
0.0
 10
80.16145557563495
 20
402.2969229663201
 30
0.0
 10
80.13624381905208
 20
402.3552467612008
 30
0.0
 10
80.11161745458422
 20
402.4122163351042
 30
0.0
 10
80.09190008794195
 20
402.4713483199857
 30
0.0
 10
80.07760243377983
 20
402.5314645044494
 30
0.0
 10
80.06354022932321
 20
402.5905907126717
 30
0.0
 10
80.05462712529348
 20
402.6510699288735
 30
0.0
 10
80.05111206567463
 20
402.7116696364822
 30
0.0
 10
80.04762401641712
 20
402.7718036848483
 30
0.0
 10
80.04942858133708
 20
402.8324653156525
 30
0.0
 10
80.05650358829253
 20
402.8924052805681
 30
0.0
 10
80.06357856382083
 20
402.9523449792306
 30
0.0
 10
80.075971855747
 20
403.0119710303968
 30
0.0
 10
80.09339076444694
 20
403.0700653987218
 30
0.0
 10
80.11080834796037
 20
403.1281553473743
 30
0.0
 10
80.13336565862953
 20
403.1851039946031
 30
0.0
 10
80.16052787255475
 20
403.2397972516156
 30
0.0
 10
80.21538330148685
 20
403.3502529781397
 30
0.0
 10
80.2903960065687
 20
403.4534009775394
 30
0.0
 10
80.37902731455333
 20
403.5420664315429
 30
0.0
 10
80.42519892747103
 20
403.5882558324951
 30
0.0
 10
80.475437545712
 20
403.6310469397703
 30
0.0
 10
80.52868402805358
 20
403.6697545108162
 30
0.0
 10
80.5819194204636
 20
403.7084540200279
 30
0.0
 10
80.63848060277952
 20
403.7433091537495
 30
0.0
 10
80.69728902590428
 20
403.7738299668311
 30
0.0
 10
80.75608705200543
 20
403.8043453839916
 30
0.0
 10
80.81746419632086
 20
403.8307045084549
 30
0.0
 10
80.88035346702598
 20
403.8525792942644
 30
0.0
 10
81.00714083226926
 20
403.8966797652501
 30
0.0
 10
81.14216191562659
 20
403.9230205739364
 30
0.0
 10
81.27687922270442
 20
403.9304390980092
 30
0.0
 10
81.35381702392061
 20
403.9346758582504
 30
0.0
 10
81.43137979011438
 20
403.932857797322
 30
0.0
 10
81.50800698666879
 20
403.9250108947534
 30
0.0
 10
81.5846375440611
 20
403.9171636480228
 30
0.0
 10
81.66085406225265
 20
403.9032322181326
 30
0.0
 10
81.73507872792258
 20
403.8834172630481
 30
0.0
 10
81.8079556207442
 20
403.8639621082834
 30
0.0
 10
81.87940843514565
 20
403.8387005444073
 30
0.0
 10
81.9479107545128
 20
403.8080158467339
 30
0.0
 10
82.0143700186515
 20
403.7782463083221
 30
0.0
 10
82.07850139644783
 20
403.7431680810982
 30
0.0
 10
82.13888656239307
 20
403.7033483615206
 30
0.0
 10
82.19720000886895
 20
403.6648947934972
 30
0.0
 10
82.25241132748262
 20
403.6217575869081
 30
0.0
 10
82.30325380655064
 20
403.5746830316756
 30
0.0
 10
82.35234937558323
 20
403.5292259233982
 30
0.0
 10
82.39769923512735
 20
403.4797893072648
 30
0.0
 10
82.43822847197187
 20
403.427283040378
 30
0.0
 10
82.4775240818123
 20
403.3763749567722
 30
0.0
 10
82.51255020821003
 20
403.3222370453088
 30
0.0
 10
82.54245697991239
 20
403.2659171436137
 30
0.0
 10
82.57166392626065
 20
403.2109151406052
 30
0.0
 10
82.59618341688855
 20
403.1534601167558
 30
0.0
 10
82.61541520582806
 20
403.094704871547
 30
0.0
 10
82.63244151381492
 20
403.0426876149145
 30
0.0
 10
82.64542676874909
 20
402.9893527765935
 30
0.0
 10
82.65411869988414
 20
402.9355811704245
 30
0.0
 10
82.66301254650645
 20
402.8805604379232
 30
0.0
 10
82.66746046394695
 20
402.8247669366563
 30
0.0
 10
82.66738308010339
 20
402.7691804050124
 30
0.0
  0
CIRCLE
  5
D1
330
75
100
AcDbEntity
  8
400564040_HEBEL_
  6
Continuous
 62
     7
100
AcDbCircle
 10
81.3615151153
 20
402.7691804104
 30
0.0
 40
0.739951892073592
  0
ARC
  5
D2
330
75
100
AcDbEntity
  8
400564040_HEBEL_
  6
Continuous
 62
     7
100
AcDbCircle
 10
179.1008600258
 20
317.1485183254
 30
0.0
 40
114.2043009618947
100
AcDbArc
 50
182.0158338784
 51
183.4672363376
  0
ARC
  5
D3
330
75
100
AcDbEntity
  8
400564040_HEBEL_
  6
Continuous
 62
     7
100
AcDbCircle
 10
-13.1194008673
 20
317.3141943733
 30
0.0
 40
110.9394235167833
100
AcDbArc
 50
356.3449865839
 51
357.8113570594
  0
SPLINE
  5
D4
330
75
100
AcDbEntity
  8
400564040_HEBEL_
  6
Continuous
 62
     7
100
AcDbSpline
210
0.0
220
0.0
230
1.0
 70
     8
 71
     3
 72
    42
 73
    38
 74
     0
 42
0.0000000001716531
 43
0.0000000001
 40
0.0
 40
0.0
 40
0.0
 40
0.0
 40
0.037471584522595
 40
0.0797696245576602
 40
0.1193231321031804
 40
0.1561944486429664
 40
0.190539010832518
 40
0.2222770190405649
 40
0.2514715441912459
 40
0.2782489676864375
 40
0.3025302802731953
 40
0.3343893109878882
 40
0.3608979007490096
 40
0.3821893155459971
 40
0.3990719417595935
 40
0.4169944076235021
 40
0.4367930646777676
 40
0.4660853324196428
 40
0.4986867712757555
 40
0.5343431190245497
 40
0.5610136515453972
 40
0.5872693606323216
 40
0.6130459911638705
 40
0.6382979887397321
 40
0.6710167439671414
 40
0.699338796875093
 40
0.7225054264738527
 40
0.7339036099399658
 40
0.7457103297008318
 40
0.7619964572344738
 40
0.7828303277356683
 40
0.8082971967434334
 40
0.8384819259235542
 40
0.8733276009059234
 40
0.9130398149413614
 40
0.9578119219354808
 40
1.0
 40
1.0
 40
1.0
 40
1.0
 10
65.10601691487764
 20
310.2385460762928
 30
0.0
 10
65.16817070028098
 20
309.4633479111758
 30
0.0
 10
65.27867069297156
 20
308.0705560771408
 30
0.0
 10
65.46962827141937
 20
305.7812775181096
 30
0.0
 10
65.6299798417123
 20
303.5570966209186
 30
0.0
 10
66.0987514698825
 20
301.5051818519745
 30
0.0
 10
66.770292391274
 20
299.6653333092181
 30
0.0
 10
67.60079025006912
 20
298.0412694296415
 30
0.0
 10
68.53416423995064
 20
296.6334791605849
 30
0.0
 10
69.52390461680046
 20
295.4335294555387
 30
0.0
 10
70.66697344072391
 20
294.2902477132569
 30
0.0
 10
71.93001537727038
 20
293.2677768725526
 30
0.0
 10
73.25611069403668
 20
292.41629383459
 30
0.0
 10
74.39593832178048
 20
291.8214418847799
 30
0.0
 10
75.4220684964459
 20
291.3758931428845
 30
0.0
 10
76.4502288493111
 20
291.0076183936887
 30
0.0
 10
77.74429433798421
 20
290.6443141707139
 30
0.0
 10
79.36257172437337
 20
290.3468866599344
 30
0.0
 10
81.32772701787863
 20
290.2166332563953
 30
0.0
 10
83.24228230448163
 20
290.334634719577
 30
0.0
 10
84.99716712841202
 20
290.6502350695337
 30
0.0
 10
86.51618692458084
 20
291.0820738690066
 30
0.0
 10
87.95328807424227
 20
291.6464275254166
 30
0.0
 10
89.43713638083415
 20
292.3997978646793
 30
0.0
 10
90.86513974524122
 20
293.3321985720492
 30
0.0
 10
92.13521742252844
 20
294.3861040685911
 30
0.0
 10
92.99747411129692
 20
295.2552123678274
 30
0.0
 10
93.5881934224963
 20
295.9322670675877
 30
0.0
 10
94.06464039694927
 20
296.5292162921629
 30
0.0
 10
94.61397605799151
 20
297.2966693771152
 30
0.0
 10
95.24478680254138
 20
298.3209745151124
 30
0.0
 10
95.90335977059493
 20
299.6290289736779
 30
0.0
 10
96.51383336033732
 20
301.2411549717169
 30
0.0
 10
97.00744341880345
 20
303.1733686676964
 30
0.0
 10
97.21058745421925
 20
305.4110622009935
 30
0.0
 10
97.39999309609956
 20
307.8449023940964
 30
0.0
 10
97.52365729375464
 20
309.3643038727851
 30
0.0
 10
97.5939159728832
 20
310.2385196888752
 30
0.0
  0
SPLINE
  5
D5
330
75
100
AcDbEntity
  8
400564040_HEBEL_
  6
Continuous
 62
     7
100
AcDbSpline
210
0.0
220
0.0
230
1.0
 70
     8
 71
     3
 72
    46
 73
    42
 74
     0
 42
0.0000000001105187
 43
0.0000000001
 40
0.0026677498695363
 40
0.0026677498695363
 40
0.0026677498695363
 40
0.0026677498695363
 40
0.0215322142206581
 40
0.0386384592504684
 40
0.0512616029859488
 40
0.0601633536744114
 40
0.0663620474084192
 40
0.0732737754897484
 40
0.0809041599532991
 40
0.0892499037137461
 40
0.0983075616456762
 40
0.1080805624576603
 40
0.1185724100316016
 40
0.1623330498099767
 40
0.2059086846077446
 40
0.2492740495574342
 40
0.292013314787067
 40
0.3340371178150319
 40
0.3752892837435061
 40
0.4158223007415257
 40
0.4565027243764095
 40
0.5130404700877782
 40
0.5717680762856914
 40
0.6312480958302013
 40
0.6875955907979844
 40
0.7027608666371608
 40
0.7176639585017296
 40
0.7309162735060427
 40
0.7412290665438303
 40
0.747264674380698
 40
0.7514823531310472
 40
0.7559692539781361
 40
0.76405629327426
 40
0.7776595753599599
 40
0.7959652651442994
 40
0.818979314120727
 40
0.8466628495368442
 40
0.8789802633836558
 40
0.915984932254403
 40
0.9575953678828147
 40
1.0
 40
1.0
 40
1.0
 40
1.0
 10
57.10708287262638
 20
402.7163316274045
 30
0.0
 10
57.22950105566407
 20
402.3462259718447
 30
0.0
 10
57.43537786305059
 20
401.7197356885163
 30
0.0
 10
57.74576900929196
 20
400.7192041084776
 30
0.0
 10
57.99503255561695
 20
399.8977094895424
 30
0.0
 10
58.17950129439597
 20
399.276452851433
 30
0.0
 10
58.33281948927757
 20
398.7526280165683
 30
0.0
 10
58.4775684497522
 20
398.2511894644209
 30
0.0
 10
58.6384432533217
 20
397.6853341427303
 30
0.0
 10
58.81479763400922
 20
397.0546027664098
 30
0.0
 10
59.00626082134421
 20
396.3571684482626
 30
0.0
 10
59.21189823390932
 20
395.5915176089461
 30
0.0
 10
59.6567166615672
 20
393.8914943180914
 30
0.0
 10
60.30528302066728
 20
391.2011207669927
 30
0.0
 10
61.0505834835857
 20
387.4567787242125
 30
0.0
 10
61.66535224562754
 20
383.6189594215459
 30
0.0
 10
62.08957472708406
 20
379.7343363387901
 30
0.0
 10
62.39480138503528
 20
375.855236831206
 30
0.0
 10
62.64383770260741
 20
372.0114748271016
 30
0.0
 10
62.86451597581409
 20
368.1894070491645
 30
0.0
 10
63.09979639910351
 20
363.8765630170433
 30
0.0
 10
63.35765605702788
 20
358.9803445705556
 30
0.0
 10
63.628733748675
 20
353.4980931145587
 30
0.0
 10
63.87034572276382
 20
348.0206383291643
 30
0.0
 10
64.03205825665529
 20
343.9071622118747
 30
0.0
 10
64.13292855485898
 20
341.1926452752389
 30
0.0
 10
64.1822784586441
 20
339.8316362361954
 30
0.0
 10
64.22515737203337
 20
338.6229322378531
 30
0.0
 10
64.25756270439781
 20
337.6927652429491
 30
0.0
 10
64.27979935324
 20
337.0464221556684
 30
0.0
 10
64.2956128413863
 20
336.5831323743959
 30
0.0
 10
64.31351429492841
 20
336.0551277510368
 30
0.0
 10
64.34115636495608
 20
335.2318684209432
 30
0.0
 10
64.38270444251755
 20
333.9738753703148
 30
0.0
 10
64.43843380376387
 20
332.2462275810945
 30
0.0
 10
64.50646779178419
 20
330.0752139311614
 30
0.0
 10
64.58563937054444
 20
327.4640344363725
 30
0.0
 10
64.67480766693411
 20
324.4076026191422
 30
0.0
 10
64.77128444899107
 20
320.933691411434
 30
0.0
 10
64.87555524414138
 20
317.0489691218376
 30
0.0
 10
64.93270678867385
 20
314.5984357838364
 30
0.0
 10
64.96685548790295
 20
313.1298700647702
 30
0.0
  0
SPLINE
  5
D6
330
75
100
AcDbEntity
  8
400564040_HEBEL_
  6
Continuous
 62
     7
100
AcDbSpline
210
0.0
220
0.0
230
1.0
 70
     8
 71
     3
 72
    47
 73
    43
 74
     0
 42
0.0000000001105427
 43
0.0000000001
 40
0.0
 40
0.0
 40
0.0
 40
0.0
 40
0.0310130140776623
 40
0.0618862851627523
 40
0.0888491682889436
 40
0.1118992512956605
 40
0.1309896220054417
 40
0.1638773142010006
 40
0.1985680154255976
 40
0.2164118798923799
 40
0.2310948628916232
 40
0.242170412223096
 40
0.2526817006258807
 40
0.2667937036611466
 40
0.2844675647185686
 40
0.3031384960770325
 40
0.3588665913288314
 40
0.4119226956085647
 40
0.464017057814097
 40
0.5160392352389933
 40
0.5634200534887384
 40
0.6102162423186508
 40
0.6571241506196688
 40
0.7041464369140726
 40
0.7511807294854066
 40
0.7754940494103577
 40
0.8008901227443417
 40
0.8272945948483769
 40
0.8530190576328185
 40
0.875124028989053
 40
0.8870580290622726
 40
0.8995700055155516
 40
0.914165143064793
 40
0.9307868903987531
 40
0.9389619915518486
 40
0.9465506456556312
 40
0.9535590565810882
 40
0.9599994738519477
 40
0.9659284055662302
 40
0.97387623533373
 40
0.9852181450863619
 40
1.0
 40
1.0
 40
1.0
 40
1.0
 10
97.73931340755742
 20
313.0760240879125
 30
0.0
 10
97.76400187017498
 20
314.1511022103915
 30
0.0
 10
97.80566798212973
 20
315.9582321561407
 30
0.0
 10
97.8794311669734
 20
318.8135809949491
 30
0.0
 10
97.94796163241386
 20
321.3490481567918
 30
0.0
 10
98.00841825069426
 20
323.52843748317
 30
0.0
 10
98.07583884260838
 20
325.8907868992563
 30
0.0
 10
98.15645160904067
 20
328.6200437779631
 30
0.0
 10
98.23938046407308
 20
331.3090391138809
 30
0.0
 10
98.30700770619573
 20
333.4246412320038
 30
0.0
 10
98.35192705668081
 20
334.7967984887189
 30
0.0
 10
98.39002206142479
 20
335.9380534387548
 30
0.0
 10
98.42813908222057
 20
337.0610515372986
 30
0.0
 10
98.47416243446116
 20
338.3913742082329
 30
0.0
 10
98.53041323507229
 20
339.9781155296759
 30
0.0
 10
98.63601722998239
 20
342.8730557437798
 30
0.0
 10
98.79101902707394
 20
346.8786238733132
 30
0.0
 10
99.00727081624558
 20
351.9314879094107
 30
0.0
 10
99.24361534747645
 20
356.8641149740081
 30
0.0
 10
99.48805802112157
 20
361.6218190066156
 30
0.0
 10
99.73504179360238
 20
366.2094891783025
 30
0.0
 10
99.98047784671132
 20
370.623754002013
 30
0.0
 10
100.2527784376677
 20
375.0061205471512
 30
0.0
 10
100.5803373355683
 20
379.3598107696028
 30
0.0
 10
100.9654061703187
 20
382.956625487319
 30
0.0
 10
101.3957351633096
 20
385.8364712252248
 30
0.0
 10
101.7842531726322
 20
388.0656530998556
 30
0.0
 10
102.2231516940405
 20
390.2900897769825
 30
0.0
 10
102.685770486684
 20
392.3696682141154
 30
0.0
 10
103.0834660776066
 20
394.0009032276389
 30
0.0
 10
103.403425078895
 20
395.2434854921253
 30
0.0
 10
103.6752300750002
 20
396.2642576209024
 30
0.0
 10
103.981712945004
 20
397.3792930937274
 30
0.0
 10
104.2584060319016
 20
398.3535534957524
 30
0.0
 10
104.4847751452431
 20
399.1299545266074
 30
0.0
 10
104.642771513051
 20
399.6632761017088
 30
0.0
 10
104.7875377945154
 20
400.1446250591048
 30
0.0
 10
104.9191015241514
 20
400.5756053607422
 30
0.0
 10
105.0569773687341
 20
401.0210530646875
 30
0.0
 10
105.2153356279827
 20
401.5242096092011
 30
0.0
 10
105.4212991442933
 20
402.1742411873412
 30
0.0
 10
105.5605052189229
 20
402.595455908907
 30
0.0
 10
105.6536782104199
 20
402.8770992469371
 30
0.0
  0
ENDBLK
  5
D8
330
75
100
AcDbEntity
  8
0
100
AcDbBlockEnd
  0
BLOCK
  5
13B
330
D9
100
AcDbEntity
  8
0
100
AcDbBlockBegin
  2
SE1
 70
     0
 10
0.0
 20
0.0
 30
0.0
  3
SE1
  1

  0
LINE
  5
DB
330
D9
100
AcDbEntity
  8
02284038_ROSETTE
  6
Continuous
 62
     7
100
AcDbLine
 10
252.0586751163
 20
349.3662099945
 30
0.0
 11
252.0586751163
 21
499.3061859753
 31
0.0
  0
SPLINE
  5
DC
330
D9
100
AcDbEntity
  8
02284038_ROSETTE
  6
Continuous
 62
     7
100
AcDbSpline
210
0.0
220
0.0
230
1.0
 70
     8
 71
     3
 72
    10
 73
     6
 74
     0
 42
0.000000001664899
 43
0.0000000001
 40
0.5002192235732257
 40
0.5002192235732257
 40
0.5002192235732257
 40
0.5002192235732257
 40
0.75
 40
0.75
 40
1.0
 40
1.0
 40
1.0
 40
1.0
 10
255.0586750875609
 20
349.4634093160404
 30
0.0
 10
255.0586521838952
 20
349.4634115184051
 30
0.0
 10
254.7404103228104
 20
349.460903417551
 30
0.0
 10
253.6211895372895
 20
349.4339557924679
 30
0.0
 10
252.8505479365988
 20
349.4077435306087
 30
0.0
 10
252.058675116261
 20
349.3662099944898
 30
0.0
  0
LINE
  5
DD
330
D9
100
AcDbEntity
  8
02284038_ROSETTE
  6
Continuous
 62
     7
100
AcDbLine
 10
265.056211038
 20
364.0125251692
 30
0.0
 11
265.056211038
 21
484.5998467813
 31
0.0
  0
ARC
  5
DE
330
D9
100
AcDbEntity
  8
02284038_ROSETTE
  6
Continuous
 62
     7
100
AcDbCircle
 10
257.5989418404
 20
352.0999699159
 30
0.0
 40
2.499999999999572
100
AcDbArc
 50
273.0
 51
315.7733838776
  0
ARC
  5
DF
330
D9
100
AcDbEntity
  8
02284038_ROSETTE
  6
Continuous
 62
     7
100
AcDbCircle
 10
257.5989418404
 20
496.5124020346
 30
0.0
 40
2.499999999999575
100
AcDbArc
 50
44.2266161224
 51
87.0
  0
ARC
  5
E0
330
D9
100
AcDbEntity
  8
02284038_ROSETTE
  6
Continuous
 62
     7
100
AcDbCircle
 10
245.0586751163
 20
364.3061859753
 30
0.0
 40
19.99999999999979
100
AcDbArc
 50
315.7733838776
 51
359.0384963119
  0
ARC
  5
E1
330
D9
100
AcDbEntity
  8
02284038_ROSETTE
  6
Continuous
 62
     7
100
AcDbCircle
 10
245.0586751163
 20
484.3061859753
 30
0.0
 40
19.99999999999961
100
AcDbArc
 50
0.9615036881
 51
44.2266161224
  0
LINE
  5
E2
330
D9
100
AcDbEntity
  8
02284038_ROSETTE
  6
Continuous
 62
     7
100
AcDbLine
 10
255.0203503052
 20
349.4614007949
 30
0.0
 11
257.729781731
 21
349.603396079
 31
0.0
  0
LINE
  5
E3
330
D9
100
AcDbEntity
  8
02284038_ROSETTE
  6
Continuous
 62
     7
100
AcDbLine
 10
257.729781731
 20
499.0089758715
 30
0.0
 11
252.0586751163
 21
499.3061859753
 31
0.0
  0
ARC
  5
E5
330
D9
100
AcDbEntity
  8
02693038_KAPPE__
  6
Continuous
 62
     7
100
AcDbCircle
 10
276.1586751163
 20
411.3061859753
 30
0.0
 40
25.87500000000042
100
AcDbArc
 50
67.4818754966
 51
89.5
  0
ARC
  5
E6
330
D9
100
AcDbEntity
  8
02693038_KAPPE__
  6
Continuous
 62
     7
100
AcDbCircle
 10
276.1586751163
 20
411.3061859753
 30
0.0
 40
25.87500000000077
100
AcDbArc
 50
270.5
 51
292.5002162888
  0
LINE
  5
E7
330
D9
100
AcDbEntity
  8
02693038_KAPPE__
  6
Continuous
 62
     7
100
AcDbLine
 10
276.3844742223
 20
437.1802007346
 30
0.0
 11
265.056211038
 21
437.2790609897
 31
0.0
  0
LINE
  5
E8
330
D9
100
AcDbEntity
  8
02693038_KAPPE__
  6
Continuous
 62
     7
100
AcDbLine
 10
265.056211038
 20
385.3333109609
 30
0.0
 11
276.3844742223
 21
385.432171216
 31
0.0
  0
ARC
  5
E9
330
D9
100
AcDbEntity
  8
400564040_HEBEL_
  6
Continuous
 62
     7
100
AcDbCircle
 10
339.4906891351
 20
313.2752493323
 30
0.0
 40
9.829129466713589
100
AcDbArc
 50
189.3084280816
 51
189.47368591
  0
ARC
  5
EA
330
D9
100
AcDbEntity
  8
400564040_HEBEL_
  6
Continuous
 62
     7
100
AcDbCircle
 10
296.9504441947
 20
366.7141679669
 30
0.0
 40
16.6302989982695
100
AcDbArc
 50
71.3448792803
 51
96.3043694519
  0
LINE
  5
EB
330
D9
100
AcDbEntity
  8
400564040_HEBEL_
  6
Continuous
 62
     7
100
AcDbLine
 10
286.0586751163
 20
411.0591327856
 30
0.0
 11
286.0586751163
 21
383.8800949992
 31
0.0
  0
LINE
  5
EC
330
D9
100
AcDbEntity
  8
400564040_HEBEL_
  6
Continuous
 62
     7
100
AcDbLine
 10
286.0586751163
 20
411.0591320709
 30
0.0
 11
286.0586751163
 21
412.0340069917
 31
0.0
  0
LINE
  5
ED
330
D9
100
AcDbEntity
  8
400564040_HEBEL_
  6
Continuous
 62
     7
100
AcDbLine
 10
286.0586751163
 20
438.6321016677
 30
0.0
 11
286.0586751163
 21
412.0340055333
 31
0.0
  0
SPLINE
  5
EE
330
D9
100
AcDbEntity
  8
400564040_HEBEL_
  6
Continuous
 62
     7
100
AcDbSpline
210
0.0
220
0.0
230
1.0
 70
    11
 71
     3
 72
    62
 73
    58
 74
     0
 42
0.0000000023819223
 43
0.0000000001
 40
0.0
 40
0.0
 40
0.0
 40
0.0
 40
0.0593697429359833
 40
0.0593697429359833
 40
0.0593697429359833
 40
0.1185654632358699
 40
0.1185654632358699
 40
0.1185654632358699
 40
0.1805748260955036
 40
0.1805748260955036
 40
0.1805748260955036
 40
0.2417435659755387
 40
0.2417435659755387
 40
0.2417435659755387
 40
0.297900424760654
 40
0.297900424760654
 40
0.297900424760654
 40
0.3481294746752032
 40
0.3481294746752032
 40
0.3481294746752032
 40
0.3949443195855777
 40
0.3949443195855777
 40
0.3949443195855777
 40
0.4417197539420549
 40
0.4417197539420549
 40
0.4417197539420549
 40
0.4911078139626541
 40
0.4911078139626541
 40
0.4911078139626541
 40
0.5446565492146946
 40
0.5446565492146946
 40
0.5446565492146946
 40
0.6025245728709657
 40
0.6025245728709657
 40
0.6025245728709657
 40
0.6631950961111261
 40
0.6631950961111261
 40
0.6631950961111261
 40
0.7237430010099102
 40
0.7237430010099102
 40
0.7237430010099102
 40
0.781060977296016
 40
0.781060977296016
 40
0.781060977296016
 40
0.8335622022394944
 40
0.8335622022394944
 40
0.8335622022394944
 40
0.8820085944014214
 40
0.8820085944014214
 40
0.8820085944014214
 40
0.9287780440163934
 40
0.9287780440163934
 40
0.9287780440163934
 40
0.9766044881691633
 40
0.9766044881691633
 40
0.9766044881691633
 40
1.0
 40
1.0
 40
1.0
 40
1.0
 10
321.5159962121047
 20
394.0317360868095
 30
0.0
 10
321.475717789126
 20
394.0317360868095
 30
0.0
 10
321.4296961456089
 20
394.0521839100053
 30
0.0
 10
321.3821776338697
 20
394.0898599274771
 30
0.0
 10
321.3347481432501
 20
394.1274653627453
 30
0.0
 10
321.2845365732015
 20
394.1831729503343
 30
0.0
 10
321.2355515660323
 20
394.2524911416328
 30
0.0
 10
321.1843187616973
 20
394.3249901681078
 30
0.0
 10
321.1329740865658
 20
394.4145078113374
 30
0.0
 10
321.0862940509074
 20
394.5141729550592
 30
0.0
 10
321.040311266686
 20
394.6123494181555
 30
0.0
 10
320.9974567888375
 20
394.7235778517989
 30
0.0
 10
320.9627125782647
 20
394.8377973414385
 30
0.0
 10
320.9308024374942
 20
394.9426999981126
 30
0.0
 10
320.9047812965397
 20
395.0535456212354
 30
0.0
 10
320.8880170392286
 20
395.1589353312789
 30
0.0
 10
320.8729881918816
 20
395.2534152616922
 30
0.0
 10
320.8649593491689
 20
395.3463450837593
 30
0.0
 10
320.8647933469088
 20
395.4287096774836
 30
0.0
 10
320.8646382882275
 20
395.505644445028
 30
0.0
 10
320.8712949318619
 20
395.5755184311167
 30
0.0
 10
320.883862802254
 20
395.632840186968
 30
0.0
 10
320.8964330331088
 20
395.6901727088328
 30
0.0
 10
320.9151883657673
 20
395.7365001561741
 30
0.0
 10
320.9382389524812
 20
395.7692262738709
 30
0.0
 10
320.9625770281879
 20
395.8037803067019
 30
0.0
 10
320.9922705717989
 20
395.8241122340449
 30
0.0
 10
321.0248202953322
 20
395.8299294521498
 30
0.0
 10
321.0600870933857
 20
395.8362322600962
 30
0.0
 10
321.0995683918683
 20
395.8257122718344
 30
0.0
 10
321.1403118154031
 20
395.8001209178637
 30
0.0
 10
321.1842900778639
 20
395.7724977290393
 30
0.0
 10
321.230881779579
 20
395.7266091669148
 30
0.0
 10
321.2767039539279
 20
395.6663177092248
 30
0.0
 10
321.3246803827956
 20
395.6031917473451
 30
0.0
 10
321.3731583875876
 20
395.5224745786537
 30
0.0
 10
321.4182975733783
 20
395.4305298430962
 30
0.0
 10
321.463297322839
 20
395.3388691276484
 30
0.0
 10
321.5063281810287
 20
395.2332220162379
 30
0.0
 10
321.543304477142
 20
395.1227306508196
 30
0.0
 10
321.5783037294528
 20
395.0181470233903
 30
0.0
 10
321.6089451008147
 20
394.9059000900871
 30
0.0
 10
321.6317103452899
 20
394.7968717026874
 30
0.0
 10
321.6525871661075
 20
394.696887443337
 30
0.0
 10
321.6674444849615
 20
394.5965434305364
 30
0.0
 10
321.6743354887933
 20
394.5057844873563
 30
0.0
 10
321.6807061780885
 20
394.4218784205667
 30
0.0
 10
321.6804455463775
 20
394.3437471325433
 30
0.0
 10
321.6734005058015
 20
394.2782834098074
 30
0.0
 10
321.6665892078688
 20
394.2149916637167
 30
0.0
 10
321.6532801513684
 20
394.1617957214238
 30
0.0
 10
321.634672086397
 20
394.1222791500523
 30
0.0
 10
321.6156316057545
 20
394.0818442895007
 30
0.0
 10
321.590599157689
 20
394.0546222560536
 30
0.0
 10
321.5616916300096
 20
394.0414491687669
 30
0.0
 10
321.5474174867199
 20
394.034944477754
 30
0.0
 10
321.5320939198663
 20
394.0317360868095
 30
0.0
 10
321.5159962121047
 20
394.0317360868095
 30
0.0
  0
SPLINE
  5
EF
330
D9
100
AcDbEntity
  8
400564040_HEBEL_
  6
Continuous
 62
     7
100
AcDbSpline
210
0.0
220
0.0
230
1.0
 70
     8
 71
     3
 72
    14
 73
    10
 74
     0
 42
0.0000000051210849
 43
0.0000000001
 40
0.4998774504979497
 40
0.4998774504979497
 40
0.4998774504979497
 40
0.4998774504979497
 40
0.5
 40
0.5
 40
0.7500000000000001
 40
0.7500000000000001
 40
0.875
 40
0.875
 40
1.0
 40
1.0
 40
1.0
 40
1.0
 10
322.0038197219238
 20
399.0077158012539
 30
0.0
 10
322.0038190621039
 20
399.0077180342065
 30
0.0
 10
322.003818374793
 20
399.007720344266
 30
0.0
 10
322.0023594366374
 20
399.0125926439453
 30
0.0
 10
321.8911031591208
 20
399.3241627499629
 30
0.0
 10
321.7580807361279
 20
399.5784732610708
 30
0.0
 10
321.7186865457429
 20
399.6256102290518
 30
0.0
 10
321.682652100962
 20
399.5477549531215
 30
0.0
 10
321.6794447329351
 20
399.4467289876266
 30
0.0
 10
321.6726746657694
 20
399.3415784883955
 30
0.0
  0
LINE
  5
F0
330
D9
100
AcDbEntity
  8
400564040_HEBEL_
  6
Continuous
 62
     7
100
AcDbLine
 10
321.6726746658
 20
399.3415784884
 30
0.0
 11
321.7508632013
 21
399.1958979664
 31
0.0
  0
SPLINE
  5
F1
330
D9
100
AcDbEntity
  8
400564040_HEBEL_
  6
Continuous
 62
     7
100
AcDbSpline
210
0.0
220
0.0
230
1.0
 70
     8
 71
     3
 72
    16
 73
    12
 74
     0
 42
0.0000000115980746
 43
0.0000000001
 40
0.0
 40
0.0
 40
0.0
 40
0.0
 40
0.25
 40
0.25
 40
0.3749999999999999
 40
0.3749999999999999
 40
0.4999999999999999
 40
0.4999999999999999
 40
0.7499999999999999
 40
0.7499999999999999
 40
1.0
 40
1.0
 40
1.0
 40
1.0
 10
321.7508632012966
 20
399.1958979664145
 30
0.0
 10
321.7568038752643
 20
399.2862051483696
 30
0.0
 10
321.7637833040525
 20
399.3599302097689
 30
0.0
 10
321.7993466466032
 20
399.3692574973662
 30
0.0
 10
321.8155928964368
 20
399.3537643354149
 30
0.0
 10
321.851998627787
 20
399.3004967854181
 30
0.0
 10
321.8722794212068
 20
399.2627752090411
 30
0.0
 10
321.934555192793
 20
399.1338156224178
 30
0.0
 10
321.9779938269902
 20
399.0267617299859
 30
0.0
 10
322.0465427896
 20
398.8484547260255
 30
0.0
 10
322.0725356674083
 20
398.7744418429035
 30
0.0
 10
322.0732250774435
 20
398.7716484299683
 30
0.0
  0
LINE
  5
F2
330
D9
100
AcDbEntity
  8
400564040_HEBEL_
  6
Continuous
 62
     7
100
AcDbLine
 10
321.1367202997
 20
401.7102705468
 30
0.0
 11
320.8155718589
 21
402.5616470506
 31
0.0
  0
LINE
  5
F3
330
D9
100
AcDbEntity
  8
400564040_HEBEL_
  6
Continuous
 62
     7
100
AcDbLine
 10
321.099222271
 20
401.7102705468
 30
0.0
 11
321.1367202997
 21
401.7102705468
 31
0.0
  0
LINE
  5
F4
330
D9
100
AcDbEntity
  8
400564040_HEBEL_
  6
Continuous
 62
     7
100
AcDbLine
 10
320.348397987
 20
403.8322410989
 30
0.0
 11
320.2503971658
 21
403.8322410989
 31
0.0
  0
LINE
  5
F5
330
D9
100
AcDbEntity
  8
400564040_HEBEL_
  6
Continuous
 62
     7
100
AcDbLine
 10
320.4515552337
 20
403.4266063029
 30
0.0
 11
320.4834461413
 21
403.4266063029
 31
0.0
  0
SPLINE
  5
F6
330
D9
100
AcDbEntity
  8
400564040_HEBEL_
  6
Continuous
 62
     7
100
AcDbSpline
210
0.0
220
0.0
230
1.0
 70
     8
 71
     3
 72
    18
 73
    14
 74
     0
 42
0.0000000136620759
 43
0.0000000001
 40
0.0
 40
0.0
 40
0.0
 40
0.0
 40
0.2500000000000047
 40
0.2500000000000047
 40
0.3750000000000041
 40
0.3750000000000041
 40
0.5000000000000036
 40
0.5000000000000036
 40
0.625000000000003
 40
0.625000000000003
 40
0.7500000000000029
 40
0.7500000000000029
 40
1.0
 40
1.0
 40
1.0
 40
1.0
 10
320.6321489917464
 20
403.1676039621137
 30
0.0
 10
320.5992782887789
 20
403.2625881811005
 30
0.0
 10
320.5654196280162
 20
403.3575405326779
 30
0.0
 10
320.5172769831868
 20
403.4860924768033
 30
0.0
 10
320.5018611398833
 20
403.5261213875322
 30
0.0
 10
320.4715440492764
 20
403.6034837281986
 30
0.0
 10
320.4566744006181
 20
403.6405991174988
 30
0.0
 10
320.4305375566334
 20
403.7022997128896
 30
0.0
 10
320.4189443806282
 20
403.727692993713
 30
0.0
 10
320.3985059967396
 20
403.7695256063856
 30
0.0
 10
320.3896005822169
 20
403.7860992389152
 30
0.0
 10
320.3662028362747
 20
403.8245722218472
 30
0.0
 10
320.3553774728796
 20
403.8345451037679
 30
0.0
 10
320.348397987009
 20
403.8322410989308
 30
0.0
  0
LINE
  5
F7
330
D9
100
AcDbEntity
  8
400564040_HEBEL_
  6
Continuous
 62
     7
100
AcDbLine
 10
320.2503971658
 20
403.8322410989
 30
0.0
 11
320.9747772557
 21
401.7102705468
 31
0.0
  0
LINE
  5
F8
330
D9
100
AcDbEntity
  8
400564040_HEBEL_
  6
Continuous
 62
     7
100
AcDbLine
 10
320.9747772557
 20
401.7102705468
 30
0.0
 11
321.0322489767
 21
401.7102705468
 31
0.0
  0
LINE
  5
F9
330
D9
100
AcDbEntity
  8
400564040_HEBEL_
  6
Continuous
 62
     7
100
AcDbLine
 10
321.0322489767
 20
401.7102705468
 30
0.0
 11
320.4515552337
 21
403.4266063029
 31
0.0
  0
LINE
  5
FA
330
D9
100
AcDbEntity
  8
400564040_HEBEL_
  6
Continuous
 62
     7
100
AcDbLine
 10
320.3888692901
 20
403.4266063029
 30
0.0
 11
320.4515552337
 21
403.4266063029
 31
0.0
  0
SPLINE
  5
FB
330
D9
100
AcDbEntity
  8
400564040_HEBEL_
  6
Continuous
 62
     7
100
AcDbSpline
210
0.0
220
0.0
230
1.0
 70
     8
 71
     3
 72
    12
 73
     8
 74
     0
 42
0.0000000269841386
 43
0.0000000001
 40
0.0
 40
0.0
 40
0.0
 40
0.0
 40
0.2499999999999986
 40
0.2499999999999986
 40
0.4999999999999972
 40
0.4999999999999972
 40
1.0
 40
1.0
 40
1.0
 40
1.0
 10
320.4834461412893
 20
403.4266063029193
 30
0.0
 10
320.4867468637086
 20
403.427898211314
 30
0.0
 10
320.4926338041878
 20
403.4214311488136
 30
0.0
 10
320.5100499293982
 20
403.3901909777234
 30
0.0
 10
320.5214725875227
 20
403.3658283720549
 30
0.0
 10
320.563006944465
 20
403.2641872916462
 30
0.0
 10
320.5950718707194
 20
403.1768022346419
 30
0.0
 10
320.6253304977103
 20
403.0891355086439
 30
0.0
  0
SPLINE
  5
FC
330
D9
100
AcDbEntity
  8
400564040_HEBEL_
  6
Continuous
 62
     7
100
AcDbSpline
210
0.0
220
0.0
230
1.0
 70
     8
 71
     3
 72
    12
 73
     8
 74
     0
 42
0.0000000281694516
 43
0.0000000001
 40
0.0
 40
0.0
 40
0.0
 40
0.0
 40
0.25
 40
0.25
 40
0.5
 40
0.5
 40
1.0
 40
1.0
 40
1.0
 40
1.0
 10
320.6253304977103
 20
403.0891355086439
 30
0.0
 10
320.6393386935926
 20
403.0485286493493
 30
0.0
 10
320.6528129324623
 20
403.0085096526329
 30
0.0
 10
320.6779243530442
 20
402.930544821984
 30
0.0
 10
320.6894896138658
 20
402.8928129309518
 30
0.0
 10
320.7191190897544
 20
402.7904873622742
 30
0.0
 10
320.7243229833002
 20
402.7557597384418
 30
0.0
 10
320.7187319928921
 20
402.7518982933495
 30
0.0
  0
LINE
  5
FD
330
D9
100
AcDbEntity
  8
400564040_HEBEL_
  6
Continuous
 62
     7
100
AcDbLine
 10
320.7187319929
 20
402.7518982933
 30
0.0
 11
320.6910720376
 21
402.7518982933
 31
0.0
  0
LINE
  5
FE
330
D9
100
AcDbEntity
  8
400564040_HEBEL_
  6
Continuous
 62
     7
100
AcDbLine
 10
320.6910720376
 20
402.7518982933
 30
0.0
 11
321.099222271
 21
401.7102705468
 31
0.0
  0
ARC
  5
FF
330
D9
100
AcDbEntity
  8
400564040_HEBEL_
  6
Continuous
 62
     7
100
AcDbCircle
 10
315.7597669787
 20
401.3619967957
 30
0.0
 40
5.196183572632623
100
AcDbArc
 50
13.3483810191
 51
20.3336965062
  0
LINE
  5
100
330
D9
100
AcDbEntity
  8
400564040_HEBEL_
  6
Continuous
 62
     7
100
AcDbLine
 10
320.7656198685
 20
402.5616470506
 30
0.0
 11
320.8155718589
 21
402.5616470506
 31
0.0
  0
LINE
  5
101
330
D9
100
AcDbEntity
  8
400564040_HEBEL_
  6
Continuous
 62
     7
100
AcDbLine
 10
320.5975875453
 20
403.1676039621
 30
0.0
 11
320.6321489917
 21
403.1676039621
 31
0.0
  0
SPLINE
  5
102
330
D9
100
AcDbEntity
  8
400564040_HEBEL_
  6
Continuous
 62
     7
100
AcDbSpline
210
0.0
220
0.0
230
1.0
 70
     8
 71
     3
 72
    16
 73
    12
 74
     0
 42
0.0000000076534133
 43
0.0000000001
 40
0.0
 40
0.0
 40
0.0
 40
0.0
 40
0.2499999999999999
 40
0.2499999999999999
 40
0.3749999999999987
 40
0.3749999999999987
 40
0.4999999999999976
 40
0.4999999999999976
 40
0.7499999999999988
 40
0.7499999999999988
 40
1.0
 40
1.0
 40
1.0
 40
1.0
 10
320.197129551971
 20
402.7713692835116
 30
0.0
 10
320.2510782401785
 20
402.6141832827062
 30
0.0
 10
320.3076487852522
 20
402.4612827002426
 30
0.0
 10
320.3981338703031
 20
402.2453135256798
 30
0.0
 10
320.4280976539232
 20
402.1784375817149
 30
0.0
 10
320.4876269422045
 20
402.0496685685317
 30
0.0
 10
320.517636513406
 20
401.986768500456
 30
0.0
 10
320.6035590026254
 20
401.8251877488528
 30
0.0
 10
320.6540131326834
 20
401.7544092684133
 30
0.0
 10
320.7380265735595
 20
401.6627366227032
 30
0.0
 10
320.7718780945712
 20
401.6439225978338
 30
0.0
 10
320.7969452678913
 20
401.6479762755
 30
0.0
  0
SPLINE
  5
103
330
D9
100
AcDbEntity
  8
400564040_HEBEL_
  6
Continuous
 62
     7
100
AcDbSpline
210
0.0
220
0.0
230
1.0
 70
     8
 71
     3
 72
    20
 73
    16
 74
     0
 42
0.0000000083437491
 43
0.0000000001
 40
0.0
 40
0.0
 40
0.0
 40
0.0
 40
0.2500000000000008
 40
0.2500000000000008
 40
0.3750000000000007
 40
0.3750000000000007
 40
0.5000000000000006
 40
0.5000000000000006
 40
0.6250000000000004
 40
0.6250000000000004
 40
0.7500000000000002
 40
0.7500000000000002
 40
0.8750000000000001
 40
0.8750000000000001
 40
1.0
 40
1.0
 40
1.0
 40
1.0
 10
320.028113530134
 20
403.8945353702143
 30
0.0
 10
320.0010347944175
 20
403.8984435575792
 30
0.0
 10
319.9802179870596
 20
403.8821263517372
 30
0.0
 10
319.9631281489364
 20
403.814862582787
 30
0.0
 10
319.9599425443925
 20
403.7853115719294
 30
0.0
 10
319.9598429570826
 20
403.711347592357
 30
0.0
 10
319.9630116772393
 20
403.6660119362646
 30
0.0
 10
319.9794184817547
 20
403.5575265012474
 30
0.0
 10
319.9927095036357
 20
403.4934886965131
 30
0.0
 10
320.0221045926358
 20
403.3617333961984
 30
0.0
 10
320.0382967428362
 20
403.2938553361944
 30
0.0
 10
320.0765023727609
 20
403.1509323669073
 30
0.0
 10
320.098613519481
 20
403.0752556757532
 30
0.0
 10
320.1458375349156
 20
402.923817146048
 30
0.0
 10
320.1709664330717
 20
402.847727212353
 30
0.0
 10
320.197129551971
 20
402.7713692835116
 30
0.0
  0
SPLINE
  5
104
330
D9
100
AcDbEntity
  8
400564040_HEBEL_
  6
Continuous
 62
     7
100
AcDbSpline
210
0.0
220
0.0
230
1.0
 70
     8
 71
     3
 72
    10
 73
     6
 74
     0
 42
0.0000000321851824
 43
0.0000000001
 40
0.0
 40
0.0
 40
0.0
 40
0.0
 40
0.5
 40
0.5
 40
1.0
 40
1.0
 40
1.0
 40
1.0
 10
320.2390700253238
 20
403.6825486874664
 30
0.0
 10
320.1959114948179
 20
403.751711428159
 30
0.0
 10
320.156757683779
 20
403.8041535931873
 30
0.0
 10
320.0861362848634
 20
403.8756608090363
 30
0.0
 10
320.0545319188071
 20
403.8945353702143
 30
0.0
 10
320.028113530134
 20
403.8945353702143
 30
0.0
  0
LINE
  5
105
330
D9
100
AcDbEntity
  8
400564040_HEBEL_
  6
Continuous
 62
     7
100
AcDbLine
 10
320.3856641065
 20
403.2652126801
 30
0.0
 11
320.2390700253
 21
403.6825486875
 31
0.0
  0
SPLINE
  5
106
330
D9
100
AcDbEntity
  8
400564040_HEBEL_
  6
Continuous
 62
     7
100
AcDbSpline
210
0.0
220
0.0
230
1.0
 70
     8
 71
     3
 72
     8
 73
     4
 74
     0
 42
0.000000030321616
 43
0.0000000001
 40
0.0
 40
0.0
 40
0.0
 40
0.0
 40
1.0
 40
1.0
 40
1.0
 40
1.0
 10
320.1874315052059
 20
403.5038379382926
 30
0.0
 10
320.2326785755309
 20
403.5038255803093
 30
0.0
 10
320.3021778603284
 20
403.4180537861641
 30
0.0
 10
320.385664106482
 20
403.2652126800995
 30
0.0
  0
SPLINE
  5
107
330
D9
100
AcDbEntity
  8
400564040_HEBEL_
  6
Continuous
 62
     7
100
AcDbSpline
210
0.0
220
0.0
230
1.0
 70
     8
 71
     3
 72
    16
 73
    12
 74
     0
 42
0.0000000128048137
 43
0.0000000001
 40
0.0
 40
0.0
 40
0.0
 40
0.0
 40
0.2499999999999986
 40
0.2499999999999986
 40
0.3749999999999984
 40
0.3749999999999984
 40
0.4999999999999982
 40
0.4999999999999982
 40
0.7499999999999994
 40
0.7499999999999994
 40
1.0
 40
1.0
 40
1.0
 40
1.0
 10
320.3110853855978
 20
402.7712558228571
 30
0.0
 10
320.2778611030846
 20
402.8683345487459
 30
0.0
 10
320.2471166732485
 20
402.9641242339088
 30
0.0
 10
320.2081451992035
 20
403.1042000762381
 30
0.0
 10
320.1968872148916
 20
403.1486594898125
 30
0.0
 10
320.1766073970969
 20
403.233964723809
 30
0.0
 10
320.1670599082537
 20
403.2761872250322
 30
0.0
 10
320.1476292481961
 20
403.385053943003
 30
0.0
 10
320.1469237973124
 20
403.4335732853284
 30
0.0
 10
320.1580435223415
 20
403.4948324213113
 30
0.0
 10
320.1705558558787
 20
403.5064434978926
 30
0.0
 10
320.1874315052059
 20
403.5038379382926
 30
0.0
  0
SPLINE
  5
108
330
D9
100
AcDbEntity
  8
400564040_HEBEL_
  6
Continuous
 62
     7
100
AcDbSpline
210
0.0
220
0.0
230
1.0
 70
     8
 71
     3
 72
    14
 73
    10
 74
     0
 42
0.0000000120660646
 43
0.0000000001
 40
0.0
 40
0.0
 40
0.0
 40
0.0
 40
0.25
 40
0.25
 40
0.5
 40
0.5
 40
0.75
 40
0.75
 40
1.0
 40
1.0
 40
1.0
 40
1.0
 10
320.6613649046631
 20
402.0386738281365
 30
0.0
 10
320.647182982078
 20
402.0355764737351
 30
0.0
 10
320.6256966139031
 20
402.0536899115232
 30
0.0
 10
320.5719483096266
 20
402.1320666300492
 30
0.0
 10
320.5398325945076
 20
402.1918251616155
 30
0.0
 10
320.4729457087317
 20
402.3416144559766
 30
0.0
 10
320.4394564104084
 20
402.4223054820453
 30
0.0
 10
320.3738309709387
 20
402.5921574212838
 30
0.0
 10
320.3417613701383
 20
402.681744356748
 30
0.0
 10
320.3110853855978
 20
402.7712558228571
 30
0.0
  0
SPLINE
  5
109
330
D9
100
AcDbEntity
  8
400564040_HEBEL_
  6
Continuous
 62
     7
100
AcDbSpline
210
0.0
220
0.0
230
1.0
 70
     8
 71
     3
 72
     8
 73
     4
 74
     0
 42
0.0000000723620128
 43
0.0000000001
 40
0.0
 40
0.0
 40
0.0
 40
0.0
 40
1.0
 40
1.0
 40
1.0
 40
1.0
 10
320.6979651743263
 20
402.1481414276345
 30
0.0
 10
320.7004804146313
 20
402.0755334329552
 30
0.0
 10
320.6878805473988
 20
402.0385965844084
 30
0.0
 10
320.6613649046631
 20
402.0386738281365
 30
0.0
  0
LINE
  5
10A
330
D9
100
AcDbEntity
  8
400564040_HEBEL_
  6
Continuous
 62
     7
100
AcDbLine
 10
320.4876072525
 20
402.7712558229
 30
0.0
 11
320.6979651743
 21
402.1481414276
 31
0.0
  0
LINE
  5
10B
330
D9
100
AcDbEntity
  8
400564040_HEBEL_
  6
Continuous
 62
     7
100
AcDbLine
 10
320.5651923849
 20
402.7712558229
 30
0.0
 11
320.4876072525
 21
402.7712558229
 31
0.0
  0
LINE
  5
10C
330
D9
100
AcDbEntity
  8
400564040_HEBEL_
  6
Continuous
 62
     7
100
AcDbLine
 10
320.8569704477
 20
401.9019533388
 30
0.0
 11
320.5651923849
 21
402.7712558229
 31
0.0
  0
SPLINE
  5
10D
330
D9
100
AcDbEntity
  8
400564040_HEBEL_
  6
Continuous
 62
     7
100
AcDbSpline
210
0.0
220
0.0
230
1.0
 70
     8
 71
     3
 72
    10
 73
     6
 74
     0
 42
0.0000000342659699
 43
0.0000000001
 40
0.0
 40
0.0
 40
0.0
 40
0.0
 40
0.5
 40
0.5
 40
1.0
 40
1.0
 40
1.0
 40
1.0
 10
320.7969452678913
 20
401.6479762755
 30
0.0
 10
320.8247698800087
 20
401.6479762755
 30
0.0
 10
320.8437207299457
 20
401.6691571989001
 30
0.0
 10
320.864026939879
 20
401.7541251682278
 30
0.0
 10
320.8650748343848
 20
401.8182480484531
 30
0.0
 10
320.8569704476917
 20
401.9019533388145
 30
0.0
  0
LINE
  5
10E
330
D9
100
AcDbEntity
  8
400564040_HEBEL_
  6
Continuous
 62
     7
100
AcDbLine
 10
320.5670375423
 20
401.9019533388
 30
0.0
 11
320.8569704477
 21
401.9019533388
 31
0.0
  0
LINE
  5
10F
330
D9
100
AcDbEntity
  8
400564040_HEBEL_
  6
Continuous
 62
     7
100
AcDbLine
 10
320.1971721433
 20
402.7712558229
 30
0.0
 11
320.3110853856
 21
402.7712558229
 31
0.0
  0
LINE
  5
110
330
D9
100
AcDbEntity
  8
400564040_HEBEL_
  6
Continuous
 62
     7
100
AcDbLine
 10
319.9637781509
 20
403.6825486875
 30
0.0
 11
320.2390700253
 21
403.6825486875
 31
0.0
  0
LINE
  5
111
330
D9
100
AcDbEntity
  8
400564040_HEBEL_
  6
Continuous
 62
     7
100
AcDbLine
 10
321.3723186632
 20
399.9012770541
 30
0.0
 11
321.4595855988
 21
399.7182188405
 31
0.0
  0
SPLINE
  5
112
330
D9
100
AcDbEntity
  8
400564040_HEBEL_
  6
Continuous
 62
     7
100
AcDbSpline
210
0.0
220
0.0
230
1.0
 70
     8
 71
     3
 72
    22
 73
    18
 74
     0
 42
0.0000000085742501
 43
0.0000000001
 40
0.0
 40
0.0
 40
0.0
 40
0.0
 40
0.1249999999999994
 40
0.1249999999999994
 40
0.2499999999999991
 40
0.2499999999999991
 40
0.3749999999999988
 40
0.3749999999999988
 40
0.4374999999999988
 40
0.4374999999999988
 40
0.4999999999999988
 40
0.4999999999999988
 40
0.7499999999999993
 40
0.7499999999999993
 40
0.8749999999999997
 40
0.8749999999999997
 40
1.0
 40
1.0
 40
1.0
 40
1.0
 10
321.4595855987627
 20
399.71821884046
 30
0.0
 10
321.4702362796478
 20
399.7746930259439
 30
0.0
 10
321.4790363486359
 20
399.8311860421189
 30
0.0
 10
321.492984367489
 20
399.9442092361925
 30
0.0
 10
321.4977788785918
 20
400.0017935619537
 30
0.0
 10
321.5052425148872
 20
400.1125631888988
 30
0.0
 10
321.5102363523437
 20
400.1588668707261
 30
0.0
 10
321.5264357837922
 20
400.1935664256261
 30
0.0
 10
321.5333216410875
 20
400.1989236885796
 30
0.0
 10
321.5505300416088
 20
400.1945167370575
 30
0.0
 10
321.5607672344292
 20
400.185246614197
 30
0.0
 10
321.6173799032867
 20
400.1131610676543
 30
0.0
 10
321.6793175616037
 20
399.9756299623374
 30
0.0
 10
321.7562408867371
 20
399.788675272144
 30
0.0
 10
321.7794806369043
 20
399.7287714356071
 30
0.0
 10
321.8142291380535
 20
399.6367285735951
 30
0.0
 10
321.8258942056281
 20
399.6041278400347
 30
0.0
 10
321.826357630037
 20
399.6023152480533
 30
0.0
  0
SPLINE
  5
113
330
D9
100
AcDbEntity
  8
400564040_HEBEL_
  6
Continuous
 62
     7
100
AcDbSpline
210
0.0
220
0.0
230
1.0
 70
     8
 71
     3
 72
    14
 73
    10
 74
     0
 42
0.0000000039004925
 43
0.0000000001
 40
0.5014649411094335
 40
0.5014649411094335
 40
0.5014649411094335
 40
0.5014649411094335
 40
0.6249999999999999
 40
0.6249999999999999
 40
0.75
 40
0.75
 40
0.875
 40
0.875
 40
1.0
 40
1.0
 40
1.0
 40
1.0
 10
321.7548343537666
 20
399.8383831083348
 30
0.0
 10
321.754001412759
 20
399.8411064335213
 30
0.0
 10
321.7076038475727
 20
399.9680015207617
 30
0.0
 10
321.5985476683415
 20
400.2286446198914
 30
0.0
 10
321.5327817974963
 20
400.3720417194612
 30
0.0
 10
321.4419057977466
 20
400.4656359761749
 30
0.0
 10
321.4329702431576
 20
400.3687310036187
 30
0.0
 10
321.4146122553379
 20
400.1348571472148
 30
0.0
 10
321.3975238794349
 20
400.0180169513017
 30
0.0
 10
321.3723186632179
 20
399.9012770541396
 30
0.0
  0
LINE
  5
114
330
D9
100
AcDbEntity
  8
400564040_HEBEL_
  6
Continuous
 62
     7
100
AcDbLine
 10
321.0897075313
 20
400.4450260983
 30
0.0
 11
320.9748151499
 21
400.7041714199
 31
0.0
  0
SPLINE
  5
115
330
D9
100
AcDbEntity
  8
400564040_HEBEL_
  6
Continuous
 62
     7
100
AcDbSpline
210
0.0
220
0.0
230
1.0
 70
     8
 71
     3
 72
    12
 73
     8
 74
     0
 42
0.0000000067474628
 43
0.0000000001
 40
0.0
 40
0.0
 40
0.0
 40
0.0
 40
0.25
 40
0.25
 40
0.5
 40
0.5
 40
0.8982139041419044
 40
0.8982139041419044
 40
0.8982139041419044
 40
0.8982139041419044
 10
321.5719034899735
 20
400.4329820661384
 30
0.0
 10
321.570783316835
 20
400.4372093202807
 30
0.0
 10
321.5100687325799
 20
400.6005710964113
 30
0.0
 10
321.3789130976068
 20
400.8986974843065
 30
0.0
 10
321.3023894083107
 20
401.0486366656939
 30
0.0
 10
321.2181232455252
 20
400.9881174918948
 30
0.0
 10
321.265552714523
 20
400.5770724648797
 30
0.0
 10
321.1826539124248
 20
400.4630445815034
 30
0.0
  0
SPLINE
  5
116
330
D9
100
AcDbEntity
  8
400564040_HEBEL_
  6
Continuous
 62
     7
100
AcDbSpline
210
0.0
220
0.0
230
1.0
 70
     8
 71
     3
 72
     8
 73
     4
 74
     0
 42
0.0000000085662335
 43
0.0000000001
 40
0.9617299146578606
 40
0.9617299146578606
 40
0.9617299146578606
 40
0.9617299146578606
 40
1.0
 40
1.0
 40
1.0
 40
1.0
 10
321.1321078614529
 20
400.4338730538822
 30
0.0
 10
321.1195841749019
 20
400.4336606485955
 30
0.0
 10
321.1055186420043
 20
400.4371798325735
 30
0.0
 10
321.0897075312741
 20
400.4450260983186
 30
0.0
  0
SPLINE
  5
117
330
D9
100
AcDbEntity
  8
400564040_HEBEL_
  6
Continuous
 62
     7
100
AcDbSpline
210
0.0
220
0.0
230
1.0
 70
     8
 71
     3
 72
     8
 73
     4
 74
     0
 42
0.0000000038908498
 43
0.0000000001
 40
0.0
 40
0.0
 40
0.0
 40
0.0
 40
0.0337576548044003
 40
0.0337576548044003
 40
0.0337576548044003
 40
0.0337576548044003
 10
320.9748151499394
 20
400.7041714198608
 30
0.0
 10
321.0055668106119
 20
400.6822699779636
 30
0.0
 10
321.0314152694822
 20
400.6736182960327
 30
0.0
 10
321.0530697250576
 20
400.6756555744741
 30
0.0
  0
SPLINE
  5
118
330
D9
100
AcDbEntity
  8
400564040_HEBEL_
  6
Continuous
 62
     7
100
AcDbSpline
210
0.0
220
0.0
230
1.0
 70
     8
 71
     3
 72
    14
 73
    10
 74
     0
 42
0.0000000032746185
 43
0.0000000001
 40
0.0724990877076518
 40
0.0724990877076518
 40
0.0724990877076518
 40
0.0724990877076518
 40
0.1249999999999999
 40
0.1249999999999999
 40
0.2499999999999999
 40
0.2499999999999999
 40
0.3749999999999999
 40
0.3749999999999999
 40
0.4955764010394785
 40
0.4955764010394785
 40
0.4955764010394785
 40
0.4955764010394785
 10
321.1121245429525
 20
400.7210331867263
 30
0.0
 10
321.1322836711069
 20
400.7571122966174
 30
0.0
 10
321.1442672094393
 20
400.8119368815751
 30
0.0
 10
321.1661611033724
 20
401.0281025582165
 30
0.0
 10
321.1574062886946
 20
401.2182453426665
 30
0.0
 10
321.220046572661
 20
401.2963596378846
 30
0.0
 10
321.2993064951539
 20
401.1425162168716
 30
0.0
 10
321.4349616747685
 20
400.837697029474
 30
0.0
 10
321.4971561441438
 20
400.6722077930588
 30
0.0
 10
321.4981533251128
 20
400.6690572211149
 30
0.0
  0
SPLINE
  5
119
330
D9
100
AcDbEntity
  8
400564040_HEBEL_
  6
Continuous
 62
     7
100
AcDbSpline
210
0.0
220
0.0
230
1.0
 70
     8
 71
     3
 72
    17
 73
    13
 74
     0
 42
0.0000000021651075
 43
0.0000000001
 40
0.1094850418047398
 40
0.1094850418047398
 40
0.1094850418047398
 40
0.1094850418047398
 40
0.1237899013132418
 40
0.1237899013132418
 40
0.1237899013132418
 40
0.1497091325454376
 40
0.1497091325454376
 40
0.1497091325454376
 40
0.1756216189933811
 40
0.1756216189933811
 40
0.1756216189933811
 40
0.1798687826048749
 40
0.1798687826048749
 40
0.1798687826048749
 40
0.1798687826048749
 10
321.0467378516449
 20
402.0212201574626
 30
0.0
 10
321.0563238639351
 20
401.9946581162857
 30
0.0
 10
321.0655368570267
 20
401.9692096395843
 30
0.0
 10
321.0743139604795
 20
401.9450309046458
 30
0.0
 10
321.0903630127646
 20
401.9008197610378
 30
0.0
 10
321.1051373849059
 20
401.8603430102129
 30
0.0
 10
321.1183606687769
 20
401.8242495120572
 30
0.0
 10
321.131581861164
 20
401.7881617226932
 30
0.0
 10
321.1433347859851
 20
401.756230110872
 30
0.0
 10
321.1534125671533
 20
401.7289249909475
 30
0.0
 10
321.1550644841982
 20
401.7244492246791
 30
0.0
 10
321.1566730088575
 20
401.7200933683758
 30
0.0
 10
321.158237515998
 20
401.7158588074307
 30
0.0
  0
SPLINE
  5
11A
330
D9
100
AcDbEntity
  8
400564040_HEBEL_
  6
Continuous
 62
     7
100
AcDbSpline
210
0.0
220
0.0
230
1.0
 70
     8
 71
     3
 72
     8
 73
     4
 74
     0
 42
0.0000000039058691
 43
0.0000000001
 40
0.1868765183654912
 40
0.1868765183654912
 40
0.1868765183654912
 40
0.1868765183654912
 40
0.2015289691594906
 40
0.2015289691594906
 40
0.2015289691594906
 40
0.2015289691594906
 10
321.1656194207728
 20
401.695894861763
 30
0.0
 10
321.1705098774704
 20
401.6826798075253
 30
0.0
 10
321.174864158019
 20
401.6709356259276
 30
0.0
 10
321.1786565935578
 20
401.6607192031506
 30
0.0
  0
SPLINE
  5
11B
330
D9
100
AcDbEntity
  8
400564040_HEBEL_
  6
Continuous
 62
     7
100
AcDbSpline
210
0.0
220
0.0
230
1.0
 70
     8
 71
     3
 72
    62
 73
    58
 74
     0
 42
0.0000000020298179
 43
0.0000000001
 40
0.2515148813628991
 40
0.2515148813628991
 40
0.2515148813628991
 40
0.2515148813628991
 40
0.2542557077563073
 40
0.2542557077563073
 40
0.2542557077563073
 40
0.2829423702930038
 40
0.2829423702930038
 40
0.2829423702930038
 40
0.3114192657211188
 40
0.3114192657211188
 40
0.3114192657211188
 40
0.339410277383173
 40
0.339410277383173
 40
0.339410277383173
 40
0.3667513412538338
 40
0.3667513412538338
 40
0.3667513412538338
 40
0.3933458457220848
 40
0.3933458457220848
 40
0.3933458457220848
 40
0.419174095973981
 40
0.419174095973981
 40
0.419174095973981
 40
0.4442929086261517
 40
0.4442929086261517
 40
0.4442929086261517
 40
0.4688271813066922
 40
0.4688271813066922
 40
0.4688271813066922
 40
0.4929565285213693
 40
0.4929565285213693
 40
0.4929565285213693
 40
0.5169000492232417
 40
0.5169000492232417
 40
0.5169000492232417
 40
0.5408431996208198
 40
0.5408431996208198
 40
0.5408431996208198
 40
0.5647831273438468
 40
0.5647831273438468
 40
0.5647831273438468
 40
0.6136054938199091
 40
0.6136054938199091
 40
0.6136054938199091
 40
0.6388003257339011
 40
0.6388003257339011
 40
0.6388003257339011
 40
0.663986461039832
 40
0.663986461039832
 40
0.663986461039832
 40
0.6891652716519008
 40
0.6891652716519008
 40
0.6891652716519008
 40
0.7403364578313922
 40
0.7403364578313922
 40
0.7403364578313922
 40
0.7497563441793116
 40
0.7497563441793116
 40
0.7497563441793116
 40
0.7497563441793116
 10
321.1978028477017
 20
401.6093545124302
 30
0.0
 10
321.1977929776052
 20
401.6093854491335
 30
0.0
 10
321.1977630201865
 20
401.6094703344441
 30
0.0
 10
321.1977129165404
 20
401.6096092959323
 30
0.0
 10
321.197184243301
 20
401.6110755608824
 30
0.0
 10
321.1944423049746
 20
401.6184913419474
 30
0.0
 10
321.1895407016149
 20
401.6317383712792
 30
0.0
 10
321.1846749041499
 20
401.6448886319208
 30
0.0
 10
321.1776474170181
 20
401.6638761434928
 30
0.0
 10
321.1685973714432
 20
401.6883938867348
 30
0.0
 10
321.1597013849432
 20
401.7124942640304
 30
0.0
 10
321.1487902732591
 20
401.7421038832767
 30
0.0
 10
321.1360820345394
 20
401.7767323068252
 30
0.0
 10
321.1236682042748
 20
401.8105585027084
 30
0.0
 10
321.1094550182176
 20
401.8494051645529
 30
0.0
 10
321.0937297337435
 20
401.8926068681042
 30
0.0
 10
321.0784328591329
 20
401.9346316113311
 30
0.0
 10
321.0616013796914
 20
401.9810637800728
 30
0.0
 10
321.0435799195158
 20
402.0310760405339
 30
0.0
 10
321.0260765307797
 20
402.0796505748881
 30
0.0
 10
321.0073321854504
 20
402.1319323158676
 30
0.0
 10
320.9877355437098
 20
402.186950625442
 30
0.0
 10
320.9686759650426
 20
402.240461110215
 30
0.0
 10
320.9486814172954
 20
402.2969229663201
 30
0.0
 10
320.9281704845431
 20
402.3552467612008
 30
0.0
 10
320.9081357954141
 20
402.4122163351042
 30
0.0
 10
320.8874730624117
 20
402.4713483199857
 30
0.0
 10
320.866616399277
 20
402.5314645044494
 30
0.0
 10
320.8461031977436
 20
402.5905907126717
 30
0.0
 10
320.8252635235779
 20
402.6510699288735
 30
0.0
 10
320.804532741545
 20
402.7116696364822
 30
0.0
 10
320.7839612586348
 20
402.7718036848483
 30
0.0
 10
320.7633571791214
 20
402.8324653156525
 30
0.0
 10
320.7431432964627
 20
402.8924052805681
 30
0.0
 10
320.722929503594
 20
402.9523449792306
 30
0.0
 10
320.7029682026046
 20
403.0119710303968
 30
0.0
 10
320.6836537995531
 20
403.0700653987218
 30
0.0
 10
320.6643408658925
 20
403.1281553473743
 30
0.0
 10
320.6455447404282
 20
403.1851039946031
 30
0.0
 10
320.627609704088
 20
403.2397972516156
 30
0.0
 10
320.5913890147856
 20
403.3502529781397
 30
0.0
 10
320.5580692954379
 20
403.4534009775394
 30
0.0
 10
320.5297064244592
 20
403.5420664315429
 30
0.0
 10
320.5149310642637
 20
403.5882558324951
 30
0.0
 10
320.5013273588602
 20
403.6310469397703
 30
0.0
 10
320.4890747701286
 20
403.6697545108162
 30
0.0
 10
320.4768247333096
 20
403.7084540200279
 30
0.0
 10
320.4658497121129
 20
403.7433091537495
 30
0.0
 10
320.4562699543523
 20
403.7738299668311
 30
0.0
 10
320.446691890243
 20
403.8043453839916
 30
0.0
 10
320.4384529471276
 20
403.8307045084549
 30
0.0
 10
320.4316286342744
 20
403.8525792942644
 30
0.0
 10
320.4178705379164
 20
403.8966797652501
 30
0.0
 10
320.4097061259799
 20
403.9230205739364
 30
0.0
 10
320.4073854760333
 20
403.9304390980092
 30
0.0
 10
320.4069551911408
 20
403.9318146087096
 30
0.0
 10
320.406722286
 20
403.9325519125159
 30
0.0
 10
320.4066865846696
 20
403.9326518984685
 30
0.0
  0
ARC
  5
11C
330
D9
100
AcDbEntity
  8
400564040_HEBEL_
  6
Continuous
 62
     7
100
AcDbCircle
 10
381.2877729889
 20
423.3557381204
 30
0.0
 40
63.89199323137699
100
AcDbArc
 50
198.0970967684
 51
199.4989763865
  0
SPLINE
  5
11D
330
D9
100
AcDbEntity
  8
400564040_HEBEL_
  6
Continuous
 62
     7
100
AcDbSpline
210
0.0
220
0.0
230
1.0
 70
     8
 71
     3
 72
    15
 73
    11
 74
     0
 42
0.0000000029055057
 43
0.0000000001
 40
0.0
 40
0.0
 40
0.0
 40
0.0
 40
0.0547944124752853
 40
0.1294627935965285
 40
0.2236543237287036
 40
0.3381081169883642
 40
0.4725094894423124
 40
0.6276851633998001
 40
0.8034050964382097
 40
1.0
 40
1.0
 40
1.0
 40
1.0
 10
329.7833709277531
 20
311.7154326864569
 30
0.0
 10
329.8100629798443
 20
311.5445689022602
 30
0.0
 10
329.8635637929955
 20
311.2036640376588
 30
0.0
 10
329.9501474001158
 20
310.711222682722
 30
0.0
 10
330.0533659002897
 20
310.1924630536292
 30
0.0
 10
330.1579222343698
 20
309.674706814914
 30
0.0
 10
330.2470550728166
 20
309.1871296852455
 30
0.0
 10
330.3125266163921
 20
308.7697999999937
 30
0.0
 10
330.3526613905314
 20
308.4456459043445
 30
0.0
 10
330.3591725795353
 20
308.3675912327821
 30
0.0
 10
330.3620209496801
 20
308.3241346546988
 30
0.0
  0
SPLINE
  5
11E
330
D9
100
AcDbEntity
  8
400564040_HEBEL_
  6
Continuous
 62
     7
100
AcDbSpline
210
0.0
220
0.0
230
1.0
 70
     8
 71
     3
 72
    15
 73
    11
 74
     0
 42
0.0000000029313689
 43
0.0000000001
 40
0.0
 40
0.0
 40
0.0
 40
0.0
 40
0.0568955732155825
 40
0.132668276904952
 40
0.2276546693759156
 40
0.3424852885841354
 40
0.4767605998872424
 40
0.6311138723111996
 40
0.8054724406552912
 40
1.0
 40
1.0
 40
1.0
 40
1.0
 10
329.7902687460722
 20
311.6718166946345
 30
0.0
 10
329.8169430215445
 20
311.4991199294859
 30
0.0
 10
329.8696395113149
 20
311.1594457695153
 30
0.0
 10
329.9568324649523
 20
310.6642398915997
 30
0.0
 10
330.0589331713458
 20
310.1488236839643
 30
0.0
 10
330.1613007968781
 20
309.6361245946371
 30
0.0
 10
330.2489091674607
 20
309.1555305251054
 30
0.0
 10
330.3130988495472
 20
308.7456006498859
 30
0.0
 10
330.3527823327104
 20
308.4284745579722
 30
0.0
 10
330.3596568183866
 20
308.3524021850627
 30
0.0
 10
330.3627771558517
 20
308.3101185101033
 30
0.0
  0
ARC
  5
11F
330
D9
100
AcDbEntity
  8
400564040_HEBEL_
  6
Continuous
 62
     7
100
AcDbCircle
 10
333.9834720683
 20
308.3334909841
 30
0.0
 40
3.621227113579525
100
AcDbArc
 50
180.2507347447
 51
199.3020366437
  0
ARC
  5
120
330
D9
100
AcDbEntity
  8
400564040_HEBEL_
  6
Continuous
 62
     7
100
AcDbCircle
 10
344.6040635944
 20
310.8675209384
 30
0.0
 40
10.21423554519082
100
AcDbArc
 50
185.5904225922
 51
199.3399476239
  0
SPLINE
  5
121
330
D9
100
AcDbEntity
  8
400564040_HEBEL_
  6
Continuous
 62
     7
100
AcDbSpline
210
0.0
220
0.0
230
1.0
 70
     8
 71
     3
 72
    19
 73
    15
 74
     0
 42
0.0000000021400867
 43
0.0000000001
 40
0.0
 40
0.0
 40
0.0
 40
0.0
 40
0.0701856162065204
 40
0.1323242918390823
 40
0.1865658190544171
 40
0.2331198198424271
 40
0.3023558159962416
 40
0.3749947706924372
 40
0.4810213942522483
 40
0.5466759710448021
 40
0.6206001164264519
 40
0.7030434062796974
 40
0.793965712490301
 40
1.0
 40
1.0
 40
1.0
 40
1.0
 10
337.7954514123671
 20
291.0257310675221
 30
0.0
 10
337.8484716087051
 20
290.9193504990376
 30
0.0
 10
337.9366011636205
 20
290.751320385629
 30
0.0
 10
338.1335815540834
 20
290.5308576880597
 30
0.0
 10
338.341497772693
 20
290.3885126251999
 30
0.0
 10
338.585616907434
 20
290.2892065283693
 30
0.0
 10
338.8763604326406
 20
290.2454054169117
 30
0.0
 10
339.2593315697874
 20
290.2945133721038
 30
0.0
 10
339.6060426560805
 20
290.4652543270697
 30
0.0
 10
339.8824188106208
 20
290.7271792123967
 30
0.0
 10
340.0709051538905
 20
291.0168940206996
 30
0.0
 10
340.1952440401492
 20
291.3793489469487
 30
0.0
 10
340.2523076021532
 20
291.9736723077271
 30
0.0
 10
340.136261434474
 20
292.3885119007799
 30
0.0
 10
340.0320734061278
 20
292.7215179461256
 30
0.0
  0
LINE
  5
122
330
D9
100
AcDbEntity
  8
400564040_HEBEL_
  6
Continuous
 62
     7
100
AcDbLine
 10
330.5657844264
 20
307.1365452704
 30
0.0
 11
337.7954513635
 21
291.0257311916
 31
0.0
  0
LINE
  5
123
330
D9
100
AcDbEntity
  8
400564040_HEBEL_
  6
Continuous
 62
     7
100
AcDbLine
 10
340.0320735825
 20
292.7215174987
 30
0.0
 11
334.9661661839
 21
307.4849700438
 31
0.0
  0
ARC
  5
124
330
D9
100
AcDbEntity
  8
400564040_HEBEL_
  6
Continuous
 62
     7
100
AcDbCircle
 10
238.209236402
 20
374.6532852053
 30
0.0
 40
87.25661118110871
100
AcDbArc
 50
18.2786213277
 51
19.3203818295
  0
ARC
  5
125
330
D9
100
AcDbEntity
  8
400564040_HEBEL_
  6
Continuous
 62
     7
100
AcDbCircle
 10
297.8891818498
 20
346.1735558572
 30
0.0
 40
36.54945450347633
100
AcDbArc
 50
59.379871082
 51
83.1138237189
  0
ARC
  5
126
330
D9
100
AcDbEntity
  8
400564040_HEBEL_
  6
Continuous
 62
     7
100
AcDbCircle
 10
284.1243328736
 20
211.5962567366
 30
0.0
 40
171.9984083721916
100
AcDbArc
 50
86.3295389187
 51
89.2580841912
  0
SPLINE
  5
127
330
D9
100
AcDbEntity
  8
400564040_HEBEL_
  6
Continuous
 62
     7
100
AcDbSpline
210
0.0
220
0.0
230
1.0
 70
     8
 71
     3
 72
    41
 73
    37
 74
     0
 42
0.0000000001474437
 43
0.0000000001
 40
0.0
 40
0.0
 40
0.0
 40
0.0
 40
0.0296453022699333
 40
0.0559885610553775
 40
0.0791048858245718
 40
0.0988916620974991
 40
0.1154096322209333
 40
0.1266938340526681
 40
0.1357060747444568
 40
0.1424597325366199
 40
0.1504640717522173
 40
0.15879924001312
 40
0.1683772565946457
 40
0.178627667197054
 40
0.1891797033464769
 40
0.2000035294158565
 40
0.2217067970476143
 40
0.243957134551319
 40
0.2794944328620023
 40
0.3136740699856132
 40
0.3474737529459357
 40
0.3836582772775078
 40
0.4225005445951369
 40
0.4611600801547318
 40
0.5019951082130013
 40
0.5450015723797397
 40
0.5916890593839665
 40
0.642502108791395
 40
0.6974751226995702
 40
0.7367763426839183
 40
0.7780665492875437
 40
0.8211787053347686
 40
0.8660602879706698
 40
0.9128836479242103
 40
0.9613896167352056
 40
1.0
 40
1.0
 40
1.0
 40
1.0
 10
316.5070369234542
 20
377.6256374340521
 30
0.0
 10
316.5420553087287
 20
377.6015805785967
 30
0.0
 10
316.5983002090076
 20
377.5627556283342
 30
0.0
 10
316.6955656334766
 20
377.4844902784155
 30
0.0
 10
316.788349921664
 20
377.4079005426062
 30
0.0
 10
316.8761416604044
 20
377.3277048855105
 30
0.0
 10
316.9535805440586
 20
377.2452355974282
 30
0.0
 10
317.0206737348606
 20
377.1625488392041
 30
0.0
 10
317.0829330977757
 20
377.0768559824387
 30
0.0
 10
317.1457231371264
 20
376.9845894221806
 30
0.0
 10
317.287878940662
 20
376.7860606949562
 30
0.0
 10
317.5680819679958
 20
376.3630334140881
 30
0.0
 10
317.9147508642485
 20
375.7814650675837
 30
0.0
 10
318.2613289173039
 20
375.1412795801867
 30
0.0
 10
318.5966222979264
 20
374.4583847322264
 30
0.0
 10
319.0189015724796
 20
373.5149546096287
 30
0.0
 10
319.5286547200516
 20
372.2233489166377
 30
0.0
 10
320.1774549733806
 20
370.2374834482399
 30
0.0
 10
320.7851164266165
 20
367.8897359852699
 30
0.0
 10
321.3225028719124
 20
365.2092655656904
 30
0.0
 10
321.7726147778081
 20
362.4966077914044
 30
0.0
 10
322.1669973550466
 20
359.6518632512709
 30
0.0
 10
322.5452519079514
 20
356.6765492547974
 30
0.0
 10
322.9264482346665
 20
353.5788160925705
 30
0.0
 10
323.3476345721336
 20
350.3762551159626
 30
0.0
 10
323.82004549017
 20
346.9681214252738
 30
0.0
 10
324.3609668186996
 20
343.303729183689
 30
0.0
 10
324.9712582390423
 20
339.3301349187133
 30
0.0
 10
325.5822728206026
 20
335.5531294404061
 30
0.0
 10
326.174190377546
 20
332.0271377621348
 30
0.0
 10
326.7282452847198
 20
328.8111998104692
 30
0.0
 10
327.3214072993525
 20
325.4539639599345
 30
0.0
 10
327.9419282943957
 20
321.9460721253941
 30
0.0
 10
328.6065778196702
 20
318.3281470667776
 30
0.0
 10
329.2852344918593
 20
314.7805001094339
 30
0.0
 10
329.611070950995
 20
312.6676803525704
 30
0.0
 10
329.7825591725889
 20
311.5598343197269
 30
0.0
  0
LINE
  5
128
330
D9
100
AcDbEntity
  8
400564040_HEBEL_
  6
Continuous
 62
     7
100
AcDbLine
 10
302.2343089279
 20
382.4798595343
 30
0.0
 11
302.2448952982
 21
382.4762811203
 31
0.0
  0
ARC
  5
129
330
D9
100
AcDbEntity
  8
400564040_HEBEL_
  6
Continuous
 62
     7
100
AcDbCircle
 10
286.3586750242
 20
383.8801719891
 30
0.0
 40
0.299999043488274
100
AcDbArc
 50
179.9704930018
 51
267.1495836412
  0
ARC
  5
12A
330
D9
100
AcDbEntity
  8
400564040_HEBEL_
  6
Continuous
 62
     7
100
AcDbCircle
 10
286.3586751182
 20
438.6321008085
 30
0.0
 40
0.3000000018928806
100
AcDbArc
 50
73.3447029674
 51
179.9980050329
  0
LINE
  5
12B
330
D9
100
AcDbEntity
  8
400564040_HEBEL_
  6
Continuous
 62
     7
100
AcDbLine
 10
321.7914613419
 20
399.3665588804
 30
0.0
 11
321.6745696
 21
399.3665588804
 31
0.0
  0
LINE
  5
12C
330
D9
100
AcDbEntity
  8
400564040_HEBEL_
  6
Continuous
 62
     7
100
AcDbLine
 10
320.4493604773
 20
403.4267701688
 30
0.0
 11
320.388813351
 21
403.4267701688
 31
0.0
  0
LINE
  5
12D
330
D9
100
AcDbEntity
  8
400564040_HEBEL_
  6
Continuous
 62
     7
100
AcDbLine
 10
320.4960603904
 20
402.0383180919
 30
0.0
 11
320.6570088568
 21
402.0383180919
 31
0.0
  0
LINE
  5
12E
330
D9
100
AcDbEntity
  8
400564040_HEBEL_
  6
Continuous
 62
     7
100
AcDbLine
 10
320.1840221675
 20
403.5041936586
 30
0.0
 11
319.9919894136
 21
403.5041936586
 31
0.0
  0
LINE
  5
12F
330
D9
100
AcDbEntity
  8
400564040_HEBEL_
  6
Continuous
 62
     7
100
AcDbLine
 10
321.5416182604
 20
400.1972256985
 30
0.0
 11
321.4173308403
 21
400.1972256985
 31
0.0
  0
LINE
  5
130
330
D9
100
AcDbEntity
  8
400564040_HEBEL_
  6
Continuous
 62
     7
100
AcDbLine
 10
321.2800915489
 20
401.0278925166
 30
0.0
 11
321.1605987144
 21
401.0278925166
 31
0.0
  0
LINE
  5
131
330
D9
100
AcDbEntity
  8
400564040_HEBEL_
  6
Continuous
 62
     7
100
AcDbLine
 10
320.9904076447
 20
400.6690017941
 30
0.0
 11
321.0398408019
 21
400.6690017941
 31
0.0
  0
ARC
  5
132
330
D9
100
AcDbEntity
  8
400564040_HEBEL_
  6
Continuous
 62
     7
100
AcDbCircle
 10
269.0345918069
 20
388.0355442631
 30
0.0
 40
53.76462339095369
100
AcDbArc
 50
17.1894703235
 51
71.1095419216
  0
LINE
  5
133
330
D9
100
AcDbEntity
  8
400564040_HEBEL_
  6
Continuous
 62
     7
100
AcDbLine
 10
321.468306423
 20
400.6693318638
 30
0.0
 11
321.1680766617
 21
401.6030848226
 31
0.0
  0
LINE
  5
134
330
D9
100
AcDbEntity
  8
400564040_HEBEL_
  6
Continuous
 62
     7
100
AcDbLine
 10
321.7263325671
 20
399.8668375524
 30
0.0
 11
321.5463429757
 21
400.4266282034
 31
0.0
  0
LINE
  5
135
330
D9
100
AcDbEntity
  8
400564040_HEBEL_
  6
Continuous
 62
     7
100
AcDbLine
 10
321.9995404183
 20
399.0171261901
 30
0.0
 11
321.8123055981
 21
399.5994504295
 31
0.0
  0
SPLINE
  5
136
330
D9
100
AcDbEntity
  8
400564040_HEBEL_
  6
Continuous
 62
     7
100
AcDbSpline
210
0.0
220
0.0
230
1.0
 70
     8
 71
     3
 72
    24
 73
    20
 74
     0
 42
0.0000000001112859
 43
0.0000000001
 40
0.0
 40
0.0
 40
0.0
 40
0.0
 40
0.0783159685473268
 40
0.1620574064697989
 40
0.2420084826934602
 40
0.3180924860385204
 40
0.3903705250541644
 40
0.4575137011456505
 40
0.5220826037587966
 40
0.5834463800025353
 40
0.6410258273810758
 40
0.6957755791257734
 40
0.7466381399190934
 40
0.7934965669754368
 40
0.8363919562214446
 40
0.875350449028226
 40
0.912888112110427
 40
0.9476698648719241
 40
1.0
 40
1.0
 40
1.0
 40
1.0
 10
334.4382869849484
 20
309.8727254622376
 30
0.0
 10
334.1605936529913
 20
312.4380396468857
 30
0.0
 10
333.676035916495
 20
316.9143302811561
 30
0.0
 10
332.8800578589213
 20
324.267641703203
 30
0.0
 10
332.1112260621981
 20
331.3696632635009
 30
0.0
 10
331.3743897433554
 20
338.177896026168
 30
0.0
 10
330.67946247565
 20
344.592842458439
 30
0.0
 10
330.0235723948248
 20
350.6680503137253
 30
0.0
 10
329.3952075716958
 20
356.4166784628042
 30
0.0
 10
328.8244108675291
 20
361.8836766048776
 30
0.0
 10
328.194262260956
 20
367.0480874547092
 30
0.0
 10
327.5353057913691
 20
371.8915482812864
 30
0.0
 10
326.8648658385704
 20
376.4089073803395
 30
0.0
 10
326.182509685996
 20
380.5656165309404
 30
0.0
 10
325.4927143408628
 20
384.3575003049041
 30
0.0
 10
324.7867391994239
 20
387.8677320945177
 30
0.0
 10
324.0685970433948
 20
391.1075891615283
 30
0.0
 10
323.1854597306827
 20
394.7959731331243
 30
0.0
 10
322.5365862975698
 20
397.1124729522894
 30
0.0
 10
322.0690839419066
 20
398.7720182216804
 30
0.0
  0
LINE
  5
137
330
D9
100
AcDbEntity
  8
400564040_HEBEL_
  6
Continuous
 62
     7
100
AcDbLine
 10
320.559046859
 20
403.5091323025
 30
0.0
 11
320.5563404442
 21
403.5091323025
 31
0.0
  0
LINE
  5
138
330
D9
100
AcDbEntity
  8
400564040_HEBEL_
  6
Continuous
 62
     7
100
AcDbLine
 10
321.0442490424
 20
402.0292285184
 30
0.0
 11
321.1085830999
 21
402.0292285184
 31
0.0
  0
LINE
  5
13A
330
D9
100
AcDbEntity
  8
DV2_Default
  6
Continuous
 62
     7
100
AcDbLine
 10
252.0586751163
 20
437.3924887673
 30
0.0
 11
252.0586751163
 21
385.2198831833
 31
0.0
  0
ENDBLK
  5
13C
330
D9
100
AcDbEntity
  8
0
100
AcDbBlockEnd
  0
BLOCK
  5
1AF
330
13D
100
AcDbEntity
  8
0
100
AcDbBlockBegin
  2
SE2
 70
     0
 10
0.0
 20
0.0
 30
0.0
  3
SE2
  1

  0
LINE
  5
13F
330
13D
100
AcDbEntity
  8
02284038_ROSETTE
  6
Continuous
 62
     7
100
AcDbLine
 10
6.35
 20
194.5234623781
 30
0.0
 11
156.35
 21
194.5234623781
 31
0.0
  0
LINE
  5
140
330
13D
100
AcDbEntity
  8
02284038_ROSETTE
  6
Continuous
 62
     7
100
AcDbLine
 10
21.056339194
 20
181.5259264564
 30
0.0
 11
141.643660806
 21
181.5259264564
 31
0.0
  0
ARC
  5
141
330
13D
100
AcDbEntity
  8
02284038_ROSETTE
  6
Continuous
 62
     7
100
AcDbCircle
 10
9.1437839406
 20
188.9831956539
 30
0.0
 40
2.499999999999572
100
AcDbArc
 50
183.0
 51
225.7733838776
  0
ARC
  5
142
330
13D
100
AcDbEntity
  8
02284038_ROSETTE
  6
Continuous
 62
     7
100
AcDbCircle
 10
153.5562160594
 20
188.9831956539
 30
0.0
 40
2.499999999999575
100
AcDbArc
 50
314.2266161224
 51
357.0
  0
ARC
  5
143
330
13D
100
AcDbEntity
  8
02284038_ROSETTE
  6
Continuous
 62
     7
100
AcDbCircle
 10
21.35
 20
201.5234623781
 30
0.0
 40
19.99999999999979
100
AcDbArc
 50
225.7733838776
 51
269.0384963119
  0
ARC
  5
144
330
13D
100
AcDbEntity
  8
02284038_ROSETTE
  6
Continuous
 62
     7
100
AcDbCircle
 10
141.35
 20
201.5234623781
 30
0.0
 40
19.99999999999961
100
AcDbArc
 50
270.9615036881
 51
314.2266161224
  0
LINE
  5
145
330
13D
100
AcDbEntity
  8
02284038_ROSETTE
  6
Continuous
 62
     7
100
AcDbLine
 10
6.35
 20
194.5234623781
 30
0.0
 11
6.6472101038
 21
188.8523557633
 31
0.0
  0
LINE
  5
146
330
13D
100
AcDbEntity
  8
02284038_ROSETTE
  6
Continuous
 62
     7
100
AcDbLine
 10
156.0527898962
 20
188.8523557633
 30
0.0
 11
156.35
 21
194.5234623781
 31
0.0
  0
ARC
  5
147
330
13D
100
AcDbEntity
  8
02693038_KAPPE__
  6
Continuous
 62
     7
100
AcDbCircle
 10
81.35
 20
170.4234623781
 30
0.0
 40
25.87500000000015
100
AcDbArc
 50
337.4615588368
 51
359.5
  0
LINE
  5
148
330
13D
100
AcDbEntity
  8
02693038_KAPPE__
  6
Continuous
 62
     7
100
AcDbLine
 10
55.3771249856
 20
181.5259264564
 30
0.0
 11
55.4759852407
 21
170.197663272
 31
0.0
  0
LINE
  5
149
330
13D
100
AcDbEntity
  8
02693038_KAPPE__
  6
Continuous
 62
     7
100
AcDbLine
 10
107.2240147593
 20
170.197663272
 30
0.0
 11
107.3228750144
 21
181.5259264564
 31
0.0
  0
ARC
  5
14A
330
13D
100
AcDbEntity
  8
02693038_KAPPE__
  6
Continuous
 62
     7
100
AcDbCircle
 10
81.35
 20
170.4234623781
 30
0.0
 40
25.87500000000026
100
AcDbArc
 50
180.5
 51
202.5312696351
  0
LINE
  5
14B
330
13D
100
AcDbEntity
  8
400564040_HEBEL_
  6
Continuous
 62
     7
100
AcDbLine
 10
54.0965453953
 20
160.5234623781
 30
0.0
 11
108.611013571
 21
160.5234623781
 31
0.0
  0
SPLINE
  5
14C
330
13D
100
AcDbEntity
  8
400564040_HEBEL_
  6
Continuous
 62
     7
100
AcDbSpline
210
0.0
220
0.0
230
1.0
 70
     8
 71
     3
 72
     8
 73
     4
 74
     0
 42
0.0000003668807359
 43
0.0000000001
 40
0.354902886101825
 40
0.354902886101825
 40
0.354902886101825
 40
0.354902886101825
 40
0.3915909596880418
 40
0.3915909596880418
 40
0.3915909596880418
 40
0.3915909596880418
 10
53.78132470205539
 20
160.1920530996064
 30
0.0
 10
53.78128643921243
 20
160.1920869893013
 30
0.0
 10
53.78129955122163
 20
160.192117888411
 30
0.0
 10
53.78136036467355
 20
160.1921459439897
 30
0.0
  0
SPLINE
  5
14D
330
13D
100
AcDbEntity
  8
400564040_HEBEL_
  6
Continuous
 62
     7
100
AcDbSpline
210
0.0
220
0.0
230
1.0
 70
    11
 71
     3
 72
    62
 73
    58
 74
     0
 42
0.0000000024304971
 43
0.0000000001
 40
0.0
 40
0.0
 40
0.0
 40
0.0
 40
0.0593697429359833
 40
0.0593697429359833
 40
0.0593697429359833
 40
0.1185654632358699
 40
0.1185654632358699
 40
0.1185654632358699
 40
0.1805748260955036
 40
0.1805748260955036
 40
0.1805748260955036
 40
0.2417435659755387
 40
0.2417435659755387
 40
0.2417435659755387
 40
0.297900424760654
 40
0.297900424760654
 40
0.297900424760654
 40
0.3481294746752032
 40
0.3481294746752032
 40
0.3481294746752032
 40
0.3949443195855777
 40
0.3949443195855777
 40
0.3949443195855777
 40
0.4417197539420549
 40
0.4417197539420549
 40
0.4417197539420549
 40
0.4911078139626541
 40
0.4911078139626541
 40
0.4911078139626541
 40
0.5446565492146946
 40
0.5446565492146946
 40
0.5446565492146946
 40
0.6025245728709657
 40
0.6025245728709657
 40
0.6025245728709657
 40
0.6631950961111261
 40
0.6631950961111261
 40
0.6631950961111261
 40
0.7237430010099102
 40
0.7237430010099102
 40
0.7237430010099102
 40
0.781060977296016
 40
0.781060977296016
 40
0.781060977296016
 40
0.8335622022394944
 40
0.8335622022394944
 40
0.8335622022394944
 40
0.8820085944014214
 40
0.8820085944014214
 40
0.8820085944014214
 40
0.9287780440163934
 40
0.9287780440163934
 40
0.9287780440163934
 40
0.9766044881691633
 40
0.9766044881691633
 40
0.9766044881691633
 40
1.0
 40
1.0
 40
1.0
 40
1.0
 10
70.84837822488738
 20
125.06614128222
 30
0.0
 10
70.73886964436949
 20
125.1064197051988
 30
0.0
 10
70.62987321376458
 20
125.1524413487157
 30
0.0
 10
70.53018876505637
 20
125.199959860455
 30
0.0
 10
70.43069106506805
 20
125.2473893510745
 30
0.0
 10
70.33767555461029
 20
125.2976009211232
 30
0.0
 10
70.25793237262675
 20
125.3465859282924
 30
0.0
 10
70.17452997920677
 20
125.3978187326274
 30
0.0
 10
70.10330591052379
 20
125.4491634077589
 30
0.0
 10
70.05110723519647
 20
125.4958434434172
 30
0.0
 10
69.9996882422508
 20
125.5418262276387
 30
0.0
 10
69.96528143731803
 20
125.5846807054872
 30
0.0
 10
69.95329414385472
 20
125.61942491606
 30
0.0
 10
69.94228464858732
 20
125.6513350568305
 30
0.0
 10
69.95003228347781
 20
125.677356197785
 30
0.0
 10
69.97752777658265
 20
125.6941204550961
 30
0.0
 10
70.00217697880699
 20
125.7091493024431
 30
0.0
 10
70.04348117633685
 20
125.7171781451558
 30
0.0
 10
70.098033470676
 20
125.7173441474159
 30
0.0
 10
70.14898944452618
 20
125.7174992060972
 30
0.0
 10
70.21284550695424
 20
125.7108425624628
 30
0.0
 10
70.28406178817743
 20
125.6982746920707
 30
0.0
 10
70.35529144504542
 20
125.6857044612159
 30
0.0
 10
70.43565294592254
 20
125.6669491285574
 30
0.0
 10
70.51881762867482
 20
125.6438985418434
 30
0.0
 10
70.60662746926837
 20
125.6195604661368
 30
0.0
 10
70.69971007576862
 20
125.5898669225257
 30
0.0
 10
70.79138104549449
 20
125.5573171989925
 30
0.0
 10
70.89070421097045
 20
125.522050400939
 30
0.0
 10
70.99083915876106
 20
125.4825691024564
 30
0.0
 10
71.08482649659828
 20
125.4418256789216
 30
0.0
 10
71.18627599329727
 20
125.3978474164608
 30
0.0
 10
71.28319570771481
 20
125.3512557147456
 30
0.0
 10
71.3683684555743
 20
125.3054335403967
 30
0.0
 10
71.4575454607516
 20
125.2574571115291
 30
0.0
 10
71.53629511754403
 20
125.2089791067371
 30
0.0
 10
71.59751425304876
 20
125.1638399209464
 30
0.0
 10
71.65854428076535
 20
125.1188401714857
 30
0.0
 10
71.70388410819476
 20
125.075809313296
 30
0.0
 10
71.72787869476709
 20
125.0388330171827
 30
0.0
 10
71.75059034189808
 20
125.0038337648719
 30
0.0
 10
71.75474059536695
 20
124.97319239351
 30
0.0
 10
71.73821618648229
 20
124.9504271490348
 30
0.0
 10
71.7230625111603
 20
124.9295503282171
 30
0.0
 10
71.68996049946772
 20
124.9146930093632
 30
0.0
 10
71.6411992859871
 20
124.9078020055314
 30
0.0
 10
71.5961198536833
 20
124.9014313162362
 30
0.0
 10
71.53636974082873
 20
124.9016919479472
 30
0.0
 10
71.46724783871467
 20
124.9087369885232
 30
0.0
 10
71.40041928550886
 20
124.9155482864559
 30
0.0
 10
71.32310326961756
 20
124.9288573429563
 30
0.0
 10
71.24179844238463
 20
124.9474654079277
 30
0.0
 10
71.15860424720945
 20
124.9665058885702
 30
0.0
 10
71.06918237951768
 20
124.9915383366356
 30
0.0
 10
70.98024635432785
 20
125.0204458643151
 30
0.0
 10
70.93633095688345
 20
125.0347200076048
 30
0.0
 10
70.89214451453307
 20
125.0500435744584
 30
0.0
 10
70.84837822488738
 20
125.06614128222
 30
0.0
  0
SPLINE
  5
14E
330
13D
100
AcDbEntity
  8
400564040_HEBEL_
  6
Continuous
 62
     7
100
AcDbSpline
210
0.0
220
0.0
230
1.0
 70
    11
 71
     3
 72
    62
 73
    58
 74
     0
 42
0.000000002433816
 43
0.0000000001
 40
0.0
 40
0.0
 40
0.0
 40
0.0
 40
0.0522305653092096
 40
0.0522305653092096
 40
0.0522305653092096
 40
0.1047017419394671
 40
0.1047017419394671
 40
0.1047017419394671
 40
0.1538782512056355
 40
0.1538782512056355
 40
0.1538782512056355
 40
0.2008103337840114
 40
0.2008103337840114
 40
0.2008103337840114
 40
0.2483374444578207
 40
0.2483374444578207
 40
0.2483374444578207
 40
0.2986320667217764
 40
0.2986320667217764
 40
0.2986320667217764
 40
0.3529191468268468
 40
0.3529191468268468
 40
0.3529191468268468
 40
0.4112173611243676
 40
0.4112173611243676
 40
0.4112173611243676
 40
0.4720326044712662
 40
0.4720326044712662
 40
0.4720326044712662
 40
0.5324541695485204
 40
0.5324541695485204
 40
0.5324541695485204
 40
0.5892516469178621
 40
0.5892516469178621
 40
0.5892516469178621
 40
0.6408489566613749
 40
0.6408489566613749
 40
0.6408489566613749
 40
0.6884228349536571
 40
0.6884228349536571
 40
0.6884228349536571
 40
0.7348648925415294
 40
0.7348648925415294
 40
0.7348648925415294
 40
0.7831791343760759
 40
0.7831791343760759
 40
0.7831791343760759
 40
0.8356464203279544
 40
0.8356464203279544
 40
0.8356464203279544
 40
0.8932270968311371
 40
0.8932270968311371
 40
0.8932270968311371
 40
0.9547167605982733
 40
0.9547167605982733
 40
0.9547167605982733
 40
1.0
 40
1.0
 40
1.0
 40
1.0
 10
91.8483782248874
 20
125.0622086694123
 30
0.0
 10
91.75187986017535
 20
125.0267567397754
 30
0.0
 10
91.65249106351757
 20
124.9948666955934
 30
0.0
 10
91.5581974867452
 20
124.9694511076655
 30
0.0
 10
91.46364611286708
 20
124.9439660339334
 30
0.0
 10
91.37154833279328
 20
124.9243257621828
 30
0.0
 10
91.29111786530683
 20
124.9126873224927
 30
0.0
 10
91.21565228222164
 20
124.9017673108992
 30
0.0
 10
91.14829958840241
 20
124.8975785369992
 30
0.0
 10
91.09535094538313
 20
124.9004193768704
 30
0.0
 10
91.04473451272
 20
124.9031350872616
 30
0.0
 10
91.0058499834332
 20
124.9123073334459
 30
0.0
 10
90.9813583741003
 20
124.926864442911
 30
0.0
 10
90.95653913821197
 20
124.9416162841948
 30
0.0
 10
90.94577863106218
 20
124.9622366121286
 30
0.0
 10
90.94892252318286
 20
124.9868400397986
 30
0.0
 10
90.9522490410724
 20
125.0128726576961
 30
0.0
 10
90.97114546131816
 20
125.0439887473587
 30
0.0
 10
91.00317349304214
 20
125.0777578470262
 30
0.0
 10
91.03771935825138
 20
125.1141816515049
 30
0.0
 10
91.08835720727654
 20
125.1545983917646
 30
0.0
 10
91.15059515074222
 20
125.1961231050595
 30
0.0
 10
91.21735750702105
 20
125.2406664744093
 30
0.0
 10
91.29920048457555
 20
125.2876557763308
 30
0.0
 10
91.3895844281826
 20
125.3337066185204
 30
0.0
 10
91.48374739217314
 20
125.3816828809159
 30
0.0
 10
91.58984859376253
 20
125.4299966658992
 30
0.0
 10
91.69915719147359
 20
125.474666803445
 30
0.0
 10
91.80763977608247
 20
125.5189993818266
 30
0.0
 10
91.92261122983143
 20
125.5610789136283
 30
0.0
 10
92.03336745467236
 20
125.5965535623235
 30
0.0
 10
92.13747238927581
 20
125.6298978369934
 30
0.0
 10
92.24113507699663
 20
125.6584109895709
 30
0.0
 10
92.33350436420189
 20
125.6784454078743
 30
0.0
 10
92.41753974824854
 20
125.6966722458982
 30
0.0
 10
92.49476334798861
 20
125.7083910626287
 30
0.0
 10
92.5572204244249
 20
125.7118961613208
 30
0.0
 10
92.6149295193926
 20
125.715134802718
 30
0.0
 10
92.66169191275411
 20
125.7114581544129
 30
0.0
 10
92.69367060456484
 20
125.7011404930316
 30
0.0
 10
92.72493394365905
 20
125.6910536343092
 30
0.0
 10
92.7429771165296
 20
125.6743971696084
 30
0.0
 10
92.74731111336361
 20
125.652771379441
 30
0.0
 10
92.75182166804538
 20
125.6302646004049
 30
0.0
 10
92.74170330369247
 20
125.6018628877109
 30
0.0
 10
92.71888346179611
 20
125.5700223356858
 30
0.0
 10
92.69411405341776
 20
125.5354615512735
 30
0.0
 10
92.65385941495708
 20
125.4960362653612
 30
0.0
 10
92.60194468900718
 20
125.4548648341923
 30
0.0
 10
92.5450391761816
 20
125.4097354154858
 30
0.0
 10
92.4727090674917
 20
125.361376022392
 30
0.0
 10
92.39059816690836
 20
125.3135691437884
 30
0.0
 10
92.30306271096543
 20
125.2626039627217
 30
0.0
 10
92.20194499726871
 20
125.2108610631012
 30
0.0
 10
92.09519848578304
 20
125.1628583580922
 30
0.0
 10
92.01611868175611
 20
125.1272970600971
 30
0.0
 10
91.93247494989589
 20
125.0931044383364
 30
0.0
 10
91.8483782248874
 20
125.0622086694123
 30
0.0
  0
LINE
  5
14F
330
13D
100
AcDbEntity
  8
400564040_HEBEL_
  6
Continuous
 62
     7
100
AcDbLine
 10
87.3309646789
 20
126.1326535174
 30
0.0
 11
87.3309646789
 21
125.998252034
 31
0.0
  0
LINE
  5
150
330
13D
100
AcDbEntity
  8
400564040_HEBEL_
  6
Continuous
 62
     7
100
AcDbLine
 10
86.2889975639
 20
125.944560788
 30
0.0
 11
87.3309646789
 21
126.1326535174
 31
0.0
  0
LINE
  5
151
330
13D
100
AcDbEntity
  8
400564040_HEBEL_
  6
Continuous
 62
     7
100
AcDbLine
 10
86.2889975639
 20
126.1202054251
 30
0.0
 11
86.2889975639
 21
125.944560788
 31
0.0
  0
LINE
  5
152
330
13D
100
AcDbEntity
  8
400564040_HEBEL_
  6
Continuous
 62
     7
100
AcDbLine
 10
87.0444168231
 20
126.252998377
 30
0.0
 11
86.2889975639
 21
126.1202054251
 31
0.0
  0
LINE
  5
153
330
13D
100
AcDbEntity
  8
400564040_HEBEL_
  6
Continuous
 62
     7
100
AcDbLine
 10
87.0444168231
 20
126.3879125618
 30
0.0
 11
87.0444168231
 21
126.252998377
 31
0.0
  0
LINE
  5
154
330
13D
100
AcDbEntity
  8
400564040_HEBEL_
  6
Continuous
 62
     7
100
AcDbLine
 10
86.2889975639
 20
126.2549122584
 30
0.0
 11
87.0444168231
 21
126.3879125618
 31
0.0
  0
LINE
  5
155
330
13D
100
AcDbEntity
  8
400564040_HEBEL_
  6
Continuous
 62
     7
100
AcDbLine
 10
86.2889975639
 20
126.3929696534
 30
0.0
 11
86.2889975639
 21
126.2549122584
 31
0.0
  0
LINE
  5
156
330
13D
100
AcDbEntity
  8
400564040_HEBEL_
  6
Continuous
 62
     7
100
AcDbLine
 10
87.1893005704
 20
126.5540567229
 30
0.0
 11
86.2889975639
 21
126.3929696534
 31
0.0
  0
LINE
  5
157
330
13D
100
AcDbEntity
  8
400564040_HEBEL_
  6
Continuous
 62
     7
100
AcDbLine
 10
87.1893005704
 20
126.6979958886
 30
0.0
 11
87.1893005704
 21
126.5540567229
 31
0.0
  0
LINE
  5
158
330
13D
100
AcDbEntity
  8
400564040_HEBEL_
  6
Continuous
 62
     7
100
AcDbLine
 10
85.740463097
 20
126.4522506665
 30
0.0
 11
87.1893005704
 21
126.6979958886
 31
0.0
  0
LINE
  5
159
330
13D
100
AcDbEntity
  8
400564040_HEBEL_
  6
Continuous
 62
     7
100
AcDbLine
 10
85.740463097
 20
125.7267871965
 30
0.0
 11
85.740463097
 21
126.4522506665
 31
0.0
  0
LINE
  5
15A
330
13D
100
AcDbEntity
  8
400564040_HEBEL_
  6
Continuous
 62
     7
100
AcDbLine
 10
87.3309646789
 20
125.998252034
 30
0.0
 11
85.740463097
 21
125.7267871965
 31
0.0
  0
LINE
  5
15B
330
13D
100
AcDbEntity
  8
400564040_HEBEL_
  6
Continuous
 62
     7
100
AcDbLine
 10
86.2889975639
 20
126.5452905877
 30
0.0
 11
86.2889975639
 21
126.3929696534
 31
0.0
  0
LINE
  5
15C
330
13D
100
AcDbEntity
  8
400564040_HEBEL_
  6
Continuous
 62
     7
100
AcDbLine
 10
86.2889975639
 20
126.2538591919
 30
0.0
 11
86.2889975639
 21
126.1202054251
 31
0.0
  0
SPLINE
  5
15D
330
13D
100
AcDbEntity
  8
400564040_HEBEL_
  6
Continuous
 62
     7
100
AcDbSpline
210
0.0
220
0.0
230
1.0
 70
     8
 71
     3
 72
    16
 73
    12
 74
     0
 42
0.0000000028122709
 43
0.0000000001
 40
0.0
 40
0.0
 40
0.0
 40
0.0
 40
0.2500000000000007
 40
0.2500000000000007
 40
0.5000000000000012
 40
0.5000000000000012
 40
0.6250000000000011
 40
0.6250000000000011
 40
0.750000000000001
 40
0.750000000000001
 40
1.0
 40
1.0
 40
1.0
 40
1.0
 10
81.36497392731113
 20
124.5089124168812
 30
0.0
 10
81.67866902979826
 20
124.5098582537841
 30
0.0
 10
81.97218857104485
 20
124.5360742618986
 30
0.0
 10
82.55005298047254
 20
124.6050579371293
 30
0.0
 10
82.83383745806007
 20
124.6486988639068
 30
0.0
 10
83.26691929499596
 20
124.711263396355
 30
0.0
 10
83.41242455546575
 20
124.7316457058614
 30
0.0
 10
83.70854684005882
 20
124.7682716491797
 30
0.0
 10
83.86117009325353
 20
124.7846577853911
 30
0.0
 10
84.31763343965152
 20
124.820413265828
 30
0.0
 10
84.61103984638035
 20
124.8275946280462
 30
0.0
 10
84.9016091973111
 20
124.8337422354409
 30
0.0
  0
LINE
  5
15E
330
13D
100
AcDbEntity
  8
400564040_HEBEL_
  6
Continuous
 62
     7
100
AcDbLine
 10
84.9016091973
 20
124.8337422354
 30
0.0
 11
85.1956082173
 21
124.9121499679
 31
0.0
  0
SPLINE
  5
15F
330
13D
100
AcDbEntity
  8
400564040_HEBEL_
  6
Continuous
 62
     7
100
AcDbSpline
210
0.0
220
0.0
230
1.0
 70
     8
 71
     3
 72
    18
 73
    14
 74
     0
 42
0.0000000012973849
 43
0.0000000001
 40
0.0
 40
0.0
 40
0.0
 40
0.0
 40
0.1249999999999999
 40
0.1249999999999999
 40
0.2499999999999999
 40
0.2499999999999999
 40
0.5
 40
0.5
 40
0.7500000000000001
 40
0.7500000000000001
 40
0.875
 40
0.875
 40
1.0
 40
1.0
 40
1.0
 40
1.0
 10
85.19560821731122
 20
124.9121499678863
 30
0.0
 10
84.88293721136893
 20
124.905119309261
 30
0.0
 10
84.5692607238198
 20
124.9016872571789
 30
0.0
 10
83.91757628700772
 20
124.8649759493426
 30
0.0
 10
83.5804768682959
 20
124.8248477535444
 30
0.0
 10
82.63122627903013
 20
124.6898766767942
 30
0.0
 10
82.02279918440672
 20
124.5768616110126
 30
0.0
 10
80.67901327771379
 20
124.5797780576872
 30
0.0
 10
80.08490547620956
 20
124.6910343352039
 30
0.0
 10
79.14290224218503
 20
124.8240567581969
 30
0.0
 10
78.8087155785042
 20
124.8634509485818
 30
0.0
 10
78.15850725080284
 20
124.8994853933627
 30
0.0
 10
77.84591911633566
 20
124.9026927613896
 30
0.0
 10
77.53433963029846
 20
124.9094628285553
 30
0.0
  0
LINE
  5
160
330
13D
100
AcDbEntity
  8
400564040_HEBEL_
  6
Continuous
 62
     7
100
AcDbLine
 10
77.5343396303
 20
124.9094628286
 30
0.0
 11
77.8283386573
 21
124.831274293
 31
0.0
  0
SPLINE
  5
161
330
13D
100
AcDbEntity
  8
400564040_HEBEL_
  6
Continuous
 62
     7
100
AcDbSpline
210
0.0
220
0.0
230
1.0
 70
     8
 71
     3
 72
    16
 73
    12
 74
     0
 42
0.0000000028124438
 43
0.0000000001
 40
0.0
 40
0.0
 40
0.0
 40
0.0
 40
0.25
 40
0.25
 40
0.3749999999999999
 40
0.3749999999999999
 40
0.4999999999999999
 40
0.4999999999999999
 40
0.7499999999999999
 40
0.7499999999999999
 40
1.0
 40
1.0
 40
1.0
 40
1.0
 10
77.82833865731124
 20
124.8312742930281
 30
0.0
 10
78.11898002406936
 20
124.8253336190604
 30
0.0
 10
78.4125205656848
 20
124.8183541902722
 30
0.0
 10
78.8697065611965
 20
124.7827908477215
 30
0.0
 10
79.02172572226256
 20
124.7665445978879
 30
0.0
 10
79.31752538661912
 20
124.7301388665377
 30
0.0
 10
79.46297360391134
 20
124.7098580731179
 30
0.0
 10
79.89601683521225
 20
124.6475823015317
 30
0.0
 10
80.1797726769247
 20
124.6041436673345
 30
0.0
 10
80.75759900368735
 20
124.5355947047247
 30
0.0
 10
81.0511212448312
 20
124.5096018269165
 30
0.0
 10
81.36497392731113
 20
124.5089124168812
 30
0.0
  0
LINE
  5
162
330
13D
100
AcDbEntity
  8
400564040_HEBEL_
  6
Continuous
 62
     7
100
AcDbLine
 10
84.9016091973
 20
124.9052409622
 30
0.0
 11
84.9016091973
 21
124.8337422354
 31
0.0
  0
LINE
  5
163
330
13D
100
AcDbEntity
  8
400564040_HEBEL_
  6
Continuous
 62
     7
100
AcDbLine
 10
77.8283386573
 20
124.9028802738
 30
0.0
 11
77.8283386573
 21
124.831274293
 31
0.0
  0
LINE
  5
164
330
13D
100
AcDbEntity
  8
400564040_HEBEL_
  6
Continuous
 62
     7
100
AcDbLine
 10
81.3649739273
 20
124.5812867792
 30
0.0
 11
81.3649739273
 21
124.5089124169
 31
0.0
  0
LINE
  5
165
330
13D
100
AcDbEntity
  8
400564040_HEBEL_
  6
Continuous
 62
     7
100
AcDbLine
 10
80.0191752566
 20
125.4454171946
 30
0.0
 11
79.3085195793
 21
125.7665656355
 31
0.0
  0
LINE
  5
166
330
13D
100
AcDbEntity
  8
400564040_HEBEL_
  6
Continuous
 62
     7
100
AcDbLine
 10
79.3205032704
 20
125.4829152233
 30
0.0
 11
80.0191752566
 21
125.4454171946
 31
0.0
  0
LINE
  5
167
330
13D
100
AcDbEntity
  8
400564040_HEBEL_
  6
Continuous
 62
     7
100
AcDbLine
 10
78.9361354316
 20
126.2337395073
 30
0.0
 11
77.9070818241
 21
126.3317403285
 31
0.0
  0
LINE
  5
168
330
13D
100
AcDbEntity
  8
400564040_HEBEL_
  6
Continuous
 62
     7
100
AcDbLine
 10
78.4705186193
 20
126.1305822606
 30
0.0
 11
78.8355217277
 21
126.098691353
 31
0.0
  0
LINE
  5
169
330
13D
100
AcDbEntity
  8
400564040_HEBEL_
  6
Continuous
 62
     7
100
AcDbLine
 10
78.8355217277
 20
126.2433213459
 30
0.0
 11
78.8355217277
 21
126.098691353
 31
0.0
  0
SPLINE
  5
16A
330
13D
100
AcDbEntity
  8
400564040_HEBEL_
  6
Continuous
 62
     7
100
AcDbSpline
210
0.0
220
0.0
230
1.0
 70
     8
 71
     3
 72
    18
 73
    14
 74
     0
 42
0.0000000114509481
 43
0.0000000001
 40
0.0
 40
0.0
 40
0.0
 40
0.0
 40
0.2500000000000047
 40
0.2500000000000047
 40
0.3750000000000041
 40
0.3750000000000041
 40
0.5000000000000036
 40
0.5000000000000036
 40
0.625000000000003
 40
0.625000000000003
 40
0.7500000000000029
 40
0.7500000000000029
 40
1.0
 40
1.0
 40
1.0
 40
1.0
 10
79.71003452582161
 20
125.9499885025783
 30
0.0
 10
79.70988447076361
 20
125.9828592055458
 30
0.0
 10
79.69416370046325
 20
126.0167178663085
 30
0.0
 10
79.63604627756183
 20
126.0648605111379
 30
0.0
 10
79.61122140310039
 20
126.0802763544414
 30
0.0
 10
79.55642361688153
 20
126.1105934450483
 30
0.0
 10
79.52563356546678
 20
126.1254630937066
 30
0.0
 10
79.45316823121642
 20
126.1515999376913
 30
0.0
 10
79.41090349832821
 20
126.1631931136965
 30
0.0
 10
79.32316568135226
 20
126.1836314975851
 30
0.0
 10
79.2774190077014
 20
126.1925369121077
 30
0.0
 10
79.13533212866967
 20
126.21593465805
 30
0.0
 10
79.03585679091618
 20
126.2267600214451
 30
0.0
 10
78.9361354316334
 20
126.2337395073156
 30
0.0
  0
LINE
  5
16B
330
13D
100
AcDbEntity
  8
400564040_HEBEL_
  6
Continuous
 62
     7
100
AcDbLine
 10
77.9070818241
 20
126.3317403285
 30
0.0
 11
77.9070818241
 21
125.6073602387
 31
0.0
  0
LINE
  5
16C
330
13D
100
AcDbEntity
  8
400564040_HEBEL_
  6
Continuous
 62
     7
100
AcDbLine
 10
77.9070818241
 20
125.6073602387
 30
0.0
 11
78.4705186193
 21
125.5498885177
 31
0.0
  0
LINE
  5
16D
330
13D
100
AcDbEntity
  8
400564040_HEBEL_
  6
Continuous
 62
     7
100
AcDbLine
 10
78.4705186193
 20
125.5498885177
 30
0.0
 11
78.4705186193
 21
126.1305822606
 31
0.0
  0
LINE
  5
16E
330
13D
100
AcDbEntity
  8
400564040_HEBEL_
  6
Continuous
 62
     7
100
AcDbLine
 10
78.4705186193
 20
126.2780820271
 30
0.0
 11
78.4705186193
 21
126.1305822606
 31
0.0
  0
SPLINE
  5
16F
330
13D
100
AcDbEntity
  8
400564040_HEBEL_
  6
Continuous
 62
     7
100
AcDbSpline
210
0.0
220
0.0
230
1.0
 70
     8
 71
     3
 72
    12
 73
     8
 74
     0
 42
0.0000000260688982
 43
0.0000000001
 40
0.0
 40
0.0
 40
0.0
 40
0.0
 40
0.2499999999999986
 40
0.2499999999999986
 40
0.4999999999999972
 40
0.4999999999999972
 40
1.0
 40
1.0
 40
1.0
 40
1.0
 10
78.8355217276875
 20
126.0986913530354
 30
0.0
 10
78.88164888031436
 20
126.0953906306162
 30
0.0
 10
78.92752891839906
 20
126.0895036901369
 30
0.0
 10
79.0119712212718
 20
126.0720875649265
 30
0.0
 10
79.05105525932935
 20
126.060664906802
 30
0.0
 10
79.13446753260467
 20
126.0191305498597
 30
0.0
 10
79.15956496130494
 20
125.9870656236053
 30
0.0
 10
79.15967921074798
 20
125.9568069966144
 30
0.0
  0
LINE
  5
170
330
13D
100
AcDbEntity
  8
400564040_HEBEL_
  6
Continuous
 62
     7
100
AcDbLine
 10
79.1596792107
 20
126.2102540425
 30
0.0
 11
79.1596792107
 21
125.9568069966
 31
0.0
  0
SPLINE
  5
171
330
13D
100
AcDbEntity
  8
400564040_HEBEL_
  6
Continuous
 62
     7
100
AcDbSpline
210
0.0
220
0.0
230
1.0
 70
     8
 71
     3
 72
    12
 73
     8
 74
     0
 42
0.0000000295272428
 43
0.0000000001
 40
0.0
 40
0.0
 40
0.0
 40
0.0
 40
0.25
 40
0.25
 40
0.5
 40
0.5
 40
1.0
 40
1.0
 40
1.0
 40
1.0
 10
79.15967921074798
 20
125.9568069966144
 30
0.0
 10
79.15962629088551
 20
125.9427988007321
 30
0.0
 10
79.15534251121056
 20
125.9293245618624
 30
0.0
 10
79.13193864601635
 20
125.9042131412805
 30
0.0
 10
79.11287217713975
 20
125.8926478804588
 30
0.0
 10
79.03932022495998
 20
125.8630184045703
 30
0.0
 10
78.95123728845606
 20
125.8578145110245
 30
0.0
 10
78.86505403444735
 20
125.8634055014326
 30
0.0
  0
LINE
  5
172
330
13D
100
AcDbEntity
  8
400564040_HEBEL_
  6
Continuous
 62
     7
100
AcDbLine
 10
78.8650540344
 20
125.8634055014
 30
0.0
 11
78.5413506736
 21
125.8910654567
 31
0.0
  0
LINE
  5
173
330
13D
100
AcDbEntity
  8
400564040_HEBEL_
  6
Continuous
 62
     7
100
AcDbLine
 10
78.5413506736
 20
125.8910654567
 30
0.0
 11
79.3205032704
 21
125.4829152233
 31
0.0
  0
SPLINE
  5
174
330
13D
100
AcDbEntity
  8
400564040_HEBEL_
  6
Continuous
 62
     7
100
AcDbSpline
210
0.0
220
0.0
230
1.0
 70
     8
 71
     3
 72
    14
 73
    10
 74
     0
 42
0.0000000209583085
 43
0.0000000001
 40
0.0
 40
0.0
 40
0.0
 40
0.0
 40
0.25
 40
0.25
 40
0.5
 40
0.5
 40
0.75
 40
0.75
 40
1.0
 40
1.0
 40
1.0
 40
1.0
 10
79.30851957933261
 20
125.7665656354625
 30
0.0
 10
79.37128219565818
 20
125.7704883395815
 30
0.0
 10
79.4307262844278
 20
125.7770344632474
 30
0.0
 10
79.53361485138025
 20
125.799336749424
 30
0.0
 10
79.57280347802026
 20
125.8147517408179
 30
0.0
 10
79.64318694786019
 20
125.8478803863199
 30
0.0
 10
79.67031633687775
 20
125.8662984705499
 30
0.0
 10
79.70346671131587
 20
125.9068480907808
 30
0.0
 10
79.70993455799412
 20
125.9281003294355
 30
0.0
 10
79.71003452582161
 20
125.9499885025783
 30
0.0
  0
LINE
  5
175
330
13D
100
AcDbEntity
  8
400564040_HEBEL_
  6
Continuous
 62
     7
100
AcDbLine
 10
79.3205032704
 20
125.7611501525
 30
0.0
 11
79.3205032704
 21
125.4829152233
 31
0.0
  0
LINE
  5
176
330
13D
100
AcDbEntity
  8
400564040_HEBEL_
  6
Continuous
 62
     7
100
AcDbLine
 10
79.3085195793
 20
126.1825326285
 30
0.0
 11
79.3085195793
 21
125.7665656355
 31
0.0
  0
SPLINE
  5
177
330
13D
100
AcDbEntity
  8
400564040_HEBEL_
  6
Continuous
 62
     7
100
AcDbSpline
210
0.0
220
0.0
230
1.0
 70
     8
 71
     3
 72
    16
 73
    12
 74
     0
 42
0.0000000069537006
 43
0.0000000001
 40
0.0
 40
0.0
 40
0.0
 40
0.0
 40
0.2499999999999999
 40
0.2499999999999999
 40
0.3749999999999987
 40
0.3749999999999987
 40
0.4999999999999976
 40
0.4999999999999976
 40
0.7499999999999988
 40
0.7499999999999988
 40
1.0
 40
1.0
 40
1.0
 40
1.0
 10
75.22512006884764
 20
126.3850079423537
 30
0.0
 10
75.22533079193308
 20
126.3310592541462
 30
0.0
 10
75.24776850707042
 20
126.2744887090724
 30
0.0
 10
75.33585797876673
 20
126.1840036240216
 30
0.0
 10
75.3735512318502
 20
126.1540398404015
 30
0.0
 10
75.45720512545716
 20
126.0945105521202
 30
0.0
 10
75.5036790847045
 20
126.0645009809187
 30
0.0
 10
75.67200821283342
 20
125.9785784916992
 30
0.0
 10
75.81759117560033
 20
125.9281243616413
 30
0.0
 10
76.12120952952368
 20
125.8441109207651
 30
0.0
 10
76.284450139704
 20
125.8102593997535
 30
0.0
 10
76.44858543422609
 20
125.7851922264334
 30
0.0
  0
SPLINE
  5
178
330
13D
100
AcDbEntity
  8
400564040_HEBEL_
  6
Continuous
 62
     7
100
AcDbSpline
210
0.0
220
0.0
230
1.0
 70
     8
 71
     3
 72
    20
 73
    16
 74
     0
 42
0.0000000074909074
 43
0.0000000001
 40
0.0
 40
0.0
 40
0.0
 40
0.0
 40
0.2500000000000008
 40
0.2500000000000008
 40
0.3750000000000007
 40
0.3750000000000007
 40
0.5000000000000006
 40
0.5000000000000006
 40
0.6250000000000004
 40
0.6250000000000004
 40
0.7500000000000002
 40
0.7500000000000002
 40
0.8750000000000001
 40
0.8750000000000001
 40
1.0
 40
1.0
 40
1.0
 40
1.0
 10
76.44858543422609
 20
126.5540239641907
 30
0.0
 10
76.29034110968155
 20
126.5811026999072
 30
0.0
 10
76.13411436985656
 20
126.6019195072651
 30
0.0
 10
75.90393424173477
 20
126.6190093453882
 30
0.0
 10
75.82881805461511
 20
126.6221949499322
 30
0.0
 10
75.68700886316687
 20
126.6222945372421
 30
0.0
 10
75.61904996371501
 20
126.6191258170855
 30
0.0
 10
75.50505957720844
 20
126.60271901257
 30
0.0
 10
75.45757731375282
 20
126.589427990689
 30
0.0
 10
75.37207847960997
 20
126.5600329016889
 30
0.0
 10
75.33424816639383
 20
126.5438407514885
 30
0.0
 10
75.27645534462408
 20
126.5056351215638
 30
0.0
 10
75.25588500444434
 20
126.4835239748436
 30
0.0
 10
75.23051980124512
 20
126.436299959409
 30
0.0
 10
75.22523291877565
 20
126.4111710612529
 30
0.0
 10
75.22512006884764
 20
126.3850079423537
 30
0.0
  0
ARC
  5
179
330
13D
100
AcDbEntity
  8
400564040_HEBEL_
  6
Continuous
 62
     7
100
AcDbCircle
 10
75.2896344387
 20
119.3212550533
 30
0.0
 40
7.325033346533916
100
AcDbArc
 50
73.4567033529
 51
80.8965312744
  0
LINE
  5
17A
330
13D
100
AcDbEntity
  8
400564040_HEBEL_
  6
Continuous
 62
     7
100
AcDbLine
 10
77.3753630709
 20
126.1964733878
 30
0.0
 11
77.3753630709
 21
126.343067469
 31
0.0
  0
ARC
  5
17B
330
13D
100
AcDbEntity
  8
400564040_HEBEL_
  6
Continuous
 62
     7
100
AcDbCircle
 10
75.9025220184
 20
121.9730029399
 30
0.0
 40
4.472914417958243
100
AcDbArc
 50
70.7749225512
 51
81.3215780665
  0
SPLINE
  5
17C
330
13D
100
AcDbEntity
  8
400564040_HEBEL_
  6
Continuous
 62
     7
100
AcDbSpline
210
0.0
220
0.0
230
1.0
 70
     8
 71
     3
 72
    16
 73
    12
 74
     0
 42
0.0000000118286673
 43
0.0000000001
 40
0.0
 40
0.0
 40
0.0
 40
0.0
 40
0.2499999999999986
 40
0.2499999999999986
 40
0.3749999999999984
 40
0.3749999999999984
 40
0.4999999999999982
 40
0.4999999999999982
 40
0.7499999999999994
 40
0.7499999999999994
 40
1.0
 40
1.0
 40
1.0
 40
1.0
 10
75.81109694592811
 20
126.2710521087268
 30
0.0
 10
75.81123472611122
 20
126.3042763912401
 30
0.0
 10
75.82341833877942
 20
126.3350208210763
 30
0.0
 10
75.87578652431057
 20
126.3739922951212
 30
0.0
 10
75.89883021419868
 20
126.3852502794331
 30
0.0
 10
75.9511537561806
 20
126.4055300972278
 30
0.0
 10
75.98016589292979
 20
126.415077586071
 30
0.0
 10
76.08555072867566
 20
126.4345082461286
 30
0.0
 10
76.17967409715729
 20
126.4352136970123
 30
0.0
 10
76.37419693714259
 20
126.4240939719832
 30
0.0
 10
76.47611955277111
 20
126.411581638446
 30
0.0
 10
76.57743351998164
 20
126.3947059891188
 30
0.0
  0
SPLINE
  5
17D
330
13D
100
AcDbEntity
  8
400564040_HEBEL_
  6
Continuous
 62
     7
100
AcDbSpline
210
0.0
220
0.0
230
1.0
 70
     8
 71
     3
 72
    14
 73
    10
 74
     0
 42
0.0000000135049182
 43
0.0000000001
 40
0.0
 40
0.0
 40
0.0
 40
0.0
 40
0.25
 40
0.25
 40
0.5
 40
0.5
 40
0.75
 40
0.75
 40
1.0
 40
1.0
 40
1.0
 40
1.0
 10
76.40677873674112
 20
125.9207725896616
 30
0.0
 10
76.31316406895603
 20
125.9349545122466
 30
0.0
 10
76.2209206897908
 20
125.9564408804216
 30
0.0
 10
76.06007351963098
 20
126.0101891846981
 30
0.0
 10
75.99128539196121
 20
126.0423048998171
 30
0.0
 10
75.89834757452543
 20
126.109191785593
 30
0.0
 10
75.86377440774514
 20
126.1426810839163
 30
0.0
 10
75.81961658930159
 20
126.208306523386
 30
0.0
 10
75.8111956957069
 20
126.2403761241865
 30
0.0
 10
75.81109694592811
 20
126.2710521087268
 30
0.0
  0
ARC
  5
17E
330
13D
100
AcDbEntity
  8
400564040_HEBEL_
  6
Continuous
 62
     7
100
AcDbCircle
 10
76.8506872607
 20
128.5827060112
 30
0.0
 40
2.698693075996446
100
AcDbArc
 50
260.5323804187
 51
270.6227108663
  0
LINE
  5
17F
330
13D
100
AcDbEntity
  8
400564040_HEBEL_
  6
Continuous
 62
     7
100
AcDbLine
 10
76.8800170374
 20
126.0945302418
 30
0.0
 11
76.8800170374
 21
125.88417232
 31
0.0
  0
LINE
  5
180
330
13D
100
AcDbEntity
  8
400564040_HEBEL_
  6
Continuous
 62
     7
100
AcDbLine
 10
77.4466734715
 20
126.0169451095
 30
0.0
 11
76.8800170374
 21
126.0945302418
 31
0.0
  0
LINE
  5
181
330
13D
100
AcDbEntity
  8
400564040_HEBEL_
  6
Continuous
 62
     7
100
AcDbLine
 10
77.4466734715
 20
125.7251670466
 30
0.0
 11
77.4466734715
 21
126.0169451095
 31
0.0
  0
ARC
  5
182
330
13D
100
AcDbEntity
  8
400564040_HEBEL_
  6
Continuous
 62
     7
100
AcDbCircle
 10
77.2339696272
 20
130.5163932399
 30
0.0
 40
4.795945304149687
100
AcDbArc
 50
260.5747897733
 51
272.5419454613
  0
LINE
  5
183
330
13D
100
AcDbEntity
  8
400564040_HEBEL_
  6
Continuous
 62
     7
100
AcDbLine
 10
75.8110969459
 20
126.6181463068
 30
0.0
 11
75.8110969459
 21
126.2710521087
 31
0.0
  0
LINE
  5
184
330
13D
100
AcDbEntity
  8
400564040_HEBEL_
  6
Continuous
 62
     7
100
AcDbLine
 10
76.57743352
 20
126.5310196343
 30
0.0
 11
76.57743352
 21
126.3947059891
 31
0.0
  0
LINE
  5
185
330
13D
100
AcDbEntity
  8
400564040_HEBEL_
  6
Continuous
 62
     7
100
AcDbLine
 10
76.4485854342
 20
125.9150493453
 30
0.0
 11
76.4485854342
 21
125.7851922264
 31
0.0
  0
LINE
  5
186
330
13D
100
AcDbEntity
  8
400564040_HEBEL_
  6
Continuous
 62
     7
100
AcDbLine
 10
76.5918133673
 20
125.2098188311
 30
0.0
 11
76.7993420873
 21
125.1225518956
 31
0.0
  0
LINE
  5
187
330
13D
100
AcDbEntity
  8
400564040_HEBEL_
  6
Continuous
 62
     7
100
AcDbLine
 10
85.9306057673
 20
125.1258344486
 30
0.0
 11
86.1381344873
 21
125.2132792211
 31
0.0
  0
SPLINE
  5
188
330
13D
100
AcDbEntity
  8
400564040_HEBEL_
  6
Continuous
 62
     7
100
AcDbSpline
210
0.0
220
0.0
230
1.0
 70
     8
 71
     3
 72
    22
 73
    18
 74
     0
 42
0.0000000021806719
 43
0.0000000001
 40
0.0
 40
0.0
 40
0.0
 40
0.0
 40
0.1249999999999994
 40
0.1249999999999994
 40
0.2499999999999991
 40
0.2499999999999991
 40
0.3749999999999988
 40
0.3749999999999988
 40
0.4374999999999988
 40
0.4374999999999988
 40
0.4999999999999988
 40
0.4999999999999988
 40
0.7499999999999993
 40
0.7499999999999993
 40
0.8749999999999997
 40
0.8749999999999997
 40
1.0
 40
1.0
 40
1.0
 40
1.0
 10
76.79934208731116
 20
125.122551895562
 30
0.0
 10
76.98758608139333
 20
125.1119012146769
 30
0.0
 10
77.17589284334885
 20
125.1031011456888
 30
0.0
 10
77.55263023750571
 20
125.0891531268357
 30
0.0
 10
77.7407926766003
 20
125.0843586157329
 30
0.0
 10
78.1183686246271
 20
125.0768949794375
 30
0.0
 10
78.30953229633353
 20
125.071901141981
 30
0.0
 10
78.60522817011234
 20
125.0557017105325
 30
0.0
 10
78.70439348038545
 20
125.0488158532372
 30
0.0
 10
78.8991373308056
 20
125.0316074527159
 30
0.0
 10
78.99544002295629
 20
125.0213702598955
 30
0.0
 10
79.47311757667485
 20
124.964757591038
 30
0.0
 10
79.84264009300855
 20
124.902819932721
 30
0.0
 10
80.39920599467311
 20
124.8258966075875
 30
0.0
 10
80.58559902506589
 20
124.8026568574204
 30
0.0
 10
80.96672378920744
 20
124.7679083562712
 30
0.0
 10
81.16132095197852
 20
124.7562432886966
 30
0.0
 10
81.36497392731113
 20
124.7557798642877
 30
0.0
  0
SPLINE
  5
189
330
13D
100
AcDbEntity
  8
400564040_HEBEL_
  6
Continuous
 62
     7
100
AcDbSpline
210
0.0
220
0.0
230
1.0
 70
     8
 71
     3
 72
    22
 73
    18
 74
     0
 42
0.0000000021805473
 43
0.0000000001
 40
0.0
 40
0.0
 40
0.0
 40
0.0
 40
0.1249999999999997
 40
0.1249999999999997
 40
0.2499999999999994
 40
0.2499999999999994
 40
0.4999999999999986
 40
0.4999999999999986
 40
0.5624999999999987
 40
0.5624999999999987
 40
0.6249999999999987
 40
0.6249999999999987
 40
0.7499999999999992
 40
0.7499999999999992
 40
0.8749999999999996
 40
0.8749999999999996
 40
1.0
 40
1.0
 40
1.0
 40
1.0
 10
81.36497392731113
 20
124.7557798642877
 30
0.0
 10
81.56803687856764
 20
124.7564082773623
 30
0.0
 10
81.76249087678636
 20
124.7681829246035
 30
0.0
 10
82.14364478044143
 20
124.8032034454448
 30
0.0
 10
82.33022364251222
 20
124.8265968086042
 30
0.0
 10
82.88744858136626
 20
124.9040081591963
 30
0.0
 10
83.25491536024106
 20
124.9660517656412
 30
0.0
 10
83.7390269553058
 20
125.0235933293584
 30
0.0
 10
83.8380060891079
 20
125.034118947902
 30
0.0
 10
84.03551194045852
 20
125.0514872350202
 30
0.0
 10
84.13309851682455
 20
125.0581805282929
 30
0.0
 10
84.4232264093069
 20
125.074079249544
 30
0.0
 10
84.61318665872152
 20
125.0792064051055
 30
0.0
 10
84.99011844474404
 20
125.086909889613
 30
0.0
 10
85.17818132656545
 20
125.0918583346251
 30
0.0
 10
85.55449383923437
 20
125.1060920572859
 30
0.0
 10
85.7425834959924
 20
125.1150379474154
 30
0.0
 10
85.93060576731122
 20
125.1258344485511
 30
0.0
  0
SPLINE
  5
18A
330
13D
100
AcDbEntity
  8
400564040_HEBEL_
  6
Continuous
 62
     7
100
AcDbSpline
210
0.0
220
0.0
230
1.0
 70
     8
 71
     3
 72
    20
 73
    16
 74
     0
 42
0.0000000010417989
 43
0.0000000001
 40
0.0
 40
0.0
 40
0.0
 40
0.0
 40
0.125
 40
0.125
 40
0.2499999999999999
 40
0.2499999999999999
 40
0.4999999999999999
 40
0.4999999999999999
 40
0.6249999999999999
 40
0.6249999999999999
 40
0.75
 40
0.75
 40
0.875
 40
0.875
 40
1.0
 40
1.0
 40
1.0
 40
1.0
 10
86.13813448731113
 20
125.2132792211445
 30
0.0
 10
85.74356420570702
 20
125.1876526458999
 30
0.0
 10
85.34869960252263
 20
125.1702165342785
 30
0.0
 10
84.5583958397853
 20
125.151333227078
 30
0.0
 10
84.14823721424493
 20
125.1414565259916
 30
0.0
 10
82.9413131224321
 20
125.0064943855663
 30
0.0
 10
82.18577588788973
 20
124.827804844612
 30
0.0
 10
80.95628059044442
 20
124.827036768202
 30
0.0
 10
80.55370757920464
 20
124.8738908365146
 30
0.0
 10
79.77675736870485
 20
124.9835898259832
 30
0.0
 10
79.39237044930321
 20
125.0493556968284
 30
0.0
 10
78.57483965666499
 20
125.1402316965781
 30
0.0
 10
78.16653485537691
 20
125.149167251167
 30
0.0
 10
77.37867930813766
 20
125.1675252389868
 30
0.0
 10
76.98507739851796
 20
125.1846136148898
 30
0.0
 10
76.5918133673111
 20
125.2098188311068
 30
0.0
  0
LINE
  5
18B
330
13D
100
AcDbEntity
  8
400564040_HEBEL_
  6
Continuous
 62
     7
100
AcDbLine
 10
85.9306057673
 20
125.2040464088
 30
0.0
 11
85.9306057673
 21
125.1258344486
 31
0.0
  0
LINE
  5
18C
330
13D
100
AcDbEntity
  8
400564040_HEBEL_
  6
Continuous
 62
     7
100
AcDbLine
 10
76.7993420873
 20
125.2004491038
 30
0.0
 11
76.7993420873
 21
125.1225518956
 31
0.0
  0
LINE
  5
18D
330
13D
100
AcDbEntity
  8
400564040_HEBEL_
  6
Continuous
 62
     7
100
AcDbLine
 10
81.3649739273
 20
124.8397026138
 30
0.0
 11
81.3649739273
 21
124.7557798643
 31
0.0
  0
LINE
  5
18E
330
13D
100
AcDbEntity
  8
400564040_HEBEL_
  6
Continuous
 62
     7
100
AcDbLine
 10
85.1408927551
 20
125.647128891
 30
0.0
 11
85.1408927551
 21
126.3718811658
 31
0.0
  0
LINE
  5
18F
330
13D
100
AcDbEntity
  8
400564040_HEBEL_
  6
Continuous
 62
     7
100
AcDbLine
 10
83.0620731514
 20
125.4635968638
 30
0.0
 11
83.6106076183
 21
125.4982868005
 31
0.0
  0
LINE
  5
190
330
13D
100
AcDbEntity
  8
400564040_HEBEL_
  6
Continuous
 62
     7
100
AcDbLine
 10
83.6106076183
 20
126.2216335959
 30
0.0
 11
83.0620731514
 21
126.186593128
 31
0.0
  0
LINE
  5
191
330
13D
100
AcDbEntity
  8
400564040_HEBEL_
  6
Continuous
 62
     7
100
AcDbLine
 10
84.5888994762
 20
126.308674613
 30
0.0
 11
84.5888994762
 21
126.0344412762
 31
0.0
  0
LINE
  5
192
330
13D
100
AcDbEntity
  8
400564040_HEBEL_
  6
Continuous
 62
     7
100
AcDbLine
 10
85.1408927551
 20
126.3718811658
 30
0.0
 11
84.5888994762
 21
126.308674613
 31
0.0
  0
LINE
  5
193
330
13D
100
AcDbEntity
  8
400564040_HEBEL_
  6
Continuous
 62
     7
100
AcDbLine
 10
84.5888994762
 20
126.0344412762
 30
0.0
 11
83.6106076183
 21
125.9477256615
 31
0.0
  0
LINE
  5
194
330
13D
100
AcDbEntity
  8
400564040_HEBEL_
  6
Continuous
 62
     7
100
AcDbLine
 10
83.6106076183
 20
125.9477256615
 30
0.0
 11
83.6106076183
 21
126.2216335959
 31
0.0
  0
LINE
  5
195
330
13D
100
AcDbEntity
  8
400564040_HEBEL_
  6
Continuous
 62
     7
100
AcDbLine
 10
83.0620731514
 20
126.186593128
 30
0.0
 11
83.0620731514
 21
125.4635968638
 31
0.0
  0
LINE
  5
196
330
13D
100
AcDbEntity
  8
400564040_HEBEL_
  6
Continuous
 62
     7
100
AcDbLine
 10
83.6106076183
 20
125.4982868005
 30
0.0
 11
83.6106076183
 21
125.7981674541
 31
0.0
  0
LINE
  5
197
330
13D
100
AcDbEntity
  8
400564040_HEBEL_
  6
Continuous
 62
     7
100
AcDbLine
 10
83.6106076183
 20
125.7981674541
 30
0.0
 11
84.5888994762
 21
125.8847113581
 31
0.0
  0
LINE
  5
198
330
13D
100
AcDbEntity
  8
400564040_HEBEL_
  6
Continuous
 62
     7
100
AcDbLine
 10
84.5888994762
 20
126.0303367567
 30
0.0
 11
84.5888994762
 21
125.8847113581
 31
0.0
  0
LINE
  5
199
330
13D
100
AcDbEntity
  8
400564040_HEBEL_
  6
Continuous
 62
     7
100
AcDbLine
 10
84.5888994762
 20
125.8847113581
 30
0.0
 11
84.5888994762
 21
125.5844986689
 31
0.0
  0
LINE
  5
19A
330
13D
100
AcDbEntity
  8
400564040_HEBEL_
  6
Continuous
 62
     7
100
AcDbLine
 10
84.5888994762
 20
125.5844986689
 30
0.0
 11
85.1408927551
 21
125.647128891
 31
0.0
  0
LINE
  5
19B
330
13D
100
AcDbEntity
  8
400564040_HEBEL_
  6
Continuous
 62
     7
100
AcDbLine
 10
83.6106076183
 20
125.9436343117
 30
0.0
 11
83.6106076183
 21
125.7981674541
 31
0.0
  0
LINE
  5
19C
330
13D
100
AcDbEntity
  8
400564040_HEBEL_
  6
Continuous
 62
     7
100
AcDbLine
 10
87.0062962993
 20
125.6115350452
 30
0.0
 11
86.8229792633
 21
125.4964842278
 31
0.0
  0
LINE
  5
19D
330
13D
100
AcDbEntity
  8
400564040_HEBEL_
  6
Continuous
 62
     7
100
AcDbLine
 10
75.9069685913
 20
125.4924299631
 30
0.0
 11
75.7236515553
 21
125.6073223444
 31
0.0
  0
SPLINE
  5
19E
330
13D
100
AcDbEntity
  8
400564040_HEBEL_
  6
Continuous
 62
     7
100
AcDbSpline
210
0.0
220
0.0
230
1.0
 70
     8
 71
     3
 72
    12
 73
     8
 74
     0
 42
0.0000000018154452
 43
0.0000000001
 40
0.0
 40
0.0
 40
0.0
 40
0.0
 40
0.25
 40
0.25
 40
0.5
 40
0.5
 40
1.0
 40
1.0
 40
1.0
 40
1.0
 10
81.36497392731113
 20
125.0102340043512
 30
0.0
 10
80.8900226462808
 20
125.0113541774897
 30
0.0
 10
80.45238588170604
 20
125.0720687617449
 30
0.0
 10
79.57390878484554
 20
125.2032243967179
 30
0.0
 10
79.1181149684639
 20
125.279748086014
 30
0.0
 10
77.73133049183822
 20
125.3772461829928
 30
0.0
 10
76.88146336634053
 20
125.2858572498092
 30
0.0
 10
75.90696859128713
 20
125.4924299630506
 30
0.0
  0
LINE
  5
19F
330
13D
100
AcDbEntity
  8
400564040_HEBEL_
  6
Continuous
 62
     7
100
AcDbLine
 10
86.8229792633
 20
125.5713216232
 30
0.0
 11
86.8229792633
 21
125.4964842278
 31
0.0
  0
SPLINE
  5
1A0
330
13D
100
AcDbEntity
  8
400564040_HEBEL_
  6
Continuous
 62
     7
100
AcDbSpline
210
0.0
220
0.0
230
1.0
 70
     8
 71
     3
 72
    12
 73
     8
 74
     0
 42
0.0000000018160792
 43
0.0000000001
 40
0.0
 40
0.0
 40
0.0
 40
0.0
 40
0.5000000000000002
 40
0.5000000000000002
 40
0.7500000000000001
 40
0.7500000000000001
 40
1.0
 40
1.0
 40
1.0
 40
1.0
 10
86.82297926332453
 20
125.4964842278476
 30
0.0
 10
85.89719165779144
 20
125.2994425148791
 30
0.0
 10
85.0191150866169
 20
125.3795630107455
 30
0.0
 10
83.62397160061654
 20
125.2830580125472
 30
0.0
 10
83.16595709263748
 20
125.206161284327
 30
0.0
 10
82.28296644879086
 20
125.0735328867447
 30
0.0
 10
81.84411289440308
 20
125.0117568404671
 30
0.0
 10
81.36497392731113
 20
125.0102340043512
 30
0.0
  0
LINE
  5
1A1
330
13D
100
AcDbEntity
  8
400564040_HEBEL_
  6
Continuous
 62
     7
100
AcDbLine
 10
81.3649739273
 20
125.0880543146
 30
0.0
 11
81.3649739273
 21
125.0102340044
 31
0.0
  0
LINE
  5
1A2
330
13D
100
AcDbEntity
  8
400564040_HEBEL_
  6
Continuous
 62
     7
100
AcDbLine
 10
75.9069685913
 20
125.5766888151
 30
0.0
 11
75.9069685913
 21
125.4924299631
 31
0.0
  0
SPLINE
  5
1A3
330
13D
100
AcDbEntity
  8
400564040_HEBEL_
  6
Continuous
 62
     7
100
AcDbSpline
210
0.0
220
0.0
230
1.0
 70
     8
 71
     3
 72
    22
 73
    18
 74
     0
 42
0.0000000008801427
 43
0.0000000001
 40
0.0
 40
0.0
 40
0.0
 40
0.0
 40
0.1249999999999999
 40
0.1249999999999999
 40
0.2499999999999999
 40
0.2499999999999999
 40
0.3749999999999999
 40
0.3749999999999999
 40
0.5
 40
0.5
 40
0.625
 40
0.625
 40
0.7500000000000001
 40
0.7500000000000001
 40
0.8750000000000001
 40
0.8750000000000001
 40
1.0
 40
1.0
 40
1.0
 40
1.0
 10
75.72365155531125
 20
125.6073223443853
 30
0.0
 10
76.19887038102151
 20
125.4934531314221
 30
0.0
 10
76.68841713861077
 20
125.446812702792
 30
0.0
 10
77.62428395339177
 20
125.4159763909523
 30
0.0
 10
78.08404437836255
 20
125.4247312056301
 30
0.0
 10
79.069283237057
 20
125.3620909216637
 30
0.0
 10
79.53355190310425
 20
125.2828309991708
 30
0.0
 10
80.44834561246674
 20
125.1447322455442
 30
0.0
 10
80.9213351762877
 20
125.0804238176591
 30
0.0
 10
81.88451733315439
 20
125.087824835306
 30
0.0
 10
82.35130587917457
 20
125.1554075829657
 30
0.0
 10
83.2703355128906
 20
125.2961926523752
 30
0.0
 10
83.76051802197482
 20
125.3740795264183
 30
0.0
 10
84.71368065589544
 20
125.4267136830619
 30
0.0
 10
85.16047918948662
 20
125.4191397788811
 30
0.0
 10
86.07115795837875
 20
125.4526201142239
 30
0.0
 10
86.54553396163635
 20
125.5007373577984
 30
0.0
 10
87.00629629931112
 20
125.6115350452459
 30
0.0
  0
SPLINE
  5
1A4
330
13D
100
AcDbEntity
  8
400564040_HEBEL_
  6
Continuous
 62
     7
100
AcDbSpline
210
0.0
220
0.0
230
1.0
 70
    11
 71
     3
 72
   107
 73
   103
 74
     0
 42
0.0000000017368687
 43
0.0000000001
 40
0.0
 40
0.0
 40
0.0
 40
0.0
 40
0.049801820341267
 40
0.049801820341267
 40
0.049801820341267
 40
0.0741535038912326
 40
0.0741535038912326
 40
0.0741535038912326
 40
0.1237899013132418
 40
0.1237899013132418
 40
0.1237899013132418
 40
0.1497091325454376
 40
0.1497091325454376
 40
0.1497091325454376
 40
0.1756216189933811
 40
0.1756216189933811
 40
0.1756216189933811
 40
0.2015289691594906
 40
0.2015289691594906
 40
0.2015289691594906
 40
0.2542557077563073
 40
0.2542557077563073
 40
0.2542557077563073
 40
0.2829423702930038
 40
0.2829423702930038
 40
0.2829423702930038
 40
0.3114192657211188
 40
0.3114192657211188
 40
0.3114192657211188
 40
0.339410277383173
 40
0.339410277383173
 40
0.339410277383173
 40
0.3667513412538338
 40
0.3667513412538338
 40
0.3667513412538338
 40
0.3933458457220848
 40
0.3933458457220848
 40
0.3933458457220848
 40
0.419174095973981
 40
0.419174095973981
 40
0.419174095973981
 40
0.4442929086261517
 40
0.4442929086261517
 40
0.4442929086261517
 40
0.4688271813066922
 40
0.4688271813066922
 40
0.4688271813066922
 40
0.4929565285213693
 40
0.4929565285213693
 40
0.4929565285213693
 40
0.5169000492232417
 40
0.5169000492232417
 40
0.5169000492232417
 40
0.5408431996208198
 40
0.5408431996208198
 40
0.5408431996208198
 40
0.5647831273438468
 40
0.5647831273438468
 40
0.5647831273438468
 40
0.6136054938199091
 40
0.6136054938199091
 40
0.6136054938199091
 40
0.6388003257339011
 40
0.6388003257339011
 40
0.6388003257339011
 40
0.663986461039832
 40
0.663986461039832
 40
0.663986461039832
 40
0.6891652716519008
 40
0.6891652716519008
 40
0.6891652716519008
 40
0.7403364578313922
 40
0.7403364578313922
 40
0.7403364578313922
 40
0.7693509903564473
 40
0.7693509903564473
 40
0.7693509903564473
 40
0.7983679442431116
 40
0.7983679442431116
 40
0.7983679442431116
 40
0.8268571553306019
 40
0.8268571553306019
 40
0.8268571553306019
 40
0.854494739478506
 40
0.854494739478506
 40
0.854494739478506
 40
0.8811819774021129
 40
0.8811819774021129
 40
0.8811819774021129
 40
0.9069502051701585
 40
0.9069502051701585
 40
0.9069502051701585
 40
0.9319323509868325
 40
0.9319323509868325
 40
0.9319323509868325
 40
0.9563286066643625
 40
0.9563286066643625
 40
0.9563286066643625
 40
0.9779119522047083
 40
0.9779119522047083
 40
0.9779119522047083
 40
1.0
 40
1.0
 40
1.0
 40
1.0
 10
82.66738308010339
 20
125.7977107352084
 30
0.0
 10
82.66721044341169
 20
125.7554835349972
 30
0.0
 10
82.64395899165393
 20
125.712101351525
 30
0.0
 10
82.6001762344997
 20
125.671264221426
 30
0.0
 10
82.5785306262657
 20
125.6510748917223
 30
0.0
 10
82.551770222899
 20
125.6312907093534
 30
0.0
 10
82.5205357963358
 20
125.6123084498954
 30
0.0
 10
82.45747309358497
 20
125.5739830276786
 30
0.0
 10
82.37470437524568
 20
125.5382791838947
 30
0.0
 10
82.2791412725577
 20
125.5078235338452
 30
0.0
 10
82.22878289146678
 20
125.4917744815601
 30
0.0
 10
82.17444989655576
 20
125.4770001094188
 30
0.0
 10
82.11726101652629
 20
125.4637768255478
 30
0.0
 10
82.06008118187681
 20
125.4505556331607
 30
0.0
 10
81.99969457916279
 20
125.4388027083396
 30
0.0
 10
81.93724835659899
 20
125.4287249271714
 30
0.0
 10
81.87480970913545
 20
125.4186483684983
 30
0.0
 10
81.80994312805386
 20
125.4101863971284
 30
0.0
 10
81.74380507411932
 20
125.4034809007669
 30
0.0
 10
81.61037199117084
 20
125.3899526065553
 30
0.0
 10
81.46939869513373
 20
125.3834607072316
 30
0.0
 10
81.33044734507298
 20
125.3844245777843
 30
0.0
 10
81.25423393636662
 20
125.3849532510237
 30
0.0
 10
81.17788854694044
 20
125.3876951893501
 30
0.0
 10
81.10297924449188
 20
125.3925967927098
 30
0.0
 10
81.02861714963922
 20
125.3974625901748
 30
0.0
 10
80.95516112503543
 20
125.4044900773066
 30
0.0
 10
80.88414490553453
 20
125.4135401228814
 30
0.0
 10
80.81433759630654
 20
125.4224361093815
 30
0.0
 10
80.74641176170036
 20
125.4333472210656
 30
0.0
 10
80.68181764328055
 20
125.4460554597853
 30
0.0
 10
80.61871995997143
 20
125.4584692900499
 30
0.0
 10
80.55837346733306
 20
125.4726824761071
 30
0.0
 10
80.50210659797628
 20
125.4884077605811
 30
0.0
 10
80.44737262818995
 20
125.5037046351918
 30
0.0
 10
80.39612970525792
 20
125.5205361146333
 30
0.0
 10
80.34954771687819
 20
125.5385575748089
 30
0.0
 10
80.30430484295141
 20
125.5560609635449
 30
0.0
 10
80.26315489698486
 20
125.5748053088743
 30
0.0
 10
80.22707541680302
 20
125.5944019506149
 30
0.0
 10
80.1919847262706
 20
125.613461529282
 30
0.0
 10
80.16145557563495
 20
125.6334560770293
 30
0.0
 10
80.13624381905208
 20
125.6539670097816
 30
0.0
 10
80.11161745458422
 20
125.6740016989106
 30
0.0
 10
80.09190008794195
 20
125.694664431913
 30
0.0
 10
80.07760243377983
 20
125.7155210950477
 30
0.0
 10
80.06354022932321
 20
125.7360342965811
 30
0.0
 10
80.05462712529348
 20
125.7568739707468
 30
0.0
 10
80.05111206567463
 20
125.7776047527797
 30
0.0
 10
80.04762401641712
 20
125.7981762356899
 30
0.0
 10
80.04942858133708
 20
125.8187803152032
 30
0.0
 10
80.05650358829253
 20
125.838994197862
 30
0.0
 10
80.06357856382083
 20
125.8592079907307
 30
0.0
 10
80.075971855747
 20
125.87916929172
 30
0.0
 10
80.09339076444694
 20
125.8984836947716
 30
0.0
 10
80.11080834796037
 20
125.9177966284322
 30
0.0
 10
80.13336565862953
 20
125.9365927538965
 30
0.0
 10
80.16052787255475
 20
125.9545277902367
 30
0.0
 10
80.21538330148685
 20
125.9907484795391
 30
0.0
 10
80.2903960065687
 20
126.0240681988868
 30
0.0
 10
80.37902731455333
 20
126.0524310698655
 30
0.0
 10
80.42519892747103
 20
126.067206430061
 30
0.0
 10
80.475437545712
 20
126.0808101354645
 30
0.0
 10
80.52868402805358
 20
126.0930627241961
 30
0.0
 10
80.5819194204636
 20
126.1053127610151
 30
0.0
 10
80.63848060277952
 20
126.1162877822118
 30
0.0
 10
80.69728902590428
 20
126.1258675399725
 30
0.0
 10
80.75608705200543
 20
126.1354456040817
 30
0.0
 10
80.81746419632086
 20
126.1436845471971
 30
0.0
 10
80.88035346702598
 20
126.1505088600503
 30
0.0
 10
81.00714083226926
 20
126.1642669564083
 30
0.0
 10
81.14216191562659
 20
126.1724313683447
 30
0.0
 10
81.27687922270442
 20
126.1747520182914
 30
0.0
 10
81.35381702392061
 20
126.1760773543462
 30
0.0
 10
81.43137979011438
 20
126.1755301015744
 30
0.0
 10
81.50800698666879
 20
126.1731154013296
 30
0.0
 10
81.5846375440611
 20
126.170700595177
 30
0.0
 10
81.66085406225265
 20
126.1664012726915
 30
0.0
 10
81.73507872792258
 20
126.1602596558487
 30
0.0
 10
81.8079556207442
 20
126.1542295585978
 30
0.0
 10
81.87940843514565
 20
126.1463814881312
 30
0.0
 10
81.9479107545128
 20
126.1368008724351
 30
0.0
 10
82.0143700186515
 20
126.1275059949033
 30
0.0
 10
82.07850139644783
 20
126.1165162220551
 30
0.0
 10
82.13888656239307
 20
126.1039672929392
 30
0.0
 10
82.19720000886895
 20
126.0918488977195
 30
0.0
 10
82.25241132748262
 20
126.0781934753308
 30
0.0
 10
82.30325380655064
 20
126.0631928417373
 30
0.0
 10
82.35234937558323
 20
126.0487076188365
 30
0.0
 10
82.39769923512735
 20
126.0328693519057
 30
0.0
 10
82.43822847197187
 20
126.0159277412241
 30
0.0
 10
82.4775240818123
 20
125.9995017984913
 30
0.0
 10
82.51255020821003
 20
125.9819271097669
 30
0.0
 10
82.54245697991239
 20
125.9635085538189
 30
0.0
 10
82.57166392626065
 20
125.9455209963272
 30
0.0
 10
82.59618341688855
 20
125.9266065510706
 30
0.0
 10
82.61541520582806
 20
125.9071186643432
 30
0.0
 10
82.63244151381492
 20
125.8898656275884
 30
0.0
 10
82.64542676874909
 20
125.8720642227712
 30
0.0
 10
82.65411869988414
 20
125.8539970666132
 30
0.0
 10
82.66301254650645
 20
125.8355102064121
 30
0.0
 10
82.66746046394695
 20
125.8166389423174
 30
0.0
 10
82.66738308010339
 20
125.7977107352084
 30
0.0
  0
SPLINE
  5
1A5
330
13D
100
AcDbEntity
  8
400564040_HEBEL_
  6
Continuous
 62
     7
100
AcDbSpline
210
0.0
220
0.0
230
1.0
 70
    11
 71
     3
 72
    62
 73
    58
 74
     0
 42
0.0000000030085304
 43
0.0000000001
 40
0.0
 40
0.0
 40
0.0
 40
0.0
 40
0.0500231025584892
 40
0.0500231025584892
 40
0.0500231025584892
 40
0.0999655886696911
 40
0.0999655886696911
 40
0.0999655886696911
 40
0.1511459094521235
 40
0.1511459094521235
 40
0.1511459094521235
 40
0.2051367523671876
 40
0.2051367523671876
 40
0.2051367523671876
 40
0.2618862913363304
 40
0.2618862913363304
 40
0.2618862913363304
 40
0.320112903466822
 40
0.320112903466822
 40
0.320112903466822
 40
0.3777416195418016
 40
0.3777416195418016
 40
0.3777416195418016
 40
0.432980823074252
 40
0.432980823074252
 40
0.432980823074252
 40
0.4853005039904721
 40
0.4853005039904721
 40
0.4853005039904721
 40
0.535520282730637
 40
0.535520282730637
 40
0.535520282730637
 40
0.5851735609792885
 40
0.5851735609792885
 40
0.5851735609792885
 40
0.6358373013733616
 40
0.6358373013733616
 40
0.6358373013733616
 40
0.6886994482851635
 40
0.6886994482851635
 40
0.6886994482851635
 40
0.7442376351038581
 40
0.7442376351038581
 40
0.7442376351038581
 40
0.8019191860378602
 40
0.8019191860378602
 40
0.8019191860378602
 40
0.860118486283223
 40
0.860118486283223
 40
0.860118486283223
 40
0.9166695624965432
 40
0.9166695624965432
 40
0.9166695624965432
 40
0.9701075765184608
 40
0.9701075765184608
 40
0.9701075765184608
 40
1.0
 40
1.0
 40
1.0
 40
1.0
 10
81.36151511531114
 20
125.5219892907221
 30
0.0
 10
81.44086894121749
 20
125.52201319595
 30
0.0
 10
81.52131410960818
 20
125.5267033080125
 30
0.0
 10
81.59610445680653
 20
125.5355576384421
 30
0.0
 10
81.67082735250374
 20
125.5444039833776
 30
0.0
 10
81.74192745464285
 20
125.5576218442616
 30
0.0
 10
81.80410355120235
 20
125.5739410685368
 30
0.0
 10
81.86783969846464
 20
125.5906697559129
 30
0.0
 10
81.92388271297526
 20
125.6110688511405
 30
0.0
 10
81.96856519374852
 20
125.6334004523659
 30
0.0
 10
82.01567671803853
 20
125.6569460513425
 30
0.0
 10
82.05140491775568
 20
125.6832382448181
 30
0.0
 10
82.07354146376807
 20
125.7101762228362
 30
0.0
 10
82.09678868221701
 20
125.7384657789038
 30
0.0
 10
82.10566766310467
 20
125.7682212947786
 30
0.0
 10
82.09957319770123
 20
125.7970749971828
 30
0.0
 10
82.09332594521508
 20
125.8266520563911
 30
0.0
 10
82.07112695876187
 20
125.8561119426634
 30
0.0
 10
82.03441987997708
 20
125.8829652019857
 30
0.0
 10
81.99810984692961
 20
125.9095280003805
 30
0.0
 10
81.94646986693076
 20
125.9343136970447
 30
0.0
 10
81.8834827435293
 20
125.955031063655
 30
0.0
 10
81.82309559442187
 20
125.9748932614986
 30
0.0
 10
81.75043257813358
 20
125.9915968505135
 30
0.0
 10
81.67175009805278
 20
126.0034963333743
 30
0.0
 10
81.59716168634337
 20
126.0147766530317
 30
0.0
 10
81.5149805662837
 20
126.0220639669126
 30
0.0
 10
81.43247366319466
 20
126.0246380443981
 30
0.0
 10
81.35319688455793
 20
126.0271113473992
 30
0.0
 10
81.27140711047375
 20
126.0253081455889
 30
0.0
 10
81.19400722002906
 20
126.0193982426226
 30
0.0
 10
81.11742543737094
 20
126.0135508066392
 30
0.0
 10
81.0430807313568
 20
126.0035379836615
 30
0.0
 10
80.97670682409041
 20
125.9902292322242
 30
0.0
 10
80.90896667715612
 20
125.9766465336156
 30
0.0
 10
80.84774054833765
 20
125.9592882509207
 30
0.0
 10
80.79727611153754
 20
125.9395486113472
 30
0.0
 10
80.74463490044634
 20
125.9189575060155
 30
0.0
 10
80.70231274007419
 20
125.8952498550567
 30
0.0
 10
80.67297082991381
 20
125.8702358547406
 30
0.0
 10
80.6421631984783
 20
125.8439723259432
 30
0.0
 10
80.62483562210568
 20
125.8155796537432
 30
0.0
 10
80.62199278493863
 20
125.7872327755712
 30
0.0
 10
80.61904284572064
 20
125.7578179471047
 30
0.0
 10
80.63162247183455
 20
125.7276459908265
 30
0.0
 10
80.65887213885895
 20
125.6992113170947
 30
0.0
 10
80.68634337745567
 20
125.6705454363041
 30
0.0
 10
80.72957452783876
 20
125.6428242529848
 30
0.0
 10
80.78540792767298
 20
125.6186719723352
 30
0.0
 10
80.83964433301114
 20
125.5952105158049
 30
0.0
 10
80.90746598648927
 20
125.5744358495473
 30
0.0
 10
80.98321712292048
 20
125.5585938019163
 30
0.0
 10
81.05484346883867
 20
125.5436143832947
 30
0.0
 10
81.13572054198184
 20
125.532621388488
 30
0.0
 10
81.21861168392228
 20
125.52687531187
 30
0.0
 10
81.26548980918675
 20
125.5236256847908
 30
0.0
 10
81.31362715098639
 20
125.5219748645405
 30
0.0
 10
81.36151511531114
 20
125.5219892907221
 30
0.0
  0
ARC
  5
1A6
330
13D
100
AcDbEntity
  8
400564040_HEBEL_
  6
Continuous
 62
     7
100
AcDbCircle
 10
50.2301863723
 20
112.5053023552
 30
0.0
 40
15.09174633843904
100
AcDbArc
 50
8.9733934736
 51
12.1701997779
  0
ARC
  5
1A7
330
13D
100
AcDbEntity
  8
400564040_HEBEL_
  6
Continuous
 62
     7
100
AcDbCircle
 10
110.9047913676
 20
112.6651523665
 30
0.0
 40
13.52129107136655
100
AcDbArc
 50
167.1221994901
 51
170.6632474723
  0
SPLINE
  5
1A8
330
13D
100
AcDbEntity
  8
400564040_HEBEL_
  6
Continuous
 62
     7
100
AcDbSpline
210
0.0
220
0.0
230
1.0
 70
     8
 71
     3
 72
    53
 73
    49
 74
     0
 42
0.0000000002469205
 43
0.0000000001
 40
0.0
 40
0.0
 40
0.0
 40
0.0
 40
0.0263963487827316
 40
0.0568356639086892
 40
0.0825659482185326
 40
0.1036241779291667
 40
0.1200349768127722
 40
0.132492572626777
 40
0.1442047486874533
 40
0.1556514367534325
 40
0.179353082146853
 40
0.2073112709465086
 40
0.2354301591312944
 40
0.2622216389963209
 40
0.2858347724440241
 40
0.3064527063903208
 40
0.3291412719650375
 40
0.3558597995359702
 40
0.3758878443061171
 40
0.3976774703540899
 40
0.4212262379973179
 40
0.4465157829316917
 40
0.4720759736242242
 40
0.496919069878403
 40
0.5329558929182147
 40
0.5675089649638198
 40
0.6007222793785172
 40
0.6324098586716618
 40
0.6567238138938969
 40
0.6786386477793692
 40
0.6974740839694714
 40
0.7132187191497907
 40
0.7263817935675173
 40
0.7393609396945335
 40
0.7553024498041027
 40
0.7740989105240119
 40
0.7952506163978151
 40
0.8188798199802788
 40
0.842368470422655
 40
0.85464092984036
 40
0.8639016550266992
 40
0.8726995988431099
 40
0.8854373152267905
 40
0.902220142243356
 40
0.9227443633164579
 40
0.9473628008716998
 40
0.9760896307670144
 40
1.0
 40
1.0
 40
1.0
 40
1.0
 10
65.1381606527717
 20
114.8550572180275
 30
0.0
 10
65.18127672768925
 20
114.6482703418336
 30
0.0
 10
65.25997724277829
 20
114.2714163934764
 30
0.0
 10
65.39161379768491
 20
113.648501344201
 30
0.0
 10
65.51824283492942
 20
113.0604651433467
 30
0.0
 10
65.6286668369839
 20
112.5501769836983
 30
0.0
 10
65.75253340738155
 20
112.1237356887758
 30
0.0
 10
65.91922849481944
 20
111.7351859888766
 30
0.0
 10
66.10080976187041
 20
111.395529889304
 30
0.0
 10
66.38348367632837
 20
110.9485699558928
 30
0.0
 10
66.84895056957369
 20
110.3718354118028
 30
0.0
 10
67.52627407787332
 20
109.7483546304099
 30
0.0
 10
68.36361392398929
 20
109.1562510386101
 30
0.0
 10
69.2617257438107
 20
108.6555612532919
 30
0.0
 10
70.17195695158534
 20
108.2404556049338
 30
0.0
 10
71.09369704008793
 20
107.8866484924317
 30
0.0
 10
72.12976595307343
 20
107.5502310852996
 30
0.0
 10
73.23594218814297
 20
107.2554726665996
 30
0.0
 10
74.3915844024121
 20
107.003605991628
 30
0.0
 10
75.54223342840297
 20
106.7978082167339
 30
0.0
 10
76.83347704185132
 20
106.6176650626954
 30
0.0
 10
78.23645813225964
 20
106.4775678194792
 30
0.0
 10
79.69505395811717
 20
106.3889580053665
 30
0.0
 10
81.37900886761103
 20
106.3499999999999
 30
0.0
 10
83.24245313568365
 20
106.3907069903734
 30
0.0
 10
85.23210254329368
 20
106.5395762980001
 30
0.0
 10
87.0704210700263
 20
106.7756601836983
 30
0.0
 10
88.63425668297306
 20
107.0642296152615
 30
0.0
 10
89.91755776409966
 20
107.3702587002805
 30
0.0
 10
90.92453536282325
 20
107.6612487922754
 30
0.0
 10
91.74519333756685
 20
107.9395229599127
 30
0.0
 10
92.39824752256159
 20
108.1927676559056
 30
0.0
 10
92.94109682590583
 20
108.4280090016073
 30
0.0
 10
93.46732900606871
 20
108.6805338792313
 30
0.0
 10
94.02912875210828
 20
108.9839005837375
 30
0.0
 10
94.63255731514704
 20
109.3602361952783
 30
0.0
 10
95.26096022886153
 20
109.8291260298046
 30
0.0
 10
95.85028621525414
 20
110.3779252555079
 30
0.0
 10
96.27542599321862
 20
110.8946665177923
 30
0.0
 10
96.5428377100406
 20
111.3011836090923
 30
0.0
 10
96.70541632644796
 20
111.5902378987599
 30
0.0
 10
96.84528137585185
 20
111.8794486158629
 30
0.0
 10
96.96819472145441
 20
112.2031832133167
 30
0.0
 10
97.07677337620588
 20
112.6147623592748
 30
0.0
 10
97.18583136273004
 20
113.1071976739233
 30
0.0
 10
97.31118435519247
 20
113.6777690513596
 30
0.0
 10
97.44098682960652
 20
114.2800444987629
 30
0.0
 10
97.51795931012616
 20
114.6469994547457
 30
0.0
 10
97.55924726866756
 20
114.8441297465523
 30
0.0
  0
SPLINE
  5
1A9
330
13D
100
AcDbEntity
  8
400564040_HEBEL_
  6
Continuous
 62
     7
100
AcDbSpline
210
0.0
220
0.0
230
1.0
 70
     8
 71
     3
 72
    54
 73
    50
 74
     0
 42
0.0000000002166183
 43
0.0000000001
 40
0.0
 40
0.0
 40
0.0
 40
0.0
 40
0.0195906191483316
 40
0.0409697948785127
 40
0.0613102278192526
 40
0.0806067290642971
 40
0.1046739927916034
 40
0.1268602626297721
 40
0.1471725523989219
 40
0.1663109114559135
 40
0.1857420194350991
 40
0.2054227587451731
 40
0.2253614016529765
 40
0.2455824603395442
 40
0.2660900157027304
 40
0.2868528068266966
 40
0.3073108578727685
 40
0.32582373015256
 40
0.3423535020749331
 40
0.3569083148994301
 40
0.3694766995793274
 40
0.3815250652259877
 40
0.3962093817281735
 40
0.4135962370744161
 40
0.4335244137483978
 40
0.4531380357514833
 40
0.4708787192665507
 40
0.4878796756080971
 40
0.5029255406286209
 40
0.5184836029642017
 40
0.5354592863664253
 40
0.5539441208709162
 40
0.5739490316328738
 40
0.5952965068105771
 40
0.6332452672665734
 40
0.6682759281337095
 40
0.7004030946185961
 40
0.713268835287416
 40
0.7269185568913753
 40
0.7428003467951192
 40
0.7608733536420778
 40
0.7811582008800566
 40
0.8036627375192986
 40
0.8283110668758285
 40
0.8579771993778579
 40
0.8902556268204532
 40
0.9251663608288985
 40
0.9626842034205907
 40
1.0
 40
1.0
 40
1.0
 40
1.0
 10
53.78147709207171
 20
160.192480871231
 30
0.0
 10
53.86821493071139
 20
159.348689391022
 30
0.0
 10
54.02194465664742
 20
157.8599605499886
 30
0.0
 10
54.28067038127646
 20
155.4313766380385
 30
0.0
 10
54.54275050481171
 20
153.1138061522873
 30
0.0
 10
54.84142899573092
 20
150.726990170555
 30
0.0
 10
55.18317337209489
 20
148.3402076178039
 30
0.0
 10
55.58023255082196
 20
145.9911465773804
 30
0.0
 10
55.9932217176486
 20
143.8934508981972
 30
0.0
 10
56.42831741290875
 20
141.9723349474544
 30
0.0
 10
56.89181639436451
 20
140.1621767285023
 30
0.0
 10
57.38682578537764
 20
138.4448555846407
 30
0.0
 10
57.90698652610599
 20
136.8443583258081
 30
0.0
 10
58.4460664409729
 20
135.369935390083
 30
0.0
 10
58.99645526834407
 20
134.0092058399584
 30
0.0
 10
59.54246497033776
 20
132.7615512969501
 30
0.0
 10
60.04678797794935
 20
131.6558948209392
 30
0.0
 10
60.48529526394124
 20
130.7100848038358
 30
0.0
 10
60.84656899061223
 20
129.9298903343081
 30
0.0
 10
61.13863966464262
 20
129.2935746002303
 30
0.0
 10
61.37952609619644
 20
128.7637873897125
 30
0.0
 10
61.59856603074867
 20
128.2707664031136
 30
0.0
 10
61.82017931885542
 20
127.7492316451405
 30
0.0
 10
62.0403676146928
 20
127.1856735092249
 30
0.0
 10
62.23564611164128
 20
126.6327415561055
 30
0.0
 10
62.40254306230439
 20
126.1260731567448
 30
0.0
 10
62.54161778133214
 20
125.6810867508354
 30
0.0
 10
62.66000490185463
 20
125.295134628372
 30
0.0
 10
62.76940771055745
 20
124.9353285996644
 30
0.0
 10
62.87503072041417
 20
124.5863044003416
 30
0.0
 10
62.98413453932793
 20
124.2260287036266
 30
0.0
 10
63.09957668095412
 20
123.8476969412571
 30
0.0
 10
63.22092227704804
 20
123.4556932845328
 30
0.0
 10
63.37804434246032
 20
122.9547561492951
 30
0.0
 10
63.55422482823433
 20
122.3553266040691
 30
0.0
 10
63.7379000126382
 20
121.6897476647177
 30
0.0
 10
63.86757094778689
 20
121.1873136796267
 30
0.0
 10
63.95833291106936
 20
120.8210291916473
 30
0.0
 10
64.02209650821008
 20
120.5577047265639
 30
0.0
 10
64.09147766965894
 20
120.2641830758581
 30
0.0
 10
64.16799819101846
 20
119.9317270869903
 30
0.0
 10
64.25091275558636
 20
119.5609299369365
 30
0.0
 10
64.33941948029349
 20
119.1525159661578
 30
0.0
 10
64.43608407601347
 20
118.690036433762
 30
0.0
 10
64.54017929945807
 20
118.1722553381248
 30
0.0
 10
64.65169232052678
 20
117.5961414298063
 30
0.0
 10
64.7649551673426
 20
116.981585997956
 30
0.0
 10
64.8817774675432
 20
116.3259042896187
 30
0.0
 10
64.94523294239895
 20
115.9227296137098
 30
0.0
 10
64.98265774143053
 20
115.6842448340133
 30
0.0
  0
SPLINE
  5
1AA
330
13D
100
AcDbEntity
  8
400564040_HEBEL_
  6
Continuous
 62
     7
100
AcDbSpline
210
0.0
220
0.0
230
1.0
 70
     8
 71
     3
 72
    73
 73
    69
 74
     0
 42
0.0000000002165806
 43
0.0000000001
 40
0.0
 40
0.0
 40
0.0
 40
0.0
 40
0.0192015417596973
 40
0.0392107402492357
 40
0.0572602363743455
 40
0.0733581616223611
 40
0.0874981067216045
 40
0.0996613992673378
 40
0.1099339964288931
 40
0.1199406469675528
 40
0.1330153377384881
 40
0.1466439836302411
 40
0.1608256448679322
 40
0.17548752747743
 40
0.1892215342978445
 40
0.2027827226975686
 40
0.2144796430203127
 40
0.2257040803281984
 40
0.2385829463136
 40
0.2531168803674386
 40
0.2679939650583031
 40
0.2825223685852507
 40
0.2966855585783266
 40
0.3254244550514124
 40
0.3557583344914909
 40
0.3867649685425826
 40
0.4177963432453913
 40
0.4374642081640547
 40
0.4575079702926249
 40
0.4778213878346515
 40
0.4974639890971317
 40
0.5146181949257341
 40
0.523732739484874
 40
0.5326924230282074
 40
0.543086882918816
 40
0.5549778921359965
 40
0.5683619197543102
 40
0.582880151546331
 40
0.595218717422419
 40
0.605745535418185
 40
0.6144271983617051
 40
0.6213257722619059
 40
0.6281974641783287
 40
0.6406209866983941
 40
0.6548864779281166
 40
0.6712208714510843
 40
0.6897464385778705
 40
0.7025093627546133
 40
0.7153063429001361
 40
0.7266854273666188
 40
0.7366592680475972
 40
0.7452418685452393
 40
0.7535222777529862
 40
0.762573638811135
 40
0.7730234976922395
 40
0.7848757411487433
 40
0.7980204340062244
 40
0.8198742880465255
 40
0.8408580345502552
 40
0.8609593440033175
 40
0.880864942001495
 40
0.9011876749485426
 40
0.9219312701365051
 40
0.9349230000328894
 40
0.9494651059401829
 40
0.9656261475913159
 40
0.9834175235336222
 40
1.0
 40
1.0
 40
1.0
 40
1.0
 10
97.72332003733975
 20
115.6755234405517
 30
0.0
 10
97.74193038820285
 20
115.7965466264539
 30
0.0
 10
97.77409088118738
 20
116.0049340525342
 30
0.0
 10
97.83024514814886
 20
116.3416690171775
 30
0.0
 10
97.8845274378656
 20
116.6536033609898
 30
0.0
 10
97.93472755262987
 20
116.934929045991
 30
0.0
 10
97.9797293183649
 20
117.1828435124817
 30
0.0
 10
98.01946646838483
 20
117.3978638376032
 30
0.0
 10
98.05551278287686
 20
117.5898944075157
 30
0.0
 10
98.09321576266396
 20
117.7880245313594
 30
0.0
 10
98.1354648749881
 20
118.00670341415
 30
0.0
 10
98.18349863790355
 20
118.2510894729555
 30
0.0
 10
98.23445001229982
 20
118.5058256238022
 30
0.0
 10
98.2867126798974
 20
118.7620607468375
 30
0.0
 10
98.33945989439133
 20
119.0154031099512
 30
0.0
 10
98.38967889666287
 20
119.2516920640438
 30
0.0
 10
98.43776211724509
 20
119.4736020360949
 30
0.0
 10
98.48597741185958
 20
119.6923501161743
 30
0.0
 10
98.5391710728334
 20
119.9294423760852
 30
0.0
 10
98.5988391887206
 20
120.1899191083406
 30
0.0
 10
98.66255894389522
 20
120.4617790143087
 30
0.0
 10
98.72758144787399
 20
120.7326911369561
 30
0.0
 10
98.81583698693566
 20
121.0915361750899
 30
0.0
 10
98.93373238464098
 20
121.5529344430788
 30
0.0
 10
99.08954559538529
 20
122.127072584278
 30
0.0
 10
99.2594233170363
 20
122.7202165729096
 30
0.0
 10
99.41930807651275
 20
123.2426941808481
 30
0.0
 10
99.56397768073839
 20
123.7026775793366
 30
0.0
 10
99.68785385383575
 20
124.1073152566147
 30
0.0
 10
99.81492505902715
 20
124.5257781571625
 30
0.0
 10
99.94145672906623
 20
124.9442209718419
 30
0.0
 10
100.0489817535092
 20
125.2971747699278
 30
0.0
 10
100.1352376994934
 20
125.5772443585573
 30
0.0
 10
100.2062472500086
 20
125.8063334880742
 30
0.0
 10
100.2861353146656
 20
126.0606072040964
 30
0.0
 10
100.3834247546076
 20
126.3618992526663
 30
0.0
 10
100.5024228450614
 20
126.7163028846964
 30
0.0
 10
100.6371274009949
 20
127.0978033367778
 30
0.0
 10
100.7825095871454
 20
127.4825415319115
 30
0.0
 10
100.922561624226
 20
127.8299422878195
 30
0.0
 10
101.0507734097231
 20
128.1335079337553
 30
0.0
 10
101.1688911387944
 20
128.405163266107
 30
0.0
 10
101.3159851733182
 20
128.7365289603952
 30
0.0
 10
101.5198604830288
 20
129.1862058886757
 30
0.0
 10
101.8031774741528
 20
129.8044253252327
 30
0.0
 10
102.1554470387537
 20
130.5662587480898
 30
0.0
 10
102.5269460693254
 20
131.3667734144119
 30
0.0
 10
102.8906475211742
 20
132.1592419008265
 30
0.0
 10
103.2069019927279
 20
132.8604688376104
 30
0.0
 10
103.5068648252133
 20
133.5435114599306
 30
0.0
 10
103.7734991986147
 20
134.1718118129257
 30
0.0
 10
104.0138326068682
 20
134.7594641886148
 30
0.0
 10
104.2466322183759
 20
135.3509291543308
 30
0.0
 10
104.4952478645664
 20
136.0099398859946
 30
0.0
 10
104.7736095824518
 20
136.7871885213362
 30
0.0
 10
105.0842218075504
 20
137.7122271460264
 30
0.0
 10
105.486674118868
 20
139.0046819057532
 30
0.0
 10
105.9511916659947
 20
140.6618832968504
 30
0.0
 10
106.4411779530092
 20
142.6530687943958
 30
0.0
 10
106.8754087193075
 20
144.6767984878098
 30
0.0
 10
107.2619663874171
 20
146.7561923412017
 30
0.0
 10
107.611028361636
 20
148.9242261038944
 30
0.0
 10
107.886582742911
 20
150.9003624529289
 30
0.0
 10
108.113746749674
 20
152.7018139144288
 30
0.0
 10
108.3079316258976
 20
154.3620878017081
 30
0.0
 10
108.5121847476237
 20
156.2193955904838
 30
0.0
 10
108.7241566635819
 20
158.2277571093894
 30
0.0
 10
108.8528338469156
 20
159.477567269317
 30
0.0
 10
108.9262046937486
 20
160.1924789659592
 30
0.0
  0
ARC
  5
1AB
330
13D
100
AcDbEntity
  8
400564040_HEBEL_
  6
Continuous
 62
     7
100
AcDbCircle
 10
54.0795421676
 20
160.2234623781
 30
0.0
 40
0.2999999999848066
100
AcDbArc
 50
90.0008060096
 51
185.916519522
  0
ARC
  5
1AC
330
13D
100
AcDbEntity
  8
400564040_HEBEL_
  6
Continuous
 62
     7
100
AcDbCircle
 10
108.6280002582
 20
160.2234623776
 30
0.0
 40
0.3000000004699245
100
AcDbArc
 50
354.0616552478
 51
89.9978942529
  0
LINE
  5
1AD
330
13D
100
AcDbEntity
  8
400564040_HEBEL_
  6
Continuous
 62
     7
100
AcDbLine
 10
82.1014670074
 20
125.7792469835
 30
0.0
 11
82.1014670074
 21
126.1104006624
 31
0.0
  0
LINE
  5
1AE
330
13D
100
AcDbEntity
  8
400564040_HEBEL_
  6
Continuous
 62
     7
100
AcDbLine
 10
80.6215632232
 20
126.1111338664
 30
0.0
 11
80.6215632232
 21
125.7787998994
 31
0.0
  0
ENDBLK
  5
1B0
330
13D
100
AcDbEntity
  8
0
100
AcDbBlockEnd
  0
ENDSEC
  0
SECTION
  2
ENTITIES
  0
INSERT
  5
5F
330
1F
100
AcDbEntity
  8
Default
100
AcDbBlockReference
  2
SEANNOT_GROUP
 10
0.0
 20
0.0
 30
0.0
  0
INSERT
  5
6A
330
1F
100
AcDbEntity
  8
Default
100
AcDbBlockReference
  2
SEANNOT_GROUP1
 10
0.0
 20
0.0
 30
0.0
  0
INSERT
  5
70
330
1F
100
AcDbEntity
  8
Default
100
AcDbBlockReference
  2
SEANNOT_GROUP2
 10
0.0
 20
0.0
 30
0.0
  0
INSERT
  5
76
330
1F
100
AcDbEntity
  8
Default
100
AcDbBlockReference
  2
SE
 10
0.0
 20
0.0
 30
0.0
  0
INSERT
  5
DA
330
1F
100
AcDbEntity
  8
Default
100
AcDbBlockReference
  2
SE1
 10
0.0
 20
0.0
 30
0.0
  0
INSERT
  5
13E
330
1F
100
AcDbEntity
  8
Default
100
AcDbBlockReference
  2
SE2
 10
0.0
 20
0.0
 30
0.0
  0
TEXT
  5
1B2
330
1F
100
AcDbEntity
  8
Default
  6
Continuous
 62
     7
100
AcDbText
 10
5.9362635081
 20
53.4225120485
 30
0.0
 40
10.0
  1
Grohe AG^J
  7
SEACAD_seiso_ttf
 11
5.9362635081
 21
63.4225120485
 31
0.0
100
AcDbText
 73
     3
  0
TEXT
  5
1B3
330
1F
100
AcDbEntity
  8
Default
  6
Continuous
 62
     7
100
AcDbText
 10
5.9362635081
 20
37.0588756849
 30
0.0
 40
10.0
  1
 
  7
SEACAD_seiso_ttf
 11
5.9362635081
 21
47.0588756849
 31
0.0
100
AcDbText
 73
     3
  0
TEXT
  5
1B4
330
1F
100
AcDbEntity
  8
Default
  6
Continuous
 62
     7
100
AcDbText
 10
5.9362635081
 20
20.6952393213
 30
0.0
 40
10.0
  1
ecn: 
  7
SEACAD_seiso_ttf
 11
5.9362635081
 21
30.6952393213
 31
0.0
100
AcDbText
 73
     3
  0
TEXT
  5
1B5
330
1F
100
AcDbEntity
  8
Default
  6
Continuous
 62
     7
100
AcDbText
 10
5.9362635081
 20
4.3316029576
 30
0.0
 40
10.0
  1
unit: mm
  7
SEACAD_seiso_ttf
 11
5.9362635081
 21
14.3316029576
 31
0.0
100
AcDbText
 73
     3
  0
LINE
  5
1B6
330
1F
100
AcDbEntity
  8
Default
  6
Continuous
 62
     7
100
AcDbLine
 10
0.0
 20
0.0
 30
0.0
 11
100.0
 21
0.0
 31
0.0
  0
LINE
  5
1B7
330
1F
100
AcDbEntity
  8
Default
  6
Continuous
 62
     7
100
AcDbLine
 10
0.0
 20
0.0
 30
0.0
 11
0.0
 21
100.0
 31
0.0
  0
TEXT
  5
1B8
330
1F
100
AcDbEntity
  8
Default
  6
Continuous
 62
     7
100
AcDbText
 10
24.3923665681
 20
-18.2375342018
 30
0.0
 40
10.0
  1
100 mm
  7
SEACAD_seiso_ttf
 11
24.3923665681
 21
-8.2375342018
 31
0.0
100
AcDbText
 73
     3
  0
TEXT
  5
1B9
330
1F
100
AcDbEntity
  8
Default
  6
Continuous
 62
     7
100
AcDbText
 10
-7.6150308803
 20
24.6231930421
 30
0.0
 40
10.0
  1
100 mm
 50
90.0
  7
SEACAD_seiso_ttf
 11
-17.6150308803
 21
24.6231930421
 31
0.0
100
AcDbText
 73
     3
  0
TEXT
  5
1BA
330
1F
100
AcDbEntity
  8
Default
  6
Continuous
 62
     7
100
AcDbText
 10
28.4878128572
 20
20.0907663715
 30
0.0
 40
10.0
  1
218347
  7
SEACAD_seiso_ttf
 11
28.4878128572
 21
30.0907663715
 31
0.0
100
AcDbText
 73
     3
  0
TEXT
  5
1BB
330
1F
100
AcDbEntity
  8
Default
  6
Continuous
 62
     7
100
AcDbText
 10
5.9012241913
 20
36.7242780188
 30
0.0
 40
10.0
  1
32784000
  7
SEACAD_seiso_ttf
 11
5.9012241913
 21
46.7242780188
 31
0.0
100
AcDbText
 73
     3
  0
ENDSEC
  0
SECTION
  2
OBJECTS
  0
DICTIONARY
  5
C
330
0
100
AcDbDictionary
281
     1
  3
ACAD_GROUP
350
D
  3
ACAD_LAYOUT
350
1A
  3
ACAD_MLEADERSTYLE
350
1BF
  3
ACAD_MLINESTYLE
350
17
  3
ACAD_PLOTSETTINGS
350
19
  3
ACAD_PLOTSTYLENAME
350
E
  3
ACAD_SCALELIST
350
3B
  3
ACAD_TABLESTYLE
350
1BE
  3
ACAD_VISUALSTYLE
350
2A
  3
AcDbVariableDictionary
350
1BC
  0
DICTIONARY
  5
D
102
{ACAD_REACTORS
330
C
102
}
330
C
100
AcDbDictionary
281
     1
  0
DICTIONARY
  5
1A
102
{ACAD_REACTORS
330
C
102
}
330
C
100
AcDbDictionary
281
     1
  3
Layout1
350
1E
  3
Model
350
22
  0
DICTIONARY
  5
1BF
102
{ACAD_REACTORS
330
C
102
}
330
C
100
AcDbDictionary
281
     1
  0
DICTIONARY
  5
17
102
{ACAD_REACTORS
330
C
102
}
330
C
100
AcDbDictionary
281
     1
  3
Standard
350
18
  0
DICTIONARY
  5
19
102
{ACAD_REACTORS
330
C
102
}
330
C
100
AcDbDictionary
281
     1
  0
ACDBDICTIONARYWDFLT
  5
E
102
{ACAD_REACTORS
330
C
102
}
330
C
100
AcDbDictionary
281
     1
  3
Normal
350
F
100
AcDbDictionaryWithDefault
340
F
  0
DICTIONARY
  5
3B
102
{ACAD_REACTORS
330
C
102
}
330
C
100
AcDbDictionary
281
     1
  3
A0
350
3C
  3
A1
350
3D
  3
A2
350
3E
  3
A3
350
3F
  3
A4
350
40
  3
A5
350
41
  3
A6
350
42
  3
A7
350
43
  3
A8
350
44
  3
A9
350
45
  3
B0
350
46
  3
B1
350
47
  3
B2
350
48
  3
B3
350
49
  3
B4
350
4A
  3
B5
350
4B
  3
B6
350
4C
  3
B7
350
4D
  3
B8
350
4E
  3
B9
350
4F
  3
C0
350
50
  3
C1
350
51
  3
C2
350
52
  3
C3
350
53
  3
C4
350
54
  3
C5
350
55
  3
C6
350
56
  3
C7
350
57
  3
C8
350
58
  3
C9
350
59
  3
D0
350
5A
  3
D1
350
5B
  3
D2
350
5C
  0
DICTIONARY
  5
1BE
102
{ACAD_REACTORS
330
C
102
}
330
C
100
AcDbDictionary
281
     1
  0
DICTIONARY
  5
2A
102
{ACAD_REACTORS
330
C
102
}
330
C
100
AcDbDictionary
281
     1
  3
2dWireframe
350
2F
  3
3D Hidden
350
31
  3
3dWireframe
350
30
  3
Basic
350
32
  3
Brighten
350
36
  3
ColorChange
350
3A
  3
Conceptual
350
34
  3
Dim
350
35
  3
Facepattern
350
39
  3
Flat
350
2B
  3
FlatWithEdges
350
2C
  3
Gouraud
350
2D
  3
GouraudWithEdges
350
2E
  3
Linepattern
350
38
  3
Realistic
350
33
  3
Thicken
350
37
  0
DICTIONARY
  5
1BC
102
{ACAD_REACTORS
330
C
102
}
330
C
100
AcDbDictionary
281
     1
  3
CANNOSCALE
350
1BD
  3
PSOLHEIGHT
350
1C1
  3
PSOLWIDTH
350
1C0
  0
LAYOUT
  5
1E
102
{ACAD_REACTORS
330
1A
102
}
330
1A
100
AcDbPlotSettings
  1

  2
none_device
  4

  6

 40
0.0
 41
0.0
 42
0.0
 43
0.0
 44
0.0
 45
0.0
 46
0.0
 47
0.0
 48
0.0
 49
0.0
140
0.0
141
0.0
142
1.0
143
1.0
 70
   688
 72
     0
 73
     0
 74
     5
  7

 75
    16
147
1.0
148
0.0
149
0.0
100
AcDbLayout
  1
Layout1
 70
     1
 71
     1
 10
0.0
 20
0.0
 11
1682.0
 21
2378.0
 12
0.0
 22
0.0
 32
0.0
 14
0.0
 24
0.0
 34
0.0
 15
1682.0
 25
2378.0
 35
0.0
146
0.0
 13
0.0
 23
0.0
 33
0.0
 16
1.0
 26
0.0
 36
0.0
 17
0.0
 27
1.0
 37
0.0
 76
     0
330
1B
  0
LAYOUT
  5
22
102
{ACAD_REACTORS
330
1A
102
}
330
1A
100
AcDbPlotSettings
  1

  2
none_device
  4

  6

 40
0.0
 41
0.0
 42
0.0
 43
0.0
 44
0.0
 45
0.0
 46
0.0
 47
0.0
 48
0.0
 49
0.0
140
0.0
141
0.0
142
1.0
143
1.0
 70
  1712
 72
     0
 73
     0
 74
     0
  7

 75
     0
147
1.0
148
0.0
149
0.0
100
AcDbLayout
  1
Model
 70
     1
 71
     0
 10
0.0
 20
0.0
 11
1682.0
 21
2378.0
 12
0.0
 22
0.0
 32
0.0
 14
0.0
 24
0.0
 34
0.0
 15
1682.0
 25
2378.0
 35
0.0
146
0.0
 13
0.0
 23
0.0
 33
0.0
 16
1.0
 26
0.0
 36
0.0
 17
0.0
 27
1.0
 37
0.0
 76
     0
330
1F
331
29
  0
MLINESTYLE
  5
18
102
{ACAD_REACTORS
330
17
102
}
330
17
100
AcDbMlineStyle
  2
Standard
 70
     0
  3

 62
   256
 51
90.0
 52
90.0
 71
     2
 49
0.5
 62
   256
  6
BYLAYER
 49
-0.5
 62
   256
  6
BYLAYER
  0
ACDBPLACEHOLDER
  5
F
102
{ACAD_REACTORS
330
E
102
}
330
E
  0
SCALE
  5
3C
102
{ACAD_REACTORS
330
3B
102
}
330
3B
100
AcDbScale
 70
     0
300
1:1
140
1.0
141
1.0
290
     1
  0
SCALE
  5
3D
102
{ACAD_REACTORS
330
3B
102
}
330
3B
100
AcDbScale
 70
     0
300
1:2
140
1.0
141
2.0
290
     0
  0
SCALE
  5
3E
102
{ACAD_REACTORS
330
3B
102
}
330
3B
100
AcDbScale
 70
     0
300
1:4
140
1.0
141
4.0
290
     0
  0
SCALE
  5
3F
102
{ACAD_REACTORS
330
3B
102
}
330
3B
100
AcDbScale
 70
     0
300
1:5
140
1.0
141
5.0
290
     0
  0
SCALE
  5
40
102
{ACAD_REACTORS
330
3B
102
}
330
3B
100
AcDbScale
 70
     0
300
1:8
140
1.0
141
8.0
290
     0
  0
SCALE
  5
41
102
{ACAD_REACTORS
330
3B
102
}
330
3B
100
AcDbScale
 70
     0
300
1:10
140
1.0
141
10.0
290
     0
  0
SCALE
  5
42
102
{ACAD_REACTORS
330
3B
102
}
330
3B
100
AcDbScale
 70
     0
300
1:16
140
1.0
141
16.0
290
     0
  0
SCALE
  5
43
102
{ACAD_REACTORS
330
3B
102
}
330
3B
100
AcDbScale
 70
     0
300
1:20
140
1.0
141
20.0
290
     0
  0
SCALE
  5
44
102
{ACAD_REACTORS
330
3B
102
}
330
3B
100
AcDbScale
 70
     0
300
1:30
140
1.0
141
30.0
290
     0
  0
SCALE
  5
45
102
{ACAD_REACTORS
330
3B
102
}
330
3B
100
AcDbScale
 70
     0
300
1:40
140
1.0
141
40.0
290
     0
  0
SCALE
  5
46
102
{ACAD_REACTORS
330
3B
102
}
330
3B
100
AcDbScale
 70
     0
300
1:50
140
1.0
141
50.0
290
     0
  0
SCALE
  5
47
102
{ACAD_REACTORS
330
3B
102
}
330
3B
100
AcDbScale
 70
     0
300
1:100
140
1.0
141
100.0
290
     0
  0
SCALE
  5
48
102
{ACAD_REACTORS
330
3B
102
}
330
3B
100
AcDbScale
 70
     0
300
2:1
140
2.0
141
1.0
290
     0
  0
SCALE
  5
49
102
{ACAD_REACTORS
330
3B
102
}
330
3B
100
AcDbScale
 70
     0
300
4:1
140
4.0
141
1.0
290
     0
  0
SCALE
  5
4A
102
{ACAD_REACTORS
330
3B
102
}
330
3B
100
AcDbScale
 70
     0
300
8:1
140
8.0
141
1.0
290
     0
  0
SCALE
  5
4B
102
{ACAD_REACTORS
330
3B
102
}
330
3B
100
AcDbScale
 70
     0
300
10:1
140
10.0
141
1.0
290
     0
  0
SCALE
  5
4C
102
{ACAD_REACTORS
330
3B
102
}
330
3B
100
AcDbScale
 70
     0
300
100:1
140
100.0
141
1.0
290
     0
  0
SCALE
  5
4D
102
{ACAD_REACTORS
330
3B
102
}
330
3B
100
AcDbScale
 70
     0
300
1/128" = 1'-0"
140
0.0078125
141
12.0
290
     0
  0
SCALE
  5
4E
102
{ACAD_REACTORS
330
3B
102
}
330
3B
100
AcDbScale
 70
     0
300
1/64" = 1'-0"
140
0.015625
141
12.0
290
     0
  0
SCALE
  5
4F
102
{ACAD_REACTORS
330
3B
102
}
330
3B
100
AcDbScale
 70
     0
300
1/32" = 1'-0"
140
0.03125
141
12.0
290
     0
  0
SCALE
  5
50
102
{ACAD_REACTORS
330
3B
102
}
330
3B
100
AcDbScale
 70
     0
300
1/16" = 1'-0"
140
0.0625
141
12.0
290
     0
  0
SCALE
  5
51
102
{ACAD_REACTORS
330
3B
102
}
330
3B
100
AcDbScale
 70
     0
300
3/32" = 1'-0"
140
0.09375
141
12.0
290
     0
  0
SCALE
  5
52
102
{ACAD_REACTORS
330
3B
102
}
330
3B
100
AcDbScale
 70
     0
300
1/8" = 1'-0"
140
0.125
141
12.0
290
     0
  0
SCALE
  5
53
102
{ACAD_REACTORS
330
3B
102
}
330
3B
100
AcDbScale
 70
     0
300
3/16" = 1'-0"
140
0.1875
141
12.0
290
     0
  0
SCALE
  5
54
102
{ACAD_REACTORS
330
3B
102
}
330
3B
100
AcDbScale
 70
     0
300
1/4" = 1'-0"
140
0.25
141
12.0
290
     0
  0
SCALE
  5
55
102
{ACAD_REACTORS
330
3B
102
}
330
3B
100
AcDbScale
 70
     0
300
3/8" = 1'-0"
140
0.375
141
12.0
290
     0
  0
SCALE
  5
56
102
{ACAD_REACTORS
330
3B
102
}
330
3B
100
AcDbScale
 70
     0
300
1/2" = 1'-0"
140
0.5
141
12.0
290
     0
  0
SCALE
  5
57
102
{ACAD_REACTORS
330
3B
102
}
330
3B
100
AcDbScale
 70
     0
300
3/4" = 1'-0"
140
0.75
141
12.0
290
     0
  0
SCALE
  5
58
102
{ACAD_REACTORS
330
3B
102
}
330
3B
100
AcDbScale
 70
     0
300
1" = 1'-0"
140
1.0
141
12.0
290
     0
  0
SCALE
  5
59
102
{ACAD_REACTORS
330
3B
102
}
330
3B
100
AcDbScale
 70
     0
300
1-1/2" = 1'-0"
140
1.5
141
12.0
290
     0
  0
SCALE
  5
5A
102
{ACAD_REACTORS
330
3B
102
}
330
3B
100
AcDbScale
 70
     0
300
3" = 1'-0"
140
3.0
141
12.0
290
     0
  0
SCALE
  5
5B
102
{ACAD_REACTORS
330
3B
102
}
330
3B
100
AcDbScale
 70
     0
300
6" = 1'-0"
140
6.0
141
12.0
290
     0
  0
SCALE
  5
5C
102
{ACAD_REACTORS
330
3B
102
}
330
3B
100
AcDbScale
 70
     0
300
1'-0" = 1'-0"
140
12.0
141
12.0
290
     0
  0
VISUALSTYLE
  5
2F
102
{ACAD_REACTORS
330
2A
102
}
330
2A
100
AcDbVisualStyle
  2
2dWireframe
 70
     4
 71
     0
 72
     2
 73
     0
 90
        0
 40
-0.6
 41
-30.0
 62
     5
 63
     7
 74
     1
 91
        4
 64
     7
 65
   257
 75
     1
175
     1
 42
1.0
 92
        0
 66
   257
 43
1.0
 76
     1
 77
     6
 78
     2
 67
     7
 79
     5
170
     0
171
     0
290
     0
174
     0
 93
        1
 44
0.0
173
     0
291
     0
 45
0.0
1001
ACAD
1000
AcDbSavedByObjectVersion
1070
     0
  0
VISUALSTYLE
  5
31
102
{ACAD_REACTORS
330
2A
102
}
330
2A
100
AcDbVisualStyle
  2
3D Hidden
 70
     6
 71
     1
 72
     2
 73
     2
 90
        0
 40
-0.6
 41
-30.0
 62
     5
 63
     7
 74
     2
 91
        2
 64
     7
 65
   257
 75
     2
175
     1
 42
40.0
 92
        0
 66
   257
 43
1.0
 76
     1
 77
     6
 78
     2
 67
     7
 79
     3
170
     0
171
     0
290
     0
174
     0
 93
        1
 44
0.0
173
     0
291
     0
 45
0.0
1001
ACAD
1000
AcDbSavedByObjectVersion
1070
     0
  0
VISUALSTYLE
  5
30
102
{ACAD_REACTORS
330
2A
102
}
330
2A
100
AcDbVisualStyle
  2
3dWireframe
 70
     5
 71
     0
 72
     2
 73
     0
 90
        0
 40
-0.6
 41
-30.0
 62
     5
 63
     7
 74
     1
 91
        4
 64
     7
 65
   257
 75
     1
175
     1
 42
1.0
 92
        0
 66
   257
 43
1.0
 76
     1
 77
     6
 78
     2
 67
     7
 79
     5
170
     0
171
     0
290
     0
174
     0
 93
        1
 44
0.0
173
     0
291
     0
 45
0.0
1001
ACAD
1000
AcDbSavedByObjectVersion
1070
     0
  0
VISUALSTYLE
  5
32
102
{ACAD_REACTORS
330
2A
102
}
330
2A
100
AcDbVisualStyle
  2
Basic
 70
     7
 71
     1
 72
     0
 73
     1
 90
        0
 40
-0.6
 41
-30.0
 62
     5
 63
     7
 74
     0
 91
        4
 64
     7
 65
   257
 75
     1
175
     1
 42
1.0
 92
        8
 66
     7
 43
1.0
 76
     1
 77
     6
 78
     2
 67
     7
 79
     5
170
     0
171
     0
290
     0
174
     0
 93
        1
 44
0.0
173
     0
291
     1
 45
0.0
1001
ACAD
1000
AcDbSavedByObjectVersion
1070
     0
  0
VISUALSTYLE
  5
36
102
{ACAD_REACTORS
330
2A
102
}
330
2A
100
AcDbVisualStyle
  2
Brighten
 70
    12
 71
     2
 72
     2
 73
     0
 90
        0
 40
-0.6
 41
-30.0
 62
     5
 63
     7
 74
     1
 91
        4
 64
     7
 65
   257
 75
     1
175
     1
 42
1.0
 92
        8
 66
     7
 43
1.0
 76
     1
 77
     6
 78
     2
 67
     7
 79
     5
170
     0
171
     0
290
     0
174
     0
 93
        1
 44
50.0
173
     0
291
     1
 45
0.0
1001
ACAD
1000
AcDbSavedByObjectVersion
1070
     0
  0
VISUALSTYLE
  5
3A
102
{ACAD_REACTORS
330
2A
102
}
330
2A
100
AcDbVisualStyle
  2
ColorChange
 70
    16
 71
     2
 72
     2
 73
     3
 90
        0
 40
-0.6
 41
-30.0
 62
     5
 63
     8
 74
     1
 91
        4
 64
     7
 65
   257
 75
     1
175
     1
 42
1.0
 92
        8
 66
     8
 43
1.0
 76
     1
 77
     6
 78
     2
 67
     7
 79
     5
170
     0
171
     0
290
     0
174
     0
 93
        1
 44
0.0
173
     0
291
     1
 45
0.0
1001
ACAD
1000
AcDbSavedByObjectVersion
1070
     0
  0
VISUALSTYLE
  5
34
102
{ACAD_REACTORS
330
2A
102
}
330
2A
100
AcDbVisualStyle
  2
Conceptual
 70
     9
 71
     3
 72
     2
 73
     0
 90
        0
 40
-0.6
 41
-30.0
 62
     5
 63
     7
 74
     2
 91
        2
 64
     7
 65
   257
 75
     1
175
     1
 42
40.0
 92
        8
 66
     7
 43
1.0
 76
     1
 77
     6
 78
     2
 67
     7
 79
     3
170
     0
171
     0
290
     0
174
     0
 93
        1
 44
0.0
173
     0
291
     0
 45
0.0
1001
ACAD
1000
AcDbSavedByObjectVersion
1070
     0
  0
VISUALSTYLE
  5
35
102
{ACAD_REACTORS
330
2A
102
}
330
2A
100
AcDbVisualStyle
  2
Dim
 70
    11
 71
     2
 72
     2
 73
     0
 90
        0
 40
-0.6
 41
-30.0
 62
     5
 63
     7
 74
     1
 91
        4
 64
     7
 65
   257
 75
     1
175
     1
 42
1.0
 92
        8
 66
     7
 43
1.0
 76
     1
 77
     6
 78
     2
 67
     7
 79
     5
170
     0
171
     0
290
     0
174
     0
 93
        1
 44
-50.0
173
     0
291
     1
 45
0.0
1001
ACAD
1000
AcDbSavedByObjectVersion
1070
     0
  0
VISUALSTYLE
  5
39
102
{ACAD_REACTORS
330
2A
102
}
330
2A
100
AcDbVisualStyle
  2
Facepattern
 70
    15
 71
     2
 72
     2
 73
     0
 90
        0
 40
-0.6
 41
-30.0
 62
     5
 63
     7
 74
     1
 91
        4
 64
     7
 65
   257
 75
     1
175
     1
 42
1.0
 92
        8
 66
     7
 43
1.0
 76
     1
 77
     6
 78
     2
 67
     7
 79
     5
170
     0
171
     0
290
     0
174
     0
 93
        1
 44
0.0
173
     0
291
     1
 45
0.0
1001
ACAD
1000
AcDbSavedByObjectVersion
1070
     0
  0
VISUALSTYLE
  5
2B
102
{ACAD_REACTORS
330
2A
102
}
330
2A
100
AcDbVisualStyle
  2
Flat
 70
     0
 71
     2
 72
     1
 73
     1
 90
        2
 40
-0.6
 41
30.0
 62
     5
 63
     7
 74
     0
 91
        4
 64
     7
 65
   257
 75
     1
175
     1
 42
1.0
 92
        8
 66
     7
 43
1.0
 76
     1
 77
     6
 78
     2
 67
     7
 79
     5
170
     0
171
     0
290
     0
174
     0
 93
       13
 44
0.0
173
     0
291
     1
 45
0.0
1001
ACAD
1000
AcDbSavedByObjectVersion
1070
     0
  0
VISUALSTYLE
  5
2C
102
{ACAD_REACTORS
330
2A
102
}
330
2A
100
AcDbVisualStyle
  2
FlatWithEdges
 70
     1
 71
     2
 72
     1
 73
     1
 90
        2
 40
-0.6
 41
30.0
 62
     5
 63
     7
 74
     1
 91
        4
 64
     7
 65
   257
 75
     1
175
     1
 42
1.0
 92
        0
 66
   257
 43
1.0
 76
     1
 77
     6
 78
     2
 67
     7
 79
     5
170
     0
171
     0
290
     0
174
     0
 93
       13
 44
0.0
173
     0
291
     1
 45
0.0
1001
ACAD
1000
AcDbSavedByObjectVersion
1070
     0
  0
VISUALSTYLE
  5
2D
102
{ACAD_REACTORS
330
2A
102
}
330
2A
100
AcDbVisualStyle
  2
Gouraud
 70
     2
 71
     2
 72
     2
 73
     1
 90
        2
 40
-0.6
 41
30.0
 62
     5
 63
     7
 74
     0
 91
        4
 64
     7
 65
   257
 75
     1
175
     1
 42
1.0
 92
        0
 66
     7
 43
1.0
 76
     1
 77
     6
 78
     2
 67
     7
 79
     5
170
     0
171
     0
290
     0
174
     0
 93
       13
 44
0.0
173
     0
291
     1
 45
0.0
1001
ACAD
1000
AcDbSavedByObjectVersion
1070
     0
  0
VISUALSTYLE
  5
2E
102
{ACAD_REACTORS
330
2A
102
}
330
2A
100
AcDbVisualStyle
  2
GouraudWithEdges
 70
     3
 71
     2
 72
     2
 73
     1
 90
        2
 40
-0.6
 41
30.0
 62
     5
 63
     7
 74
     1
 91
        4
 64
     7
 65
   257
 75
     1
175
     1
 42
1.0
 92
        0
 66
   257
 43
1.0
 76
     1
 77
     6
 78
     2
 67
     7
 79
     5
170
     0
171
     0
290
     0
174
     0
 93
       13
 44
0.0
173
     0
291
     1
 45
0.0
1001
ACAD
1000
AcDbSavedByObjectVersion
1070
     0
  0
VISUALSTYLE
  5
38
102
{ACAD_REACTORS
330
2A
102
}
330
2A
100
AcDbVisualStyle
  2
Linepattern
 70
    14
 71
     2
 72
     2
 73
     0
 90
        0
 40
-0.6
 41
-30.0
 62
     5
 63
     7
 74
     1
 91
        4
 64
     7
 65
   257
 75
     7
175
     7
 42
1.0
 92
        8
 66
     7
 43
1.0
 76
     1
 77
     6
 78
     2
 67
     7
 79
     5
170
     0
171
     0
290
     0
174
     0
 93
        1
 44
0.0
173
     0
291
     1
 45
0.0
1001
ACAD
1000
AcDbSavedByObjectVersion
1070
     0
  0
VISUALSTYLE
  5
33
102
{ACAD_REACTORS
330
2A
102
}
330
2A
100
AcDbVisualStyle
  2
Realistic
 70
     8
 71
     2
 72
     2
 73
     0
 90
        0
 40
-0.6
 41
-30.0
 62
     5
 63
     7
 74
     1
 91
        0
 64
     7
 65
   257
 75
     1
175
     1
 42
1.0
 92
        8
 66
     8
 43
1.0
 76
     1
 77
     6
 78
     2
 67
     7
 79
     5
170
     0
171
     0
290
     0
174
     0
 93
       13
 44
0.0
173
     0
291
     0
 45
0.0
1001
ACAD
1000
AcDbSavedByObjectVersion
1070
     0
  0
VISUALSTYLE
  5
37
102
{ACAD_REACTORS
330
2A
102
}
330
2A
100
AcDbVisualStyle
  2
Thicken
 70
    13
 71
     2
 72
     2
 73
     0
 90
        0
 40
-0.6
 41
-30.0
 62
     5
 63
     7
 74
     1
 91
        4
 64
     7
 65
   257
 75
     1
175
     1
 42
1.0
 92
       12
 66
     7
 43
1.0
 76
     1
 77
     6
 78
     2
 67
     7
 79
     5
170
     0
171
     0
290
     0
174
     0
 93
        1
 44
0.0
173
     0
291
     1
 45
0.0
1001
ACAD
1000
AcDbSavedByObjectVersion
1070
     0
  0
DICTIONARYVAR
  5
1BD
102
{ACAD_REACTORS
330
1BC
102
}
330
1BC
100
DictionaryVariables
280
     0
  1
1:1
  0
DICTIONARYVAR
  5
1C1
102
{ACAD_REACTORS
330
1BC
102
}
330
1BC
100
DictionaryVariables
280
     0
  1
80.000000
  0
DICTIONARYVAR
  5
1C0
102
{ACAD_REACTORS
330
1BC
102
}
330
1BC
100
DictionaryVariables
280
     0
  1
5.000000
  0
ENDSEC
  0
EOF
