  0
SECTION
  2
HEADER
  9
$ACADVER
  1
AC1009
  9
$DWGCODEPAGE
  3
ansi_1252
  9
$INSBASE
 10
0.0
 20
0.0
 30
0.0
  9
$EXTMIN
 10
1.000000000000000E+20
 20
1.000000000000000E+20
 30
1.000000000000000E+20
  9
$EXTMAX
 10
-1.000000000000000E+20
 20
-1.000000000000000E+20
 30
-1.000000000000000E+20
  9
$LIMMIN
 10
0.0
 20
0.0
  9
$LIMMAX
 10
12.0
 20
9.0
  9
$ORTHOMODE
 70
     0
  9
$REGENMODE
 70
     1
  9
$FILLMODE
 70
     1
  9
$QTEXTMODE
 70
     0
  9
$MIRRTEXT
 70
     1
  9
$DRAGMODE
 70
     2
  9
$LTSCALE
 40
1.0
  9
$OSMODE
 70
    37
  9
$ATTMODE
 70
     1
  9
$TEXTSIZE
 40
0.2
  9
$TRACEWID
 40
0.05
  9
$TEXTSTYLE
  7
STANDARD
  9
$CLAYER
  8
0
  9
$CELTYPE
  6
BYLAYER
  9
$CECOLOR
 62
   256
  9
$DIMSCALE
 40
1.0
  9
$DIMASZ
 40
0.18
  9
$DIMEXO
 40
0.0625
  9
$DIMDLI
 40
0.38
  9
$DIMRND
 40
0.0
  9
$DIMDLE
 40
0.0
  9
$DIMEXE
 40
0.18
  9
$DIMTP
 40
0.0
  9
$DIMTM
 40
0.0
  9
$DIMTXT
 40
0.18
  9
$DIMCEN
 40
0.09
  9
$DIMTSZ
 40
0.0
  9
$DIMTOL
 70
     0
  9
$DIMLIM
 70
     0
  9
$DIMTIH
 70
     1
  9
$DIMTOH
 70
     1
  9
$DIMSE1
 70
     0
  9
$DIMSE2
 70
     0
  9
$DIMTAD
 70
     0
  9
$DIMZIN
 70
     0
  9
$DIMBLK
  1

  9
$DIMASO
 70
     1
  9
$DIMSHO
 70
     1
  9
$DIMPOST
  1

  9
$DIMAPOST
  1

  9
$DIMALT
 70
     0
  9
$DIMALTD
 70
     2
  9
$DIMALTF
 40
25.4
  9
$DIMLFAC
 40
1.0
  9
$DIMTOFL
 70
     0
  9
$DIMTVP
 40
0.0
  9
$DIMTIX
 70
     0
  9
$DIMSOXD
 70
     0
  9
$DIMSAH
 70
     0
  9
$DIMBLK1
  1

  9
$DIMBLK2
  1

  9
$DIMSTYLE
  2
STANDARD
  9
$DIMCLRD
 70
     0
  9
$DIMCLRE
 70
     0
  9
$DIMCLRT
 70
     0
  9
$DIMTFAC
 40
1.0
  9
$DIMGAP
 40
0.09
  9
$LUNITS
 70
     2
  9
$LUPREC
 70
     4
  9
$SKETCHINC
 40
0.1
  9
$FILLETRAD
 40
0.5
  9
$AUNITS
 70
     0
  9
$AUPREC
 70
     0
  9
$MENU
  1
.
  9
$ELEVATION
 40
0.0
  9
$PELEVATION
 40
0.0
  9
$THICKNESS
 40
0.0
  9
$LIMCHECK
 70
     0
  9
$CHAMFERA
 40
0.5
  9
$CHAMFERB
 40
0.5
  9
$SKPOLY
 70
     0
  9
$TDCREATE
 40
2455464.963692662
  9
$TDUPDATE
 40
2455464.963692662
  9
$TDINDWG
 40
0.0000000116
  9
$TDUSRTIMER
 40
0.0000000116
  9
$USRTIMER
 70
     1
  9
$ANGBASE
 50
0.0
  9
$ANGDIR
 70
     0
  9
$PDMODE
 70
     0
  9
$PDSIZE
 40
0.0
  9
$PLINEWID
 40
0.0
  9
$COORDS
 70
     1
  9
$SPLFRAME
 70
     0
  9
$SPLINETYPE
 70
     6
  9
$SPLINESEGS
 70
     8
  9
$ATTDIA
 70
     0
  9
$ATTREQ
 70
     1
  9
$HANDLING
 70
     1
  9
$HANDSEED
  5
962
  9
$SURFTAB1
 70
     6
  9
$SURFTAB2
 70
     6
  9
$SURFTYPE
 70
     6
  9
$SURFU
 70
     6
  9
$SURFV
 70
     6
  9
$UCSNAME
  2

  9
$UCSORG
 10
0.0
 20
0.0
 30
0.0
  9
$UCSXDIR
 10
1.0
 20
0.0
 30
0.0
  9
$UCSYDIR
 10
0.0
 20
1.0
 30
0.0
  9
$PUCSNAME
  2

  9
$PUCSORG
 10
0.0
 20
0.0
 30
0.0
  9
$PUCSXDIR
 10
1.0
 20
0.0
 30
0.0
  9
$PUCSYDIR
 10
0.0
 20
1.0
 30
0.0
  9
$USERI1
 70
     0
  9
$USERI2
 70
     0
  9
$USERI3
 70
     0
  9
$USERI4
 70
     0
  9
$USERI5
 70
     0
  9
$USERR1
 40
0.0
  9
$USERR2
 40
0.0
  9
$USERR3
 40
0.0
  9
$USERR4
 40
0.0
  9
$USERR5
 40
0.0
  9
$WORLDVIEW
 70
     1
  9
$SHADEDGE
 70
     3
  9
$SHADEDIF
 70
    70
  9
$TILEMODE
 70
     1
  9
$MAXACTVP
 70
    64
  9
$PLIMCHECK
 70
     0
  9
$PEXTMIN
 10
1.000000000000000E+20
 20
1.000000000000000E+20
 30
1.000000000000000E+20
  9
$PEXTMAX
 10
-1.000000000000000E+20
 20
-1.000000000000000E+20
 30
-1.000000000000000E+20
  9
$PLIMMIN
 10
0.0
 20
0.0
  9
$PLIMMAX
 10
12.0
 20
9.0
  9
$UNITMODE
 70
     0
  9
$VISRETAIN
 70
     1
  9
$PLINEGEN
 70
     0
  9
$PSLTSCALE
 70
     1
  0
ENDSEC
  0
SECTION
  2
TABLES
  0
TABLE
  2
VPORT
 70
     1
  0
VPORT
  2
*ACTIVE
 70
     0
 10
0.0
 20
0.0
 11
1.0
 21
1.0
 12
0.0
 22
0.0
 13
0.0
 23
0.0
 14
0.5
 24
0.5
 15
0.5
 25
0.5
 16
244.2643432617188
 26
139.5675964355469
 36
244.2643432617188
 17
45.89749145507812
 27
-3.495498657226562
 37
-24.60000610351562
 40
211.44179421263
 41
1.972972972850329
 42
50.0
 43
0.0
 44
0.0
 50
0.0
 51
0.0
 71
     0
 72
   100
 73
     1
 74
     3
 75
     0
 76
     0
 77
     0
 78
     0
  0
ENDTAB
  0
TABLE
  2
LTYPE
 70
     1
  0
LTYPE
  2
CONTINUOUS
 70
     0
  3
Solid line
 72
    65
 73
     0
 40
0.0
  0
ENDTAB
  0
TABLE
  2
LAYER
 70
     2
  0
LAYER
  2
0
 70
     0
 62
     7
  6
CONTINUOUS
  0
LAYER
  2
LAYER_1
 70
     0
 62
     7
  6
CONTINUOUS
  0
ENDTAB
  0
TABLE
  2
STYLE
 70
     1
  0
STYLE
  2
STANDARD
 70
     0
 40
0.0
 41
1.0
 50
0.0
 71
     0
 42
0.2
  3
txt
  4

  0
ENDTAB
  0
TABLE
  2
VIEW
 70
     0
  0
ENDTAB
  0
TABLE
  2
UCS
 70
     0
  0
ENDTAB
  0
TABLE
  2
APPID
 70
     1
  0
APPID
  2
ACAD
 70
     0
  0
ENDTAB
  0
TABLE
  2
DIMSTYLE
 70
     1
  0
DIMSTYLE
  2
STANDARD
 70
     0
  3

  4

  5

  6

  7

 40
1.0
 41
0.18
 42
0.0625
 43
0.38
 44
0.18
 45
0.0
 46
0.0
 47
0.0
 48
0.0
140
0.18
141
0.09
142
0.0
143
25.4
144
1.0
145
0.0
146
1.0
147
0.09
 71
     0
 72
     0
 73
     1
 74
     1
 75
     0
 76
     0
 77
     0
 78
     0
170
     0
171
     2
172
     0
173
     0
174
     0
175
     0
176
     0
177
     0
178
     0
  0
ENDTAB
  0
ENDSEC
  0
SECTION
  2
BLOCKS
  0
BLOCK
  8
0
  2
$MODEL_SPACE
 70
     0
 10
0.0
 20
0.0
 30
0.0
  3
$MODEL_SPACE
  1

  0
ENDBLK
  5
21
  8
0
  0
BLOCK
 67
     1
  8
0
  2
$PAPER_SPACE
 70
     0
 10
0.0
 20
0.0
 30
0.0
  3
$PAPER_SPACE
  1

  0
ENDBLK
  5
1D
 67
     1
  8
0
  0
BLOCK
  8
0
  2
E3_NODE
 70
     0
 10
0.0
 20
0.0
 30
0.0
  3
E3_NODE
  1

  0
POLYLINE
  5
3C
  8
0
 62
     9
 66
     1
 10
0.0
 20
0.0
 30
0.0
 70
    64
 71
    45
 72
    77
  0
VERTEX
  5
3D
  8
0
 10
47.02799987792969
 20
0.0
 30
9.717000007629395
 70
   192
  0
VERTEX
  5
3E
  8
0
 10
47.02799987792969
 20
-5.252999782562256
 30
8.173999786376953
 70
   192
  0
VERTEX
  5
3F
  8
0
 10
53.42499923706055
 20
-6.710999965667725
 30
10.44299983978271
 70
   192
  0
VERTEX
  5
40
  8
0
 10
53.42499923706055
 20
0.0
 30
12.41300010681152
 70
   192
  0
VERTEX
  5
41
  8
0
 10
47.02799987792969
 20
-8.83899974822998
 30
4.037000179290771
 70
   192
  0
VERTEX
  5
42
  8
0
 10
53.42499923706055
 20
-11.29100036621094
 30
5.157000064849854
 70
   192
  0
VERTEX
  5
43
  8
0
 10
47.02799987792969
 20
-9.618000030517578
 30
-1.383000016212463
 70
   192
  0
VERTEX
  5
44
  8
0
 10
53.42499923706055
 20
-12.28699970245361
 30
-1.766999959945679
 70
   192
  0
VERTEX
  5
45
  8
0
 10
47.02799987792969
 20
-7.343999862670898
 30
-6.36299991607666
 70
   192
  0
VERTEX
  5
46
  8
0
 10
53.42499923706055
 20
-9.380999565124512
 30
-8.128999710083008
 70
   192
  0
VERTEX
  5
47
  8
0
 10
47.02799987792969
 20
-2.73799991607666
 30
-9.322999954223633
 70
   192
  0
VERTEX
  5
48
  8
0
 10
53.42499923706055
 20
-3.496999979019165
 30
-11.90999984741211
 70
   192
  0
VERTEX
  5
49
  8
0
 10
47.02799987792969
 20
2.73799991607666
 30
-9.322999954223633
 70
   192
  0
VERTEX
  5
4A
  8
0
 10
53.42499923706055
 20
3.496999979019165
 30
-11.90999984741211
 70
   192
  0
VERTEX
  5
4B
  8
0
 10
47.02799987792969
 20
7.343999862670898
 30
-6.36299991607666
 70
   192
  0
VERTEX
  5
4C
  8
0
 10
53.42499923706055
 20
9.380999565124512
 30
-8.128999710083008
 70
   192
  0
VERTEX
  5
4D
  8
0
 10
47.02799987792969
 20
9.618000030517578
 30
-1.383000016212463
 70
   192
  0
VERTEX
  5
4E
  8
0
 10
53.42499923706055
 20
12.28699970245361
 30
-1.766999959945679
 70
   192
  0
VERTEX
  5
4F
  8
0
 10
47.02799987792969
 20
8.83899974822998
 30
4.037000179290771
 70
   192
  0
VERTEX
  5
50
  8
0
 10
53.42499923706055
 20
11.29100036621094
 30
5.157000064849854
 70
   192
  0
VERTEX
  5
51
  8
0
 10
47.02799987792969
 20
5.252999782562256
 30
8.173999786376953
 70
   192
  0
VERTEX
  5
52
  8
0
 10
53.42499923706055
 20
6.710999965667725
 30
10.44299983978271
 70
   192
  0
VERTEX
  5
53
  8
0
 10
60.27399826049805
 20
-6.098999977111816
 30
9.489999771118164
 70
   192
  0
VERTEX
  5
54
  8
0
 10
60.27399826049805
 20
0.0
 30
11.2810001373291
 70
   192
  0
VERTEX
  5
55
  8
0
 10
60.27399826049805
 20
-10.26099967956543
 30
4.685999870300293
 70
   192
  0
VERTEX
  5
56
  8
0
 10
60.27399826049805
 20
-11.16600036621094
 30
-1.605000019073486
 70
   192
  0
VERTEX
  5
57
  8
0
 10
60.27399826049805
 20
-8.524999618530273
 30
-7.38700008392334
 70
   192
  0
VERTEX
  5
58
  8
0
 10
60.27399826049805
 20
-3.177999973297119
 30
-10.82400035858154
 70
   192
  0
VERTEX
  5
59
  8
0
 10
60.27399826049805
 20
3.177999973297119
 30
-10.82400035858154
 70
   192
  0
VERTEX
  5
5A
  8
0
 10
60.27399826049805
 20
8.524999618530273
 30
-7.38700008392334
 70
   192
  0
VERTEX
  5
5B
  8
0
 10
60.27399826049805
 20
11.16600036621094
 30
-1.605000019073486
 70
   192
  0
VERTEX
  5
5C
  8
0
 10
60.27399826049805
 20
10.26099967956543
 30
4.685999870300293
 70
   192
  0
VERTEX
  5
5D
  8
0
 10
60.27399826049805
 20
6.098999977111816
 30
9.489999771118164
 70
   192
  0
VERTEX
  5
5E
  8
0
 10
65.46199798583984
 20
-3.605000019073486
 30
5.610000133514404
 70
   192
  0
VERTEX
  5
5F
  8
0
 10
65.46199798583984
 20
0.0
 30
6.669000148773193
 70
   192
  0
VERTEX
  5
60
  8
0
 10
65.46199798583984
 20
-6.065999984741211
 30
2.769999980926514
 70
   192
  0
VERTEX
  5
61
  8
0
 10
65.46199798583984
 20
-6.60099983215332
 30
-0.9490000009536743
 70
   192
  0
VERTEX
  5
62
  8
0
 10
65.46199798583984
 20
-5.039999961853027
 30
-4.367000102996826
 70
   192
  0
VERTEX
  5
63
  8
0
 10
65.46199798583984
 20
-1.878999948501587
 30
-6.39900016784668
 70
   192
  0
VERTEX
  5
64
  8
0
 10
65.46199798583984
 20
1.878999948501587
 30
-6.39900016784668
 70
   192
  0
VERTEX
  5
65
  8
0
 10
65.46199798583984
 20
5.039999961853027
 30
-4.367000102996826
 70
   192
  0
VERTEX
  5
66
  8
0
 10
65.46199798583984
 20
6.60099983215332
 30
-0.9490000009536743
 70
   192
  0
VERTEX
  5
67
  8
0
 10
65.46199798583984
 20
6.065999984741211
 30
2.769999980926514
 70
   192
  0
VERTEX
  5
68
  8
0
 10
65.46199798583984
 20
3.605000019073486
 30
5.610000133514404
 70
   192
  0
VERTEX
  5
69
  8
0
 10
67.38999938964844
 20
0.0
 30
0.0
 70
   192
  0
VERTEX
  5
6A
  8
0
 62
     9
 10
0.0
 20
0.0
 30
0.0
 70
   128
 71
     3
 72
     2
 73
     1
  0
VERTEX
  5
6B
  8
0
 62
     9
 10
0.0
 20
0.0
 30
0.0
 70
   128
 71
     4
 72
     3
 73
     1
  0
VERTEX
  5
6C
  8
0
 62
     9
 10
0.0
 20
0.0
 30
0.0
 70
   128
 71
     6
 72
     5
 73
     2
  0
VERTEX
  5
6D
  8
0
 62
     9
 10
0.0
 20
0.0
 30
0.0
 70
   128
 71
     3
 72
     6
 73
     2
  0
VERTEX
  5
6E
  8
0
 62
     9
 10
0.0
 20
0.0
 30
0.0
 70
   128
 71
     8
 72
     7
 73
     5
  0
VERTEX
  5
6F
  8
0
 62
     9
 10
0.0
 20
0.0
 30
0.0
 70
   128
 71
     6
 72
     8
 73
     5
  0
VERTEX
  5
70
  8
0
 62
     9
 10
0.0
 20
0.0
 30
0.0
 70
   128
 71
    10
 72
     9
 73
     7
  0
VERTEX
  5
71
  8
0
 62
     9
 10
0.0
 20
0.0
 30
0.0
 70
   128
 71
     8
 72
    10
 73
     7
  0
VERTEX
  5
72
  8
0
 62
     9
 10
0.0
 20
0.0
 30
0.0
 70
   128
 71
    12
 72
    11
 73
     9
  0
VERTEX
  5
73
  8
0
 62
     9
 10
0.0
 20
0.0
 30
0.0
 70
   128
 71
    10
 72
    12
 73
     9
  0
VERTEX
  5
74
  8
0
 62
     9
 10
0.0
 20
0.0
 30
0.0
 70
   128
 71
    14
 72
    13
 73
    11
  0
VERTEX
  5
75
  8
0
 62
     9
 10
0.0
 20
0.0
 30
0.0
 70
   128
 71
    12
 72
    14
 73
    11
  0
VERTEX
  5
76
  8
0
 62
     9
 10
0.0
 20
0.0
 30
0.0
 70
   128
 71
    16
 72
    15
 73
    13
  0
VERTEX
  5
77
  8
0
 62
     9
 10
0.0
 20
0.0
 30
0.0
 70
   128
 71
    14
 72
    16
 73
    13
  0
VERTEX
  5
78
  8
0
 62
     9
 10
0.0
 20
0.0
 30
0.0
 70
   128
 71
    18
 72
    17
 73
    15
  0
VERTEX
  5
79
  8
0
 62
     9
 10
0.0
 20
0.0
 30
0.0
 70
   128
 71
    16
 72
    18
 73
    15
  0
VERTEX
  5
7A
  8
0
 62
     9
 10
0.0
 20
0.0
 30
0.0
 70
   128
 71
    20
 72
    19
 73
    17
  0
VERTEX
  5
7B
  8
0
 62
     9
 10
0.0
 20
0.0
 30
0.0
 70
   128
 71
    18
 72
    20
 73
    17
  0
VERTEX
  5
7C
  8
0
 62
     9
 10
0.0
 20
0.0
 30
0.0
 70
   128
 71
    22
 72
    21
 73
    19
  0
VERTEX
  5
7D
  8
0
 62
     9
 10
0.0
 20
0.0
 30
0.0
 70
   128
 71
    20
 72
    22
 73
    19
  0
VERTEX
  5
7E
  8
0
 62
     9
 10
0.0
 20
0.0
 30
0.0
 70
   128
 71
     4
 72
     1
 73
    21
  0
VERTEX
  5
7F
  8
0
 62
     9
 10
0.0
 20
0.0
 30
0.0
 70
   128
 71
    22
 72
     4
 73
    21
  0
VERTEX
  5
80
  8
0
 62
     9
 10
0.0
 20
0.0
 30
0.0
 70
   128
 71
    23
 72
     3
 73
     4
  0
VERTEX
  5
81
  8
0
 62
     9
 10
0.0
 20
0.0
 30
0.0
 70
   128
 71
    24
 72
    23
 73
     4
  0
VERTEX
  5
82
  8
0
 62
     9
 10
0.0
 20
0.0
 30
0.0
 70
   128
 71
    25
 72
     6
 73
     3
  0
VERTEX
  5
83
  8
0
 62
     9
 10
0.0
 20
0.0
 30
0.0
 70
   128
 71
    23
 72
    25
 73
     3
  0
VERTEX
  5
84
  8
0
 62
     9
 10
0.0
 20
0.0
 30
0.0
 70
   128
 71
    26
 72
     8
 73
     6
  0
VERTEX
  5
85
  8
0
 62
     9
 10
0.0
 20
0.0
 30
0.0
 70
   128
 71
    25
 72
    26
 73
     6
  0
VERTEX
  5
86
  8
0
 62
     9
 10
0.0
 20
0.0
 30
0.0
 70
   128
 71
    27
 72
    10
 73
     8
  0
VERTEX
  5
87
  8
0
 62
     9
 10
0.0
 20
0.0
 30
0.0
 70
   128
 71
    26
 72
    27
 73
     8
  0
VERTEX
  5
88
  8
0
 62
     9
 10
0.0
 20
0.0
 30
0.0
 70
   128
 71
    28
 72
    12
 73
    10
  0
VERTEX
  5
89
  8
0
 62
     9
 10
0.0
 20
0.0
 30
0.0
 70
   128
 71
    27
 72
    28
 73
    10
  0
VERTEX
  5
8A
  8
0
 62
     9
 10
0.0
 20
0.0
 30
0.0
 70
   128
 71
    29
 72
    14
 73
    12
  0
VERTEX
  5
8B
  8
0
 62
     9
 10
0.0
 20
0.0
 30
0.0
 70
   128
 71
    28
 72
    29
 73
    12
  0
VERTEX
  5
8C
  8
0
 62
     9
 10
0.0
 20
0.0
 30
0.0
 70
   128
 71
    30
 72
    16
 73
    14
  0
VERTEX
  5
8D
  8
0
 62
     9
 10
0.0
 20
0.0
 30
0.0
 70
   128
 71
    29
 72
    30
 73
    14
  0
VERTEX
  5
8E
  8
0
 62
     9
 10
0.0
 20
0.0
 30
0.0
 70
   128
 71
    31
 72
    18
 73
    16
  0
VERTEX
  5
8F
  8
0
 62
     9
 10
0.0
 20
0.0
 30
0.0
 70
   128
 71
    30
 72
    31
 73
    16
  0
VERTEX
  5
90
  8
0
 62
     9
 10
0.0
 20
0.0
 30
0.0
 70
   128
 71
    32
 72
    20
 73
    18
  0
VERTEX
  5
91
  8
0
 62
     9
 10
0.0
 20
0.0
 30
0.0
 70
   128
 71
    31
 72
    32
 73
    18
  0
VERTEX
  5
92
  8
0
 62
     9
 10
0.0
 20
0.0
 30
0.0
 70
   128
 71
    33
 72
    22
 73
    20
  0
VERTEX
  5
93
  8
0
 62
     9
 10
0.0
 20
0.0
 30
0.0
 70
   128
 71
    32
 72
    33
 73
    20
  0
VERTEX
  5
94
  8
0
 62
     9
 10
0.0
 20
0.0
 30
0.0
 70
   128
 71
    24
 72
     4
 73
    22
  0
VERTEX
  5
95
  8
0
 62
     9
 10
0.0
 20
0.0
 30
0.0
 70
   128
 71
    33
 72
    24
 73
    22
  0
VERTEX
  5
96
  8
0
 62
     9
 10
0.0
 20
0.0
 30
0.0
 70
   128
 71
    34
 72
    23
 73
    24
  0
VERTEX
  5
97
  8
0
 62
     9
 10
0.0
 20
0.0
 30
0.0
 70
   128
 71
    35
 72
    34
 73
    24
  0
VERTEX
  5
98
  8
0
 62
     9
 10
0.0
 20
0.0
 30
0.0
 70
   128
 71
    36
 72
    25
 73
    23
  0
VERTEX
  5
99
  8
0
 62
     9
 10
0.0
 20
0.0
 30
0.0
 70
   128
 71
    34
 72
    36
 73
    23
  0
VERTEX
  5
9A
  8
0
 62
     9
 10
0.0
 20
0.0
 30
0.0
 70
   128
 71
    37
 72
    26
 73
    25
  0
VERTEX
  5
9B
  8
0
 62
     9
 10
0.0
 20
0.0
 30
0.0
 70
   128
 71
    36
 72
    37
 73
    25
  0
VERTEX
  5
9C
  8
0
 62
     9
 10
0.0
 20
0.0
 30
0.0
 70
   128
 71
    38
 72
    27
 73
    26
  0
VERTEX
  5
9D
  8
0
 62
     9
 10
0.0
 20
0.0
 30
0.0
 70
   128
 71
    37
 72
    38
 73
    26
  0
VERTEX
  5
9E
  8
0
 62
     9
 10
0.0
 20
0.0
 30
0.0
 70
   128
 71
    39
 72
    28
 73
    27
  0
VERTEX
  5
9F
  8
0
 62
     9
 10
0.0
 20
0.0
 30
0.0
 70
   128
 71
    38
 72
    39
 73
    27
  0
VERTEX
  5
A0
  8
0
 62
     9
 10
0.0
 20
0.0
 30
0.0
 70
   128
 71
    40
 72
    29
 73
    28
  0
VERTEX
  5
A1
  8
0
 62
     9
 10
0.0
 20
0.0
 30
0.0
 70
   128
 71
    39
 72
    40
 73
    28
  0
VERTEX
  5
A2
  8
0
 62
     9
 10
0.0
 20
0.0
 30
0.0
 70
   128
 71
    41
 72
    30
 73
    29
  0
VERTEX
  5
A3
  8
0
 62
     9
 10
0.0
 20
0.0
 30
0.0
 70
   128
 71
    40
 72
    41
 73
    29
  0
VERTEX
  5
A4
  8
0
 62
     9
 10
0.0
 20
0.0
 30
0.0
 70
   128
 71
    42
 72
    31
 73
    30
  0
VERTEX
  5
A5
  8
0
 62
     9
 10
0.0
 20
0.0
 30
0.0
 70
   128
 71
    41
 72
    42
 73
    30
  0
VERTEX
  5
A6
  8
0
 62
     9
 10
0.0
 20
0.0
 30
0.0
 70
   128
 71
    43
 72
    32
 73
    31
  0
VERTEX
  5
A7
  8
0
 62
     9
 10
0.0
 20
0.0
 30
0.0
 70
   128
 71
    42
 72
    43
 73
    31
  0
VERTEX
  5
A8
  8
0
 62
     9
 10
0.0
 20
0.0
 30
0.0
 70
   128
 71
    44
 72
    33
 73
    32
  0
VERTEX
  5
A9
  8
0
 62
     9
 10
0.0
 20
0.0
 30
0.0
 70
   128
 71
    43
 72
    44
 73
    32
  0
VERTEX
  5
AA
  8
0
 62
     9
 10
0.0
 20
0.0
 30
0.0
 70
   128
 71
    35
 72
    24
 73
    33
  0
VERTEX
  5
AB
  8
0
 62
     9
 10
0.0
 20
0.0
 30
0.0
 70
   128
 71
    44
 72
    35
 73
    33
  0
VERTEX
  5
AC
  8
0
 62
     9
 10
0.0
 20
0.0
 30
0.0
 70
   128
 71
    45
 72
    34
 73
    35
  0
VERTEX
  5
AD
  8
0
 62
     9
 10
0.0
 20
0.0
 30
0.0
 70
   128
 71
    45
 72
    36
 73
    34
  0
VERTEX
  5
AE
  8
0
 62
     9
 10
0.0
 20
0.0
 30
0.0
 70
   128
 71
    45
 72
    37
 73
    36
  0
VERTEX
  5
AF
  8
0
 62
     9
 10
0.0
 20
0.0
 30
0.0
 70
   128
 71
    45
 72
    38
 73
    37
  0
VERTEX
  5
B0
  8
0
 62
     9
 10
0.0
 20
0.0
 30
0.0
 70
   128
 71
    45
 72
    39
 73
    38
  0
VERTEX
  5
B1
  8
0
 62
     9
 10
0.0
 20
0.0
 30
0.0
 70
   128
 71
    45
 72
    40
 73
    39
  0
VERTEX
  5
B2
  8
0
 62
     9
 10
0.0
 20
0.0
 30
0.0
 70
   128
 71
    45
 72
    41
 73
    40
  0
VERTEX
  5
B3
  8
0
 62
     9
 10
0.0
 20
0.0
 30
0.0
 70
   128
 71
    45
 72
    42
 73
    41
  0
VERTEX
  5
B4
  8
0
 62
     9
 10
0.0
 20
0.0
 30
0.0
 70
   128
 71
    45
 72
    43
 73
    42
  0
VERTEX
  5
B5
  8
0
 62
     9
 10
0.0
 20
0.0
 30
0.0
 70
   128
 71
    45
 72
    44
 73
    43
  0
VERTEX
  5
B6
  8
0
 62
     9
 10
0.0
 20
0.0
 30
0.0
 70
   128
 71
    45
 72
    35
 73
    44
  0
SEQEND
  5
B7
  8
0
 62
     9
  0
ENDBLK
  5
BB
  8
0
  0
BLOCK
  8
0
  2
E3_NODE_1_
 70
     0
 10
0.0
 20
0.0
 30
0.0
  3
E3_NODE_1_
  1

  0
POLYLINE
  5
BD
  8
0
 62
     9
 66
     1
 10
0.0
 20
0.0
 30
0.0
 70
    64
 71
    16
 72
    14
  0
VERTEX
  5
BE
  8
0
 10
8.600000381469727
 20
-13.13399982452393
 30
-13.13399982452393
 70
   192
  0
VERTEX
  5
BF
  8
0
 10
8.600000381469727
 20
0.0
 30
18.57500076293945
 70
   192
  0
VERTEX
  5
C0
  8
0
 10
8.600000381469727
 20
7.107999801635742
 30
17.1609992980957
 70
   192
  0
VERTEX
  5
C1
  8
0
 10
8.600000381469727
 20
7.107999801635742
 30
-17.1609992980957
 70
   192
  0
VERTEX
  5
C2
  8
0
 10
8.600000381469727
 20
18.57500076293945
 30
0.0
 70
   192
  0
VERTEX
  5
C3
  8
0
 10
8.600000381469727
 20
17.1609992980957
 30
-7.107999801635742
 70
   192
  0
VERTEX
  5
C4
  8
0
 10
8.600000381469727
 20
-7.107999801635742
 30
17.1609992980957
 70
   192
  0
VERTEX
  5
C5
  8
0
 10
8.600000381469727
 20
-13.13399982452393
 30
13.13399982452393
 70
   192
  0
VERTEX
  5
C6
  8
0
 10
8.600000381469727
 20
-17.1609992980957
 30
-7.107999801635742
 70
   192
  0
VERTEX
  5
C7
  8
0
 10
8.600000381469727
 20
-18.57500076293945
 30
0.0
 70
   192
  0
VERTEX
  5
C8
  8
0
 10
8.600000381469727
 20
13.13399982452393
 30
13.13399982452393
 70
   192
  0
VERTEX
  5
C9
  8
0
 10
8.600000381469727
 20
0.0
 30
-18.57500076293945
 70
   192
  0
VERTEX
  5
CA
  8
0
 10
8.600000381469727
 20
-7.107999801635742
 30
-17.1609992980957
 70
   192
  0
VERTEX
  5
CB
  8
0
 10
8.600000381469727
 20
17.1609992980957
 30
7.107999801635742
 70
   192
  0
VERTEX
  5
CC
  8
0
 10
8.600000381469727
 20
-17.1609992980957
 30
7.107999801635742
 70
   192
  0
VERTEX
  5
CD
  8
0
 10
8.600000381469727
 20
13.13399982452393
 30
-13.13399982452393
 70
   192
  0
VERTEX
  5
CE
  8
0
 62
     9
 10
0.0
 20
0.0
 30
0.0
 70
   128
 71
     3
 72
     2
 73
     1
  0
VERTEX
  5
CF
  8
0
 62
     9
 10
0.0
 20
0.0
 30
0.0
 70
   128
 71
     6
 72
     5
 73
     4
  0
VERTEX
  5
D0
  8
0
 62
     9
 10
0.0
 20
0.0
 30
0.0
 70
   128
 71
     2
 72
     7
 73
     1
  0
VERTEX
  5
D1
  8
0
 62
     9
 10
0.0
 20
0.0
 30
0.0
 70
   128
 71
    10
 72
     9
 73
     8
  0
VERTEX
  5
D2
  8
0
 62
     9
 10
0.0
 20
0.0
 30
0.0
 70
   128
 71
    13
 72
    12
 73
    11
  0
VERTEX
  5
D3
  8
0
 62
     9
 10
0.0
 20
0.0
 30
0.0
 70
   128
 71
     5
 72
    14
 73
     4
  0
VERTEX
  5
D4
  8
0
 62
     9
 10
0.0
 20
0.0
 30
0.0
 70
   128
 71
     7
 72
     8
 73
     1
  0
VERTEX
  5
D5
  8
0
 62
     9
 10
0.0
 20
0.0
 30
0.0
 70
   128
 71
     9
 72
     1
 73
     8
  0
VERTEX
  5
D6
  8
0
 62
     9
 10
0.0
 20
0.0
 30
0.0
 70
   128
 71
    12
 72
     4
 73
    11
  0
VERTEX
  5
D7
  8
0
 62
     9
 10
0.0
 20
0.0
 30
0.0
 70
   128
 71
    14
 72
    11
 73
     4
  0
VERTEX
  5
D8
  8
0
 62
     9
 10
0.0
 20
0.0
 30
0.0
 70
   128
 71
     8
 72
    15
 73
    10
  0
VERTEX
  5
D9
  8
0
 62
     9
 10
0.0
 20
0.0
 30
0.0
 70
   128
 71
     4
 72
    16
 73
     6
  0
VERTEX
  5
DA
  8
0
 62
     9
 10
0.0
 20
0.0
 30
0.0
 70
   128
 71
    11
 72
     1
 73
    13
  0
VERTEX
  5
DB
  8
0
 62
     9
 10
0.0
 20
0.0
 30
0.0
 70
   128
 71
     1
 72
    11
 73
     3
  0
SEQEND
  5
DC
  8
0
 62
     9
  0
ENDBLK
  5
DF
  8
0
  0
BLOCK
  8
0
  2
E3_NODE_2_
 70
     0
 10
0.0
 20
0.0
 30
0.0
  3
E3_NODE_2_
  1

  0
POLYLINE
  5
E1
  8
0
 62
     9
 66
     1
 10
0.0
 20
0.0
 30
0.0
 70
    64
 71
    88
 72
   136
  0
VERTEX
  5
E2
  8
0
 10
8.600000381469727
 20
0.0
 30
18.57500076293945
 70
   192
  0
VERTEX
  5
E3
  8
0
 10
8.600000381469727
 20
-7.107999801635742
 30
17.1609992980957
 70
   192
  0
VERTEX
  5
E4
  8
0
 10
17.16399955749512
 20
-5.315000057220459
 30
12.83199977874756
 70
   192
  0
VERTEX
  5
E5
  8
0
 10
8.600000381469727
 20
-13.13399982452393
 30
13.13399982452393
 70
   192
  0
VERTEX
  5
E6
  8
0
 10
17.16399955749512
 20
-9.821000099182129
 30
9.821000099182129
 70
   192
  0
VERTEX
  5
E7
  8
0
 10
8.600000381469727
 20
-17.1609992980957
 30
7.107999801635742
 70
   192
  0
VERTEX
  5
E8
  8
0
 10
17.16399955749512
 20
-12.83199977874756
 30
5.315000057220459
 70
   192
  0
VERTEX
  5
E9
  8
0
 10
8.600000381469727
 20
-18.57500076293945
 30
0.0
 70
   192
  0
VERTEX
  5
EA
  8
0
 10
17.16399955749512
 20
-13.88899993896484
 30
0.0
 70
   192
  0
VERTEX
  5
EB
  8
0
 10
8.600000381469727
 20
-17.1609992980957
 30
-7.107999801635742
 70
   192
  0
VERTEX
  5
EC
  8
0
 10
17.16399955749512
 20
-12.83199977874756
 30
-5.315000057220459
 70
   192
  0
VERTEX
  5
ED
  8
0
 10
8.600000381469727
 20
-13.13399982452393
 30
-13.13399982452393
 70
   192
  0
VERTEX
  5
EE
  8
0
 10
17.16399955749512
 20
-9.821000099182129
 30
-9.821000099182129
 70
   192
  0
VERTEX
  5
EF
  8
0
 10
8.600000381469727
 20
-7.107999801635742
 30
-17.1609992980957
 70
   192
  0
VERTEX
  5
F0
  8
0
 10
17.16399955749512
 20
-5.315000057220459
 30
-12.83199977874756
 70
   192
  0
VERTEX
  5
F1
  8
0
 10
8.600000381469727
 20
0.0
 30
-18.57500076293945
 70
   192
  0
VERTEX
  5
F2
  8
0
 10
17.16399955749512
 20
0.0
 30
-13.88899993896484
 70
   192
  0
VERTEX
  5
F3
  8
0
 10
8.600000381469727
 20
7.107999801635742
 30
-17.1609992980957
 70
   192
  0
VERTEX
  5
F4
  8
0
 10
17.16399955749512
 20
5.315000057220459
 30
-12.83199977874756
 70
   192
  0
VERTEX
  5
F5
  8
0
 10
8.600000381469727
 20
13.13399982452393
 30
-13.13399982452393
 70
   192
  0
VERTEX
  5
F6
  8
0
 10
17.16399955749512
 20
9.821000099182129
 30
-9.821000099182129
 70
   192
  0
VERTEX
  5
F7
  8
0
 10
8.600000381469727
 20
17.1609992980957
 30
-7.107999801635742
 70
   192
  0
VERTEX
  5
F8
  8
0
 10
17.16399955749512
 20
12.83199977874756
 30
-5.315000057220459
 70
   192
  0
VERTEX
  5
F9
  8
0
 10
8.600000381469727
 20
18.57500076293945
 30
0.0
 70
   192
  0
VERTEX
  5
FA
  8
0
 10
17.16399955749512
 20
13.88899993896484
 30
0.0
 70
   192
  0
VERTEX
  5
FB
  8
0
 10
8.600000381469727
 20
17.1609992980957
 30
7.107999801635742
 70
   192
  0
VERTEX
  5
FC
  8
0
 10
17.16399955749512
 20
12.83199977874756
 30
5.315000057220459
 70
   192
  0
VERTEX
  5
FD
  8
0
 10
8.600000381469727
 20
13.13399982452393
 30
13.13399982452393
 70
   192
  0
VERTEX
  5
FE
  8
0
 10
17.16399955749512
 20
9.821000099182129
 30
9.821000099182129
 70
   192
  0
VERTEX
  5
FF
  8
0
 10
8.600000381469727
 20
7.107999801635742
 30
17.1609992980957
 70
   192
  0
VERTEX
  5
100
  8
0
 10
17.16399955749512
 20
5.315000057220459
 30
12.83199977874756
 70
   192
  0
VERTEX
  5
101
  8
0
 10
17.16399955749512
 20
0.0
 30
13.88899993896484
 70
   192
  0
VERTEX
  5
102
  8
0
 10
26.47500038146973
 20
-4.192999839782715
 30
10.1230001449585
 70
   192
  0
VERTEX
  5
103
  8
0
 10
26.47500038146973
 20
-7.748000144958496
 30
7.748000144958496
 70
   192
  0
VERTEX
  5
104
  8
0
 10
26.47500038146973
 20
-10.1230001449585
 30
4.192999839782715
 70
   192
  0
VERTEX
  5
105
  8
0
 10
26.47500038146973
 20
-10.95699977874756
 30
0.0
 70
   192
  0
VERTEX
  5
106
  8
0
 10
26.47500038146973
 20
-10.1230001449585
 30
-4.192999839782715
 70
   192
  0
VERTEX
  5
107
  8
0
 10
26.47500038146973
 20
-7.748000144958496
 30
-7.748000144958496
 70
   192
  0
VERTEX
  5
108
  8
0
 10
26.47500038146973
 20
-4.192999839782715
 30
-10.1230001449585
 70
   192
  0
VERTEX
  5
109
  8
0
 10
26.47500038146973
 20
0.0
 30
-10.95699977874756
 70
   192
  0
VERTEX
  5
10A
  8
0
 10
26.47500038146973
 20
4.192999839782715
 30
-10.1230001449585
 70
   192
  0
VERTEX
  5
10B
  8
0
 10
26.47500038146973
 20
7.748000144958496
 30
-7.748000144958496
 70
   192
  0
VERTEX
  5
10C
  8
0
 10
26.47500038146973
 20
10.1230001449585
 30
-4.192999839782715
 70
   192
  0
VERTEX
  5
10D
  8
0
 10
26.47500038146973
 20
10.95699977874756
 30
0.0
 70
   192
  0
VERTEX
  5
10E
  8
0
 10
26.47500038146973
 20
10.1230001449585
 30
4.192999839782715
 70
   192
  0
VERTEX
  5
10F
  8
0
 10
26.47500038146973
 20
7.748000144958496
 30
7.748000144958496
 70
   192
  0
VERTEX
  5
110
  8
0
 10
26.47500038146973
 20
4.192999839782715
 30
10.1230001449585
 70
   192
  0
VERTEX
  5
111
  8
0
 10
26.47500038146973
 20
0.0
 30
10.95699977874756
 70
   192
  0
VERTEX
  5
112
  8
0
 10
36.17800140380859
 20
-3.785000085830688
 30
9.13700008392334
 70
   192
  0
VERTEX
  5
113
  8
0
 10
36.17800140380859
 20
-6.993000030517578
 30
6.993000030517578
 70
   192
  0
VERTEX
  5
114
  8
0
 10
36.17800140380859
 20
-9.13700008392334
 30
3.785000085830688
 70
   192
  0
VERTEX
  5
115
  8
0
 10
36.17800140380859
 20
-9.890000343322754
 30
0.0
 70
   192
  0
VERTEX
  5
116
  8
0
 10
36.17800140380859
 20
-9.13700008392334
 30
-3.785000085830688
 70
   192
  0
VERTEX
  5
117
  8
0
 10
36.17800140380859
 20
-6.993000030517578
 30
-6.993000030517578
 70
   192
  0
VERTEX
  5
118
  8
0
 10
36.17800140380859
 20
-3.785000085830688
 30
-9.13700008392334
 70
   192
  0
VERTEX
  5
119
  8
0
 10
36.17800140380859
 20
0.0
 30
-9.890000343322754
 70
   192
  0
VERTEX
  5
11A
  8
0
 10
36.17800140380859
 20
3.785000085830688
 30
-9.13700008392334
 70
   192
  0
VERTEX
  5
11B
  8
0
 10
36.17800140380859
 20
6.993000030517578
 30
-6.993000030517578
 70
   192
  0
VERTEX
  5
11C
  8
0
 10
36.17800140380859
 20
9.13700008392334
 30
-3.785000085830688
 70
   192
  0
VERTEX
  5
11D
  8
0
 10
36.17800140380859
 20
9.890000343322754
 30
0.0
 70
   192
  0
VERTEX
  5
11E
  8
0
 10
36.17800140380859
 20
9.13700008392334
 30
3.785000085830688
 70
   192
  0
VERTEX
  5
11F
  8
0
 10
36.17800140380859
 20
6.993000030517578
 30
6.993000030517578
 70
   192
  0
VERTEX
  5
120
  8
0
 10
36.17800140380859
 20
3.785000085830688
 30
9.13700008392334
 70
   192
  0
VERTEX
  5
121
  8
0
 10
36.17800140380859
 20
0.0
 30
9.890000343322754
 70
   192
  0
VERTEX
  5
122
  8
0
 10
45.90399932861328
 20
-3.654000043869019
 30
10.0019998550415
 70
   192
  0
VERTEX
  5
123
  8
0
 10
45.90399932861328
 20
-4.105999946594238
 30
9.911999702453613
 70
   192
  0
VERTEX
  5
124
  8
0
 10
45.90399932861328
 20
-7.585999965667725
 30
7.585999965667725
 70
   192
  0
VERTEX
  5
125
  8
0
 10
45.90399932861328
 20
-9.138999938964844
 30
5.263000011444092
 70
   192
  0
VERTEX
  5
126
  8
0
 10
45.90399932861328
 20
-9.911999702453613
 30
4.105999946594238
 70
   192
  0
VERTEX
  5
127
  8
0
 10
45.90399932861328
 20
-10.72900009155273
 30
0.0
 70
   192
  0
VERTEX
  5
128
  8
0
 10
45.90399932861328
 20
-9.911999702453613
 30
-4.105999946594238
 70
   192
  0
VERTEX
  5
129
  8
0
 10
45.90399932861328
 20
-10.36600017547607
 30
-1.822999954223633
 70
   192
  0
VERTEX
  5
12A
  8
0
 10
45.90399932861328
 20
-4.105999946594238
 30
-9.911999702453613
 70
   192
  0
VERTEX
  5
12B
  8
0
 10
45.90399932861328
 20
-6.816999912261963
 30
-8.100000381469727
 70
   192
  0
VERTEX
  5
12C
  8
0
 10
45.90399932861328
 20
0.0
 30
-10.72900009155273
 70
   192
  0
VERTEX
  5
12D
  8
0
 10
45.90399932861328
 20
6.816999912261963
 30
-8.100000381469727
 70
   192
  0
VERTEX
  5
12E
  8
0
 10
45.90399932861328
 20
7.585999965667725
 30
-7.585999965667725
 70
   192
  0
VERTEX
  5
12F
  8
0
 10
45.90399932861328
 20
10.36600017547607
 30
-1.822999954223633
 70
   192
  0
VERTEX
  5
130
  8
0
 10
45.90399932861328
 20
10.72900009155273
 30
0.0
 70
   192
  0
VERTEX
  5
131
  8
0
 10
45.90399932861328
 20
9.911999702453613
 30
4.105999946594238
 70
   192
  0
VERTEX
  5
132
  8
0
 10
45.90399932861328
 20
7.585999965667725
 30
7.585999965667725
 70
   192
  0
VERTEX
  5
133
  8
0
 10
45.90399932861328
 20
9.138999938964844
 30
5.263000011444092
 70
   192
  0
VERTEX
  5
134
  8
0
 10
45.90399932861328
 20
4.105999946594238
 30
9.911999702453613
 70
   192
  0
VERTEX
  5
135
  8
0
 10
45.90399932861328
 20
0.0
 30
10.72900009155273
 70
   192
  0
VERTEX
  5
136
  8
0
 10
45.90399932861328
 20
3.654000043869019
 30
10.0019998550415
 70
   192
  0
VERTEX
  5
137
  8
0
 10
45.90399932861328
 20
9.911999702453613
 30
-4.105999946594238
 70
   192
  0
VERTEX
  5
138
  8
0
 10
45.90399932861328
 20
4.105999946594238
 30
-9.911999702453613
 70
   192
  0
VERTEX
  5
139
  8
0
 10
45.90399932861328
 20
-7.585999965667725
 30
-7.585999965667725
 70
   192
  0
VERTEX
  5
13A
  8
0
 62
     9
 10
0.0
 20
0.0
 30
0.0
 70
   128
 71
     3
 72
     2
 73
     1
  0
VERTEX
  5
13B
  8
0
 62
     9
 10
0.0
 20
0.0
 30
0.0
 70
   128
 71
     3
 72
     5
 73
     4
  0
VERTEX
  5
13C
  8
0
 62
     9
 10
0.0
 20
0.0
 30
0.0
 70
   128
 71
     7
 72
     6
 73
     4
  0
VERTEX
  5
13D
  8
0
 62
     9
 10
0.0
 20
0.0
 30
0.0
 70
   128
 71
     9
 72
     8
 73
     6
  0
VERTEX
  5
13E
  8
0
 62
     9
 10
0.0
 20
0.0
 30
0.0
 70
   128
 71
    11
 72
    10
 73
     8
  0
VERTEX
  5
13F
  8
0
 62
     9
 10
0.0
 20
0.0
 30
0.0
 70
   128
 71
    11
 72
    13
 73
    12
  0
VERTEX
  5
140
  8
0
 62
     9
 10
0.0
 20
0.0
 30
0.0
 70
   128
 71
    15
 72
    14
 73
    12
  0
VERTEX
  5
141
  8
0
 62
     9
 10
0.0
 20
0.0
 30
0.0
 70
   128
 71
    15
 72
    17
 73
    16
  0
VERTEX
  5
142
  8
0
 62
     9
 10
0.0
 20
0.0
 30
0.0
 70
   128
 71
    17
 72
    19
 73
    18
  0
VERTEX
  5
143
  8
0
 62
     9
 10
0.0
 20
0.0
 30
0.0
 70
   128
 71
    21
 72
    20
 73
    18
  0
VERTEX
  5
144
  8
0
 62
     9
 10
0.0
 20
0.0
 30
0.0
 70
   128
 71
    21
 72
    23
 73
    22
  0
VERTEX
  5
145
  8
0
 62
     9
 10
0.0
 20
0.0
 30
0.0
 70
   128
 71
    23
 72
    25
 73
    24
  0
VERTEX
  5
146
  8
0
 62
     9
 10
0.0
 20
0.0
 30
0.0
 70
   128
 71
    27
 72
    26
 73
    24
  0
VERTEX
  5
147
  8
0
 62
     9
 10
0.0
 20
0.0
 30
0.0
 70
   128
 71
    27
 72
    29
 73
    28
  0
VERTEX
  5
148
  8
0
 62
     9
 10
0.0
 20
0.0
 30
0.0
 70
   128
 71
    29
 72
    31
 73
    30
  0
VERTEX
  5
149
  8
0
 62
     9
 10
0.0
 20
0.0
 30
0.0
 70
   128
 71
    32
 72
     1
 73
    30
  0
VERTEX
  5
14A
  8
0
 62
     9
 10
0.0
 20
0.0
 30
0.0
 70
   128
 71
    33
 72
     3
 73
    32
  0
VERTEX
  5
14B
  8
0
 62
     9
 10
0.0
 20
0.0
 30
0.0
 70
   128
 71
    34
 72
     5
 73
     3
  0
VERTEX
  5
14C
  8
0
 62
     9
 10
0.0
 20
0.0
 30
0.0
 70
   128
 71
    35
 72
     7
 73
     5
  0
VERTEX
  5
14D
  8
0
 62
     9
 10
0.0
 20
0.0
 30
0.0
 70
   128
 71
    36
 72
     9
 73
     7
  0
VERTEX
  5
14E
  8
0
 62
     9
 10
0.0
 20
0.0
 30
0.0
 70
   128
 71
    37
 72
    11
 73
     9
  0
VERTEX
  5
14F
  8
0
 62
     9
 10
0.0
 20
0.0
 30
0.0
 70
   128
 71
    38
 72
    13
 73
    11
  0
VERTEX
  5
150
  8
0
 62
     9
 10
0.0
 20
0.0
 30
0.0
 70
   128
 71
    39
 72
    15
 73
    13
  0
VERTEX
  5
151
  8
0
 62
     9
 10
0.0
 20
0.0
 30
0.0
 70
   128
 71
    40
 72
    17
 73
    15
  0
VERTEX
  5
152
  8
0
 62
     9
 10
0.0
 20
0.0
 30
0.0
 70
   128
 71
    41
 72
    19
 73
    17
  0
VERTEX
  5
153
  8
0
 62
     9
 10
0.0
 20
0.0
 30
0.0
 70
   128
 71
    42
 72
    21
 73
    19
  0
VERTEX
  5
154
  8
0
 62
     9
 10
0.0
 20
0.0
 30
0.0
 70
   128
 71
    43
 72
    23
 73
    21
  0
VERTEX
  5
155
  8
0
 62
     9
 10
0.0
 20
0.0
 30
0.0
 70
   128
 71
    44
 72
    25
 73
    23
  0
VERTEX
  5
156
  8
0
 62
     9
 10
0.0
 20
0.0
 30
0.0
 70
   128
 71
    45
 72
    27
 73
    25
  0
VERTEX
  5
157
  8
0
 62
     9
 10
0.0
 20
0.0
 30
0.0
 70
   128
 71
    46
 72
    29
 73
    27
  0
VERTEX
  5
158
  8
0
 62
     9
 10
0.0
 20
0.0
 30
0.0
 70
   128
 71
    47
 72
    31
 73
    29
  0
VERTEX
  5
159
  8
0
 62
     9
 10
0.0
 20
0.0
 30
0.0
 70
   128
 71
    48
 72
    32
 73
    31
  0
VERTEX
  5
15A
  8
0
 62
     9
 10
0.0
 20
0.0
 30
0.0
 70
   128
 71
    49
 72
    33
 73
    48
  0
VERTEX
  5
15B
  8
0
 62
     9
 10
0.0
 20
0.0
 30
0.0
 70
   128
 71
    50
 72
    34
 73
    33
  0
VERTEX
  5
15C
  8
0
 62
     9
 10
0.0
 20
0.0
 30
0.0
 70
   128
 71
    51
 72
    35
 73
    34
  0
VERTEX
  5
15D
  8
0
 62
     9
 10
0.0
 20
0.0
 30
0.0
 70
   128
 71
    52
 72
    36
 73
    35
  0
VERTEX
  5
15E
  8
0
 62
     9
 10
0.0
 20
0.0
 30
0.0
 70
   128
 71
    53
 72
    37
 73
    36
  0
VERTEX
  5
15F
  8
0
 62
     9
 10
0.0
 20
0.0
 30
0.0
 70
   128
 71
    54
 72
    38
 73
    37
  0
VERTEX
  5
160
  8
0
 62
     9
 10
0.0
 20
0.0
 30
0.0
 70
   128
 71
    55
 72
    39
 73
    38
  0
VERTEX
  5
161
  8
0
 62
     9
 10
0.0
 20
0.0
 30
0.0
 70
   128
 71
    56
 72
    40
 73
    39
  0
VERTEX
  5
162
  8
0
 62
     9
 10
0.0
 20
0.0
 30
0.0
 70
   128
 71
    57
 72
    41
 73
    40
  0
VERTEX
  5
163
  8
0
 62
     9
 10
0.0
 20
0.0
 30
0.0
 70
   128
 71
    58
 72
    42
 73
    41
  0
VERTEX
  5
164
  8
0
 62
     9
 10
0.0
 20
0.0
 30
0.0
 70
   128
 71
    59
 72
    43
 73
    42
  0
VERTEX
  5
165
  8
0
 62
     9
 10
0.0
 20
0.0
 30
0.0
 70
   128
 71
    60
 72
    44
 73
    43
  0
VERTEX
  5
166
  8
0
 62
     9
 10
0.0
 20
0.0
 30
0.0
 70
   128
 71
    61
 72
    45
 73
    44
  0
VERTEX
  5
167
  8
0
 62
     9
 10
0.0
 20
0.0
 30
0.0
 70
   128
 71
    62
 72
    46
 73
    45
  0
VERTEX
  5
168
  8
0
 62
     9
 10
0.0
 20
0.0
 30
0.0
 70
   128
 71
    63
 72
    47
 73
    46
  0
VERTEX
  5
169
  8
0
 62
     9
 10
0.0
 20
0.0
 30
0.0
 70
   128
 71
    64
 72
    48
 73
    47
  0
VERTEX
  5
16A
  8
0
 62
     9
 10
0.0
 20
0.0
 30
0.0
 70
   128
 71
    65
 72
    49
 73
    64
  0
VERTEX
  5
16B
  8
0
 62
     9
 10
0.0
 20
0.0
 30
0.0
 70
   128
 71
    65
 72
    66
 73
    49
  0
VERTEX
  5
16C
  8
0
 62
     9
 10
0.0
 20
0.0
 30
0.0
 70
   128
 71
    49
 72
    66
 73
    67
  0
VERTEX
  5
16D
  8
0
 62
     9
 10
0.0
 20
0.0
 30
0.0
 70
   128
 71
    68
 72
    51
 73
    50
  0
VERTEX
  5
16E
  8
0
 62
     9
 10
0.0
 20
0.0
 30
0.0
 70
   128
 71
    68
 72
    69
 73
    51
  0
VERTEX
  5
16F
  8
0
 62
     9
 10
0.0
 20
0.0
 30
0.0
 70
   128
 71
    51
 72
    69
 73
    70
  0
VERTEX
  5
170
  8
0
 62
     9
 10
0.0
 20
0.0
 30
0.0
 70
   128
 71
    72
 72
    71
 73
    53
  0
VERTEX
  5
171
  8
0
 62
     9
 10
0.0
 20
0.0
 30
0.0
 70
   128
 71
    53
 72
    52
 73
    72
  0
VERTEX
  5
172
  8
0
 62
     9
 10
0.0
 20
0.0
 30
0.0
 70
   128
 71
    54
 72
    53
 73
    71
  0
VERTEX
  5
173
  8
0
 62
     9
 10
0.0
 20
0.0
 30
0.0
 70
   128
 71
    74
 72
    73
 73
    55
  0
VERTEX
  5
174
  8
0
 62
     9
 10
0.0
 20
0.0
 30
0.0
 70
   128
 71
    55
 72
    54
 73
    74
  0
VERTEX
  5
175
  8
0
 62
     9
 10
0.0
 20
0.0
 30
0.0
 70
   128
 71
    56
 72
    55
 73
    73
  0
VERTEX
  5
176
  8
0
 62
     9
 10
0.0
 20
0.0
 30
0.0
 70
   128
 71
    57
 72
    56
 73
    75
  0
VERTEX
  5
177
  8
0
 62
     9
 10
0.0
 20
0.0
 30
0.0
 70
   128
 71
    76
 72
    58
 73
    57
  0
VERTEX
  5
178
  8
0
 62
     9
 10
0.0
 20
0.0
 30
0.0
 70
   128
 71
    76
 72
    77
 73
    58
  0
VERTEX
  5
179
  8
0
 62
     9
 10
0.0
 20
0.0
 30
0.0
 70
   128
 71
    59
 72
    58
 73
    77
  0
VERTEX
  5
17A
  8
0
 62
     9
 10
0.0
 20
0.0
 30
0.0
 70
   128
 71
    78
 72
    60
 73
    59
  0
VERTEX
  5
17B
  8
0
 62
     9
 10
0.0
 20
0.0
 30
0.0
 70
   128
 71
    78
 72
    79
 73
    60
  0
VERTEX
  5
17C
  8
0
 62
     9
 10
0.0
 20
0.0
 30
0.0
 70
   128
 71
    60
 72
    79
 73
    80
  0
VERTEX
  5
17D
  8
0
 62
     9
 10
0.0
 20
0.0
 30
0.0
 70
   128
 71
    82
 72
    81
 73
    62
  0
VERTEX
  5
17E
  8
0
 62
     9
 10
0.0
 20
0.0
 30
0.0
 70
   128
 71
    62
 72
    61
 73
    82
  0
VERTEX
  5
17F
  8
0
 62
     9
 10
0.0
 20
0.0
 30
0.0
 70
   128
 71
    62
 72
    81
 73
    83
  0
VERTEX
  5
180
  8
0
 62
     9
 10
0.0
 20
0.0
 30
0.0
 70
   128
 71
    85
 72
    84
 73
    64
  0
VERTEX
  5
181
  8
0
 62
     9
 10
0.0
 20
0.0
 30
0.0
 70
   128
 71
    64
 72
    63
 73
    85
  0
VERTEX
  5
182
  8
0
 62
     9
 10
0.0
 20
0.0
 30
0.0
 70
   128
 71
    63
 72
    83
 73
    85
  0
VERTEX
  5
183
  8
0
 62
     9
 10
0.0
 20
0.0
 30
0.0
 70
   128
 71
    83
 72
    63
 73
    62
  0
VERTEX
  5
184
  8
0
 62
     9
 10
0.0
 20
0.0
 30
0.0
 70
   128
 71
    61
 72
    80
 73
    82
  0
VERTEX
  5
185
  8
0
 62
     9
 10
0.0
 20
0.0
 30
0.0
 70
   128
 71
    80
 72
    61
 73
    60
  0
VERTEX
  5
186
  8
0
 62
     9
 10
0.0
 20
0.0
 30
0.0
 70
   128
 71
    59
 72
    86
 73
    78
  0
VERTEX
  5
187
  8
0
 62
     9
 10
0.0
 20
0.0
 30
0.0
 70
   128
 71
    77
 72
    86
 73
    59
  0
VERTEX
  5
188
  8
0
 62
     9
 10
0.0
 20
0.0
 30
0.0
 70
   128
 71
    57
 72
    87
 73
    76
  0
VERTEX
  5
189
  8
0
 62
     9
 10
0.0
 20
0.0
 30
0.0
 70
   128
 71
    75
 72
    87
 73
    57
  0
VERTEX
  5
18A
  8
0
 62
     9
 10
0.0
 20
0.0
 30
0.0
 70
   128
 71
    73
 72
    75
 73
    56
  0
VERTEX
  5
18B
  8
0
 62
     9
 10
0.0
 20
0.0
 30
0.0
 70
   128
 71
    54
 72
    88
 73
    74
  0
VERTEX
  5
18C
  8
0
 62
     9
 10
0.0
 20
0.0
 30
0.0
 70
   128
 71
    71
 72
    88
 73
    54
  0
VERTEX
  5
18D
  8
0
 62
     9
 10
0.0
 20
0.0
 30
0.0
 70
   128
 71
    52
 72
    70
 73
    72
  0
VERTEX
  5
18E
  8
0
 62
     9
 10
0.0
 20
0.0
 30
0.0
 70
   128
 71
    70
 72
    52
 73
    51
  0
VERTEX
  5
18F
  8
0
 62
     9
 10
0.0
 20
0.0
 30
0.0
 70
   128
 71
    50
 72
    67
 73
    68
  0
VERTEX
  5
190
  8
0
 62
     9
 10
0.0
 20
0.0
 30
0.0
 70
   128
 71
    67
 72
    50
 73
    49
  0
VERTEX
  5
191
  8
0
 62
     9
 10
0.0
 20
0.0
 30
0.0
 70
   128
 71
    64
 72
    84
 73
    65
  0
VERTEX
  5
192
  8
0
 62
     9
 10
0.0
 20
0.0
 30
0.0
 70
   128
 71
    47
 72
    63
 73
    64
  0
VERTEX
  5
193
  8
0
 62
     9
 10
0.0
 20
0.0
 30
0.0
 70
   128
 71
    46
 72
    62
 73
    63
  0
VERTEX
  5
194
  8
0
 62
     9
 10
0.0
 20
0.0
 30
0.0
 70
   128
 71
    45
 72
    61
 73
    62
  0
VERTEX
  5
195
  8
0
 62
     9
 10
0.0
 20
0.0
 30
0.0
 70
   128
 71
    44
 72
    60
 73
    61
  0
VERTEX
  5
196
  8
0
 62
     9
 10
0.0
 20
0.0
 30
0.0
 70
   128
 71
    43
 72
    59
 73
    60
  0
VERTEX
  5
197
  8
0
 62
     9
 10
0.0
 20
0.0
 30
0.0
 70
   128
 71
    42
 72
    58
 73
    59
  0
VERTEX
  5
198
  8
0
 62
     9
 10
0.0
 20
0.0
 30
0.0
 70
   128
 71
    41
 72
    57
 73
    58
  0
VERTEX
  5
199
  8
0
 62
     9
 10
0.0
 20
0.0
 30
0.0
 70
   128
 71
    40
 72
    56
 73
    57
  0
VERTEX
  5
19A
  8
0
 62
     9
 10
0.0
 20
0.0
 30
0.0
 70
   128
 71
    39
 72
    55
 73
    56
  0
VERTEX
  5
19B
  8
0
 62
     9
 10
0.0
 20
0.0
 30
0.0
 70
   128
 71
    38
 72
    54
 73
    55
  0
VERTEX
  5
19C
  8
0
 62
     9
 10
0.0
 20
0.0
 30
0.0
 70
   128
 71
    37
 72
    53
 73
    54
  0
VERTEX
  5
19D
  8
0
 62
     9
 10
0.0
 20
0.0
 30
0.0
 70
   128
 71
    36
 72
    52
 73
    53
  0
VERTEX
  5
19E
  8
0
 62
     9
 10
0.0
 20
0.0
 30
0.0
 70
   128
 71
    35
 72
    51
 73
    52
  0
VERTEX
  5
19F
  8
0
 62
     9
 10
0.0
 20
0.0
 30
0.0
 70
   128
 71
    34
 72
    50
 73
    51
  0
VERTEX
  5
1A0
  8
0
 62
     9
 10
0.0
 20
0.0
 30
0.0
 70
   128
 71
    33
 72
    49
 73
    50
  0
VERTEX
  5
1A1
  8
0
 62
     9
 10
0.0
 20
0.0
 30
0.0
 70
   128
 71
    48
 72
    64
 73
    49
  0
VERTEX
  5
1A2
  8
0
 62
     9
 10
0.0
 20
0.0
 30
0.0
 70
   128
 71
    31
 72
    47
 73
    48
  0
VERTEX
  5
1A3
  8
0
 62
     9
 10
0.0
 20
0.0
 30
0.0
 70
   128
 71
    29
 72
    46
 73
    47
  0
VERTEX
  5
1A4
  8
0
 62
     9
 10
0.0
 20
0.0
 30
0.0
 70
   128
 71
    27
 72
    45
 73
    46
  0
VERTEX
  5
1A5
  8
0
 62
     9
 10
0.0
 20
0.0
 30
0.0
 70
   128
 71
    25
 72
    44
 73
    45
  0
VERTEX
  5
1A6
  8
0
 62
     9
 10
0.0
 20
0.0
 30
0.0
 70
   128
 71
    23
 72
    43
 73
    44
  0
VERTEX
  5
1A7
  8
0
 62
     9
 10
0.0
 20
0.0
 30
0.0
 70
   128
 71
    21
 72
    42
 73
    43
  0
VERTEX
  5
1A8
  8
0
 62
     9
 10
0.0
 20
0.0
 30
0.0
 70
   128
 71
    19
 72
    41
 73
    42
  0
VERTEX
  5
1A9
  8
0
 62
     9
 10
0.0
 20
0.0
 30
0.0
 70
   128
 71
    17
 72
    40
 73
    41
  0
VERTEX
  5
1AA
  8
0
 62
     9
 10
0.0
 20
0.0
 30
0.0
 70
   128
 71
    15
 72
    39
 73
    40
  0
VERTEX
  5
1AB
  8
0
 62
     9
 10
0.0
 20
0.0
 30
0.0
 70
   128
 71
    13
 72
    38
 73
    39
  0
VERTEX
  5
1AC
  8
0
 62
     9
 10
0.0
 20
0.0
 30
0.0
 70
   128
 71
    11
 72
    37
 73
    38
  0
VERTEX
  5
1AD
  8
0
 62
     9
 10
0.0
 20
0.0
 30
0.0
 70
   128
 71
     9
 72
    36
 73
    37
  0
VERTEX
  5
1AE
  8
0
 62
     9
 10
0.0
 20
0.0
 30
0.0
 70
   128
 71
     7
 72
    35
 73
    36
  0
VERTEX
  5
1AF
  8
0
 62
     9
 10
0.0
 20
0.0
 30
0.0
 70
   128
 71
     5
 72
    34
 73
    35
  0
VERTEX
  5
1B0
  8
0
 62
     9
 10
0.0
 20
0.0
 30
0.0
 70
   128
 71
     3
 72
    33
 73
    34
  0
VERTEX
  5
1B1
  8
0
 62
     9
 10
0.0
 20
0.0
 30
0.0
 70
   128
 71
    32
 72
    48
 73
    33
  0
VERTEX
  5
1B2
  8
0
 62
     9
 10
0.0
 20
0.0
 30
0.0
 70
   128
 71
    30
 72
    31
 73
    32
  0
VERTEX
  5
1B3
  8
0
 62
     9
 10
0.0
 20
0.0
 30
0.0
 70
   128
 71
    30
 72
    28
 73
    29
  0
VERTEX
  5
1B4
  8
0
 62
     9
 10
0.0
 20
0.0
 30
0.0
 70
   128
 71
    28
 72
    26
 73
    27
  0
VERTEX
  5
1B5
  8
0
 62
     9
 10
0.0
 20
0.0
 30
0.0
 70
   128
 71
    24
 72
    25
 73
    27
  0
VERTEX
  5
1B6
  8
0
 62
     9
 10
0.0
 20
0.0
 30
0.0
 70
   128
 71
    24
 72
    22
 73
    23
  0
VERTEX
  5
1B7
  8
0
 62
     9
 10
0.0
 20
0.0
 30
0.0
 70
   128
 71
    22
 72
    20
 73
    21
  0
VERTEX
  5
1B8
  8
0
 62
     9
 10
0.0
 20
0.0
 30
0.0
 70
   128
 71
    18
 72
    19
 73
    21
  0
VERTEX
  5
1B9
  8
0
 62
     9
 10
0.0
 20
0.0
 30
0.0
 70
   128
 71
    18
 72
    16
 73
    17
  0
VERTEX
  5
1BA
  8
0
 62
     9
 10
0.0
 20
0.0
 30
0.0
 70
   128
 71
    16
 72
    14
 73
    15
  0
VERTEX
  5
1BB
  8
0
 62
     9
 10
0.0
 20
0.0
 30
0.0
 70
   128
 71
    12
 72
    13
 73
    15
  0
VERTEX
  5
1BC
  8
0
 62
     9
 10
0.0
 20
0.0
 30
0.0
 70
   128
 71
    12
 72
    10
 73
    11
  0
VERTEX
  5
1BD
  8
0
 62
     9
 10
0.0
 20
0.0
 30
0.0
 70
   128
 71
     8
 72
     9
 73
    11
  0
VERTEX
  5
1BE
  8
0
 62
     9
 10
0.0
 20
0.0
 30
0.0
 70
   128
 71
     6
 72
     7
 73
     9
  0
VERTEX
  5
1BF
  8
0
 62
     9
 10
0.0
 20
0.0
 30
0.0
 70
   128
 71
     4
 72
     5
 73
     7
  0
VERTEX
  5
1C0
  8
0
 62
     9
 10
0.0
 20
0.0
 30
0.0
 70
   128
 71
     4
 72
     2
 73
     3
  0
VERTEX
  5
1C1
  8
0
 62
     9
 10
0.0
 20
0.0
 30
0.0
 70
   128
 71
     1
 72
    32
 73
     3
  0
SEQEND
  5
1C2
  8
0
 62
     9
  0
ENDBLK
  5
1C5
  8
0
  0
BLOCK
  8
0
  2
E3_NODE_3_
 70
     0
 10
0.0
 20
0.0
 30
0.0
  3
E3_NODE_3_
  1

  0
POLYLINE
  5
1C7
  8
0
 62
     9
 66
     1
 10
0.0
 20
0.0
 30
0.0
 70
    64
 71
    34
 72
    34
  0
VERTEX
  5
1C8
  8
0
 10
47.02799987792969
 20
0.0
 30
-9.717000007629395
 70
   192
  0
VERTEX
  5
1C9
  8
0
 10
47.02799987792969
 20
-6.245999813079834
 30
-7.443999767303467
 70
   192
  0
VERTEX
  5
1CA
  8
0
 10
45.90399932861328
 20
-4.105999946594238
 30
-9.911999702453613
 70
   192
  0
VERTEX
  5
1CB
  8
0
 10
45.90399932861328
 20
-6.816999912261963
 30
-8.100000381469727
 70
   192
  0
VERTEX
  5
1CC
  8
0
 10
47.02799987792969
 20
-9.569000244140625
 30
-1.687000036239624
 70
   192
  0
VERTEX
  5
1CD
  8
0
 10
45.90399932861328
 20
-9.911999702453613
 30
-4.105999946594238
 70
   192
  0
VERTEX
  5
1CE
  8
0
 10
45.90399932861328
 20
-7.585999965667725
 30
-7.585999965667725
 70
   192
  0
VERTEX
  5
1CF
  8
0
 10
45.90399932861328
 20
-10.36600017547607
 30
-1.822999954223633
 70
   192
  0
VERTEX
  5
1D0
  8
0
 10
47.02799987792969
 20
-8.414999961853027
 30
4.857999801635742
 70
   192
  0
VERTEX
  5
1D1
  8
0
 10
45.90399932861328
 20
-9.911999702453613
 30
4.105999946594238
 70
   192
  0
VERTEX
  5
1D2
  8
0
 10
45.90399932861328
 20
-10.72900009155273
 30
0.0
 70
   192
  0
VERTEX
  5
1D3
  8
0
 10
45.90399932861328
 20
-9.138999938964844
 30
5.263000011444092
 70
   192
  0
VERTEX
  5
1D4
  8
0
 10
47.02799987792969
 20
-3.322999954223633
 30
9.130999565124512
 70
   192
  0
VERTEX
  5
1D5
  8
0
 10
45.90399932861328
 20
-4.105999946594238
 30
9.911999702453613
 70
   192
  0
VERTEX
  5
1D6
  8
0
 10
45.90399932861328
 20
-7.585999965667725
 30
7.585999965667725
 70
   192
  0
VERTEX
  5
1D7
  8
0
 10
45.90399932861328
 20
-3.654000043869019
 30
10.0019998550415
 70
   192
  0
VERTEX
  5
1D8
  8
0
 10
45.90399932861328
 20
3.654000043869019
 30
10.0019998550415
 70
   192
  0
VERTEX
  5
1D9
  8
0
 10
45.90399932861328
 20
0.0
 30
10.72900009155273
 70
   192
  0
VERTEX
  5
1DA
  8
0
 10
47.02799987792969
 20
0.0
 30
9.717000007629395
 70
   192
  0
VERTEX
  5
1DB
  8
0
 10
47.02799987792969
 20
3.322999954223633
 30
9.130999565124512
 70
   192
  0
VERTEX
  5
1DC
  8
0
 10
47.02799987792969
 20
8.414999961853027
 30
4.857999801635742
 70
   192
  0
VERTEX
  5
1DD
  8
0
 10
45.90399932861328
 20
7.585999965667725
 30
7.585999965667725
 70
   192
  0
VERTEX
  5
1DE
  8
0
 10
45.90399932861328
 20
4.105999946594238
 30
9.911999702453613
 70
   192
  0
VERTEX
  5
1DF
  8
0
 10
45.90399932861328
 20
9.138999938964844
 30
5.263000011444092
 70
   192
  0
VERTEX
  5
1E0
  8
0
 10
47.02799987792969
 20
9.569000244140625
 30
-1.687000036239624
 70
   192
  0
VERTEX
  5
1E1
  8
0
 10
45.90399932861328
 20
10.72900009155273
 30
0.0
 70
   192
  0
VERTEX
  5
1E2
  8
0
 10
45.90399932861328
 20
9.911999702453613
 30
4.105999946594238
 70
   192
  0
VERTEX
  5
1E3
  8
0
 10
45.90399932861328
 20
10.36600017547607
 30
-1.822999954223633
 70
   192
  0
VERTEX
  5
1E4
  8
0
 10
47.02799987792969
 20
6.245999813079834
 30
-7.443999767303467
 70
   192
  0
VERTEX
  5
1E5
  8
0
 10
45.90399932861328
 20
7.585999965667725
 30
-7.585999965667725
 70
   192
  0
VERTEX
  5
1E6
  8
0
 10
45.90399932861328
 20
9.911999702453613
 30
-4.105999946594238
 70
   192
  0
VERTEX
  5
1E7
  8
0
 10
45.90399932861328
 20
6.816999912261963
 30
-8.100000381469727
 70
   192
  0
VERTEX
  5
1E8
  8
0
 10
45.90399932861328
 20
0.0
 30
-10.72900009155273
 70
   192
  0
VERTEX
  5
1E9
  8
0
 10
45.90399932861328
 20
4.105999946594238
 30
-9.911999702453613
 70
   192
  0
VERTEX
  5
1EA
  8
0
 62
     9
 10
0.0
 20
0.0
 30
0.0
 70
   128
 71
     3
 72
     2
 73
     1
  0
VERTEX
  5
1EB
  8
0
 62
     9
 10
0.0
 20
0.0
 30
0.0
 70
   128
 71
     3
 72
     4
 73
     2
  0
VERTEX
  5
1EC
  8
0
 62
     9
 10
0.0
 20
0.0
 30
0.0
 70
   128
 71
     6
 72
     5
 73
     2
  0
VERTEX
  5
1ED
  8
0
 62
     9
 10
0.0
 20
0.0
 30
0.0
 70
   128
 71
     2
 72
     7
 73
     6
  0
VERTEX
  5
1EE
  8
0
 62
     9
 10
0.0
 20
0.0
 30
0.0
 70
   128
 71
     6
 72
     8
 73
     5
  0
VERTEX
  5
1EF
  8
0
 62
     9
 10
0.0
 20
0.0
 30
0.0
 70
   128
 71
    11
 72
    10
 73
     9
  0
VERTEX
  5
1F0
  8
0
 62
     9
 10
0.0
 20
0.0
 30
0.0
 70
   128
 71
    10
 72
    12
 73
     9
  0
VERTEX
  5
1F1
  8
0
 62
     9
 10
0.0
 20
0.0
 30
0.0
 70
   128
 71
     9
 72
     5
 73
    11
  0
VERTEX
  5
1F2
  8
0
 62
     9
 10
0.0
 20
0.0
 30
0.0
 70
   128
 71
    15
 72
    14
 73
    13
  0
VERTEX
  5
1F3
  8
0
 62
     9
 10
0.0
 20
0.0
 30
0.0
 70
   128
 71
    14
 72
    16
 73
    13
  0
VERTEX
  5
1F4
  8
0
 62
     9
 10
0.0
 20
0.0
 30
0.0
 70
   128
 71
    13
 72
     9
 73
    15
  0
VERTEX
  5
1F5
  8
0
 62
     9
 10
0.0
 20
0.0
 30
0.0
 70
   128
 71
    19
 72
    18
 73
    17
  0
VERTEX
  5
1F6
  8
0
 62
     9
 10
0.0
 20
0.0
 30
0.0
 70
   128
 71
    13
 72
    16
 73
    18
  0
VERTEX
  5
1F7
  8
0
 62
     9
 10
0.0
 20
0.0
 30
0.0
 70
   128
 71
    18
 72
    19
 73
    13
  0
VERTEX
  5
1F8
  8
0
 62
     9
 10
0.0
 20
0.0
 30
0.0
 70
   128
 71
    22
 72
    21
 73
    20
  0
VERTEX
  5
1F9
  8
0
 62
     9
 10
0.0
 20
0.0
 30
0.0
 70
   128
 71
    20
 72
    23
 73
    22
  0
VERTEX
  5
1FA
  8
0
 62
     9
 10
0.0
 20
0.0
 30
0.0
 70
   128
 71
    22
 72
    24
 73
    21
  0
VERTEX
  5
1FB
  8
0
 62
     9
 10
0.0
 20
0.0
 30
0.0
 70
   128
 71
    26
 72
    25
 73
    21
  0
VERTEX
  5
1FC
  8
0
 62
     9
 10
0.0
 20
0.0
 30
0.0
 70
   128
 71
    21
 72
    27
 73
    26
  0
VERTEX
  5
1FD
  8
0
 62
     9
 10
0.0
 20
0.0
 30
0.0
 70
   128
 71
    26
 72
    28
 73
    25
  0
VERTEX
  5
1FE
  8
0
 62
     9
 10
0.0
 20
0.0
 30
0.0
 70
   128
 71
    31
 72
    30
 73
    29
  0
VERTEX
  5
1FF
  8
0
 62
     9
 10
0.0
 20
0.0
 30
0.0
 70
   128
 71
    30
 72
    32
 73
    29
  0
VERTEX
  5
200
  8
0
 62
     9
 10
0.0
 20
0.0
 30
0.0
 70
   128
 71
    29
 72
    25
 73
    31
  0
VERTEX
  5
201
  8
0
 62
     9
 10
0.0
 20
0.0
 30
0.0
 70
   128
 71
    34
 72
    33
 73
     1
  0
VERTEX
  5
202
  8
0
 62
     9
 10
0.0
 20
0.0
 30
0.0
 70
   128
 71
     1
 72
    29
 73
    34
  0
VERTEX
  5
203
  8
0
 62
     9
 10
0.0
 20
0.0
 30
0.0
 70
   128
 71
    29
 72
    32
 73
    34
  0
VERTEX
  5
204
  8
0
 62
     9
 10
0.0
 20
0.0
 30
0.0
 70
   128
 71
    25
 72
    28
 73
    31
  0
VERTEX
  5
205
  8
0
 62
     9
 10
0.0
 20
0.0
 30
0.0
 70
   128
 71
    21
 72
    24
 73
    27
  0
VERTEX
  5
206
  8
0
 62
     9
 10
0.0
 20
0.0
 30
0.0
 70
   128
 71
    20
 72
    17
 73
    23
  0
VERTEX
  5
207
  8
0
 62
     9
 10
0.0
 20
0.0
 30
0.0
 70
   128
 71
    17
 72
    20
 73
    19
  0
VERTEX
  5
208
  8
0
 62
     9
 10
0.0
 20
0.0
 30
0.0
 70
   128
 71
     9
 72
    12
 73
    15
  0
VERTEX
  5
209
  8
0
 62
     9
 10
0.0
 20
0.0
 30
0.0
 70
   128
 71
     5
 72
     8
 73
    11
  0
VERTEX
  5
20A
  8
0
 62
     9
 10
0.0
 20
0.0
 30
0.0
 70
   128
 71
     2
 72
     4
 73
     7
  0
VERTEX
  5
20B
  8
0
 62
     9
 10
0.0
 20
0.0
 30
0.0
 70
   128
 71
     1
 72
    33
 73
     3
  0
SEQEND
  5
20C
  8
0
 62
     9
  0
ENDBLK
  5
20F
  8
0
  0
BLOCK
  8
0
  2
E3_NODE_4_
 70
     0
 10
0.0
 20
0.0
 30
0.0
  3
E3_NODE_4_
  1

  0
POLYLINE
  5
211
  8
0
 62
     9
 66
     1
 10
0.0
 20
0.0
 30
0.0
 70
    64
 71
   400
 72
   768
  0
VERTEX
  5
212
  8
0
 10
81.53900146484375
 20
-70.8270034790039
 30
-59.76100158691406
 70
   192
  0
VERTEX
  5
213
  8
0
 10
79.65599822998047
 20
-73.45700073242188
 30
-55.53300094604492
 70
   192
  0
VERTEX
  5
214
  8
0
 10
78.00399780273438
 20
-73.14900207519531
 30
-56.13199996948242
 70
   192
  0
VERTEX
  5
215
  8
0
 10
85.33399963378906
 20
64.28600311279297
 30
-68.28600311279297
 70
   192
  0
VERTEX
  5
216
  8
0
 10
85.33399963378906
 20
-2.551000118255615
 30
-68.28600311279297
 70
   192
  0
VERTEX
  5
217
  8
0
 10
83.59700012207031
 20
-2.551000118255615
 30
-68.69400024414062
 70
   192
  0
VERTEX
  5
218
  8
0
 10
80.95999908447266
 20
-63.48600006103516
 30
-54.1510009765625
 70
   192
  0
VERTEX
  5
219
  8
0
 10
79.27899932861328
 20
-63.21900177001953
 30
-54.68500137329102
 70
   192
  0
VERTEX
  5
21A
  8
0
 10
78.21399688720703
 20
-64.7030029296875
 30
-52.29399871826172
 70
   192
  0
VERTEX
  5
21B
  8
0
 10
83.197998046875
 20
64.28600311279297
 30
-59.17699813842773
 70
   192
  0
VERTEX
  5
21C
  8
0
 10
81.45999908447266
 20
64.28600311279297
 30
-59.58499908447266
 70
   192
  0
VERTEX
  5
21D
  8
0
 10
81.45999908447266
 20
-2.551000118255615
 30
-59.58499908447266
 70
   192
  0
VERTEX
  5
21E
  8
0
 10
76.05799865722656
 20
-67.02300262451172
 30
-59.1609992980957
 70
   192
  0
VERTEX
  5
21F
  8
0
 10
74.58399963378906
 20
-69.08000183105469
 30
-55.85100173950195
 70
   192
  0
VERTEX
  5
220
  8
0
 10
74.625
 20
-67.46900177001953
 30
-55.11899948120117
 70
   192
  0
VERTEX
  5
221
  8
0
 10
53.64799880981445
 20
-60.89099884033203
 30
2.881999969482422
 70
   192
  0
VERTEX
  5
222
  8
0
 10
53.0890007019043
 20
-55.82300186157227
 30
4.138000011444092
 70
   192
  0
VERTEX
  5
223
  8
0
 10
51.62200164794922
 20
-55.77700042724609
 30
3.122999906539917
 70
   192
  0
VERTEX
  5
224
  8
0
 10
78.13099670410156
 20
-69.71299743652344
 30
-60.38800048828125
 70
   192
  0
VERTEX
  5
225
  8
0
 10
76.36900329589844
 20
-72.17500305175781
 30
-56.42800140380859
 70
   192
  0
VERTEX
  5
226
  8
0
 10
75.15499877929688
 20
-70.69100189208984
 30
-56.31100082397461
 70
   192
  0
VERTEX
  5
227
  8
0
 10
67.12000274658203
 20
-75.2760009765625
 30
-27.37700080871582
 70
   192
  0
VERTEX
  5
228
  8
0
 10
63.72200012207031
 20
-75.2770004272461
 30
-19.74300003051758
 70
   192
  0
VERTEX
  5
229
  8
0
 10
62.11999893188477
 20
-74.94200134277344
 30
-20.45599937438965
 70
   192
  0
VERTEX
  5
22A
  8
0
 10
79.85800170898438
 20
-70.55999755859375
 30
-60.29600143432617
 70
   192
  0
VERTEX
  5
22B
  8
0
 10
65.51899719238281
 20
-74.94200134277344
 30
-28.09000015258789
 70
   192
  0
VERTEX
  5
22C
  8
0
 10
72.31600189208984
 20
-74.94200134277344
 30
-43.35599899291992
 70
   192
  0
VERTEX
  5
22D
  8
0
 10
75.61799621582031
 20
-75.2770004272461
 30
-46.46200180053711
 70
   192
  0
VERTEX
  5
22E
  8
0
 10
74.01599884033203
 20
-74.94200134277344
 30
-47.17499923706055
 70
   192
  0
VERTEX
  5
22F
  8
0
 10
75.98300170898438
 20
-74.6259994506836
 30
-51.59299850463867
 70
   192
  0
VERTEX
  5
230
  8
0
 10
77.6050033569336
 20
-74.95600128173828
 30
-50.92599868774414
 70
   192
  0
VERTEX
  5
231
  8
0
 10
73.91699981689453
 20
-75.2760009765625
 30
-42.64300155639648
 70
   192
  0
VERTEX
  5
232
  8
0
 10
64.04399871826172
 20
-73.88200378417969
 30
-28.74600028991699
 70
   192
  0
VERTEX
  5
233
  8
0
 10
70.84100341796875
 20
-73.88200378417969
 30
-44.01200103759766
 70
   192
  0
VERTEX
  5
234
  8
0
 10
72.54100036621094
 20
-73.88200378417969
 30
-47.83000183105469
 70
   192
  0
VERTEX
  5
235
  8
0
 10
74.44200134277344
 20
-73.58000183105469
 30
-52.10100173950195
 70
   192
  0
VERTEX
  5
236
  8
0
 10
60.64500045776367
 20
-73.88200378417969
 30
-21.11300086975098
 70
   192
  0
VERTEX
  5
237
  8
0
 10
57.86100006103516
 20
-72.54499816894531
 30
-6.578999996185303
 70
   192
  0
VERTEX
  5
238
  8
0
 10
56.32300186157227
 20
-72.2509994506836
 30
-7.435999870300293
 70
   192
  0
VERTEX
  5
239
  8
0
 10
58.2859992980957
 20
-74.17500305175781
 30
-11.84500026702881
 70
   192
  0
VERTEX
  5
23A
  8
0
 10
61.95500183105469
 20
-75.26499938964844
 30
-15.77400016784668
 70
   192
  0
VERTEX
  5
23B
  8
0
 10
60.35800170898438
 20
-74.93099975585938
 30
-16.49799919128418
 70
   192
  0
VERTEX
  5
23C
  8
0
 10
59.85300064086914
 20
-74.49800109863281
 30
-11.05399990081787
 70
   192
  0
VERTEX
  5
23D
  8
0
 10
54.68299865722656
 20
-65.56400299072266
 30
0.5590000152587891
 70
   192
  0
VERTEX
  5
23E
  8
0
 10
53.19100189208984
 20
-65.3740005493164
 30
-0.4020000100135803
 70
   192
  0
VERTEX
  5
23F
  8
0
 10
54.60200119018555
 20
-69.28900146484375
 30
-3.571000099182129
 70
   192
  0
VERTEX
  5
240
  8
0
 10
56.1150016784668
 20
-69.54000091552734
 30
-2.657999992370605
 70
   192
  0
VERTEX
  5
241
  8
0
 10
52.17300033569336
 20
-60.77199935913086
 30
1.886000037193298
 70
   192
  0
VERTEX
  5
242
  8
0
 10
55.05099868774414
 20
-71.31700134277344
 30
-8.54800033569336
 70
   192
  0
VERTEX
  5
243
  8
0
 10
56.92100143432617
 20
-73.1500015258789
 30
-12.7480001449585
 70
   192
  0
VERTEX
  5
244
  8
0
 10
58.89799880981445
 20
-73.87100219726562
 30
-17.18899917602539
 70
   192
  0
VERTEX
  5
245
  8
0
 10
52.06700134277344
 20
-64.7699966430664
 30
-1.845000028610229
 70
   192
  0
VERTEX
  5
246
  8
0
 10
53.40900039672852
 20
-68.49299621582031
 30
-4.861000061035156
 70
   192
  0
VERTEX
  5
247
  8
0
 10
51.0989990234375
 20
-60.39199829101562
 30
0.3289999961853027
 70
   192
  0
VERTEX
  5
248
  8
0
 10
59.67699813842773
 20
-72.26699829101562
 30
-21.54500007629395
 70
   192
  0
VERTEX
  5
249
  8
0
 10
76.77999877929688
 20
-68.4229965209961
 30
-59.95899963378906
 70
   192
  0
VERTEX
  5
24A
  8
0
 10
63.07500076293945
 20
-72.26699829101562
 30
-29.17799949645996
 70
   192
  0
VERTEX
  5
24B
  8
0
 10
69.87200164794922
 20
-72.26699829101562
 30
-44.44300079345703
 70
   192
  0
VERTEX
  5
24C
  8
0
 10
71.57099914550781
 20
-72.26699829101562
 30
-48.2599983215332
 70
   192
  0
VERTEX
  5
24D
  8
0
 10
73.37300109863281
 20
-71.98699951171875
 30
-52.30699920654297
 70
   192
  0
VERTEX
  5
24E
  8
0
 10
62.76900100708008
 20
-70.51399993896484
 30
-29.31399917602539
 70
   192
  0
VERTEX
  5
24F
  8
0
 10
69.56600189208984
 20
-70.51399993896484
 30
-44.57799911499023
 70
   192
  0
VERTEX
  5
250
  8
0
 10
71.26499938964844
 20
-70.51399993896484
 30
-48.39400100708008
 70
   192
  0
VERTEX
  5
251
  8
0
 10
72.95800018310547
 20
-70.25700378417969
 30
-52.19699859619141
 70
   192
  0
VERTEX
  5
252
  8
0
 10
59.37099838256836
 20
-70.51399993896484
 30
-21.68099975585938
 70
   192
  0
VERTEX
  5
253
  8
0
 10
54.39099884033203
 20
-69.89600372314453
 30
-9.67199993133545
 70
   192
  0
VERTEX
  5
254
  8
0
 10
56.11899948120117
 20
-71.58999633789062
 30
-13.55500030517578
 70
   192
  0
VERTEX
  5
255
  8
0
 10
57.95299911499023
 20
-72.25700378417969
 30
-17.67300033569336
 70
   192
  0
VERTEX
  5
256
  8
0
 10
51.63100051879883
 20
-63.85100173950195
 30
-3.473999977111816
 70
   192
  0
VERTEX
  5
257
  8
0
 10
52.86999893188477
 20
-67.28099822998047
 30
-6.257999897003174
 70
   192
  0
VERTEX
  5
258
  8
0
 10
50.7400016784668
 20
-59.81499862670898
 30
-1.473000049591064
 70
   192
  0
VERTEX
  5
259
  8
0
 10
54.41999816894531
 20
-68.35299682617188
 30
-10.56099987030029
 70
   192
  0
VERTEX
  5
25A
  8
0
 10
55.99499893188477
 20
-69.89700317382812
 30
-14.09799957275391
 70
   192
  0
VERTEX
  5
25B
  8
0
 10
57.67200088500977
 20
-70.50499725341797
 30
-17.86499977111816
 70
   192
  0
VERTEX
  5
25C
  8
0
 10
51.90399932861328
 20
-62.85200119018555
 30
-4.909999847412109
 70
   192
  0
VERTEX
  5
25D
  8
0
 10
53.03099822998047
 20
-65.96499633789062
 30
-7.440999984741211
 70
   192
  0
VERTEX
  5
25E
  8
0
 10
51.09700012207031
 20
-59.1879997253418
 30
-3.095999956130981
 70
   192
  0
VERTEX
  5
25F
  8
0
 10
50.57400131225586
 20
-55.63000106811523
 30
1.508000016212463
 70
   192
  0
VERTEX
  5
260
  8
0
 10
50.25500106811523
 20
-55.40700149536133
 30
-0.382999986410141
 70
   192
  0
VERTEX
  5
261
  8
0
 10
51.52299880981445
 20
7.486000061035156
 30
3.345000028610229
 70
   192
  0
VERTEX
  5
262
  8
0
 10
51.52299880981445
 20
-25.93199920654297
 30
3.345000028610229
 70
   192
  0
VERTEX
  5
263
  8
0
 10
52.98899841308594
 20
-25.93199920654297
 30
4.363999843597412
 70
   192
  0
VERTEX
  5
264
  8
0
 10
52.98899841308594
 20
-42.64199829101562
 30
4.363999843597412
 70
   192
  0
VERTEX
  5
265
  8
0
 10
51.52299880981445
 20
-42.64199829101562
 30
3.345000028610229
 70
   192
  0
VERTEX
  5
266
  8
0
 10
51.52299880981445
 20
-50.99399948120117
 30
3.345000028610229
 70
   192
  0
VERTEX
  5
267
  8
0
 10
52.98899841308594
 20
-50.99399948120117
 30
4.363999843597412
 70
   192
  0
VERTEX
  5
268
  8
0
 10
50.47999954223633
 20
-25.93199920654297
 30
1.720000028610229
 70
   192
  0
VERTEX
  5
269
  8
0
 10
50.47900009155273
 20
-42.64199829101562
 30
1.720000028610229
 70
   192
  0
VERTEX
  5
26A
  8
0
 10
50.47999954223633
 20
-50.99499893188477
 30
1.718999981880188
 70
   192
  0
VERTEX
  5
26B
  8
0
 10
50.47900009155273
 20
7.486000061035156
 30
1.720000028610229
 70
   192
  0
VERTEX
  5
26C
  8
0
 10
50.16699981689453
 20
7.486000061035156
 30
-0.1870000064373016
 70
   192
  0
VERTEX
  5
26D
  8
0
 10
50.16699981689453
 20
-25.9330005645752
 30
-0.1870000064373016
 70
   192
  0
VERTEX
  5
26E
  8
0
 10
50.65499877929688
 20
-55.16400146484375
 30
-2.102999925613403
 70
   192
  0
VERTEX
  5
26F
  8
0
 10
50.16699981689453
 20
-42.64199829101562
 30
-0.1870000064373016
 70
   192
  0
VERTEX
  5
270
  8
0
 10
50.16699981689453
 20
-50.99599838256836
 30
-0.1870000064373016
 70
   192
  0
VERTEX
  5
271
  8
0
 10
50.57500076293945
 20
-25.9330005645752
 30
-1.924000024795532
 70
   192
  0
VERTEX
  5
272
  8
0
 10
50.57500076293945
 20
-42.64199829101562
 30
-1.924000024795532
 70
   192
  0
VERTEX
  5
273
  8
0
 10
50.57500076293945
 20
-50.99599838256836
 30
-1.924000024795532
 70
   192
  0
VERTEX
  5
274
  8
0
 10
50.57500076293945
 20
7.486000061035156
 30
-1.924000024795532
 70
   192
  0
VERTEX
  5
275
  8
0
 10
51.66600036621094
 20
-54.92200088500977
 30
-3.552000045776367
 70
   192
  0
VERTEX
  5
276
  8
0
 10
76.53299713134766
 20
-64.33300018310547
 30
-56.79899978637695
 70
   192
  0
VERTEX
  5
277
  8
0
 10
75.3489990234375
 20
-65.98500061035156
 30
-54.13800048828125
 70
   192
  0
VERTEX
  5
278
  8
0
 10
76.66300201416016
 20
-65.01000213623047
 30
-53.12099838256836
 70
   192
  0
VERTEX
  5
279
  8
0
 10
59.67699813842773
 20
-68.76100158691406
 30
-21.54599952697754
 70
   192
  0
VERTEX
  5
27A
  8
0
 10
75.947998046875
 20
-65.62300109863281
 30
-58.09000015258789
 70
   192
  0
VERTEX
  5
27B
  8
0
 10
63.07500076293945
 20
-68.76100158691406
 30
-29.17799949645996
 70
   192
  0
VERTEX
  5
27C
  8
0
 10
69.87100219726562
 20
-68.76100158691406
 30
-44.44100189208984
 70
   192
  0
VERTEX
  5
27D
  8
0
 10
71.56900024414062
 20
-68.76100158691406
 30
-48.25699996948242
 70
   192
  0
VERTEX
  5
27E
  8
0
 10
73.15399932861328
 20
-68.52799987792969
 30
-51.81600189208984
 70
   192
  0
VERTEX
  5
27F
  8
0
 10
64.04399871826172
 20
-67.14600372314453
 30
-28.74600028991699
 70
   192
  0
VERTEX
  5
280
  8
0
 10
70.83899688720703
 20
-67.14600372314453
 30
-44.00899887084961
 70
   192
  0
VERTEX
  5
281
  8
0
 10
72.53800201416016
 20
-67.14600372314453
 30
-47.82400131225586
 70
   192
  0
VERTEX
  5
282
  8
0
 10
74.02300262451172
 20
-66.93499755859375
 30
-51.15900039672852
 70
   192
  0
VERTEX
  5
283
  8
0
 10
60.64599990844727
 20
-67.14600372314453
 30
-21.11499977111816
 70
   192
  0
VERTEX
  5
284
  8
0
 10
55.06100082397461
 20
-66.80999755859375
 30
-11.17800045013428
 70
   192
  0
VERTEX
  5
285
  8
0
 10
56.48199844360352
 20
-68.2030029296875
 30
-14.36999988555908
 70
   192
  0
VERTEX
  5
286
  8
0
 10
58.00299835205078
 20
-68.75299835205078
 30
-17.7859992980957
 70
   192
  0
VERTEX
  5
287
  8
0
 10
52.78900146484375
 20
-61.85400009155273
 30
-6.073999881744385
 70
   192
  0
VERTEX
  5
288
  8
0
 10
53.80300140380859
 20
-64.6500015258789
 30
-8.352999687194824
 70
   192
  0
VERTEX
  5
289
  8
0
 10
52.06499862670898
 20
-58.56100082397461
 30
-4.447999954223633
 70
   192
  0
VERTEX
  5
28A
  8
0
 10
56.3380012512207
 20
-65.38899993896484
 30
-11.4399995803833
 70
   192
  0
VERTEX
  5
28B
  8
0
 10
57.61800003051758
 20
-66.64299774169922
 30
-14.31400012969971
 70
   192
  0
VERTEX
  5
28C
  8
0
 10
58.99499893188477
 20
-67.13899993896484
 30
-17.4060001373291
 70
   192
  0
VERTEX
  5
28D
  8
0
 10
54.29100036621094
 20
-60.93500137329102
 30
-6.840000152587891
 70
   192
  0
VERTEX
  5
28E
  8
0
 10
55.20199966430664
 20
-63.4379997253418
 30
-8.88700008392334
 70
   192
  0
VERTEX
  5
28F
  8
0
 10
53.64300155639648
 20
-57.98400115966797
 30
-5.38700008392334
 70
   192
  0
VERTEX
  5
290
  8
0
 10
62.12099838256836
 20
-66.08599853515625
 30
-20.45800018310547
 70
   192
  0
VERTEX
  5
291
  8
0
 10
77.75700378417969
 20
-63.48600006103516
 30
-55.57699966430664
 70
   192
  0
VERTEX
  5
292
  8
0
 10
65.51899719238281
 20
-66.08599853515625
 30
-28.0890007019043
 70
   192
  0
VERTEX
  5
293
  8
0
 10
72.31400299072266
 20
-66.08599853515625
 30
-43.35200119018555
 70
   192
  0
VERTEX
  5
294
  8
0
 10
74.01200103759766
 20
-66.08599853515625
 30
-47.16600036621094
 70
   192
  0
VERTEX
  5
295
  8
0
 10
75.43199920654297
 20
-65.88800048828125
 30
-50.35400009155273
 70
   192
  0
VERTEX
  5
296
  8
0
 10
67.12000274658203
 20
-65.7509994506836
 30
-27.37599945068359
 70
   192
  0
VERTEX
  5
297
  8
0
 10
73.91600036621094
 20
-65.7509994506836
 30
-42.63899993896484
 70
   192
  0
VERTEX
  5
298
  8
0
 10
75.61299896240234
 20
-65.75199890136719
 30
-46.45299911499023
 70
   192
  0
VERTEX
  5
299
  8
0
 10
77.01200103759766
 20
-65.55799865722656
 30
-49.59400177001953
 70
   192
  0
VERTEX
  5
29A
  8
0
 10
63.72200012207031
 20
-65.75199890136719
 30
-19.7450008392334
 70
   192
  0
VERTEX
  5
29B
  8
0
 10
58.01599884033203
 20
-64.45600128173828
 30
-11.23900032043457
 70
   192
  0
VERTEX
  5
29C
  8
0
 10
59.20299911499023
 20
-65.61900329589844
 30
-13.90299987792969
 70
   192
  0
VERTEX
  5
29D
  8
0
 10
60.48500061035156
 20
-66.0790023803711
 30
-16.78400039672852
 70
   192
  0
VERTEX
  5
29E
  8
0
 10
56.11600112915039
 20
-60.33100128173828
 30
-6.96999979019165
 70
   192
  0
VERTEX
  5
29F
  8
0
 10
56.95899963378906
 20
-62.64199829101562
 30
-8.86400032043457
 70
   192
  0
VERTEX
  5
2A0
  8
0
 10
55.51900100708008
 20
-57.60400009155273
 30
-5.630000114440918
 70
   192
  0
VERTEX
  5
2A1
  8
0
 10
59.68199920654297
 20
-64.16200256347656
 30
-10.66899967193604
 70
   192
  0
VERTEX
  5
2A2
  8
0
 10
60.8390007019043
 20
-65.2959976196289
 30
-13.26799964904785
 70
   192
  0
VERTEX
  5
2A3
  8
0
 10
62.09099960327148
 20
-65.74500274658203
 30
-16.08200073242188
 70
   192
  0
VERTEX
  5
2A4
  8
0
 10
57.82799911499023
 20
-60.14099884033203
 30
-6.505000114440918
 70
   192
  0
VERTEX
  5
2A5
  8
0
 10
58.64899826049805
 20
-62.39099884033203
 30
-8.35099983215332
 70
   192
  0
VERTEX
  5
2A6
  8
0
 10
57.24700164794922
 20
-57.48500061035156
 30
-5.201000213623047
 70
   192
  0
VERTEX
  5
2A7
  8
0
 10
53.28400039672852
 20
-54.69800186157227
 30
-4.579999923706055
 70
   192
  0
VERTEX
  5
2A8
  8
0
 10
55.18600082397461
 20
-54.55099868774414
 30
-4.88100004196167
 70
   192
  0
VERTEX
  5
2A9
  8
0
 10
51.59299850463867
 20
7.486000061035156
 30
-3.390000104904175
 70
   192
  0
VERTEX
  5
2AA
  8
0
 10
51.59299850463867
 20
-25.9330005645752
 30
-3.390000104904175
 70
   192
  0
VERTEX
  5
2AB
  8
0
 10
51.59299850463867
 20
-42.64199829101562
 30
-3.390000104904175
 70
   192
  0
VERTEX
  5
2AC
  8
0
 10
51.59299850463867
 20
-50.99700164794922
 30
-3.390000104904175
 70
   192
  0
VERTEX
  5
2AD
  8
0
 10
53.21900177001953
 20
-25.9330005645752
 30
-4.433000087738037
 70
   192
  0
VERTEX
  5
2AE
  8
0
 10
53.21900177001953
 20
-42.64199829101562
 30
-4.433000087738037
 70
   192
  0
VERTEX
  5
2AF
  8
0
 10
53.21900177001953
 20
-50.99800109863281
 30
-4.433000087738037
 70
   192
  0
VERTEX
  5
2B0
  8
0
 10
53.21900177001953
 20
7.486000061035156
 30
-4.433000087738037
 70
   192
  0
VERTEX
  5
2B1
  8
0
 10
55.125
 20
7.486000061035156
 30
-4.744999885559082
 70
   192
  0
VERTEX
  5
2B2
  8
0
 10
55.125
 20
-25.9330005645752
 30
-4.744999885559082
 70
   192
  0
VERTEX
  5
2B3
  8
0
 10
56.92200088500977
 20
-54.50500106811523
 30
-4.471000194549561
 70
   192
  0
VERTEX
  5
2B4
  8
0
 10
55.125
 20
-42.64199829101562
 30
-4.744999885559082
 70
   192
  0
VERTEX
  5
2B5
  8
0
 10
55.125
 20
-50.99900054931641
 30
-4.745999813079834
 70
   192
  0
VERTEX
  5
2B6
  8
0
 10
56.86299896240234
 20
-25.9330005645752
 30
-4.337999820709229
 70
   192
  0
VERTEX
  5
2B7
  8
0
 10
56.86299896240234
 20
-42.64199829101562
 30
-4.337999820709229
 70
   192
  0
VERTEX
  5
2B8
  8
0
 10
56.86299896240234
 20
-50.99900054931641
 30
-4.337999820709229
 70
   192
  0
VERTEX
  5
2B9
  8
0
 10
56.86299896240234
 20
7.486000061035156
 30
-4.337999820709229
 70
   192
  0
VERTEX
  5
2BA
  8
0
 10
85.33399963378906
 20
-35.96900177001953
 30
-68.28600311279297
 70
   192
  0
VERTEX
  5
2BB
  8
0
 10
79.0459976196289
 20
64.28600311279297
 30
-65.87200164794922
 70
   192
  0
VERTEX
  5
2BC
  8
0
 10
79.0459976196289
 20
-2.551000118255615
 30
-65.87200164794922
 70
   192
  0
VERTEX
  5
2BD
  8
0
 10
78.63899993896484
 20
-2.551000118255615
 30
-64.13500213623047
 70
   192
  0
VERTEX
  5
2BE
  8
0
 10
81.69000244140625
 20
64.28600311279297
 30
-68.38099670410156
 70
   192
  0
VERTEX
  5
2BF
  8
0
 10
81.69000244140625
 20
-2.551000118255615
 30
-68.38099670410156
 70
   192
  0
VERTEX
  5
2C0
  8
0
 10
80.06500244140625
 20
-2.551000118255615
 30
-67.33799743652344
 70
   192
  0
VERTEX
  5
2C1
  8
0
 10
83.59700012207031
 20
64.28600311279297
 30
-68.69400024414062
 70
   192
  0
VERTEX
  5
2C2
  8
0
 10
80.06500244140625
 20
64.28600311279297
 30
-67.33799743652344
 70
   192
  0
VERTEX
  5
2C3
  8
0
 10
78.95099639892578
 20
64.28600311279297
 30
-62.22900009155273
 70
   192
  0
VERTEX
  5
2C4
  8
0
 10
78.95099639892578
 20
-2.551000118255615
 30
-62.22900009155273
 70
   192
  0
VERTEX
  5
2C5
  8
0
 10
79.99500274658203
 20
-2.551000118255615
 30
-60.60300064086914
 70
   192
  0
VERTEX
  5
2C6
  8
0
 10
78.63899993896484
 20
64.28600311279297
 30
-64.13500213623047
 70
   192
  0
VERTEX
  5
2C7
  8
0
 10
79.99500274658203
 20
64.28600311279297
 30
-60.60300064086914
 70
   192
  0
VERTEX
  5
2C8
  8
0
 10
79.0459976196289
 20
-35.97000122070312
 30
-65.87200164794922
 70
   192
  0
VERTEX
  5
2C9
  8
0
 10
85.33300018310547
 20
-52.77299880981445
 30
-68.28399658203125
 70
   192
  0
VERTEX
  5
2CA
  8
0
 10
83.59600067138672
 20
-52.76599884033203
 30
-68.69200134277344
 70
   192
  0
VERTEX
  5
2CB
  8
0
 10
81.69000244140625
 20
-35.96900177001953
 30
-68.38099670410156
 70
   192
  0
VERTEX
  5
2CC
  8
0
 10
83.59700012207031
 20
-35.96900177001953
 30
-68.69400024414062
 70
   192
  0
VERTEX
  5
2CD
  8
0
 10
80.06500244140625
 20
-35.97000122070312
 30
-67.33799743652344
 70
   192
  0
VERTEX
  5
2CE
  8
0
 10
81.69000244140625
 20
-52.74499893188477
 30
-68.37999725341797
 70
   192
  0
VERTEX
  5
2CF
  8
0
 10
80.06400299072266
 20
-52.7130012512207
 30
-67.33599853515625
 70
   192
  0
VERTEX
  5
2D0
  8
0
 10
85.06500244140625
 20
-57.91600036621094
 30
-67.68099975585938
 70
   192
  0
VERTEX
  5
2D1
  8
0
 10
83.33100128173828
 20
-57.8380012512207
 30
-68.09700012207031
 70
   192
  0
VERTEX
  5
2D2
  8
0
 10
81.43699645996094
 20
-57.59299850463867
 30
-67.81300354003906
 70
   192
  0
VERTEX
  5
2D3
  8
0
 10
83.12300109863281
 20
-67.20700073242188
 30
-63.31999969482422
 70
   192
  0
VERTEX
  5
2D4
  8
0
 10
81.41799926757812
 20
-66.99500274658203
 30
-63.80099868774414
 70
   192
  0
VERTEX
  5
2D5
  8
0
 10
82.5979995727539
 20
-62.68099975585938
 30
-66.4489974975586
 70
   192
  0
VERTEX
  5
2D6
  8
0
 10
84.31999969482422
 20
-62.82899856567383
 30
-66.00900268554688
 70
   192
  0
VERTEX
  5
2D7
  8
0
 10
79.61499786376953
 20
-66.3219985961914
 30
-63.72000122070312
 70
   192
  0
VERTEX
  5
2D8
  8
0
 10
80.73799896240234
 20
-62.21099853515625
 30
-66.24199676513672
 70
   192
  0
VERTEX
  5
2D9
  8
0
 10
79.83100128173828
 20
-57.22000122070312
 30
-66.81300354003906
 70
   192
  0
VERTEX
  5
2DA
  8
0
 10
79.0459976196289
 20
-52.67900085449219
 30
-65.87100219726562
 70
   192
  0
VERTEX
  5
2DB
  8
0
 10
78.83399963378906
 20
-56.81399917602539
 30
-65.39399719238281
 70
   192
  0
VERTEX
  5
2DC
  8
0
 10
78.14700317382812
 20
-65.2959976196289
 30
-63.02899932861328
 70
   192
  0
VERTEX
  5
2DD
  8
0
 10
79.18299865722656
 20
-61.49599838256836
 30
-65.35700225830078
 70
   192
  0
VERTEX
  5
2DE
  8
0
 10
77.29900360107422
 20
-64.18299865722656
 30
-61.94599914550781
 70
   192
  0
VERTEX
  5
2DF
  8
0
 10
78.24199676513672
 20
-60.71900177001953
 30
-64.06400299072266
 70
   192
  0
VERTEX
  5
2E0
  8
0
 10
78.63899993896484
 20
-52.64500045776367
 30
-64.13400268554688
 70
   192
  0
VERTEX
  5
2E1
  8
0
 10
78.95099639892578
 20
-35.97000122070312
 30
-62.22800064086914
 70
   192
  0
VERTEX
  5
2E2
  8
0
 10
78.63899993896484
 20
-35.97000122070312
 30
-64.13500213623047
 70
   192
  0
VERTEX
  5
2E3
  8
0
 10
79.99500274658203
 20
-35.97000122070312
 30
-60.60300064086914
 70
   192
  0
VERTEX
  5
2E4
  8
0
 10
78.95099639892578
 20
-52.61299896240234
 30
-62.22800064086914
 70
   192
  0
VERTEX
  5
2E5
  8
0
 10
79.99500274658203
 20
-52.59199905395508
 30
-60.60300064086914
 70
   192
  0
VERTEX
  5
2E6
  8
0
 10
78.4469985961914
 20
-56.40900039672852
 30
-63.70299911499023
 70
   192
  0
VERTEX
  5
2E7
  8
0
 10
78.77799987792969
 20
-56.03499984741211
 30
-61.84000015258789
 70
   192
  0
VERTEX
  5
2E8
  8
0
 10
77.06099700927734
 20
-63.06999969482422
 30
-60.59199905395508
 70
   192
  0
VERTEX
  5
2E9
  8
0
 10
77.91100311279297
 20
-59.94300079345703
 30
-62.5
 70
   192
  0
VERTEX
  5
2EA
  8
0
 10
77.53099822998047
 20
-62.04499816894531
 30
-59.03799819946289
 70
   192
  0
VERTEX
  5
2EB
  8
0
 10
78.29399871826172
 20
-59.22700119018555
 30
-60.75299835205078
 70
   192
  0
VERTEX
  5
2EC
  8
0
 10
79.83399963378906
 20
-55.79000091552734
 30
-60.24300003051758
 70
   192
  0
VERTEX
  5
2ED
  8
0
 10
81.45999908447266
 20
-52.58499908447266
 30
-59.58399963378906
 70
   192
  0
VERTEX
  5
2EE
  8
0
 10
81.30400085449219
 20
-55.7130012512207
 30
-59.23400115966797
 70
   192
  0
VERTEX
  5
2EF
  8
0
 10
78.677001953125
 20
-61.37099838256836
 30
-57.64400100708008
 70
   192
  0
VERTEX
  5
2F0
  8
0
 10
79.38400268554688
 20
-58.75699996948242
 30
-59.23199844360352
 70
   192
  0
VERTEX
  5
2F1
  8
0
 10
80.17500305175781
 20
-61.15900039672852
 30
-56.69900131225586
 70
   192
  0
VERTEX
  5
2F2
  8
0
 10
80.86399841308594
 20
-58.60900115966797
 30
-58.24599838256836
 70
   192
  0
VERTEX
  5
2F3
  8
0
 10
88.15599822998047
 20
64.28600311279297
 30
-63.73600006103516
 70
   192
  0
VERTEX
  5
2F4
  8
0
 10
87.74800109863281
 20
64.28600311279297
 30
-61.99800109863281
 70
   192
  0
VERTEX
  5
2F5
  8
0
 10
87.74800109863281
 20
-2.551000118255615
 30
-61.99800109863281
 70
   192
  0
VERTEX
  5
2F6
  8
0
 10
81.45999908447266
 20
-35.97000122070312
 30
-59.58399963378906
 70
   192
  0
VERTEX
  5
2F7
  8
0
 10
83.197998046875
 20
-35.97000122070312
 30
-59.17699813842773
 70
   192
  0
VERTEX
  5
2F8
  8
0
 10
86.72899627685547
 20
64.28600311279297
 30
-60.53300094604492
 70
   192
  0
VERTEX
  5
2F9
  8
0
 10
85.10399627685547
 20
64.28600311279297
 30
-59.48899841308594
 70
   192
  0
VERTEX
  5
2FA
  8
0
 10
85.10399627685547
 20
-2.551000118255615
 30
-59.48899841308594
 70
   192
  0
VERTEX
  5
2FB
  8
0
 10
83.197998046875
 20
-2.551000118255615
 30
-59.17699813842773
 70
   192
  0
VERTEX
  5
2FC
  8
0
 10
86.72899627685547
 20
-2.551000118255615
 30
-60.53300094604492
 70
   192
  0
VERTEX
  5
2FD
  8
0
 10
85.10399627685547
 20
-35.97000122070312
 30
-59.48899841308594
 70
   192
  0
VERTEX
  5
2FE
  8
0
 10
86.72899627685547
 20
-35.97000122070312
 30
-60.53300094604492
 70
   192
  0
VERTEX
  5
2FF
  8
0
 10
83.1969985961914
 20
-52.59199905395508
 30
-59.17699813842773
 70
   192
  0
VERTEX
  5
300
  8
0
 10
81.87999725341797
 20
-61.37099838256836
 30
-56.21799850463867
 70
   192
  0
VERTEX
  5
301
  8
0
 10
82.58699798583984
 20
-58.75699996948242
 30
-57.80599975585938
 70
   192
  0
VERTEX
  5
302
  8
0
 10
83.03700256347656
 20
-55.79000091552734
 30
-58.81700134277344
 70
   192
  0
VERTEX
  5
303
  8
0
 10
85.10399627685547
 20
-52.61299896240234
 30
-59.48899841308594
 70
   192
  0
VERTEX
  5
304
  8
0
 10
83.68299865722656
 20
-62.04499816894531
 30
-56.29899978637695
 70
   192
  0
VERTEX
  5
305
  8
0
 10
84.4469985961914
 20
-59.22700119018555
 30
-58.01300048828125
 70
   192
  0
VERTEX
  5
306
  8
0
 10
84.93099975585938
 20
-56.03499984741211
 30
-59.10100173950195
 70
   192
  0
VERTEX
  5
307
  8
0
 10
82.68599700927734
 20
-64.33300018310547
 30
-54.05899810791016
 70
   192
  0
VERTEX
  5
308
  8
0
 10
87.74800109863281
 20
-35.97000122070312
 30
-61.99800109863281
 70
   192
  0
VERTEX
  5
309
  8
0
 10
86.72899627685547
 20
-52.64500045776367
 30
-60.53200149536133
 70
   192
  0
VERTEX
  5
30A
  8
0
 10
85.1520004272461
 20
-63.06999969482422
 30
-56.9900016784668
 70
   192
  0
VERTEX
  5
30B
  8
0
 10
86.0009994506836
 20
-59.94300079345703
 30
-58.89799880981445
 70
   192
  0
VERTEX
  5
30C
  8
0
 10
86.53700256347656
 20
-56.40900039672852
 30
-60.10100173950195
 70
   192
  0
VERTEX
  5
30D
  8
0
 10
84.03800201416016
 20
-65.62300109863281
 30
-54.48799896240234
 70
   192
  0
VERTEX
  5
30E
  8
0
 10
87.74700164794922
 20
-52.67900085449219
 30
-61.99700164794922
 70
   192
  0
VERTEX
  5
30F
  8
0
 10
86.0
 20
-64.18299865722656
 30
-58.07199859619141
 70
   192
  0
VERTEX
  5
310
  8
0
 10
86.94300079345703
 20
-60.71900177001953
 30
-60.18999862670898
 70
   192
  0
VERTEX
  5
311
  8
0
 10
87.53500366210938
 20
-56.81399917602539
 30
-61.52000045776367
 70
   192
  0
VERTEX
  5
312
  8
0
 10
84.76000213623047
 20
-67.02300262451172
 30
-55.2859992980957
 70
   192
  0
VERTEX
  5
313
  8
0
 10
88.15599822998047
 20
-35.97000122070312
 30
-63.73600006103516
 70
   192
  0
VERTEX
  5
314
  8
0
 10
86.80000305175781
 20
64.28600311279297
 30
-67.26799774169922
 70
   192
  0
VERTEX
  5
315
  8
0
 10
87.84300231933594
 20
64.28600311279297
 30
-65.64199829101562
 70
   192
  0
VERTEX
  5
316
  8
0
 10
87.84300231933594
 20
-2.551000118255615
 30
-65.64199829101562
 70
   192
  0
VERTEX
  5
317
  8
0
 10
88.15599822998047
 20
-2.551000118255615
 30
-63.73600006103516
 70
   192
  0
VERTEX
  5
318
  8
0
 10
86.80000305175781
 20
-2.551000118255615
 30
-67.26799774169922
 70
   192
  0
VERTEX
  5
319
  8
0
 10
87.84300231933594
 20
-35.96900177001953
 30
-65.64199829101562
 70
   192
  0
VERTEX
  5
31A
  8
0
 10
86.80000305175781
 20
-35.96900177001953
 30
-67.26699829101562
 70
   192
  0
VERTEX
  5
31B
  8
0
 10
88.15499877929688
 20
-52.7130012512207
 30
-63.73400115966797
 70
   192
  0
VERTEX
  5
31C
  8
0
 10
86.23699951171875
 20
-65.2959976196289
 30
-59.42699813842773
 70
   192
  0
VERTEX
  5
31D
  8
0
 10
87.27400207519531
 20
-61.49599838256836
 30
-61.75500106811523
 70
   192
  0
VERTEX
  5
31E
  8
0
 10
87.9219970703125
 20
-57.22000122070312
 30
-63.21099853515625
 70
   192
  0
VERTEX
  5
31F
  8
0
 10
84.87000274658203
 20
-68.4229965209961
 30
-56.35699844360352
 70
   192
  0
VERTEX
  5
320
  8
0
 10
87.84300231933594
 20
-52.74499893188477
 30
-65.63999938964844
 70
   192
  0
VERTEX
  5
321
  8
0
 10
85.76799774169922
 20
-66.3219985961914
 30
-60.98099899291992
 70
   192
  0
VERTEX
  5
322
  8
0
 10
86.89099884033203
 20
-62.21099853515625
 30
-63.50199890136719
 70
   192
  0
VERTEX
  5
323
  8
0
 10
87.58999633789062
 20
-57.59299850463867
 30
-65.0739974975586
 70
   192
  0
VERTEX
  5
324
  8
0
 10
84.28399658203125
 20
-69.71299743652344
 30
-57.64799880981445
 70
   192
  0
VERTEX
  5
325
  8
0
 10
86.79900360107422
 20
-52.76599884033203
 30
-67.26599884033203
 70
   192
  0
VERTEX
  5
326
  8
0
 10
86.53399658203125
 20
-57.8380012512207
 30
-66.6709976196289
 70
   192
  0
VERTEX
  5
327
  8
0
 10
84.62100219726562
 20
-66.99500274658203
 30
-62.375
 70
   192
  0
VERTEX
  5
328
  8
0
 10
85.8010025024414
 20
-62.68099975585938
 30
-65.02300262451172
 70
   192
  0
VERTEX
  5
329
  8
0
 10
83.06099700927734
 20
-70.55999755859375
 30
-58.86999893188477
 70
   192
  0
VERTEX
  5
32A
  8
0
 10
58.72200012207031
 20
-57.60400009155273
 30
-4.203999996185303
 70
   192
  0
VERTEX
  5
32B
  8
0
 10
83.28600311279297
 20
-69.08000183105469
 30
-51.97600173950195
 70
   192
  0
VERTEX
  5
32C
  8
0
 10
68.72200012207031
 20
-66.08599853515625
 30
-26.66300010681152
 70
   192
  0
VERTEX
  5
32D
  8
0
 10
81.50199890136719
 20
-65.98500061035156
 30
-51.39899826049805
 70
   192
  0
VERTEX
  5
32E
  8
0
 10
75.51699829101562
 20
-66.08599853515625
 30
-41.92599868774414
 70
   192
  0
VERTEX
  5
32F
  8
0
 10
79.86599731445312
 20
-65.01000213623047
 30
-51.69499969482422
 70
   192
  0
VERTEX
  5
330
  8
0
 10
77.21499633789062
 20
-66.08599853515625
 30
-45.7400016784668
 70
   192
  0
VERTEX
  5
331
  8
0
 10
78.63500213623047
 20
-65.88800048828125
 30
-48.92800140380859
 70
   192
  0
VERTEX
  5
332
  8
0
 10
78.69000244140625
 20
-67.14600372314453
 30
-45.08399963378906
 70
   192
  0
VERTEX
  5
333
  8
0
 10
80.17500305175781
 20
-66.93499755859375
 30
-48.41999816894531
 70
   192
  0
VERTEX
  5
334
  8
0
 10
76.99199676513672
 20
-67.14600372314453
 30
-41.27000045776367
 70
   192
  0
VERTEX
  5
335
  8
0
 10
70.1969985961914
 20
-67.14600372314453
 30
-26.00699996948242
 70
   192
  0
VERTEX
  5
336
  8
0
 10
71.16500091552734
 20
-68.76100158691406
 30
-25.57500076293945
 70
   192
  0
VERTEX
  5
337
  8
0
 10
77.96099853515625
 20
-68.76100158691406
 30
-40.8390007019043
 70
   192
  0
VERTEX
  5
338
  8
0
 10
82.71499633789062
 20
-67.46900177001953
 30
-51.51599884033203
 70
   192
  0
VERTEX
  5
339
  8
0
 10
79.66000366210938
 20
-68.76100158691406
 30
-44.65499877929688
 70
   192
  0
VERTEX
  5
33A
  8
0
 10
81.24500274658203
 20
-68.52799987792969
 30
-48.2140007019043
 70
   192
  0
VERTEX
  5
33B
  8
0
 10
79.96600341796875
 20
-70.51399993896484
 30
-44.52000045776367
 70
   192
  0
VERTEX
  5
33C
  8
0
 10
81.65899658203125
 20
-70.25700378417969
 30
-48.32300186157227
 70
   192
  0
VERTEX
  5
33D
  8
0
 10
78.26699829101562
 20
-70.51399993896484
 30
-40.70399856567383
 70
   192
  0
VERTEX
  5
33E
  8
0
 10
71.47100067138672
 20
-70.51399993896484
 30
-25.43899917602539
 70
   192
  0
VERTEX
  5
33F
  8
0
 10
66.79900360107422
 20
-67.14600372314453
 30
-18.375
 70
   192
  0
VERTEX
  5
340
  8
0
 10
61.21900177001953
 20
-64.45600128173828
 30
-9.812999725341797
 70
   192
  0
VERTEX
  5
341
  8
0
 10
62.40599822998047
 20
-65.61900329589844
 30
-12.47700023651123
 70
   192
  0
VERTEX
  5
342
  8
0
 10
65.3239974975586
 20
-66.08599853515625
 30
-19.0319995880127
 70
   192
  0
VERTEX
  5
343
  8
0
 10
63.6879997253418
 20
-66.0790023803711
 30
-15.35799980163574
 70
   192
  0
VERTEX
  5
344
  8
0
 10
65.14800262451172
 20
-67.13899993896484
 30
-14.66699981689453
 70
   192
  0
VERTEX
  5
345
  8
0
 10
62.49100112915039
 20
-65.38899993896484
 30
-8.701000213623047
 70
   192
  0
VERTEX
  5
346
  8
0
 10
63.77099990844727
 20
-66.64299774169922
 30
-11.57400035858154
 70
   192
  0
VERTEX
  5
347
  8
0
 10
59.31900024414062
 20
-60.33100128173828
 30
-5.544000148773193
 70
   192
  0
VERTEX
  5
348
  8
0
 10
60.1619987487793
 20
-62.64199829101562
 30
-7.438000202178955
 70
   192
  0
VERTEX
  5
349
  8
0
 10
60.44300079345703
 20
-60.93500137329102
 30
-4.10099983215332
 70
   192
  0
VERTEX
  5
34A
  8
0
 10
61.35499954223633
 20
-63.4379997253418
 30
-6.146999835968018
 70
   192
  0
VERTEX
  5
34B
  8
0
 10
63.15200042724609
 20
-66.80999755859375
 30
-7.576000213623047
 70
   192
  0
VERTEX
  5
34C
  8
0
 10
64.572998046875
 20
-68.2030029296875
 30
-10.76799964904785
 70
   192
  0
VERTEX
  5
34D
  8
0
 10
67.76699829101562
 20
-68.76100158691406
 30
-17.94300079345703
 70
   192
  0
VERTEX
  5
34E
  8
0
 10
66.09300231933594
 20
-68.75299835205078
 30
-14.18400001525879
 70
   192
  0
VERTEX
  5
34F
  8
0
 10
68.072998046875
 20
-70.51399993896484
 30
-17.80699920654297
 70
   192
  0
VERTEX
  5
350
  8
0
 10
66.3740005493164
 20
-70.50499725341797
 30
-13.99100017547607
 70
   192
  0
VERTEX
  5
351
  8
0
 10
63.12200164794922
 20
-68.35299682617188
 30
-6.686999797821045
 70
   192
  0
VERTEX
  5
352
  8
0
 10
64.6969985961914
 20
-69.89700317382812
 30
-10.22399997711182
 70
   192
  0
VERTEX
  5
353
  8
0
 10
60.87900161743164
 20
-61.85400009155273
 30
-2.471999883651733
 70
   192
  0
VERTEX
  5
354
  8
0
 10
61.89400100708008
 20
-64.6500015258789
 30
-4.750999927520752
 70
   192
  0
VERTEX
  5
355
  8
0
 10
59.79600143432617
 20
-57.98400115966797
 30
-2.647000074386597
 70
   192
  0
VERTEX
  5
356
  8
0
 10
60.60599899291992
 20
-62.85200119018555
 30
-1.03600001335144
 70
   192
  0
VERTEX
  5
357
  8
0
 10
61.73300170898438
 20
-65.96499633789062
 30
-3.566999912261963
 70
   192
  0
VERTEX
  5
358
  8
0
 10
60.15499877929688
 20
-58.56100082397461
 30
-0.8460000157356262
 70
   192
  0
VERTEX
  5
359
  8
0
 10
71.16500091552734
 20
-72.26699829101562
 30
-25.57500076293945
 70
   192
  0
VERTEX
  5
35A
  8
0
 10
82.52100372314453
 20
-72.17500305175781
 30
-53.68899917602539
 70
   192
  0
VERTEX
  5
35B
  8
0
 10
77.96199798583984
 20
-72.26699829101562
 30
-40.84099960327148
 70
   192
  0
VERTEX
  5
35C
  8
0
 10
83.24600219726562
 20
-70.69100189208984
 30
-52.70800018310547
 70
   192
  0
VERTEX
  5
35D
  8
0
 10
79.66200256347656
 20
-72.26699829101562
 30
-44.65800094604492
 70
   192
  0
VERTEX
  5
35E
  8
0
 10
81.46299743652344
 20
-71.98699951171875
 30
-48.70399856567383
 70
   192
  0
VERTEX
  5
35F
  8
0
 10
78.69400024414062
 20
-73.88200378417969
 30
-45.09099960327148
 70
   192
  0
VERTEX
  5
360
  8
0
 10
80.59500122070312
 20
-73.58000183105469
 30
-49.36199951171875
 70
   192
  0
VERTEX
  5
361
  8
0
 10
76.99400329589844
 20
-73.88200378417969
 30
-41.27299880981445
 70
   192
  0
VERTEX
  5
362
  8
0
 10
70.1969985961914
 20
-73.88200378417969
 30
-26.00699996948242
 70
   192
  0
VERTEX
  5
363
  8
0
 10
68.72200012207031
 20
-74.94200134277344
 30
-26.66399955749512
 70
   192
  0
VERTEX
  5
364
  8
0
 10
75.51899719238281
 20
-74.94200134277344
 30
-41.93000030517578
 70
   192
  0
VERTEX
  5
365
  8
0
 10
81.20700073242188
 20
-73.14900207519531
 30
-54.70600128173828
 70
   192
  0
VERTEX
  5
366
  8
0
 10
77.21900177001953
 20
-74.94200134277344
 30
-45.74900054931641
 70
   192
  0
VERTEX
  5
367
  8
0
 10
79.18599700927734
 20
-74.6259994506836
 30
-50.16699981689453
 70
   192
  0
VERTEX
  5
368
  8
0
 10
66.7979965209961
 20
-73.88200378417969
 30
-18.37400054931641
 70
   192
  0
VERTEX
  5
369
  8
0
 10
62.48099899291992
 20
-69.89600372314453
 30
-6.070000171661377
 70
   192
  0
VERTEX
  5
36A
  8
0
 10
64.20999908447266
 20
-71.58999633789062
 30
-9.95300006866455
 70
   192
  0
VERTEX
  5
36B
  8
0
 10
67.76699829101562
 20
-72.26699829101562
 30
-17.94300079345703
 70
   192
  0
VERTEX
  5
36C
  8
0
 10
66.04299926757812
 20
-72.25700378417969
 30
-14.06999969482422
 70
   192
  0
VERTEX
  5
36D
  8
0
 10
63.07400131225586
 20
-73.1500015258789
 30
-10.00899982452393
 70
   192
  0
VERTEX
  5
36E
  8
0
 10
65.0510025024414
 20
-73.87100219726562
 30
-14.44999980926514
 70
   192
  0
VERTEX
  5
36F
  8
0
 10
61.20399856567383
 20
-71.31700134277344
 30
-5.808000087738037
 70
   192
  0
VERTEX
  5
370
  8
0
 10
59.72200012207031
 20
-63.85100173950195
 30
0.1280000060796738
 70
   192
  0
VERTEX
  5
371
  8
0
 10
60.96099853515625
 20
-67.28099822998047
 30
-2.654999971389771
 70
   192
  0
VERTEX
  5
372
  8
0
 10
59.79800033569336
 20
-59.1879997253418
 30
0.777999997138977
 70
   192
  0
VERTEX
  5
373
  8
0
 10
58.22000122070312
 20
-64.7699966430664
 30
0.8939999938011169
 70
   192
  0
VERTEX
  5
374
  8
0
 10
59.5620002746582
 20
-68.49299621582031
 30
-2.121999979019165
 70
   192
  0
VERTEX
  5
375
  8
0
 10
58.83000183105469
 20
-59.81499862670898
 30
2.130000114440918
 70
   192
  0
VERTEX
  5
376
  8
0
 10
59.5260009765625
 20
-72.2509994506836
 30
-6.010000228881836
 70
   192
  0
VERTEX
  5
377
  8
0
 10
61.48899841308594
 20
-74.17500305175781
 30
-10.41899967193604
 70
   192
  0
VERTEX
  5
378
  8
0
 10
65.322998046875
 20
-74.94200134277344
 30
-19.03000068664551
 70
   192
  0
VERTEX
  5
379
  8
0
 10
63.56100082397461
 20
-74.93099975585938
 30
-15.07199954986572
 70
   192
  0
VERTEX
  5
37A
  8
0
 10
56.39400100708008
 20
-65.3740005493164
 30
1.02400004863739
 70
   192
  0
VERTEX
  5
37B
  8
0
 10
57.80500030517578
 20
-69.28900146484375
 30
-2.144999980926514
 70
   192
  0
VERTEX
  5
37C
  8
0
 10
57.25199890136719
 20
-60.39199829101562
 30
3.068000078201294
 70
   192
  0
VERTEX
  5
37D
  8
0
 10
55.37599945068359
 20
-60.77199935913086
 30
3.312000036239624
 70
   192
  0
VERTEX
  5
37E
  8
0
 10
59.35599899291992
 20
-55.16400146484375
 30
1.771000027656555
 70
   192
  0
VERTEX
  5
37F
  8
0
 10
58.32799911499023
 20
7.486000061035156
 30
-3.319000005722046
 70
   192
  0
VERTEX
  5
380
  8
0
 10
58.32799911499023
 20
-25.9330005645752
 30
-3.319000005722046
 70
   192
  0
VERTEX
  5
381
  8
0
 10
59.4370002746582
 20
-54.69800186157227
 30
-1.840000033378601
 70
   192
  0
VERTEX
  5
382
  8
0
 10
58.32799911499023
 20
-42.64199829101562
 30
-3.319000005722046
 70
   192
  0
VERTEX
  5
383
  8
0
 10
58.38899993896484
 20
-54.55099868774414
 30
-3.454999923706055
 70
   192
  0
VERTEX
  5
384
  8
0
 10
58.32799911499023
 20
-50.99900054931641
 30
-3.319000005722046
 70
   192
  0
VERTEX
  5
385
  8
0
 10
59.37200164794922
 20
-42.64199829101562
 30
-1.694000005722046
 70
   192
  0
VERTEX
  5
386
  8
0
 10
59.37200164794922
 20
-50.99800109863281
 30
-1.694000005722046
 70
   192
  0
VERTEX
  5
387
  8
0
 10
59.68399810791016
 20
-42.64199829101562
 30
0.2119999974966049
 70
   192
  0
VERTEX
  5
388
  8
0
 10
59.37200164794922
 20
-25.9330005645752
 30
-1.694000005722046
 70
   192
  0
VERTEX
  5
389
  8
0
 10
59.75600051879883
 20
-54.92200088500977
 30
0.0500000007450581
 70
   192
  0
VERTEX
  5
38A
  8
0
 10
59.68399810791016
 20
-50.99700164794922
 30
0.2119999974966049
 70
   192
  0
VERTEX
  5
38B
  8
0
 10
59.2760009765625
 20
-42.64199829101562
 30
1.950000047683716
 70
   192
  0
VERTEX
  5
38C
  8
0
 10
59.2760009765625
 20
-50.99599838256836
 30
1.950000047683716
 70
   192
  0
VERTEX
  5
38D
  8
0
 10
59.68399810791016
 20
-25.9330005645752
 30
0.2119999974966049
 70
   192
  0
VERTEX
  5
38E
  8
0
 10
59.37200164794922
 20
7.486000061035156
 30
-1.694000005722046
 70
   192
  0
VERTEX
  5
38F
  8
0
 10
59.68399810791016
 20
7.486000061035156
 30
0.2119999974966049
 70
   192
  0
VERTEX
  5
390
  8
0
 10
59.2760009765625
 20
7.486000061035156
 30
1.950000047683716
 70
   192
  0
VERTEX
  5
391
  8
0
 10
59.2760009765625
 20
-25.9330005645752
 30
1.950000047683716
 70
   192
  0
VERTEX
  5
392
  8
0
 10
58.25799942016602
 20
7.486000061035156
 30
3.414999961853027
 70
   192
  0
VERTEX
  5
393
  8
0
 10
58.25799942016602
 20
-25.9330005645752
 30
3.414999961853027
 70
   192
  0
VERTEX
  5
394
  8
0
 10
56.72700119018555
 20
-55.63000106811523
 30
4.247000217437744
 70
   192
  0
VERTEX
  5
395
  8
0
 10
58.25799942016602
 20
-42.64199829101562
 30
3.414999961853027
 70
   192
  0
VERTEX
  5
396
  8
0
 10
58.34500122070312
 20
-55.40700149536133
 30
3.219000101089478
 70
   192
  0
VERTEX
  5
397
  8
0
 10
58.25799942016602
 20
-50.99599838256836
 30
3.414999961853027
 70
   192
  0
VERTEX
  5
398
  8
0
 10
56.63199996948242
 20
-42.64199829101562
 30
4.459000110626221
 70
   192
  0
VERTEX
  5
399
  8
0
 10
56.63199996948242
 20
-50.99499893188477
 30
4.459000110626221
 70
   192
  0
VERTEX
  5
39A
  8
0
 10
54.72600173950195
 20
-42.64199829101562
 30
4.770999908447266
 70
   192
  0
VERTEX
  5
39B
  8
0
 10
56.63199996948242
 20
-25.93199920654297
 30
4.459000110626221
 70
   192
  0
VERTEX
  5
39C
  8
0
 10
54.82500076293945
 20
-55.77700042724609
 30
4.548999786376953
 70
   192
  0
VERTEX
  5
39D
  8
0
 10
54.72600173950195
 20
-50.99399948120117
 30
4.770999908447266
 70
   192
  0
VERTEX
  5
39E
  8
0
 10
54.72600173950195
 20
-25.93199920654297
 30
4.770999908447266
 70
   192
  0
VERTEX
  5
39F
  8
0
 10
56.63199996948242
 20
7.486000061035156
 30
4.459000110626221
 70
   192
  0
VERTEX
  5
3A0
  8
0
 10
54.72600173950195
 20
7.486000061035156
 30
4.770999908447266
 70
   192
  0
VERTEX
  5
3A1
  8
0
 10
52.98899841308594
 20
7.486000061035156
 30
4.363999843597412
 70
   192
  0
VERTEX
  5
3A2
  8
0
 62
     9
 10
0.0
 20
0.0
 30
0.0
 70
   128
 71
     3
 72
     2
 73
     1
  0
VERTEX
  5
3A3
  8
0
 62
     9
 10
0.0
 20
0.0
 30
0.0
 70
   128
 71
     6
 72
     5
 73
     4
  0
VERTEX
  5
3A4
  8
0
 62
     9
 10
0.0
 20
0.0
 30
0.0
 70
   128
 71
     9
 72
     8
 73
     7
  0
VERTEX
  5
3A5
  8
0
 62
     9
 10
0.0
 20
0.0
 30
0.0
 70
   128
 71
    12
 72
    11
 73
    10
  0
VERTEX
  5
3A6
  8
0
 62
     9
 10
0.0
 20
0.0
 30
0.0
 70
   128
 71
    15
 72
    14
 73
    13
  0
VERTEX
  5
3A7
  8
0
 62
     9
 10
0.0
 20
0.0
 30
0.0
 70
   128
 71
    18
 72
    17
 73
    16
  0
VERTEX
  5
3A8
  8
0
 62
     9
 10
0.0
 20
0.0
 30
0.0
 70
   128
 71
    21
 72
    20
 73
    19
  0
VERTEX
  5
3A9
  8
0
 62
     9
 10
0.0
 20
0.0
 30
0.0
 70
   128
 71
    24
 72
    23
 73
    22
  0
VERTEX
  5
3AA
  8
0
 62
     9
 10
0.0
 20
0.0
 30
0.0
 70
   128
 71
    20
 72
     3
 73
    25
  0
VERTEX
  5
3AB
  8
0
 62
     9
 10
0.0
 20
0.0
 30
0.0
 70
   128
 71
    27
 72
    26
 73
    22
  0
VERTEX
  5
3AC
  8
0
 62
     9
 10
0.0
 20
0.0
 30
0.0
 70
   128
 71
    30
 72
    29
 73
    28
  0
VERTEX
  5
3AD
  8
0
 62
     9
 10
0.0
 20
0.0
 30
0.0
 70
   128
 71
    30
 72
    31
 73
     2
  0
VERTEX
  5
3AE
  8
0
 62
     9
 10
0.0
 20
0.0
 30
0.0
 70
   128
 71
    29
 72
    27
 73
    32
  0
VERTEX
  5
3AF
  8
0
 62
     9
 10
0.0
 20
0.0
 30
0.0
 70
   128
 71
    34
 72
    33
 73
    26
  0
VERTEX
  5
3B0
  8
0
 62
     9
 10
0.0
 20
0.0
 30
0.0
 70
   128
 71
    36
 72
    35
 73
    29
  0
VERTEX
  5
3B1
  8
0
 62
     9
 10
0.0
 20
0.0
 30
0.0
 70
   128
 71
    36
 72
    30
 73
     3
  0
VERTEX
  5
3B2
  8
0
 62
     9
 10
0.0
 20
0.0
 30
0.0
 70
   128
 71
    35
 72
    34
 73
    27
  0
VERTEX
  5
3B3
  8
0
 62
     9
 10
0.0
 20
0.0
 30
0.0
 70
   128
 71
    37
 72
    24
 73
    26
  0
VERTEX
  5
3B4
  8
0
 62
     9
 10
0.0
 20
0.0
 30
0.0
 70
   128
 71
    40
 72
    39
 73
    38
  0
VERTEX
  5
3B5
  8
0
 62
     9
 10
0.0
 20
0.0
 30
0.0
 70
   128
 71
    42
 72
    41
 73
    23
  0
VERTEX
  5
3B6
  8
0
 62
     9
 10
0.0
 20
0.0
 30
0.0
 70
   128
 71
    42
 72
    40
 73
    43
  0
VERTEX
  5
3B7
  8
0
 62
     9
 10
0.0
 20
0.0
 30
0.0
 70
   128
 71
    46
 72
    45
 73
    44
  0
VERTEX
  5
3B8
  8
0
 62
     9
 10
0.0
 20
0.0
 30
0.0
 70
   128
 71
    39
 72
    46
 73
    47
  0
VERTEX
  5
3B9
  8
0
 62
     9
 10
0.0
 20
0.0
 30
0.0
 70
   128
 71
    48
 72
    16
 73
    44
  0
VERTEX
  5
3BA
  8
0
 62
     9
 10
0.0
 20
0.0
 30
0.0
 70
   128
 71
    50
 72
    49
 73
    39
  0
VERTEX
  5
3BB
  8
0
 62
     9
 10
0.0
 20
0.0
 30
0.0
 70
   128
 71
    51
 72
    42
 73
    24
  0
VERTEX
  5
3BC
  8
0
 62
     9
 10
0.0
 20
0.0
 30
0.0
 70
   128
 71
    51
 72
    50
 73
    40
  0
VERTEX
  5
3BD
  8
0
 62
     9
 10
0.0
 20
0.0
 30
0.0
 70
   128
 71
    53
 72
    52
 73
    45
  0
VERTEX
  5
3BE
  8
0
 62
     9
 10
0.0
 20
0.0
 30
0.0
 70
   128
 71
    49
 72
    53
 73
    46
  0
VERTEX
  5
3BF
  8
0
 62
     9
 10
0.0
 20
0.0
 30
0.0
 70
   128
 71
    54
 72
    48
 73
    45
  0
VERTEX
  5
3C0
  8
0
 62
     9
 10
0.0
 20
0.0
 30
0.0
 70
   128
 71
    55
 72
    37
 73
    33
  0
VERTEX
  5
3C1
  8
0
 62
     9
 10
0.0
 20
0.0
 30
0.0
 70
   128
 71
    14
 72
    21
 73
    56
  0
VERTEX
  5
3C2
  8
0
 62
     9
 10
0.0
 20
0.0
 30
0.0
 70
   128
 71
    58
 72
    57
 73
    33
  0
VERTEX
  5
3C3
  8
0
 62
     9
 10
0.0
 20
0.0
 30
0.0
 70
   128
 71
    60
 72
    59
 73
    35
  0
VERTEX
  5
3C4
  8
0
 62
     9
 10
0.0
 20
0.0
 30
0.0
 70
   128
 71
    60
 72
    36
 73
    20
  0
VERTEX
  5
3C5
  8
0
 62
     9
 10
0.0
 20
0.0
 30
0.0
 70
   128
 71
    59
 72
    58
 73
    34
  0
VERTEX
  5
3C6
  8
0
 62
     9
 10
0.0
 20
0.0
 30
0.0
 70
   128
 71
    62
 72
    61
 73
    57
  0
VERTEX
  5
3C7
  8
0
 62
     9
 10
0.0
 20
0.0
 30
0.0
 70
   128
 71
    64
 72
    63
 73
    59
  0
VERTEX
  5
3C8
  8
0
 62
     9
 10
0.0
 20
0.0
 30
0.0
 70
   128
 71
    64
 72
    60
 73
    21
  0
VERTEX
  5
3C9
  8
0
 62
     9
 10
0.0
 20
0.0
 30
0.0
 70
   128
 71
    63
 72
    62
 73
    58
  0
VERTEX
  5
3CA
  8
0
 62
     9
 10
0.0
 20
0.0
 30
0.0
 70
   128
 71
    65
 72
    55
 73
    57
  0
VERTEX
  5
3CB
  8
0
 62
     9
 10
0.0
 20
0.0
 30
0.0
 70
   128
 71
    67
 72
    66
 73
    49
  0
VERTEX
  5
3CC
  8
0
 62
     9
 10
0.0
 20
0.0
 30
0.0
 70
   128
 71
    68
 72
    51
 73
    37
  0
VERTEX
  5
3CD
  8
0
 62
     9
 10
0.0
 20
0.0
 30
0.0
 70
   128
 71
    68
 72
    67
 73
    50
  0
VERTEX
  5
3CE
  8
0
 62
     9
 10
0.0
 20
0.0
 30
0.0
 70
   128
 71
    70
 72
    69
 73
    52
  0
VERTEX
  5
3CF
  8
0
 62
     9
 10
0.0
 20
0.0
 30
0.0
 70
   128
 71
    66
 72
    70
 73
    53
  0
VERTEX
  5
3D0
  8
0
 62
     9
 10
0.0
 20
0.0
 30
0.0
 70
   128
 71
    71
 72
    54
 73
    52
  0
VERTEX
  5
3D1
  8
0
 62
     9
 10
0.0
 20
0.0
 30
0.0
 70
   128
 71
    73
 72
    72
 73
    66
  0
VERTEX
  5
3D2
  8
0
 62
     9
 10
0.0
 20
0.0
 30
0.0
 70
   128
 71
    74
 72
    68
 73
    55
  0
VERTEX
  5
3D3
  8
0
 62
     9
 10
0.0
 20
0.0
 30
0.0
 70
   128
 71
    74
 72
    73
 73
    67
  0
VERTEX
  5
3D4
  8
0
 62
     9
 10
0.0
 20
0.0
 30
0.0
 70
   128
 71
    76
 72
    75
 73
    69
  0
VERTEX
  5
3D5
  8
0
 62
     9
 10
0.0
 20
0.0
 30
0.0
 70
   128
 71
    72
 72
    76
 73
    70
  0
VERTEX
  5
3D6
  8
0
 62
     9
 10
0.0
 20
0.0
 30
0.0
 70
   128
 71
    77
 72
    71
 73
    69
  0
VERTEX
  5
3D7
  8
0
 62
     9
 10
0.0
 20
0.0
 30
0.0
 70
   128
 71
    79
 72
    78
 73
    54
  0
VERTEX
  5
3D8
  8
0
 62
     9
 10
0.0
 20
0.0
 30
0.0
 70
   128
 71
    82
 72
    81
 73
    80
  0
VERTEX
  5
3D9
  8
0
 62
     9
 10
0.0
 20
0.0
 30
0.0
 70
   128
 71
    78
 72
    18
 73
    48
  0
VERTEX
  5
3DA
  8
0
 62
     9
 10
0.0
 20
0.0
 30
0.0
 70
   128
 71
    81
 72
    82
 73
    83
  0
VERTEX
  5
3DB
  8
0
 62
     9
 10
0.0
 20
0.0
 30
0.0
 70
   128
 71
    86
 72
    85
 73
    84
  0
VERTEX
  5
3DC
  8
0
 62
     9
 10
0.0
 20
0.0
 30
0.0
 70
   128
 71
    18
 72
    85
 73
    86
  0
VERTEX
  5
3DD
  8
0
 62
     9
 10
0.0
 20
0.0
 30
0.0
 70
   128
 71
    87
 72
    81
 73
    84
  0
VERTEX
  5
3DE
  8
0
 62
     9
 10
0.0
 20
0.0
 30
0.0
 70
   128
 71
    85
 72
    89
 73
    88
  0
VERTEX
  5
3DF
  8
0
 62
     9
 10
0.0
 20
0.0
 30
0.0
 70
   128
 71
    78
 72
    89
 73
    85
  0
VERTEX
  5
3E0
  8
0
 62
     9
 10
0.0
 20
0.0
 30
0.0
 70
   128
 71
    81
 72
    87
 73
    90
  0
VERTEX
  5
3E1
  8
0
 62
     9
 10
0.0
 20
0.0
 30
0.0
 70
   128
 71
    87
 72
    92
 73
    91
  0
VERTEX
  5
3E2
  8
0
 62
     9
 10
0.0
 20
0.0
 30
0.0
 70
   128
 71
    93
 72
    79
 73
    71
  0
VERTEX
  5
3E3
  8
0
 62
     9
 10
0.0
 20
0.0
 30
0.0
 70
   128
 71
    92
 72
    87
 73
    88
  0
VERTEX
  5
3E4
  8
0
 62
     9
 10
0.0
 20
0.0
 30
0.0
 70
   128
 71
    89
 72
    95
 73
    94
  0
VERTEX
  5
3E5
  8
0
 62
     9
 10
0.0
 20
0.0
 30
0.0
 70
   128
 71
    79
 72
    95
 73
    89
  0
VERTEX
  5
3E6
  8
0
 62
     9
 10
0.0
 20
0.0
 30
0.0
 70
   128
 71
    96
 72
    92
 73
    94
  0
VERTEX
  5
3E7
  8
0
 62
     9
 10
0.0
 20
0.0
 30
0.0
 70
   128
 71
    95
 72
    98
 73
    97
  0
VERTEX
  5
3E8
  8
0
 62
     9
 10
0.0
 20
0.0
 30
0.0
 70
   128
 71
    93
 72
    98
 73
    95
  0
VERTEX
  5
3E9
  8
0
 62
     9
 10
0.0
 20
0.0
 30
0.0
 70
   128
 71
    92
 72
    96
 73
    99
  0
VERTEX
  5
3EA
  8
0
 62
     9
 10
0.0
 20
0.0
 30
0.0
 70
   128
 71
   100
 72
    93
 73
    77
  0
VERTEX
  5
3EB
  8
0
 62
     9
 10
0.0
 20
0.0
 30
0.0
 70
   128
 71
   103
 72
   102
 73
   101
  0
VERTEX
  5
3EC
  8
0
 62
     9
 10
0.0
 20
0.0
 30
0.0
 70
   128
 71
   104
 72
    65
 73
    61
  0
VERTEX
  5
3ED
  8
0
 62
     9
 10
0.0
 20
0.0
 30
0.0
 70
   128
 71
   102
 72
    15
 73
   105
  0
VERTEX
  5
3EE
  8
0
 62
     9
 10
0.0
 20
0.0
 30
0.0
 70
   128
 71
   107
 72
   106
 73
    61
  0
VERTEX
  5
3EF
  8
0
 62
     9
 10
0.0
 20
0.0
 30
0.0
 70
   128
 71
   109
 72
   108
 73
    63
  0
VERTEX
  5
3F0
  8
0
 62
     9
 10
0.0
 20
0.0
 30
0.0
 70
   128
 71
   109
 72
    64
 73
    14
  0
VERTEX
  5
3F1
  8
0
 62
     9
 10
0.0
 20
0.0
 30
0.0
 70
   128
 71
   108
 72
   107
 73
    62
  0
VERTEX
  5
3F2
  8
0
 62
     9
 10
0.0
 20
0.0
 30
0.0
 70
   128
 71
   111
 72
   110
 73
   106
  0
VERTEX
  5
3F3
  8
0
 62
     9
 10
0.0
 20
0.0
 30
0.0
 70
   128
 71
   113
 72
   112
 73
   108
  0
VERTEX
  5
3F4
  8
0
 62
     9
 10
0.0
 20
0.0
 30
0.0
 70
   128
 71
   113
 72
   109
 73
    15
  0
VERTEX
  5
3F5
  8
0
 62
     9
 10
0.0
 20
0.0
 30
0.0
 70
   128
 71
   112
 72
   111
 73
   107
  0
VERTEX
  5
3F6
  8
0
 62
     9
 10
0.0
 20
0.0
 30
0.0
 70
   128
 71
   114
 72
   104
 73
   106
  0
VERTEX
  5
3F7
  8
0
 62
     9
 10
0.0
 20
0.0
 30
0.0
 70
   128
 71
   116
 72
   115
 73
    72
  0
VERTEX
  5
3F8
  8
0
 62
     9
 10
0.0
 20
0.0
 30
0.0
 70
   128
 71
   117
 72
    74
 73
    65
  0
VERTEX
  5
3F9
  8
0
 62
     9
 10
0.0
 20
0.0
 30
0.0
 70
   128
 71
   116
 72
    73
 73
    74
  0
VERTEX
  5
3FA
  8
0
 62
     9
 10
0.0
 20
0.0
 30
0.0
 70
   128
 71
   119
 72
   118
 73
    75
  0
VERTEX
  5
3FB
  8
0
 62
     9
 10
0.0
 20
0.0
 30
0.0
 70
   128
 71
   115
 72
   119
 73
    76
  0
VERTEX
  5
3FC
  8
0
 62
     9
 10
0.0
 20
0.0
 30
0.0
 70
   128
 71
   120
 72
    77
 73
    75
  0
VERTEX
  5
3FD
  8
0
 62
     9
 10
0.0
 20
0.0
 30
0.0
 70
   128
 71
   122
 72
   121
 73
   115
  0
VERTEX
  5
3FE
  8
0
 62
     9
 10
0.0
 20
0.0
 30
0.0
 70
   128
 71
   123
 72
   117
 73
   104
  0
VERTEX
  5
3FF
  8
0
 62
     9
 10
0.0
 20
0.0
 30
0.0
 70
   128
 71
   122
 72
   116
 73
   117
  0
VERTEX
  5
400
  8
0
 62
     9
 10
0.0
 20
0.0
 30
0.0
 70
   128
 71
   125
 72
   124
 73
   118
  0
VERTEX
  5
401
  8
0
 62
     9
 10
0.0
 20
0.0
 30
0.0
 70
   128
 71
   121
 72
   125
 73
   119
  0
VERTEX
  5
402
  8
0
 62
     9
 10
0.0
 20
0.0
 30
0.0
 70
   128
 71
   126
 72
   120
 73
   118
  0
VERTEX
  5
403
  8
0
 62
     9
 10
0.0
 20
0.0
 30
0.0
 70
   128
 71
   127
 72
   114
 73
   110
  0
VERTEX
  5
404
  8
0
 62
     9
 10
0.0
 20
0.0
 30
0.0
 70
   128
 71
     9
 72
   103
 73
   128
  0
VERTEX
  5
405
  8
0
 62
     9
 10
0.0
 20
0.0
 30
0.0
 70
   128
 71
   130
 72
   129
 73
   110
  0
VERTEX
  5
406
  8
0
 62
     9
 10
0.0
 20
0.0
 30
0.0
 70
   128
 71
   132
 72
   131
 73
   112
  0
VERTEX
  5
407
  8
0
 62
     9
 10
0.0
 20
0.0
 30
0.0
 70
   128
 71
   132
 72
   113
 73
   102
  0
VERTEX
  5
408
  8
0
 62
     9
 10
0.0
 20
0.0
 30
0.0
 70
   128
 71
   131
 72
   130
 73
   111
  0
VERTEX
  5
409
  8
0
 62
     9
 10
0.0
 20
0.0
 30
0.0
 70
   128
 71
   134
 72
   133
 73
   129
  0
VERTEX
  5
40A
  8
0
 62
     9
 10
0.0
 20
0.0
 30
0.0
 70
   128
 71
   136
 72
   135
 73
   131
  0
VERTEX
  5
40B
  8
0
 62
     9
 10
0.0
 20
0.0
 30
0.0
 70
   128
 71
   136
 72
   132
 73
   103
  0
VERTEX
  5
40C
  8
0
 62
     9
 10
0.0
 20
0.0
 30
0.0
 70
   128
 71
   135
 72
   134
 73
   130
  0
VERTEX
  5
40D
  8
0
 62
     9
 10
0.0
 20
0.0
 30
0.0
 70
   128
 71
   137
 72
   127
 73
   129
  0
VERTEX
  5
40E
  8
0
 62
     9
 10
0.0
 20
0.0
 30
0.0
 70
   128
 71
   139
 72
   138
 73
   121
  0
VERTEX
  5
40F
  8
0
 62
     9
 10
0.0
 20
0.0
 30
0.0
 70
   128
 71
   140
 72
   123
 73
   114
  0
VERTEX
  5
410
  8
0
 62
     9
 10
0.0
 20
0.0
 30
0.0
 70
   128
 71
   139
 72
   122
 73
   123
  0
VERTEX
  5
411
  8
0
 62
     9
 10
0.0
 20
0.0
 30
0.0
 70
   128
 71
   142
 72
   141
 73
   124
  0
VERTEX
  5
412
  8
0
 62
     9
 10
0.0
 20
0.0
 30
0.0
 70
   128
 71
   138
 72
   142
 73
   125
  0
VERTEX
  5
413
  8
0
 62
     9
 10
0.0
 20
0.0
 30
0.0
 70
   128
 71
   143
 72
   126
 73
   124
  0
VERTEX
  5
414
  8
0
 62
     9
 10
0.0
 20
0.0
 30
0.0
 70
   128
 71
   145
 72
   144
 73
   138
  0
VERTEX
  5
415
  8
0
 62
     9
 10
0.0
 20
0.0
 30
0.0
 70
   128
 71
   146
 72
   140
 73
   127
  0
VERTEX
  5
416
  8
0
 62
     9
 10
0.0
 20
0.0
 30
0.0
 70
   128
 71
   145
 72
   139
 73
   140
  0
VERTEX
  5
417
  8
0
 62
     9
 10
0.0
 20
0.0
 30
0.0
 70
   128
 71
   148
 72
   147
 73
   141
  0
VERTEX
  5
418
  8
0
 62
     9
 10
0.0
 20
0.0
 30
0.0
 70
   128
 71
   144
 72
   148
 73
   142
  0
VERTEX
  5
419
  8
0
 62
     9
 10
0.0
 20
0.0
 30
0.0
 70
   128
 71
   149
 72
   143
 73
   141
  0
VERTEX
  5
41A
  8
0
 62
     9
 10
0.0
 20
0.0
 30
0.0
 70
   128
 71
   151
 72
   150
 73
   126
  0
VERTEX
  5
41B
  8
0
 62
     9
 10
0.0
 20
0.0
 30
0.0
 70
   128
 71
    96
 72
   153
 73
   152
  0
VERTEX
  5
41C
  8
0
 62
     9
 10
0.0
 20
0.0
 30
0.0
 70
   128
 71
   150
 72
   100
 73
   120
  0
VERTEX
  5
41D
  8
0
 62
     9
 10
0.0
 20
0.0
 30
0.0
 70
   128
 71
   153
 72
    96
 73
    97
  0
VERTEX
  5
41E
  8
0
 62
     9
 10
0.0
 20
0.0
 30
0.0
 70
   128
 71
    98
 72
   155
 73
   154
  0
VERTEX
  5
41F
  8
0
 62
     9
 10
0.0
 20
0.0
 30
0.0
 70
   128
 71
   100
 72
   155
 73
    98
  0
VERTEX
  5
420
  8
0
 62
     9
 10
0.0
 20
0.0
 30
0.0
 70
   128
 71
   156
 72
   153
 73
   154
  0
VERTEX
  5
421
  8
0
 62
     9
 10
0.0
 20
0.0
 30
0.0
 70
   128
 71
   155
 72
   158
 73
   157
  0
VERTEX
  5
422
  8
0
 62
     9
 10
0.0
 20
0.0
 30
0.0
 70
   128
 71
   150
 72
   158
 73
   155
  0
VERTEX
  5
423
  8
0
 62
     9
 10
0.0
 20
0.0
 30
0.0
 70
   128
 71
   153
 72
   156
 73
   159
  0
VERTEX
  5
424
  8
0
 62
     9
 10
0.0
 20
0.0
 30
0.0
 70
   128
 71
   156
 72
   161
 73
   160
  0
VERTEX
  5
425
  8
0
 62
     9
 10
0.0
 20
0.0
 30
0.0
 70
   128
 71
   162
 72
   151
 73
   143
  0
VERTEX
  5
426
  8
0
 62
     9
 10
0.0
 20
0.0
 30
0.0
 70
   128
 71
   161
 72
   156
 73
   157
  0
VERTEX
  5
427
  8
0
 62
     9
 10
0.0
 20
0.0
 30
0.0
 70
   128
 71
   158
 72
   164
 73
   163
  0
VERTEX
  5
428
  8
0
 62
     9
 10
0.0
 20
0.0
 30
0.0
 70
   128
 71
   151
 72
   164
 73
   158
  0
VERTEX
  5
429
  8
0
 62
     9
 10
0.0
 20
0.0
 30
0.0
 70
   128
 71
   165
 72
   161
 73
   163
  0
VERTEX
  5
42A
  8
0
 62
     9
 10
0.0
 20
0.0
 30
0.0
 70
   128
 71
   164
 72
   167
 73
   166
  0
VERTEX
  5
42B
  8
0
 62
     9
 10
0.0
 20
0.0
 30
0.0
 70
   128
 71
   162
 72
   167
 73
   164
  0
VERTEX
  5
42C
  8
0
 62
     9
 10
0.0
 20
0.0
 30
0.0
 70
   128
 71
   161
 72
   165
 73
   168
  0
VERTEX
  5
42D
  8
0
 62
     9
 10
0.0
 20
0.0
 30
0.0
 70
   128
 71
   169
 72
     5
 73
     6
  0
VERTEX
  5
42E
  8
0
 62
     9
 10
0.0
 20
0.0
 30
0.0
 70
   128
 71
   172
 72
   171
 73
   170
  0
VERTEX
  5
42F
  8
0
 62
     9
 10
0.0
 20
0.0
 30
0.0
 70
   128
 71
   175
 72
   174
 73
   173
  0
VERTEX
  5
430
  8
0
 62
     9
 10
0.0
 20
0.0
 30
0.0
 70
   128
 71
   174
 72
     6
 73
   176
  0
VERTEX
  5
431
  8
0
 62
     9
 10
0.0
 20
0.0
 30
0.0
 70
   128
 71
   171
 72
   175
 73
   177
  0
VERTEX
  5
432
  8
0
 62
     9
 10
0.0
 20
0.0
 30
0.0
 70
   128
 71
   180
 72
   179
 73
   178
  0
VERTEX
  5
433
  8
0
 62
     9
 10
0.0
 20
0.0
 30
0.0
 70
   128
 71
   179
 72
   172
 73
   181
  0
VERTEX
  5
434
  8
0
 62
     9
 10
0.0
 20
0.0
 30
0.0
 70
   128
 71
    12
 72
   180
 73
   182
  0
VERTEX
  5
435
  8
0
 62
     9
 10
0.0
 20
0.0
 30
0.0
 70
   128
 71
   183
 72
   171
 73
   172
  0
VERTEX
  5
436
  8
0
 62
     9
 10
0.0
 20
0.0
 30
0.0
 70
   128
 71
   185
 72
   184
 73
   169
  0
VERTEX
  5
437
  8
0
 62
     9
 10
0.0
 20
0.0
 30
0.0
 70
   128
 71
   186
 72
   174
 73
   175
  0
VERTEX
  5
438
  8
0
 62
     9
 10
0.0
 20
0.0
 30
0.0
 70
   128
 71
   187
 72
     6
 73
   174
  0
VERTEX
  5
439
  8
0
 62
     9
 10
0.0
 20
0.0
 30
0.0
 70
   128
 71
   188
 72
   175
 73
   171
  0
VERTEX
  5
43A
  8
0
 62
     9
 10
0.0
 20
0.0
 30
0.0
 70
   128
 71
   190
 72
   189
 73
   186
  0
VERTEX
  5
43B
  8
0
 62
     9
 10
0.0
 20
0.0
 30
0.0
 70
   128
 71
   185
 72
   192
 73
   191
  0
VERTEX
  5
43C
  8
0
 62
     9
 10
0.0
 20
0.0
 30
0.0
 70
   128
 71
   189
 72
   185
 73
   187
  0
VERTEX
  5
43D
  8
0
 62
     9
 10
0.0
 20
0.0
 30
0.0
 70
   128
 71
   189
 72
   193
 73
   192
  0
VERTEX
  5
43E
  8
0
 62
     9
 10
0.0
 20
0.0
 30
0.0
 70
   128
 71
   196
 72
   195
 73
   194
  0
VERTEX
  5
43F
  8
0
 62
     9
 10
0.0
 20
0.0
 30
0.0
 70
   128
 71
   192
 72
   196
 73
   197
  0
VERTEX
  5
440
  8
0
 62
     9
 10
0.0
 20
0.0
 30
0.0
 70
   128
 71
   195
 72
    25
 73
     1
  0
VERTEX
  5
441
  8
0
 62
     9
 10
0.0
 20
0.0
 30
0.0
 70
   128
 71
   199
 72
   198
 73
   195
  0
VERTEX
  5
442
  8
0
 62
     9
 10
0.0
 20
0.0
 30
0.0
 70
   128
 71
   193
 72
   199
 73
   196
  0
VERTEX
  5
443
  8
0
 62
     9
 10
0.0
 20
0.0
 30
0.0
 70
   128
 71
   198
 72
    19
 73
    25
  0
VERTEX
  5
444
  8
0
 62
     9
 10
0.0
 20
0.0
 30
0.0
 70
   128
 71
   200
 72
   193
 73
   189
  0
VERTEX
  5
445
  8
0
 62
     9
 10
0.0
 20
0.0
 30
0.0
 70
   128
 71
   201
 72
   190
 73
   188
  0
VERTEX
  5
446
  8
0
 62
     9
 10
0.0
 20
0.0
 30
0.0
 70
   128
 71
   202
 72
   200
 73
   190
  0
VERTEX
  5
447
  8
0
 62
     9
 10
0.0
 20
0.0
 30
0.0
 70
   128
 71
   204
 72
   203
 73
   198
  0
VERTEX
  5
448
  8
0
 62
     9
 10
0.0
 20
0.0
 30
0.0
 70
   128
 71
   200
 72
   204
 73
   199
  0
VERTEX
  5
449
  8
0
 62
     9
 10
0.0
 20
0.0
 30
0.0
 70
   128
 71
   203
 72
    56
 73
    19
  0
VERTEX
  5
44A
  8
0
 62
     9
 10
0.0
 20
0.0
 30
0.0
 70
   128
 71
   206
 72
   205
 73
   203
  0
VERTEX
  5
44B
  8
0
 62
     9
 10
0.0
 20
0.0
 30
0.0
 70
   128
 71
   202
 72
   206
 73
   204
  0
VERTEX
  5
44C
  8
0
 62
     9
 10
0.0
 20
0.0
 30
0.0
 70
   128
 71
   205
 72
    13
 73
    56
  0
VERTEX
  5
44D
  8
0
 62
     9
 10
0.0
 20
0.0
 30
0.0
 70
   128
 71
   207
 72
   201
 73
   183
  0
VERTEX
  5
44E
  8
0
 62
     9
 10
0.0
 20
0.0
 30
0.0
 70
   128
 71
   208
 72
   179
 73
   180
  0
VERTEX
  5
44F
  8
0
 62
     9
 10
0.0
 20
0.0
 30
0.0
 70
   128
 71
   209
 72
   172
 73
   179
  0
VERTEX
  5
450
  8
0
 62
     9
 10
0.0
 20
0.0
 30
0.0
 70
   128
 71
   210
 72
   180
 73
    12
  0
VERTEX
  5
451
  8
0
 62
     9
 10
0.0
 20
0.0
 30
0.0
 70
   128
 71
   212
 72
   211
 73
   208
  0
VERTEX
  5
452
  8
0
 62
     9
 10
0.0
 20
0.0
 30
0.0
 70
   128
 71
   213
 72
   202
 73
   201
  0
VERTEX
  5
453
  8
0
 62
     9
 10
0.0
 20
0.0
 30
0.0
 70
   128
 71
   211
 72
   207
 73
   209
  0
VERTEX
  5
454
  8
0
 62
     9
 10
0.0
 20
0.0
 30
0.0
 70
   128
 71
   214
 72
   213
 73
   207
  0
VERTEX
  5
455
  8
0
 62
     9
 10
0.0
 20
0.0
 30
0.0
 70
   128
 71
   216
 72
   215
 73
   205
  0
VERTEX
  5
456
  8
0
 62
     9
 10
0.0
 20
0.0
 30
0.0
 70
   128
 71
   213
 72
   216
 73
   206
  0
VERTEX
  5
457
  8
0
 62
     9
 10
0.0
 20
0.0
 30
0.0
 70
   128
 71
   215
 72
   105
 73
    13
  0
VERTEX
  5
458
  8
0
 62
     9
 10
0.0
 20
0.0
 30
0.0
 70
   128
 71
   218
 72
   217
 73
   215
  0
VERTEX
  5
459
  8
0
 62
     9
 10
0.0
 20
0.0
 30
0.0
 70
   128
 71
   214
 72
   218
 73
   216
  0
VERTEX
  5
45A
  8
0
 62
     9
 10
0.0
 20
0.0
 30
0.0
 70
   128
 71
   217
 72
   101
 73
   105
  0
VERTEX
  5
45B
  8
0
 62
     9
 10
0.0
 20
0.0
 30
0.0
 70
   128
 71
   219
 72
   214
 73
   211
  0
VERTEX
  5
45C
  8
0
 62
     9
 10
0.0
 20
0.0
 30
0.0
 70
   128
 71
   220
 72
   212
 73
   210
  0
VERTEX
  5
45D
  8
0
 62
     9
 10
0.0
 20
0.0
 30
0.0
 70
   128
 71
   221
 72
   219
 73
   212
  0
VERTEX
  5
45E
  8
0
 62
     9
 10
0.0
 20
0.0
 30
0.0
 70
   128
 71
   223
 72
   222
 73
   217
  0
VERTEX
  5
45F
  8
0
 62
     9
 10
0.0
 20
0.0
 30
0.0
 70
   128
 71
   219
 72
   223
 73
   218
  0
VERTEX
  5
460
  8
0
 62
     9
 10
0.0
 20
0.0
 30
0.0
 70
   128
 71
   222
 72
   128
 73
   101
  0
VERTEX
  5
461
  8
0
 62
     9
 10
0.0
 20
0.0
 30
0.0
 70
   128
 71
   225
 72
   224
 73
   222
  0
VERTEX
  5
462
  8
0
 62
     9
 10
0.0
 20
0.0
 30
0.0
 70
   128
 71
   221
 72
   225
 73
   223
  0
VERTEX
  5
463
  8
0
 62
     9
 10
0.0
 20
0.0
 30
0.0
 70
   128
 71
   224
 72
     8
 73
   128
  0
VERTEX
  5
464
  8
0
 62
     9
 10
0.0
 20
0.0
 30
0.0
 70
   128
 71
   228
 72
   227
 73
   226
  0
VERTEX
  5
465
  8
0
 62
     9
 10
0.0
 20
0.0
 30
0.0
 70
   128
 71
   230
 72
   229
 73
    12
  0
VERTEX
  5
466
  8
0
 62
     9
 10
0.0
 20
0.0
 30
0.0
 70
   128
 71
   233
 72
   232
 73
   231
  0
VERTEX
  5
467
  8
0
 62
     9
 10
0.0
 20
0.0
 30
0.0
 70
   128
 71
   234
 72
    10
 73
   232
  0
VERTEX
  5
468
  8
0
 62
     9
 10
0.0
 20
0.0
 30
0.0
 70
   128
 71
   235
 72
   231
 73
   227
  0
VERTEX
  5
469
  8
0
 62
     9
 10
0.0
 20
0.0
 30
0.0
 70
   128
 71
   237
 72
   236
 73
   233
  0
VERTEX
  5
46A
  8
0
 62
     9
 10
0.0
 20
0.0
 30
0.0
 70
   128
 71
   220
 72
   229
 73
   230
  0
VERTEX
  5
46B
  8
0
 62
     9
 10
0.0
 20
0.0
 30
0.0
 70
   128
 71
   236
 72
   230
 73
   234
  0
VERTEX
  5
46C
  8
0
 62
     9
 10
0.0
 20
0.0
 30
0.0
 70
   128
 71
   238
 72
   230
 73
   236
  0
VERTEX
  5
46D
  8
0
 62
     9
 10
0.0
 20
0.0
 30
0.0
 70
   128
 71
   221
 72
   220
 73
   238
  0
VERTEX
  5
46E
  8
0
 62
     9
 10
0.0
 20
0.0
 30
0.0
 70
   128
 71
   225
 72
   240
 73
   239
  0
VERTEX
  5
46F
  8
0
 62
     9
 10
0.0
 20
0.0
 30
0.0
 70
   128
 71
   221
 72
   241
 73
   240
  0
VERTEX
  5
470
  8
0
 62
     9
 10
0.0
 20
0.0
 30
0.0
 70
   128
 71
   224
 72
   239
 73
     7
  0
VERTEX
  5
471
  8
0
 62
     9
 10
0.0
 20
0.0
 30
0.0
 70
   128
 71
   241
 72
   238
 73
   242
  0
VERTEX
  5
472
  8
0
 62
     9
 10
0.0
 20
0.0
 30
0.0
 70
   128
 71
   240
 72
   244
 73
   243
  0
VERTEX
  5
473
  8
0
 62
     9
 10
0.0
 20
0.0
 30
0.0
 70
   128
 71
   241
 72
   245
 73
   244
  0
VERTEX
  5
474
  8
0
 62
     9
 10
0.0
 20
0.0
 30
0.0
 70
   128
 71
   239
 72
   243
 73
   246
  0
VERTEX
  5
475
  8
0
 62
     9
 10
0.0
 20
0.0
 30
0.0
 70
   128
 71
   242
 72
   236
 73
   237
  0
VERTEX
  5
476
  8
0
 62
     9
 10
0.0
 20
0.0
 30
0.0
 70
   128
 71
   247
 72
   237
 73
   235
  0
VERTEX
  5
477
  8
0
 62
     9
 10
0.0
 20
0.0
 30
0.0
 70
   128
 71
   248
 72
   237
 73
   247
  0
VERTEX
  5
478
  8
0
 62
     9
 10
0.0
 20
0.0
 30
0.0
 70
   128
 71
   245
 72
   242
 73
   248
  0
VERTEX
  5
479
  8
0
 62
     9
 10
0.0
 20
0.0
 30
0.0
 70
   128
 71
   244
 72
   250
 73
   249
  0
VERTEX
  5
47A
  8
0
 62
     9
 10
0.0
 20
0.0
 30
0.0
 70
   128
 71
   245
 72
   251
 73
   250
  0
VERTEX
  5
47B
  8
0
 62
     9
 10
0.0
 20
0.0
 30
0.0
 70
   128
 71
   243
 72
   249
 73
   252
  0
VERTEX
  5
47C
  8
0
 62
     9
 10
0.0
 20
0.0
 30
0.0
 70
   128
 71
   251
 72
   248
 73
   253
  0
VERTEX
  5
47D
  8
0
 62
     9
 10
0.0
 20
0.0
 30
0.0
 70
   128
 71
   250
 72
   255
 73
   254
  0
VERTEX
  5
47E
  8
0
 62
     9
 10
0.0
 20
0.0
 30
0.0
 70
   128
 71
   251
 72
   256
 73
   255
  0
VERTEX
  5
47F
  8
0
 62
     9
 10
0.0
 20
0.0
 30
0.0
 70
   128
 71
   249
 72
   254
 73
   257
  0
VERTEX
  5
480
  8
0
 62
     9
 10
0.0
 20
0.0
 30
0.0
 70
   128
 71
   258
 72
   247
 73
   228
  0
VERTEX
  5
481
  8
0
 62
     9
 10
0.0
 20
0.0
 30
0.0
 70
   128
 71
   261
 72
   260
 73
   259
  0
VERTEX
  5
482
  8
0
 62
     9
 10
0.0
 20
0.0
 30
0.0
 70
   128
 71
   262
 72
   226
 73
   260
  0
VERTEX
  5
483
  8
0
 62
     9
 10
0.0
 20
0.0
 30
0.0
 70
   128
 71
   263
 72
   259
 73
     4
  0
VERTEX
  5
484
  8
0
 62
     9
 10
0.0
 20
0.0
 30
0.0
 70
   128
 71
   265
 72
   264
 73
   261
  0
VERTEX
  5
485
  8
0
 62
     9
 10
0.0
 20
0.0
 30
0.0
 70
   128
 71
   253
 72
   247
 73
   258
  0
VERTEX
  5
486
  8
0
 62
     9
 10
0.0
 20
0.0
 30
0.0
 70
   128
 71
   264
 72
   258
 73
   262
  0
VERTEX
  5
487
  8
0
 62
     9
 10
0.0
 20
0.0
 30
0.0
 70
   128
 71
   266
 72
   258
 73
   264
  0
VERTEX
  5
488
  8
0
 62
     9
 10
0.0
 20
0.0
 30
0.0
 70
   128
 71
   256
 72
   253
 73
   266
  0
VERTEX
  5
489
  8
0
 62
     9
 10
0.0
 20
0.0
 30
0.0
 70
   128
 71
   255
 72
   268
 73
   267
  0
VERTEX
  5
48A
  8
0
 62
     9
 10
0.0
 20
0.0
 30
0.0
 70
   128
 71
   256
 72
   269
 73
   268
  0
VERTEX
  5
48B
  8
0
 62
     9
 10
0.0
 20
0.0
 30
0.0
 70
   128
 71
   254
 72
   267
 73
   270
  0
VERTEX
  5
48C
  8
0
 62
     9
 10
0.0
 20
0.0
 30
0.0
 70
   128
 71
   269
 72
   266
 73
   271
  0
VERTEX
  5
48D
  8
0
 62
     9
 10
0.0
 20
0.0
 30
0.0
 70
   128
 71
   268
 72
   273
 73
   272
  0
VERTEX
  5
48E
  8
0
 62
     9
 10
0.0
 20
0.0
 30
0.0
 70
   128
 71
   269
 72
   274
 73
   273
  0
VERTEX
  5
48F
  8
0
 62
     9
 10
0.0
 20
0.0
 30
0.0
 70
   128
 71
   267
 72
   272
 73
   275
  0
VERTEX
  5
490
  8
0
 62
     9
 10
0.0
 20
0.0
 30
0.0
 70
   128
 71
   271
 72
   264
 73
   265
  0
VERTEX
  5
491
  8
0
 62
     9
 10
0.0
 20
0.0
 30
0.0
 70
   128
 71
   169
 72
   265
 73
   263
  0
VERTEX
  5
492
  8
0
 62
     9
 10
0.0
 20
0.0
 30
0.0
 70
   128
 71
   276
 72
   265
 73
   169
  0
VERTEX
  5
493
  8
0
 62
     9
 10
0.0
 20
0.0
 30
0.0
 70
   128
 71
   271
 72
   276
 73
   277
  0
VERTEX
  5
494
  8
0
 62
     9
 10
0.0
 20
0.0
 30
0.0
 70
   128
 71
   273
 72
   279
 73
   278
  0
VERTEX
  5
495
  8
0
 62
     9
 10
0.0
 20
0.0
 30
0.0
 70
   128
 71
   274
 72
   277
 73
   279
  0
VERTEX
  5
496
  8
0
 62
     9
 10
0.0
 20
0.0
 30
0.0
 70
   128
 71
   272
 72
   278
 73
   280
  0
VERTEX
  5
497
  8
0
 62
     9
 10
0.0
 20
0.0
 30
0.0
 70
   128
 71
   276
 72
   184
 73
   191
  0
VERTEX
  5
498
  8
0
 62
     9
 10
0.0
 20
0.0
 30
0.0
 70
   128
 71
   279
 72
   197
 73
   194
  0
VERTEX
  5
499
  8
0
 62
     9
 10
0.0
 20
0.0
 30
0.0
 70
   128
 71
   277
 72
   191
 73
   197
  0
VERTEX
  5
49A
  8
0
 62
     9
 10
0.0
 20
0.0
 30
0.0
 70
   128
 71
   278
 72
   194
 73
     1
  0
VERTEX
  5
49B
  8
0
 62
     9
 10
0.0
 20
0.0
 30
0.0
 70
   128
 71
   162
 72
   149
 73
   281
  0
VERTEX
  5
49C
  8
0
 62
     9
 10
0.0
 20
0.0
 30
0.0
 70
   128
 71
   282
 72
   257
 73
   270
  0
VERTEX
  5
49D
  8
0
 62
     9
 10
0.0
 20
0.0
 30
0.0
 70
   128
 71
   137
 72
   133
 73
   283
  0
VERTEX
  5
49E
  8
0
 62
     9
 10
0.0
 20
0.0
 30
0.0
 70
   128
 71
   284
 72
   246
 73
   252
  0
VERTEX
  5
49F
  8
0
 62
     9
 10
0.0
 20
0.0
 30
0.0
 70
   128
 71
   134
 72
   285
 73
   283
  0
VERTEX
  5
4A0
  8
0
 62
     9
 10
0.0
 20
0.0
 30
0.0
 70
   128
 71
   286
 72
     7
 73
   246
  0
VERTEX
  5
4A1
  8
0
 62
     9
 10
0.0
 20
0.0
 30
0.0
 70
   128
 71
   136
 72
   288
 73
   287
  0
VERTEX
  5
4A2
  8
0
 62
     9
 10
0.0
 20
0.0
 30
0.0
 70
   128
 71
   136
 72
     9
 73
   286
  0
VERTEX
  5
4A3
  8
0
 62
     9
 10
0.0
 20
0.0
 30
0.0
 70
   128
 71
   135
 72
   287
 73
   285
  0
VERTEX
  5
4A4
  8
0
 62
     9
 10
0.0
 20
0.0
 30
0.0
 70
   128
 71
   288
 72
   290
 73
   289
  0
VERTEX
  5
4A5
  8
0
 62
     9
 10
0.0
 20
0.0
 30
0.0
 70
   128
 71
   288
 72
   286
 73
   284
  0
VERTEX
  5
4A6
  8
0
 62
     9
 10
0.0
 20
0.0
 30
0.0
 70
   128
 71
   287
 72
   289
 73
   291
  0
VERTEX
  5
4A7
  8
0
 62
     9
 10
0.0
 20
0.0
 30
0.0
 70
   128
 71
   285
 72
   291
 73
   292
  0
VERTEX
  5
4A8
  8
0
 62
     9
 10
0.0
 20
0.0
 30
0.0
 70
   128
 71
   291
 72
   294
 73
   293
  0
VERTEX
  5
4A9
  8
0
 62
     9
 10
0.0
 20
0.0
 30
0.0
 70
   128
 71
   295
 72
   252
 73
   257
  0
VERTEX
  5
4AA
  8
0
 62
     9
 10
0.0
 20
0.0
 30
0.0
 70
   128
 71
   290
 72
   297
 73
   296
  0
VERTEX
  5
4AB
  8
0
 62
     9
 10
0.0
 20
0.0
 30
0.0
 70
   128
 71
   290
 72
   284
 73
   295
  0
VERTEX
  5
4AC
  8
0
 62
     9
 10
0.0
 20
0.0
 30
0.0
 70
   128
 71
   289
 72
   296
 73
   294
  0
VERTEX
  5
4AD
  8
0
 62
     9
 10
0.0
 20
0.0
 30
0.0
 70
   128
 71
   297
 72
   299
 73
   298
  0
VERTEX
  5
4AE
  8
0
 62
     9
 10
0.0
 20
0.0
 30
0.0
 70
   128
 71
   297
 72
   295
 73
   282
  0
VERTEX
  5
4AF
  8
0
 62
     9
 10
0.0
 20
0.0
 30
0.0
 70
   128
 71
   296
 72
   298
 73
   300
  0
VERTEX
  5
4B0
  8
0
 62
     9
 10
0.0
 20
0.0
 30
0.0
 70
   128
 71
   294
 72
   300
 73
   301
  0
VERTEX
  5
4B1
  8
0
 62
     9
 10
0.0
 20
0.0
 30
0.0
 70
   128
 71
   302
 72
   292
 73
   293
  0
VERTEX
  5
4B2
  8
0
 62
     9
 10
0.0
 20
0.0
 30
0.0
 70
   128
 71
   145
 72
   304
 73
   303
  0
VERTEX
  5
4B3
  8
0
 62
     9
 10
0.0
 20
0.0
 30
0.0
 70
   128
 71
   305
 72
   283
 73
   292
  0
VERTEX
  5
4B4
  8
0
 62
     9
 10
0.0
 20
0.0
 30
0.0
 70
   128
 71
   146
 72
   137
 73
   305
  0
VERTEX
  5
4B5
  8
0
 62
     9
 10
0.0
 20
0.0
 30
0.0
 70
   128
 71
   145
 72
   146
 73
   306
  0
VERTEX
  5
4B6
  8
0
 62
     9
 10
0.0
 20
0.0
 30
0.0
 70
   128
 71
   306
 72
   305
 73
   302
  0
VERTEX
  5
4B7
  8
0
 62
     9
 10
0.0
 20
0.0
 30
0.0
 70
   128
 71
   304
 72
   306
 73
   307
  0
VERTEX
  5
4B8
  8
0
 62
     9
 10
0.0
 20
0.0
 30
0.0
 70
   128
 71
   304
 72
   309
 73
   308
  0
VERTEX
  5
4B9
  8
0
 62
     9
 10
0.0
 20
0.0
 30
0.0
 70
   128
 71
   148
 72
   311
 73
   310
  0
VERTEX
  5
4BA
  8
0
 62
     9
 10
0.0
 20
0.0
 30
0.0
 70
   128
 71
   144
 72
   303
 73
   311
  0
VERTEX
  5
4BB
  8
0
 62
     9
 10
0.0
 20
0.0
 30
0.0
 70
   128
 71
   149
 72
   147
 73
   310
  0
VERTEX
  5
4BC
  8
0
 62
     9
 10
0.0
 20
0.0
 30
0.0
 70
   128
 71
   311
 72
   313
 73
   312
  0
VERTEX
  5
4BD
  8
0
 62
     9
 10
0.0
 20
0.0
 30
0.0
 70
   128
 71
   303
 72
   308
 73
   313
  0
VERTEX
  5
4BE
  8
0
 62
     9
 10
0.0
 20
0.0
 30
0.0
 70
   128
 71
   281
 72
   310
 73
   312
  0
VERTEX
  5
4BF
  8
0
 62
     9
 10
0.0
 20
0.0
 30
0.0
 70
   128
 71
   309
 72
   315
 73
   314
  0
VERTEX
  5
4C0
  8
0
 62
     9
 10
0.0
 20
0.0
 30
0.0
 70
   128
 71
   316
 72
   293
 73
   301
  0
VERTEX
  5
4C1
  8
0
 62
     9
 10
0.0
 20
0.0
 30
0.0
 70
   128
 71
   307
 72
   302
 73
   316
  0
VERTEX
  5
4C2
  8
0
 62
     9
 10
0.0
 20
0.0
 30
0.0
 70
   128
 71
   309
 72
   307
 73
   317
  0
VERTEX
  5
4C3
  8
0
 62
     9
 10
0.0
 20
0.0
 30
0.0
 70
   128
 71
   317
 72
   316
 73
   318
  0
VERTEX
  5
4C4
  8
0
 62
     9
 10
0.0
 20
0.0
 30
0.0
 70
   128
 71
   315
 72
   317
 73
   319
  0
VERTEX
  5
4C5
  8
0
 62
     9
 10
0.0
 20
0.0
 30
0.0
 70
   128
 71
   315
 72
   321
 73
   320
  0
VERTEX
  5
4C6
  8
0
 62
     9
 10
0.0
 20
0.0
 30
0.0
 70
   128
 71
   313
 72
   323
 73
   322
  0
VERTEX
  5
4C7
  8
0
 62
     9
 10
0.0
 20
0.0
 30
0.0
 70
   128
 71
   308
 72
   314
 73
   323
  0
VERTEX
  5
4C8
  8
0
 62
     9
 10
0.0
 20
0.0
 30
0.0
 70
   128
 71
   324
 72
   312
 73
   322
  0
VERTEX
  5
4C9
  8
0
 62
     9
 10
0.0
 20
0.0
 30
0.0
 70
   128
 71
   323
 72
   326
 73
   325
  0
VERTEX
  5
4CA
  8
0
 62
     9
 10
0.0
 20
0.0
 30
0.0
 70
   128
 71
   314
 72
   320
 73
   326
  0
VERTEX
  5
4CB
  8
0
 62
     9
 10
0.0
 20
0.0
 30
0.0
 70
   128
 71
   327
 72
   322
 73
   325
  0
VERTEX
  5
4CC
  8
0
 62
     9
 10
0.0
 20
0.0
 30
0.0
 70
   128
 71
   318
 72
   301
 73
   328
  0
VERTEX
  5
4CD
  8
0
 62
     9
 10
0.0
 20
0.0
 30
0.0
 70
   128
 71
   329
 72
   275
 73
   280
  0
VERTEX
  5
4CE
  8
0
 62
     9
 10
0.0
 20
0.0
 30
0.0
 70
   128
 71
   300
 72
   330
 73
   328
  0
VERTEX
  5
4CF
  8
0
 62
     9
 10
0.0
 20
0.0
 30
0.0
 70
   128
 71
   331
 72
   270
 73
   275
  0
VERTEX
  5
4D0
  8
0
 62
     9
 10
0.0
 20
0.0
 30
0.0
 70
   128
 71
   299
 72
   333
 73
   332
  0
VERTEX
  5
4D1
  8
0
 62
     9
 10
0.0
 20
0.0
 30
0.0
 70
   128
 71
   299
 72
   282
 73
   331
  0
VERTEX
  5
4D2
  8
0
 62
     9
 10
0.0
 20
0.0
 30
0.0
 70
   128
 71
   298
 72
   332
 73
   330
  0
VERTEX
  5
4D3
  8
0
 62
     9
 10
0.0
 20
0.0
 30
0.0
 70
   128
 71
   333
 72
   335
 73
   334
  0
VERTEX
  5
4D4
  8
0
 62
     9
 10
0.0
 20
0.0
 30
0.0
 70
   128
 71
   333
 72
   331
 73
   329
  0
VERTEX
  5
4D5
  8
0
 62
     9
 10
0.0
 20
0.0
 30
0.0
 70
   128
 71
   332
 72
   334
 73
   336
  0
VERTEX
  5
4D6
  8
0
 62
     9
 10
0.0
 20
0.0
 30
0.0
 70
   128
 71
   330
 72
   336
 73
   337
  0
VERTEX
  5
4D7
  8
0
 62
     9
 10
0.0
 20
0.0
 30
0.0
 70
   128
 71
   336
 72
   339
 73
   338
  0
VERTEX
  5
4D8
  8
0
 62
     9
 10
0.0
 20
0.0
 30
0.0
 70
   128
 71
   340
 72
   280
 73
     1
  0
VERTEX
  5
4D9
  8
0
 62
     9
 10
0.0
 20
0.0
 30
0.0
 70
   128
 71
   335
 72
   342
 73
   341
  0
VERTEX
  5
4DA
  8
0
 62
     9
 10
0.0
 20
0.0
 30
0.0
 70
   128
 71
   335
 72
   329
 73
   340
  0
VERTEX
  5
4DB
  8
0
 62
     9
 10
0.0
 20
0.0
 30
0.0
 70
   128
 71
   334
 72
   341
 73
   339
  0
VERTEX
  5
4DC
  8
0
 62
     9
 10
0.0
 20
0.0
 30
0.0
 70
   128
 71
   342
 72
    31
 73
    28
  0
VERTEX
  5
4DD
  8
0
 62
     9
 10
0.0
 20
0.0
 30
0.0
 70
   128
 71
   342
 72
   340
 73
     2
  0
VERTEX
  5
4DE
  8
0
 62
     9
 10
0.0
 20
0.0
 30
0.0
 70
   128
 71
   341
 72
    28
 73
    32
  0
VERTEX
  5
4DF
  8
0
 62
     9
 10
0.0
 20
0.0
 30
0.0
 70
   128
 71
   339
 72
    32
 73
    22
  0
VERTEX
  5
4E0
  8
0
 62
     9
 10
0.0
 20
0.0
 30
0.0
 70
   128
 71
   343
 72
   337
 73
   338
  0
VERTEX
  5
4E1
  8
0
 62
     9
 10
0.0
 20
0.0
 30
0.0
 70
   128
 71
   321
 72
   345
 73
   344
  0
VERTEX
  5
4E2
  8
0
 62
     9
 10
0.0
 20
0.0
 30
0.0
 70
   128
 71
   346
 72
   328
 73
   337
  0
VERTEX
  5
4E3
  8
0
 62
     9
 10
0.0
 20
0.0
 30
0.0
 70
   128
 71
   319
 72
   318
 73
   346
  0
VERTEX
  5
4E4
  8
0
 62
     9
 10
0.0
 20
0.0
 30
0.0
 70
   128
 71
   319
 72
   347
 73
   345
  0
VERTEX
  5
4E5
  8
0
 62
     9
 10
0.0
 20
0.0
 30
0.0
 70
   128
 71
   347
 72
   346
 73
   343
  0
VERTEX
  5
4E6
  8
0
 62
     9
 10
0.0
 20
0.0
 30
0.0
 70
   128
 71
   347
 72
   349
 73
   348
  0
VERTEX
  5
4E7
  8
0
 62
     9
 10
0.0
 20
0.0
 30
0.0
 70
   128
 71
   345
 72
   348
 73
   350
  0
VERTEX
  5
4E8
  8
0
 62
     9
 10
0.0
 20
0.0
 30
0.0
 70
   128
 71
   326
 72
   352
 73
   351
  0
VERTEX
  5
4E9
  8
0
 62
     9
 10
0.0
 20
0.0
 30
0.0
 70
   128
 71
   320
 72
   344
 73
   352
  0
VERTEX
  5
4EA
  8
0
 62
     9
 10
0.0
 20
0.0
 30
0.0
 70
   128
 71
   353
 72
   325
 73
   351
  0
VERTEX
  5
4EB
  8
0
 62
     9
 10
0.0
 20
0.0
 30
0.0
 70
   128
 71
   352
 72
   355
 73
   354
  0
VERTEX
  5
4EC
  8
0
 62
     9
 10
0.0
 20
0.0
 30
0.0
 70
   128
 71
   344
 72
   350
 73
   355
  0
VERTEX
  5
4ED
  8
0
 62
     9
 10
0.0
 20
0.0
 30
0.0
 70
   128
 71
   356
 72
   351
 73
   354
  0
VERTEX
  5
4EE
  8
0
 62
     9
 10
0.0
 20
0.0
 30
0.0
 70
   128
 71
   348
 72
   358
 73
   357
  0
VERTEX
  5
4EF
  8
0
 62
     9
 10
0.0
 20
0.0
 30
0.0
 70
   128
 71
   359
 72
   338
 73
    22
  0
VERTEX
  5
4F0
  8
0
 62
     9
 10
0.0
 20
0.0
 30
0.0
 70
   128
 71
   349
 72
   343
 73
   359
  0
VERTEX
  5
4F1
  8
0
 62
     9
 10
0.0
 20
0.0
 30
0.0
 70
   128
 71
   349
 72
   360
 73
   358
  0
VERTEX
  5
4F2
  8
0
 62
     9
 10
0.0
 20
0.0
 30
0.0
 70
   128
 71
   360
 72
   359
 73
    23
  0
VERTEX
  5
4F3
  8
0
 62
     9
 10
0.0
 20
0.0
 30
0.0
 70
   128
 71
   360
 72
    41
 73
    43
  0
VERTEX
  5
4F4
  8
0
 62
     9
 10
0.0
 20
0.0
 30
0.0
 70
   128
 71
   358
 72
    43
 73
    38
  0
VERTEX
  5
4F5
  8
0
 62
     9
 10
0.0
 20
0.0
 30
0.0
 70
   128
 71
   355
 72
   362
 73
   361
  0
VERTEX
  5
4F6
  8
0
 62
     9
 10
0.0
 20
0.0
 30
0.0
 70
   128
 71
   350
 72
   357
 73
   362
  0
VERTEX
  5
4F7
  8
0
 62
     9
 10
0.0
 20
0.0
 30
0.0
 70
   128
 71
   363
 72
   354
 73
   361
  0
VERTEX
  5
4F8
  8
0
 62
     9
 10
0.0
 20
0.0
 30
0.0
 70
   128
 71
   362
 72
    47
 73
    44
  0
VERTEX
  5
4F9
  8
0
 62
     9
 10
0.0
 20
0.0
 30
0.0
 70
   128
 71
   357
 72
    38
 73
    47
  0
VERTEX
  5
4FA
  8
0
 62
     9
 10
0.0
 20
0.0
 30
0.0
 70
   128
 71
   364
 72
   361
 73
    44
  0
VERTEX
  5
4FB
  8
0
 62
     9
 10
0.0
 20
0.0
 30
0.0
 70
   128
 71
   365
 72
   353
 73
   356
  0
VERTEX
  5
4FC
  8
0
 62
     9
 10
0.0
 20
0.0
 30
0.0
 70
   128
 71
   367
 72
   366
 73
   168
  0
VERTEX
  5
4FD
  8
0
 62
     9
 10
0.0
 20
0.0
 30
0.0
 70
   128
 71
   368
 72
   324
 73
   327
  0
VERTEX
  5
4FE
  8
0
 62
     9
 10
0.0
 20
0.0
 30
0.0
 70
   128
 71
   165
 72
   166
 73
   369
  0
VERTEX
  5
4FF
  8
0
 62
     9
 10
0.0
 20
0.0
 30
0.0
 70
   128
 71
   370
 72
   281
 73
   324
  0
VERTEX
  5
500
  8
0
 62
     9
 10
0.0
 20
0.0
 30
0.0
 70
   128
 71
   371
 72
   369
 73
   166
  0
VERTEX
  5
501
  8
0
 62
     9
 10
0.0
 20
0.0
 30
0.0
 70
   128
 71
   162
 72
   370
 73
   371
  0
VERTEX
  5
502
  8
0
 62
     9
 10
0.0
 20
0.0
 30
0.0
 70
   128
 71
   373
 72
   372
 73
   369
  0
VERTEX
  5
503
  8
0
 62
     9
 10
0.0
 20
0.0
 30
0.0
 70
   128
 71
   370
 72
   368
 73
   373
  0
VERTEX
  5
504
  8
0
 62
     9
 10
0.0
 20
0.0
 30
0.0
 70
   128
 71
   367
 72
   369
 73
   372
  0
VERTEX
  5
505
  8
0
 62
     9
 10
0.0
 20
0.0
 30
0.0
 70
   128
 71
   375
 72
   372
 73
   374
  0
VERTEX
  5
506
  8
0
 62
     9
 10
0.0
 20
0.0
 30
0.0
 70
   128
 71
   376
 72
   327
 73
   353
  0
VERTEX
  5
507
  8
0
 62
     9
 10
0.0
 20
0.0
 30
0.0
 70
   128
 71
   377
 72
   374
 73
   372
  0
VERTEX
  5
508
  8
0
 62
     9
 10
0.0
 20
0.0
 30
0.0
 70
   128
 71
   368
 72
   376
 73
   377
  0
VERTEX
  5
509
  8
0
 62
     9
 10
0.0
 20
0.0
 30
0.0
 70
   128
 71
   379
 72
   378
 73
   374
  0
VERTEX
  5
50A
  8
0
 62
     9
 10
0.0
 20
0.0
 30
0.0
 70
   128
 71
   376
 72
   365
 73
   379
  0
VERTEX
  5
50B
  8
0
 62
     9
 10
0.0
 20
0.0
 30
0.0
 70
   128
 71
   380
 72
   374
 73
   378
  0
VERTEX
  5
50C
  8
0
 62
     9
 10
0.0
 20
0.0
 30
0.0
 70
   128
 71
   380
 72
   382
 73
   381
  0
VERTEX
  5
50D
  8
0
 62
     9
 10
0.0
 20
0.0
 30
0.0
 70
   128
 71
   375
 72
   381
 73
   366
  0
VERTEX
  5
50E
  8
0
 62
     9
 10
0.0
 20
0.0
 30
0.0
 70
   128
 71
   384
 72
   383
 73
   382
  0
VERTEX
  5
50F
  8
0
 62
     9
 10
0.0
 20
0.0
 30
0.0
 70
   128
 71
   386
 72
   385
 73
   383
  0
VERTEX
  5
510
  8
0
 62
     9
 10
0.0
 20
0.0
 30
0.0
 70
   128
 71
   387
 72
   363
 73
   364
  0
VERTEX
  5
511
  8
0
 62
     9
 10
0.0
 20
0.0
 30
0.0
 70
   128
 71
   384
 72
   378
 73
   388
  0
VERTEX
  5
512
  8
0
 62
     9
 10
0.0
 20
0.0
 30
0.0
 70
   128
 71
   389
 72
   356
 73
   363
  0
VERTEX
  5
513
  8
0
 62
     9
 10
0.0
 20
0.0
 30
0.0
 70
   128
 71
   390
 72
   388
 73
   378
  0
VERTEX
  5
514
  8
0
 62
     9
 10
0.0
 20
0.0
 30
0.0
 70
   128
 71
   365
 72
   389
 73
   390
  0
VERTEX
  5
515
  8
0
 62
     9
 10
0.0
 20
0.0
 30
0.0
 70
   128
 71
   392
 72
   391
 73
   388
  0
VERTEX
  5
516
  8
0
 62
     9
 10
0.0
 20
0.0
 30
0.0
 70
   128
 71
   389
 72
   387
 73
   392
  0
VERTEX
  5
517
  8
0
 62
     9
 10
0.0
 20
0.0
 30
0.0
 70
   128
 71
   386
 72
   388
 73
   391
  0
VERTEX
  5
518
  8
0
 62
     9
 10
0.0
 20
0.0
 30
0.0
 70
   128
 71
   394
 72
   391
 73
   393
  0
VERTEX
  5
519
  8
0
 62
     9
 10
0.0
 20
0.0
 30
0.0
 70
   128
 71
   395
 72
   364
 73
    16
  0
VERTEX
  5
51A
  8
0
 62
     9
 10
0.0
 20
0.0
 30
0.0
 70
   128
 71
   396
 72
   393
 73
   391
  0
VERTEX
  5
51B
  8
0
 62
     9
 10
0.0
 20
0.0
 30
0.0
 70
   128
 71
   387
 72
   395
 73
   396
  0
VERTEX
  5
51C
  8
0
 62
     9
 10
0.0
 20
0.0
 30
0.0
 70
   128
 71
    86
 72
    83
 73
   393
  0
VERTEX
  5
51D
  8
0
 62
     9
 10
0.0
 20
0.0
 30
0.0
 70
   128
 71
   395
 72
    17
 73
    86
  0
VERTEX
  5
51E
  8
0
 62
     9
 10
0.0
 20
0.0
 30
0.0
 70
   128
 71
   397
 72
   393
 73
    83
  0
VERTEX
  5
51F
  8
0
 62
     9
 10
0.0
 20
0.0
 30
0.0
 70
   128
 71
   397
 72
   399
 73
   398
  0
VERTEX
  5
520
  8
0
 62
     9
 10
0.0
 20
0.0
 30
0.0
 70
   128
 71
   394
 72
   398
 73
   385
  0
VERTEX
  5
521
  8
0
 62
     9
 10
0.0
 20
0.0
 30
0.0
 70
   128
 71
    82
 72
   400
 73
   399
  0
VERTEX
  5
522
  8
0
 62
     9
 10
0.0
 20
0.0
 30
0.0
 70
   128
 71
   399
 72
   397
 73
    82
  0
VERTEX
  5
523
  8
0
 62
     9
 10
0.0
 20
0.0
 30
0.0
 70
   128
 71
   385
 72
   386
 73
   394
  0
VERTEX
  5
524
  8
0
 62
     9
 10
0.0
 20
0.0
 30
0.0
 70
   128
 71
   398
 72
   394
 73
   397
  0
VERTEX
  5
525
  8
0
 62
     9
 10
0.0
 20
0.0
 30
0.0
 70
   128
 71
    83
 72
    82
 73
   397
  0
VERTEX
  5
526
  8
0
 62
     9
 10
0.0
 20
0.0
 30
0.0
 70
   128
 71
    86
 72
   396
 73
   395
  0
VERTEX
  5
527
  8
0
 62
     9
 10
0.0
 20
0.0
 30
0.0
 70
   128
 71
   393
 72
   396
 73
    86
  0
VERTEX
  5
528
  8
0
 62
     9
 10
0.0
 20
0.0
 30
0.0
 70
   128
 71
   396
 72
   392
 73
   387
  0
VERTEX
  5
529
  8
0
 62
     9
 10
0.0
 20
0.0
 30
0.0
 70
   128
 71
   391
 72
   392
 73
   396
  0
VERTEX
  5
52A
  8
0
 62
     9
 10
0.0
 20
0.0
 30
0.0
 70
   128
 71
    16
 72
    17
 73
   395
  0
VERTEX
  5
52B
  8
0
 62
     9
 10
0.0
 20
0.0
 30
0.0
 70
   128
 71
   393
 72
   397
 73
   394
  0
VERTEX
  5
52C
  8
0
 62
     9
 10
0.0
 20
0.0
 30
0.0
 70
   128
 71
   391
 72
   394
 73
   386
  0
VERTEX
  5
52D
  8
0
 62
     9
 10
0.0
 20
0.0
 30
0.0
 70
   128
 71
   392
 72
   390
 73
   389
  0
VERTEX
  5
52E
  8
0
 62
     9
 10
0.0
 20
0.0
 30
0.0
 70
   128
 71
   388
 72
   390
 73
   392
  0
VERTEX
  5
52F
  8
0
 62
     9
 10
0.0
 20
0.0
 30
0.0
 70
   128
 71
   390
 72
   379
 73
   365
  0
VERTEX
  5
530
  8
0
 62
     9
 10
0.0
 20
0.0
 30
0.0
 70
   128
 71
   378
 72
   379
 73
   390
  0
VERTEX
  5
531
  8
0
 62
     9
 10
0.0
 20
0.0
 30
0.0
 70
   128
 71
   363
 72
   387
 73
   389
  0
VERTEX
  5
532
  8
0
 62
     9
 10
0.0
 20
0.0
 30
0.0
 70
   128
 71
   388
 72
   386
 73
   384
  0
VERTEX
  5
533
  8
0
 62
     9
 10
0.0
 20
0.0
 30
0.0
 70
   128
 71
   364
 72
   395
 73
   387
  0
VERTEX
  5
534
  8
0
 62
     9
 10
0.0
 20
0.0
 30
0.0
 70
   128
 71
   383
 72
   384
 73
   386
  0
VERTEX
  5
535
  8
0
 62
     9
 10
0.0
 20
0.0
 30
0.0
 70
   128
 71
   382
 72
   380
 73
   384
  0
VERTEX
  5
536
  8
0
 62
     9
 10
0.0
 20
0.0
 30
0.0
 70
   128
 71
   366
 72
   367
 73
   375
  0
VERTEX
  5
537
  8
0
 62
     9
 10
0.0
 20
0.0
 30
0.0
 70
   128
 71
   381
 72
   375
 73
   380
  0
VERTEX
  5
538
  8
0
 62
     9
 10
0.0
 20
0.0
 30
0.0
 70
   128
 71
   378
 72
   384
 73
   380
  0
VERTEX
  5
539
  8
0
 62
     9
 10
0.0
 20
0.0
 30
0.0
 70
   128
 71
   379
 72
   377
 73
   376
  0
VERTEX
  5
53A
  8
0
 62
     9
 10
0.0
 20
0.0
 30
0.0
 70
   128
 71
   374
 72
   377
 73
   379
  0
VERTEX
  5
53B
  8
0
 62
     9
 10
0.0
 20
0.0
 30
0.0
 70
   128
 71
   377
 72
   373
 73
   368
  0
VERTEX
  5
53C
  8
0
 62
     9
 10
0.0
 20
0.0
 30
0.0
 70
   128
 71
   372
 72
   373
 73
   377
  0
VERTEX
  5
53D
  8
0
 62
     9
 10
0.0
 20
0.0
 30
0.0
 70
   128
 71
   353
 72
   365
 73
   376
  0
VERTEX
  5
53E
  8
0
 62
     9
 10
0.0
 20
0.0
 30
0.0
 70
   128
 71
   374
 72
   380
 73
   375
  0
VERTEX
  5
53F
  8
0
 62
     9
 10
0.0
 20
0.0
 30
0.0
 70
   128
 71
   372
 72
   375
 73
   367
  0
VERTEX
  5
540
  8
0
 62
     9
 10
0.0
 20
0.0
 30
0.0
 70
   128
 71
   373
 72
   371
 73
   370
  0
VERTEX
  5
541
  8
0
 62
     9
 10
0.0
 20
0.0
 30
0.0
 70
   128
 71
   369
 72
   371
 73
   373
  0
VERTEX
  5
542
  8
0
 62
     9
 10
0.0
 20
0.0
 30
0.0
 70
   128
 71
   371
 72
   167
 73
   162
  0
VERTEX
  5
543
  8
0
 62
     9
 10
0.0
 20
0.0
 30
0.0
 70
   128
 71
   166
 72
   167
 73
   371
  0
VERTEX
  5
544
  8
0
 62
     9
 10
0.0
 20
0.0
 30
0.0
 70
   128
 71
   324
 72
   368
 73
   370
  0
VERTEX
  5
545
  8
0
 62
     9
 10
0.0
 20
0.0
 30
0.0
 70
   128
 71
   369
 72
   367
 73
   165
  0
VERTEX
  5
546
  8
0
 62
     9
 10
0.0
 20
0.0
 30
0.0
 70
   128
 71
   327
 72
   376
 73
   368
  0
VERTEX
  5
547
  8
0
 62
     9
 10
0.0
 20
0.0
 30
0.0
 70
   128
 71
   168
 72
   165
 73
   367
  0
VERTEX
  5
548
  8
0
 62
     9
 10
0.0
 20
0.0
 30
0.0
 70
   128
 71
   356
 72
   389
 73
   365
  0
VERTEX
  5
549
  8
0
 62
     9
 10
0.0
 20
0.0
 30
0.0
 70
   128
 71
    44
 72
    16
 73
   364
  0
VERTEX
  5
54A
  8
0
 62
     9
 10
0.0
 20
0.0
 30
0.0
 70
   128
 71
    47
 72
   362
 73
   357
  0
VERTEX
  5
54B
  8
0
 62
     9
 10
0.0
 20
0.0
 30
0.0
 70
   128
 71
    44
 72
   361
 73
   362
  0
VERTEX
  5
54C
  8
0
 62
     9
 10
0.0
 20
0.0
 30
0.0
 70
   128
 71
   361
 72
   364
 73
   363
  0
VERTEX
  5
54D
  8
0
 62
     9
 10
0.0
 20
0.0
 30
0.0
 70
   128
 71
   362
 72
   355
 73
   350
  0
VERTEX
  5
54E
  8
0
 62
     9
 10
0.0
 20
0.0
 30
0.0
 70
   128
 71
   361
 72
   354
 73
   355
  0
VERTEX
  5
54F
  8
0
 62
     9
 10
0.0
 20
0.0
 30
0.0
 70
   128
 71
    38
 72
   357
 73
   358
  0
VERTEX
  5
550
  8
0
 62
     9
 10
0.0
 20
0.0
 30
0.0
 70
   128
 71
    43
 72
   358
 73
   360
  0
VERTEX
  5
551
  8
0
 62
     9
 10
0.0
 20
0.0
 30
0.0
 70
   128
 71
    23
 72
    41
 73
   360
  0
VERTEX
  5
552
  8
0
 62
     9
 10
0.0
 20
0.0
 30
0.0
 70
   128
 71
   358
 72
   348
 73
   349
  0
VERTEX
  5
553
  8
0
 62
     9
 10
0.0
 20
0.0
 30
0.0
 70
   128
 71
   359
 72
   360
 73
   349
  0
VERTEX
  5
554
  8
0
 62
     9
 10
0.0
 20
0.0
 30
0.0
 70
   128
 71
    22
 72
    23
 73
   359
  0
VERTEX
  5
555
  8
0
 62
     9
 10
0.0
 20
0.0
 30
0.0
 70
   128
 71
   357
 72
   350
 73
   348
  0
VERTEX
  5
556
  8
0
 62
     9
 10
0.0
 20
0.0
 30
0.0
 70
   128
 71
   354
 72
   363
 73
   356
  0
VERTEX
  5
557
  8
0
 62
     9
 10
0.0
 20
0.0
 30
0.0
 70
   128
 71
   355
 72
   352
 73
   344
  0
VERTEX
  5
558
  8
0
 62
     9
 10
0.0
 20
0.0
 30
0.0
 70
   128
 71
   354
 72
   351
 73
   352
  0
VERTEX
  5
559
  8
0
 62
     9
 10
0.0
 20
0.0
 30
0.0
 70
   128
 71
   351
 72
   356
 73
   353
  0
VERTEX
  5
55A
  8
0
 62
     9
 10
0.0
 20
0.0
 30
0.0
 70
   128
 71
   352
 72
   326
 73
   320
  0
VERTEX
  5
55B
  8
0
 62
     9
 10
0.0
 20
0.0
 30
0.0
 70
   128
 71
   351
 72
   325
 73
   326
  0
VERTEX
  5
55C
  8
0
 62
     9
 10
0.0
 20
0.0
 30
0.0
 70
   128
 71
   350
 72
   344
 73
   345
  0
VERTEX
  5
55D
  8
0
 62
     9
 10
0.0
 20
0.0
 30
0.0
 70
   128
 71
   348
 72
   345
 73
   347
  0
VERTEX
  5
55E
  8
0
 62
     9
 10
0.0
 20
0.0
 30
0.0
 70
   128
 71
   343
 72
   349
 73
   347
  0
VERTEX
  5
55F
  8
0
 62
     9
 10
0.0
 20
0.0
 30
0.0
 70
   128
 71
   345
 72
   321
 73
   319
  0
VERTEX
  5
560
  8
0
 62
     9
 10
0.0
 20
0.0
 30
0.0
 70
   128
 71
   346
 72
   347
 73
   319
  0
VERTEX
  5
561
  8
0
 62
     9
 10
0.0
 20
0.0
 30
0.0
 70
   128
 71
   337
 72
   343
 73
   346
  0
VERTEX
  5
562
  8
0
 62
     9
 10
0.0
 20
0.0
 30
0.0
 70
   128
 71
   344
 72
   320
 73
   321
  0
VERTEX
  5
563
  8
0
 62
     9
 10
0.0
 20
0.0
 30
0.0
 70
   128
 71
   338
 72
   359
 73
   343
  0
VERTEX
  5
564
  8
0
 62
     9
 10
0.0
 20
0.0
 30
0.0
 70
   128
 71
    22
 72
   338
 73
   339
  0
VERTEX
  5
565
  8
0
 62
     9
 10
0.0
 20
0.0
 30
0.0
 70
   128
 71
    32
 72
   339
 73
   341
  0
VERTEX
  5
566
  8
0
 62
     9
 10
0.0
 20
0.0
 30
0.0
 70
   128
 71
     2
 72
    31
 73
   342
  0
VERTEX
  5
567
  8
0
 62
     9
 10
0.0
 20
0.0
 30
0.0
 70
   128
 71
    28
 72
   341
 73
   342
  0
VERTEX
  5
568
  8
0
 62
     9
 10
0.0
 20
0.0
 30
0.0
 70
   128
 71
   339
 72
   336
 73
   334
  0
VERTEX
  5
569
  8
0
 62
     9
 10
0.0
 20
0.0
 30
0.0
 70
   128
 71
   340
 72
   342
 73
   335
  0
VERTEX
  5
56A
  8
0
 62
     9
 10
0.0
 20
0.0
 30
0.0
 70
   128
 71
   341
 72
   334
 73
   335
  0
VERTEX
  5
56B
  8
0
 62
     9
 10
0.0
 20
0.0
 30
0.0
 70
   128
 71
     1
 72
     2
 73
   340
  0
VERTEX
  5
56C
  8
0
 62
     9
 10
0.0
 20
0.0
 30
0.0
 70
   128
 71
   338
 72
   337
 73
   336
  0
VERTEX
  5
56D
  8
0
 62
     9
 10
0.0
 20
0.0
 30
0.0
 70
   128
 71
   337
 72
   328
 73
   330
  0
VERTEX
  5
56E
  8
0
 62
     9
 10
0.0
 20
0.0
 30
0.0
 70
   128
 71
   336
 72
   330
 73
   332
  0
VERTEX
  5
56F
  8
0
 62
     9
 10
0.0
 20
0.0
 30
0.0
 70
   128
 71
   329
 72
   335
 73
   333
  0
VERTEX
  5
570
  8
0
 62
     9
 10
0.0
 20
0.0
 30
0.0
 70
   128
 71
   334
 72
   332
 73
   333
  0
VERTEX
  5
571
  8
0
 62
     9
 10
0.0
 20
0.0
 30
0.0
 70
   128
 71
   330
 72
   300
 73
   298
  0
VERTEX
  5
572
  8
0
 62
     9
 10
0.0
 20
0.0
 30
0.0
 70
   128
 71
   331
 72
   333
 73
   299
  0
VERTEX
  5
573
  8
0
 62
     9
 10
0.0
 20
0.0
 30
0.0
 70
   128
 71
   332
 72
   298
 73
   299
  0
VERTEX
  5
574
  8
0
 62
     9
 10
0.0
 20
0.0
 30
0.0
 70
   128
 71
   275
 72
   329
 73
   331
  0
VERTEX
  5
575
  8
0
 62
     9
 10
0.0
 20
0.0
 30
0.0
 70
   128
 71
   328
 72
   301
 73
   300
  0
VERTEX
  5
576
  8
0
 62
     9
 10
0.0
 20
0.0
 30
0.0
 70
   128
 71
   280
 72
   340
 73
   329
  0
VERTEX
  5
577
  8
0
 62
     9
 10
0.0
 20
0.0
 30
0.0
 70
   128
 71
   328
 72
   346
 73
   318
  0
VERTEX
  5
578
  8
0
 62
     9
 10
0.0
 20
0.0
 30
0.0
 70
   128
 71
   325
 72
   353
 73
   327
  0
VERTEX
  5
579
  8
0
 62
     9
 10
0.0
 20
0.0
 30
0.0
 70
   128
 71
   326
 72
   323
 73
   314
  0
VERTEX
  5
57A
  8
0
 62
     9
 10
0.0
 20
0.0
 30
0.0
 70
   128
 71
   325
 72
   322
 73
   323
  0
VERTEX
  5
57B
  8
0
 62
     9
 10
0.0
 20
0.0
 30
0.0
 70
   128
 71
   322
 72
   327
 73
   324
  0
VERTEX
  5
57C
  8
0
 62
     9
 10
0.0
 20
0.0
 30
0.0
 70
   128
 71
   323
 72
   313
 73
   308
  0
VERTEX
  5
57D
  8
0
 62
     9
 10
0.0
 20
0.0
 30
0.0
 70
   128
 71
   322
 72
   312
 73
   313
  0
VERTEX
  5
57E
  8
0
 62
     9
 10
0.0
 20
0.0
 30
0.0
 70
   128
 71
   320
 72
   314
 73
   315
  0
VERTEX
  5
57F
  8
0
 62
     9
 10
0.0
 20
0.0
 30
0.0
 70
   128
 71
   319
 72
   321
 73
   315
  0
VERTEX
  5
580
  8
0
 62
     9
 10
0.0
 20
0.0
 30
0.0
 70
   128
 71
   318
 72
   319
 73
   317
  0
VERTEX
  5
581
  8
0
 62
     9
 10
0.0
 20
0.0
 30
0.0
 70
   128
 71
   317
 72
   315
 73
   309
  0
VERTEX
  5
582
  8
0
 62
     9
 10
0.0
 20
0.0
 30
0.0
 70
   128
 71
   316
 72
   317
 73
   307
  0
VERTEX
  5
583
  8
0
 62
     9
 10
0.0
 20
0.0
 30
0.0
 70
   128
 71
   301
 72
   318
 73
   316
  0
VERTEX
  5
584
  8
0
 62
     9
 10
0.0
 20
0.0
 30
0.0
 70
   128
 71
   314
 72
   308
 73
   309
  0
VERTEX
  5
585
  8
0
 62
     9
 10
0.0
 20
0.0
 30
0.0
 70
   128
 71
   312
 72
   324
 73
   281
  0
VERTEX
  5
586
  8
0
 62
     9
 10
0.0
 20
0.0
 30
0.0
 70
   128
 71
   313
 72
   311
 73
   303
  0
VERTEX
  5
587
  8
0
 62
     9
 10
0.0
 20
0.0
 30
0.0
 70
   128
 71
   312
 72
   310
 73
   311
  0
VERTEX
  5
588
  8
0
 62
     9
 10
0.0
 20
0.0
 30
0.0
 70
   128
 71
   310
 72
   281
 73
   149
  0
VERTEX
  5
589
  8
0
 62
     9
 10
0.0
 20
0.0
 30
0.0
 70
   128
 71
   311
 72
   148
 73
   144
  0
VERTEX
  5
58A
  8
0
 62
     9
 10
0.0
 20
0.0
 30
0.0
 70
   128
 71
   310
 72
   147
 73
   148
  0
VERTEX
  5
58B
  8
0
 62
     9
 10
0.0
 20
0.0
 30
0.0
 70
   128
 71
   308
 72
   303
 73
   304
  0
VERTEX
  5
58C
  8
0
 62
     9
 10
0.0
 20
0.0
 30
0.0
 70
   128
 71
   307
 72
   309
 73
   304
  0
VERTEX
  5
58D
  8
0
 62
     9
 10
0.0
 20
0.0
 30
0.0
 70
   128
 71
   302
 72
   307
 73
   306
  0
VERTEX
  5
58E
  8
0
 62
     9
 10
0.0
 20
0.0
 30
0.0
 70
   128
 71
   306
 72
   304
 73
   145
  0
VERTEX
  5
58F
  8
0
 62
     9
 10
0.0
 20
0.0
 30
0.0
 70
   128
 71
   305
 72
   306
 73
   146
  0
VERTEX
  5
590
  8
0
 62
     9
 10
0.0
 20
0.0
 30
0.0
 70
   128
 71
   292
 72
   302
 73
   305
  0
VERTEX
  5
591
  8
0
 62
     9
 10
0.0
 20
0.0
 30
0.0
 70
   128
 71
   303
 72
   144
 73
   145
  0
VERTEX
  5
592
  8
0
 62
     9
 10
0.0
 20
0.0
 30
0.0
 70
   128
 71
   293
 72
   316
 73
   302
  0
VERTEX
  5
593
  8
0
 62
     9
 10
0.0
 20
0.0
 30
0.0
 70
   128
 71
   301
 72
   293
 73
   294
  0
VERTEX
  5
594
  8
0
 62
     9
 10
0.0
 20
0.0
 30
0.0
 70
   128
 71
   300
 72
   294
 73
   296
  0
VERTEX
  5
595
  8
0
 62
     9
 10
0.0
 20
0.0
 30
0.0
 70
   128
 71
   282
 72
   299
 73
   297
  0
VERTEX
  5
596
  8
0
 62
     9
 10
0.0
 20
0.0
 30
0.0
 70
   128
 71
   298
 72
   296
 73
   297
  0
VERTEX
  5
597
  8
0
 62
     9
 10
0.0
 20
0.0
 30
0.0
 70
   128
 71
   294
 72
   291
 73
   289
  0
VERTEX
  5
598
  8
0
 62
     9
 10
0.0
 20
0.0
 30
0.0
 70
   128
 71
   295
 72
   297
 73
   290
  0
VERTEX
  5
599
  8
0
 62
     9
 10
0.0
 20
0.0
 30
0.0
 70
   128
 71
   296
 72
   289
 73
   290
  0
VERTEX
  5
59A
  8
0
 62
     9
 10
0.0
 20
0.0
 30
0.0
 70
   128
 71
   257
 72
   282
 73
   295
  0
VERTEX
  5
59B
  8
0
 62
     9
 10
0.0
 20
0.0
 30
0.0
 70
   128
 71
   293
 72
   292
 73
   291
  0
VERTEX
  5
59C
  8
0
 62
     9
 10
0.0
 20
0.0
 30
0.0
 70
   128
 71
   292
 72
   283
 73
   285
  0
VERTEX
  5
59D
  8
0
 62
     9
 10
0.0
 20
0.0
 30
0.0
 70
   128
 71
   291
 72
   285
 73
   287
  0
VERTEX
  5
59E
  8
0
 62
     9
 10
0.0
 20
0.0
 30
0.0
 70
   128
 71
   284
 72
   290
 73
   288
  0
VERTEX
  5
59F
  8
0
 62
     9
 10
0.0
 20
0.0
 30
0.0
 70
   128
 71
   289
 72
   287
 73
   288
  0
VERTEX
  5
5A0
  8
0
 62
     9
 10
0.0
 20
0.0
 30
0.0
 70
   128
 71
   285
 72
   134
 73
   135
  0
VERTEX
  5
5A1
  8
0
 62
     9
 10
0.0
 20
0.0
 30
0.0
 70
   128
 71
   286
 72
   288
 73
   136
  0
VERTEX
  5
5A2
  8
0
 62
     9
 10
0.0
 20
0.0
 30
0.0
 70
   128
 71
   287
 72
   135
 73
   136
  0
VERTEX
  5
5A3
  8
0
 62
     9
 10
0.0
 20
0.0
 30
0.0
 70
   128
 71
   246
 72
   284
 73
   286
  0
VERTEX
  5
5A4
  8
0
 62
     9
 10
0.0
 20
0.0
 30
0.0
 70
   128
 71
   283
 72
   133
 73
   134
  0
VERTEX
  5
5A5
  8
0
 62
     9
 10
0.0
 20
0.0
 30
0.0
 70
   128
 71
   252
 72
   295
 73
   284
  0
VERTEX
  5
5A6
  8
0
 62
     9
 10
0.0
 20
0.0
 30
0.0
 70
   128
 71
   283
 72
   305
 73
   137
  0
VERTEX
  5
5A7
  8
0
 62
     9
 10
0.0
 20
0.0
 30
0.0
 70
   128
 71
   270
 72
   331
 73
   282
  0
VERTEX
  5
5A8
  8
0
 62
     9
 10
0.0
 20
0.0
 30
0.0
 70
   128
 71
   281
 72
   370
 73
   162
  0
VERTEX
  5
5A9
  8
0
 62
     9
 10
0.0
 20
0.0
 30
0.0
 70
   128
 71
     1
 72
   280
 73
   278
  0
VERTEX
  5
5AA
  8
0
 62
     9
 10
0.0
 20
0.0
 30
0.0
 70
   128
 71
   197
 72
   279
 73
   277
  0
VERTEX
  5
5AB
  8
0
 62
     9
 10
0.0
 20
0.0
 30
0.0
 70
   128
 71
   194
 72
   278
 73
   279
  0
VERTEX
  5
5AC
  8
0
 62
     9
 10
0.0
 20
0.0
 30
0.0
 70
   128
 71
   191
 72
   277
 73
   276
  0
VERTEX
  5
5AD
  8
0
 62
     9
 10
0.0
 20
0.0
 30
0.0
 70
   128
 71
   280
 72
   275
 73
   272
  0
VERTEX
  5
5AE
  8
0
 62
     9
 10
0.0
 20
0.0
 30
0.0
 70
   128
 71
   279
 72
   273
 73
   274
  0
VERTEX
  5
5AF
  8
0
 62
     9
 10
0.0
 20
0.0
 30
0.0
 70
   128
 71
   278
 72
   272
 73
   273
  0
VERTEX
  5
5B0
  8
0
 62
     9
 10
0.0
 20
0.0
 30
0.0
 70
   128
 71
   277
 72
   274
 73
   271
  0
VERTEX
  5
5B1
  8
0
 62
     9
 10
0.0
 20
0.0
 30
0.0
 70
   128
 71
   169
 72
   184
 73
   276
  0
VERTEX
  5
5B2
  8
0
 62
     9
 10
0.0
 20
0.0
 30
0.0
 70
   128
 71
   263
 72
     5
 73
   169
  0
VERTEX
  5
5B3
  8
0
 62
     9
 10
0.0
 20
0.0
 30
0.0
 70
   128
 71
   265
 72
   276
 73
   271
  0
VERTEX
  5
5B4
  8
0
 62
     9
 10
0.0
 20
0.0
 30
0.0
 70
   128
 71
   275
 72
   270
 73
   267
  0
VERTEX
  5
5B5
  8
0
 62
     9
 10
0.0
 20
0.0
 30
0.0
 70
   128
 71
   273
 72
   268
 73
   269
  0
VERTEX
  5
5B6
  8
0
 62
     9
 10
0.0
 20
0.0
 30
0.0
 70
   128
 71
   272
 72
   267
 73
   268
  0
VERTEX
  5
5B7
  8
0
 62
     9
 10
0.0
 20
0.0
 30
0.0
 70
   128
 71
   271
 72
   274
 73
   269
  0
VERTEX
  5
5B8
  8
0
 62
     9
 10
0.0
 20
0.0
 30
0.0
 70
   128
 71
   270
 72
   257
 73
   254
  0
VERTEX
  5
5B9
  8
0
 62
     9
 10
0.0
 20
0.0
 30
0.0
 70
   128
 71
   268
 72
   255
 73
   256
  0
VERTEX
  5
5BA
  8
0
 62
     9
 10
0.0
 20
0.0
 30
0.0
 70
   128
 71
   267
 72
   254
 73
   255
  0
VERTEX
  5
5BB
  8
0
 62
     9
 10
0.0
 20
0.0
 30
0.0
 70
   128
 71
   266
 72
   269
 73
   256
  0
VERTEX
  5
5BC
  8
0
 62
     9
 10
0.0
 20
0.0
 30
0.0
 70
   128
 71
   264
 72
   271
 73
   266
  0
VERTEX
  5
5BD
  8
0
 62
     9
 10
0.0
 20
0.0
 30
0.0
 70
   128
 71
   262
 72
   261
 73
   264
  0
VERTEX
  5
5BE
  8
0
 62
     9
 10
0.0
 20
0.0
 30
0.0
 70
   128
 71
   258
 72
   266
 73
   253
  0
VERTEX
  5
5BF
  8
0
 62
     9
 10
0.0
 20
0.0
 30
0.0
 70
   128
 71
   261
 72
   263
 73
   265
  0
VERTEX
  5
5C0
  8
0
 62
     9
 10
0.0
 20
0.0
 30
0.0
 70
   128
 71
     4
 72
     5
 73
   263
  0
VERTEX
  5
5C1
  8
0
 62
     9
 10
0.0
 20
0.0
 30
0.0
 70
   128
 71
   260
 72
   261
 73
   262
  0
VERTEX
  5
5C2
  8
0
 62
     9
 10
0.0
 20
0.0
 30
0.0
 70
   128
 71
   259
 72
   263
 73
   261
  0
VERTEX
  5
5C3
  8
0
 62
     9
 10
0.0
 20
0.0
 30
0.0
 70
   128
 71
   228
 72
   262
 73
   258
  0
VERTEX
  5
5C4
  8
0
 62
     9
 10
0.0
 20
0.0
 30
0.0
 70
   128
 71
   257
 72
   252
 73
   249
  0
VERTEX
  5
5C5
  8
0
 62
     9
 10
0.0
 20
0.0
 30
0.0
 70
   128
 71
   255
 72
   250
 73
   251
  0
VERTEX
  5
5C6
  8
0
 62
     9
 10
0.0
 20
0.0
 30
0.0
 70
   128
 71
   254
 72
   249
 73
   250
  0
VERTEX
  5
5C7
  8
0
 62
     9
 10
0.0
 20
0.0
 30
0.0
 70
   128
 71
   253
 72
   256
 73
   251
  0
VERTEX
  5
5C8
  8
0
 62
     9
 10
0.0
 20
0.0
 30
0.0
 70
   128
 71
   252
 72
   246
 73
   243
  0
VERTEX
  5
5C9
  8
0
 62
     9
 10
0.0
 20
0.0
 30
0.0
 70
   128
 71
   250
 72
   244
 73
   245
  0
VERTEX
  5
5CA
  8
0
 62
     9
 10
0.0
 20
0.0
 30
0.0
 70
   128
 71
   249
 72
   243
 73
   244
  0
VERTEX
  5
5CB
  8
0
 62
     9
 10
0.0
 20
0.0
 30
0.0
 70
   128
 71
   248
 72
   251
 73
   245
  0
VERTEX
  5
5CC
  8
0
 62
     9
 10
0.0
 20
0.0
 30
0.0
 70
   128
 71
   247
 72
   253
 73
   248
  0
VERTEX
  5
5CD
  8
0
 62
     9
 10
0.0
 20
0.0
 30
0.0
 70
   128
 71
   235
 72
   228
 73
   247
  0
VERTEX
  5
5CE
  8
0
 62
     9
 10
0.0
 20
0.0
 30
0.0
 70
   128
 71
   237
 72
   248
 73
   242
  0
VERTEX
  5
5CF
  8
0
 62
     9
 10
0.0
 20
0.0
 30
0.0
 70
   128
 71
   246
 72
     7
 73
   239
  0
VERTEX
  5
5D0
  8
0
 62
     9
 10
0.0
 20
0.0
 30
0.0
 70
   128
 71
   244
 72
   240
 73
   241
  0
VERTEX
  5
5D1
  8
0
 62
     9
 10
0.0
 20
0.0
 30
0.0
 70
   128
 71
   243
 72
   239
 73
   240
  0
VERTEX
  5
5D2
  8
0
 62
     9
 10
0.0
 20
0.0
 30
0.0
 70
   128
 71
   242
 72
   245
 73
   241
  0
VERTEX
  5
5D3
  8
0
 62
     9
 10
0.0
 20
0.0
 30
0.0
 70
   128
 71
     7
 72
     8
 73
   224
  0
VERTEX
  5
5D4
  8
0
 62
     9
 10
0.0
 20
0.0
 30
0.0
 70
   128
 71
   240
 72
   225
 73
   221
  0
VERTEX
  5
5D5
  8
0
 62
     9
 10
0.0
 20
0.0
 30
0.0
 70
   128
 71
   239
 72
   224
 73
   225
  0
VERTEX
  5
5D6
  8
0
 62
     9
 10
0.0
 20
0.0
 30
0.0
 70
   128
 71
   238
 72
   241
 73
   221
  0
VERTEX
  5
5D7
  8
0
 62
     9
 10
0.0
 20
0.0
 30
0.0
 70
   128
 71
   236
 72
   242
 73
   238
  0
VERTEX
  5
5D8
  8
0
 62
     9
 10
0.0
 20
0.0
 30
0.0
 70
   128
 71
   234
 72
   233
 73
   236
  0
VERTEX
  5
5D9
  8
0
 62
     9
 10
0.0
 20
0.0
 30
0.0
 70
   128
 71
   230
 72
   238
 73
   220
  0
VERTEX
  5
5DA
  8
0
 62
     9
 10
0.0
 20
0.0
 30
0.0
 70
   128
 71
   233
 72
   235
 73
   237
  0
VERTEX
  5
5DB
  8
0
 62
     9
 10
0.0
 20
0.0
 30
0.0
 70
   128
 71
   227
 72
   228
 73
   235
  0
VERTEX
  5
5DC
  8
0
 62
     9
 10
0.0
 20
0.0
 30
0.0
 70
   128
 71
   232
 72
   233
 73
   234
  0
VERTEX
  5
5DD
  8
0
 62
     9
 10
0.0
 20
0.0
 30
0.0
 70
   128
 71
   231
 72
   235
 73
   233
  0
VERTEX
  5
5DE
  8
0
 62
     9
 10
0.0
 20
0.0
 30
0.0
 70
   128
 71
    12
 72
   234
 73
   230
  0
VERTEX
  5
5DF
  8
0
 62
     9
 10
0.0
 20
0.0
 30
0.0
 70
   128
 71
   226
 72
   262
 73
   228
  0
VERTEX
  5
5E0
  8
0
 62
     9
 10
0.0
 20
0.0
 30
0.0
 70
   128
 71
   128
 72
   222
 73
   224
  0
VERTEX
  5
5E1
  8
0
 62
     9
 10
0.0
 20
0.0
 30
0.0
 70
   128
 71
   223
 72
   219
 73
   221
  0
VERTEX
  5
5E2
  8
0
 62
     9
 10
0.0
 20
0.0
 30
0.0
 70
   128
 71
   222
 72
   223
 73
   225
  0
VERTEX
  5
5E3
  8
0
 62
     9
 10
0.0
 20
0.0
 30
0.0
 70
   128
 71
   101
 72
   217
 73
   222
  0
VERTEX
  5
5E4
  8
0
 62
     9
 10
0.0
 20
0.0
 30
0.0
 70
   128
 71
   218
 72
   214
 73
   219
  0
VERTEX
  5
5E5
  8
0
 62
     9
 10
0.0
 20
0.0
 30
0.0
 70
   128
 71
   217
 72
   218
 73
   223
  0
VERTEX
  5
5E6
  8
0
 62
     9
 10
0.0
 20
0.0
 30
0.0
 70
   128
 71
   212
 72
   220
 73
   221
  0
VERTEX
  5
5E7
  8
0
 62
     9
 10
0.0
 20
0.0
 30
0.0
 70
   128
 71
   210
 72
   229
 73
   220
  0
VERTEX
  5
5E8
  8
0
 62
     9
 10
0.0
 20
0.0
 30
0.0
 70
   128
 71
   211
 72
   212
 73
   219
  0
VERTEX
  5
5E9
  8
0
 62
     9
 10
0.0
 20
0.0
 30
0.0
 70
   128
 71
   105
 72
   215
 73
   217
  0
VERTEX
  5
5EA
  8
0
 62
     9
 10
0.0
 20
0.0
 30
0.0
 70
   128
 71
   216
 72
   213
 73
   214
  0
VERTEX
  5
5EB
  8
0
 62
     9
 10
0.0
 20
0.0
 30
0.0
 70
   128
 71
   215
 72
   216
 73
   218
  0
VERTEX
  5
5EC
  8
0
 62
     9
 10
0.0
 20
0.0
 30
0.0
 70
   128
 71
    13
 72
   205
 73
   215
  0
VERTEX
  5
5ED
  8
0
 62
     9
 10
0.0
 20
0.0
 30
0.0
 70
   128
 71
   206
 72
   202
 73
   213
  0
VERTEX
  5
5EE
  8
0
 62
     9
 10
0.0
 20
0.0
 30
0.0
 70
   128
 71
   205
 72
   206
 73
   216
  0
VERTEX
  5
5EF
  8
0
 62
     9
 10
0.0
 20
0.0
 30
0.0
 70
   128
 71
   207
 72
   211
 73
   214
  0
VERTEX
  5
5F0
  8
0
 62
     9
 10
0.0
 20
0.0
 30
0.0
 70
   128
 71
   209
 72
   208
 73
   211
  0
VERTEX
  5
5F1
  8
0
 62
     9
 10
0.0
 20
0.0
 30
0.0
 70
   128
 71
   201
 72
   207
 73
   213
  0
VERTEX
  5
5F2
  8
0
 62
     9
 10
0.0
 20
0.0
 30
0.0
 70
   128
 71
   208
 72
   210
 73
   212
  0
VERTEX
  5
5F3
  8
0
 62
     9
 10
0.0
 20
0.0
 30
0.0
 70
   128
 71
    12
 72
   229
 73
   210
  0
VERTEX
  5
5F4
  8
0
 62
     9
 10
0.0
 20
0.0
 30
0.0
 70
   128
 71
   179
 72
   208
 73
   209
  0
VERTEX
  5
5F5
  8
0
 62
     9
 10
0.0
 20
0.0
 30
0.0
 70
   128
 71
   180
 72
   210
 73
   208
  0
VERTEX
  5
5F6
  8
0
 62
     9
 10
0.0
 20
0.0
 30
0.0
 70
   128
 71
   183
 72
   209
 73
   207
  0
VERTEX
  5
5F7
  8
0
 62
     9
 10
0.0
 20
0.0
 30
0.0
 70
   128
 71
    56
 72
   203
 73
   205
  0
VERTEX
  5
5F8
  8
0
 62
     9
 10
0.0
 20
0.0
 30
0.0
 70
   128
 71
   204
 72
   200
 73
   202
  0
VERTEX
  5
5F9
  8
0
 62
     9
 10
0.0
 20
0.0
 30
0.0
 70
   128
 71
   203
 72
   204
 73
   206
  0
VERTEX
  5
5FA
  8
0
 62
     9
 10
0.0
 20
0.0
 30
0.0
 70
   128
 71
    19
 72
   198
 73
   203
  0
VERTEX
  5
5FB
  8
0
 62
     9
 10
0.0
 20
0.0
 30
0.0
 70
   128
 71
   199
 72
   193
 73
   200
  0
VERTEX
  5
5FC
  8
0
 62
     9
 10
0.0
 20
0.0
 30
0.0
 70
   128
 71
   198
 72
   199
 73
   204
  0
VERTEX
  5
5FD
  8
0
 62
     9
 10
0.0
 20
0.0
 30
0.0
 70
   128
 71
   190
 72
   201
 73
   202
  0
VERTEX
  5
5FE
  8
0
 62
     9
 10
0.0
 20
0.0
 30
0.0
 70
   128
 71
   188
 72
   183
 73
   201
  0
VERTEX
  5
5FF
  8
0
 62
     9
 10
0.0
 20
0.0
 30
0.0
 70
   128
 71
   189
 72
   190
 73
   200
  0
VERTEX
  5
600
  8
0
 62
     9
 10
0.0
 20
0.0
 30
0.0
 70
   128
 71
    25
 72
   195
 73
   198
  0
VERTEX
  5
601
  8
0
 62
     9
 10
0.0
 20
0.0
 30
0.0
 70
   128
 71
   196
 72
   192
 73
   193
  0
VERTEX
  5
602
  8
0
 62
     9
 10
0.0
 20
0.0
 30
0.0
 70
   128
 71
   195
 72
   196
 73
   199
  0
VERTEX
  5
603
  8
0
 62
     9
 10
0.0
 20
0.0
 30
0.0
 70
   128
 71
     1
 72
   194
 73
   195
  0
VERTEX
  5
604
  8
0
 62
     9
 10
0.0
 20
0.0
 30
0.0
 70
   128
 71
   197
 72
   191
 73
   192
  0
VERTEX
  5
605
  8
0
 62
     9
 10
0.0
 20
0.0
 30
0.0
 70
   128
 71
   194
 72
   197
 73
   196
  0
VERTEX
  5
606
  8
0
 62
     9
 10
0.0
 20
0.0
 30
0.0
 70
   128
 71
   192
 72
   185
 73
   189
  0
VERTEX
  5
607
  8
0
 62
     9
 10
0.0
 20
0.0
 30
0.0
 70
   128
 71
   187
 72
   186
 73
   189
  0
VERTEX
  5
608
  8
0
 62
     9
 10
0.0
 20
0.0
 30
0.0
 70
   128
 71
   191
 72
   184
 73
   185
  0
VERTEX
  5
609
  8
0
 62
     9
 10
0.0
 20
0.0
 30
0.0
 70
   128
 71
   186
 72
   188
 73
   190
  0
VERTEX
  5
60A
  8
0
 62
     9
 10
0.0
 20
0.0
 30
0.0
 70
   128
 71
   171
 72
   183
 73
   188
  0
VERTEX
  5
60B
  8
0
 62
     9
 10
0.0
 20
0.0
 30
0.0
 70
   128
 71
   174
 72
   186
 73
   187
  0
VERTEX
  5
60C
  8
0
 62
     9
 10
0.0
 20
0.0
 30
0.0
 70
   128
 71
   175
 72
   188
 73
   186
  0
VERTEX
  5
60D
  8
0
 62
     9
 10
0.0
 20
0.0
 30
0.0
 70
   128
 71
   169
 72
   187
 73
   185
  0
VERTEX
  5
60E
  8
0
 62
     9
 10
0.0
 20
0.0
 30
0.0
 70
   128
 71
   172
 72
   209
 73
   183
  0
VERTEX
  5
60F
  8
0
 62
     9
 10
0.0
 20
0.0
 30
0.0
 70
   128
 71
   182
 72
    11
 73
    12
  0
VERTEX
  5
610
  8
0
 62
     9
 10
0.0
 20
0.0
 30
0.0
 70
   128
 71
   181
 72
   178
 73
   179
  0
VERTEX
  5
611
  8
0
 62
     9
 10
0.0
 20
0.0
 30
0.0
 70
   128
 71
   178
 72
   182
 73
   180
  0
VERTEX
  5
612
  8
0
 62
     9
 10
0.0
 20
0.0
 30
0.0
 70
   128
 71
   177
 72
   170
 73
   171
  0
VERTEX
  5
613
  8
0
 62
     9
 10
0.0
 20
0.0
 30
0.0
 70
   128
 71
   176
 72
   173
 73
   174
  0
VERTEX
  5
614
  8
0
 62
     9
 10
0.0
 20
0.0
 30
0.0
 70
   128
 71
   173
 72
   177
 73
   175
  0
VERTEX
  5
615
  8
0
 62
     9
 10
0.0
 20
0.0
 30
0.0
 70
   128
 71
   170
 72
   181
 73
   172
  0
VERTEX
  5
616
  8
0
 62
     9
 10
0.0
 20
0.0
 30
0.0
 70
   128
 71
     6
 72
   187
 73
   169
  0
VERTEX
  5
617
  8
0
 62
     9
 10
0.0
 20
0.0
 30
0.0
 70
   128
 71
   168
 72
   160
 73
   161
  0
VERTEX
  5
618
  8
0
 62
     9
 10
0.0
 20
0.0
 30
0.0
 70
   128
 71
   164
 72
   151
 73
   162
  0
VERTEX
  5
619
  8
0
 62
     9
 10
0.0
 20
0.0
 30
0.0
 70
   128
 71
   166
 72
   163
 73
   164
  0
VERTEX
  5
61A
  8
0
 62
     9
 10
0.0
 20
0.0
 30
0.0
 70
   128
 71
   163
 72
   166
 73
   165
  0
VERTEX
  5
61B
  8
0
 62
     9
 10
0.0
 20
0.0
 30
0.0
 70
   128
 71
   158
 72
   150
 73
   151
  0
VERTEX
  5
61C
  8
0
 62
     9
 10
0.0
 20
0.0
 30
0.0
 70
   128
 71
   163
 72
   157
 73
   158
  0
VERTEX
  5
61D
  8
0
 62
     9
 10
0.0
 20
0.0
 30
0.0
 70
   128
 71
   157
 72
   163
 73
   161
  0
VERTEX
  5
61E
  8
0
 62
     9
 10
0.0
 20
0.0
 30
0.0
 70
   128
 71
   143
 72
   149
 73
   162
  0
VERTEX
  5
61F
  8
0
 62
     9
 10
0.0
 20
0.0
 30
0.0
 70
   128
 71
   160
 72
   159
 73
   156
  0
VERTEX
  5
620
  8
0
 62
     9
 10
0.0
 20
0.0
 30
0.0
 70
   128
 71
   159
 72
   152
 73
   153
  0
VERTEX
  5
621
  8
0
 62
     9
 10
0.0
 20
0.0
 30
0.0
 70
   128
 71
   155
 72
   100
 73
   150
  0
VERTEX
  5
622
  8
0
 62
     9
 10
0.0
 20
0.0
 30
0.0
 70
   128
 71
   157
 72
   154
 73
   155
  0
VERTEX
  5
623
  8
0
 62
     9
 10
0.0
 20
0.0
 30
0.0
 70
   128
 71
   154
 72
   157
 73
   156
  0
VERTEX
  5
624
  8
0
 62
     9
 10
0.0
 20
0.0
 30
0.0
 70
   128
 71
    98
 72
    93
 73
   100
  0
VERTEX
  5
625
  8
0
 62
     9
 10
0.0
 20
0.0
 30
0.0
 70
   128
 71
   154
 72
    97
 73
    98
  0
VERTEX
  5
626
  8
0
 62
     9
 10
0.0
 20
0.0
 30
0.0
 70
   128
 71
    97
 72
   154
 73
   153
  0
VERTEX
  5
627
  8
0
 62
     9
 10
0.0
 20
0.0
 30
0.0
 70
   128
 71
   120
 72
   126
 73
   150
  0
VERTEX
  5
628
  8
0
 62
     9
 10
0.0
 20
0.0
 30
0.0
 70
   128
 71
   152
 72
    99
 73
    96
  0
VERTEX
  5
629
  8
0
 62
     9
 10
0.0
 20
0.0
 30
0.0
 70
   128
 71
   126
 72
   143
 73
   151
  0
VERTEX
  5
62A
  8
0
 62
     9
 10
0.0
 20
0.0
 30
0.0
 70
   128
 71
   141
 72
   147
 73
   149
  0
VERTEX
  5
62B
  8
0
 62
     9
 10
0.0
 20
0.0
 30
0.0
 70
   128
 71
   142
 72
   138
 73
   144
  0
VERTEX
  5
62C
  8
0
 62
     9
 10
0.0
 20
0.0
 30
0.0
 70
   128
 71
   141
 72
   142
 73
   148
  0
VERTEX
  5
62D
  8
0
 62
     9
 10
0.0
 20
0.0
 30
0.0
 70
   128
 71
   140
 72
   146
 73
   145
  0
VERTEX
  5
62E
  8
0
 62
     9
 10
0.0
 20
0.0
 30
0.0
 70
   128
 71
   127
 72
   137
 73
   146
  0
VERTEX
  5
62F
  8
0
 62
     9
 10
0.0
 20
0.0
 30
0.0
 70
   128
 71
   138
 72
   139
 73
   145
  0
VERTEX
  5
630
  8
0
 62
     9
 10
0.0
 20
0.0
 30
0.0
 70
   128
 71
   124
 72
   141
 73
   143
  0
VERTEX
  5
631
  8
0
 62
     9
 10
0.0
 20
0.0
 30
0.0
 70
   128
 71
   125
 72
   121
 73
   138
  0
VERTEX
  5
632
  8
0
 62
     9
 10
0.0
 20
0.0
 30
0.0
 70
   128
 71
   124
 72
   125
 73
   142
  0
VERTEX
  5
633
  8
0
 62
     9
 10
0.0
 20
0.0
 30
0.0
 70
   128
 71
   123
 72
   140
 73
   139
  0
VERTEX
  5
634
  8
0
 62
     9
 10
0.0
 20
0.0
 30
0.0
 70
   128
 71
   114
 72
   127
 73
   140
  0
VERTEX
  5
635
  8
0
 62
     9
 10
0.0
 20
0.0
 30
0.0
 70
   128
 71
   121
 72
   122
 73
   139
  0
VERTEX
  5
636
  8
0
 62
     9
 10
0.0
 20
0.0
 30
0.0
 70
   128
 71
   129
 72
   133
 73
   137
  0
VERTEX
  5
637
  8
0
 62
     9
 10
0.0
 20
0.0
 30
0.0
 70
   128
 71
   130
 72
   131
 73
   135
  0
VERTEX
  5
638
  8
0
 62
     9
 10
0.0
 20
0.0
 30
0.0
 70
   128
 71
   103
 72
     9
 73
   136
  0
VERTEX
  5
639
  8
0
 62
     9
 10
0.0
 20
0.0
 30
0.0
 70
   128
 71
   131
 72
   132
 73
   136
  0
VERTEX
  5
63A
  8
0
 62
     9
 10
0.0
 20
0.0
 30
0.0
 70
   128
 71
   129
 72
   130
 73
   134
  0
VERTEX
  5
63B
  8
0
 62
     9
 10
0.0
 20
0.0
 30
0.0
 70
   128
 71
   111
 72
   112
 73
   131
  0
VERTEX
  5
63C
  8
0
 62
     9
 10
0.0
 20
0.0
 30
0.0
 70
   128
 71
   102
 72
   103
 73
   132
  0
VERTEX
  5
63D
  8
0
 62
     9
 10
0.0
 20
0.0
 30
0.0
 70
   128
 71
   112
 72
   113
 73
   132
  0
VERTEX
  5
63E
  8
0
 62
     9
 10
0.0
 20
0.0
 30
0.0
 70
   128
 71
   110
 72
   111
 73
   130
  0
VERTEX
  5
63F
  8
0
 62
     9
 10
0.0
 20
0.0
 30
0.0
 70
   128
 71
   128
 72
     8
 73
     9
  0
VERTEX
  5
640
  8
0
 62
     9
 10
0.0
 20
0.0
 30
0.0
 70
   128
 71
   110
 72
   129
 73
   127
  0
VERTEX
  5
641
  8
0
 62
     9
 10
0.0
 20
0.0
 30
0.0
 70
   128
 71
   118
 72
   124
 73
   126
  0
VERTEX
  5
642
  8
0
 62
     9
 10
0.0
 20
0.0
 30
0.0
 70
   128
 71
   119
 72
   115
 73
   121
  0
VERTEX
  5
643
  8
0
 62
     9
 10
0.0
 20
0.0
 30
0.0
 70
   128
 71
   118
 72
   119
 73
   125
  0
VERTEX
  5
644
  8
0
 62
     9
 10
0.0
 20
0.0
 30
0.0
 70
   128
 71
   117
 72
   123
 73
   122
  0
VERTEX
  5
645
  8
0
 62
     9
 10
0.0
 20
0.0
 30
0.0
 70
   128
 71
   104
 72
   114
 73
   123
  0
VERTEX
  5
646
  8
0
 62
     9
 10
0.0
 20
0.0
 30
0.0
 70
   128
 71
   115
 72
   116
 73
   122
  0
VERTEX
  5
647
  8
0
 62
     9
 10
0.0
 20
0.0
 30
0.0
 70
   128
 71
    75
 72
   118
 73
   120
  0
VERTEX
  5
648
  8
0
 62
     9
 10
0.0
 20
0.0
 30
0.0
 70
   128
 71
    76
 72
    72
 73
   115
  0
VERTEX
  5
649
  8
0
 62
     9
 10
0.0
 20
0.0
 30
0.0
 70
   128
 71
    75
 72
    76
 73
   119
  0
VERTEX
  5
64A
  8
0
 62
     9
 10
0.0
 20
0.0
 30
0.0
 70
   128
 71
    74
 72
   117
 73
   116
  0
VERTEX
  5
64B
  8
0
 62
     9
 10
0.0
 20
0.0
 30
0.0
 70
   128
 71
    65
 72
   104
 73
   117
  0
VERTEX
  5
64C
  8
0
 62
     9
 10
0.0
 20
0.0
 30
0.0
 70
   128
 71
    72
 72
    73
 73
   116
  0
VERTEX
  5
64D
  8
0
 62
     9
 10
0.0
 20
0.0
 30
0.0
 70
   128
 71
   106
 72
   110
 73
   114
  0
VERTEX
  5
64E
  8
0
 62
     9
 10
0.0
 20
0.0
 30
0.0
 70
   128
 71
   107
 72
   108
 73
   112
  0
VERTEX
  5
64F
  8
0
 62
     9
 10
0.0
 20
0.0
 30
0.0
 70
   128
 71
    15
 72
   102
 73
   113
  0
VERTEX
  5
650
  8
0
 62
     9
 10
0.0
 20
0.0
 30
0.0
 70
   128
 71
   108
 72
   109
 73
   113
  0
VERTEX
  5
651
  8
0
 62
     9
 10
0.0
 20
0.0
 30
0.0
 70
   128
 71
   106
 72
   107
 73
   111
  0
VERTEX
  5
652
  8
0
 62
     9
 10
0.0
 20
0.0
 30
0.0
 70
   128
 71
    62
 72
    63
 73
   108
  0
VERTEX
  5
653
  8
0
 62
     9
 10
0.0
 20
0.0
 30
0.0
 70
   128
 71
    14
 72
    15
 73
   109
  0
VERTEX
  5
654
  8
0
 62
     9
 10
0.0
 20
0.0
 30
0.0
 70
   128
 71
    63
 72
    64
 73
   109
  0
VERTEX
  5
655
  8
0
 62
     9
 10
0.0
 20
0.0
 30
0.0
 70
   128
 71
    61
 72
    62
 73
   107
  0
VERTEX
  5
656
  8
0
 62
     9
 10
0.0
 20
0.0
 30
0.0
 70
   128
 71
   105
 72
   101
 73
   102
  0
VERTEX
  5
657
  8
0
 62
     9
 10
0.0
 20
0.0
 30
0.0
 70
   128
 71
    61
 72
   106
 73
   104
  0
VERTEX
  5
658
  8
0
 62
     9
 10
0.0
 20
0.0
 30
0.0
 70
   128
 71
   101
 72
   128
 73
   103
  0
VERTEX
  5
659
  8
0
 62
     9
 10
0.0
 20
0.0
 30
0.0
 70
   128
 71
    77
 72
   120
 73
   100
  0
VERTEX
  5
65A
  8
0
 62
     9
 10
0.0
 20
0.0
 30
0.0
 70
   128
 71
    99
 72
    91
 73
    92
  0
VERTEX
  5
65B
  8
0
 62
     9
 10
0.0
 20
0.0
 30
0.0
 70
   128
 71
    95
 72
    79
 73
    93
  0
VERTEX
  5
65C
  8
0
 62
     9
 10
0.0
 20
0.0
 30
0.0
 70
   128
 71
    97
 72
    94
 73
    95
  0
VERTEX
  5
65D
  8
0
 62
     9
 10
0.0
 20
0.0
 30
0.0
 70
   128
 71
    94
 72
    97
 73
    96
  0
VERTEX
  5
65E
  8
0
 62
     9
 10
0.0
 20
0.0
 30
0.0
 70
   128
 71
    89
 72
    78
 73
    79
  0
VERTEX
  5
65F
  8
0
 62
     9
 10
0.0
 20
0.0
 30
0.0
 70
   128
 71
    94
 72
    88
 73
    89
  0
VERTEX
  5
660
  8
0
 62
     9
 10
0.0
 20
0.0
 30
0.0
 70
   128
 71
    88
 72
    94
 73
    92
  0
VERTEX
  5
661
  8
0
 62
     9
 10
0.0
 20
0.0
 30
0.0
 70
   128
 71
    71
 72
    77
 73
    93
  0
VERTEX
  5
662
  8
0
 62
     9
 10
0.0
 20
0.0
 30
0.0
 70
   128
 71
    91
 72
    90
 73
    87
  0
VERTEX
  5
663
  8
0
 62
     9
 10
0.0
 20
0.0
 30
0.0
 70
   128
 71
    90
 72
    80
 73
    81
  0
VERTEX
  5
664
  8
0
 62
     9
 10
0.0
 20
0.0
 30
0.0
 70
   128
 71
    85
 72
    18
 73
    78
  0
VERTEX
  5
665
  8
0
 62
     9
 10
0.0
 20
0.0
 30
0.0
 70
   128
 71
    88
 72
    84
 73
    85
  0
VERTEX
  5
666
  8
0
 62
     9
 10
0.0
 20
0.0
 30
0.0
 70
   128
 71
    84
 72
    88
 73
    87
  0
VERTEX
  5
667
  8
0
 62
     9
 10
0.0
 20
0.0
 30
0.0
 70
   128
 71
    86
 72
    17
 73
    18
  0
VERTEX
  5
668
  8
0
 62
     9
 10
0.0
 20
0.0
 30
0.0
 70
   128
 71
    84
 72
    83
 73
    86
  0
VERTEX
  5
669
  8
0
 62
     9
 10
0.0
 20
0.0
 30
0.0
 70
   128
 71
    83
 72
    84
 73
    81
  0
VERTEX
  5
66A
  8
0
 62
     9
 10
0.0
 20
0.0
 30
0.0
 70
   128
 71
    48
 72
    54
 73
    78
  0
VERTEX
  5
66B
  8
0
 62
     9
 10
0.0
 20
0.0
 30
0.0
 70
   128
 71
    80
 72
   400
 73
    82
  0
VERTEX
  5
66C
  8
0
 62
     9
 10
0.0
 20
0.0
 30
0.0
 70
   128
 71
    54
 72
    71
 73
    79
  0
VERTEX
  5
66D
  8
0
 62
     9
 10
0.0
 20
0.0
 30
0.0
 70
   128
 71
    69
 72
    75
 73
    77
  0
VERTEX
  5
66E
  8
0
 62
     9
 10
0.0
 20
0.0
 30
0.0
 70
   128
 71
    70
 72
    66
 73
    72
  0
VERTEX
  5
66F
  8
0
 62
     9
 10
0.0
 20
0.0
 30
0.0
 70
   128
 71
    69
 72
    70
 73
    76
  0
VERTEX
  5
670
  8
0
 62
     9
 10
0.0
 20
0.0
 30
0.0
 70
   128
 71
    67
 72
    68
 73
    74
  0
VERTEX
  5
671
  8
0
 62
     9
 10
0.0
 20
0.0
 30
0.0
 70
   128
 71
    55
 72
    65
 73
    74
  0
VERTEX
  5
672
  8
0
 62
     9
 10
0.0
 20
0.0
 30
0.0
 70
   128
 71
    66
 72
    67
 73
    73
  0
VERTEX
  5
673
  8
0
 62
     9
 10
0.0
 20
0.0
 30
0.0
 70
   128
 71
    52
 72
    69
 73
    71
  0
VERTEX
  5
674
  8
0
 62
     9
 10
0.0
 20
0.0
 30
0.0
 70
   128
 71
    53
 72
    49
 73
    66
  0
VERTEX
  5
675
  8
0
 62
     9
 10
0.0
 20
0.0
 30
0.0
 70
   128
 71
    52
 72
    53
 73
    70
  0
VERTEX
  5
676
  8
0
 62
     9
 10
0.0
 20
0.0
 30
0.0
 70
   128
 71
    50
 72
    51
 73
    68
  0
VERTEX
  5
677
  8
0
 62
     9
 10
0.0
 20
0.0
 30
0.0
 70
   128
 71
    37
 72
    55
 73
    68
  0
VERTEX
  5
678
  8
0
 62
     9
 10
0.0
 20
0.0
 30
0.0
 70
   128
 71
    49
 72
    50
 73
    67
  0
VERTEX
  5
679
  8
0
 62
     9
 10
0.0
 20
0.0
 30
0.0
 70
   128
 71
    57
 72
    61
 73
    65
  0
VERTEX
  5
67A
  8
0
 62
     9
 10
0.0
 20
0.0
 30
0.0
 70
   128
 71
    58
 72
    59
 73
    63
  0
VERTEX
  5
67B
  8
0
 62
     9
 10
0.0
 20
0.0
 30
0.0
 70
   128
 71
    21
 72
    14
 73
    64
  0
VERTEX
  5
67C
  8
0
 62
     9
 10
0.0
 20
0.0
 30
0.0
 70
   128
 71
    59
 72
    60
 73
    64
  0
VERTEX
  5
67D
  8
0
 62
     9
 10
0.0
 20
0.0
 30
0.0
 70
   128
 71
    57
 72
    58
 73
    62
  0
VERTEX
  5
67E
  8
0
 62
     9
 10
0.0
 20
0.0
 30
0.0
 70
   128
 71
    34
 72
    35
 73
    59
  0
VERTEX
  5
67F
  8
0
 62
     9
 10
0.0
 20
0.0
 30
0.0
 70
   128
 71
    20
 72
    21
 73
    60
  0
VERTEX
  5
680
  8
0
 62
     9
 10
0.0
 20
0.0
 30
0.0
 70
   128
 71
    35
 72
    36
 73
    60
  0
VERTEX
  5
681
  8
0
 62
     9
 10
0.0
 20
0.0
 30
0.0
 70
   128
 71
    33
 72
    34
 73
    58
  0
VERTEX
  5
682
  8
0
 62
     9
 10
0.0
 20
0.0
 30
0.0
 70
   128
 71
    56
 72
    13
 73
    14
  0
VERTEX
  5
683
  8
0
 62
     9
 10
0.0
 20
0.0
 30
0.0
 70
   128
 71
    33
 72
    57
 73
    55
  0
VERTEX
  5
684
  8
0
 62
     9
 10
0.0
 20
0.0
 30
0.0
 70
   128
 71
    45
 72
    52
 73
    54
  0
VERTEX
  5
685
  8
0
 62
     9
 10
0.0
 20
0.0
 30
0.0
 70
   128
 71
    46
 72
    39
 73
    49
  0
VERTEX
  5
686
  8
0
 62
     9
 10
0.0
 20
0.0
 30
0.0
 70
   128
 71
    45
 72
    46
 73
    53
  0
VERTEX
  5
687
  8
0
 62
     9
 10
0.0
 20
0.0
 30
0.0
 70
   128
 71
    40
 72
    42
 73
    51
  0
VERTEX
  5
688
  8
0
 62
     9
 10
0.0
 20
0.0
 30
0.0
 70
   128
 71
    24
 72
    37
 73
    51
  0
VERTEX
  5
689
  8
0
 62
     9
 10
0.0
 20
0.0
 30
0.0
 70
   128
 71
    39
 72
    40
 73
    50
  0
VERTEX
  5
68A
  8
0
 62
     9
 10
0.0
 20
0.0
 30
0.0
 70
   128
 71
    44
 72
    45
 73
    48
  0
VERTEX
  5
68B
  8
0
 62
     9
 10
0.0
 20
0.0
 30
0.0
 70
   128
 71
    47
 72
    38
 73
    39
  0
VERTEX
  5
68C
  8
0
 62
     9
 10
0.0
 20
0.0
 30
0.0
 70
   128
 71
    44
 72
    47
 73
    46
  0
VERTEX
  5
68D
  8
0
 62
     9
 10
0.0
 20
0.0
 30
0.0
 70
   128
 71
    43
 72
    41
 73
    42
  0
VERTEX
  5
68E
  8
0
 62
     9
 10
0.0
 20
0.0
 30
0.0
 70
   128
 71
    23
 72
    24
 73
    42
  0
VERTEX
  5
68F
  8
0
 62
     9
 10
0.0
 20
0.0
 30
0.0
 70
   128
 71
    38
 72
    43
 73
    40
  0
VERTEX
  5
690
  8
0
 62
     9
 10
0.0
 20
0.0
 30
0.0
 70
   128
 71
    26
 72
    33
 73
    37
  0
VERTEX
  5
691
  8
0
 62
     9
 10
0.0
 20
0.0
 30
0.0
 70
   128
 71
    27
 72
    29
 73
    35
  0
VERTEX
  5
692
  8
0
 62
     9
 10
0.0
 20
0.0
 30
0.0
 70
   128
 71
     3
 72
    20
 73
    36
  0
VERTEX
  5
693
  8
0
 62
     9
 10
0.0
 20
0.0
 30
0.0
 70
   128
 71
    29
 72
    30
 73
    36
  0
VERTEX
  5
694
  8
0
 62
     9
 10
0.0
 20
0.0
 30
0.0
 70
   128
 71
    26
 72
    27
 73
    34
  0
VERTEX
  5
695
  8
0
 62
     9
 10
0.0
 20
0.0
 30
0.0
 70
   128
 71
    32
 72
    28
 73
    29
  0
VERTEX
  5
696
  8
0
 62
     9
 10
0.0
 20
0.0
 30
0.0
 70
   128
 71
     2
 72
     3
 73
    30
  0
VERTEX
  5
697
  8
0
 62
     9
 10
0.0
 20
0.0
 30
0.0
 70
   128
 71
    28
 72
    31
 73
    30
  0
VERTEX
  5
698
  8
0
 62
     9
 10
0.0
 20
0.0
 30
0.0
 70
   128
 71
    22
 72
    32
 73
    27
  0
VERTEX
  5
699
  8
0
 62
     9
 10
0.0
 20
0.0
 30
0.0
 70
   128
 71
    25
 72
    19
 73
    20
  0
VERTEX
  5
69A
  8
0
 62
     9
 10
0.0
 20
0.0
 30
0.0
 70
   128
 71
    22
 72
    26
 73
    24
  0
VERTEX
  5
69B
  8
0
 62
     9
 10
0.0
 20
0.0
 30
0.0
 70
   128
 71
    19
 72
    56
 73
    21
  0
VERTEX
  5
69C
  8
0
 62
     9
 10
0.0
 20
0.0
 30
0.0
 70
   128
 71
    16
 72
    48
 73
    18
  0
VERTEX
  5
69D
  8
0
 62
     9
 10
0.0
 20
0.0
 30
0.0
 70
   128
 71
    13
 72
   105
 73
    15
  0
VERTEX
  5
69E
  8
0
 62
     9
 10
0.0
 20
0.0
 30
0.0
 70
   128
 71
    10
 72
   234
 73
    12
  0
VERTEX
  5
69F
  8
0
 62
     9
 10
0.0
 20
0.0
 30
0.0
 70
   128
 71
     7
 72
   286
 73
     9
  0
VERTEX
  5
6A0
  8
0
 62
     9
 10
0.0
 20
0.0
 30
0.0
 70
   128
 71
     4
 72
   176
 73
     6
  0
VERTEX
  5
6A1
  8
0
 62
     9
 10
0.0
 20
0.0
 30
0.0
 70
   128
 71
     1
 72
    25
 73
     3
  0
SEQEND
  5
6A2
  8
0
 62
     9
  0
ENDBLK
  5
6A5
  8
0
  0
BLOCK
  8
0
  2
E3_NODE_5_
 70
     0
 10
0.0
 20
0.0
 30
0.0
  3
E3_NODE_5_
  1

  0
POLYLINE
  5
6A7
  8
0
 62
     9
 66
     1
 10
0.0
 20
0.0
 30
0.0
 70
    64
 71
    18
 72
    16
  0
VERTEX
  5
6A8
  8
0
 10
-0.4000000059604645
 20
-11.75
 30
20.35199928283691
 70
   192
  0
VERTEX
  5
6A9
  8
0
 10
-0.4000000059604645
 20
-23.5
 30
0.0
 70
   192
  0
VERTEX
  5
6AA
  8
0
 10
-0.4000000059604645
 20
-22.08300018310547
 30
8.036999702453613
 70
   192
  0
VERTEX
  5
6AB
  8
0
 10
-0.4000000059604645
 20
18.00200080871582
 30
-15.10599994659424
 70
   192
  0
VERTEX
  5
6AC
  8
0
 10
-0.4000000059604645
 20
22.08300018310547
 30
8.036999702453613
 70
   192
  0
VERTEX
  5
6AD
  8
0
 10
-0.4000000059604645
 20
23.5
 30
0.0
 70
   192
  0
VERTEX
  5
6AE
  8
0
 10
-0.4000000059604645
 20
-22.08300018310547
 30
-8.036999702453613
 70
   192
  0
VERTEX
  5
6AF
  8
0
 10
-0.4000000059604645
 20
18.00200080871582
 30
15.10599994659424
 70
   192
  0
VERTEX
  5
6B0
  8
0
 10
-0.4000000059604645
 20
-18.00200080871582
 30
-15.10599994659424
 70
   192
  0
VERTEX
  5
6B1
  8
0
 10
-0.4000000059604645
 20
11.75
 30
-20.35199928283691
 70
   192
  0
VERTEX
  5
6B2
  8
0
 10
-0.4000000059604645
 20
4.080999851226807
 30
-23.14299964904785
 70
   192
  0
VERTEX
  5
6B3
  8
0
 10
-0.4000000059604645
 20
22.08300018310547
 30
-8.036999702453613
 70
   192
  0
VERTEX
  5
6B4
  8
0
 10
-0.4000000059604645
 20
4.080999851226807
 30
23.14299964904785
 70
   192
  0
VERTEX
  5
6B5
  8
0
 10
-0.4000000059604645
 20
11.75
 30
20.35199928283691
 70
   192
  0
VERTEX
  5
6B6
  8
0
 10
-0.4000000059604645
 20
-11.75
 30
-20.35199928283691
 70
   192
  0
VERTEX
  5
6B7
  8
0
 10
-0.4000000059604645
 20
-4.080999851226807
 30
-23.14299964904785
 70
   192
  0
VERTEX
  5
6B8
  8
0
 10
-0.4000000059604645
 20
-4.080999851226807
 30
23.14299964904785
 70
   192
  0
VERTEX
  5
6B9
  8
0
 10
-0.4000000059604645
 20
-18.00200080871582
 30
15.10599994659424
 70
   192
  0
VERTEX
  5
6BA
  8
0
 62
     9
 10
0.0
 20
0.0
 30
0.0
 70
   128
 71
     3
 72
     2
 73
     1
  0
VERTEX
  5
6BB
  8
0
 62
     9
 10
0.0
 20
0.0
 30
0.0
 70
   128
 71
     6
 72
     5
 73
     4
  0
VERTEX
  5
6BC
  8
0
 62
     9
 10
0.0
 20
0.0
 30
0.0
 70
   128
 71
     2
 72
     7
 73
     1
  0
VERTEX
  5
6BD
  8
0
 62
     9
 10
0.0
 20
0.0
 30
0.0
 70
   128
 71
     5
 72
     8
 73
     4
  0
VERTEX
  5
6BE
  8
0
 62
     9
 10
0.0
 20
0.0
 30
0.0
 70
   128
 71
     7
 72
     9
 73
     1
  0
VERTEX
  5
6BF
  8
0
 62
     9
 10
0.0
 20
0.0
 30
0.0
 70
   128
 71
    11
 72
    10
 73
     1
  0
VERTEX
  5
6C0
  8
0
 62
     9
 10
0.0
 20
0.0
 30
0.0
 70
   128
 71
     4
 72
    12
 73
     6
  0
VERTEX
  5
6C1
  8
0
 62
     9
 10
0.0
 20
0.0
 30
0.0
 70
   128
 71
    14
 72
    13
 73
    10
  0
VERTEX
  5
6C2
  8
0
 62
     9
 10
0.0
 20
0.0
 30
0.0
 70
   128
 71
     9
 72
    15
 73
     1
  0
VERTEX
  5
6C3
  8
0
 62
     9
 10
0.0
 20
0.0
 30
0.0
 70
   128
 71
     1
 72
    16
 73
    11
  0
VERTEX
  5
6C4
  8
0
 62
     9
 10
0.0
 20
0.0
 30
0.0
 70
   128
 71
    10
 72
     8
 73
    14
  0
VERTEX
  5
6C5
  8
0
 62
     9
 10
0.0
 20
0.0
 30
0.0
 70
   128
 71
    17
 72
     1
 73
    10
  0
VERTEX
  5
6C6
  8
0
 62
     9
 10
0.0
 20
0.0
 30
0.0
 70
   128
 71
     1
 72
    15
 73
    16
  0
VERTEX
  5
6C7
  8
0
 62
     9
 10
0.0
 20
0.0
 30
0.0
 70
   128
 71
    10
 72
    13
 73
    17
  0
VERTEX
  5
6C8
  8
0
 62
     9
 10
0.0
 20
0.0
 30
0.0
 70
   128
 71
     8
 72
    10
 73
     4
  0
VERTEX
  5
6C9
  8
0
 62
     9
 10
0.0
 20
0.0
 30
0.0
 70
   128
 71
     1
 72
    18
 73
     3
  0
SEQEND
  5
6CA
  8
0
 62
     9
  0
ENDBLK
  5
6CD
  8
0
  0
BLOCK
  8
0
  2
E3_NODE_6_
 70
     0
 10
0.0
 20
0.0
 30
0.0
  3
E3_NODE_6_
  1

  0
POLYLINE
  5
6CF
  8
0
 62
     9
 66
     1
 10
0.0
 20
0.0
 30
0.0
 70
    64
 71
    70
 72
    88
  0
VERTEX
  5
6D0
  8
0
 10
1.026999950408936
 20
22.45499992370605
 30
8.17300033569336
 70
   192
  0
VERTEX
  5
6D1
  8
0
 10
1.026999950408936
 20
23.89599990844727
 30
0.0
 70
   192
  0
VERTEX
  5
6D2
  8
0
 10
-0.4000000059604645
 20
23.5
 30
0.0
 70
   192
  0
VERTEX
  5
6D3
  8
0
 10
1.026999950408936
 20
18.30500030517578
 30
15.35999965667725
 70
   192
  0
VERTEX
  5
6D4
  8
0
 10
-0.4000000059604645
 20
22.08300018310547
 30
8.036999702453613
 70
   192
  0
VERTEX
  5
6D5
  8
0
 10
1.026999950408936
 20
11.94799995422363
 30
20.69400024414062
 70
   192
  0
VERTEX
  5
6D6
  8
0
 10
-0.4000000059604645
 20
18.00200080871582
 30
15.10599994659424
 70
   192
  0
VERTEX
  5
6D7
  8
0
 10
-0.4000000059604645
 20
11.75
 30
20.35199928283691
 70
   192
  0
VERTEX
  5
6D8
  8
0
 10
-0.4000000059604645
 20
4.080999851226807
 30
23.14299964904785
 70
   192
  0
VERTEX
  5
6D9
  8
0
 10
1.026999950408936
 20
-4.14900016784668
 30
23.53300094604492
 70
   192
  0
VERTEX
  5
6DA
  8
0
 10
1.026999950408936
 20
4.14900016784668
 30
23.53300094604492
 70
   192
  0
VERTEX
  5
6DB
  8
0
 10
1.026999950408936
 20
-11.94799995422363
 30
20.69400024414062
 70
   192
  0
VERTEX
  5
6DC
  8
0
 10
-0.4000000059604645
 20
-4.080999851226807
 30
23.14299964904785
 70
   192
  0
VERTEX
  5
6DD
  8
0
 10
1.026999950408936
 20
-18.30500030517578
 30
15.35999965667725
 70
   192
  0
VERTEX
  5
6DE
  8
0
 10
-0.4000000059604645
 20
-11.75
 30
20.35199928283691
 70
   192
  0
VERTEX
  5
6DF
  8
0
 10
1.026999950408936
 20
-22.45499992370605
 30
8.17300033569336
 70
   192
  0
VERTEX
  5
6E0
  8
0
 10
-0.4000000059604645
 20
-18.00200080871582
 30
15.10599994659424
 70
   192
  0
VERTEX
  5
6E1
  8
0
 10
1.026999950408936
 20
-23.89599990844727
 30
0.0
 70
   192
  0
VERTEX
  5
6E2
  8
0
 10
-0.4000000059604645
 20
-22.08300018310547
 30
8.036999702453613
 70
   192
  0
VERTEX
  5
6E3
  8
0
 10
-0.4000000059604645
 20
-23.5
 30
0.0
 70
   192
  0
VERTEX
  5
6E4
  8
0
 10
-0.4000000059604645
 20
-22.08300018310547
 30
-8.036999702453613
 70
   192
  0
VERTEX
  5
6E5
  8
0
 10
1.026999950408936
 20
-22.45499992370605
 30
-8.17300033569336
 70
   192
  0
VERTEX
  5
6E6
  8
0
 10
-0.4000000059604645
 20
-18.00200080871582
 30
-15.10599994659424
 70
   192
  0
VERTEX
  5
6E7
  8
0
 10
1.026999950408936
 20
-11.94799995422363
 30
-20.69400024414062
 70
   192
  0
VERTEX
  5
6E8
  8
0
 10
1.026999950408936
 20
-18.30500030517578
 30
-15.35999965667725
 70
   192
  0
VERTEX
  5
6E9
  8
0
 10
1.026999950408936
 20
-4.14900016784668
 30
-23.53300094604492
 70
   192
  0
VERTEX
  5
6EA
  8
0
 10
-0.4000000059604645
 20
-11.75
 30
-20.35199928283691
 70
   192
  0
VERTEX
  5
6EB
  8
0
 10
1.026999950408936
 20
4.14900016784668
 30
-23.53300094604492
 70
   192
  0
VERTEX
  5
6EC
  8
0
 10
-0.4000000059604645
 20
-4.080999851226807
 30
-23.14299964904785
 70
   192
  0
VERTEX
  5
6ED
  8
0
 10
1.026999950408936
 20
11.94799995422363
 30
-20.69400024414062
 70
   192
  0
VERTEX
  5
6EE
  8
0
 10
-0.4000000059604645
 20
4.080999851226807
 30
-23.14299964904785
 70
   192
  0
VERTEX
  5
6EF
  8
0
 10
1.026999950408936
 20
18.30500030517578
 30
-15.35999965667725
 70
   192
  0
VERTEX
  5
6F0
  8
0
 10
-0.4000000059604645
 20
11.75
 30
-20.35199928283691
 70
   192
  0
VERTEX
  5
6F1
  8
0
 10
-0.4000000059604645
 20
18.00200080871582
 30
-15.10599994659424
 70
   192
  0
VERTEX
  5
6F2
  8
0
 10
-0.4000000059604645
 20
22.08300018310547
 30
-8.036999702453613
 70
   192
  0
VERTEX
  5
6F3
  8
0
 10
1.026999950408936
 20
22.45499992370605
 30
-8.17300033569336
 70
   192
  0
VERTEX
  5
6F4
  8
0
 10
2.194999933242798
 20
21.59799957275391
 30
7.861000061035156
 70
   192
  0
VERTEX
  5
6F5
  8
0
 10
2.194999933242798
 20
22.98399925231934
 30
0.0
 70
   192
  0
VERTEX
  5
6F6
  8
0
 10
2.194999933242798
 20
17.60700035095215
 30
14.77400016784668
 70
   192
  0
VERTEX
  5
6F7
  8
0
 10
2.194999933242798
 20
21.36499977111816
 30
8.263999938964844
 70
   192
  0
VERTEX
  5
6F8
  8
0
 10
2.194999933242798
 20
11.49199962615967
 30
19.90500068664551
 70
   192
  0
VERTEX
  5
6F9
  8
0
 10
2.194999933242798
 20
16.89299964904785
 30
15.37399959564209
 70
   192
  0
VERTEX
  5
6FA
  8
0
 10
2.194999933242798
 20
3.990999937057495
 30
22.63500022888184
 70
   192
  0
VERTEX
  5
6FB
  8
0
 10
2.194999933242798
 20
10.17599964141846
 30
20.38400077819824
 70
   192
  0
VERTEX
  5
6FC
  8
0
 10
2.194999933242798
 20
-3.990999937057495
 30
22.63500022888184
 70
   192
  0
VERTEX
  5
6FD
  8
0
 10
2.194999933242798
 20
2.121000051498413
 30
22.63500022888184
 70
   192
  0
VERTEX
  5
6FE
  8
0
 10
2.194999933242798
 20
-11.49199962615967
 30
19.90500068664551
 70
   192
  0
VERTEX
  5
6FF
  8
0
 10
2.194999933242798
 20
-6.190999984741211
 30
21.83499908447266
 70
   192
  0
VERTEX
  5
700
  8
0
 10
2.194999933242798
 20
-17.60700035095215
 30
14.77400016784668
 70
   192
  0
VERTEX
  5
701
  8
0
 10
2.194999933242798
 20
-13.64599990844727
 30
18.09799957275391
 70
   192
  0
VERTEX
  5
702
  8
0
 10
2.194999933242798
 20
-21.59799957275391
 30
7.861000061035156
 70
   192
  0
VERTEX
  5
703
  8
0
 10
2.194999933242798
 20
-19.24900054931641
 30
11.93099975585938
 70
   192
  0
VERTEX
  5
704
  8
0
 10
2.194999933242798
 20
-22.98399925231934
 30
0.0
 70
   192
  0
VERTEX
  5
705
  8
0
 10
2.194999933242798
 20
-22.25
 30
4.163000106811523
 70
   192
  0
VERTEX
  5
706
  8
0
 10
2.194999933242798
 20
-22.25
 30
-4.163000106811523
 70
   192
  0
VERTEX
  5
707
  8
0
 10
2.194999933242798
 20
-21.59799957275391
 30
-7.861000061035156
 70
   192
  0
VERTEX
  5
708
  8
0
 10
2.194999933242798
 20
-19.24900054931641
 30
-11.93099975585938
 70
   192
  0
VERTEX
  5
709
  8
0
 10
2.194999933242798
 20
-17.60700035095215
 30
-14.77400016784668
 70
   192
  0
VERTEX
  5
70A
  8
0
 10
2.194999933242798
 20
-13.64599990844727
 30
-18.09799957275391
 70
   192
  0
VERTEX
  5
70B
  8
0
 10
2.194999933242798
 20
-11.49199962615967
 30
-19.90500068664551
 70
   192
  0
VERTEX
  5
70C
  8
0
 10
2.194999933242798
 20
-6.190999984741211
 30
-21.83499908447266
 70
   192
  0
VERTEX
  5
70D
  8
0
 10
2.194999933242798
 20
-3.990999937057495
 30
-22.63500022888184
 70
   192
  0
VERTEX
  5
70E
  8
0
 10
2.194999933242798
 20
2.121000051498413
 30
-22.63500022888184
 70
   192
  0
VERTEX
  5
70F
  8
0
 10
2.194999933242798
 20
3.990999937057495
 30
-22.63500022888184
 70
   192
  0
VERTEX
  5
710
  8
0
 10
2.194999933242798
 20
10.17599964141846
 30
-20.38400077819824
 70
   192
  0
VERTEX
  5
711
  8
0
 10
2.194999933242798
 20
11.49199962615967
 30
-19.90500068664551
 70
   192
  0
VERTEX
  5
712
  8
0
 10
2.194999933242798
 20
16.89299964904785
 30
-15.37399959564209
 70
   192
  0
VERTEX
  5
713
  8
0
 10
2.194999933242798
 20
17.60700035095215
 30
-14.77400016784668
 70
   192
  0
VERTEX
  5
714
  8
0
 10
2.194999933242798
 20
21.36499977111816
 30
-8.263999938964844
 70
   192
  0
VERTEX
  5
715
  8
0
 10
2.194999933242798
 20
21.59799957275391
 30
-7.861000061035156
 70
   192
  0
VERTEX
  5
716
  8
0
 62
     9
 10
0.0
 20
0.0
 30
0.0
 70
   128
 71
     3
 72
     2
 73
     1
  0
VERTEX
  5
717
  8
0
 62
     9
 10
0.0
 20
0.0
 30
0.0
 70
   128
 71
     5
 72
     1
 73
     4
  0
VERTEX
  5
718
  8
0
 62
     9
 10
0.0
 20
0.0
 30
0.0
 70
   128
 71
     7
 72
     4
 73
     6
  0
VERTEX
  5
719
  8
0
 62
     9
 10
0.0
 20
0.0
 30
0.0
 70
   128
 71
     9
 72
     8
 73
     6
  0
VERTEX
  5
71A
  8
0
 62
     9
 10
0.0
 20
0.0
 30
0.0
 70
   128
 71
     9
 72
    11
 73
    10
  0
VERTEX
  5
71B
  8
0
 62
     9
 10
0.0
 20
0.0
 30
0.0
 70
   128
 71
    13
 72
    10
 73
    12
  0
VERTEX
  5
71C
  8
0
 62
     9
 10
0.0
 20
0.0
 30
0.0
 70
   128
 71
    15
 72
    12
 73
    14
  0
VERTEX
  5
71D
  8
0
 62
     9
 10
0.0
 20
0.0
 30
0.0
 70
   128
 71
    17
 72
    14
 73
    16
  0
VERTEX
  5
71E
  8
0
 62
     9
 10
0.0
 20
0.0
 30
0.0
 70
   128
 71
    19
 72
    16
 73
    18
  0
VERTEX
  5
71F
  8
0
 62
     9
 10
0.0
 20
0.0
 30
0.0
 70
   128
 71
    21
 72
    20
 73
    18
  0
VERTEX
  5
720
  8
0
 62
     9
 10
0.0
 20
0.0
 30
0.0
 70
   128
 71
    23
 72
    21
 73
    22
  0
VERTEX
  5
721
  8
0
 62
     9
 10
0.0
 20
0.0
 30
0.0
 70
   128
 71
    23
 72
    25
 73
    24
  0
VERTEX
  5
722
  8
0
 62
     9
 10
0.0
 20
0.0
 30
0.0
 70
   128
 71
    27
 72
    24
 73
    26
  0
VERTEX
  5
723
  8
0
 62
     9
 10
0.0
 20
0.0
 30
0.0
 70
   128
 71
    29
 72
    26
 73
    28
  0
VERTEX
  5
724
  8
0
 62
     9
 10
0.0
 20
0.0
 30
0.0
 70
   128
 71
    31
 72
    28
 73
    30
  0
VERTEX
  5
725
  8
0
 62
     9
 10
0.0
 20
0.0
 30
0.0
 70
   128
 71
    33
 72
    30
 73
    32
  0
VERTEX
  5
726
  8
0
 62
     9
 10
0.0
 20
0.0
 30
0.0
 70
   128
 71
    35
 72
    34
 73
    32
  0
VERTEX
  5
727
  8
0
 62
     9
 10
0.0
 20
0.0
 30
0.0
 70
   128
 71
    35
 72
    36
 73
     2
  0
VERTEX
  5
728
  8
0
 62
     9
 10
0.0
 20
0.0
 30
0.0
 70
   128
 71
    38
 72
    37
 73
     1
  0
VERTEX
  5
729
  8
0
 62
     9
 10
0.0
 20
0.0
 30
0.0
 70
   128
 71
    40
 72
    39
 73
     4
  0
VERTEX
  5
72A
  8
0
 62
     9
 10
0.0
 20
0.0
 30
0.0
 70
   128
 71
     4
 72
     1
 73
    40
  0
VERTEX
  5
72B
  8
0
 62
     9
 10
0.0
 20
0.0
 30
0.0
 70
   128
 71
    42
 72
    41
 73
     6
  0
VERTEX
  5
72C
  8
0
 62
     9
 10
0.0
 20
0.0
 30
0.0
 70
   128
 71
     6
 72
     4
 73
    42
  0
VERTEX
  5
72D
  8
0
 62
     9
 10
0.0
 20
0.0
 30
0.0
 70
   128
 71
    44
 72
    43
 73
    11
  0
VERTEX
  5
72E
  8
0
 62
     9
 10
0.0
 20
0.0
 30
0.0
 70
   128
 71
    11
 72
     6
 73
    44
  0
VERTEX
  5
72F
  8
0
 62
     9
 10
0.0
 20
0.0
 30
0.0
 70
   128
 71
    46
 72
    45
 73
    10
  0
VERTEX
  5
730
  8
0
 62
     9
 10
0.0
 20
0.0
 30
0.0
 70
   128
 71
    10
 72
    11
 73
    46
  0
VERTEX
  5
731
  8
0
 62
     9
 10
0.0
 20
0.0
 30
0.0
 70
   128
 71
    48
 72
    47
 73
    12
  0
VERTEX
  5
732
  8
0
 62
     9
 10
0.0
 20
0.0
 30
0.0
 70
   128
 71
    12
 72
    10
 73
    48
  0
VERTEX
  5
733
  8
0
 62
     9
 10
0.0
 20
0.0
 30
0.0
 70
   128
 71
    50
 72
    49
 73
    14
  0
VERTEX
  5
734
  8
0
 62
     9
 10
0.0
 20
0.0
 30
0.0
 70
   128
 71
    14
 72
    12
 73
    50
  0
VERTEX
  5
735
  8
0
 62
     9
 10
0.0
 20
0.0
 30
0.0
 70
   128
 71
    52
 72
    51
 73
    16
  0
VERTEX
  5
736
  8
0
 62
     9
 10
0.0
 20
0.0
 30
0.0
 70
   128
 71
    16
 72
    14
 73
    52
  0
VERTEX
  5
737
  8
0
 62
     9
 10
0.0
 20
0.0
 30
0.0
 70
   128
 71
    54
 72
    53
 73
    18
  0
VERTEX
  5
738
  8
0
 62
     9
 10
0.0
 20
0.0
 30
0.0
 70
   128
 71
    18
 72
    16
 73
    54
  0
VERTEX
  5
739
  8
0
 62
     9
 10
0.0
 20
0.0
 30
0.0
 70
   128
 71
    55
 72
    22
 73
    18
  0
VERTEX
  5
73A
  8
0
 62
     9
 10
0.0
 20
0.0
 30
0.0
 70
   128
 71
    55
 72
    56
 73
    22
  0
VERTEX
  5
73B
  8
0
 62
     9
 10
0.0
 20
0.0
 30
0.0
 70
   128
 71
    57
 72
    25
 73
    22
  0
VERTEX
  5
73C
  8
0
 62
     9
 10
0.0
 20
0.0
 30
0.0
 70
   128
 71
    57
 72
    58
 73
    25
  0
VERTEX
  5
73D
  8
0
 62
     9
 10
0.0
 20
0.0
 30
0.0
 70
   128
 71
    59
 72
    24
 73
    25
  0
VERTEX
  5
73E
  8
0
 62
     9
 10
0.0
 20
0.0
 30
0.0
 70
   128
 71
    59
 72
    60
 73
    24
  0
VERTEX
  5
73F
  8
0
 62
     9
 10
0.0
 20
0.0
 30
0.0
 70
   128
 71
    61
 72
    26
 73
    24
  0
VERTEX
  5
740
  8
0
 62
     9
 10
0.0
 20
0.0
 30
0.0
 70
   128
 71
    61
 72
    62
 73
    26
  0
VERTEX
  5
741
  8
0
 62
     9
 10
0.0
 20
0.0
 30
0.0
 70
   128
 71
    63
 72
    28
 73
    26
  0
VERTEX
  5
742
  8
0
 62
     9
 10
0.0
 20
0.0
 30
0.0
 70
   128
 71
    63
 72
    64
 73
    28
  0
VERTEX
  5
743
  8
0
 62
     9
 10
0.0
 20
0.0
 30
0.0
 70
   128
 71
    65
 72
    30
 73
    28
  0
VERTEX
  5
744
  8
0
 62
     9
 10
0.0
 20
0.0
 30
0.0
 70
   128
 71
    65
 72
    66
 73
    30
  0
VERTEX
  5
745
  8
0
 62
     9
 10
0.0
 20
0.0
 30
0.0
 70
   128
 71
    67
 72
    32
 73
    30
  0
VERTEX
  5
746
  8
0
 62
     9
 10
0.0
 20
0.0
 30
0.0
 70
   128
 71
    67
 72
    68
 73
    32
  0
VERTEX
  5
747
  8
0
 62
     9
 10
0.0
 20
0.0
 30
0.0
 70
   128
 71
    69
 72
    36
 73
    32
  0
VERTEX
  5
748
  8
0
 62
     9
 10
0.0
 20
0.0
 30
0.0
 70
   128
 71
    69
 72
    70
 73
    36
  0
VERTEX
  5
749
  8
0
 62
     9
 10
0.0
 20
0.0
 30
0.0
 70
   128
 71
    70
 72
    38
 73
     2
  0
VERTEX
  5
74A
  8
0
 62
     9
 10
0.0
 20
0.0
 30
0.0
 70
   128
 71
     2
 72
    36
 73
    70
  0
VERTEX
  5
74B
  8
0
 62
     9
 10
0.0
 20
0.0
 30
0.0
 70
   128
 71
    32
 72
    68
 73
    69
  0
VERTEX
  5
74C
  8
0
 62
     9
 10
0.0
 20
0.0
 30
0.0
 70
   128
 71
    30
 72
    66
 73
    67
  0
VERTEX
  5
74D
  8
0
 62
     9
 10
0.0
 20
0.0
 30
0.0
 70
   128
 71
    28
 72
    64
 73
    65
  0
VERTEX
  5
74E
  8
0
 62
     9
 10
0.0
 20
0.0
 30
0.0
 70
   128
 71
    26
 72
    62
 73
    63
  0
VERTEX
  5
74F
  8
0
 62
     9
 10
0.0
 20
0.0
 30
0.0
 70
   128
 71
    24
 72
    60
 73
    61
  0
VERTEX
  5
750
  8
0
 62
     9
 10
0.0
 20
0.0
 30
0.0
 70
   128
 71
    25
 72
    58
 73
    59
  0
VERTEX
  5
751
  8
0
 62
     9
 10
0.0
 20
0.0
 30
0.0
 70
   128
 71
    22
 72
    56
 73
    57
  0
VERTEX
  5
752
  8
0
 62
     9
 10
0.0
 20
0.0
 30
0.0
 70
   128
 71
    18
 72
    53
 73
    55
  0
VERTEX
  5
753
  8
0
 62
     9
 10
0.0
 20
0.0
 30
0.0
 70
   128
 71
    16
 72
    51
 73
    54
  0
VERTEX
  5
754
  8
0
 62
     9
 10
0.0
 20
0.0
 30
0.0
 70
   128
 71
    14
 72
    49
 73
    52
  0
VERTEX
  5
755
  8
0
 62
     9
 10
0.0
 20
0.0
 30
0.0
 70
   128
 71
    12
 72
    47
 73
    50
  0
VERTEX
  5
756
  8
0
 62
     9
 10
0.0
 20
0.0
 30
0.0
 70
   128
 71
    10
 72
    45
 73
    48
  0
VERTEX
  5
757
  8
0
 62
     9
 10
0.0
 20
0.0
 30
0.0
 70
   128
 71
    11
 72
    43
 73
    46
  0
VERTEX
  5
758
  8
0
 62
     9
 10
0.0
 20
0.0
 30
0.0
 70
   128
 71
     6
 72
    41
 73
    44
  0
VERTEX
  5
759
  8
0
 62
     9
 10
0.0
 20
0.0
 30
0.0
 70
   128
 71
     4
 72
    39
 73
    42
  0
VERTEX
  5
75A
  8
0
 62
     9
 10
0.0
 20
0.0
 30
0.0
 70
   128
 71
     1
 72
    37
 73
    40
  0
VERTEX
  5
75B
  8
0
 62
     9
 10
0.0
 20
0.0
 30
0.0
 70
   128
 71
     1
 72
     2
 73
    38
  0
VERTEX
  5
75C
  8
0
 62
     9
 10
0.0
 20
0.0
 30
0.0
 70
   128
 71
     2
 72
     3
 73
    35
  0
VERTEX
  5
75D
  8
0
 62
     9
 10
0.0
 20
0.0
 30
0.0
 70
   128
 71
    32
 72
    36
 73
    35
  0
VERTEX
  5
75E
  8
0
 62
     9
 10
0.0
 20
0.0
 30
0.0
 70
   128
 71
    32
 72
    34
 73
    33
  0
VERTEX
  5
75F
  8
0
 62
     9
 10
0.0
 20
0.0
 30
0.0
 70
   128
 71
    30
 72
    33
 73
    31
  0
VERTEX
  5
760
  8
0
 62
     9
 10
0.0
 20
0.0
 30
0.0
 70
   128
 71
    28
 72
    31
 73
    29
  0
VERTEX
  5
761
  8
0
 62
     9
 10
0.0
 20
0.0
 30
0.0
 70
   128
 71
    26
 72
    29
 73
    27
  0
VERTEX
  5
762
  8
0
 62
     9
 10
0.0
 20
0.0
 30
0.0
 70
   128
 71
    24
 72
    27
 73
    23
  0
VERTEX
  5
763
  8
0
 62
     9
 10
0.0
 20
0.0
 30
0.0
 70
   128
 71
    22
 72
    25
 73
    23
  0
VERTEX
  5
764
  8
0
 62
     9
 10
0.0
 20
0.0
 30
0.0
 70
   128
 71
    18
 72
    22
 73
    21
  0
VERTEX
  5
765
  8
0
 62
     9
 10
0.0
 20
0.0
 30
0.0
 70
   128
 71
    18
 72
    20
 73
    19
  0
VERTEX
  5
766
  8
0
 62
     9
 10
0.0
 20
0.0
 30
0.0
 70
   128
 71
    16
 72
    19
 73
    17
  0
VERTEX
  5
767
  8
0
 62
     9
 10
0.0
 20
0.0
 30
0.0
 70
   128
 71
    14
 72
    17
 73
    15
  0
VERTEX
  5
768
  8
0
 62
     9
 10
0.0
 20
0.0
 30
0.0
 70
   128
 71
    12
 72
    15
 73
    13
  0
VERTEX
  5
769
  8
0
 62
     9
 10
0.0
 20
0.0
 30
0.0
 70
   128
 71
    10
 72
    13
 73
     9
  0
VERTEX
  5
76A
  8
0
 62
     9
 10
0.0
 20
0.0
 30
0.0
 70
   128
 71
     6
 72
    11
 73
     9
  0
VERTEX
  5
76B
  8
0
 62
     9
 10
0.0
 20
0.0
 30
0.0
 70
   128
 71
     6
 72
     8
 73
     7
  0
VERTEX
  5
76C
  8
0
 62
     9
 10
0.0
 20
0.0
 30
0.0
 70
   128
 71
     4
 72
     7
 73
     5
  0
VERTEX
  5
76D
  8
0
 62
     9
 10
0.0
 20
0.0
 30
0.0
 70
   128
 71
     1
 72
     5
 73
     3
  0
SEQEND
  5
76E
  8
0
 62
     9
  0
ENDBLK
  5
771
  8
0
  0
BLOCK
  8
0
  2
E3_NODE_7_
 70
     0
 10
0.0
 20
0.0
 30
0.0
  3
E3_NODE_7_
  1

  0
POLYLINE
  5
773
  8
0
 62
     9
 66
     1
 10
0.0
 20
0.0
 30
0.0
 70
    64
 71
    51
 72
    51
  0
VERTEX
  5
774
  8
0
 10
2.194999933242798
 20
21.59799957275391
 30
7.861000061035156
 70
   192
  0
VERTEX
  5
775
  8
0
 10
4.099999904632568
 20
19.04899978637695
 30
7.380000114440918
 70
   192
  0
VERTEX
  5
776
  8
0
 10
4.099999904632568
 20
20.42900085449219
 30
0.0
 70
   192
  0
VERTEX
  5
777
  8
0
 10
2.194999933242798
 20
22.98399925231934
 30
0.0
 70
   192
  0
VERTEX
  5
778
  8
0
 10
2.194999933242798
 20
17.60700035095215
 30
14.77400016784668
 70
   192
  0
VERTEX
  5
779
  8
0
 10
4.099999904632568
 20
15.09700012207031
 30
13.76299953460693
 70
   192
  0
VERTEX
  5
77A
  8
0
 10
2.194999933242798
 20
21.36499977111816
 30
8.263999938964844
 70
   192
  0
VERTEX
  5
77B
  8
0
 10
2.194999933242798
 20
16.89299964904785
 30
15.37399959564209
 70
   192
  0
VERTEX
  5
77C
  8
0
 10
2.194999933242798
 20
11.49199962615967
 30
19.90500068664551
 70
   192
  0
VERTEX
  5
77D
  8
0
 10
4.099999904632568
 20
9.105999946594238
 30
18.28700065612793
 70
   192
  0
VERTEX
  5
77E
  8
0
 10
2.194999933242798
 20
10.17599964141846
 30
20.38400077819824
 70
   192
  0
VERTEX
  5
77F
  8
0
 10
2.194999933242798
 20
3.990999937057495
 30
22.63500022888184
 70
   192
  0
VERTEX
  5
780
  8
0
 10
4.099999904632568
 20
1.884999990463257
 30
20.34099960327148
 70
   192
  0
VERTEX
  5
781
  8
0
 10
2.194999933242798
 20
2.121000051498413
 30
22.63500022888184
 70
   192
  0
VERTEX
  5
782
  8
0
 10
2.194999933242798
 20
-3.990999937057495
 30
22.63500022888184
 70
   192
  0
VERTEX
  5
783
  8
0
 10
4.099999904632568
 20
-5.591000080108643
 30
19.64900016784668
 70
   192
  0
VERTEX
  5
784
  8
0
 10
2.194999933242798
 20
-6.190999984741211
 30
21.83499908447266
 70
   192
  0
VERTEX
  5
785
  8
0
 10
2.194999933242798
 20
-11.49199962615967
 30
19.90500068664551
 70
   192
  0
VERTEX
  5
786
  8
0
 10
4.099999904632568
 20
-12.31099987030029
 30
16.30200004577637
 70
   192
  0
VERTEX
  5
787
  8
0
 10
2.194999933242798
 20
-13.64599990844727
 30
18.09799957275391
 70
   192
  0
VERTEX
  5
788
  8
0
 10
2.194999933242798
 20
-17.60700035095215
 30
14.77400016784668
 70
   192
  0
VERTEX
  5
789
  8
0
 10
4.099999904632568
 20
-17.36899948120117
 30
10.75399971008301
 70
   192
  0
VERTEX
  5
78A
  8
0
 10
2.194999933242798
 20
-19.24900054931641
 30
11.93099975585938
 70
   192
  0
VERTEX
  5
78B
  8
0
 10
2.194999933242798
 20
-21.59799957275391
 30
7.861000061035156
 70
   192
  0
VERTEX
  5
78C
  8
0
 10
4.099999904632568
 20
-20.08099937438965
 30
3.753999948501587
 70
   192
  0
VERTEX
  5
78D
  8
0
 10
2.194999933242798
 20
-22.25
 30
4.163000106811523
 70
   192
  0
VERTEX
  5
78E
  8
0
 10
2.194999933242798
 20
-22.98399925231934
 30
0.0
 70
   192
  0
VERTEX
  5
78F
  8
0
 10
4.099999904632568
 20
-20.08099937438965
 30
-3.753999948501587
 70
   192
  0
VERTEX
  5
790
  8
0
 10
4.099999904632568
 20
-17.36899948120117
 30
-10.75399971008301
 70
   192
  0
VERTEX
  5
791
  8
0
 10
2.194999933242798
 20
-21.59799957275391
 30
-7.861000061035156
 70
   192
  0
VERTEX
  5
792
  8
0
 10
2.194999933242798
 20
-22.25
 30
-4.163000106811523
 70
   192
  0
VERTEX
  5
793
  8
0
 10
4.099999904632568
 20
-12.31099987030029
 30
-16.30200004577637
 70
   192
  0
VERTEX
  5
794
  8
0
 10
2.194999933242798
 20
-17.60700035095215
 30
-14.77400016784668
 70
   192
  0
VERTEX
  5
795
  8
0
 10
2.194999933242798
 20
-19.24900054931641
 30
-11.93099975585938
 70
   192
  0
VERTEX
  5
796
  8
0
 10
4.099999904632568
 20
-5.591000080108643
 30
-19.64900016784668
 70
   192
  0
VERTEX
  5
797
  8
0
 10
2.194999933242798
 20
-11.49199962615967
 30
-19.90500068664551
 70
   192
  0
VERTEX
  5
798
  8
0
 10
2.194999933242798
 20
-13.64599990844727
 30
-18.09799957275391
 70
   192
  0
VERTEX
  5
799
  8
0
 10
4.099999904632568
 20
1.884999990463257
 30
-20.34099960327148
 70
   192
  0
VERTEX
  5
79A
  8
0
 10
2.194999933242798
 20
-3.990999937057495
 30
-22.63500022888184
 70
   192
  0
VERTEX
  5
79B
  8
0
 10
2.194999933242798
 20
-6.190999984741211
 30
-21.83499908447266
 70
   192
  0
VERTEX
  5
79C
  8
0
 10
4.099999904632568
 20
9.105999946594238
 30
-18.28700065612793
 70
   192
  0
VERTEX
  5
79D
  8
0
 10
2.194999933242798
 20
3.990999937057495
 30
-22.63500022888184
 70
   192
  0
VERTEX
  5
79E
  8
0
 10
2.194999933242798
 20
2.121000051498413
 30
-22.63500022888184
 70
   192
  0
VERTEX
  5
79F
  8
0
 10
4.099999904632568
 20
15.09700012207031
 30
-13.76299953460693
 70
   192
  0
VERTEX
  5
7A0
  8
0
 10
2.194999933242798
 20
11.49199962615967
 30
-19.90500068664551
 70
   192
  0
VERTEX
  5
7A1
  8
0
 10
2.194999933242798
 20
10.17599964141846
 30
-20.38400077819824
 70
   192
  0
VERTEX
  5
7A2
  8
0
 10
2.194999933242798
 20
17.60700035095215
 30
-14.77400016784668
 70
   192
  0
VERTEX
  5
7A3
  8
0
 10
2.194999933242798
 20
21.36499977111816
 30
-8.263999938964844
 70
   192
  0
VERTEX
  5
7A4
  8
0
 10
4.099999904632568
 20
19.04899978637695
 30
-7.380000114440918
 70
   192
  0
VERTEX
  5
7A5
  8
0
 10
2.194999933242798
 20
16.89299964904785
 30
-15.37399959564209
 70
   192
  0
VERTEX
  5
7A6
  8
0
 10
2.194999933242798
 20
21.59799957275391
 30
-7.861000061035156
 70
   192
  0
VERTEX
  5
7A7
  8
0
 62
     9
 10
0.0
 20
0.0
 30
0.0
 70
   128
 71
     3
 72
     2
 73
     1
  0
VERTEX
  5
7A8
  8
0
 62
     9
 10
0.0
 20
0.0
 30
0.0
 70
   128
 71
     1
 72
     4
 73
     3
  0
VERTEX
  5
7A9
  8
0
 62
     9
 10
0.0
 20
0.0
 30
0.0
 70
   128
 71
     2
 72
     6
 73
     5
  0
VERTEX
  5
7AA
  8
0
 62
     9
 10
0.0
 20
0.0
 30
0.0
 70
   128
 71
     5
 72
     7
 73
     2
  0
VERTEX
  5
7AB
  8
0
 62
     9
 10
0.0
 20
0.0
 30
0.0
 70
   128
 71
     9
 72
     8
 73
     6
  0
VERTEX
  5
7AC
  8
0
 62
     9
 10
0.0
 20
0.0
 30
0.0
 70
   128
 71
     6
 72
    10
 73
     9
  0
VERTEX
  5
7AD
  8
0
 62
     9
 10
0.0
 20
0.0
 30
0.0
 70
   128
 71
    12
 72
    11
 73
    10
  0
VERTEX
  5
7AE
  8
0
 62
     9
 10
0.0
 20
0.0
 30
0.0
 70
   128
 71
    10
 72
    13
 73
    12
  0
VERTEX
  5
7AF
  8
0
 62
     9
 10
0.0
 20
0.0
 30
0.0
 70
   128
 71
    15
 72
    14
 73
    13
  0
VERTEX
  5
7B0
  8
0
 62
     9
 10
0.0
 20
0.0
 30
0.0
 70
   128
 71
    13
 72
    16
 73
    15
  0
VERTEX
  5
7B1
  8
0
 62
     9
 10
0.0
 20
0.0
 30
0.0
 70
   128
 71
    18
 72
    17
 73
    16
  0
VERTEX
  5
7B2
  8
0
 62
     9
 10
0.0
 20
0.0
 30
0.0
 70
   128
 71
    16
 72
    19
 73
    18
  0
VERTEX
  5
7B3
  8
0
 62
     9
 10
0.0
 20
0.0
 30
0.0
 70
   128
 71
    21
 72
    20
 73
    19
  0
VERTEX
  5
7B4
  8
0
 62
     9
 10
0.0
 20
0.0
 30
0.0
 70
   128
 71
    19
 72
    22
 73
    21
  0
VERTEX
  5
7B5
  8
0
 62
     9
 10
0.0
 20
0.0
 30
0.0
 70
   128
 71
    24
 72
    23
 73
    22
  0
VERTEX
  5
7B6
  8
0
 62
     9
 10
0.0
 20
0.0
 30
0.0
 70
   128
 71
    22
 72
    25
 73
    24
  0
VERTEX
  5
7B7
  8
0
 62
     9
 10
0.0
 20
0.0
 30
0.0
 70
   128
 71
    27
 72
    26
 73
    25
  0
VERTEX
  5
7B8
  8
0
 62
     9
 10
0.0
 20
0.0
 30
0.0
 70
   128
 71
    25
 72
    28
 73
    27
  0
VERTEX
  5
7B9
  8
0
 62
     9
 10
0.0
 20
0.0
 30
0.0
 70
   128
 71
    30
 72
    28
 73
    29
  0
VERTEX
  5
7BA
  8
0
 62
     9
 10
0.0
 20
0.0
 30
0.0
 70
   128
 71
    30
 72
    31
 73
    28
  0
VERTEX
  5
7BB
  8
0
 62
     9
 10
0.0
 20
0.0
 30
0.0
 70
   128
 71
    33
 72
    29
 73
    32
  0
VERTEX
  5
7BC
  8
0
 62
     9
 10
0.0
 20
0.0
 30
0.0
 70
   128
 71
    33
 72
    34
 73
    29
  0
VERTEX
  5
7BD
  8
0
 62
     9
 10
0.0
 20
0.0
 30
0.0
 70
   128
 71
    36
 72
    32
 73
    35
  0
VERTEX
  5
7BE
  8
0
 62
     9
 10
0.0
 20
0.0
 30
0.0
 70
   128
 71
    36
 72
    37
 73
    32
  0
VERTEX
  5
7BF
  8
0
 62
     9
 10
0.0
 20
0.0
 30
0.0
 70
   128
 71
    39
 72
    35
 73
    38
  0
VERTEX
  5
7C0
  8
0
 62
     9
 10
0.0
 20
0.0
 30
0.0
 70
   128
 71
    39
 72
    40
 73
    35
  0
VERTEX
  5
7C1
  8
0
 62
     9
 10
0.0
 20
0.0
 30
0.0
 70
   128
 71
    42
 72
    38
 73
    41
  0
VERTEX
  5
7C2
  8
0
 62
     9
 10
0.0
 20
0.0
 30
0.0
 70
   128
 71
    42
 72
    43
 73
    38
  0
VERTEX
  5
7C3
  8
0
 62
     9
 10
0.0
 20
0.0
 30
0.0
 70
   128
 71
    45
 72
    41
 73
    44
  0
VERTEX
  5
7C4
  8
0
 62
     9
 10
0.0
 20
0.0
 30
0.0
 70
   128
 71
    45
 72
    46
 73
    41
  0
VERTEX
  5
7C5
  8
0
 62
     9
 10
0.0
 20
0.0
 30
0.0
 70
   128
 71
    49
 72
    48
 73
    47
  0
VERTEX
  5
7C6
  8
0
 62
     9
 10
0.0
 20
0.0
 30
0.0
 70
   128
 71
    47
 72
    50
 73
    44
  0
VERTEX
  5
7C7
  8
0
 62
     9
 10
0.0
 20
0.0
 30
0.0
 70
   128
 71
     3
 72
     4
 73
    51
  0
VERTEX
  5
7C8
  8
0
 62
     9
 10
0.0
 20
0.0
 30
0.0
 70
   128
 71
    51
 72
    48
 73
    49
  0
VERTEX
  5
7C9
  8
0
 62
     9
 10
0.0
 20
0.0
 30
0.0
 70
   128
 71
    51
 72
    49
 73
     3
  0
VERTEX
  5
7CA
  8
0
 62
     9
 10
0.0
 20
0.0
 30
0.0
 70
   128
 71
    47
 72
    44
 73
    49
  0
VERTEX
  5
7CB
  8
0
 62
     9
 10
0.0
 20
0.0
 30
0.0
 70
   128
 71
    44
 72
    50
 73
    45
  0
VERTEX
  5
7CC
  8
0
 62
     9
 10
0.0
 20
0.0
 30
0.0
 70
   128
 71
    41
 72
    46
 73
    42
  0
VERTEX
  5
7CD
  8
0
 62
     9
 10
0.0
 20
0.0
 30
0.0
 70
   128
 71
    38
 72
    43
 73
    39
  0
VERTEX
  5
7CE
  8
0
 62
     9
 10
0.0
 20
0.0
 30
0.0
 70
   128
 71
    35
 72
    40
 73
    36
  0
VERTEX
  5
7CF
  8
0
 62
     9
 10
0.0
 20
0.0
 30
0.0
 70
   128
 71
    32
 72
    37
 73
    33
  0
VERTEX
  5
7D0
  8
0
 62
     9
 10
0.0
 20
0.0
 30
0.0
 70
   128
 71
    29
 72
    34
 73
    30
  0
VERTEX
  5
7D1
  8
0
 62
     9
 10
0.0
 20
0.0
 30
0.0
 70
   128
 71
    28
 72
    31
 73
    27
  0
VERTEX
  5
7D2
  8
0
 62
     9
 10
0.0
 20
0.0
 30
0.0
 70
   128
 71
    25
 72
    26
 73
    24
  0
VERTEX
  5
7D3
  8
0
 62
     9
 10
0.0
 20
0.0
 30
0.0
 70
   128
 71
    22
 72
    23
 73
    21
  0
VERTEX
  5
7D4
  8
0
 62
     9
 10
0.0
 20
0.0
 30
0.0
 70
   128
 71
    19
 72
    20
 73
    18
  0
VERTEX
  5
7D5
  8
0
 62
     9
 10
0.0
 20
0.0
 30
0.0
 70
   128
 71
    16
 72
    17
 73
    15
  0
VERTEX
  5
7D6
  8
0
 62
     9
 10
0.0
 20
0.0
 30
0.0
 70
   128
 71
    13
 72
    14
 73
    12
  0
VERTEX
  5
7D7
  8
0
 62
     9
 10
0.0
 20
0.0
 30
0.0
 70
   128
 71
    10
 72
    11
 73
     9
  0
VERTEX
  5
7D8
  8
0
 62
     9
 10
0.0
 20
0.0
 30
0.0
 70
   128
 71
     6
 72
     8
 73
     5
  0
VERTEX
  5
7D9
  8
0
 62
     9
 10
0.0
 20
0.0
 30
0.0
 70
   128
 71
     2
 72
     7
 73
     1
  0
SEQEND
  5
7DA
  8
0
 62
     9
  0
ENDBLK
  5
7DD
  8
0
  0
BLOCK
  8
0
  2
E3_NODE_8_
 70
     0
 10
0.0
 20
0.0
 30
0.0
  3
E3_NODE_8_
  1

  0
POLYLINE
  5
7DF
  8
0
 62
     9
 66
     1
 10
0.0
 20
0.0
 30
0.0
 70
    64
 71
    66
 72
    83
  0
VERTEX
  5
7E0
  8
0
 10
5.526999950408936
 20
19.41799926757812
 30
7.52299976348877
 70
   192
  0
VERTEX
  5
7E1
  8
0
 10
5.526999950408936
 20
20.82399940490723
 30
0.0
 70
   192
  0
VERTEX
  5
7E2
  8
0
 10
4.099999904632568
 20
20.42900085449219
 30
0.0
 70
   192
  0
VERTEX
  5
7E3
  8
0
 10
5.526999950408936
 20
15.38899993896484
 30
14.0290002822876
 70
   192
  0
VERTEX
  5
7E4
  8
0
 10
4.099999904632568
 20
19.04899978637695
 30
7.380000114440918
 70
   192
  0
VERTEX
  5
7E5
  8
0
 10
5.526999950408936
 20
9.281999588012695
 30
18.64100074768066
 70
   192
  0
VERTEX
  5
7E6
  8
0
 10
4.099999904632568
 20
15.09700012207031
 30
13.76299953460693
 70
   192
  0
VERTEX
  5
7E7
  8
0
 10
5.526999950408936
 20
1.921000003814697
 30
20.73600006103516
 70
   192
  0
VERTEX
  5
7E8
  8
0
 10
4.099999904632568
 20
9.105999946594238
 30
18.28700065612793
 70
   192
  0
VERTEX
  5
7E9
  8
0
 10
4.099999904632568
 20
1.884999990463257
 30
20.34099960327148
 70
   192
  0
VERTEX
  5
7EA
  8
0
 10
4.099999904632568
 20
-5.591000080108643
 30
19.64900016784668
 70
   192
  0
VERTEX
  5
7EB
  8
0
 10
5.526999950408936
 20
-12.55000019073486
 30
16.61800003051758
 70
   192
  0
VERTEX
  5
7EC
  8
0
 10
5.526999950408936
 20
-5.698999881744385
 30
20.03000068664551
 70
   192
  0
VERTEX
  5
7ED
  8
0
 10
5.526999950408936
 20
-17.70499992370605
 30
10.96300029754639
 70
   192
  0
VERTEX
  5
7EE
  8
0
 10
4.099999904632568
 20
-12.31099987030029
 30
16.30200004577637
 70
   192
  0
VERTEX
  5
7EF
  8
0
 10
5.526999950408936
 20
-20.46999931335449
 30
3.825999975204468
 70
   192
  0
VERTEX
  5
7F0
  8
0
 10
4.099999904632568
 20
-17.36899948120117
 30
10.75399971008301
 70
   192
  0
VERTEX
  5
7F1
  8
0
 10
5.526999950408936
 20
-20.46999931335449
 30
-3.825999975204468
 70
   192
  0
VERTEX
  5
7F2
  8
0
 10
4.099999904632568
 20
-20.08099937438965
 30
3.753999948501587
 70
   192
  0
VERTEX
  5
7F3
  8
0
 10
4.099999904632568
 20
-20.08099937438965
 30
-3.753999948501587
 70
   192
  0
VERTEX
  5
7F4
  8
0
 10
4.099999904632568
 20
-17.36899948120117
 30
-10.75399971008301
 70
   192
  0
VERTEX
  5
7F5
  8
0
 10
5.526999950408936
 20
-17.70499992370605
 30
-10.96300029754639
 70
   192
  0
VERTEX
  5
7F6
  8
0
 10
4.099999904632568
 20
-12.31099987030029
 30
-16.30200004577637
 70
   192
  0
VERTEX
  5
7F7
  8
0
 10
5.526999950408936
 20
-12.55000019073486
 30
-16.61800003051758
 70
   192
  0
VERTEX
  5
7F8
  8
0
 10
4.099999904632568
 20
-5.591000080108643
 30
-19.64900016784668
 70
   192
  0
VERTEX
  5
7F9
  8
0
 10
5.526999950408936
 20
1.921000003814697
 30
-20.73600006103516
 70
   192
  0
VERTEX
  5
7FA
  8
0
 10
5.526999950408936
 20
-5.698999881744385
 30
-20.03000068664551
 70
   192
  0
VERTEX
  5
7FB
  8
0
 10
5.526999950408936
 20
9.281999588012695
 30
-18.64100074768066
 70
   192
  0
VERTEX
  5
7FC
  8
0
 10
4.099999904632568
 20
1.884999990463257
 30
-20.34099960327148
 70
   192
  0
VERTEX
  5
7FD
  8
0
 10
5.526999950408936
 20
15.38899993896484
 30
-14.0290002822876
 70
   192
  0
VERTEX
  5
7FE
  8
0
 10
4.099999904632568
 20
9.105999946594238
 30
-18.28700065612793
 70
   192
  0
VERTEX
  5
7FF
  8
0
 10
4.099999904632568
 20
15.09700012207031
 30
-13.76299953460693
 70
   192
  0
VERTEX
  5
800
  8
0
 10
4.099999904632568
 20
19.04899978637695
 30
-7.380000114440918
 70
   192
  0
VERTEX
  5
801
  8
0
 10
5.526999950408936
 20
19.41799926757812
 30
-7.52299976348877
 70
   192
  0
VERTEX
  5
802
  8
0
 10
6.695000171661377
 20
18.56800079345703
 30
7.192999839782715
 70
   192
  0
VERTEX
  5
803
  8
0
 10
6.695000171661377
 20
14.71599960327148
 30
13.41499996185303
 70
   192
  0
VERTEX
  5
804
  8
0
 10
6.695000171661377
 20
18.32999992370605
 30
7.578999996185303
 70
   192
  0
VERTEX
  5
805
  8
0
 10
6.695000171661377
 20
8.87600040435791
 30
17.82500076293945
 70
   192
  0
VERTEX
  5
806
  8
0
 10
6.695000171661377
 20
13.99100017547607
 30
13.96199989318848
 70
   192
  0
VERTEX
  5
807
  8
0
 10
6.695000171661377
 20
1.837000012397766
 30
19.82799911499023
 70
   192
  0
VERTEX
  5
808
  8
0
 10
6.695000171661377
 20
7.564000129699707
 30
18.19899940490723
 70
   192
  0
VERTEX
  5
809
  8
0
 10
6.695000171661377
 20
-5.448999881744385
 30
19.15299987792969
 70
   192
  0
VERTEX
  5
80A
  8
0
 10
6.695000171661377
 20
0.0230000000447035
 30
19.65999984741211
 70
   192
  0
VERTEX
  5
80B
  8
0
 10
6.695000171661377
 20
-12.0
 30
15.89099979400635
 70
   192
  0
VERTEX
  5
80C
  8
0
 10
6.695000171661377
 20
-7.491000175476074
 30
18.13599967956543
 70
   192
  0
VERTEX
  5
80D
  8
0
 10
6.695000171661377
 20
-16.93000030517578
 30
10.48299980163574
 70
   192
  0
VERTEX
  5
80E
  8
0
 10
6.695000171661377
 20
-13.8459997177124
 30
13.86600017547607
 70
   192
  0
VERTEX
  5
80F
  8
0
 10
6.695000171661377
 20
-19.57399940490723
 30
3.658999919891357
 70
   192
  0
VERTEX
  5
810
  8
0
 10
6.695000171661377
 20
-18.08600044250488
 30
7.5
 70
   192
  0
VERTEX
  5
811
  8
0
 10
6.695000171661377
 20
-19.57399940490723
 30
0.0
 70
   192
  0
VERTEX
  5
812
  8
0
 10
6.695000171661377
 20
-19.57399940490723
 30
-3.658999919891357
 70
   192
  0
VERTEX
  5
813
  8
0
 10
6.695000171661377
 20
-18.08600044250488
 30
-7.5
 70
   192
  0
VERTEX
  5
814
  8
0
 10
6.695000171661377
 20
-16.93000030517578
 30
-10.48299980163574
 70
   192
  0
VERTEX
  5
815
  8
0
 10
6.695000171661377
 20
-13.8459997177124
 30
-13.86600017547607
 70
   192
  0
VERTEX
  5
816
  8
0
 10
6.695000171661377
 20
-12.0
 30
-15.89099979400635
 70
   192
  0
VERTEX
  5
817
  8
0
 10
6.695000171661377
 20
-7.491000175476074
 30
-18.13599967956543
 70
   192
  0
VERTEX
  5
818
  8
0
 10
6.695000171661377
 20
-5.448999881744385
 30
-19.15299987792969
 70
   192
  0
VERTEX
  5
819
  8
0
 10
6.695000171661377
 20
0.0230000000447035
 30
-19.65999984741211
 70
   192
  0
VERTEX
  5
81A
  8
0
 10
6.695000171661377
 20
1.837000012397766
 30
-19.82799911499023
 70
   192
  0
VERTEX
  5
81B
  8
0
 10
6.695000171661377
 20
7.564000129699707
 30
-18.19899940490723
 70
   192
  0
VERTEX
  5
81C
  8
0
 10
6.695000171661377
 20
8.87600040435791
 30
-17.82500076293945
 70
   192
  0
VERTEX
  5
81D
  8
0
 10
6.695000171661377
 20
13.99100017547607
 30
-13.96199989318848
 70
   192
  0
VERTEX
  5
81E
  8
0
 10
6.695000171661377
 20
14.71599960327148
 30
-13.41499996185303
 70
   192
  0
VERTEX
  5
81F
  8
0
 10
6.695000171661377
 20
18.32999992370605
 30
-7.578999996185303
 70
   192
  0
VERTEX
  5
820
  8
0
 10
6.695000171661377
 20
18.56800079345703
 30
-7.192999839782715
 70
   192
  0
VERTEX
  5
821
  8
0
 10
6.695000171661377
 20
19.91300010681152
 30
0.0
 70
   192
  0
VERTEX
  5
822
  8
0
 62
     9
 10
0.0
 20
0.0
 30
0.0
 70
   128
 71
     3
 72
     2
 73
     1
  0
VERTEX
  5
823
  8
0
 62
     9
 10
0.0
 20
0.0
 30
0.0
 70
   128
 71
     5
 72
     1
 73
     4
  0
VERTEX
  5
824
  8
0
 62
     9
 10
0.0
 20
0.0
 30
0.0
 70
   128
 71
     7
 72
     4
 73
     6
  0
VERTEX
  5
825
  8
0
 62
     9
 10
0.0
 20
0.0
 30
0.0
 70
   128
 71
     9
 72
     6
 73
     8
  0
VERTEX
  5
826
  8
0
 62
     9
 10
0.0
 20
0.0
 30
0.0
 70
   128
 71
    11
 72
    10
 73
     8
  0
VERTEX
  5
827
  8
0
 62
     9
 10
0.0
 20
0.0
 30
0.0
 70
   128
 71
    11
 72
    13
 73
    12
  0
VERTEX
  5
828
  8
0
 62
     9
 10
0.0
 20
0.0
 30
0.0
 70
   128
 71
    15
 72
    12
 73
    14
  0
VERTEX
  5
829
  8
0
 62
     9
 10
0.0
 20
0.0
 30
0.0
 70
   128
 71
    17
 72
    14
 73
    16
  0
VERTEX
  5
82A
  8
0
 62
     9
 10
0.0
 20
0.0
 30
0.0
 70
   128
 71
    19
 72
    16
 73
    18
  0
VERTEX
  5
82B
  8
0
 62
     9
 10
0.0
 20
0.0
 30
0.0
 70
   128
 71
    21
 72
    20
 73
    18
  0
VERTEX
  5
82C
  8
0
 62
     9
 10
0.0
 20
0.0
 30
0.0
 70
   128
 71
    23
 72
    21
 73
    22
  0
VERTEX
  5
82D
  8
0
 62
     9
 10
0.0
 20
0.0
 30
0.0
 70
   128
 71
    25
 72
    23
 73
    24
  0
VERTEX
  5
82E
  8
0
 62
     9
 10
0.0
 20
0.0
 30
0.0
 70
   128
 71
    25
 72
    27
 73
    26
  0
VERTEX
  5
82F
  8
0
 62
     9
 10
0.0
 20
0.0
 30
0.0
 70
   128
 71
    29
 72
    26
 73
    28
  0
VERTEX
  5
830
  8
0
 62
     9
 10
0.0
 20
0.0
 30
0.0
 70
   128
 71
    31
 72
    28
 73
    30
  0
VERTEX
  5
831
  8
0
 62
     9
 10
0.0
 20
0.0
 30
0.0
 70
   128
 71
    33
 72
    32
 73
    30
  0
VERTEX
  5
832
  8
0
 62
     9
 10
0.0
 20
0.0
 30
0.0
 70
   128
 71
     3
 72
    33
 73
    34
  0
VERTEX
  5
833
  8
0
 62
     9
 10
0.0
 20
0.0
 30
0.0
 70
   128
 71
    35
 72
     1
 73
     2
  0
VERTEX
  5
834
  8
0
 62
     9
 10
0.0
 20
0.0
 30
0.0
 70
   128
 71
    37
 72
    36
 73
     4
  0
VERTEX
  5
835
  8
0
 62
     9
 10
0.0
 20
0.0
 30
0.0
 70
   128
 71
     4
 72
     1
 73
    37
  0
VERTEX
  5
836
  8
0
 62
     9
 10
0.0
 20
0.0
 30
0.0
 70
   128
 71
    39
 72
    38
 73
     6
  0
VERTEX
  5
837
  8
0
 62
     9
 10
0.0
 20
0.0
 30
0.0
 70
   128
 71
     6
 72
     4
 73
    39
  0
VERTEX
  5
838
  8
0
 62
     9
 10
0.0
 20
0.0
 30
0.0
 70
   128
 71
    41
 72
    40
 73
     8
  0
VERTEX
  5
839
  8
0
 62
     9
 10
0.0
 20
0.0
 30
0.0
 70
   128
 71
     8
 72
     6
 73
    41
  0
VERTEX
  5
83A
  8
0
 62
     9
 10
0.0
 20
0.0
 30
0.0
 70
   128
 71
    43
 72
    42
 73
    13
  0
VERTEX
  5
83B
  8
0
 62
     9
 10
0.0
 20
0.0
 30
0.0
 70
   128
 71
    13
 72
     8
 73
    43
  0
VERTEX
  5
83C
  8
0
 62
     9
 10
0.0
 20
0.0
 30
0.0
 70
   128
 71
    45
 72
    44
 73
    12
  0
VERTEX
  5
83D
  8
0
 62
     9
 10
0.0
 20
0.0
 30
0.0
 70
   128
 71
    12
 72
    13
 73
    45
  0
VERTEX
  5
83E
  8
0
 62
     9
 10
0.0
 20
0.0
 30
0.0
 70
   128
 71
    47
 72
    46
 73
    14
  0
VERTEX
  5
83F
  8
0
 62
     9
 10
0.0
 20
0.0
 30
0.0
 70
   128
 71
    14
 72
    12
 73
    47
  0
VERTEX
  5
840
  8
0
 62
     9
 10
0.0
 20
0.0
 30
0.0
 70
   128
 71
    49
 72
    48
 73
    16
  0
VERTEX
  5
841
  8
0
 62
     9
 10
0.0
 20
0.0
 30
0.0
 70
   128
 71
    16
 72
    14
 73
    49
  0
VERTEX
  5
842
  8
0
 62
     9
 10
0.0
 20
0.0
 30
0.0
 70
   128
 71
    50
 72
    18
 73
    16
  0
VERTEX
  5
843
  8
0
 62
     9
 10
0.0
 20
0.0
 30
0.0
 70
   128
 71
    50
 72
    51
 73
    18
  0
VERTEX
  5
844
  8
0
 62
     9
 10
0.0
 20
0.0
 30
0.0
 70
   128
 71
    52
 72
    22
 73
    18
  0
VERTEX
  5
845
  8
0
 62
     9
 10
0.0
 20
0.0
 30
0.0
 70
   128
 71
    52
 72
    53
 73
    22
  0
VERTEX
  5
846
  8
0
 62
     9
 10
0.0
 20
0.0
 30
0.0
 70
   128
 71
    54
 72
    24
 73
    22
  0
VERTEX
  5
847
  8
0
 62
     9
 10
0.0
 20
0.0
 30
0.0
 70
   128
 71
    54
 72
    55
 73
    24
  0
VERTEX
  5
848
  8
0
 62
     9
 10
0.0
 20
0.0
 30
0.0
 70
   128
 71
    56
 72
    27
 73
    24
  0
VERTEX
  5
849
  8
0
 62
     9
 10
0.0
 20
0.0
 30
0.0
 70
   128
 71
    56
 72
    57
 73
    27
  0
VERTEX
  5
84A
  8
0
 62
     9
 10
0.0
 20
0.0
 30
0.0
 70
   128
 71
    58
 72
    26
 73
    27
  0
VERTEX
  5
84B
  8
0
 62
     9
 10
0.0
 20
0.0
 30
0.0
 70
   128
 71
    58
 72
    59
 73
    26
  0
VERTEX
  5
84C
  8
0
 62
     9
 10
0.0
 20
0.0
 30
0.0
 70
   128
 71
    60
 72
    28
 73
    26
  0
VERTEX
  5
84D
  8
0
 62
     9
 10
0.0
 20
0.0
 30
0.0
 70
   128
 71
    60
 72
    61
 73
    28
  0
VERTEX
  5
84E
  8
0
 62
     9
 10
0.0
 20
0.0
 30
0.0
 70
   128
 71
    62
 72
    30
 73
    28
  0
VERTEX
  5
84F
  8
0
 62
     9
 10
0.0
 20
0.0
 30
0.0
 70
   128
 71
    62
 72
    63
 73
    30
  0
VERTEX
  5
850
  8
0
 62
     9
 10
0.0
 20
0.0
 30
0.0
 70
   128
 71
    64
 72
    34
 73
    30
  0
VERTEX
  5
851
  8
0
 62
     9
 10
0.0
 20
0.0
 30
0.0
 70
   128
 71
    64
 72
    65
 73
    34
  0
VERTEX
  5
852
  8
0
 62
     9
 10
0.0
 20
0.0
 30
0.0
 70
   128
 71
    66
 72
     2
 73
    34
  0
VERTEX
  5
853
  8
0
 62
     9
 10
0.0
 20
0.0
 30
0.0
 70
   128
 71
    34
 72
    65
 73
    66
  0
VERTEX
  5
854
  8
0
 62
     9
 10
0.0
 20
0.0
 30
0.0
 70
   128
 71
    30
 72
    63
 73
    64
  0
VERTEX
  5
855
  8
0
 62
     9
 10
0.0
 20
0.0
 30
0.0
 70
   128
 71
    28
 72
    61
 73
    62
  0
VERTEX
  5
856
  8
0
 62
     9
 10
0.0
 20
0.0
 30
0.0
 70
   128
 71
    26
 72
    59
 73
    60
  0
VERTEX
  5
857
  8
0
 62
     9
 10
0.0
 20
0.0
 30
0.0
 70
   128
 71
    27
 72
    57
 73
    58
  0
VERTEX
  5
858
  8
0
 62
     9
 10
0.0
 20
0.0
 30
0.0
 70
   128
 71
    24
 72
    55
 73
    56
  0
VERTEX
  5
859
  8
0
 62
     9
 10
0.0
 20
0.0
 30
0.0
 70
   128
 71
    22
 72
    53
 73
    54
  0
VERTEX
  5
85A
  8
0
 62
     9
 10
0.0
 20
0.0
 30
0.0
 70
   128
 71
    18
 72
    51
 73
    52
  0
VERTEX
  5
85B
  8
0
 62
     9
 10
0.0
 20
0.0
 30
0.0
 70
   128
 71
    16
 72
    48
 73
    50
  0
VERTEX
  5
85C
  8
0
 62
     9
 10
0.0
 20
0.0
 30
0.0
 70
   128
 71
    14
 72
    46
 73
    49
  0
VERTEX
  5
85D
  8
0
 62
     9
 10
0.0
 20
0.0
 30
0.0
 70
   128
 71
    12
 72
    44
 73
    47
  0
VERTEX
  5
85E
  8
0
 62
     9
 10
0.0
 20
0.0
 30
0.0
 70
   128
 71
    13
 72
    42
 73
    45
  0
VERTEX
  5
85F
  8
0
 62
     9
 10
0.0
 20
0.0
 30
0.0
 70
   128
 71
     8
 72
    40
 73
    43
  0
VERTEX
  5
860
  8
0
 62
     9
 10
0.0
 20
0.0
 30
0.0
 70
   128
 71
     6
 72
    38
 73
    41
  0
VERTEX
  5
861
  8
0
 62
     9
 10
0.0
 20
0.0
 30
0.0
 70
   128
 71
     4
 72
    36
 73
    39
  0
VERTEX
  5
862
  8
0
 62
     9
 10
0.0
 20
0.0
 30
0.0
 70
   128
 71
     1
 72
    35
 73
    37
  0
VERTEX
  5
863
  8
0
 62
     9
 10
0.0
 20
0.0
 30
0.0
 70
   128
 71
     2
 72
    66
 73
    35
  0
VERTEX
  5
864
  8
0
 62
     9
 10
0.0
 20
0.0
 30
0.0
 70
   128
 71
    34
 72
     2
 73
     3
  0
VERTEX
  5
865
  8
0
 62
     9
 10
0.0
 20
0.0
 30
0.0
 70
   128
 71
    30
 72
    34
 73
    33
  0
VERTEX
  5
866
  8
0
 62
     9
 10
0.0
 20
0.0
 30
0.0
 70
   128
 71
    30
 72
    32
 73
    31
  0
VERTEX
  5
867
  8
0
 62
     9
 10
0.0
 20
0.0
 30
0.0
 70
   128
 71
    28
 72
    31
 73
    29
  0
VERTEX
  5
868
  8
0
 62
     9
 10
0.0
 20
0.0
 30
0.0
 70
   128
 71
    26
 72
    29
 73
    25
  0
VERTEX
  5
869
  8
0
 62
     9
 10
0.0
 20
0.0
 30
0.0
 70
   128
 71
    24
 72
    27
 73
    25
  0
VERTEX
  5
86A
  8
0
 62
     9
 10
0.0
 20
0.0
 30
0.0
 70
   128
 71
    22
 72
    24
 73
    23
  0
VERTEX
  5
86B
  8
0
 62
     9
 10
0.0
 20
0.0
 30
0.0
 70
   128
 71
    18
 72
    22
 73
    21
  0
VERTEX
  5
86C
  8
0
 62
     9
 10
0.0
 20
0.0
 30
0.0
 70
   128
 71
    18
 72
    20
 73
    19
  0
VERTEX
  5
86D
  8
0
 62
     9
 10
0.0
 20
0.0
 30
0.0
 70
   128
 71
    16
 72
    19
 73
    17
  0
VERTEX
  5
86E
  8
0
 62
     9
 10
0.0
 20
0.0
 30
0.0
 70
   128
 71
    14
 72
    17
 73
    15
  0
VERTEX
  5
86F
  8
0
 62
     9
 10
0.0
 20
0.0
 30
0.0
 70
   128
 71
    12
 72
    15
 73
    11
  0
VERTEX
  5
870
  8
0
 62
     9
 10
0.0
 20
0.0
 30
0.0
 70
   128
 71
     8
 72
    13
 73
    11
  0
VERTEX
  5
871
  8
0
 62
     9
 10
0.0
 20
0.0
 30
0.0
 70
   128
 71
     8
 72
    10
 73
     9
  0
VERTEX
  5
872
  8
0
 62
     9
 10
0.0
 20
0.0
 30
0.0
 70
   128
 71
     6
 72
     9
 73
     7
  0
VERTEX
  5
873
  8
0
 62
     9
 10
0.0
 20
0.0
 30
0.0
 70
   128
 71
     4
 72
     7
 73
     5
  0
VERTEX
  5
874
  8
0
 62
     9
 10
0.0
 20
0.0
 30
0.0
 70
   128
 71
     1
 72
     5
 73
     3
  0
SEQEND
  5
875
  8
0
 62
     9
  0
ENDBLK
  5
878
  8
0
  0
BLOCK
  8
0
  2
E3_NODE_9_
 70
     0
 10
0.0
 20
0.0
 30
0.0
  3
E3_NODE_9_
  1

  0
POLYLINE
  5
87A
  8
0
 62
     9
 66
     1
 10
0.0
 20
0.0
 30
0.0
 70
    64
 71
    64
 72
    80
  0
VERTEX
  5
87B
  8
0
 10
6.695000171661377
 20
18.56800079345703
 30
7.192999839782715
 70
   192
  0
VERTEX
  5
87C
  8
0
 10
8.581000328063965
 20
16.05200004577637
 30
6.64900016784668
 70
   192
  0
VERTEX
  5
87D
  8
0
 10
8.581000328063965
 20
17.37400054931641
 30
0.0
 70
   192
  0
VERTEX
  5
87E
  8
0
 10
6.695000171661377
 20
19.91300010681152
 30
0.0
 70
   192
  0
VERTEX
  5
87F
  8
0
 10
6.695000171661377
 20
14.71599960327148
 30
13.41499996185303
 70
   192
  0
VERTEX
  5
880
  8
0
 10
8.581000328063965
 20
12.28499984741211
 30
12.28499984741211
 70
   192
  0
VERTEX
  5
881
  8
0
 10
6.695000171661377
 20
18.32999992370605
 30
7.578999996185303
 70
   192
  0
VERTEX
  5
882
  8
0
 10
6.695000171661377
 20
13.99100017547607
 30
13.96199989318848
 70
   192
  0
VERTEX
  5
883
  8
0
 10
6.695000171661377
 20
8.87600040435791
 30
17.82500076293945
 70
   192
  0
VERTEX
  5
884
  8
0
 10
8.581000328063965
 20
6.64900016784668
 30
16.05200004577637
 70
   192
  0
VERTEX
  5
885
  8
0
 10
6.695000171661377
 20
7.564000129699707
 30
18.19899940490723
 70
   192
  0
VERTEX
  5
886
  8
0
 10
6.695000171661377
 20
1.837000012397766
 30
19.82799911499023
 70
   192
  0
VERTEX
  5
887
  8
0
 10
8.581000328063965
 20
0.0
 30
17.37400054931641
 70
   192
  0
VERTEX
  5
888
  8
0
 10
6.695000171661377
 20
0.0230000000447035
 30
19.65999984741211
 70
   192
  0
VERTEX
  5
889
  8
0
 10
6.695000171661377
 20
-5.448999881744385
 30
19.15299987792969
 70
   192
  0
VERTEX
  5
88A
  8
0
 10
8.581000328063965
 20
-6.64900016784668
 30
16.05200004577637
 70
   192
  0
VERTEX
  5
88B
  8
0
 10
6.695000171661377
 20
-7.491000175476074
 30
18.13599967956543
 70
   192
  0
VERTEX
  5
88C
  8
0
 10
6.695000171661377
 20
-12.0
 30
15.89099979400635
 70
   192
  0
VERTEX
  5
88D
  8
0
 10
8.581000328063965
 20
-12.28499984741211
 30
12.28499984741211
 70
   192
  0
VERTEX
  5
88E
  8
0
 10
6.695000171661377
 20
-13.8459997177124
 30
13.86600017547607
 70
   192
  0
VERTEX
  5
88F
  8
0
 10
6.695000171661377
 20
-16.93000030517578
 30
10.48299980163574
 70
   192
  0
VERTEX
  5
890
  8
0
 10
8.581000328063965
 20
-16.05200004577637
 30
6.64900016784668
 70
   192
  0
VERTEX
  5
891
  8
0
 10
6.695000171661377
 20
-18.08600044250488
 30
7.5
 70
   192
  0
VERTEX
  5
892
  8
0
 10
6.695000171661377
 20
-19.57399940490723
 30
3.658999919891357
 70
   192
  0
VERTEX
  5
893
  8
0
 10
8.581000328063965
 20
-17.37400054931641
 30
0.0
 70
   192
  0
VERTEX
  5
894
  8
0
 10
8.581000328063965
 20
-16.05200004577637
 30
-6.64900016784668
 70
   192
  0
VERTEX
  5
895
  8
0
 10
6.695000171661377
 20
-19.57399940490723
 30
-3.658999919891357
 70
   192
  0
VERTEX
  5
896
  8
0
 10
6.695000171661377
 20
-19.57399940490723
 30
0.0
 70
   192
  0
VERTEX
  5
897
  8
0
 10
8.581000328063965
 20
-12.28499984741211
 30
-12.28499984741211
 70
   192
  0
VERTEX
  5
898
  8
0
 10
6.695000171661377
 20
-16.93000030517578
 30
-10.48299980163574
 70
   192
  0
VERTEX
  5
899
  8
0
 10
6.695000171661377
 20
-18.08600044250488
 30
-7.5
 70
   192
  0
VERTEX
  5
89A
  8
0
 10
8.581000328063965
 20
-6.64900016784668
 30
-16.05200004577637
 70
   192
  0
VERTEX
  5
89B
  8
0
 10
6.695000171661377
 20
-12.0
 30
-15.89099979400635
 70
   192
  0
VERTEX
  5
89C
  8
0
 10
6.695000171661377
 20
-13.8459997177124
 30
-13.86600017547607
 70
   192
  0
VERTEX
  5
89D
  8
0
 10
8.581000328063965
 20
0.0
 30
-17.37400054931641
 70
   192
  0
VERTEX
  5
89E
  8
0
 10
6.695000171661377
 20
-5.448999881744385
 30
-19.15299987792969
 70
   192
  0
VERTEX
  5
89F
  8
0
 10
6.695000171661377
 20
-7.491000175476074
 30
-18.13599967956543
 70
   192
  0
VERTEX
  5
8A0
  8
0
 10
8.581000328063965
 20
6.64900016784668
 30
-16.05200004577637
 70
   192
  0
VERTEX
  5
8A1
  8
0
 10
6.695000171661377
 20
1.837000012397766
 30
-19.82799911499023
 70
   192
  0
VERTEX
  5
8A2
  8
0
 10
6.695000171661377
 20
0.0230000000447035
 30
-19.65999984741211
 70
   192
  0
VERTEX
  5
8A3
  8
0
 10
8.581000328063965
 20
12.28499984741211
 30
-12.28499984741211
 70
   192
  0
VERTEX
  5
8A4
  8
0
 10
6.695000171661377
 20
8.87600040435791
 30
-17.82500076293945
 70
   192
  0
VERTEX
  5
8A5
  8
0
 10
6.695000171661377
 20
7.564000129699707
 30
-18.19899940490723
 70
   192
  0
VERTEX
  5
8A6
  8
0
 10
6.695000171661377
 20
14.71599960327148
 30
-13.41499996185303
 70
   192
  0
VERTEX
  5
8A7
  8
0
 10
6.695000171661377
 20
18.32999992370605
 30
-7.578999996185303
 70
   192
  0
VERTEX
  5
8A8
  8
0
 10
8.581000328063965
 20
16.05200004577637
 30
-6.64900016784668
 70
   192
  0
VERTEX
  5
8A9
  8
0
 10
6.695000171661377
 20
13.99100017547607
 30
-13.96199989318848
 70
   192
  0
VERTEX
  5
8AA
  8
0
 10
6.695000171661377
 20
18.56800079345703
 30
-7.192999839782715
 70
   192
  0
VERTEX
  5
8AB
  8
0
 10
11.30000019073486
 20
14.55900001525879
 30
6.031000137329102
 70
   192
  0
VERTEX
  5
8AC
  8
0
 10
11.30000019073486
 20
11.14299964904785
 30
11.14299964904785
 70
   192
  0
VERTEX
  5
8AD
  8
0
 10
11.30000019073486
 20
6.031000137329102
 30
14.55900001525879
 70
   192
  0
VERTEX
  5
8AE
  8
0
 10
11.30000019073486
 20
0.0
 30
15.75899982452393
 70
   192
  0
VERTEX
  5
8AF
  8
0
 10
11.30000019073486
 20
-6.031000137329102
 30
14.55900001525879
 70
   192
  0
VERTEX
  5
8B0
  8
0
 10
11.30000019073486
 20
-11.14299964904785
 30
11.14299964904785
 70
   192
  0
VERTEX
  5
8B1
  8
0
 10
11.30000019073486
 20
-14.55900001525879
 30
6.031000137329102
 70
   192
  0
VERTEX
  5
8B2
  8
0
 10
11.30000019073486
 20
-15.75899982452393
 30
0.0
 70
   192
  0
VERTEX
  5
8B3
  8
0
 10
11.30000019073486
 20
-14.55900001525879
 30
-6.031000137329102
 70
   192
  0
VERTEX
  5
8B4
  8
0
 10
11.30000019073486
 20
-11.14299964904785
 30
-11.14299964904785
 70
   192
  0
VERTEX
  5
8B5
  8
0
 10
11.30000019073486
 20
-6.031000137329102
 30
-14.55900001525879
 70
   192
  0
VERTEX
  5
8B6
  8
0
 10
11.30000019073486
 20
0.0
 30
-15.75899982452393
 70
   192
  0
VERTEX
  5
8B7
  8
0
 10
11.30000019073486
 20
6.031000137329102
 30
-14.55900001525879
 70
   192
  0
VERTEX
  5
8B8
  8
0
 10
11.30000019073486
 20
11.14299964904785
 30
-11.14299964904785
 70
   192
  0
VERTEX
  5
8B9
  8
0
 10
11.30000019073486
 20
14.55900001525879
 30
-6.031000137329102
 70
   192
  0
VERTEX
  5
8BA
  8
0
 10
11.30000019073486
 20
15.75899982452393
 30
0.0
 70
   192
  0
VERTEX
  5
8BB
  8
0
 62
     9
 10
0.0
 20
0.0
 30
0.0
 70
   128
 71
     3
 72
     2
 73
     1
  0
VERTEX
  5
8BC
  8
0
 62
     9
 10
0.0
 20
0.0
 30
0.0
 70
   128
 71
     1
 72
     4
 73
     3
  0
VERTEX
  5
8BD
  8
0
 62
     9
 10
0.0
 20
0.0
 30
0.0
 70
   128
 71
     2
 72
     6
 73
     5
  0
VERTEX
  5
8BE
  8
0
 62
     9
 10
0.0
 20
0.0
 30
0.0
 70
   128
 71
     5
 72
     7
 73
     2
  0
VERTEX
  5
8BF
  8
0
 62
     9
 10
0.0
 20
0.0
 30
0.0
 70
   128
 71
     9
 72
     8
 73
     6
  0
VERTEX
  5
8C0
  8
0
 62
     9
 10
0.0
 20
0.0
 30
0.0
 70
   128
 71
     6
 72
    10
 73
     9
  0
VERTEX
  5
8C1
  8
0
 62
     9
 10
0.0
 20
0.0
 30
0.0
 70
   128
 71
    12
 72
    11
 73
    10
  0
VERTEX
  5
8C2
  8
0
 62
     9
 10
0.0
 20
0.0
 30
0.0
 70
   128
 71
    10
 72
    13
 73
    12
  0
VERTEX
  5
8C3
  8
0
 62
     9
 10
0.0
 20
0.0
 30
0.0
 70
   128
 71
    15
 72
    14
 73
    13
  0
VERTEX
  5
8C4
  8
0
 62
     9
 10
0.0
 20
0.0
 30
0.0
 70
   128
 71
    13
 72
    16
 73
    15
  0
VERTEX
  5
8C5
  8
0
 62
     9
 10
0.0
 20
0.0
 30
0.0
 70
   128
 71
    18
 72
    17
 73
    16
  0
VERTEX
  5
8C6
  8
0
 62
     9
 10
0.0
 20
0.0
 30
0.0
 70
   128
 71
    16
 72
    19
 73
    18
  0
VERTEX
  5
8C7
  8
0
 62
     9
 10
0.0
 20
0.0
 30
0.0
 70
   128
 71
    21
 72
    20
 73
    19
  0
VERTEX
  5
8C8
  8
0
 62
     9
 10
0.0
 20
0.0
 30
0.0
 70
   128
 71
    19
 72
    22
 73
    21
  0
VERTEX
  5
8C9
  8
0
 62
     9
 10
0.0
 20
0.0
 30
0.0
 70
   128
 71
    24
 72
    23
 73
    22
  0
VERTEX
  5
8CA
  8
0
 62
     9
 10
0.0
 20
0.0
 30
0.0
 70
   128
 71
    22
 72
    25
 73
    24
  0
VERTEX
  5
8CB
  8
0
 62
     9
 10
0.0
 20
0.0
 30
0.0
 70
   128
 71
    27
 72
    25
 73
    26
  0
VERTEX
  5
8CC
  8
0
 62
     9
 10
0.0
 20
0.0
 30
0.0
 70
   128
 71
    27
 72
    28
 73
    25
  0
VERTEX
  5
8CD
  8
0
 62
     9
 10
0.0
 20
0.0
 30
0.0
 70
   128
 71
    30
 72
    26
 73
    29
  0
VERTEX
  5
8CE
  8
0
 62
     9
 10
0.0
 20
0.0
 30
0.0
 70
   128
 71
    30
 72
    31
 73
    26
  0
VERTEX
  5
8CF
  8
0
 62
     9
 10
0.0
 20
0.0
 30
0.0
 70
   128
 71
    33
 72
    29
 73
    32
  0
VERTEX
  5
8D0
  8
0
 62
     9
 10
0.0
 20
0.0
 30
0.0
 70
   128
 71
    33
 72
    34
 73
    29
  0
VERTEX
  5
8D1
  8
0
 62
     9
 10
0.0
 20
0.0
 30
0.0
 70
   128
 71
    36
 72
    32
 73
    35
  0
VERTEX
  5
8D2
  8
0
 62
     9
 10
0.0
 20
0.0
 30
0.0
 70
   128
 71
    36
 72
    37
 73
    32
  0
VERTEX
  5
8D3
  8
0
 62
     9
 10
0.0
 20
0.0
 30
0.0
 70
   128
 71
    39
 72
    35
 73
    38
  0
VERTEX
  5
8D4
  8
0
 62
     9
 10
0.0
 20
0.0
 30
0.0
 70
   128
 71
    39
 72
    40
 73
    35
  0
VERTEX
  5
8D5
  8
0
 62
     9
 10
0.0
 20
0.0
 30
0.0
 70
   128
 71
    42
 72
    38
 73
    41
  0
VERTEX
  5
8D6
  8
0
 62
     9
 10
0.0
 20
0.0
 30
0.0
 70
   128
 71
    42
 72
    43
 73
    38
  0
VERTEX
  5
8D7
  8
0
 62
     9
 10
0.0
 20
0.0
 30
0.0
 70
   128
 71
    46
 72
    45
 73
    44
  0
VERTEX
  5
8D8
  8
0
 62
     9
 10
0.0
 20
0.0
 30
0.0
 70
   128
 71
    44
 72
    47
 73
    41
  0
VERTEX
  5
8D9
  8
0
 62
     9
 10
0.0
 20
0.0
 30
0.0
 70
   128
 71
     3
 72
     4
 73
    48
  0
VERTEX
  5
8DA
  8
0
 62
     9
 10
0.0
 20
0.0
 30
0.0
 70
   128
 71
    48
 72
    45
 73
    46
  0
VERTEX
  5
8DB
  8
0
 62
     9
 10
0.0
 20
0.0
 30
0.0
 70
   128
 71
    49
 72
     2
 73
     3
  0
VERTEX
  5
8DC
  8
0
 62
     9
 10
0.0
 20
0.0
 30
0.0
 70
   128
 71
    50
 72
     6
 73
     2
  0
VERTEX
  5
8DD
  8
0
 62
     9
 10
0.0
 20
0.0
 30
0.0
 70
   128
 71
    50
 72
    51
 73
    10
  0
VERTEX
  5
8DE
  8
0
 62
     9
 10
0.0
 20
0.0
 30
0.0
 70
   128
 71
    52
 72
    13
 73
    10
  0
VERTEX
  5
8DF
  8
0
 62
     9
 10
0.0
 20
0.0
 30
0.0
 70
   128
 71
    53
 72
    16
 73
    13
  0
VERTEX
  5
8E0
  8
0
 62
     9
 10
0.0
 20
0.0
 30
0.0
 70
   128
 71
    54
 72
    19
 73
    16
  0
VERTEX
  5
8E1
  8
0
 62
     9
 10
0.0
 20
0.0
 30
0.0
 70
   128
 71
    55
 72
    22
 73
    19
  0
VERTEX
  5
8E2
  8
0
 62
     9
 10
0.0
 20
0.0
 30
0.0
 70
   128
 71
    55
 72
    56
 73
    25
  0
VERTEX
  5
8E3
  8
0
 62
     9
 10
0.0
 20
0.0
 30
0.0
 70
   128
 71
    56
 72
    57
 73
    26
  0
VERTEX
  5
8E4
  8
0
 62
     9
 10
0.0
 20
0.0
 30
0.0
 70
   128
 71
    58
 72
    29
 73
    26
  0
VERTEX
  5
8E5
  8
0
 62
     9
 10
0.0
 20
0.0
 30
0.0
 70
   128
 71
    59
 72
    32
 73
    29
  0
VERTEX
  5
8E6
  8
0
 62
     9
 10
0.0
 20
0.0
 30
0.0
 70
   128
 71
    60
 72
    35
 73
    32
  0
VERTEX
  5
8E7
  8
0
 62
     9
 10
0.0
 20
0.0
 30
0.0
 70
   128
 71
    61
 72
    38
 73
    35
  0
VERTEX
  5
8E8
  8
0
 62
     9
 10
0.0
 20
0.0
 30
0.0
 70
   128
 71
    62
 72
    41
 73
    38
  0
VERTEX
  5
8E9
  8
0
 62
     9
 10
0.0
 20
0.0
 30
0.0
 70
   128
 71
    63
 72
    46
 73
    41
  0
VERTEX
  5
8EA
  8
0
 62
     9
 10
0.0
 20
0.0
 30
0.0
 70
   128
 71
    64
 72
     3
 73
    46
  0
VERTEX
  5
8EB
  8
0
 62
     9
 10
0.0
 20
0.0
 30
0.0
 70
   128
 71
    46
 72
    63
 73
    64
  0
VERTEX
  5
8EC
  8
0
 62
     9
 10
0.0
 20
0.0
 30
0.0
 70
   128
 71
    41
 72
    62
 73
    63
  0
VERTEX
  5
8ED
  8
0
 62
     9
 10
0.0
 20
0.0
 30
0.0
 70
   128
 71
    38
 72
    61
 73
    62
  0
VERTEX
  5
8EE
  8
0
 62
     9
 10
0.0
 20
0.0
 30
0.0
 70
   128
 71
    35
 72
    60
 73
    61
  0
VERTEX
  5
8EF
  8
0
 62
     9
 10
0.0
 20
0.0
 30
0.0
 70
   128
 71
    32
 72
    59
 73
    60
  0
VERTEX
  5
8F0
  8
0
 62
     9
 10
0.0
 20
0.0
 30
0.0
 70
   128
 71
    29
 72
    58
 73
    59
  0
VERTEX
  5
8F1
  8
0
 62
     9
 10
0.0
 20
0.0
 30
0.0
 70
   128
 71
    26
 72
    57
 73
    58
  0
VERTEX
  5
8F2
  8
0
 62
     9
 10
0.0
 20
0.0
 30
0.0
 70
   128
 71
    26
 72
    25
 73
    56
  0
VERTEX
  5
8F3
  8
0
 62
     9
 10
0.0
 20
0.0
 30
0.0
 70
   128
 71
    25
 72
    22
 73
    55
  0
VERTEX
  5
8F4
  8
0
 62
     9
 10
0.0
 20
0.0
 30
0.0
 70
   128
 71
    19
 72
    54
 73
    55
  0
VERTEX
  5
8F5
  8
0
 62
     9
 10
0.0
 20
0.0
 30
0.0
 70
   128
 71
    16
 72
    53
 73
    54
  0
VERTEX
  5
8F6
  8
0
 62
     9
 10
0.0
 20
0.0
 30
0.0
 70
   128
 71
    13
 72
    52
 73
    53
  0
VERTEX
  5
8F7
  8
0
 62
     9
 10
0.0
 20
0.0
 30
0.0
 70
   128
 71
    10
 72
    51
 73
    52
  0
VERTEX
  5
8F8
  8
0
 62
     9
 10
0.0
 20
0.0
 30
0.0
 70
   128
 71
    10
 72
     6
 73
    50
  0
VERTEX
  5
8F9
  8
0
 62
     9
 10
0.0
 20
0.0
 30
0.0
 70
   128
 71
     2
 72
    49
 73
    50
  0
VERTEX
  5
8FA
  8
0
 62
     9
 10
0.0
 20
0.0
 30
0.0
 70
   128
 71
     3
 72
    64
 73
    49
  0
VERTEX
  5
8FB
  8
0
 62
     9
 10
0.0
 20
0.0
 30
0.0
 70
   128
 71
    48
 72
    46
 73
     3
  0
VERTEX
  5
8FC
  8
0
 62
     9
 10
0.0
 20
0.0
 30
0.0
 70
   128
 71
    44
 72
    41
 73
    46
  0
VERTEX
  5
8FD
  8
0
 62
     9
 10
0.0
 20
0.0
 30
0.0
 70
   128
 71
    41
 72
    47
 73
    42
  0
VERTEX
  5
8FE
  8
0
 62
     9
 10
0.0
 20
0.0
 30
0.0
 70
   128
 71
    38
 72
    43
 73
    39
  0
VERTEX
  5
8FF
  8
0
 62
     9
 10
0.0
 20
0.0
 30
0.0
 70
   128
 71
    35
 72
    40
 73
    36
  0
VERTEX
  5
900
  8
0
 62
     9
 10
0.0
 20
0.0
 30
0.0
 70
   128
 71
    32
 72
    37
 73
    33
  0
VERTEX
  5
901
  8
0
 62
     9
 10
0.0
 20
0.0
 30
0.0
 70
   128
 71
    29
 72
    34
 73
    30
  0
VERTEX
  5
902
  8
0
 62
     9
 10
0.0
 20
0.0
 30
0.0
 70
   128
 71
    26
 72
    31
 73
    27
  0
VERTEX
  5
903
  8
0
 62
     9
 10
0.0
 20
0.0
 30
0.0
 70
   128
 71
    25
 72
    28
 73
    24
  0
VERTEX
  5
904
  8
0
 62
     9
 10
0.0
 20
0.0
 30
0.0
 70
   128
 71
    22
 72
    23
 73
    21
  0
VERTEX
  5
905
  8
0
 62
     9
 10
0.0
 20
0.0
 30
0.0
 70
   128
 71
    19
 72
    20
 73
    18
  0
VERTEX
  5
906
  8
0
 62
     9
 10
0.0
 20
0.0
 30
0.0
 70
   128
 71
    16
 72
    17
 73
    15
  0
VERTEX
  5
907
  8
0
 62
     9
 10
0.0
 20
0.0
 30
0.0
 70
   128
 71
    13
 72
    14
 73
    12
  0
VERTEX
  5
908
  8
0
 62
     9
 10
0.0
 20
0.0
 30
0.0
 70
   128
 71
    10
 72
    11
 73
     9
  0
VERTEX
  5
909
  8
0
 62
     9
 10
0.0
 20
0.0
 30
0.0
 70
   128
 71
     6
 72
     8
 73
     5
  0
VERTEX
  5
90A
  8
0
 62
     9
 10
0.0
 20
0.0
 30
0.0
 70
   128
 71
     2
 72
     7
 73
     1
  0
SEQEND
  5
90B
  8
0
 62
     9
  0
ENDBLK
  5
90E
  8
0
  0
BLOCK
  8
0
  2
E3_NODE_10_
 70
     0
 10
0.0
 20
0.0
 30
0.0
  3
E3_NODE_10_
  1

  0
POLYLINE
  5
910
  8
0
 62
     9
 66
     1
 10
0.0
 20
0.0
 30
0.0
 70
    64
 71
     8
 72
     6
  0
VERTEX
  5
911
  8
0
 10
92.19499969482422
 20
60.2859992980957
 30
-62.04000091552734
 70
   192
  0
VERTEX
  5
912
  8
0
 10
74.5989990234375
 20
60.2859992980957
 30
-65.83100128173828
 70
   192
  0
VERTEX
  5
913
  8
0
 10
78.51599884033203
 20
60.2859992980957
 30
-71.49700164794922
 70
   192
  0
VERTEX
  5
914
  8
0
 10
88.27799987792969
 20
60.2859992980957
 30
-56.37400054931641
 70
   192
  0
VERTEX
  5
915
  8
0
 10
85.29299926757812
 20
60.2859992980957
 30
-72.73300170898438
 70
   192
  0
VERTEX
  5
916
  8
0
 10
81.50199890136719
 20
60.2859992980957
 30
-55.13700103759766
 70
   192
  0
VERTEX
  5
917
  8
0
 10
75.83599853515625
 20
60.2859992980957
 30
-59.05400085449219
 70
   192
  0
VERTEX
  5
918
  8
0
 10
90.95899963378906
 20
60.2859992980957
 30
-68.81600189208984
 70
   192
  0
VERTEX
  5
919
  8
0
 62
     9
 10
0.0
 20
0.0
 30
0.0
 70
   128
 71
     3
 72
     2
 73
     1
  0
VERTEX
  5
91A
  8
0
 62
     9
 10
0.0
 20
0.0
 30
0.0
 70
   128
 71
     4
 72
     1
 73
     2
  0
VERTEX
  5
91B
  8
0
 62
     9
 10
0.0
 20
0.0
 30
0.0
 70
   128
 71
     1
 72
     5
 73
     3
  0
VERTEX
  5
91C
  8
0
 62
     9
 10
0.0
 20
0.0
 30
0.0
 70
   128
 71
     2
 72
     6
 73
     4
  0
VERTEX
  5
91D
  8
0
 62
     9
 10
0.0
 20
0.0
 30
0.0
 70
   128
 71
     2
 72
     7
 73
     6
  0
VERTEX
  5
91E
  8
0
 62
     9
 10
0.0
 20
0.0
 30
0.0
 70
   128
 71
     1
 72
     8
 73
     5
  0
SEQEND
  5
91F
  8
0
 62
     9
  0
ENDBLK
  5
922
  8
0
  0
BLOCK
  8
0
  2
E3_NODE_11_
 70
     0
 10
0.0
 20
0.0
 30
0.0
  3
E3_NODE_11_
  1

  0
POLYLINE
  5
924
  8
0
 62
     9
 66
     1
 10
0.0
 20
0.0
 30
0.0
 70
    64
 71
    16
 72
    16
  0
VERTEX
  5
925
  8
0
 10
74.5989990234375
 20
60.2859992980957
 30
-65.83100128173828
 70
   192
  0
VERTEX
  5
926
  8
0
 10
74.5989990234375
 20
68.28600311279297
 30
-65.83100128173828
 70
   192
  0
VERTEX
  5
927
  8
0
 10
78.51599884033203
 20
68.28600311279297
 30
-71.49700164794922
 70
   192
  0
VERTEX
  5
928
  8
0
 10
75.83599853515625
 20
60.2859992980957
 30
-59.05400085449219
 70
   192
  0
VERTEX
  5
929
  8
0
 10
75.83599853515625
 20
68.28600311279297
 30
-59.05400085449219
 70
   192
  0
VERTEX
  5
92A
  8
0
 10
81.50199890136719
 20
60.2859992980957
 30
-55.13700103759766
 70
   192
  0
VERTEX
  5
92B
  8
0
 10
81.50199890136719
 20
68.28600311279297
 30
-55.13700103759766
 70
   192
  0
VERTEX
  5
92C
  8
0
 10
88.27799987792969
 20
60.2859992980957
 30
-56.37400054931641
 70
   192
  0
VERTEX
  5
92D
  8
0
 10
88.27799987792969
 20
68.28600311279297
 30
-56.37400054931641
 70
   192
  0
VERTEX
  5
92E
  8
0
 10
92.19499969482422
 20
60.2859992980957
 30
-62.04000091552734
 70
   192
  0
VERTEX
  5
92F
  8
0
 10
92.19499969482422
 20
68.28600311279297
 30
-62.04000091552734
 70
   192
  0
VERTEX
  5
930
  8
0
 10
90.95899963378906
 20
60.2859992980957
 30
-68.81600189208984
 70
   192
  0
VERTEX
  5
931
  8
0
 10
90.95899963378906
 20
68.28600311279297
 30
-68.81600189208984
 70
   192
  0
VERTEX
  5
932
  8
0
 10
85.29299926757812
 20
60.2859992980957
 30
-72.73300170898438
 70
   192
  0
VERTEX
  5
933
  8
0
 10
85.29299926757812
 20
68.28600311279297
 30
-72.73300170898438
 70
   192
  0
VERTEX
  5
934
  8
0
 10
78.51599884033203
 20
60.2859992980957
 30
-71.49700164794922
 70
   192
  0
VERTEX
  5
935
  8
0
 62
     9
 10
0.0
 20
0.0
 30
0.0
 70
   128
 71
     3
 72
     2
 73
     1
  0
VERTEX
  5
936
  8
0
 62
     9
 10
0.0
 20
0.0
 30
0.0
 70
   128
 71
     2
 72
     5
 73
     4
  0
VERTEX
  5
937
  8
0
 62
     9
 10
0.0
 20
0.0
 30
0.0
 70
   128
 71
     5
 72
     7
 73
     6
  0
VERTEX
  5
938
  8
0
 62
     9
 10
0.0
 20
0.0
 30
0.0
 70
   128
 71
     7
 72
     9
 73
     8
  0
VERTEX
  5
939
  8
0
 62
     9
 10
0.0
 20
0.0
 30
0.0
 70
   128
 71
     9
 72
    11
 73
    10
  0
VERTEX
  5
93A
  8
0
 62
     9
 10
0.0
 20
0.0
 30
0.0
 70
   128
 71
    11
 72
    13
 73
    12
  0
VERTEX
  5
93B
  8
0
 62
     9
 10
0.0
 20
0.0
 30
0.0
 70
   128
 71
    13
 72
    15
 73
    14
  0
VERTEX
  5
93C
  8
0
 62
     9
 10
0.0
 20
0.0
 30
0.0
 70
   128
 71
    15
 72
     3
 73
    16
  0
VERTEX
  5
93D
  8
0
 62
     9
 10
0.0
 20
0.0
 30
0.0
 70
   128
 71
    16
 72
    14
 73
    15
  0
VERTEX
  5
93E
  8
0
 62
     9
 10
0.0
 20
0.0
 30
0.0
 70
   128
 71
    14
 72
    12
 73
    13
  0
VERTEX
  5
93F
  8
0
 62
     9
 10
0.0
 20
0.0
 30
0.0
 70
   128
 71
    12
 72
    10
 73
    11
  0
VERTEX
  5
940
  8
0
 62
     9
 10
0.0
 20
0.0
 30
0.0
 70
   128
 71
    10
 72
     8
 73
     9
  0
VERTEX
  5
941
  8
0
 62
     9
 10
0.0
 20
0.0
 30
0.0
 70
   128
 71
     8
 72
     6
 73
     7
  0
VERTEX
  5
942
  8
0
 62
     9
 10
0.0
 20
0.0
 30
0.0
 70
   128
 71
     6
 72
     4
 73
     5
  0
VERTEX
  5
943
  8
0
 62
     9
 10
0.0
 20
0.0
 30
0.0
 70
   128
 71
     4
 72
     1
 73
     2
  0
VERTEX
  5
944
  8
0
 62
     9
 10
0.0
 20
0.0
 30
0.0
 70
   128
 71
     1
 72
    16
 73
     3
  0
SEQEND
  5
945
  8
0
 62
     9
  0
ENDBLK
  5
948
  8
0
  0
BLOCK
  8
0
  2
E3_NODE_12_
 70
     0
 10
0.0
 20
0.0
 30
0.0
  3
E3_NODE_12_
  1

  0
POLYLINE
  5
94A
  8
0
 62
     9
 66
     1
 10
0.0
 20
0.0
 30
0.0
 70
    64
 71
     8
 72
     6
  0
VERTEX
  5
94B
  8
0
 10
85.29299926757812
 20
68.28600311279297
 30
-72.73300170898438
 70
   192
  0
VERTEX
  5
94C
  8
0
 10
74.5989990234375
 20
68.28600311279297
 30
-65.83100128173828
 70
   192
  0
VERTEX
  5
94D
  8
0
 10
75.83599853515625
 20
68.28600311279297
 30
-59.05400085449219
 70
   192
  0
VERTEX
  5
94E
  8
0
 10
81.50199890136719
 20
68.28600311279297
 30
-55.13700103759766
 70
   192
  0
VERTEX
  5
94F
  8
0
 10
88.27799987792969
 20
68.28600311279297
 30
-56.37400054931641
 70
   192
  0
VERTEX
  5
950
  8
0
 10
78.51599884033203
 20
68.28600311279297
 30
-71.49700164794922
 70
   192
  0
VERTEX
  5
951
  8
0
 10
92.19499969482422
 20
68.28600311279297
 30
-62.04000091552734
 70
   192
  0
VERTEX
  5
952
  8
0
 10
90.95899963378906
 20
68.28600311279297
 30
-68.81600189208984
 70
   192
  0
VERTEX
  5
953
  8
0
 62
     9
 10
0.0
 20
0.0
 30
0.0
 70
   128
 71
     3
 72
     2
 73
     1
  0
VERTEX
  5
954
  8
0
 62
     9
 10
0.0
 20
0.0
 30
0.0
 70
   128
 71
     5
 72
     4
 73
     1
  0
VERTEX
  5
955
  8
0
 62
     9
 10
0.0
 20
0.0
 30
0.0
 70
   128
 71
     2
 72
     6
 73
     1
  0
VERTEX
  5
956
  8
0
 62
     9
 10
0.0
 20
0.0
 30
0.0
 70
   128
 71
     1
 72
     7
 73
     5
  0
VERTEX
  5
957
  8
0
 62
     9
 10
0.0
 20
0.0
 30
0.0
 70
   128
 71
     1
 72
     8
 73
     7
  0
VERTEX
  5
958
  8
0
 62
     9
 10
0.0
 20
0.0
 30
0.0
 70
   128
 71
     1
 72
     4
 73
     3
  0
SEQEND
  5
959
  8
0
 62
     9
  0
ENDBLK
  5
95C
  8
0
  0
ENDSEC
  0
SECTION
  2
ENTITIES
  0
INSERT
  5
B8
  8
LAYER_1
  2
E3_NODE
 10
0.0
 20
0.0
 30
0.0
  0
INSERT
  5
DD
  8
LAYER_1
  2
E3_NODE_1_
 10
0.0
 20
0.0
 30
0.0
  0
INSERT
  5
1C3
  8
LAYER_1
  2
E3_NODE_2_
 10
0.0
 20
0.0
 30
0.0
  0
INSERT
  5
20D
  8
LAYER_1
  2
E3_NODE_3_
 10
0.0
 20
0.0
 30
0.0
  0
INSERT
  5
6A3
  8
LAYER_1
  2
E3_NODE_4_
 10
0.0
 20
0.0
 30
0.0
  0
INSERT
  5
6CB
  8
LAYER_1
  2
E3_NODE_5_
 10
0.0
 20
0.0
 30
0.0
  0
INSERT
  5
76F
  8
LAYER_1
  2
E3_NODE_6_
 10
0.0
 20
0.0
 30
0.0
  0
INSERT
  5
7DB
  8
LAYER_1
  2
E3_NODE_7_
 10
0.0
 20
0.0
 30
0.0
  0
INSERT
  5
876
  8
LAYER_1
  2
E3_NODE_8_
 10
0.0
 20
0.0
 30
0.0
  0
INSERT
  5
90C
  8
LAYER_1
  2
E3_NODE_9_
 10
0.0
 20
0.0
 30
0.0
  0
INSERT
  5
920
  8
LAYER_1
  2
E3_NODE_10_
 10
0.0
 20
0.0
 30
0.0
  0
INSERT
  5
946
  8
LAYER_1
  2
E3_NODE_11_
 10
0.0
 20
0.0
 30
0.0
  0
INSERT
  5
95A
  8
LAYER_1
  2
E3_NODE_12_
 10
0.0
 20
0.0
 30
0.0
  0
ENDSEC
  0
EOF
