  0
SECTION
  2
HEADER
  9
$ACADVER
  1
AC1009
  9
$DWGCODEPAGE
  3
ansi_1252
  9
$INSBASE
 10
0.0
 20
0.0
 30
0.0
  9
$EXTMIN
 10
1.000000000000000E+20
 20
1.000000000000000E+20
 30
1.000000000000000E+20
  9
$EXTMAX
 10
-1.000000000000000E+20
 20
-1.000000000000000E+20
 30
-1.000000000000000E+20
  9
$LIMMIN
 10
0.0
 20
0.0
  9
$LIMMAX
 10
12.0
 20
9.0
  9
$ORTHOMODE
 70
     0
  9
$REGENMODE
 70
     1
  9
$FILLMODE
 70
     1
  9
$QTEXTMODE
 70
     0
  9
$MIRRTEXT
 70
     1
  9
$DRAGMODE
 70
     2
  9
$LTSCALE
 40
1.0
  9
$OSMODE
 70
    37
  9
$ATTMODE
 70
     1
  9
$TEXTSIZE
 40
0.2
  9
$TRACEWID
 40
0.05
  9
$TEXTSTYLE
  7
STANDARD
  9
$CLAYER
  8
0
  9
$CELTYPE
  6
BYLAYER
  9
$CECOLOR
 62
   256
  9
$DIMSCALE
 40
1.0
  9
$DIMASZ
 40
0.18
  9
$DIMEXO
 40
0.0625
  9
$DIMDLI
 40
0.38
  9
$DIMRND
 40
0.0
  9
$DIMDLE
 40
0.0
  9
$DIMEXE
 40
0.18
  9
$DIMTP
 40
0.0
  9
$DIMTM
 40
0.0
  9
$DIMTXT
 40
0.18
  9
$DIMCEN
 40
0.09
  9
$DIMTSZ
 40
0.0
  9
$DIMTOL
 70
     0
  9
$DIMLIM
 70
     0
  9
$DIMTIH
 70
     1
  9
$DIMTOH
 70
     1
  9
$DIMSE1
 70
     0
  9
$DIMSE2
 70
     0
  9
$DIMTAD
 70
     0
  9
$DIMZIN
 70
     0
  9
$DIMBLK
  1

  9
$DIMASO
 70
     1
  9
$DIMSHO
 70
     1
  9
$DIMPOST
  1

  9
$DIMAPOST
  1

  9
$DIMALT
 70
     0
  9
$DIMALTD
 70
     2
  9
$DIMALTF
 40
25.4
  9
$DIMLFAC
 40
1.0
  9
$DIMTOFL
 70
     0
  9
$DIMTVP
 40
0.0
  9
$DIMTIX
 70
     0
  9
$DIMSOXD
 70
     0
  9
$DIMSAH
 70
     0
  9
$DIMBLK1
  1

  9
$DIMBLK2
  1

  9
$DIMSTYLE
  2
STANDARD
  9
$DIMCLRD
 70
     0
  9
$DIMCLRE
 70
     0
  9
$DIMCLRT
 70
     0
  9
$DIMTFAC
 40
1.0
  9
$DIMGAP
 40
0.09
  9
$LUNITS
 70
     2
  9
$LUPREC
 70
     4
  9
$SKETCHINC
 40
0.1
  9
$FILLETRAD
 40
0.5
  9
$AUNITS
 70
     0
  9
$AUPREC
 70
     0
  9
$MENU
  1
.
  9
$ELEVATION
 40
0.0
  9
$PELEVATION
 40
0.0
  9
$THICKNESS
 40
0.0
  9
$LIMCHECK
 70
     0
  9
$CHAMFERA
 40
0.5
  9
$CHAMFERB
 40
0.5
  9
$SKPOLY
 70
     0
  9
$TDCREATE
 40
2455464.963090995
  9
$TDUPDATE
 40
2455464.963090995
  9
$TDINDWG
 40
0.0000000116
  9
$TDUSRTIMER
 40
0.0000000116
  9
$USRTIMER
 70
     1
  9
$ANGBASE
 50
0.0
  9
$ANGDIR
 70
     0
  9
$PDMODE
 70
     0
  9
$PDSIZE
 40
0.0
  9
$PLINEWID
 40
0.0
  9
$COORDS
 70
     1
  9
$SPLFRAME
 70
     0
  9
$SPLINETYPE
 70
     6
  9
$SPLINESEGS
 70
     8
  9
$ATTDIA
 70
     0
  9
$ATTREQ
 70
     1
  9
$HANDLING
 70
     1
  9
$HANDSEED
  5
5F8
  9
$SURFTAB1
 70
     6
  9
$SURFTAB2
 70
     6
  9
$SURFTYPE
 70
     6
  9
$SURFU
 70
     6
  9
$SURFV
 70
     6
  9
$UCSNAME
  2

  9
$UCSORG
 10
0.0
 20
0.0
 30
0.0
  9
$UCSXDIR
 10
1.0
 20
0.0
 30
0.0
  9
$UCSYDIR
 10
0.0
 20
1.0
 30
0.0
  9
$PUCSNAME
  2

  9
$PUCSORG
 10
0.0
 20
0.0
 30
0.0
  9
$PUCSXDIR
 10
1.0
 20
0.0
 30
0.0
  9
$PUCSYDIR
 10
0.0
 20
1.0
 30
0.0
  9
$USERI1
 70
     0
  9
$USERI2
 70
     0
  9
$USERI3
 70
     0
  9
$USERI4
 70
     0
  9
$USERI5
 70
     0
  9
$USERR1
 40
0.0
  9
$USERR2
 40
0.0
  9
$USERR3
 40
0.0
  9
$USERR4
 40
0.0
  9
$USERR5
 40
0.0
  9
$WORLDVIEW
 70
     1
  9
$SHADEDGE
 70
     3
  9
$SHADEDIF
 70
    70
  9
$TILEMODE
 70
     1
  9
$MAXACTVP
 70
    64
  9
$PLIMCHECK
 70
     0
  9
$PEXTMIN
 10
1.000000000000000E+20
 20
1.000000000000000E+20
 30
1.000000000000000E+20
  9
$PEXTMAX
 10
-1.000000000000000E+20
 20
-1.000000000000000E+20
 30
-1.000000000000000E+20
  9
$PLIMMIN
 10
0.0
 20
0.0
  9
$PLIMMAX
 10
12.0
 20
9.0
  9
$UNITMODE
 70
     0
  9
$VISRETAIN
 70
     1
  9
$PLINEGEN
 70
     0
  9
$PSLTSCALE
 70
     1
  0
ENDSEC
  0
SECTION
  2
TABLES
  0
TABLE
  2
VPORT
 70
     1
  0
VPORT
  2
*ACTIVE
 70
     0
 10
0.0
 20
0.0
 11
1.0
 21
1.0
 12
0.0
 22
0.0
 13
0.0
 23
0.0
 14
0.5
 24
0.5
 15
0.5
 25
0.5
 16
375.9280700683594
 26
214.7975311279297
 36
375.9280395507812
 17
33.4949951171875
 27
0.0
 37
-85.073486328125
 40
325.4134705628226
 41
1.972972972850329
 42
50.0
 43
0.0
 44
0.0
 50
0.0
 51
0.0
 71
     0
 72
   100
 73
     1
 74
     3
 75
     0
 76
     0
 77
     0
 78
     0
  0
ENDTAB
  0
TABLE
  2
LTYPE
 70
     1
  0
LTYPE
  2
CONTINUOUS
 70
     0
  3
Solid line
 72
    65
 73
     0
 40
0.0
  0
ENDTAB
  0
TABLE
  2
LAYER
 70
     2
  0
LAYER
  2
0
 70
     0
 62
     7
  6
CONTINUOUS
  0
LAYER
  2
LAYER_1
 70
     0
 62
     7
  6
CONTINUOUS
  0
ENDTAB
  0
TABLE
  2
STYLE
 70
     1
  0
STYLE
  2
STANDARD
 70
     0
 40
0.0
 41
1.0
 50
0.0
 71
     0
 42
0.2
  3
txt
  4

  0
ENDTAB
  0
TABLE
  2
VIEW
 70
     0
  0
ENDTAB
  0
TABLE
  2
UCS
 70
     0
  0
ENDTAB
  0
TABLE
  2
APPID
 70
     1
  0
APPID
  2
ACAD
 70
     0
  0
ENDTAB
  0
TABLE
  2
DIMSTYLE
 70
     1
  0
DIMSTYLE
  2
STANDARD
 70
     0
  3

  4

  5

  6

  7

 40
1.0
 41
0.18
 42
0.0625
 43
0.38
 44
0.18
 45
0.0
 46
0.0
 47
0.0
 48
0.0
140
0.18
141
0.09
142
0.0
143
25.4
144
1.0
145
0.0
146
1.0
147
0.09
 71
     0
 72
     0
 73
     1
 74
     1
 75
     0
 76
     0
 77
     0
 78
     0
170
     0
171
     2
172
     0
173
     0
174
     0
175
     0
176
     0
177
     0
178
     0
  0
ENDTAB
  0
ENDSEC
  0
SECTION
  2
BLOCKS
  0
BLOCK
  8
0
  2
$MODEL_SPACE
 70
     0
 10
0.0
 20
0.0
 30
0.0
  3
$MODEL_SPACE
  1

  0
ENDBLK
  5
21
  8
0
  0
BLOCK
 67
     1
  8
0
  2
$PAPER_SPACE
 70
     0
 10
0.0
 20
0.0
 30
0.0
  3
$PAPER_SPACE
  1

  0
ENDBLK
  5
1D
 67
     1
  8
0
  0
BLOCK
  8
0
  2
E3_NODE
 70
     0
 10
0.0
 20
0.0
 30
0.0
  3
E3_NODE
  1

  0
POLYLINE
  5
3C
  8
0
 62
     9
 66
     1
 10
0.0
 20
0.0
 30
0.0
 70
    64
 71
   217
 72
   434
  0
VERTEX
  5
3D
  8
0
 10
54.88999938964844
 20
0.0
 30
-4.449999809265137
 70
   192
  0
VERTEX
  5
3E
  8
0
 10
54.88999938964844
 20
-18.11700057983398
 30
-6.291999816894531
 70
   192
  0
VERTEX
  5
3F
  8
0
 10
50.98099899291992
 20
-18.49600028991699
 30
-4.447999954223633
 70
   192
  0
VERTEX
  5
40
  8
0
 10
50.98099899291992
 20
0.0
 30
-2.566999912261963
 70
   192
  0
VERTEX
  5
41
  8
0
 10
54.88999938964844
 20
-35.49200057983398
 30
-11.74400043487549
 70
   192
  0
VERTEX
  5
42
  8
0
 10
50.98099899291992
 20
-36.23400115966797
 30
-10.01399993896484
 70
   192
  0
VERTEX
  5
43
  8
0
 10
54.88999938964844
 20
-51.41400146484375
 30
-20.58099937438965
 70
   192
  0
VERTEX
  5
44
  8
0
 10
50.98099899291992
 20
-52.4900016784668
 30
-19.0359992980957
 70
   192
  0
VERTEX
  5
45
  8
0
 10
54.88999938964844
 20
-65.23100280761719
 30
-32.44300079345703
 70
   192
  0
VERTEX
  5
46
  8
0
 10
50.98099899291992
 20
-66.59600067138672
 30
-31.14599990844727
 70
   192
  0
VERTEX
  5
47
  8
0
 10
54.88999938964844
 20
-76.37799835205078
 30
-46.84299850463867
 70
   192
  0
VERTEX
  5
48
  8
0
 10
50.98099899291992
 20
-77.97599792480469
 30
-45.84700012207031
 70
   192
  0
VERTEX
  5
49
  8
0
 10
54.88999938964844
 20
-84.39800262451172
 30
-63.19300079345703
 70
   192
  0
VERTEX
  5
4A
  8
0
 10
50.98099899291992
 20
-86.16300201416016
 30
-62.53900146484375
 70
   192
  0
VERTEX
  5
4B
  8
0
 10
54.88999938964844
 20
-88.96199798583984
 30
-80.8219985961914
 70
   192
  0
VERTEX
  5
4C
  8
0
 10
50.98099899291992
 20
-90.822998046875
 30
-80.53600311279297
 70
   192
  0
VERTEX
  5
4D
  8
0
 10
54.88999938964844
 20
-89.88400268554688
 30
-99.00800323486328
 70
   192
  0
VERTEX
  5
4E
  8
0
 10
50.98099899291992
 20
-91.76499938964844
 30
-99.10399627685547
 70
   192
  0
VERTEX
  5
4F
  8
0
 10
54.88999938964844
 20
-87.12699890136719
 30
-117.0090026855469
 70
   192
  0
VERTEX
  5
50
  8
0
 10
50.98099899291992
 20
-88.9489974975586
 30
-117.4810028076172
 70
   192
  0
VERTEX
  5
51
  8
0
 10
54.88999938964844
 20
-80.802001953125
 30
-134.0850067138672
 70
   192
  0
VERTEX
  5
52
  8
0
 10
50.98099899291992
 20
-82.49299621582031
 30
-134.9149932861328
 70
   192
  0
VERTEX
  5
53
  8
0
 10
54.88999938964844
 20
-71.16999816894531
 30
-149.5399932861328
 70
   192
  0
VERTEX
  5
54
  8
0
 10
50.98099899291992
 20
-72.65799713134766
 30
-150.6920013427734
 70
   192
  0
VERTEX
  5
55
  8
0
 10
54.88999938964844
 20
-58.62400054931641
 30
-162.7380065917969
 70
   192
  0
VERTEX
  5
56
  8
0
 10
50.98099899291992
 20
-59.84999847412109
 30
-164.1670074462891
 70
   192
  0
VERTEX
  5
57
  8
0
 10
54.88999938964844
 20
-43.67699813842773
 30
-173.1410064697266
 70
   192
  0
VERTEX
  5
58
  8
0
 10
50.98099899291992
 20
-44.59099960327148
 30
-174.7870025634766
 70
   192
  0
VERTEX
  5
59
  8
0
 10
54.88999938964844
 20
-26.94300079345703
 30
-180.322998046875
 70
   192
  0
VERTEX
  5
5A
  8
0
 10
50.98099899291992
 20
-27.50600051879883
 30
-182.1190032958984
 70
   192
  0
VERTEX
  5
5B
  8
0
 10
54.88999938964844
 20
-9.104999542236328
 30
-183.9880065917969
 70
   192
  0
VERTEX
  5
5C
  8
0
 10
50.98099899291992
 20
-9.295999526977539
 30
-185.8609924316406
 70
   192
  0
VERTEX
  5
5D
  8
0
 10
54.88999938964844
 20
9.104999542236328
 30
-183.9880065917969
 70
   192
  0
VERTEX
  5
5E
  8
0
 10
50.98099899291992
 20
9.295999526977539
 30
-185.8609924316406
 70
   192
  0
VERTEX
  5
5F
  8
0
 10
54.88999938964844
 20
26.94300079345703
 30
-180.322998046875
 70
   192
  0
VERTEX
  5
60
  8
0
 10
50.98099899291992
 20
27.50600051879883
 30
-182.1190032958984
 70
   192
  0
VERTEX
  5
61
  8
0
 10
54.88999938964844
 20
43.67699813842773
 30
-173.1410064697266
 70
   192
  0
VERTEX
  5
62
  8
0
 10
50.98099899291992
 20
44.59099960327148
 30
-174.7870025634766
 70
   192
  0
VERTEX
  5
63
  8
0
 10
54.88999938964844
 20
58.62400054931641
 30
-162.7380065917969
 70
   192
  0
VERTEX
  5
64
  8
0
 10
50.98099899291992
 20
59.84999847412109
 30
-164.1670074462891
 70
   192
  0
VERTEX
  5
65
  8
0
 10
54.88999938964844
 20
71.16999816894531
 30
-149.5399932861328
 70
   192
  0
VERTEX
  5
66
  8
0
 10
50.98099899291992
 20
72.65799713134766
 30
-150.6920013427734
 70
   192
  0
VERTEX
  5
67
  8
0
 10
54.88999938964844
 20
80.802001953125
 30
-134.0850067138672
 70
   192
  0
VERTEX
  5
68
  8
0
 10
50.98099899291992
 20
82.49299621582031
 30
-134.9149932861328
 70
   192
  0
VERTEX
  5
69
  8
0
 10
54.88999938964844
 20
87.12699890136719
 30
-117.0090026855469
 70
   192
  0
VERTEX
  5
6A
  8
0
 10
50.98099899291992
 20
88.9489974975586
 30
-117.4810028076172
 70
   192
  0
VERTEX
  5
6B
  8
0
 10
54.88999938964844
 20
89.88400268554688
 30
-99.00800323486328
 70
   192
  0
VERTEX
  5
6C
  8
0
 10
50.98099899291992
 20
91.76499938964844
 30
-99.10399627685547
 70
   192
  0
VERTEX
  5
6D
  8
0
 10
54.88999938964844
 20
88.96199798583984
 30
-80.8219985961914
 70
   192
  0
VERTEX
  5
6E
  8
0
 10
50.98099899291992
 20
90.822998046875
 30
-80.53600311279297
 70
   192
  0
VERTEX
  5
6F
  8
0
 10
54.88999938964844
 20
84.39800262451172
 30
-63.19300079345703
 70
   192
  0
VERTEX
  5
70
  8
0
 10
50.98099899291992
 20
86.16300201416016
 30
-62.53900146484375
 70
   192
  0
VERTEX
  5
71
  8
0
 10
54.88999938964844
 20
76.37799835205078
 30
-46.84299850463867
 70
   192
  0
VERTEX
  5
72
  8
0
 10
50.98099899291992
 20
77.97599792480469
 30
-45.84700012207031
 70
   192
  0
VERTEX
  5
73
  8
0
 10
54.88999938964844
 20
65.23100280761719
 30
-32.44300079345703
 70
   192
  0
VERTEX
  5
74
  8
0
 10
50.98099899291992
 20
66.59600067138672
 30
-31.14599990844727
 70
   192
  0
VERTEX
  5
75
  8
0
 10
54.88999938964844
 20
51.41400146484375
 30
-20.58099937438965
 70
   192
  0
VERTEX
  5
76
  8
0
 10
50.98099899291992
 20
52.4900016784668
 30
-19.0359992980957
 70
   192
  0
VERTEX
  5
77
  8
0
 10
54.88999938964844
 20
35.49200057983398
 30
-11.74400043487549
 70
   192
  0
VERTEX
  5
78
  8
0
 10
50.98099899291992
 20
36.23400115966797
 30
-10.01399993896484
 70
   192
  0
VERTEX
  5
79
  8
0
 10
54.88999938964844
 20
18.11700057983398
 30
-6.291999816894531
 70
   192
  0
VERTEX
  5
7A
  8
0
 10
50.98099899291992
 20
18.49600028991699
 30
-4.447999954223633
 70
   192
  0
VERTEX
  5
7B
  8
0
 10
50.01599884033203
 20
-19.34700012207031
 30
-0.3050000071525574
 70
   192
  0
VERTEX
  5
7C
  8
0
 10
50.01599884033203
 20
0.0
 30
1.662999987602234
 70
   192
  0
VERTEX
  5
7D
  8
0
 10
50.01599884033203
 20
-37.90299987792969
 30
-6.126999855041504
 70
   192
  0
VERTEX
  5
7E
  8
0
 10
50.01599884033203
 20
-54.90599822998047
 30
-15.56400012969971
 70
   192
  0
VERTEX
  5
7F
  8
0
 10
50.01599884033203
 20
-69.66200256347656
 30
-28.23200035095215
 70
   192
  0
VERTEX
  5
80
  8
0
 10
50.01599884033203
 20
-81.56500244140625
 30
-43.61000061035156
 70
   192
  0
VERTEX
  5
81
  8
0
 10
50.01599884033203
 20
-90.12999725341797
 30
-61.06999969482422
 70
   192
  0
VERTEX
  5
82
  8
0
 10
50.01599884033203
 20
-95.00399780273438
 30
-79.89600372314453
 70
   192
  0
VERTEX
  5
83
  8
0
 10
50.01599884033203
 20
-95.98899841308594
 30
-99.31800079345703
 70
   192
  0
VERTEX
  5
84
  8
0
 10
50.01599884033203
 20
-93.04399871826172
 30
-118.5410003662109
 70
   192
  0
VERTEX
  5
85
  8
0
 10
50.01599884033203
 20
-86.29000091552734
 30
-136.7769927978516
 70
   192
  0
VERTEX
  5
86
  8
0
 10
50.01599884033203
 20
-76.00399780273438
 30
-153.281005859375
 70
   192
  0
VERTEX
  5
87
  8
0
 10
50.01599884033203
 20
-62.60499954223633
 30
-167.3760070800781
 70
   192
  0
VERTEX
  5
88
  8
0
 10
50.01599884033203
 20
-46.64400100708008
 30
-178.4859924316406
 70
   192
  0
VERTEX
  5
89
  8
0
 10
50.01599884033203
 20
-28.77300071716309
 30
-186.1549987792969
 70
   192
  0
VERTEX
  5
8A
  8
0
 10
50.01599884033203
 20
-9.723999977111816
 30
-190.0690002441406
 70
   192
  0
VERTEX
  5
8B
  8
0
 10
50.01599884033203
 20
9.723999977111816
 30
-190.0690002441406
 70
   192
  0
VERTEX
  5
8C
  8
0
 10
50.01599884033203
 20
28.77300071716309
 30
-186.1549987792969
 70
   192
  0
VERTEX
  5
8D
  8
0
 10
50.01599884033203
 20
46.64400100708008
 30
-178.4859924316406
 70
   192
  0
VERTEX
  5
8E
  8
0
 10
50.01599884033203
 20
62.60499954223633
 30
-167.3760070800781
 70
   192
  0
VERTEX
  5
8F
  8
0
 10
50.01599884033203
 20
76.00399780273438
 30
-153.281005859375
 70
   192
  0
VERTEX
  5
90
  8
0
 10
50.01599884033203
 20
86.29000091552734
 30
-136.7769927978516
 70
   192
  0
VERTEX
  5
91
  8
0
 10
50.01599884033203
 20
93.04399871826172
 30
-118.5410003662109
 70
   192
  0
VERTEX
  5
92
  8
0
 10
50.01599884033203
 20
95.98899841308594
 30
-99.31800079345703
 70
   192
  0
VERTEX
  5
93
  8
0
 10
50.01599884033203
 20
95.00399780273438
 30
-79.89600372314453
 70
   192
  0
VERTEX
  5
94
  8
0
 10
50.01599884033203
 20
90.12999725341797
 30
-61.06999969482422
 70
   192
  0
VERTEX
  5
95
  8
0
 10
50.01599884033203
 20
81.56500244140625
 30
-43.61000061035156
 70
   192
  0
VERTEX
  5
96
  8
0
 10
50.01599884033203
 20
69.66200256347656
 30
-28.23200035095215
 70
   192
  0
VERTEX
  5
97
  8
0
 10
50.01599884033203
 20
54.90599822998047
 30
-15.56400012969971
 70
   192
  0
VERTEX
  5
98
  8
0
 10
50.01599884033203
 20
37.90299987792969
 30
-6.126999855041504
 70
   192
  0
VERTEX
  5
99
  8
0
 10
50.01599884033203
 20
19.34700012207031
 30
-0.3050000071525574
 70
   192
  0
VERTEX
  5
9A
  8
0
 10
52.72100067138672
 20
-20.03000068664551
 30
3.017999887466431
 70
   192
  0
VERTEX
  5
9B
  8
0
 10
52.72100067138672
 20
0.0
 30
5.054999828338623
 70
   192
  0
VERTEX
  5
9C
  8
0
 10
52.72100067138672
 20
-39.2400016784668
 30
-3.009000062942505
 70
   192
  0
VERTEX
  5
9D
  8
0
 10
52.72100067138672
 20
-56.84400177001953
 30
-12.77999973297119
 70
   192
  0
VERTEX
  5
9E
  8
0
 10
52.72100067138672
 20
-72.12000274658203
 30
-25.89399909973145
 70
   192
  0
VERTEX
  5
9F
  8
0
 10
52.72100067138672
 20
-84.44400024414062
 30
-41.81600189208984
 70
   192
  0
VERTEX
  5
A0
  8
0
 10
52.72100067138672
 20
-93.31099700927734
 30
-59.89099884033203
 70
   192
  0
VERTEX
  5
A1
  8
0
 10
52.72100067138672
 20
-98.35700225830078
 30
-79.38200378417969
 70
   192
  0
VERTEX
  5
A2
  8
0
 10
52.72100067138672
 20
-99.37699890136719
 30
-99.48999786376953
 70
   192
  0
VERTEX
  5
A3
  8
0
 10
52.72100067138672
 20
-96.3280029296875
 30
-119.390998840332
 70
   192
  0
VERTEX
  5
A4
  8
0
 10
52.72100067138672
 20
-89.33599853515625
 30
-138.27099609375
 70
   192
  0
VERTEX
  5
A5
  8
0
 10
52.72100067138672
 20
-78.68599700927734
 30
-155.3580017089844
 70
   192
  0
VERTEX
  5
A6
  8
0
 10
52.72100067138672
 20
-64.81500244140625
 30
-169.9499969482422
 70
   192
  0
VERTEX
  5
A7
  8
0
 10
52.72100067138672
 20
-48.29000091552734
 30
-181.4519958496094
 70
   192
  0
VERTEX
  5
A8
  8
0
 10
52.72100067138672
 20
-29.78800010681152
 30
-189.3910064697266
 70
   192
  0
VERTEX
  5
A9
  8
0
 10
52.72100067138672
 20
-10.06700038909912
 30
-193.4440002441406
 70
   192
  0
VERTEX
  5
AA
  8
0
 10
52.72100067138672
 20
10.06700038909912
 30
-193.4440002441406
 70
   192
  0
VERTEX
  5
AB
  8
0
 10
52.72100067138672
 20
29.78800010681152
 30
-189.3910064697266
 70
   192
  0
VERTEX
  5
AC
  8
0
 10
52.72100067138672
 20
48.29000091552734
 30
-181.4519958496094
 70
   192
  0
VERTEX
  5
AD
  8
0
 10
52.72100067138672
 20
64.81500244140625
 30
-169.9499969482422
 70
   192
  0
VERTEX
  5
AE
  8
0
 10
52.72100067138672
 20
78.68599700927734
 30
-155.3580017089844
 70
   192
  0
VERTEX
  5
AF
  8
0
 10
52.72100067138672
 20
89.33599853515625
 30
-138.27099609375
 70
   192
  0
VERTEX
  5
B0
  8
0
 10
52.72100067138672
 20
96.3280029296875
 30
-119.390998840332
 70
   192
  0
VERTEX
  5
B1
  8
0
 10
52.72100067138672
 20
99.37699890136719
 30
-99.48999786376953
 70
   192
  0
VERTEX
  5
B2
  8
0
 10
52.72100067138672
 20
98.35700225830078
 30
-79.38200378417969
 70
   192
  0
VERTEX
  5
B3
  8
0
 10
52.72100067138672
 20
93.31099700927734
 30
-59.89099884033203
 70
   192
  0
VERTEX
  5
B4
  8
0
 10
52.72100067138672
 20
84.44400024414062
 30
-41.81600189208984
 70
   192
  0
VERTEX
  5
B5
  8
0
 10
52.72100067138672
 20
72.12000274658203
 30
-25.89399909973145
 70
   192
  0
VERTEX
  5
B6
  8
0
 10
52.72100067138672
 20
56.84400177001953
 30
-12.77999973297119
 70
   192
  0
VERTEX
  5
B7
  8
0
 10
52.72100067138672
 20
39.2400016784668
 30
-3.009000062942505
 70
   192
  0
VERTEX
  5
B8
  8
0
 10
52.72100067138672
 20
20.03000068664551
 30
3.017999887466431
 70
   192
  0
VERTEX
  5
B9
  8
0
 10
57.06000137329102
 20
-20.03000068664551
 30
3.017999887466431
 70
   192
  0
VERTEX
  5
BA
  8
0
 10
57.06000137329102
 20
0.0
 30
5.054999828338623
 70
   192
  0
VERTEX
  5
BB
  8
0
 10
57.06000137329102
 20
-39.2400016784668
 30
-3.009000062942505
 70
   192
  0
VERTEX
  5
BC
  8
0
 10
57.06000137329102
 20
-56.84400177001953
 30
-12.77999973297119
 70
   192
  0
VERTEX
  5
BD
  8
0
 10
57.06000137329102
 20
-72.12000274658203
 30
-25.89399909973145
 70
   192
  0
VERTEX
  5
BE
  8
0
 10
57.06000137329102
 20
-84.44400024414062
 30
-41.81600189208984
 70
   192
  0
VERTEX
  5
BF
  8
0
 10
57.06000137329102
 20
-93.31099700927734
 30
-59.89099884033203
 70
   192
  0
VERTEX
  5
C0
  8
0
 10
57.06000137329102
 20
-98.35700225830078
 30
-79.38200378417969
 70
   192
  0
VERTEX
  5
C1
  8
0
 10
57.06000137329102
 20
-99.37699890136719
 30
-99.48999786376953
 70
   192
  0
VERTEX
  5
C2
  8
0
 10
57.06000137329102
 20
-96.3280029296875
 30
-119.390998840332
 70
   192
  0
VERTEX
  5
C3
  8
0
 10
57.06000137329102
 20
-89.33599853515625
 30
-138.27099609375
 70
   192
  0
VERTEX
  5
C4
  8
0
 10
57.06000137329102
 20
-78.68599700927734
 30
-155.3580017089844
 70
   192
  0
VERTEX
  5
C5
  8
0
 10
57.06000137329102
 20
-64.81500244140625
 30
-169.9499969482422
 70
   192
  0
VERTEX
  5
C6
  8
0
 10
57.06000137329102
 20
-48.29000091552734
 30
-181.4519958496094
 70
   192
  0
VERTEX
  5
C7
  8
0
 10
57.06000137329102
 20
-29.78800010681152
 30
-189.3910064697266
 70
   192
  0
VERTEX
  5
C8
  8
0
 10
57.06000137329102
 20
-10.06700038909912
 30
-193.4440002441406
 70
   192
  0
VERTEX
  5
C9
  8
0
 10
57.06000137329102
 20
10.06700038909912
 30
-193.4440002441406
 70
   192
  0
VERTEX
  5
CA
  8
0
 10
57.06000137329102
 20
29.78800010681152
 30
-189.3910064697266
 70
   192
  0
VERTEX
  5
CB
  8
0
 10
57.06000137329102
 20
48.29000091552734
 30
-181.4519958496094
 70
   192
  0
VERTEX
  5
CC
  8
0
 10
57.06000137329102
 20
64.81500244140625
 30
-169.9499969482422
 70
   192
  0
VERTEX
  5
CD
  8
0
 10
57.06000137329102
 20
78.68599700927734
 30
-155.3580017089844
 70
   192
  0
VERTEX
  5
CE
  8
0
 10
57.06000137329102
 20
89.33599853515625
 30
-138.27099609375
 70
   192
  0
VERTEX
  5
CF
  8
0
 10
57.06000137329102
 20
96.3280029296875
 30
-119.390998840332
 70
   192
  0
VERTEX
  5
D0
  8
0
 10
57.06000137329102
 20
99.37699890136719
 30
-99.48999786376953
 70
   192
  0
VERTEX
  5
D1
  8
0
 10
57.06000137329102
 20
98.35700225830078
 30
-79.38200378417969
 70
   192
  0
VERTEX
  5
D2
  8
0
 10
57.06000137329102
 20
93.31099700927734
 30
-59.89099884033203
 70
   192
  0
VERTEX
  5
D3
  8
0
 10
57.06000137329102
 20
84.44400024414062
 30
-41.81600189208984
 70
   192
  0
VERTEX
  5
D4
  8
0
 10
57.06000137329102
 20
72.12000274658203
 30
-25.89399909973145
 70
   192
  0
VERTEX
  5
D5
  8
0
 10
57.06000137329102
 20
56.84400177001953
 30
-12.77999973297119
 70
   192
  0
VERTEX
  5
D6
  8
0
 10
57.06000137329102
 20
39.2400016784668
 30
-3.009000062942505
 70
   192
  0
VERTEX
  5
D7
  8
0
 10
57.06000137329102
 20
20.03000068664551
 30
3.017999887466431
 70
   192
  0
VERTEX
  5
D8
  8
0
 10
59.76499938964844
 20
-19.34700012207031
 30
-0.3050000071525574
 70
   192
  0
VERTEX
  5
D9
  8
0
 10
59.76499938964844
 20
0.0
 30
1.662999987602234
 70
   192
  0
VERTEX
  5
DA
  8
0
 10
59.76499938964844
 20
-37.90299987792969
 30
-6.126999855041504
 70
   192
  0
VERTEX
  5
DB
  8
0
 10
59.76499938964844
 20
-54.90599822998047
 30
-15.56400012969971
 70
   192
  0
VERTEX
  5
DC
  8
0
 10
59.76499938964844
 20
-69.66200256347656
 30
-28.23200035095215
 70
   192
  0
VERTEX
  5
DD
  8
0
 10
59.76499938964844
 20
-81.56500244140625
 30
-43.61000061035156
 70
   192
  0
VERTEX
  5
DE
  8
0
 10
59.76499938964844
 20
-90.12999725341797
 30
-61.06999969482422
 70
   192
  0
VERTEX
  5
DF
  8
0
 10
59.76499938964844
 20
-95.00399780273438
 30
-79.89600372314453
 70
   192
  0
VERTEX
  5
E0
  8
0
 10
59.76499938964844
 20
-95.98899841308594
 30
-99.31800079345703
 70
   192
  0
VERTEX
  5
E1
  8
0
 10
59.76499938964844
 20
-93.04399871826172
 30
-118.5410003662109
 70
   192
  0
VERTEX
  5
E2
  8
0
 10
59.76499938964844
 20
-86.29000091552734
 30
-136.7769927978516
 70
   192
  0
VERTEX
  5
E3
  8
0
 10
59.76499938964844
 20
-76.00399780273438
 30
-153.281005859375
 70
   192
  0
VERTEX
  5
E4
  8
0
 10
59.76499938964844
 20
-62.60499954223633
 30
-167.3760070800781
 70
   192
  0
VERTEX
  5
E5
  8
0
 10
59.76499938964844
 20
-46.64400100708008
 30
-178.4859924316406
 70
   192
  0
VERTEX
  5
E6
  8
0
 10
59.76499938964844
 20
-28.77300071716309
 30
-186.1549987792969
 70
   192
  0
VERTEX
  5
E7
  8
0
 10
59.76499938964844
 20
-9.723999977111816
 30
-190.0690002441406
 70
   192
  0
VERTEX
  5
E8
  8
0
 10
59.76499938964844
 20
9.723999977111816
 30
-190.0690002441406
 70
   192
  0
VERTEX
  5
E9
  8
0
 10
59.76499938964844
 20
28.77300071716309
 30
-186.1549987792969
 70
   192
  0
VERTEX
  5
EA
  8
0
 10
59.76499938964844
 20
46.64400100708008
 30
-178.4859924316406
 70
   192
  0
VERTEX
  5
EB
  8
0
 10
59.76499938964844
 20
62.60499954223633
 30
-167.3760070800781
 70
   192
  0
VERTEX
  5
EC
  8
0
 10
59.76499938964844
 20
76.00399780273438
 30
-153.281005859375
 70
   192
  0
VERTEX
  5
ED
  8
0
 10
59.76499938964844
 20
86.29000091552734
 30
-136.7769927978516
 70
   192
  0
VERTEX
  5
EE
  8
0
 10
59.76499938964844
 20
93.04399871826172
 30
-118.5410003662109
 70
   192
  0
VERTEX
  5
EF
  8
0
 10
59.76499938964844
 20
95.98899841308594
 30
-99.31800079345703
 70
   192
  0
VERTEX
  5
F0
  8
0
 10
59.76499938964844
 20
95.00399780273438
 30
-79.89600372314453
 70
   192
  0
VERTEX
  5
F1
  8
0
 10
59.76499938964844
 20
90.12999725341797
 30
-61.06999969482422
 70
   192
  0
VERTEX
  5
F2
  8
0
 10
59.76499938964844
 20
81.56500244140625
 30
-43.61000061035156
 70
   192
  0
VERTEX
  5
F3
  8
0
 10
59.76499938964844
 20
69.66200256347656
 30
-28.23200035095215
 70
   192
  0
VERTEX
  5
F4
  8
0
 10
59.76499938964844
 20
54.90599822998047
 30
-15.56400012969971
 70
   192
  0
VERTEX
  5
F5
  8
0
 10
59.76499938964844
 20
37.90299987792969
 30
-6.126999855041504
 70
   192
  0
VERTEX
  5
F6
  8
0
 10
59.76499938964844
 20
19.34700012207031
 30
-0.3050000071525574
 70
   192
  0
VERTEX
  5
F7
  8
0
 10
58.79999923706055
 20
-18.49600028991699
 30
-4.447999954223633
 70
   192
  0
VERTEX
  5
F8
  8
0
 10
58.79999923706055
 20
0.0
 30
-2.566999912261963
 70
   192
  0
VERTEX
  5
F9
  8
0
 10
58.79999923706055
 20
-36.23400115966797
 30
-10.01399993896484
 70
   192
  0
VERTEX
  5
FA
  8
0
 10
58.79999923706055
 20
-52.4900016784668
 30
-19.0359992980957
 70
   192
  0
VERTEX
  5
FB
  8
0
 10
58.79999923706055
 20
-66.59600067138672
 30
-31.14599990844727
 70
   192
  0
VERTEX
  5
FC
  8
0
 10
58.79999923706055
 20
-77.97599792480469
 30
-45.84700012207031
 70
   192
  0
VERTEX
  5
FD
  8
0
 10
58.79999923706055
 20
-86.16300201416016
 30
-62.53900146484375
 70
   192
  0
VERTEX
  5
FE
  8
0
 10
58.79999923706055
 20
-90.822998046875
 30
-80.53600311279297
 70
   192
  0
VERTEX
  5
FF
  8
0
 10
58.79999923706055
 20
-91.76499938964844
 30
-99.10399627685547
 70
   192
  0
VERTEX
  5
100
  8
0
 10
58.79999923706055
 20
-88.9489974975586
 30
-117.4810028076172
 70
   192
  0
VERTEX
  5
101
  8
0
 10
58.79999923706055
 20
-82.49299621582031
 30
-134.9149932861328
 70
   192
  0
VERTEX
  5
102
  8
0
 10
58.79999923706055
 20
-72.65799713134766
 30
-150.6920013427734
 70
   192
  0
VERTEX
  5
103
  8
0
 10
58.79999923706055
 20
-59.84999847412109
 30
-164.1670074462891
 70
   192
  0
VERTEX
  5
104
  8
0
 10
58.79999923706055
 20
-44.59099960327148
 30
-174.7870025634766
 70
   192
  0
VERTEX
  5
105
  8
0
 10
58.79999923706055
 20
-27.50600051879883
 30
-182.1190032958984
 70
   192
  0
VERTEX
  5
106
  8
0
 10
58.79999923706055
 20
-9.295999526977539
 30
-185.8609924316406
 70
   192
  0
VERTEX
  5
107
  8
0
 10
58.79999923706055
 20
9.295999526977539
 30
-185.8609924316406
 70
   192
  0
VERTEX
  5
108
  8
0
 10
58.79999923706055
 20
27.50600051879883
 30
-182.1190032958984
 70
   192
  0
VERTEX
  5
109
  8
0
 10
58.79999923706055
 20
44.59099960327148
 30
-174.7870025634766
 70
   192
  0
VERTEX
  5
10A
  8
0
 10
58.79999923706055
 20
59.84999847412109
 30
-164.1670074462891
 70
   192
  0
VERTEX
  5
10B
  8
0
 10
58.79999923706055
 20
72.65799713134766
 30
-150.6920013427734
 70
   192
  0
VERTEX
  5
10C
  8
0
 10
58.79999923706055
 20
82.49299621582031
 30
-134.9149932861328
 70
   192
  0
VERTEX
  5
10D
  8
0
 10
58.79999923706055
 20
88.9489974975586
 30
-117.4810028076172
 70
   192
  0
VERTEX
  5
10E
  8
0
 10
58.79999923706055
 20
91.76499938964844
 30
-99.10399627685547
 70
   192
  0
VERTEX
  5
10F
  8
0
 10
58.79999923706055
 20
90.822998046875
 30
-80.53600311279297
 70
   192
  0
VERTEX
  5
110
  8
0
 10
58.79999923706055
 20
86.16300201416016
 30
-62.53900146484375
 70
   192
  0
VERTEX
  5
111
  8
0
 10
58.79999923706055
 20
77.97599792480469
 30
-45.84700012207031
 70
   192
  0
VERTEX
  5
112
  8
0
 10
58.79999923706055
 20
66.59600067138672
 30
-31.14599990844727
 70
   192
  0
VERTEX
  5
113
  8
0
 10
58.79999923706055
 20
52.4900016784668
 30
-19.0359992980957
 70
   192
  0
VERTEX
  5
114
  8
0
 10
58.79999923706055
 20
36.23400115966797
 30
-10.01399993896484
 70
   192
  0
VERTEX
  5
115
  8
0
 10
58.79999923706055
 20
18.49600028991699
 30
-4.447999954223633
 70
   192
  0
VERTEX
  5
116
  8
0
 62
     9
 10
0.0
 20
0.0
 30
0.0
 70
   128
 71
     3
 72
     2
 73
     1
  0
VERTEX
  5
117
  8
0
 62
     9
 10
0.0
 20
0.0
 30
0.0
 70
   128
 71
     4
 72
     3
 73
     1
  0
VERTEX
  5
118
  8
0
 62
     9
 10
0.0
 20
0.0
 30
0.0
 70
   128
 71
     6
 72
     5
 73
     2
  0
VERTEX
  5
119
  8
0
 62
     9
 10
0.0
 20
0.0
 30
0.0
 70
   128
 71
     3
 72
     6
 73
     2
  0
VERTEX
  5
11A
  8
0
 62
     9
 10
0.0
 20
0.0
 30
0.0
 70
   128
 71
     8
 72
     7
 73
     5
  0
VERTEX
  5
11B
  8
0
 62
     9
 10
0.0
 20
0.0
 30
0.0
 70
   128
 71
     6
 72
     8
 73
     5
  0
VERTEX
  5
11C
  8
0
 62
     9
 10
0.0
 20
0.0
 30
0.0
 70
   128
 71
    10
 72
     9
 73
     7
  0
VERTEX
  5
11D
  8
0
 62
     9
 10
0.0
 20
0.0
 30
0.0
 70
   128
 71
     8
 72
    10
 73
     7
  0
VERTEX
  5
11E
  8
0
 62
     9
 10
0.0
 20
0.0
 30
0.0
 70
   128
 71
    12
 72
    11
 73
     9
  0
VERTEX
  5
11F
  8
0
 62
     9
 10
0.0
 20
0.0
 30
0.0
 70
   128
 71
    10
 72
    12
 73
     9
  0
VERTEX
  5
120
  8
0
 62
     9
 10
0.0
 20
0.0
 30
0.0
 70
   128
 71
    14
 72
    13
 73
    11
  0
VERTEX
  5
121
  8
0
 62
     9
 10
0.0
 20
0.0
 30
0.0
 70
   128
 71
    12
 72
    14
 73
    11
  0
VERTEX
  5
122
  8
0
 62
     9
 10
0.0
 20
0.0
 30
0.0
 70
   128
 71
    16
 72
    15
 73
    13
  0
VERTEX
  5
123
  8
0
 62
     9
 10
0.0
 20
0.0
 30
0.0
 70
   128
 71
    14
 72
    16
 73
    13
  0
VERTEX
  5
124
  8
0
 62
     9
 10
0.0
 20
0.0
 30
0.0
 70
   128
 71
    18
 72
    17
 73
    15
  0
VERTEX
  5
125
  8
0
 62
     9
 10
0.0
 20
0.0
 30
0.0
 70
   128
 71
    16
 72
    18
 73
    15
  0
VERTEX
  5
126
  8
0
 62
     9
 10
0.0
 20
0.0
 30
0.0
 70
   128
 71
    20
 72
    19
 73
    17
  0
VERTEX
  5
127
  8
0
 62
     9
 10
0.0
 20
0.0
 30
0.0
 70
   128
 71
    18
 72
    20
 73
    17
  0
VERTEX
  5
128
  8
0
 62
     9
 10
0.0
 20
0.0
 30
0.0
 70
   128
 71
    22
 72
    21
 73
    19
  0
VERTEX
  5
129
  8
0
 62
     9
 10
0.0
 20
0.0
 30
0.0
 70
   128
 71
    20
 72
    22
 73
    19
  0
VERTEX
  5
12A
  8
0
 62
     9
 10
0.0
 20
0.0
 30
0.0
 70
   128
 71
    24
 72
    23
 73
    21
  0
VERTEX
  5
12B
  8
0
 62
     9
 10
0.0
 20
0.0
 30
0.0
 70
   128
 71
    22
 72
    24
 73
    21
  0
VERTEX
  5
12C
  8
0
 62
     9
 10
0.0
 20
0.0
 30
0.0
 70
   128
 71
    26
 72
    25
 73
    23
  0
VERTEX
  5
12D
  8
0
 62
     9
 10
0.0
 20
0.0
 30
0.0
 70
   128
 71
    24
 72
    26
 73
    23
  0
VERTEX
  5
12E
  8
0
 62
     9
 10
0.0
 20
0.0
 30
0.0
 70
   128
 71
    28
 72
    27
 73
    25
  0
VERTEX
  5
12F
  8
0
 62
     9
 10
0.0
 20
0.0
 30
0.0
 70
   128
 71
    26
 72
    28
 73
    25
  0
VERTEX
  5
130
  8
0
 62
     9
 10
0.0
 20
0.0
 30
0.0
 70
   128
 71
    30
 72
    29
 73
    27
  0
VERTEX
  5
131
  8
0
 62
     9
 10
0.0
 20
0.0
 30
0.0
 70
   128
 71
    28
 72
    30
 73
    27
  0
VERTEX
  5
132
  8
0
 62
     9
 10
0.0
 20
0.0
 30
0.0
 70
   128
 71
    32
 72
    31
 73
    29
  0
VERTEX
  5
133
  8
0
 62
     9
 10
0.0
 20
0.0
 30
0.0
 70
   128
 71
    30
 72
    32
 73
    29
  0
VERTEX
  5
134
  8
0
 62
     9
 10
0.0
 20
0.0
 30
0.0
 70
   128
 71
    34
 72
    33
 73
    31
  0
VERTEX
  5
135
  8
0
 62
     9
 10
0.0
 20
0.0
 30
0.0
 70
   128
 71
    32
 72
    34
 73
    31
  0
VERTEX
  5
136
  8
0
 62
     9
 10
0.0
 20
0.0
 30
0.0
 70
   128
 71
    36
 72
    35
 73
    33
  0
VERTEX
  5
137
  8
0
 62
     9
 10
0.0
 20
0.0
 30
0.0
 70
   128
 71
    34
 72
    36
 73
    33
  0
VERTEX
  5
138
  8
0
 62
     9
 10
0.0
 20
0.0
 30
0.0
 70
   128
 71
    38
 72
    37
 73
    35
  0
VERTEX
  5
139
  8
0
 62
     9
 10
0.0
 20
0.0
 30
0.0
 70
   128
 71
    36
 72
    38
 73
    35
  0
VERTEX
  5
13A
  8
0
 62
     9
 10
0.0
 20
0.0
 30
0.0
 70
   128
 71
    40
 72
    39
 73
    37
  0
VERTEX
  5
13B
  8
0
 62
     9
 10
0.0
 20
0.0
 30
0.0
 70
   128
 71
    38
 72
    40
 73
    37
  0
VERTEX
  5
13C
  8
0
 62
     9
 10
0.0
 20
0.0
 30
0.0
 70
   128
 71
    42
 72
    41
 73
    39
  0
VERTEX
  5
13D
  8
0
 62
     9
 10
0.0
 20
0.0
 30
0.0
 70
   128
 71
    40
 72
    42
 73
    39
  0
VERTEX
  5
13E
  8
0
 62
     9
 10
0.0
 20
0.0
 30
0.0
 70
   128
 71
    44
 72
    43
 73
    41
  0
VERTEX
  5
13F
  8
0
 62
     9
 10
0.0
 20
0.0
 30
0.0
 70
   128
 71
    42
 72
    44
 73
    41
  0
VERTEX
  5
140
  8
0
 62
     9
 10
0.0
 20
0.0
 30
0.0
 70
   128
 71
    46
 72
    45
 73
    43
  0
VERTEX
  5
141
  8
0
 62
     9
 10
0.0
 20
0.0
 30
0.0
 70
   128
 71
    44
 72
    46
 73
    43
  0
VERTEX
  5
142
  8
0
 62
     9
 10
0.0
 20
0.0
 30
0.0
 70
   128
 71
    48
 72
    47
 73
    45
  0
VERTEX
  5
143
  8
0
 62
     9
 10
0.0
 20
0.0
 30
0.0
 70
   128
 71
    46
 72
    48
 73
    45
  0
VERTEX
  5
144
  8
0
 62
     9
 10
0.0
 20
0.0
 30
0.0
 70
   128
 71
    50
 72
    49
 73
    47
  0
VERTEX
  5
145
  8
0
 62
     9
 10
0.0
 20
0.0
 30
0.0
 70
   128
 71
    48
 72
    50
 73
    47
  0
VERTEX
  5
146
  8
0
 62
     9
 10
0.0
 20
0.0
 30
0.0
 70
   128
 71
    52
 72
    51
 73
    49
  0
VERTEX
  5
147
  8
0
 62
     9
 10
0.0
 20
0.0
 30
0.0
 70
   128
 71
    50
 72
    52
 73
    49
  0
VERTEX
  5
148
  8
0
 62
     9
 10
0.0
 20
0.0
 30
0.0
 70
   128
 71
    54
 72
    53
 73
    51
  0
VERTEX
  5
149
  8
0
 62
     9
 10
0.0
 20
0.0
 30
0.0
 70
   128
 71
    52
 72
    54
 73
    51
  0
VERTEX
  5
14A
  8
0
 62
     9
 10
0.0
 20
0.0
 30
0.0
 70
   128
 71
    56
 72
    55
 73
    53
  0
VERTEX
  5
14B
  8
0
 62
     9
 10
0.0
 20
0.0
 30
0.0
 70
   128
 71
    54
 72
    56
 73
    53
  0
VERTEX
  5
14C
  8
0
 62
     9
 10
0.0
 20
0.0
 30
0.0
 70
   128
 71
    58
 72
    57
 73
    55
  0
VERTEX
  5
14D
  8
0
 62
     9
 10
0.0
 20
0.0
 30
0.0
 70
   128
 71
    56
 72
    58
 73
    55
  0
VERTEX
  5
14E
  8
0
 62
     9
 10
0.0
 20
0.0
 30
0.0
 70
   128
 71
    60
 72
    59
 73
    57
  0
VERTEX
  5
14F
  8
0
 62
     9
 10
0.0
 20
0.0
 30
0.0
 70
   128
 71
    58
 72
    60
 73
    57
  0
VERTEX
  5
150
  8
0
 62
     9
 10
0.0
 20
0.0
 30
0.0
 70
   128
 71
    62
 72
    61
 73
    59
  0
VERTEX
  5
151
  8
0
 62
     9
 10
0.0
 20
0.0
 30
0.0
 70
   128
 71
    60
 72
    62
 73
    59
  0
VERTEX
  5
152
  8
0
 62
     9
 10
0.0
 20
0.0
 30
0.0
 70
   128
 71
     4
 72
     1
 73
    61
  0
VERTEX
  5
153
  8
0
 62
     9
 10
0.0
 20
0.0
 30
0.0
 70
   128
 71
    62
 72
     4
 73
    61
  0
VERTEX
  5
154
  8
0
 62
     9
 10
0.0
 20
0.0
 30
0.0
 70
   128
 71
    63
 72
     3
 73
     4
  0
VERTEX
  5
155
  8
0
 62
     9
 10
0.0
 20
0.0
 30
0.0
 70
   128
 71
    64
 72
    63
 73
     4
  0
VERTEX
  5
156
  8
0
 62
     9
 10
0.0
 20
0.0
 30
0.0
 70
   128
 71
    65
 72
     6
 73
     3
  0
VERTEX
  5
157
  8
0
 62
     9
 10
0.0
 20
0.0
 30
0.0
 70
   128
 71
    63
 72
    65
 73
     3
  0
VERTEX
  5
158
  8
0
 62
     9
 10
0.0
 20
0.0
 30
0.0
 70
   128
 71
    66
 72
     8
 73
     6
  0
VERTEX
  5
159
  8
0
 62
     9
 10
0.0
 20
0.0
 30
0.0
 70
   128
 71
    65
 72
    66
 73
     6
  0
VERTEX
  5
15A
  8
0
 62
     9
 10
0.0
 20
0.0
 30
0.0
 70
   128
 71
    67
 72
    10
 73
     8
  0
VERTEX
  5
15B
  8
0
 62
     9
 10
0.0
 20
0.0
 30
0.0
 70
   128
 71
    66
 72
    67
 73
     8
  0
VERTEX
  5
15C
  8
0
 62
     9
 10
0.0
 20
0.0
 30
0.0
 70
   128
 71
    68
 72
    12
 73
    10
  0
VERTEX
  5
15D
  8
0
 62
     9
 10
0.0
 20
0.0
 30
0.0
 70
   128
 71
    67
 72
    68
 73
    10
  0
VERTEX
  5
15E
  8
0
 62
     9
 10
0.0
 20
0.0
 30
0.0
 70
   128
 71
    69
 72
    14
 73
    12
  0
VERTEX
  5
15F
  8
0
 62
     9
 10
0.0
 20
0.0
 30
0.0
 70
   128
 71
    68
 72
    69
 73
    12
  0
VERTEX
  5
160
  8
0
 62
     9
 10
0.0
 20
0.0
 30
0.0
 70
   128
 71
    70
 72
    16
 73
    14
  0
VERTEX
  5
161
  8
0
 62
     9
 10
0.0
 20
0.0
 30
0.0
 70
   128
 71
    69
 72
    70
 73
    14
  0
VERTEX
  5
162
  8
0
 62
     9
 10
0.0
 20
0.0
 30
0.0
 70
   128
 71
    71
 72
    18
 73
    16
  0
VERTEX
  5
163
  8
0
 62
     9
 10
0.0
 20
0.0
 30
0.0
 70
   128
 71
    70
 72
    71
 73
    16
  0
VERTEX
  5
164
  8
0
 62
     9
 10
0.0
 20
0.0
 30
0.0
 70
   128
 71
    72
 72
    20
 73
    18
  0
VERTEX
  5
165
  8
0
 62
     9
 10
0.0
 20
0.0
 30
0.0
 70
   128
 71
    71
 72
    72
 73
    18
  0
VERTEX
  5
166
  8
0
 62
     9
 10
0.0
 20
0.0
 30
0.0
 70
   128
 71
    73
 72
    22
 73
    20
  0
VERTEX
  5
167
  8
0
 62
     9
 10
0.0
 20
0.0
 30
0.0
 70
   128
 71
    72
 72
    73
 73
    20
  0
VERTEX
  5
168
  8
0
 62
     9
 10
0.0
 20
0.0
 30
0.0
 70
   128
 71
    74
 72
    24
 73
    22
  0
VERTEX
  5
169
  8
0
 62
     9
 10
0.0
 20
0.0
 30
0.0
 70
   128
 71
    73
 72
    74
 73
    22
  0
VERTEX
  5
16A
  8
0
 62
     9
 10
0.0
 20
0.0
 30
0.0
 70
   128
 71
    75
 72
    26
 73
    24
  0
VERTEX
  5
16B
  8
0
 62
     9
 10
0.0
 20
0.0
 30
0.0
 70
   128
 71
    74
 72
    75
 73
    24
  0
VERTEX
  5
16C
  8
0
 62
     9
 10
0.0
 20
0.0
 30
0.0
 70
   128
 71
    76
 72
    28
 73
    26
  0
VERTEX
  5
16D
  8
0
 62
     9
 10
0.0
 20
0.0
 30
0.0
 70
   128
 71
    75
 72
    76
 73
    26
  0
VERTEX
  5
16E
  8
0
 62
     9
 10
0.0
 20
0.0
 30
0.0
 70
   128
 71
    77
 72
    30
 73
    28
  0
VERTEX
  5
16F
  8
0
 62
     9
 10
0.0
 20
0.0
 30
0.0
 70
   128
 71
    76
 72
    77
 73
    28
  0
VERTEX
  5
170
  8
0
 62
     9
 10
0.0
 20
0.0
 30
0.0
 70
   128
 71
    78
 72
    32
 73
    30
  0
VERTEX
  5
171
  8
0
 62
     9
 10
0.0
 20
0.0
 30
0.0
 70
   128
 71
    77
 72
    78
 73
    30
  0
VERTEX
  5
172
  8
0
 62
     9
 10
0.0
 20
0.0
 30
0.0
 70
   128
 71
    79
 72
    34
 73
    32
  0
VERTEX
  5
173
  8
0
 62
     9
 10
0.0
 20
0.0
 30
0.0
 70
   128
 71
    78
 72
    79
 73
    32
  0
VERTEX
  5
174
  8
0
 62
     9
 10
0.0
 20
0.0
 30
0.0
 70
   128
 71
    80
 72
    36
 73
    34
  0
VERTEX
  5
175
  8
0
 62
     9
 10
0.0
 20
0.0
 30
0.0
 70
   128
 71
    79
 72
    80
 73
    34
  0
VERTEX
  5
176
  8
0
 62
     9
 10
0.0
 20
0.0
 30
0.0
 70
   128
 71
    81
 72
    38
 73
    36
  0
VERTEX
  5
177
  8
0
 62
     9
 10
0.0
 20
0.0
 30
0.0
 70
   128
 71
    80
 72
    81
 73
    36
  0
VERTEX
  5
178
  8
0
 62
     9
 10
0.0
 20
0.0
 30
0.0
 70
   128
 71
    82
 72
    40
 73
    38
  0
VERTEX
  5
179
  8
0
 62
     9
 10
0.0
 20
0.0
 30
0.0
 70
   128
 71
    81
 72
    82
 73
    38
  0
VERTEX
  5
17A
  8
0
 62
     9
 10
0.0
 20
0.0
 30
0.0
 70
   128
 71
    83
 72
    42
 73
    40
  0
VERTEX
  5
17B
  8
0
 62
     9
 10
0.0
 20
0.0
 30
0.0
 70
   128
 71
    82
 72
    83
 73
    40
  0
VERTEX
  5
17C
  8
0
 62
     9
 10
0.0
 20
0.0
 30
0.0
 70
   128
 71
    84
 72
    44
 73
    42
  0
VERTEX
  5
17D
  8
0
 62
     9
 10
0.0
 20
0.0
 30
0.0
 70
   128
 71
    83
 72
    84
 73
    42
  0
VERTEX
  5
17E
  8
0
 62
     9
 10
0.0
 20
0.0
 30
0.0
 70
   128
 71
    85
 72
    46
 73
    44
  0
VERTEX
  5
17F
  8
0
 62
     9
 10
0.0
 20
0.0
 30
0.0
 70
   128
 71
    84
 72
    85
 73
    44
  0
VERTEX
  5
180
  8
0
 62
     9
 10
0.0
 20
0.0
 30
0.0
 70
   128
 71
    86
 72
    48
 73
    46
  0
VERTEX
  5
181
  8
0
 62
     9
 10
0.0
 20
0.0
 30
0.0
 70
   128
 71
    85
 72
    86
 73
    46
  0
VERTEX
  5
182
  8
0
 62
     9
 10
0.0
 20
0.0
 30
0.0
 70
   128
 71
    87
 72
    50
 73
    48
  0
VERTEX
  5
183
  8
0
 62
     9
 10
0.0
 20
0.0
 30
0.0
 70
   128
 71
    86
 72
    87
 73
    48
  0
VERTEX
  5
184
  8
0
 62
     9
 10
0.0
 20
0.0
 30
0.0
 70
   128
 71
    88
 72
    52
 73
    50
  0
VERTEX
  5
185
  8
0
 62
     9
 10
0.0
 20
0.0
 30
0.0
 70
   128
 71
    87
 72
    88
 73
    50
  0
VERTEX
  5
186
  8
0
 62
     9
 10
0.0
 20
0.0
 30
0.0
 70
   128
 71
    89
 72
    54
 73
    52
  0
VERTEX
  5
187
  8
0
 62
     9
 10
0.0
 20
0.0
 30
0.0
 70
   128
 71
    88
 72
    89
 73
    52
  0
VERTEX
  5
188
  8
0
 62
     9
 10
0.0
 20
0.0
 30
0.0
 70
   128
 71
    90
 72
    56
 73
    54
  0
VERTEX
  5
189
  8
0
 62
     9
 10
0.0
 20
0.0
 30
0.0
 70
   128
 71
    89
 72
    90
 73
    54
  0
VERTEX
  5
18A
  8
0
 62
     9
 10
0.0
 20
0.0
 30
0.0
 70
   128
 71
    91
 72
    58
 73
    56
  0
VERTEX
  5
18B
  8
0
 62
     9
 10
0.0
 20
0.0
 30
0.0
 70
   128
 71
    90
 72
    91
 73
    56
  0
VERTEX
  5
18C
  8
0
 62
     9
 10
0.0
 20
0.0
 30
0.0
 70
   128
 71
    92
 72
    60
 73
    58
  0
VERTEX
  5
18D
  8
0
 62
     9
 10
0.0
 20
0.0
 30
0.0
 70
   128
 71
    91
 72
    92
 73
    58
  0
VERTEX
  5
18E
  8
0
 62
     9
 10
0.0
 20
0.0
 30
0.0
 70
   128
 71
    93
 72
    62
 73
    60
  0
VERTEX
  5
18F
  8
0
 62
     9
 10
0.0
 20
0.0
 30
0.0
 70
   128
 71
    92
 72
    93
 73
    60
  0
VERTEX
  5
190
  8
0
 62
     9
 10
0.0
 20
0.0
 30
0.0
 70
   128
 71
    64
 72
     4
 73
    62
  0
VERTEX
  5
191
  8
0
 62
     9
 10
0.0
 20
0.0
 30
0.0
 70
   128
 71
    93
 72
    64
 73
    62
  0
VERTEX
  5
192
  8
0
 62
     9
 10
0.0
 20
0.0
 30
0.0
 70
   128
 71
    94
 72
    63
 73
    64
  0
VERTEX
  5
193
  8
0
 62
     9
 10
0.0
 20
0.0
 30
0.0
 70
   128
 71
    95
 72
    94
 73
    64
  0
VERTEX
  5
194
  8
0
 62
     9
 10
0.0
 20
0.0
 30
0.0
 70
   128
 71
    96
 72
    65
 73
    63
  0
VERTEX
  5
195
  8
0
 62
     9
 10
0.0
 20
0.0
 30
0.0
 70
   128
 71
    94
 72
    96
 73
    63
  0
VERTEX
  5
196
  8
0
 62
     9
 10
0.0
 20
0.0
 30
0.0
 70
   128
 71
    97
 72
    66
 73
    65
  0
VERTEX
  5
197
  8
0
 62
     9
 10
0.0
 20
0.0
 30
0.0
 70
   128
 71
    96
 72
    97
 73
    65
  0
VERTEX
  5
198
  8
0
 62
     9
 10
0.0
 20
0.0
 30
0.0
 70
   128
 71
    98
 72
    67
 73
    66
  0
VERTEX
  5
199
  8
0
 62
     9
 10
0.0
 20
0.0
 30
0.0
 70
   128
 71
    97
 72
    98
 73
    66
  0
VERTEX
  5
19A
  8
0
 62
     9
 10
0.0
 20
0.0
 30
0.0
 70
   128
 71
    99
 72
    68
 73
    67
  0
VERTEX
  5
19B
  8
0
 62
     9
 10
0.0
 20
0.0
 30
0.0
 70
   128
 71
    98
 72
    99
 73
    67
  0
VERTEX
  5
19C
  8
0
 62
     9
 10
0.0
 20
0.0
 30
0.0
 70
   128
 71
   100
 72
    69
 73
    68
  0
VERTEX
  5
19D
  8
0
 62
     9
 10
0.0
 20
0.0
 30
0.0
 70
   128
 71
    99
 72
   100
 73
    68
  0
VERTEX
  5
19E
  8
0
 62
     9
 10
0.0
 20
0.0
 30
0.0
 70
   128
 71
   101
 72
    70
 73
    69
  0
VERTEX
  5
19F
  8
0
 62
     9
 10
0.0
 20
0.0
 30
0.0
 70
   128
 71
   100
 72
   101
 73
    69
  0
VERTEX
  5
1A0
  8
0
 62
     9
 10
0.0
 20
0.0
 30
0.0
 70
   128
 71
   102
 72
    71
 73
    70
  0
VERTEX
  5
1A1
  8
0
 62
     9
 10
0.0
 20
0.0
 30
0.0
 70
   128
 71
   101
 72
   102
 73
    70
  0
VERTEX
  5
1A2
  8
0
 62
     9
 10
0.0
 20
0.0
 30
0.0
 70
   128
 71
   103
 72
    72
 73
    71
  0
VERTEX
  5
1A3
  8
0
 62
     9
 10
0.0
 20
0.0
 30
0.0
 70
   128
 71
   102
 72
   103
 73
    71
  0
VERTEX
  5
1A4
  8
0
 62
     9
 10
0.0
 20
0.0
 30
0.0
 70
   128
 71
   104
 72
    73
 73
    72
  0
VERTEX
  5
1A5
  8
0
 62
     9
 10
0.0
 20
0.0
 30
0.0
 70
   128
 71
   103
 72
   104
 73
    72
  0
VERTEX
  5
1A6
  8
0
 62
     9
 10
0.0
 20
0.0
 30
0.0
 70
   128
 71
   105
 72
    74
 73
    73
  0
VERTEX
  5
1A7
  8
0
 62
     9
 10
0.0
 20
0.0
 30
0.0
 70
   128
 71
   104
 72
   105
 73
    73
  0
VERTEX
  5
1A8
  8
0
 62
     9
 10
0.0
 20
0.0
 30
0.0
 70
   128
 71
   106
 72
    75
 73
    74
  0
VERTEX
  5
1A9
  8
0
 62
     9
 10
0.0
 20
0.0
 30
0.0
 70
   128
 71
   105
 72
   106
 73
    74
  0
VERTEX
  5
1AA
  8
0
 62
     9
 10
0.0
 20
0.0
 30
0.0
 70
   128
 71
   107
 72
    76
 73
    75
  0
VERTEX
  5
1AB
  8
0
 62
     9
 10
0.0
 20
0.0
 30
0.0
 70
   128
 71
   106
 72
   107
 73
    75
  0
VERTEX
  5
1AC
  8
0
 62
     9
 10
0.0
 20
0.0
 30
0.0
 70
   128
 71
   108
 72
    77
 73
    76
  0
VERTEX
  5
1AD
  8
0
 62
     9
 10
0.0
 20
0.0
 30
0.0
 70
   128
 71
   107
 72
   108
 73
    76
  0
VERTEX
  5
1AE
  8
0
 62
     9
 10
0.0
 20
0.0
 30
0.0
 70
   128
 71
   109
 72
    78
 73
    77
  0
VERTEX
  5
1AF
  8
0
 62
     9
 10
0.0
 20
0.0
 30
0.0
 70
   128
 71
   108
 72
   109
 73
    77
  0
VERTEX
  5
1B0
  8
0
 62
     9
 10
0.0
 20
0.0
 30
0.0
 70
   128
 71
   110
 72
    79
 73
    78
  0
VERTEX
  5
1B1
  8
0
 62
     9
 10
0.0
 20
0.0
 30
0.0
 70
   128
 71
   109
 72
   110
 73
    78
  0
VERTEX
  5
1B2
  8
0
 62
     9
 10
0.0
 20
0.0
 30
0.0
 70
   128
 71
   111
 72
    80
 73
    79
  0
VERTEX
  5
1B3
  8
0
 62
     9
 10
0.0
 20
0.0
 30
0.0
 70
   128
 71
   110
 72
   111
 73
    79
  0
VERTEX
  5
1B4
  8
0
 62
     9
 10
0.0
 20
0.0
 30
0.0
 70
   128
 71
   112
 72
    81
 73
    80
  0
VERTEX
  5
1B5
  8
0
 62
     9
 10
0.0
 20
0.0
 30
0.0
 70
   128
 71
   111
 72
   112
 73
    80
  0
VERTEX
  5
1B6
  8
0
 62
     9
 10
0.0
 20
0.0
 30
0.0
 70
   128
 71
   113
 72
    82
 73
    81
  0
VERTEX
  5
1B7
  8
0
 62
     9
 10
0.0
 20
0.0
 30
0.0
 70
   128
 71
   112
 72
   113
 73
    81
  0
VERTEX
  5
1B8
  8
0
 62
     9
 10
0.0
 20
0.0
 30
0.0
 70
   128
 71
   114
 72
    83
 73
    82
  0
VERTEX
  5
1B9
  8
0
 62
     9
 10
0.0
 20
0.0
 30
0.0
 70
   128
 71
   113
 72
   114
 73
    82
  0
VERTEX
  5
1BA
  8
0
 62
     9
 10
0.0
 20
0.0
 30
0.0
 70
   128
 71
   115
 72
    84
 73
    83
  0
VERTEX
  5
1BB
  8
0
 62
     9
 10
0.0
 20
0.0
 30
0.0
 70
   128
 71
   114
 72
   115
 73
    83
  0
VERTEX
  5
1BC
  8
0
 62
     9
 10
0.0
 20
0.0
 30
0.0
 70
   128
 71
   116
 72
    85
 73
    84
  0
VERTEX
  5
1BD
  8
0
 62
     9
 10
0.0
 20
0.0
 30
0.0
 70
   128
 71
   115
 72
   116
 73
    84
  0
VERTEX
  5
1BE
  8
0
 62
     9
 10
0.0
 20
0.0
 30
0.0
 70
   128
 71
   117
 72
    86
 73
    85
  0
VERTEX
  5
1BF
  8
0
 62
     9
 10
0.0
 20
0.0
 30
0.0
 70
   128
 71
   116
 72
   117
 73
    85
  0
VERTEX
  5
1C0
  8
0
 62
     9
 10
0.0
 20
0.0
 30
0.0
 70
   128
 71
   118
 72
    87
 73
    86
  0
VERTEX
  5
1C1
  8
0
 62
     9
 10
0.0
 20
0.0
 30
0.0
 70
   128
 71
   117
 72
   118
 73
    86
  0
VERTEX
  5
1C2
  8
0
 62
     9
 10
0.0
 20
0.0
 30
0.0
 70
   128
 71
   119
 72
    88
 73
    87
  0
VERTEX
  5
1C3
  8
0
 62
     9
 10
0.0
 20
0.0
 30
0.0
 70
   128
 71
   118
 72
   119
 73
    87
  0
VERTEX
  5
1C4
  8
0
 62
     9
 10
0.0
 20
0.0
 30
0.0
 70
   128
 71
   120
 72
    89
 73
    88
  0
VERTEX
  5
1C5
  8
0
 62
     9
 10
0.0
 20
0.0
 30
0.0
 70
   128
 71
   119
 72
   120
 73
    88
  0
VERTEX
  5
1C6
  8
0
 62
     9
 10
0.0
 20
0.0
 30
0.0
 70
   128
 71
   121
 72
    90
 73
    89
  0
VERTEX
  5
1C7
  8
0
 62
     9
 10
0.0
 20
0.0
 30
0.0
 70
   128
 71
   120
 72
   121
 73
    89
  0
VERTEX
  5
1C8
  8
0
 62
     9
 10
0.0
 20
0.0
 30
0.0
 70
   128
 71
   122
 72
    91
 73
    90
  0
VERTEX
  5
1C9
  8
0
 62
     9
 10
0.0
 20
0.0
 30
0.0
 70
   128
 71
   121
 72
   122
 73
    90
  0
VERTEX
  5
1CA
  8
0
 62
     9
 10
0.0
 20
0.0
 30
0.0
 70
   128
 71
   123
 72
    92
 73
    91
  0
VERTEX
  5
1CB
  8
0
 62
     9
 10
0.0
 20
0.0
 30
0.0
 70
   128
 71
   122
 72
   123
 73
    91
  0
VERTEX
  5
1CC
  8
0
 62
     9
 10
0.0
 20
0.0
 30
0.0
 70
   128
 71
   124
 72
    93
 73
    92
  0
VERTEX
  5
1CD
  8
0
 62
     9
 10
0.0
 20
0.0
 30
0.0
 70
   128
 71
   123
 72
   124
 73
    92
  0
VERTEX
  5
1CE
  8
0
 62
     9
 10
0.0
 20
0.0
 30
0.0
 70
   128
 71
    95
 72
    64
 73
    93
  0
VERTEX
  5
1CF
  8
0
 62
     9
 10
0.0
 20
0.0
 30
0.0
 70
   128
 71
   124
 72
    95
 73
    93
  0
VERTEX
  5
1D0
  8
0
 62
     9
 10
0.0
 20
0.0
 30
0.0
 70
   128
 71
   125
 72
    94
 73
    95
  0
VERTEX
  5
1D1
  8
0
 62
     9
 10
0.0
 20
0.0
 30
0.0
 70
   128
 71
   126
 72
   125
 73
    95
  0
VERTEX
  5
1D2
  8
0
 62
     9
 10
0.0
 20
0.0
 30
0.0
 70
   128
 71
   127
 72
    96
 73
    94
  0
VERTEX
  5
1D3
  8
0
 62
     9
 10
0.0
 20
0.0
 30
0.0
 70
   128
 71
   125
 72
   127
 73
    94
  0
VERTEX
  5
1D4
  8
0
 62
     9
 10
0.0
 20
0.0
 30
0.0
 70
   128
 71
   128
 72
    97
 73
    96
  0
VERTEX
  5
1D5
  8
0
 62
     9
 10
0.0
 20
0.0
 30
0.0
 70
   128
 71
   127
 72
   128
 73
    96
  0
VERTEX
  5
1D6
  8
0
 62
     9
 10
0.0
 20
0.0
 30
0.0
 70
   128
 71
   129
 72
    98
 73
    97
  0
VERTEX
  5
1D7
  8
0
 62
     9
 10
0.0
 20
0.0
 30
0.0
 70
   128
 71
   128
 72
   129
 73
    97
  0
VERTEX
  5
1D8
  8
0
 62
     9
 10
0.0
 20
0.0
 30
0.0
 70
   128
 71
   130
 72
    99
 73
    98
  0
VERTEX
  5
1D9
  8
0
 62
     9
 10
0.0
 20
0.0
 30
0.0
 70
   128
 71
   129
 72
   130
 73
    98
  0
VERTEX
  5
1DA
  8
0
 62
     9
 10
0.0
 20
0.0
 30
0.0
 70
   128
 71
   131
 72
   100
 73
    99
  0
VERTEX
  5
1DB
  8
0
 62
     9
 10
0.0
 20
0.0
 30
0.0
 70
   128
 71
   130
 72
   131
 73
    99
  0
VERTEX
  5
1DC
  8
0
 62
     9
 10
0.0
 20
0.0
 30
0.0
 70
   128
 71
   132
 72
   101
 73
   100
  0
VERTEX
  5
1DD
  8
0
 62
     9
 10
0.0
 20
0.0
 30
0.0
 70
   128
 71
   131
 72
   132
 73
   100
  0
VERTEX
  5
1DE
  8
0
 62
     9
 10
0.0
 20
0.0
 30
0.0
 70
   128
 71
   133
 72
   102
 73
   101
  0
VERTEX
  5
1DF
  8
0
 62
     9
 10
0.0
 20
0.0
 30
0.0
 70
   128
 71
   132
 72
   133
 73
   101
  0
VERTEX
  5
1E0
  8
0
 62
     9
 10
0.0
 20
0.0
 30
0.0
 70
   128
 71
   134
 72
   103
 73
   102
  0
VERTEX
  5
1E1
  8
0
 62
     9
 10
0.0
 20
0.0
 30
0.0
 70
   128
 71
   133
 72
   134
 73
   102
  0
VERTEX
  5
1E2
  8
0
 62
     9
 10
0.0
 20
0.0
 30
0.0
 70
   128
 71
   135
 72
   104
 73
   103
  0
VERTEX
  5
1E3
  8
0
 62
     9
 10
0.0
 20
0.0
 30
0.0
 70
   128
 71
   134
 72
   135
 73
   103
  0
VERTEX
  5
1E4
  8
0
 62
     9
 10
0.0
 20
0.0
 30
0.0
 70
   128
 71
   136
 72
   105
 73
   104
  0
VERTEX
  5
1E5
  8
0
 62
     9
 10
0.0
 20
0.0
 30
0.0
 70
   128
 71
   135
 72
   136
 73
   104
  0
VERTEX
  5
1E6
  8
0
 62
     9
 10
0.0
 20
0.0
 30
0.0
 70
   128
 71
   137
 72
   106
 73
   105
  0
VERTEX
  5
1E7
  8
0
 62
     9
 10
0.0
 20
0.0
 30
0.0
 70
   128
 71
   136
 72
   137
 73
   105
  0
VERTEX
  5
1E8
  8
0
 62
     9
 10
0.0
 20
0.0
 30
0.0
 70
   128
 71
   138
 72
   107
 73
   106
  0
VERTEX
  5
1E9
  8
0
 62
     9
 10
0.0
 20
0.0
 30
0.0
 70
   128
 71
   137
 72
   138
 73
   106
  0
VERTEX
  5
1EA
  8
0
 62
     9
 10
0.0
 20
0.0
 30
0.0
 70
   128
 71
   139
 72
   108
 73
   107
  0
VERTEX
  5
1EB
  8
0
 62
     9
 10
0.0
 20
0.0
 30
0.0
 70
   128
 71
   138
 72
   139
 73
   107
  0
VERTEX
  5
1EC
  8
0
 62
     9
 10
0.0
 20
0.0
 30
0.0
 70
   128
 71
   140
 72
   109
 73
   108
  0
VERTEX
  5
1ED
  8
0
 62
     9
 10
0.0
 20
0.0
 30
0.0
 70
   128
 71
   139
 72
   140
 73
   108
  0
VERTEX
  5
1EE
  8
0
 62
     9
 10
0.0
 20
0.0
 30
0.0
 70
   128
 71
   141
 72
   110
 73
   109
  0
VERTEX
  5
1EF
  8
0
 62
     9
 10
0.0
 20
0.0
 30
0.0
 70
   128
 71
   140
 72
   141
 73
   109
  0
VERTEX
  5
1F0
  8
0
 62
     9
 10
0.0
 20
0.0
 30
0.0
 70
   128
 71
   142
 72
   111
 73
   110
  0
VERTEX
  5
1F1
  8
0
 62
     9
 10
0.0
 20
0.0
 30
0.0
 70
   128
 71
   141
 72
   142
 73
   110
  0
VERTEX
  5
1F2
  8
0
 62
     9
 10
0.0
 20
0.0
 30
0.0
 70
   128
 71
   143
 72
   112
 73
   111
  0
VERTEX
  5
1F3
  8
0
 62
     9
 10
0.0
 20
0.0
 30
0.0
 70
   128
 71
   142
 72
   143
 73
   111
  0
VERTEX
  5
1F4
  8
0
 62
     9
 10
0.0
 20
0.0
 30
0.0
 70
   128
 71
   144
 72
   113
 73
   112
  0
VERTEX
  5
1F5
  8
0
 62
     9
 10
0.0
 20
0.0
 30
0.0
 70
   128
 71
   143
 72
   144
 73
   112
  0
VERTEX
  5
1F6
  8
0
 62
     9
 10
0.0
 20
0.0
 30
0.0
 70
   128
 71
   145
 72
   114
 73
   113
  0
VERTEX
  5
1F7
  8
0
 62
     9
 10
0.0
 20
0.0
 30
0.0
 70
   128
 71
   144
 72
   145
 73
   113
  0
VERTEX
  5
1F8
  8
0
 62
     9
 10
0.0
 20
0.0
 30
0.0
 70
   128
 71
   146
 72
   115
 73
   114
  0
VERTEX
  5
1F9
  8
0
 62
     9
 10
0.0
 20
0.0
 30
0.0
 70
   128
 71
   145
 72
   146
 73
   114
  0
VERTEX
  5
1FA
  8
0
 62
     9
 10
0.0
 20
0.0
 30
0.0
 70
   128
 71
   147
 72
   116
 73
   115
  0
VERTEX
  5
1FB
  8
0
 62
     9
 10
0.0
 20
0.0
 30
0.0
 70
   128
 71
   146
 72
   147
 73
   115
  0
VERTEX
  5
1FC
  8
0
 62
     9
 10
0.0
 20
0.0
 30
0.0
 70
   128
 71
   148
 72
   117
 73
   116
  0
VERTEX
  5
1FD
  8
0
 62
     9
 10
0.0
 20
0.0
 30
0.0
 70
   128
 71
   147
 72
   148
 73
   116
  0
VERTEX
  5
1FE
  8
0
 62
     9
 10
0.0
 20
0.0
 30
0.0
 70
   128
 71
   149
 72
   118
 73
   117
  0
VERTEX
  5
1FF
  8
0
 62
     9
 10
0.0
 20
0.0
 30
0.0
 70
   128
 71
   148
 72
   149
 73
   117
  0
VERTEX
  5
200
  8
0
 62
     9
 10
0.0
 20
0.0
 30
0.0
 70
   128
 71
   150
 72
   119
 73
   118
  0
VERTEX
  5
201
  8
0
 62
     9
 10
0.0
 20
0.0
 30
0.0
 70
   128
 71
   149
 72
   150
 73
   118
  0
VERTEX
  5
202
  8
0
 62
     9
 10
0.0
 20
0.0
 30
0.0
 70
   128
 71
   151
 72
   120
 73
   119
  0
VERTEX
  5
203
  8
0
 62
     9
 10
0.0
 20
0.0
 30
0.0
 70
   128
 71
   150
 72
   151
 73
   119
  0
VERTEX
  5
204
  8
0
 62
     9
 10
0.0
 20
0.0
 30
0.0
 70
   128
 71
   152
 72
   121
 73
   120
  0
VERTEX
  5
205
  8
0
 62
     9
 10
0.0
 20
0.0
 30
0.0
 70
   128
 71
   151
 72
   152
 73
   120
  0
VERTEX
  5
206
  8
0
 62
     9
 10
0.0
 20
0.0
 30
0.0
 70
   128
 71
   153
 72
   122
 73
   121
  0
VERTEX
  5
207
  8
0
 62
     9
 10
0.0
 20
0.0
 30
0.0
 70
   128
 71
   152
 72
   153
 73
   121
  0
VERTEX
  5
208
  8
0
 62
     9
 10
0.0
 20
0.0
 30
0.0
 70
   128
 71
   154
 72
   123
 73
   122
  0
VERTEX
  5
209
  8
0
 62
     9
 10
0.0
 20
0.0
 30
0.0
 70
   128
 71
   153
 72
   154
 73
   122
  0
VERTEX
  5
20A
  8
0
 62
     9
 10
0.0
 20
0.0
 30
0.0
 70
   128
 71
   155
 72
   124
 73
   123
  0
VERTEX
  5
20B
  8
0
 62
     9
 10
0.0
 20
0.0
 30
0.0
 70
   128
 71
   154
 72
   155
 73
   123
  0
VERTEX
  5
20C
  8
0
 62
     9
 10
0.0
 20
0.0
 30
0.0
 70
   128
 71
   126
 72
    95
 73
   124
  0
VERTEX
  5
20D
  8
0
 62
     9
 10
0.0
 20
0.0
 30
0.0
 70
   128
 71
   155
 72
   126
 73
   124
  0
VERTEX
  5
20E
  8
0
 62
     9
 10
0.0
 20
0.0
 30
0.0
 70
   128
 71
   156
 72
   125
 73
   126
  0
VERTEX
  5
20F
  8
0
 62
     9
 10
0.0
 20
0.0
 30
0.0
 70
   128
 71
   157
 72
   156
 73
   126
  0
VERTEX
  5
210
  8
0
 62
     9
 10
0.0
 20
0.0
 30
0.0
 70
   128
 71
   158
 72
   127
 73
   125
  0
VERTEX
  5
211
  8
0
 62
     9
 10
0.0
 20
0.0
 30
0.0
 70
   128
 71
   156
 72
   158
 73
   125
  0
VERTEX
  5
212
  8
0
 62
     9
 10
0.0
 20
0.0
 30
0.0
 70
   128
 71
   159
 72
   128
 73
   127
  0
VERTEX
  5
213
  8
0
 62
     9
 10
0.0
 20
0.0
 30
0.0
 70
   128
 71
   158
 72
   159
 73
   127
  0
VERTEX
  5
214
  8
0
 62
     9
 10
0.0
 20
0.0
 30
0.0
 70
   128
 71
   160
 72
   129
 73
   128
  0
VERTEX
  5
215
  8
0
 62
     9
 10
0.0
 20
0.0
 30
0.0
 70
   128
 71
   159
 72
   160
 73
   128
  0
VERTEX
  5
216
  8
0
 62
     9
 10
0.0
 20
0.0
 30
0.0
 70
   128
 71
   161
 72
   130
 73
   129
  0
VERTEX
  5
217
  8
0
 62
     9
 10
0.0
 20
0.0
 30
0.0
 70
   128
 71
   160
 72
   161
 73
   129
  0
VERTEX
  5
218
  8
0
 62
     9
 10
0.0
 20
0.0
 30
0.0
 70
   128
 71
   162
 72
   131
 73
   130
  0
VERTEX
  5
219
  8
0
 62
     9
 10
0.0
 20
0.0
 30
0.0
 70
   128
 71
   161
 72
   162
 73
   130
  0
VERTEX
  5
21A
  8
0
 62
     9
 10
0.0
 20
0.0
 30
0.0
 70
   128
 71
   163
 72
   132
 73
   131
  0
VERTEX
  5
21B
  8
0
 62
     9
 10
0.0
 20
0.0
 30
0.0
 70
   128
 71
   162
 72
   163
 73
   131
  0
VERTEX
  5
21C
  8
0
 62
     9
 10
0.0
 20
0.0
 30
0.0
 70
   128
 71
   164
 72
   133
 73
   132
  0
VERTEX
  5
21D
  8
0
 62
     9
 10
0.0
 20
0.0
 30
0.0
 70
   128
 71
   163
 72
   164
 73
   132
  0
VERTEX
  5
21E
  8
0
 62
     9
 10
0.0
 20
0.0
 30
0.0
 70
   128
 71
   165
 72
   134
 73
   133
  0
VERTEX
  5
21F
  8
0
 62
     9
 10
0.0
 20
0.0
 30
0.0
 70
   128
 71
   164
 72
   165
 73
   133
  0
VERTEX
  5
220
  8
0
 62
     9
 10
0.0
 20
0.0
 30
0.0
 70
   128
 71
   166
 72
   135
 73
   134
  0
VERTEX
  5
221
  8
0
 62
     9
 10
0.0
 20
0.0
 30
0.0
 70
   128
 71
   165
 72
   166
 73
   134
  0
VERTEX
  5
222
  8
0
 62
     9
 10
0.0
 20
0.0
 30
0.0
 70
   128
 71
   167
 72
   136
 73
   135
  0
VERTEX
  5
223
  8
0
 62
     9
 10
0.0
 20
0.0
 30
0.0
 70
   128
 71
   166
 72
   167
 73
   135
  0
VERTEX
  5
224
  8
0
 62
     9
 10
0.0
 20
0.0
 30
0.0
 70
   128
 71
   168
 72
   137
 73
   136
  0
VERTEX
  5
225
  8
0
 62
     9
 10
0.0
 20
0.0
 30
0.0
 70
   128
 71
   167
 72
   168
 73
   136
  0
VERTEX
  5
226
  8
0
 62
     9
 10
0.0
 20
0.0
 30
0.0
 70
   128
 71
   169
 72
   138
 73
   137
  0
VERTEX
  5
227
  8
0
 62
     9
 10
0.0
 20
0.0
 30
0.0
 70
   128
 71
   168
 72
   169
 73
   137
  0
VERTEX
  5
228
  8
0
 62
     9
 10
0.0
 20
0.0
 30
0.0
 70
   128
 71
   170
 72
   139
 73
   138
  0
VERTEX
  5
229
  8
0
 62
     9
 10
0.0
 20
0.0
 30
0.0
 70
   128
 71
   169
 72
   170
 73
   138
  0
VERTEX
  5
22A
  8
0
 62
     9
 10
0.0
 20
0.0
 30
0.0
 70
   128
 71
   171
 72
   140
 73
   139
  0
VERTEX
  5
22B
  8
0
 62
     9
 10
0.0
 20
0.0
 30
0.0
 70
   128
 71
   170
 72
   171
 73
   139
  0
VERTEX
  5
22C
  8
0
 62
     9
 10
0.0
 20
0.0
 30
0.0
 70
   128
 71
   172
 72
   141
 73
   140
  0
VERTEX
  5
22D
  8
0
 62
     9
 10
0.0
 20
0.0
 30
0.0
 70
   128
 71
   171
 72
   172
 73
   140
  0
VERTEX
  5
22E
  8
0
 62
     9
 10
0.0
 20
0.0
 30
0.0
 70
   128
 71
   173
 72
   142
 73
   141
  0
VERTEX
  5
22F
  8
0
 62
     9
 10
0.0
 20
0.0
 30
0.0
 70
   128
 71
   172
 72
   173
 73
   141
  0
VERTEX
  5
230
  8
0
 62
     9
 10
0.0
 20
0.0
 30
0.0
 70
   128
 71
   174
 72
   143
 73
   142
  0
VERTEX
  5
231
  8
0
 62
     9
 10
0.0
 20
0.0
 30
0.0
 70
   128
 71
   173
 72
   174
 73
   142
  0
VERTEX
  5
232
  8
0
 62
     9
 10
0.0
 20
0.0
 30
0.0
 70
   128
 71
   175
 72
   144
 73
   143
  0
VERTEX
  5
233
  8
0
 62
     9
 10
0.0
 20
0.0
 30
0.0
 70
   128
 71
   174
 72
   175
 73
   143
  0
VERTEX
  5
234
  8
0
 62
     9
 10
0.0
 20
0.0
 30
0.0
 70
   128
 71
   176
 72
   145
 73
   144
  0
VERTEX
  5
235
  8
0
 62
     9
 10
0.0
 20
0.0
 30
0.0
 70
   128
 71
   175
 72
   176
 73
   144
  0
VERTEX
  5
236
  8
0
 62
     9
 10
0.0
 20
0.0
 30
0.0
 70
   128
 71
   177
 72
   146
 73
   145
  0
VERTEX
  5
237
  8
0
 62
     9
 10
0.0
 20
0.0
 30
0.0
 70
   128
 71
   176
 72
   177
 73
   145
  0
VERTEX
  5
238
  8
0
 62
     9
 10
0.0
 20
0.0
 30
0.0
 70
   128
 71
   178
 72
   147
 73
   146
  0
VERTEX
  5
239
  8
0
 62
     9
 10
0.0
 20
0.0
 30
0.0
 70
   128
 71
   177
 72
   178
 73
   146
  0
VERTEX
  5
23A
  8
0
 62
     9
 10
0.0
 20
0.0
 30
0.0
 70
   128
 71
   179
 72
   148
 73
   147
  0
VERTEX
  5
23B
  8
0
 62
     9
 10
0.0
 20
0.0
 30
0.0
 70
   128
 71
   178
 72
   179
 73
   147
  0
VERTEX
  5
23C
  8
0
 62
     9
 10
0.0
 20
0.0
 30
0.0
 70
   128
 71
   180
 72
   149
 73
   148
  0
VERTEX
  5
23D
  8
0
 62
     9
 10
0.0
 20
0.0
 30
0.0
 70
   128
 71
   179
 72
   180
 73
   148
  0
VERTEX
  5
23E
  8
0
 62
     9
 10
0.0
 20
0.0
 30
0.0
 70
   128
 71
   181
 72
   150
 73
   149
  0
VERTEX
  5
23F
  8
0
 62
     9
 10
0.0
 20
0.0
 30
0.0
 70
   128
 71
   180
 72
   181
 73
   149
  0
VERTEX
  5
240
  8
0
 62
     9
 10
0.0
 20
0.0
 30
0.0
 70
   128
 71
   182
 72
   151
 73
   150
  0
VERTEX
  5
241
  8
0
 62
     9
 10
0.0
 20
0.0
 30
0.0
 70
   128
 71
   181
 72
   182
 73
   150
  0
VERTEX
  5
242
  8
0
 62
     9
 10
0.0
 20
0.0
 30
0.0
 70
   128
 71
   183
 72
   152
 73
   151
  0
VERTEX
  5
243
  8
0
 62
     9
 10
0.0
 20
0.0
 30
0.0
 70
   128
 71
   182
 72
   183
 73
   151
  0
VERTEX
  5
244
  8
0
 62
     9
 10
0.0
 20
0.0
 30
0.0
 70
   128
 71
   184
 72
   153
 73
   152
  0
VERTEX
  5
245
  8
0
 62
     9
 10
0.0
 20
0.0
 30
0.0
 70
   128
 71
   183
 72
   184
 73
   152
  0
VERTEX
  5
246
  8
0
 62
     9
 10
0.0
 20
0.0
 30
0.0
 70
   128
 71
   185
 72
   154
 73
   153
  0
VERTEX
  5
247
  8
0
 62
     9
 10
0.0
 20
0.0
 30
0.0
 70
   128
 71
   184
 72
   185
 73
   153
  0
VERTEX
  5
248
  8
0
 62
     9
 10
0.0
 20
0.0
 30
0.0
 70
   128
 71
   186
 72
   155
 73
   154
  0
VERTEX
  5
249
  8
0
 62
     9
 10
0.0
 20
0.0
 30
0.0
 70
   128
 71
   185
 72
   186
 73
   154
  0
VERTEX
  5
24A
  8
0
 62
     9
 10
0.0
 20
0.0
 30
0.0
 70
   128
 71
   157
 72
   126
 73
   155
  0
VERTEX
  5
24B
  8
0
 62
     9
 10
0.0
 20
0.0
 30
0.0
 70
   128
 71
   186
 72
   157
 73
   155
  0
VERTEX
  5
24C
  8
0
 62
     9
 10
0.0
 20
0.0
 30
0.0
 70
   128
 71
   187
 72
   156
 73
   157
  0
VERTEX
  5
24D
  8
0
 62
     9
 10
0.0
 20
0.0
 30
0.0
 70
   128
 71
   188
 72
   187
 73
   157
  0
VERTEX
  5
24E
  8
0
 62
     9
 10
0.0
 20
0.0
 30
0.0
 70
   128
 71
   189
 72
   158
 73
   156
  0
VERTEX
  5
24F
  8
0
 62
     9
 10
0.0
 20
0.0
 30
0.0
 70
   128
 71
   187
 72
   189
 73
   156
  0
VERTEX
  5
250
  8
0
 62
     9
 10
0.0
 20
0.0
 30
0.0
 70
   128
 71
   190
 72
   159
 73
   158
  0
VERTEX
  5
251
  8
0
 62
     9
 10
0.0
 20
0.0
 30
0.0
 70
   128
 71
   189
 72
   190
 73
   158
  0
VERTEX
  5
252
  8
0
 62
     9
 10
0.0
 20
0.0
 30
0.0
 70
   128
 71
   191
 72
   160
 73
   159
  0
VERTEX
  5
253
  8
0
 62
     9
 10
0.0
 20
0.0
 30
0.0
 70
   128
 71
   190
 72
   191
 73
   159
  0
VERTEX
  5
254
  8
0
 62
     9
 10
0.0
 20
0.0
 30
0.0
 70
   128
 71
   192
 72
   161
 73
   160
  0
VERTEX
  5
255
  8
0
 62
     9
 10
0.0
 20
0.0
 30
0.0
 70
   128
 71
   191
 72
   192
 73
   160
  0
VERTEX
  5
256
  8
0
 62
     9
 10
0.0
 20
0.0
 30
0.0
 70
   128
 71
   193
 72
   162
 73
   161
  0
VERTEX
  5
257
  8
0
 62
     9
 10
0.0
 20
0.0
 30
0.0
 70
   128
 71
   192
 72
   193
 73
   161
  0
VERTEX
  5
258
  8
0
 62
     9
 10
0.0
 20
0.0
 30
0.0
 70
   128
 71
   194
 72
   163
 73
   162
  0
VERTEX
  5
259
  8
0
 62
     9
 10
0.0
 20
0.0
 30
0.0
 70
   128
 71
   193
 72
   194
 73
   162
  0
VERTEX
  5
25A
  8
0
 62
     9
 10
0.0
 20
0.0
 30
0.0
 70
   128
 71
   195
 72
   164
 73
   163
  0
VERTEX
  5
25B
  8
0
 62
     9
 10
0.0
 20
0.0
 30
0.0
 70
   128
 71
   194
 72
   195
 73
   163
  0
VERTEX
  5
25C
  8
0
 62
     9
 10
0.0
 20
0.0
 30
0.0
 70
   128
 71
   196
 72
   165
 73
   164
  0
VERTEX
  5
25D
  8
0
 62
     9
 10
0.0
 20
0.0
 30
0.0
 70
   128
 71
   195
 72
   196
 73
   164
  0
VERTEX
  5
25E
  8
0
 62
     9
 10
0.0
 20
0.0
 30
0.0
 70
   128
 71
   197
 72
   166
 73
   165
  0
VERTEX
  5
25F
  8
0
 62
     9
 10
0.0
 20
0.0
 30
0.0
 70
   128
 71
   196
 72
   197
 73
   165
  0
VERTEX
  5
260
  8
0
 62
     9
 10
0.0
 20
0.0
 30
0.0
 70
   128
 71
   198
 72
   167
 73
   166
  0
VERTEX
  5
261
  8
0
 62
     9
 10
0.0
 20
0.0
 30
0.0
 70
   128
 71
   197
 72
   198
 73
   166
  0
VERTEX
  5
262
  8
0
 62
     9
 10
0.0
 20
0.0
 30
0.0
 70
   128
 71
   199
 72
   168
 73
   167
  0
VERTEX
  5
263
  8
0
 62
     9
 10
0.0
 20
0.0
 30
0.0
 70
   128
 71
   198
 72
   199
 73
   167
  0
VERTEX
  5
264
  8
0
 62
     9
 10
0.0
 20
0.0
 30
0.0
 70
   128
 71
   200
 72
   169
 73
   168
  0
VERTEX
  5
265
  8
0
 62
     9
 10
0.0
 20
0.0
 30
0.0
 70
   128
 71
   199
 72
   200
 73
   168
  0
VERTEX
  5
266
  8
0
 62
     9
 10
0.0
 20
0.0
 30
0.0
 70
   128
 71
   201
 72
   170
 73
   169
  0
VERTEX
  5
267
  8
0
 62
     9
 10
0.0
 20
0.0
 30
0.0
 70
   128
 71
   200
 72
   201
 73
   169
  0
VERTEX
  5
268
  8
0
 62
     9
 10
0.0
 20
0.0
 30
0.0
 70
   128
 71
   202
 72
   171
 73
   170
  0
VERTEX
  5
269
  8
0
 62
     9
 10
0.0
 20
0.0
 30
0.0
 70
   128
 71
   201
 72
   202
 73
   170
  0
VERTEX
  5
26A
  8
0
 62
     9
 10
0.0
 20
0.0
 30
0.0
 70
   128
 71
   203
 72
   172
 73
   171
  0
VERTEX
  5
26B
  8
0
 62
     9
 10
0.0
 20
0.0
 30
0.0
 70
   128
 71
   202
 72
   203
 73
   171
  0
VERTEX
  5
26C
  8
0
 62
     9
 10
0.0
 20
0.0
 30
0.0
 70
   128
 71
   204
 72
   173
 73
   172
  0
VERTEX
  5
26D
  8
0
 62
     9
 10
0.0
 20
0.0
 30
0.0
 70
   128
 71
   203
 72
   204
 73
   172
  0
VERTEX
  5
26E
  8
0
 62
     9
 10
0.0
 20
0.0
 30
0.0
 70
   128
 71
   205
 72
   174
 73
   173
  0
VERTEX
  5
26F
  8
0
 62
     9
 10
0.0
 20
0.0
 30
0.0
 70
   128
 71
   204
 72
   205
 73
   173
  0
VERTEX
  5
270
  8
0
 62
     9
 10
0.0
 20
0.0
 30
0.0
 70
   128
 71
   206
 72
   175
 73
   174
  0
VERTEX
  5
271
  8
0
 62
     9
 10
0.0
 20
0.0
 30
0.0
 70
   128
 71
   205
 72
   206
 73
   174
  0
VERTEX
  5
272
  8
0
 62
     9
 10
0.0
 20
0.0
 30
0.0
 70
   128
 71
   207
 72
   176
 73
   175
  0
VERTEX
  5
273
  8
0
 62
     9
 10
0.0
 20
0.0
 30
0.0
 70
   128
 71
   206
 72
   207
 73
   175
  0
VERTEX
  5
274
  8
0
 62
     9
 10
0.0
 20
0.0
 30
0.0
 70
   128
 71
   208
 72
   177
 73
   176
  0
VERTEX
  5
275
  8
0
 62
     9
 10
0.0
 20
0.0
 30
0.0
 70
   128
 71
   207
 72
   208
 73
   176
  0
VERTEX
  5
276
  8
0
 62
     9
 10
0.0
 20
0.0
 30
0.0
 70
   128
 71
   209
 72
   178
 73
   177
  0
VERTEX
  5
277
  8
0
 62
     9
 10
0.0
 20
0.0
 30
0.0
 70
   128
 71
   208
 72
   209
 73
   177
  0
VERTEX
  5
278
  8
0
 62
     9
 10
0.0
 20
0.0
 30
0.0
 70
   128
 71
   210
 72
   179
 73
   178
  0
VERTEX
  5
279
  8
0
 62
     9
 10
0.0
 20
0.0
 30
0.0
 70
   128
 71
   209
 72
   210
 73
   178
  0
VERTEX
  5
27A
  8
0
 62
     9
 10
0.0
 20
0.0
 30
0.0
 70
   128
 71
   211
 72
   180
 73
   179
  0
VERTEX
  5
27B
  8
0
 62
     9
 10
0.0
 20
0.0
 30
0.0
 70
   128
 71
   210
 72
   211
 73
   179
  0
VERTEX
  5
27C
  8
0
 62
     9
 10
0.0
 20
0.0
 30
0.0
 70
   128
 71
   212
 72
   181
 73
   180
  0
VERTEX
  5
27D
  8
0
 62
     9
 10
0.0
 20
0.0
 30
0.0
 70
   128
 71
   211
 72
   212
 73
   180
  0
VERTEX
  5
27E
  8
0
 62
     9
 10
0.0
 20
0.0
 30
0.0
 70
   128
 71
   213
 72
   182
 73
   181
  0
VERTEX
  5
27F
  8
0
 62
     9
 10
0.0
 20
0.0
 30
0.0
 70
   128
 71
   212
 72
   213
 73
   181
  0
VERTEX
  5
280
  8
0
 62
     9
 10
0.0
 20
0.0
 30
0.0
 70
   128
 71
   214
 72
   183
 73
   182
  0
VERTEX
  5
281
  8
0
 62
     9
 10
0.0
 20
0.0
 30
0.0
 70
   128
 71
   213
 72
   214
 73
   182
  0
VERTEX
  5
282
  8
0
 62
     9
 10
0.0
 20
0.0
 30
0.0
 70
   128
 71
   215
 72
   184
 73
   183
  0
VERTEX
  5
283
  8
0
 62
     9
 10
0.0
 20
0.0
 30
0.0
 70
   128
 71
   214
 72
   215
 73
   183
  0
VERTEX
  5
284
  8
0
 62
     9
 10
0.0
 20
0.0
 30
0.0
 70
   128
 71
   216
 72
   185
 73
   184
  0
VERTEX
  5
285
  8
0
 62
     9
 10
0.0
 20
0.0
 30
0.0
 70
   128
 71
   215
 72
   216
 73
   184
  0
VERTEX
  5
286
  8
0
 62
     9
 10
0.0
 20
0.0
 30
0.0
 70
   128
 71
   217
 72
   186
 73
   185
  0
VERTEX
  5
287
  8
0
 62
     9
 10
0.0
 20
0.0
 30
0.0
 70
   128
 71
   216
 72
   217
 73
   185
  0
VERTEX
  5
288
  8
0
 62
     9
 10
0.0
 20
0.0
 30
0.0
 70
   128
 71
   188
 72
   157
 73
   186
  0
VERTEX
  5
289
  8
0
 62
     9
 10
0.0
 20
0.0
 30
0.0
 70
   128
 71
   217
 72
   188
 73
   186
  0
VERTEX
  5
28A
  8
0
 62
     9
 10
0.0
 20
0.0
 30
0.0
 70
   128
 71
     2
 72
   187
 73
   188
  0
VERTEX
  5
28B
  8
0
 62
     9
 10
0.0
 20
0.0
 30
0.0
 70
   128
 71
     1
 72
     2
 73
   188
  0
VERTEX
  5
28C
  8
0
 62
     9
 10
0.0
 20
0.0
 30
0.0
 70
   128
 71
     5
 72
   189
 73
   187
  0
VERTEX
  5
28D
  8
0
 62
     9
 10
0.0
 20
0.0
 30
0.0
 70
   128
 71
     2
 72
     5
 73
   187
  0
VERTEX
  5
28E
  8
0
 62
     9
 10
0.0
 20
0.0
 30
0.0
 70
   128
 71
     7
 72
   190
 73
   189
  0
VERTEX
  5
28F
  8
0
 62
     9
 10
0.0
 20
0.0
 30
0.0
 70
   128
 71
     5
 72
     7
 73
   189
  0
VERTEX
  5
290
  8
0
 62
     9
 10
0.0
 20
0.0
 30
0.0
 70
   128
 71
     9
 72
   191
 73
   190
  0
VERTEX
  5
291
  8
0
 62
     9
 10
0.0
 20
0.0
 30
0.0
 70
   128
 71
     7
 72
     9
 73
   190
  0
VERTEX
  5
292
  8
0
 62
     9
 10
0.0
 20
0.0
 30
0.0
 70
   128
 71
    11
 72
   192
 73
   191
  0
VERTEX
  5
293
  8
0
 62
     9
 10
0.0
 20
0.0
 30
0.0
 70
   128
 71
     9
 72
    11
 73
   191
  0
VERTEX
  5
294
  8
0
 62
     9
 10
0.0
 20
0.0
 30
0.0
 70
   128
 71
    13
 72
   193
 73
   192
  0
VERTEX
  5
295
  8
0
 62
     9
 10
0.0
 20
0.0
 30
0.0
 70
   128
 71
    11
 72
    13
 73
   192
  0
VERTEX
  5
296
  8
0
 62
     9
 10
0.0
 20
0.0
 30
0.0
 70
   128
 71
    15
 72
   194
 73
   193
  0
VERTEX
  5
297
  8
0
 62
     9
 10
0.0
 20
0.0
 30
0.0
 70
   128
 71
    13
 72
    15
 73
   193
  0
VERTEX
  5
298
  8
0
 62
     9
 10
0.0
 20
0.0
 30
0.0
 70
   128
 71
    17
 72
   195
 73
   194
  0
VERTEX
  5
299
  8
0
 62
     9
 10
0.0
 20
0.0
 30
0.0
 70
   128
 71
    15
 72
    17
 73
   194
  0
VERTEX
  5
29A
  8
0
 62
     9
 10
0.0
 20
0.0
 30
0.0
 70
   128
 71
    19
 72
   196
 73
   195
  0
VERTEX
  5
29B
  8
0
 62
     9
 10
0.0
 20
0.0
 30
0.0
 70
   128
 71
    17
 72
    19
 73
   195
  0
VERTEX
  5
29C
  8
0
 62
     9
 10
0.0
 20
0.0
 30
0.0
 70
   128
 71
    21
 72
   197
 73
   196
  0
VERTEX
  5
29D
  8
0
 62
     9
 10
0.0
 20
0.0
 30
0.0
 70
   128
 71
    19
 72
    21
 73
   196
  0
VERTEX
  5
29E
  8
0
 62
     9
 10
0.0
 20
0.0
 30
0.0
 70
   128
 71
    23
 72
   198
 73
   197
  0
VERTEX
  5
29F
  8
0
 62
     9
 10
0.0
 20
0.0
 30
0.0
 70
   128
 71
    21
 72
    23
 73
   197
  0
VERTEX
  5
2A0
  8
0
 62
     9
 10
0.0
 20
0.0
 30
0.0
 70
   128
 71
    25
 72
   199
 73
   198
  0
VERTEX
  5
2A1
  8
0
 62
     9
 10
0.0
 20
0.0
 30
0.0
 70
   128
 71
    23
 72
    25
 73
   198
  0
VERTEX
  5
2A2
  8
0
 62
     9
 10
0.0
 20
0.0
 30
0.0
 70
   128
 71
    27
 72
   200
 73
   199
  0
VERTEX
  5
2A3
  8
0
 62
     9
 10
0.0
 20
0.0
 30
0.0
 70
   128
 71
    25
 72
    27
 73
   199
  0
VERTEX
  5
2A4
  8
0
 62
     9
 10
0.0
 20
0.0
 30
0.0
 70
   128
 71
    29
 72
   201
 73
   200
  0
VERTEX
  5
2A5
  8
0
 62
     9
 10
0.0
 20
0.0
 30
0.0
 70
   128
 71
    27
 72
    29
 73
   200
  0
VERTEX
  5
2A6
  8
0
 62
     9
 10
0.0
 20
0.0
 30
0.0
 70
   128
 71
    31
 72
   202
 73
   201
  0
VERTEX
  5
2A7
  8
0
 62
     9
 10
0.0
 20
0.0
 30
0.0
 70
   128
 71
    29
 72
    31
 73
   201
  0
VERTEX
  5
2A8
  8
0
 62
     9
 10
0.0
 20
0.0
 30
0.0
 70
   128
 71
    33
 72
   203
 73
   202
  0
VERTEX
  5
2A9
  8
0
 62
     9
 10
0.0
 20
0.0
 30
0.0
 70
   128
 71
    31
 72
    33
 73
   202
  0
VERTEX
  5
2AA
  8
0
 62
     9
 10
0.0
 20
0.0
 30
0.0
 70
   128
 71
    35
 72
   204
 73
   203
  0
VERTEX
  5
2AB
  8
0
 62
     9
 10
0.0
 20
0.0
 30
0.0
 70
   128
 71
    33
 72
    35
 73
   203
  0
VERTEX
  5
2AC
  8
0
 62
     9
 10
0.0
 20
0.0
 30
0.0
 70
   128
 71
    37
 72
   205
 73
   204
  0
VERTEX
  5
2AD
  8
0
 62
     9
 10
0.0
 20
0.0
 30
0.0
 70
   128
 71
    35
 72
    37
 73
   204
  0
VERTEX
  5
2AE
  8
0
 62
     9
 10
0.0
 20
0.0
 30
0.0
 70
   128
 71
    39
 72
   206
 73
   205
  0
VERTEX
  5
2AF
  8
0
 62
     9
 10
0.0
 20
0.0
 30
0.0
 70
   128
 71
    37
 72
    39
 73
   205
  0
VERTEX
  5
2B0
  8
0
 62
     9
 10
0.0
 20
0.0
 30
0.0
 70
   128
 71
    41
 72
   207
 73
   206
  0
VERTEX
  5
2B1
  8
0
 62
     9
 10
0.0
 20
0.0
 30
0.0
 70
   128
 71
    39
 72
    41
 73
   206
  0
VERTEX
  5
2B2
  8
0
 62
     9
 10
0.0
 20
0.0
 30
0.0
 70
   128
 71
    43
 72
   208
 73
   207
  0
VERTEX
  5
2B3
  8
0
 62
     9
 10
0.0
 20
0.0
 30
0.0
 70
   128
 71
    41
 72
    43
 73
   207
  0
VERTEX
  5
2B4
  8
0
 62
     9
 10
0.0
 20
0.0
 30
0.0
 70
   128
 71
    45
 72
   209
 73
   208
  0
VERTEX
  5
2B5
  8
0
 62
     9
 10
0.0
 20
0.0
 30
0.0
 70
   128
 71
    43
 72
    45
 73
   208
  0
VERTEX
  5
2B6
  8
0
 62
     9
 10
0.0
 20
0.0
 30
0.0
 70
   128
 71
    47
 72
   210
 73
   209
  0
VERTEX
  5
2B7
  8
0
 62
     9
 10
0.0
 20
0.0
 30
0.0
 70
   128
 71
    45
 72
    47
 73
   209
  0
VERTEX
  5
2B8
  8
0
 62
     9
 10
0.0
 20
0.0
 30
0.0
 70
   128
 71
    49
 72
   211
 73
   210
  0
VERTEX
  5
2B9
  8
0
 62
     9
 10
0.0
 20
0.0
 30
0.0
 70
   128
 71
    47
 72
    49
 73
   210
  0
VERTEX
  5
2BA
  8
0
 62
     9
 10
0.0
 20
0.0
 30
0.0
 70
   128
 71
    51
 72
   212
 73
   211
  0
VERTEX
  5
2BB
  8
0
 62
     9
 10
0.0
 20
0.0
 30
0.0
 70
   128
 71
    49
 72
    51
 73
   211
  0
VERTEX
  5
2BC
  8
0
 62
     9
 10
0.0
 20
0.0
 30
0.0
 70
   128
 71
    53
 72
   213
 73
   212
  0
VERTEX
  5
2BD
  8
0
 62
     9
 10
0.0
 20
0.0
 30
0.0
 70
   128
 71
    51
 72
    53
 73
   212
  0
VERTEX
  5
2BE
  8
0
 62
     9
 10
0.0
 20
0.0
 30
0.0
 70
   128
 71
    55
 72
   214
 73
   213
  0
VERTEX
  5
2BF
  8
0
 62
     9
 10
0.0
 20
0.0
 30
0.0
 70
   128
 71
    53
 72
    55
 73
   213
  0
VERTEX
  5
2C0
  8
0
 62
     9
 10
0.0
 20
0.0
 30
0.0
 70
   128
 71
    57
 72
   215
 73
   214
  0
VERTEX
  5
2C1
  8
0
 62
     9
 10
0.0
 20
0.0
 30
0.0
 70
   128
 71
    55
 72
    57
 73
   214
  0
VERTEX
  5
2C2
  8
0
 62
     9
 10
0.0
 20
0.0
 30
0.0
 70
   128
 71
    59
 72
   216
 73
   215
  0
VERTEX
  5
2C3
  8
0
 62
     9
 10
0.0
 20
0.0
 30
0.0
 70
   128
 71
    57
 72
    59
 73
   215
  0
VERTEX
  5
2C4
  8
0
 62
     9
 10
0.0
 20
0.0
 30
0.0
 70
   128
 71
    61
 72
   217
 73
   216
  0
VERTEX
  5
2C5
  8
0
 62
     9
 10
0.0
 20
0.0
 30
0.0
 70
   128
 71
    59
 72
    61
 73
   216
  0
VERTEX
  5
2C6
  8
0
 62
     9
 10
0.0
 20
0.0
 30
0.0
 70
   128
 71
     1
 72
   188
 73
   217
  0
VERTEX
  5
2C7
  8
0
 62
     9
 10
0.0
 20
0.0
 30
0.0
 70
   128
 71
    61
 72
     1
 73
   217
  0
SEQEND
  5
2C8
  8
0
 62
     9
  0
ENDBLK
  5
2CC
  8
0
  0
BLOCK
  8
0
  2
E3_NODE_1_
 70
     0
 10
0.0
 20
0.0
 30
0.0
  3
E3_NODE_1_
  1

  0
POLYLINE
  5
2CE
  8
0
 62
     9
 66
     1
 10
0.0
 20
0.0
 30
0.0
 70
    64
 71
    14
 72
    12
  0
VERTEX
  5
2CF
  8
0
 10
-0.4000000059604645
 20
-21.17300033569336
 30
-10.19600009918213
 70
   192
  0
VERTEX
  5
2D0
  8
0
 10
-0.4000000059604645
 20
-23.5
 30
0.0
 70
   192
  0
VERTEX
  5
2D1
  8
0
 10
-0.4000000059604645
 20
-21.17300033569336
 30
10.19600009918213
 70
   192
  0
VERTEX
  5
2D2
  8
0
 10
-0.4000000059604645
 20
-14.65200042724609
 30
18.37299919128418
 70
   192
  0
VERTEX
  5
2D3
  8
0
 10
-0.4000000059604645
 20
-5.229000091552734
 30
-22.9109992980957
 70
   192
  0
VERTEX
  5
2D4
  8
0
 10
-0.4000000059604645
 20
-14.65200042724609
 30
-18.37299919128418
 70
   192
  0
VERTEX
  5
2D5
  8
0
 10
-0.4000000059604645
 20
14.65200042724609
 30
-18.37299919128418
 70
   192
  0
VERTEX
  5
2D6
  8
0
 10
-0.4000000059604645
 20
21.17300033569336
 30
10.19600009918213
 70
   192
  0
VERTEX
  5
2D7
  8
0
 10
-0.4000000059604645
 20
23.5
 30
0.0
 70
   192
  0
VERTEX
  5
2D8
  8
0
 10
-0.4000000059604645
 20
5.229000091552734
 30
22.9109992980957
 70
   192
  0
VERTEX
  5
2D9
  8
0
 10
-0.4000000059604645
 20
14.65200042724609
 30
18.37299919128418
 70
   192
  0
VERTEX
  5
2DA
  8
0
 10
-0.4000000059604645
 20
5.229000091552734
 30
-22.9109992980957
 70
   192
  0
VERTEX
  5
2DB
  8
0
 10
-0.4000000059604645
 20
-5.229000091552734
 30
22.9109992980957
 70
   192
  0
VERTEX
  5
2DC
  8
0
 10
-0.4000000059604645
 20
21.17300033569336
 30
-10.19600009918213
 70
   192
  0
VERTEX
  5
2DD
  8
0
 62
     9
 10
0.0
 20
0.0
 30
0.0
 70
   128
 71
     3
 72
     2
 73
     1
  0
VERTEX
  5
2DE
  8
0
 62
     9
 10
0.0
 20
0.0
 30
0.0
 70
   128
 71
     6
 72
     5
 73
     4
  0
VERTEX
  5
2DF
  8
0
 62
     9
 10
0.0
 20
0.0
 30
0.0
 70
   128
 71
     9
 72
     8
 73
     7
  0
VERTEX
  5
2E0
  8
0
 62
     9
 10
0.0
 20
0.0
 30
0.0
 70
   128
 71
    11
 72
    10
 73
     7
  0
VERTEX
  5
2E1
  8
0
 62
     9
 10
0.0
 20
0.0
 30
0.0
 70
   128
 71
     4
 72
     1
 73
     6
  0
VERTEX
  5
2E2
  8
0
 62
     9
 10
0.0
 20
0.0
 30
0.0
 70
   128
 71
    12
 72
     7
 73
     4
  0
VERTEX
  5
2E3
  8
0
 62
     9
 10
0.0
 20
0.0
 30
0.0
 70
   128
 71
     7
 72
     8
 73
    11
  0
VERTEX
  5
2E4
  8
0
 62
     9
 10
0.0
 20
0.0
 30
0.0
 70
   128
 71
    13
 72
     4
 73
     7
  0
VERTEX
  5
2E5
  8
0
 62
     9
 10
0.0
 20
0.0
 30
0.0
 70
   128
 71
     4
 72
     5
 73
    12
  0
VERTEX
  5
2E6
  8
0
 62
     9
 10
0.0
 20
0.0
 30
0.0
 70
   128
 71
     7
 72
    10
 73
    13
  0
VERTEX
  5
2E7
  8
0
 62
     9
 10
0.0
 20
0.0
 30
0.0
 70
   128
 71
     7
 72
    14
 73
     9
  0
VERTEX
  5
2E8
  8
0
 62
     9
 10
0.0
 20
0.0
 30
0.0
 70
   128
 71
     1
 72
     4
 73
     3
  0
SEQEND
  5
2E9
  8
0
 62
     9
  0
ENDBLK
  5
2EC
  8
0
  0
BLOCK
  8
0
  2
E3_NODE_2_
 70
     0
 10
0.0
 20
0.0
 30
0.0
  3
E3_NODE_2_
  1

  0
POLYLINE
  5
2EE
  8
0
 62
     9
 66
     1
 10
0.0
 20
0.0
 30
0.0
 70
    64
 71
    42
 72
    56
  0
VERTEX
  5
2EF
  8
0
 10
1.026999950408936
 20
23.89599990844727
 30
0.0
 70
   192
  0
VERTEX
  5
2F0
  8
0
 10
-0.4000000059604645
 20
23.5
 30
0.0
 70
   192
  0
VERTEX
  5
2F1
  8
0
 10
-0.4000000059604645
 20
21.17300033569336
 30
10.19600009918213
 70
   192
  0
VERTEX
  5
2F2
  8
0
 10
1.026999950408936
 20
21.52899932861328
 30
10.36800003051758
 70
   192
  0
VERTEX
  5
2F3
  8
0
 10
-0.4000000059604645
 20
14.65200042724609
 30
18.37299919128418
 70
   192
  0
VERTEX
  5
2F4
  8
0
 10
1.026999950408936
 20
14.89900016784668
 30
18.6830005645752
 70
   192
  0
VERTEX
  5
2F5
  8
0
 10
-0.4000000059604645
 20
5.229000091552734
 30
22.9109992980957
 70
   192
  0
VERTEX
  5
2F6
  8
0
 10
1.026999950408936
 20
5.316999912261963
 30
23.29700088500977
 70
   192
  0
VERTEX
  5
2F7
  8
0
 10
-0.4000000059604645
 20
-5.229000091552734
 30
22.9109992980957
 70
   192
  0
VERTEX
  5
2F8
  8
0
 10
1.026999950408936
 20
-14.89900016784668
 30
18.6830005645752
 70
   192
  0
VERTEX
  5
2F9
  8
0
 10
1.026999950408936
 20
-5.316999912261963
 30
23.29700088500977
 70
   192
  0
VERTEX
  5
2FA
  8
0
 10
1.026999950408936
 20
-21.52899932861328
 30
10.36800003051758
 70
   192
  0
VERTEX
  5
2FB
  8
0
 10
-0.4000000059604645
 20
-14.65200042724609
 30
18.37299919128418
 70
   192
  0
VERTEX
  5
2FC
  8
0
 10
-0.4000000059604645
 20
-21.17300033569336
 30
10.19600009918213
 70
   192
  0
VERTEX
  5
2FD
  8
0
 10
-0.4000000059604645
 20
-23.5
 30
0.0
 70
   192
  0
VERTEX
  5
2FE
  8
0
 10
1.026999950408936
 20
-21.52899932861328
 30
-10.36800003051758
 70
   192
  0
VERTEX
  5
2FF
  8
0
 10
1.026999950408936
 20
-23.89599990844727
 30
0.0
 70
   192
  0
VERTEX
  5
300
  8
0
 10
-0.4000000059604645
 20
-21.17300033569336
 30
-10.19600009918213
 70
   192
  0
VERTEX
  5
301
  8
0
 10
-0.4000000059604645
 20
-14.65200042724609
 30
-18.37299919128418
 70
   192
  0
VERTEX
  5
302
  8
0
 10
1.026999950408936
 20
-14.89900016784668
 30
-18.6830005645752
 70
   192
  0
VERTEX
  5
303
  8
0
 10
-0.4000000059604645
 20
-5.229000091552734
 30
-22.9109992980957
 70
   192
  0
VERTEX
  5
304
  8
0
 10
1.026999950408936
 20
5.316999912261963
 30
-23.29700088500977
 70
   192
  0
VERTEX
  5
305
  8
0
 10
1.026999950408936
 20
-5.316999912261963
 30
-23.29700088500977
 70
   192
  0
VERTEX
  5
306
  8
0
 10
1.026999950408936
 20
14.89900016784668
 30
-18.6830005645752
 70
   192
  0
VERTEX
  5
307
  8
0
 10
-0.4000000059604645
 20
5.229000091552734
 30
-22.9109992980957
 70
   192
  0
VERTEX
  5
308
  8
0
 10
-0.4000000059604645
 20
14.65200042724609
 30
-18.37299919128418
 70
   192
  0
VERTEX
  5
309
  8
0
 10
-0.4000000059604645
 20
21.17300033569336
 30
-10.19600009918213
 70
   192
  0
VERTEX
  5
30A
  8
0
 10
1.026999950408936
 20
21.52899932861328
 30
-10.36800003051758
 70
   192
  0
VERTEX
  5
30B
  8
0
 10
2.194999933242798
 20
20.70800018310547
 30
9.972999572753906
 70
   192
  0
VERTEX
  5
30C
  8
0
 10
2.194999933242798
 20
22.98399925231934
 30
0.0
 70
   192
  0
VERTEX
  5
30D
  8
0
 10
2.194999933242798
 20
14.32999992370605
 30
17.96999931335449
 70
   192
  0
VERTEX
  5
30E
  8
0
 10
2.194999933242798
 20
5.113999843597412
 30
22.40800094604492
 70
   192
  0
VERTEX
  5
30F
  8
0
 10
2.194999933242798
 20
-5.113999843597412
 30
22.40800094604492
 70
   192
  0
VERTEX
  5
310
  8
0
 10
2.194999933242798
 20
-14.32999992370605
 30
17.96999931335449
 70
   192
  0
VERTEX
  5
311
  8
0
 10
2.194999933242798
 20
-20.70800018310547
 30
9.972999572753906
 70
   192
  0
VERTEX
  5
312
  8
0
 10
2.194999933242798
 20
-22.98399925231934
 30
0.0
 70
   192
  0
VERTEX
  5
313
  8
0
 10
2.194999933242798
 20
-20.70800018310547
 30
-9.972999572753906
 70
   192
  0
VERTEX
  5
314
  8
0
 10
2.194999933242798
 20
-14.32999992370605
 30
-17.96999931335449
 70
   192
  0
VERTEX
  5
315
  8
0
 10
2.194999933242798
 20
-5.113999843597412
 30
-22.40800094604492
 70
   192
  0
VERTEX
  5
316
  8
0
 10
2.194999933242798
 20
5.113999843597412
 30
-22.40800094604492
 70
   192
  0
VERTEX
  5
317
  8
0
 10
2.194999933242798
 20
14.32999992370605
 30
-17.96999931335449
 70
   192
  0
VERTEX
  5
318
  8
0
 10
2.194999933242798
 20
20.70800018310547
 30
-9.972999572753906
 70
   192
  0
VERTEX
  5
319
  8
0
 62
     9
 10
0.0
 20
0.0
 30
0.0
 70
   128
 71
     3
 72
     2
 73
     1
  0
VERTEX
  5
31A
  8
0
 62
     9
 10
0.0
 20
0.0
 30
0.0
 70
   128
 71
     5
 72
     3
 73
     4
  0
VERTEX
  5
31B
  8
0
 62
     9
 10
0.0
 20
0.0
 30
0.0
 70
   128
 71
     7
 72
     5
 73
     6
  0
VERTEX
  5
31C
  8
0
 62
     9
 10
0.0
 20
0.0
 30
0.0
 70
   128
 71
     9
 72
     7
 73
     8
  0
VERTEX
  5
31D
  8
0
 62
     9
 10
0.0
 20
0.0
 30
0.0
 70
   128
 71
     9
 72
    11
 73
    10
  0
VERTEX
  5
31E
  8
0
 62
     9
 10
0.0
 20
0.0
 30
0.0
 70
   128
 71
    13
 72
    10
 73
    12
  0
VERTEX
  5
31F
  8
0
 62
     9
 10
0.0
 20
0.0
 30
0.0
 70
   128
 71
    15
 72
    14
 73
    12
  0
VERTEX
  5
320
  8
0
 62
     9
 10
0.0
 20
0.0
 30
0.0
 70
   128
 71
    15
 72
    17
 73
    16
  0
VERTEX
  5
321
  8
0
 62
     9
 10
0.0
 20
0.0
 30
0.0
 70
   128
 71
    19
 72
    18
 73
    16
  0
VERTEX
  5
322
  8
0
 62
     9
 10
0.0
 20
0.0
 30
0.0
 70
   128
 71
    21
 72
    19
 73
    20
  0
VERTEX
  5
323
  8
0
 62
     9
 10
0.0
 20
0.0
 30
0.0
 70
   128
 71
    21
 72
    23
 73
    22
  0
VERTEX
  5
324
  8
0
 62
     9
 10
0.0
 20
0.0
 30
0.0
 70
   128
 71
    25
 72
    22
 73
    24
  0
VERTEX
  5
325
  8
0
 62
     9
 10
0.0
 20
0.0
 30
0.0
 70
   128
 71
    27
 72
    26
 73
    24
  0
VERTEX
  5
326
  8
0
 62
     9
 10
0.0
 20
0.0
 30
0.0
 70
   128
 71
     2
 72
    27
 73
    28
  0
VERTEX
  5
327
  8
0
 62
     9
 10
0.0
 20
0.0
 30
0.0
 70
   128
 71
    30
 72
    29
 73
     4
  0
VERTEX
  5
328
  8
0
 62
     9
 10
0.0
 20
0.0
 30
0.0
 70
   128
 71
    29
 72
    31
 73
     6
  0
VERTEX
  5
329
  8
0
 62
     9
 10
0.0
 20
0.0
 30
0.0
 70
   128
 71
    32
 72
     8
 73
     6
  0
VERTEX
  5
32A
  8
0
 62
     9
 10
0.0
 20
0.0
 30
0.0
 70
   128
 71
    33
 72
    11
 73
     8
  0
VERTEX
  5
32B
  8
0
 62
     9
 10
0.0
 20
0.0
 30
0.0
 70
   128
 71
    33
 72
    34
 73
    10
  0
VERTEX
  5
32C
  8
0
 62
     9
 10
0.0
 20
0.0
 30
0.0
 70
   128
 71
    34
 72
    35
 73
    12
  0
VERTEX
  5
32D
  8
0
 62
     9
 10
0.0
 20
0.0
 30
0.0
 70
   128
 71
    36
 72
    17
 73
    12
  0
VERTEX
  5
32E
  8
0
 62
     9
 10
0.0
 20
0.0
 30
0.0
 70
   128
 71
    36
 72
    37
 73
    16
  0
VERTEX
  5
32F
  8
0
 62
     9
 10
0.0
 20
0.0
 30
0.0
 70
   128
 71
    38
 72
    20
 73
    16
  0
VERTEX
  5
330
  8
0
 62
     9
 10
0.0
 20
0.0
 30
0.0
 70
   128
 71
    39
 72
    23
 73
    20
  0
VERTEX
  5
331
  8
0
 62
     9
 10
0.0
 20
0.0
 30
0.0
 70
   128
 71
    39
 72
    40
 73
    22
  0
VERTEX
  5
332
  8
0
 62
     9
 10
0.0
 20
0.0
 30
0.0
 70
   128
 71
    40
 72
    41
 73
    24
  0
VERTEX
  5
333
  8
0
 62
     9
 10
0.0
 20
0.0
 30
0.0
 70
   128
 71
    41
 72
    42
 73
    28
  0
VERTEX
  5
334
  8
0
 62
     9
 10
0.0
 20
0.0
 30
0.0
 70
   128
 71
    42
 72
    30
 73
     1
  0
VERTEX
  5
335
  8
0
 62
     9
 10
0.0
 20
0.0
 30
0.0
 70
   128
 71
     1
 72
    28
 73
    42
  0
VERTEX
  5
336
  8
0
 62
     9
 10
0.0
 20
0.0
 30
0.0
 70
   128
 71
    28
 72
    24
 73
    41
  0
VERTEX
  5
337
  8
0
 62
     9
 10
0.0
 20
0.0
 30
0.0
 70
   128
 71
    24
 72
    22
 73
    40
  0
VERTEX
  5
338
  8
0
 62
     9
 10
0.0
 20
0.0
 30
0.0
 70
   128
 71
    22
 72
    23
 73
    39
  0
VERTEX
  5
339
  8
0
 62
     9
 10
0.0
 20
0.0
 30
0.0
 70
   128
 71
    20
 72
    38
 73
    39
  0
VERTEX
  5
33A
  8
0
 62
     9
 10
0.0
 20
0.0
 30
0.0
 70
   128
 71
    16
 72
    37
 73
    38
  0
VERTEX
  5
33B
  8
0
 62
     9
 10
0.0
 20
0.0
 30
0.0
 70
   128
 71
    16
 72
    17
 73
    36
  0
VERTEX
  5
33C
  8
0
 62
     9
 10
0.0
 20
0.0
 30
0.0
 70
   128
 71
    12
 72
    35
 73
    36
  0
VERTEX
  5
33D
  8
0
 62
     9
 10
0.0
 20
0.0
 30
0.0
 70
   128
 71
    12
 72
    10
 73
    34
  0
VERTEX
  5
33E
  8
0
 62
     9
 10
0.0
 20
0.0
 30
0.0
 70
   128
 71
    10
 72
    11
 73
    33
  0
VERTEX
  5
33F
  8
0
 62
     9
 10
0.0
 20
0.0
 30
0.0
 70
   128
 71
     8
 72
    32
 73
    33
  0
VERTEX
  5
340
  8
0
 62
     9
 10
0.0
 20
0.0
 30
0.0
 70
   128
 71
     6
 72
    31
 73
    32
  0
VERTEX
  5
341
  8
0
 62
     9
 10
0.0
 20
0.0
 30
0.0
 70
   128
 71
     6
 72
     4
 73
    29
  0
VERTEX
  5
342
  8
0
 62
     9
 10
0.0
 20
0.0
 30
0.0
 70
   128
 71
     4
 72
     1
 73
    30
  0
VERTEX
  5
343
  8
0
 62
     9
 10
0.0
 20
0.0
 30
0.0
 70
   128
 71
    28
 72
     1
 73
     2
  0
VERTEX
  5
344
  8
0
 62
     9
 10
0.0
 20
0.0
 30
0.0
 70
   128
 71
    24
 72
    28
 73
    27
  0
VERTEX
  5
345
  8
0
 62
     9
 10
0.0
 20
0.0
 30
0.0
 70
   128
 71
    24
 72
    26
 73
    25
  0
VERTEX
  5
346
  8
0
 62
     9
 10
0.0
 20
0.0
 30
0.0
 70
   128
 71
    22
 72
    25
 73
    21
  0
VERTEX
  5
347
  8
0
 62
     9
 10
0.0
 20
0.0
 30
0.0
 70
   128
 71
    20
 72
    23
 73
    21
  0
VERTEX
  5
348
  8
0
 62
     9
 10
0.0
 20
0.0
 30
0.0
 70
   128
 71
    16
 72
    20
 73
    19
  0
VERTEX
  5
349
  8
0
 62
     9
 10
0.0
 20
0.0
 30
0.0
 70
   128
 71
    16
 72
    18
 73
    15
  0
VERTEX
  5
34A
  8
0
 62
     9
 10
0.0
 20
0.0
 30
0.0
 70
   128
 71
    12
 72
    17
 73
    15
  0
VERTEX
  5
34B
  8
0
 62
     9
 10
0.0
 20
0.0
 30
0.0
 70
   128
 71
    12
 72
    14
 73
    13
  0
VERTEX
  5
34C
  8
0
 62
     9
 10
0.0
 20
0.0
 30
0.0
 70
   128
 71
    10
 72
    13
 73
     9
  0
VERTEX
  5
34D
  8
0
 62
     9
 10
0.0
 20
0.0
 30
0.0
 70
   128
 71
     8
 72
    11
 73
     9
  0
VERTEX
  5
34E
  8
0
 62
     9
 10
0.0
 20
0.0
 30
0.0
 70
   128
 71
     6
 72
     8
 73
     7
  0
VERTEX
  5
34F
  8
0
 62
     9
 10
0.0
 20
0.0
 30
0.0
 70
   128
 71
     4
 72
     6
 73
     5
  0
VERTEX
  5
350
  8
0
 62
     9
 10
0.0
 20
0.0
 30
0.0
 70
   128
 71
     1
 72
     4
 73
     3
  0
SEQEND
  5
351
  8
0
 62
     9
  0
ENDBLK
  5
354
  8
0
  0
BLOCK
  8
0
  2
E3_NODE_3_
 70
     0
 10
0.0
 20
0.0
 30
0.0
  3
E3_NODE_3_
  1

  0
POLYLINE
  5
356
  8
0
 62
     9
 66
     1
 10
0.0
 20
0.0
 30
0.0
 70
    64
 71
    40
 72
    40
  0
VERTEX
  5
357
  8
0
 10
2.194999933242798
 20
22.98399925231934
 30
0.0
 70
   192
  0
VERTEX
  5
358
  8
0
 10
2.194999933242798
 20
20.70800018310547
 30
9.972999572753906
 70
   192
  0
VERTEX
  5
359
  8
0
 10
4.099999904632568
 20
18.4060001373291
 30
8.86400032043457
 70
   192
  0
VERTEX
  5
35A
  8
0
 10
2.194999933242798
 20
14.32999992370605
 30
17.96999931335449
 70
   192
  0
VERTEX
  5
35B
  8
0
 10
4.099999904632568
 20
12.73700046539307
 30
15.97200012207031
 70
   192
  0
VERTEX
  5
35C
  8
0
 10
4.099999904632568
 20
17.97500038146973
 30
9.402999877929688
 70
   192
  0
VERTEX
  5
35D
  8
0
 10
2.194999933242798
 20
5.113999843597412
 30
22.40800094604492
 70
   192
  0
VERTEX
  5
35E
  8
0
 10
4.099999904632568
 20
4.546000003814697
 30
19.91600036621094
 70
   192
  0
VERTEX
  5
35F
  8
0
 10
4.099999904632568
 20
11.48900032043457
 30
16.57299995422363
 70
   192
  0
VERTEX
  5
360
  8
0
 10
2.194999933242798
 20
-5.113999843597412
 30
22.40800094604492
 70
   192
  0
VERTEX
  5
361
  8
0
 10
4.099999904632568
 20
-4.546000003814697
 30
19.91600036621094
 70
   192
  0
VERTEX
  5
362
  8
0
 10
4.099999904632568
 20
2.461999893188477
 30
19.91600036621094
 70
   192
  0
VERTEX
  5
363
  8
0
 10
2.194999933242798
 20
-14.32999992370605
 30
17.96999931335449
 70
   192
  0
VERTEX
  5
364
  8
0
 10
4.099999904632568
 20
-12.73700046539307
 30
15.97200012207031
 70
   192
  0
VERTEX
  5
365
  8
0
 10
4.099999904632568
 20
-7.054999828338623
 30
18.70800018310547
 70
   192
  0
VERTEX
  5
366
  8
0
 10
2.194999933242798
 20
-20.70800018310547
 30
9.972999572753906
 70
   192
  0
VERTEX
  5
367
  8
0
 10
4.099999904632568
 20
-18.4060001373291
 30
8.86400032043457
 70
   192
  0
VERTEX
  5
368
  8
0
 10
4.099999904632568
 20
-14.91199970245361
 30
13.24400043487549
 70
   192
  0
VERTEX
  5
369
  8
0
 10
2.194999933242798
 20
-22.98399925231934
 30
0.0
 70
   192
  0
VERTEX
  5
36A
  8
0
 10
4.099999904632568
 20
-20.42900085449219
 30
0.0
 70
   192
  0
VERTEX
  5
36B
  8
0
 10
4.099999904632568
 20
-19.3390007019043
 30
4.776000022888184
 70
   192
  0
VERTEX
  5
36C
  8
0
 10
2.194999933242798
 20
-20.70800018310547
 30
-9.972999572753906
 70
   192
  0
VERTEX
  5
36D
  8
0
 10
4.099999904632568
 20
-19.3390007019043
 30
-4.776000022888184
 70
   192
  0
VERTEX
  5
36E
  8
0
 10
4.099999904632568
 20
-18.4060001373291
 30
-8.86400032043457
 70
   192
  0
VERTEX
  5
36F
  8
0
 10
2.194999933242798
 20
-14.32999992370605
 30
-17.96999931335449
 70
   192
  0
VERTEX
  5
370
  8
0
 10
4.099999904632568
 20
-14.91199970245361
 30
-13.24400043487549
 70
   192
  0
VERTEX
  5
371
  8
0
 10
4.099999904632568
 20
-12.73700046539307
 30
-15.97200012207031
 70
   192
  0
VERTEX
  5
372
  8
0
 10
2.194999933242798
 20
-5.113999843597412
 30
-22.40800094604492
 70
   192
  0
VERTEX
  5
373
  8
0
 10
4.099999904632568
 20
-7.054999828338623
 30
-18.70800018310547
 70
   192
  0
VERTEX
  5
374
  8
0
 10
4.099999904632568
 20
-4.546000003814697
 30
-19.91600036621094
 70
   192
  0
VERTEX
  5
375
  8
0
 10
2.194999933242798
 20
5.113999843597412
 30
-22.40800094604492
 70
   192
  0
VERTEX
  5
376
  8
0
 10
4.099999904632568
 20
2.461999893188477
 30
-19.91600036621094
 70
   192
  0
VERTEX
  5
377
  8
0
 10
4.099999904632568
 20
4.546000003814697
 30
-19.91600036621094
 70
   192
  0
VERTEX
  5
378
  8
0
 10
2.194999933242798
 20
14.32999992370605
 30
-17.96999931335449
 70
   192
  0
VERTEX
  5
379
  8
0
 10
4.099999904632568
 20
11.48900032043457
 30
-16.57299995422363
 70
   192
  0
VERTEX
  5
37A
  8
0
 10
4.099999904632568
 20
12.73700046539307
 30
-15.97200012207031
 70
   192
  0
VERTEX
  5
37B
  8
0
 10
2.194999933242798
 20
20.70800018310547
 30
-9.972999572753906
 70
   192
  0
VERTEX
  5
37C
  8
0
 10
4.099999904632568
 20
17.97500038146973
 30
-9.402999877929688
 70
   192
  0
VERTEX
  5
37D
  8
0
 10
4.099999904632568
 20
18.4060001373291
 30
-8.86400032043457
 70
   192
  0
VERTEX
  5
37E
  8
0
 10
4.099999904632568
 20
20.42900085449219
 30
0.0
 70
   192
  0
VERTEX
  5
37F
  8
0
 62
     9
 10
0.0
 20
0.0
 30
0.0
 70
   128
 71
     3
 72
     2
 73
     1
  0
VERTEX
  5
380
  8
0
 62
     9
 10
0.0
 20
0.0
 30
0.0
 70
   128
 71
     6
 72
     5
 73
     4
  0
VERTEX
  5
381
  8
0
 62
     9
 10
0.0
 20
0.0
 30
0.0
 70
   128
 71
     4
 72
     2
 73
     6
  0
VERTEX
  5
382
  8
0
 62
     9
 10
0.0
 20
0.0
 30
0.0
 70
   128
 71
     9
 72
     8
 73
     7
  0
VERTEX
  5
383
  8
0
 62
     9
 10
0.0
 20
0.0
 30
0.0
 70
   128
 71
     7
 72
     4
 73
     9
  0
VERTEX
  5
384
  8
0
 62
     9
 10
0.0
 20
0.0
 30
0.0
 70
   128
 71
    12
 72
    11
 73
    10
  0
VERTEX
  5
385
  8
0
 62
     9
 10
0.0
 20
0.0
 30
0.0
 70
   128
 71
    10
 72
     7
 73
    12
  0
VERTEX
  5
386
  8
0
 62
     9
 10
0.0
 20
0.0
 30
0.0
 70
   128
 71
    15
 72
    14
 73
    13
  0
VERTEX
  5
387
  8
0
 62
     9
 10
0.0
 20
0.0
 30
0.0
 70
   128
 71
    13
 72
    10
 73
    15
  0
VERTEX
  5
388
  8
0
 62
     9
 10
0.0
 20
0.0
 30
0.0
 70
   128
 71
    18
 72
    17
 73
    16
  0
VERTEX
  5
389
  8
0
 62
     9
 10
0.0
 20
0.0
 30
0.0
 70
   128
 71
    16
 72
    13
 73
    18
  0
VERTEX
  5
38A
  8
0
 62
     9
 10
0.0
 20
0.0
 30
0.0
 70
   128
 71
    21
 72
    20
 73
    19
  0
VERTEX
  5
38B
  8
0
 62
     9
 10
0.0
 20
0.0
 30
0.0
 70
   128
 71
    19
 72
    16
 73
    21
  0
VERTEX
  5
38C
  8
0
 62
     9
 10
0.0
 20
0.0
 30
0.0
 70
   128
 71
    23
 72
    22
 73
    19
  0
VERTEX
  5
38D
  8
0
 62
     9
 10
0.0
 20
0.0
 30
0.0
 70
   128
 71
    23
 72
    24
 73
    22
  0
VERTEX
  5
38E
  8
0
 62
     9
 10
0.0
 20
0.0
 30
0.0
 70
   128
 71
    26
 72
    25
 73
    22
  0
VERTEX
  5
38F
  8
0
 62
     9
 10
0.0
 20
0.0
 30
0.0
 70
   128
 71
    26
 72
    27
 73
    25
  0
VERTEX
  5
390
  8
0
 62
     9
 10
0.0
 20
0.0
 30
0.0
 70
   128
 71
    29
 72
    28
 73
    25
  0
VERTEX
  5
391
  8
0
 62
     9
 10
0.0
 20
0.0
 30
0.0
 70
   128
 71
    29
 72
    30
 73
    28
  0
VERTEX
  5
392
  8
0
 62
     9
 10
0.0
 20
0.0
 30
0.0
 70
   128
 71
    32
 72
    31
 73
    28
  0
VERTEX
  5
393
  8
0
 62
     9
 10
0.0
 20
0.0
 30
0.0
 70
   128
 71
    32
 72
    33
 73
    31
  0
VERTEX
  5
394
  8
0
 62
     9
 10
0.0
 20
0.0
 30
0.0
 70
   128
 71
    35
 72
    34
 73
    31
  0
VERTEX
  5
395
  8
0
 62
     9
 10
0.0
 20
0.0
 30
0.0
 70
   128
 71
    35
 72
    36
 73
    34
  0
VERTEX
  5
396
  8
0
 62
     9
 10
0.0
 20
0.0
 30
0.0
 70
   128
 71
    38
 72
    37
 73
    34
  0
VERTEX
  5
397
  8
0
 62
     9
 10
0.0
 20
0.0
 30
0.0
 70
   128
 71
    38
 72
    39
 73
    37
  0
VERTEX
  5
398
  8
0
 62
     9
 10
0.0
 20
0.0
 30
0.0
 70
   128
 71
    39
 72
    40
 73
     1
  0
VERTEX
  5
399
  8
0
 62
     9
 10
0.0
 20
0.0
 30
0.0
 70
   128
 71
     1
 72
    37
 73
    39
  0
VERTEX
  5
39A
  8
0
 62
     9
 10
0.0
 20
0.0
 30
0.0
 70
   128
 71
    34
 72
    36
 73
    38
  0
VERTEX
  5
39B
  8
0
 62
     9
 10
0.0
 20
0.0
 30
0.0
 70
   128
 71
    31
 72
    33
 73
    35
  0
VERTEX
  5
39C
  8
0
 62
     9
 10
0.0
 20
0.0
 30
0.0
 70
   128
 71
    28
 72
    30
 73
    32
  0
VERTEX
  5
39D
  8
0
 62
     9
 10
0.0
 20
0.0
 30
0.0
 70
   128
 71
    25
 72
    27
 73
    29
  0
VERTEX
  5
39E
  8
0
 62
     9
 10
0.0
 20
0.0
 30
0.0
 70
   128
 71
    22
 72
    24
 73
    26
  0
VERTEX
  5
39F
  8
0
 62
     9
 10
0.0
 20
0.0
 30
0.0
 70
   128
 71
    19
 72
    20
 73
    23
  0
VERTEX
  5
3A0
  8
0
 62
     9
 10
0.0
 20
0.0
 30
0.0
 70
   128
 71
    16
 72
    17
 73
    21
  0
VERTEX
  5
3A1
  8
0
 62
     9
 10
0.0
 20
0.0
 30
0.0
 70
   128
 71
    13
 72
    14
 73
    18
  0
VERTEX
  5
3A2
  8
0
 62
     9
 10
0.0
 20
0.0
 30
0.0
 70
   128
 71
    10
 72
    11
 73
    15
  0
VERTEX
  5
3A3
  8
0
 62
     9
 10
0.0
 20
0.0
 30
0.0
 70
   128
 71
     7
 72
     8
 73
    12
  0
VERTEX
  5
3A4
  8
0
 62
     9
 10
0.0
 20
0.0
 30
0.0
 70
   128
 71
     4
 72
     5
 73
     9
  0
VERTEX
  5
3A5
  8
0
 62
     9
 10
0.0
 20
0.0
 30
0.0
 70
   128
 71
     2
 72
     3
 73
     6
  0
VERTEX
  5
3A6
  8
0
 62
     9
 10
0.0
 20
0.0
 30
0.0
 70
   128
 71
     1
 72
    40
 73
     3
  0
SEQEND
  5
3A7
  8
0
 62
     9
  0
ENDBLK
  5
3AA
  8
0
  0
BLOCK
  8
0
  2
E3_NODE_4_
 70
     0
 10
0.0
 20
0.0
 30
0.0
  3
E3_NODE_4_
  1

  0
POLYLINE
  5
3AC
  8
0
 62
     9
 66
     1
 10
0.0
 20
0.0
 30
0.0
 70
    64
 71
    52
 72
    65
  0
VERTEX
  5
3AD
  8
0
 10
5.526999950408936
 20
20.82399940490723
 30
0.0
 70
   192
  0
VERTEX
  5
3AE
  8
0
 10
4.099999904632568
 20
20.42900085449219
 30
0.0
 70
   192
  0
VERTEX
  5
3AF
  8
0
 10
4.099999904632568
 20
18.4060001373291
 30
8.86400032043457
 70
   192
  0
VERTEX
  5
3B0
  8
0
 10
5.526999950408936
 20
18.43899917602539
 30
9.678000450134277
 70
   192
  0
VERTEX
  5
3B1
  8
0
 10
4.099999904632568
 20
17.97500038146973
 30
9.402999877929688
 70
   192
  0
VERTEX
  5
3B2
  8
0
 10
4.099999904632568
 20
12.73700046539307
 30
15.97200012207031
 70
   192
  0
VERTEX
  5
3B3
  8
0
 10
5.526999950408936
 20
11.82999992370605
 30
17.13800048828125
 70
   192
  0
VERTEX
  5
3B4
  8
0
 10
4.099999904632568
 20
11.48900032043457
 30
16.57299995422363
 70
   192
  0
VERTEX
  5
3B5
  8
0
 10
4.099999904632568
 20
4.546000003814697
 30
19.91600036621094
 70
   192
  0
VERTEX
  5
3B6
  8
0
 10
5.526999950408936
 20
2.509999990463257
 30
20.67300033569336
 70
   192
  0
VERTEX
  5
3B7
  8
0
 10
4.099999904632568
 20
2.461999893188477
 30
19.91600036621094
 70
   192
  0
VERTEX
  5
3B8
  8
0
 10
4.099999904632568
 20
-4.546000003814697
 30
19.91600036621094
 70
   192
  0
VERTEX
  5
3B9
  8
0
 10
5.526999950408936
 20
-7.383999824523926
 30
19.47100067138672
 70
   192
  0
VERTEX
  5
3BA
  8
0
 10
4.099999904632568
 20
-7.054999828338623
 30
18.70800018310547
 70
   192
  0
VERTEX
  5
3BB
  8
0
 10
4.099999904632568
 20
-12.73700046539307
 30
15.97200012207031
 70
   192
  0
VERTEX
  5
3BC
  8
0
 10
5.526999950408936
 20
-15.58699989318848
 30
13.80900001525879
 70
   192
  0
VERTEX
  5
3BD
  8
0
 10
4.099999904632568
 20
-14.91199970245361
 30
13.24400043487549
 70
   192
  0
VERTEX
  5
3BE
  8
0
 10
4.099999904632568
 20
-18.4060001373291
 30
8.86400032043457
 70
   192
  0
VERTEX
  5
3BF
  8
0
 10
5.526999950408936
 20
-20.2189998626709
 30
4.984000205993652
 70
   192
  0
VERTEX
  5
3C0
  8
0
 10
4.099999904632568
 20
-19.3390007019043
 30
4.776000022888184
 70
   192
  0
VERTEX
  5
3C1
  8
0
 10
4.099999904632568
 20
-20.42900085449219
 30
0.0
 70
   192
  0
VERTEX
  5
3C2
  8
0
 10
5.526999950408936
 20
-20.2189998626709
 30
-4.984000205993652
 70
   192
  0
VERTEX
  5
3C3
  8
0
 10
5.526999950408936
 20
-15.58699989318848
 30
-13.80900001525879
 70
   192
  0
VERTEX
  5
3C4
  8
0
 10
4.099999904632568
 20
-18.4060001373291
 30
-8.86400032043457
 70
   192
  0
VERTEX
  5
3C5
  8
0
 10
4.099999904632568
 20
-19.3390007019043
 30
-4.776000022888184
 70
   192
  0
VERTEX
  5
3C6
  8
0
 10
5.526999950408936
 20
-7.383999824523926
 30
-19.47100067138672
 70
   192
  0
VERTEX
  5
3C7
  8
0
 10
4.099999904632568
 20
-12.73700046539307
 30
-15.97200012207031
 70
   192
  0
VERTEX
  5
3C8
  8
0
 10
4.099999904632568
 20
-14.91199970245361
 30
-13.24400043487549
 70
   192
  0
VERTEX
  5
3C9
  8
0
 10
5.526999950408936
 20
2.509999990463257
 30
-20.67300033569336
 70
   192
  0
VERTEX
  5
3CA
  8
0
 10
4.099999904632568
 20
-4.546000003814697
 30
-19.91600036621094
 70
   192
  0
VERTEX
  5
3CB
  8
0
 10
4.099999904632568
 20
-7.054999828338623
 30
-18.70800018310547
 70
   192
  0
VERTEX
  5
3CC
  8
0
 10
5.526999950408936
 20
11.82999992370605
 30
-17.13800048828125
 70
   192
  0
VERTEX
  5
3CD
  8
0
 10
4.099999904632568
 20
4.546000003814697
 30
-19.91600036621094
 70
   192
  0
VERTEX
  5
3CE
  8
0
 10
4.099999904632568
 20
2.461999893188477
 30
-19.91600036621094
 70
   192
  0
VERTEX
  5
3CF
  8
0
 10
5.526999950408936
 20
18.43899917602539
 30
-9.678000450134277
 70
   192
  0
VERTEX
  5
3D0
  8
0
 10
4.099999904632568
 20
12.73700046539307
 30
-15.97200012207031
 70
   192
  0
VERTEX
  5
3D1
  8
0
 10
4.099999904632568
 20
11.48900032043457
 30
-16.57299995422363
 70
   192
  0
VERTEX
  5
3D2
  8
0
 10
4.099999904632568
 20
18.4060001373291
 30
-8.86400032043457
 70
   192
  0
VERTEX
  5
3D3
  8
0
 10
4.099999904632568
 20
17.97500038146973
 30
-9.402999877929688
 70
   192
  0
VERTEX
  5
3D4
  8
0
 10
6.695000171661377
 20
17.63199996948242
 30
9.253999710083008
 70
   192
  0
VERTEX
  5
3D5
  8
0
 10
6.695000171661377
 20
11.3120002746582
 30
16.38800048828125
 70
   192
  0
VERTEX
  5
3D6
  8
0
 10
6.695000171661377
 20
2.400000095367432
 30
19.76799964904785
 70
   192
  0
VERTEX
  5
3D7
  8
0
 10
6.695000171661377
 20
-7.060999870300293
 30
18.61899948120117
 70
   192
  0
VERTEX
  5
3D8
  8
0
 10
6.695000171661377
 20
-14.90499973297119
 30
13.20499992370605
 70
   192
  0
VERTEX
  5
3D9
  8
0
 10
6.695000171661377
 20
-19.33399963378906
 30
4.764999866485596
 70
   192
  0
VERTEX
  5
3DA
  8
0
 10
6.695000171661377
 20
-19.33399963378906
 30
-4.764999866485596
 70
   192
  0
VERTEX
  5
3DB
  8
0
 10
6.695000171661377
 20
-14.90499973297119
 30
-13.20499992370605
 70
   192
  0
VERTEX
  5
3DC
  8
0
 10
6.695000171661377
 20
-7.060999870300293
 30
-18.61899948120117
 70
   192
  0
VERTEX
  5
3DD
  8
0
 10
6.695000171661377
 20
2.400000095367432
 30
-19.76799964904785
 70
   192
  0
VERTEX
  5
3DE
  8
0
 10
6.695000171661377
 20
11.3120002746582
 30
-16.38800048828125
 70
   192
  0
VERTEX
  5
3DF
  8
0
 10
6.695000171661377
 20
17.63199996948242
 30
-9.253999710083008
 70
   192
  0
VERTEX
  5
3E0
  8
0
 10
6.695000171661377
 20
19.91300010681152
 30
0.0
 70
   192
  0
VERTEX
  5
3E1
  8
0
 62
     9
 10
0.0
 20
0.0
 30
0.0
 70
   128
 71
     3
 72
     2
 73
     1
  0
VERTEX
  5
3E2
  8
0
 62
     9
 10
0.0
 20
0.0
 30
0.0
 70
   128
 71
     1
 72
     4
 73
     3
  0
VERTEX
  5
3E3
  8
0
 62
     9
 10
0.0
 20
0.0
 30
0.0
 70
   128
 71
     6
 72
     5
 73
     4
  0
VERTEX
  5
3E4
  8
0
 62
     9
 10
0.0
 20
0.0
 30
0.0
 70
   128
 71
     4
 72
     7
 73
     6
  0
VERTEX
  5
3E5
  8
0
 62
     9
 10
0.0
 20
0.0
 30
0.0
 70
   128
 71
     9
 72
     8
 73
     7
  0
VERTEX
  5
3E6
  8
0
 62
     9
 10
0.0
 20
0.0
 30
0.0
 70
   128
 71
     7
 72
    10
 73
     9
  0
VERTEX
  5
3E7
  8
0
 62
     9
 10
0.0
 20
0.0
 30
0.0
 70
   128
 71
    12
 72
    11
 73
    10
  0
VERTEX
  5
3E8
  8
0
 62
     9
 10
0.0
 20
0.0
 30
0.0
 70
   128
 71
    10
 72
    13
 73
    12
  0
VERTEX
  5
3E9
  8
0
 62
     9
 10
0.0
 20
0.0
 30
0.0
 70
   128
 71
    15
 72
    14
 73
    13
  0
VERTEX
  5
3EA
  8
0
 62
     9
 10
0.0
 20
0.0
 30
0.0
 70
   128
 71
    13
 72
    16
 73
    15
  0
VERTEX
  5
3EB
  8
0
 62
     9
 10
0.0
 20
0.0
 30
0.0
 70
   128
 71
    18
 72
    17
 73
    16
  0
VERTEX
  5
3EC
  8
0
 62
     9
 10
0.0
 20
0.0
 30
0.0
 70
   128
 71
    16
 72
    19
 73
    18
  0
VERTEX
  5
3ED
  8
0
 62
     9
 10
0.0
 20
0.0
 30
0.0
 70
   128
 71
    21
 72
    20
 73
    19
  0
VERTEX
  5
3EE
  8
0
 62
     9
 10
0.0
 20
0.0
 30
0.0
 70
   128
 71
    19
 72
    22
 73
    21
  0
VERTEX
  5
3EF
  8
0
 62
     9
 10
0.0
 20
0.0
 30
0.0
 70
   128
 71
    24
 72
    22
 73
    23
  0
VERTEX
  5
3F0
  8
0
 62
     9
 10
0.0
 20
0.0
 30
0.0
 70
   128
 71
    24
 72
    25
 73
    22
  0
VERTEX
  5
3F1
  8
0
 62
     9
 10
0.0
 20
0.0
 30
0.0
 70
   128
 71
    27
 72
    23
 73
    26
  0
VERTEX
  5
3F2
  8
0
 62
     9
 10
0.0
 20
0.0
 30
0.0
 70
   128
 71
    27
 72
    28
 73
    23
  0
VERTEX
  5
3F3
  8
0
 62
     9
 10
0.0
 20
0.0
 30
0.0
 70
   128
 71
    30
 72
    26
 73
    29
  0
VERTEX
  5
3F4
  8
0
 62
     9
 10
0.0
 20
0.0
 30
0.0
 70
   128
 71
    30
 72
    31
 73
    26
  0
VERTEX
  5
3F5
  8
0
 62
     9
 10
0.0
 20
0.0
 30
0.0
 70
   128
 71
    33
 72
    29
 73
    32
  0
VERTEX
  5
3F6
  8
0
 62
     9
 10
0.0
 20
0.0
 30
0.0
 70
   128
 71
    33
 72
    34
 73
    29
  0
VERTEX
  5
3F7
  8
0
 62
     9
 10
0.0
 20
0.0
 30
0.0
 70
   128
 71
    36
 72
    32
 73
    35
  0
VERTEX
  5
3F8
  8
0
 62
     9
 10
0.0
 20
0.0
 30
0.0
 70
   128
 71
    36
 72
    37
 73
    32
  0
VERTEX
  5
3F9
  8
0
 62
     9
 10
0.0
 20
0.0
 30
0.0
 70
   128
 71
    38
 72
    35
 73
     1
  0
VERTEX
  5
3FA
  8
0
 62
     9
 10
0.0
 20
0.0
 30
0.0
 70
   128
 71
    38
 72
    39
 73
    35
  0
VERTEX
  5
3FB
  8
0
 62
     9
 10
0.0
 20
0.0
 30
0.0
 70
   128
 71
    40
 72
     4
 73
     1
  0
VERTEX
  5
3FC
  8
0
 62
     9
 10
0.0
 20
0.0
 30
0.0
 70
   128
 71
    41
 72
     7
 73
     4
  0
VERTEX
  5
3FD
  8
0
 62
     9
 10
0.0
 20
0.0
 30
0.0
 70
   128
 71
    41
 72
    42
 73
    10
  0
VERTEX
  5
3FE
  8
0
 62
     9
 10
0.0
 20
0.0
 30
0.0
 70
   128
 71
    43
 72
    13
 73
    10
  0
VERTEX
  5
3FF
  8
0
 62
     9
 10
0.0
 20
0.0
 30
0.0
 70
   128
 71
    43
 72
    44
 73
    16
  0
VERTEX
  5
400
  8
0
 62
     9
 10
0.0
 20
0.0
 30
0.0
 70
   128
 71
    44
 72
    45
 73
    19
  0
VERTEX
  5
401
  8
0
 62
     9
 10
0.0
 20
0.0
 30
0.0
 70
   128
 71
    46
 72
    22
 73
    19
  0
VERTEX
  5
402
  8
0
 62
     9
 10
0.0
 20
0.0
 30
0.0
 70
   128
 71
    47
 72
    23
 73
    22
  0
VERTEX
  5
403
  8
0
 62
     9
 10
0.0
 20
0.0
 30
0.0
 70
   128
 71
    48
 72
    26
 73
    23
  0
VERTEX
  5
404
  8
0
 62
     9
 10
0.0
 20
0.0
 30
0.0
 70
   128
 71
    49
 72
    29
 73
    26
  0
VERTEX
  5
405
  8
0
 62
     9
 10
0.0
 20
0.0
 30
0.0
 70
   128
 71
    50
 72
    32
 73
    29
  0
VERTEX
  5
406
  8
0
 62
     9
 10
0.0
 20
0.0
 30
0.0
 70
   128
 71
    50
 72
    51
 73
    35
  0
VERTEX
  5
407
  8
0
 62
     9
 10
0.0
 20
0.0
 30
0.0
 70
   128
 71
    51
 72
    52
 73
     1
  0
VERTEX
  5
408
  8
0
 62
     9
 10
0.0
 20
0.0
 30
0.0
 70
   128
 71
     1
 72
    35
 73
    51
  0
VERTEX
  5
409
  8
0
 62
     9
 10
0.0
 20
0.0
 30
0.0
 70
   128
 71
    35
 72
    32
 73
    50
  0
VERTEX
  5
40A
  8
0
 62
     9
 10
0.0
 20
0.0
 30
0.0
 70
   128
 71
    29
 72
    49
 73
    50
  0
VERTEX
  5
40B
  8
0
 62
     9
 10
0.0
 20
0.0
 30
0.0
 70
   128
 71
    26
 72
    48
 73
    49
  0
VERTEX
  5
40C
  8
0
 62
     9
 10
0.0
 20
0.0
 30
0.0
 70
   128
 71
    23
 72
    47
 73
    48
  0
VERTEX
  5
40D
  8
0
 62
     9
 10
0.0
 20
0.0
 30
0.0
 70
   128
 71
    22
 72
    46
 73
    47
  0
VERTEX
  5
40E
  8
0
 62
     9
 10
0.0
 20
0.0
 30
0.0
 70
   128
 71
    19
 72
    45
 73
    46
  0
VERTEX
  5
40F
  8
0
 62
     9
 10
0.0
 20
0.0
 30
0.0
 70
   128
 71
    19
 72
    16
 73
    44
  0
VERTEX
  5
410
  8
0
 62
     9
 10
0.0
 20
0.0
 30
0.0
 70
   128
 71
    16
 72
    13
 73
    43
  0
VERTEX
  5
411
  8
0
 62
     9
 10
0.0
 20
0.0
 30
0.0
 70
   128
 71
    10
 72
    42
 73
    43
  0
VERTEX
  5
412
  8
0
 62
     9
 10
0.0
 20
0.0
 30
0.0
 70
   128
 71
    10
 72
     7
 73
    41
  0
VERTEX
  5
413
  8
0
 62
     9
 10
0.0
 20
0.0
 30
0.0
 70
   128
 71
     4
 72
    40
 73
    41
  0
VERTEX
  5
414
  8
0
 62
     9
 10
0.0
 20
0.0
 30
0.0
 70
   128
 71
     1
 72
    52
 73
    40
  0
VERTEX
  5
415
  8
0
 62
     9
 10
0.0
 20
0.0
 30
0.0
 70
   128
 71
     1
 72
     2
 73
    38
  0
VERTEX
  5
416
  8
0
 62
     9
 10
0.0
 20
0.0
 30
0.0
 70
   128
 71
    35
 72
    39
 73
    36
  0
VERTEX
  5
417
  8
0
 62
     9
 10
0.0
 20
0.0
 30
0.0
 70
   128
 71
    32
 72
    37
 73
    33
  0
VERTEX
  5
418
  8
0
 62
     9
 10
0.0
 20
0.0
 30
0.0
 70
   128
 71
    29
 72
    34
 73
    30
  0
VERTEX
  5
419
  8
0
 62
     9
 10
0.0
 20
0.0
 30
0.0
 70
   128
 71
    26
 72
    31
 73
    27
  0
VERTEX
  5
41A
  8
0
 62
     9
 10
0.0
 20
0.0
 30
0.0
 70
   128
 71
    23
 72
    28
 73
    24
  0
VERTEX
  5
41B
  8
0
 62
     9
 10
0.0
 20
0.0
 30
0.0
 70
   128
 71
    22
 72
    25
 73
    21
  0
VERTEX
  5
41C
  8
0
 62
     9
 10
0.0
 20
0.0
 30
0.0
 70
   128
 71
    19
 72
    20
 73
    18
  0
VERTEX
  5
41D
  8
0
 62
     9
 10
0.0
 20
0.0
 30
0.0
 70
   128
 71
    16
 72
    17
 73
    15
  0
VERTEX
  5
41E
  8
0
 62
     9
 10
0.0
 20
0.0
 30
0.0
 70
   128
 71
    13
 72
    14
 73
    12
  0
VERTEX
  5
41F
  8
0
 62
     9
 10
0.0
 20
0.0
 30
0.0
 70
   128
 71
    10
 72
    11
 73
     9
  0
VERTEX
  5
420
  8
0
 62
     9
 10
0.0
 20
0.0
 30
0.0
 70
   128
 71
     7
 72
     8
 73
     6
  0
VERTEX
  5
421
  8
0
 62
     9
 10
0.0
 20
0.0
 30
0.0
 70
   128
 71
     4
 72
     5
 73
     3
  0
SEQEND
  5
422
  8
0
 62
     9
  0
ENDBLK
  5
425
  8
0
  0
BLOCK
  8
0
  2
E3_NODE_5_
 70
     0
 10
0.0
 20
0.0
 30
0.0
  3
E3_NODE_5_
  1

  0
POLYLINE
  5
427
  8
0
 62
     9
 66
     1
 10
0.0
 20
0.0
 30
0.0
 70
    64
 71
    26
 72
    26
  0
VERTEX
  5
428
  8
0
 10
6.695000171661377
 20
19.91300010681152
 30
0.0
 70
   192
  0
VERTEX
  5
429
  8
0
 10
6.695000171661377
 20
17.63199996948242
 30
9.253999710083008
 70
   192
  0
VERTEX
  5
42A
  8
0
 10
8.600000381469727
 20
15.36900043487549
 30
8.065999984741211
 70
   192
  0
VERTEX
  5
42B
  8
0
 10
6.695000171661377
 20
11.3120002746582
 30
16.38800048828125
 70
   192
  0
VERTEX
  5
42C
  8
0
 10
8.600000381469727
 20
9.859999656677246
 30
14.28499984741211
 70
   192
  0
VERTEX
  5
42D
  8
0
 10
6.695000171661377
 20
2.400000095367432
 30
19.76799964904785
 70
   192
  0
VERTEX
  5
42E
  8
0
 10
8.600000381469727
 20
2.092000007629395
 30
17.23100090026855
 70
   192
  0
VERTEX
  5
42F
  8
0
 10
6.695000171661377
 20
-7.060999870300293
 30
18.61899948120117
 70
   192
  0
VERTEX
  5
430
  8
0
 10
8.600000381469727
 20
-6.15500020980835
 30
16.22900009155273
 70
   192
  0
VERTEX
  5
431
  8
0
 10
6.695000171661377
 20
-14.90499973297119
 30
13.20499992370605
 70
   192
  0
VERTEX
  5
432
  8
0
 10
8.600000381469727
 20
-12.99199962615967
 30
11.51000022888184
 70
   192
  0
VERTEX
  5
433
  8
0
 10
6.695000171661377
 20
-19.33399963378906
 30
4.764999866485596
 70
   192
  0
VERTEX
  5
434
  8
0
 10
8.600000381469727
 20
-16.85300064086914
 30
4.153999805450439
 70
   192
  0
VERTEX
  5
435
  8
0
 10
6.695000171661377
 20
-19.33399963378906
 30
-4.764999866485596
 70
   192
  0
VERTEX
  5
436
  8
0
 10
8.600000381469727
 20
-16.85300064086914
 30
-4.153999805450439
 70
   192
  0
VERTEX
  5
437
  8
0
 10
6.695000171661377
 20
-14.90499973297119
 30
-13.20499992370605
 70
   192
  0
VERTEX
  5
438
  8
0
 10
8.600000381469727
 20
-12.99199962615967
 30
-11.51000022888184
 70
   192
  0
VERTEX
  5
439
  8
0
 10
6.695000171661377
 20
-7.060999870300293
 30
-18.61899948120117
 70
   192
  0
VERTEX
  5
43A
  8
0
 10
8.600000381469727
 20
-6.15500020980835
 30
-16.22900009155273
 70
   192
  0
VERTEX
  5
43B
  8
0
 10
6.695000171661377
 20
2.400000095367432
 30
-19.76799964904785
 70
   192
  0
VERTEX
  5
43C
  8
0
 10
8.600000381469727
 20
2.092000007629395
 30
-17.23100090026855
 70
   192
  0
VERTEX
  5
43D
  8
0
 10
6.695000171661377
 20
11.3120002746582
 30
-16.38800048828125
 70
   192
  0
VERTEX
  5
43E
  8
0
 10
8.600000381469727
 20
9.859999656677246
 30
-14.28499984741211
 70
   192
  0
VERTEX
  5
43F
  8
0
 10
6.695000171661377
 20
17.63199996948242
 30
-9.253999710083008
 70
   192
  0
VERTEX
  5
440
  8
0
 10
8.600000381469727
 20
15.36900043487549
 30
-8.065999984741211
 70
   192
  0
VERTEX
  5
441
  8
0
 10
8.600000381469727
 20
17.35700035095215
 30
0.0
 70
   192
  0
VERTEX
  5
442
  8
0
 62
     9
 10
0.0
 20
0.0
 30
0.0
 70
   128
 71
     3
 72
     2
 73
     1
  0
VERTEX
  5
443
  8
0
 62
     9
 10
0.0
 20
0.0
 30
0.0
 70
   128
 71
     3
 72
     5
 73
     4
  0
VERTEX
  5
444
  8
0
 62
     9
 10
0.0
 20
0.0
 30
0.0
 70
   128
 71
     7
 72
     6
 73
     4
  0
VERTEX
  5
445
  8
0
 62
     9
 10
0.0
 20
0.0
 30
0.0
 70
   128
 71
     9
 72
     8
 73
     6
  0
VERTEX
  5
446
  8
0
 62
     9
 10
0.0
 20
0.0
 30
0.0
 70
   128
 71
     9
 72
    11
 73
    10
  0
VERTEX
  5
447
  8
0
 62
     9
 10
0.0
 20
0.0
 30
0.0
 70
   128
 71
    13
 72
    12
 73
    10
  0
VERTEX
  5
448
  8
0
 62
     9
 10
0.0
 20
0.0
 30
0.0
 70
   128
 71
    13
 72
    15
 73
    14
  0
VERTEX
  5
449
  8
0
 62
     9
 10
0.0
 20
0.0
 30
0.0
 70
   128
 71
    17
 72
    16
 73
    14
  0
VERTEX
  5
44A
  8
0
 62
     9
 10
0.0
 20
0.0
 30
0.0
 70
   128
 71
    19
 72
    18
 73
    16
  0
VERTEX
  5
44B
  8
0
 62
     9
 10
0.0
 20
0.0
 30
0.0
 70
   128
 71
    21
 72
    20
 73
    18
  0
VERTEX
  5
44C
  8
0
 62
     9
 10
0.0
 20
0.0
 30
0.0
 70
   128
 71
    21
 72
    23
 73
    22
  0
VERTEX
  5
44D
  8
0
 62
     9
 10
0.0
 20
0.0
 30
0.0
 70
   128
 71
    23
 72
    25
 73
    24
  0
VERTEX
  5
44E
  8
0
 62
     9
 10
0.0
 20
0.0
 30
0.0
 70
   128
 71
    26
 72
     1
 73
    24
  0
VERTEX
  5
44F
  8
0
 62
     9
 10
0.0
 20
0.0
 30
0.0
 70
   128
 71
    24
 72
    25
 73
    26
  0
VERTEX
  5
450
  8
0
 62
     9
 10
0.0
 20
0.0
 30
0.0
 70
   128
 71
    24
 72
    22
 73
    23
  0
VERTEX
  5
451
  8
0
 62
     9
 10
0.0
 20
0.0
 30
0.0
 70
   128
 71
    22
 72
    20
 73
    21
  0
VERTEX
  5
452
  8
0
 62
     9
 10
0.0
 20
0.0
 30
0.0
 70
   128
 71
    18
 72
    19
 73
    21
  0
VERTEX
  5
453
  8
0
 62
     9
 10
0.0
 20
0.0
 30
0.0
 70
   128
 71
    16
 72
    17
 73
    19
  0
VERTEX
  5
454
  8
0
 62
     9
 10
0.0
 20
0.0
 30
0.0
 70
   128
 71
    14
 72
    15
 73
    17
  0
VERTEX
  5
455
  8
0
 62
     9
 10
0.0
 20
0.0
 30
0.0
 70
   128
 71
    14
 72
    12
 73
    13
  0
VERTEX
  5
456
  8
0
 62
     9
 10
0.0
 20
0.0
 30
0.0
 70
   128
 71
    10
 72
    11
 73
    13
  0
VERTEX
  5
457
  8
0
 62
     9
 10
0.0
 20
0.0
 30
0.0
 70
   128
 71
    10
 72
     8
 73
     9
  0
VERTEX
  5
458
  8
0
 62
     9
 10
0.0
 20
0.0
 30
0.0
 70
   128
 71
     6
 72
     7
 73
     9
  0
VERTEX
  5
459
  8
0
 62
     9
 10
0.0
 20
0.0
 30
0.0
 70
   128
 71
     4
 72
     5
 73
     7
  0
VERTEX
  5
45A
  8
0
 62
     9
 10
0.0
 20
0.0
 30
0.0
 70
   128
 71
     4
 72
     2
 73
     3
  0
VERTEX
  5
45B
  8
0
 62
     9
 10
0.0
 20
0.0
 30
0.0
 70
   128
 71
     1
 72
    26
 73
     3
  0
SEQEND
  5
45C
  8
0
 62
     9
  0
ENDBLK
  5
45F
  8
0
  0
BLOCK
  8
0
  2
E3_NODE_6_
 70
     0
 10
0.0
 20
0.0
 30
0.0
  3
E3_NODE_6_
  1

  0
POLYLINE
  5
461
  8
0
 62
     9
 66
     1
 10
0.0
 20
0.0
 30
0.0
 70
    64
 71
    26
 72
    26
  0
VERTEX
  5
462
  8
0
 10
47.02799987792969
 20
0.0
 30
-9.717000007629395
 70
   192
  0
VERTEX
  5
463
  8
0
 10
47.02799987792969
 20
-7.597000122070312
 30
-6.058000087738037
 70
   192
  0
VERTEX
  5
464
  8
0
 10
45.90399932861328
 20
-5.363999843597412
 30
-9.291000366210938
 70
   192
  0
VERTEX
  5
465
  8
0
 10
45.90399932861328
 20
-8.177000045776367
 30
-6.478000164031982
 70
   192
  0
VERTEX
  5
466
  8
0
 10
47.02799987792969
 20
-9.472999572753906
 30
2.161999940872192
 70
   192
  0
VERTEX
  5
467
  8
0
 10
45.90399932861328
 20
-10.72900009155273
 30
0.0
 70
   192
  0
VERTEX
  5
468
  8
0
 10
45.90399932861328
 20
-9.291000366210938
 30
-5.363999843597412
 70
   192
  0
VERTEX
  5
469
  8
0
 10
45.90399932861328
 20
-10.11400032043457
 30
2.295000076293945
 70
   192
  0
VERTEX
  5
46A
  8
0
 10
47.02799987792969
 20
-4.216000080108643
 30
8.755000114440918
 70
   192
  0
VERTEX
  5
46B
  8
0
 10
45.90399932861328
 20
-5.363999843597412
 30
9.291000366210938
 70
   192
  0
VERTEX
  5
46C
  8
0
 10
45.90399932861328
 20
-9.291000366210938
 30
5.363999843597412
 70
   192
  0
VERTEX
  5
46D
  8
0
 10
45.90399932861328
 20
-4.609000205993652
 30
9.494000434875488
 70
   192
  0
VERTEX
  5
46E
  8
0
 10
45.90399932861328
 20
4.609000205993652
 30
9.494000434875488
 70
   192
  0
VERTEX
  5
46F
  8
0
 10
45.90399932861328
 20
0.0
 30
10.72900009155273
 70
   192
  0
VERTEX
  5
470
  8
0
 10
47.02799987792969
 20
0.0
 30
9.717000007629395
 70
   192
  0
VERTEX
  5
471
  8
0
 10
47.02799987792969
 20
4.216000080108643
 30
8.755000114440918
 70
   192
  0
VERTEX
  5
472
  8
0
 10
47.02799987792969
 20
9.472999572753906
 30
2.161999940872192
 70
   192
  0
VERTEX
  5
473
  8
0
 10
45.90399932861328
 20
9.291000366210938
 30
5.363999843597412
 70
   192
  0
VERTEX
  5
474
  8
0
 10
45.90399932861328
 20
5.363999843597412
 30
9.291000366210938
 70
   192
  0
VERTEX
  5
475
  8
0
 10
45.90399932861328
 20
10.11400032043457
 30
2.295000076293945
 70
   192
  0
VERTEX
  5
476
  8
0
 10
47.02799987792969
 20
7.597000122070312
 30
-6.058000087738037
 70
   192
  0
VERTEX
  5
477
  8
0
 10
45.90399932861328
 20
9.291000366210938
 30
-5.363999843597412
 70
   192
  0
VERTEX
  5
478
  8
0
 10
45.90399932861328
 20
10.72900009155273
 30
0.0
 70
   192
  0
VERTEX
  5
479
  8
0
 10
45.90399932861328
 20
8.177000045776367
 30
-6.478000164031982
 70
   192
  0
VERTEX
  5
47A
  8
0
 10
45.90399932861328
 20
0.0
 30
-10.72900009155273
 70
   192
  0
VERTEX
  5
47B
  8
0
 10
45.90399932861328
 20
5.363999843597412
 30
-9.291000366210938
 70
   192
  0
VERTEX
  5
47C
  8
0
 62
     9
 10
0.0
 20
0.0
 30
0.0
 70
   128
 71
     3
 72
     2
 73
     1
  0
VERTEX
  5
47D
  8
0
 62
     9
 10
0.0
 20
0.0
 30
0.0
 70
   128
 71
     3
 72
     4
 73
     2
  0
VERTEX
  5
47E
  8
0
 62
     9
 10
0.0
 20
0.0
 30
0.0
 70
   128
 71
     6
 72
     5
 73
     2
  0
VERTEX
  5
47F
  8
0
 62
     9
 10
0.0
 20
0.0
 30
0.0
 70
   128
 71
     2
 72
     7
 73
     6
  0
VERTEX
  5
480
  8
0
 62
     9
 10
0.0
 20
0.0
 30
0.0
 70
   128
 71
     6
 72
     8
 73
     5
  0
VERTEX
  5
481
  8
0
 62
     9
 10
0.0
 20
0.0
 30
0.0
 70
   128
 71
    11
 72
    10
 73
     9
  0
VERTEX
  5
482
  8
0
 62
     9
 10
0.0
 20
0.0
 30
0.0
 70
   128
 71
    10
 72
    12
 73
     9
  0
VERTEX
  5
483
  8
0
 62
     9
 10
0.0
 20
0.0
 30
0.0
 70
   128
 71
     9
 72
     5
 73
    11
  0
VERTEX
  5
484
  8
0
 62
     9
 10
0.0
 20
0.0
 30
0.0
 70
   128
 71
    15
 72
    14
 73
    13
  0
VERTEX
  5
485
  8
0
 62
     9
 10
0.0
 20
0.0
 30
0.0
 70
   128
 71
     9
 72
    12
 73
    14
  0
VERTEX
  5
486
  8
0
 62
     9
 10
0.0
 20
0.0
 30
0.0
 70
   128
 71
    14
 72
    15
 73
     9
  0
VERTEX
  5
487
  8
0
 62
     9
 10
0.0
 20
0.0
 30
0.0
 70
   128
 71
    18
 72
    17
 73
    16
  0
VERTEX
  5
488
  8
0
 62
     9
 10
0.0
 20
0.0
 30
0.0
 70
   128
 71
    16
 72
    19
 73
    18
  0
VERTEX
  5
489
  8
0
 62
     9
 10
0.0
 20
0.0
 30
0.0
 70
   128
 71
    18
 72
    20
 73
    17
  0
VERTEX
  5
48A
  8
0
 62
     9
 10
0.0
 20
0.0
 30
0.0
 70
   128
 71
    23
 72
    22
 73
    21
  0
VERTEX
  5
48B
  8
0
 62
     9
 10
0.0
 20
0.0
 30
0.0
 70
   128
 71
    22
 72
    24
 73
    21
  0
VERTEX
  5
48C
  8
0
 62
     9
 10
0.0
 20
0.0
 30
0.0
 70
   128
 71
    21
 72
    17
 73
    23
  0
VERTEX
  5
48D
  8
0
 62
     9
 10
0.0
 20
0.0
 30
0.0
 70
   128
 71
    26
 72
    25
 73
     1
  0
VERTEX
  5
48E
  8
0
 62
     9
 10
0.0
 20
0.0
 30
0.0
 70
   128
 71
     1
 72
    21
 73
    26
  0
VERTEX
  5
48F
  8
0
 62
     9
 10
0.0
 20
0.0
 30
0.0
 70
   128
 71
    21
 72
    24
 73
    26
  0
VERTEX
  5
490
  8
0
 62
     9
 10
0.0
 20
0.0
 30
0.0
 70
   128
 71
    17
 72
    20
 73
    23
  0
VERTEX
  5
491
  8
0
 62
     9
 10
0.0
 20
0.0
 30
0.0
 70
   128
 71
    16
 72
    13
 73
    19
  0
VERTEX
  5
492
  8
0
 62
     9
 10
0.0
 20
0.0
 30
0.0
 70
   128
 71
    13
 72
    16
 73
    15
  0
VERTEX
  5
493
  8
0
 62
     9
 10
0.0
 20
0.0
 30
0.0
 70
   128
 71
     5
 72
     8
 73
    11
  0
VERTEX
  5
494
  8
0
 62
     9
 10
0.0
 20
0.0
 30
0.0
 70
   128
 71
     2
 72
     4
 73
     7
  0
VERTEX
  5
495
  8
0
 62
     9
 10
0.0
 20
0.0
 30
0.0
 70
   128
 71
     1
 72
    25
 73
     3
  0
SEQEND
  5
496
  8
0
 62
     9
  0
ENDBLK
  5
499
  8
0
  0
BLOCK
  8
0
  2
E3_NODE_7_
 70
     0
 10
0.0
 20
0.0
 30
0.0
  3
E3_NODE_7_
  1

  0
POLYLINE
  5
49B
  8
0
 62
     9
 66
     1
 10
0.0
 20
0.0
 30
0.0
 70
    64
 71
    54
 72
    78
  0
VERTEX
  5
49C
  8
0
 10
9.678999900817871
 20
0.0
 30
17.85899925231934
 70
   192
  0
VERTEX
  5
49D
  8
0
 10
9.678999900817871
 20
-8.930000305175781
 30
15.46599960327148
 70
   192
  0
VERTEX
  5
49E
  8
0
 10
21.01899909973145
 20
-6.216000080108643
 30
10.76599979400635
 70
   192
  0
VERTEX
  5
49F
  8
0
 10
9.678999900817871
 20
-15.46599960327148
 30
8.930000305175781
 70
   192
  0
VERTEX
  5
4A0
  8
0
 10
21.01899909973145
 20
-10.76599979400635
 30
6.216000080108643
 70
   192
  0
VERTEX
  5
4A1
  8
0
 10
9.678999900817871
 20
-17.85899925231934
 30
0.0
 70
   192
  0
VERTEX
  5
4A2
  8
0
 10
21.01899909973145
 20
-12.43099975585938
 30
0.0
 70
   192
  0
VERTEX
  5
4A3
  8
0
 10
9.678999900817871
 20
-15.46599960327148
 30
-8.930000305175781
 70
   192
  0
VERTEX
  5
4A4
  8
0
 10
21.01899909973145
 20
-10.76599979400635
 30
-6.216000080108643
 70
   192
  0
VERTEX
  5
4A5
  8
0
 10
9.678999900817871
 20
-8.930000305175781
 30
-15.46599960327148
 70
   192
  0
VERTEX
  5
4A6
  8
0
 10
21.01899909973145
 20
-6.216000080108643
 30
-10.76599979400635
 70
   192
  0
VERTEX
  5
4A7
  8
0
 10
9.678999900817871
 20
0.0
 30
-17.85899925231934
 70
   192
  0
VERTEX
  5
4A8
  8
0
 10
21.01899909973145
 20
0.0
 30
-12.43099975585938
 70
   192
  0
VERTEX
  5
4A9
  8
0
 10
9.678999900817871
 20
8.930000305175781
 30
-15.46599960327148
 70
   192
  0
VERTEX
  5
4AA
  8
0
 10
21.01899909973145
 20
6.216000080108643
 30
-10.76599979400635
 70
   192
  0
VERTEX
  5
4AB
  8
0
 10
9.678999900817871
 20
15.46599960327148
 30
-8.930000305175781
 70
   192
  0
VERTEX
  5
4AC
  8
0
 10
21.01899909973145
 20
10.76599979400635
 30
-6.216000080108643
 70
   192
  0
VERTEX
  5
4AD
  8
0
 10
9.678999900817871
 20
17.85899925231934
 30
0.0
 70
   192
  0
VERTEX
  5
4AE
  8
0
 10
21.01899909973145
 20
12.43099975585938
 30
0.0
 70
   192
  0
VERTEX
  5
4AF
  8
0
 10
9.678999900817871
 20
15.46599960327148
 30
8.930000305175781
 70
   192
  0
VERTEX
  5
4B0
  8
0
 10
21.01899909973145
 20
10.76599979400635
 30
6.216000080108643
 70
   192
  0
VERTEX
  5
4B1
  8
0
 10
9.678999900817871
 20
8.930000305175781
 30
15.46599960327148
 70
   192
  0
VERTEX
  5
4B2
  8
0
 10
21.01899909973145
 20
6.216000080108643
 30
10.76599979400635
 70
   192
  0
VERTEX
  5
4B3
  8
0
 10
21.01899909973145
 20
0.0
 30
12.43099975585938
 70
   192
  0
VERTEX
  5
4B4
  8
0
 10
33.35400009155273
 20
-5.001999855041504
 30
8.663000106811523
 70
   192
  0
VERTEX
  5
4B5
  8
0
 10
33.35400009155273
 20
-8.663000106811523
 30
5.001999855041504
 70
   192
  0
VERTEX
  5
4B6
  8
0
 10
33.35400009155273
 20
-10.00300025939941
 30
0.0
 70
   192
  0
VERTEX
  5
4B7
  8
0
 10
33.35400009155273
 20
-8.663000106811523
 30
-5.001999855041504
 70
   192
  0
VERTEX
  5
4B8
  8
0
 10
33.35400009155273
 20
-5.001999855041504
 30
-8.663000106811523
 70
   192
  0
VERTEX
  5
4B9
  8
0
 10
33.35400009155273
 20
0.0
 30
-10.00300025939941
 70
   192
  0
VERTEX
  5
4BA
  8
0
 10
33.35400009155273
 20
5.001999855041504
 30
-8.663000106811523
 70
   192
  0
VERTEX
  5
4BB
  8
0
 10
33.35400009155273
 20
8.663000106811523
 30
-5.001999855041504
 70
   192
  0
VERTEX
  5
4BC
  8
0
 10
33.35400009155273
 20
10.00300025939941
 30
0.0
 70
   192
  0
VERTEX
  5
4BD
  8
0
 10
33.35400009155273
 20
8.663000106811523
 30
5.001999855041504
 70
   192
  0
VERTEX
  5
4BE
  8
0
 10
33.35400009155273
 20
5.001999855041504
 30
8.663000106811523
 70
   192
  0
VERTEX
  5
4BF
  8
0
 10
33.35400009155273
 20
0.0
 30
10.00300025939941
 70
   192
  0
VERTEX
  5
4C0
  8
0
 10
45.90399932861328
 20
-4.609000205993652
 30
9.494000434875488
 70
   192
  0
VERTEX
  5
4C1
  8
0
 10
45.90399932861328
 20
-5.363999843597412
 30
9.291000366210938
 70
   192
  0
VERTEX
  5
4C2
  8
0
 10
45.90399932861328
 20
-9.291000366210938
 30
5.363999843597412
 70
   192
  0
VERTEX
  5
4C3
  8
0
 10
45.90399932861328
 20
-10.11400032043457
 30
2.295000076293945
 70
   192
  0
VERTEX
  5
4C4
  8
0
 10
45.90399932861328
 20
-10.72900009155273
 30
0.0
 70
   192
  0
VERTEX
  5
4C5
  8
0
 10
45.90399932861328
 20
-5.363999843597412
 30
-9.291000366210938
 70
   192
  0
VERTEX
  5
4C6
  8
0
 10
45.90399932861328
 20
-8.177000045776367
 30
-6.478000164031982
 70
   192
  0
VERTEX
  5
4C7
  8
0
 10
45.90399932861328
 20
0.0
 30
-10.72900009155273
 70
   192
  0
VERTEX
  5
4C8
  8
0
 10
45.90399932861328
 20
8.177000045776367
 30
-6.478000164031982
 70
   192
  0
VERTEX
  5
4C9
  8
0
 10
45.90399932861328
 20
9.291000366210938
 30
-5.363999843597412
 70
   192
  0
VERTEX
  5
4CA
  8
0
 10
45.90399932861328
 20
9.291000366210938
 30
5.363999843597412
 70
   192
  0
VERTEX
  5
4CB
  8
0
 10
45.90399932861328
 20
10.11400032043457
 30
2.295000076293945
 70
   192
  0
VERTEX
  5
4CC
  8
0
 10
45.90399932861328
 20
5.363999843597412
 30
9.291000366210938
 70
   192
  0
VERTEX
  5
4CD
  8
0
 10
45.90399932861328
 20
0.0
 30
10.72900009155273
 70
   192
  0
VERTEX
  5
4CE
  8
0
 10
45.90399932861328
 20
4.609000205993652
 30
9.494000434875488
 70
   192
  0
VERTEX
  5
4CF
  8
0
 10
45.90399932861328
 20
10.72900009155273
 30
0.0
 70
   192
  0
VERTEX
  5
4D0
  8
0
 10
45.90399932861328
 20
5.363999843597412
 30
-9.291000366210938
 70
   192
  0
VERTEX
  5
4D1
  8
0
 10
45.90399932861328
 20
-9.291000366210938
 30
-5.363999843597412
 70
   192
  0
VERTEX
  5
4D2
  8
0
 62
     9
 10
0.0
 20
0.0
 30
0.0
 70
   128
 71
     3
 72
     2
 73
     1
  0
VERTEX
  5
4D3
  8
0
 62
     9
 10
0.0
 20
0.0
 30
0.0
 70
   128
 71
     3
 72
     5
 73
     4
  0
VERTEX
  5
4D4
  8
0
 62
     9
 10
0.0
 20
0.0
 30
0.0
 70
   128
 71
     7
 72
     6
 73
     4
  0
VERTEX
  5
4D5
  8
0
 62
     9
 10
0.0
 20
0.0
 30
0.0
 70
   128
 71
     9
 72
     8
 73
     6
  0
VERTEX
  5
4D6
  8
0
 62
     9
 10
0.0
 20
0.0
 30
0.0
 70
   128
 71
    11
 72
    10
 73
     8
  0
VERTEX
  5
4D7
  8
0
 62
     9
 10
0.0
 20
0.0
 30
0.0
 70
   128
 71
    11
 72
    13
 73
    12
  0
VERTEX
  5
4D8
  8
0
 62
     9
 10
0.0
 20
0.0
 30
0.0
 70
   128
 71
    13
 72
    15
 73
    14
  0
VERTEX
  5
4D9
  8
0
 62
     9
 10
0.0
 20
0.0
 30
0.0
 70
   128
 71
    17
 72
    16
 73
    14
  0
VERTEX
  5
4DA
  8
0
 62
     9
 10
0.0
 20
0.0
 30
0.0
 70
   128
 71
    17
 72
    19
 73
    18
  0
VERTEX
  5
4DB
  8
0
 62
     9
 10
0.0
 20
0.0
 30
0.0
 70
   128
 71
    21
 72
    20
 73
    18
  0
VERTEX
  5
4DC
  8
0
 62
     9
 10
0.0
 20
0.0
 30
0.0
 70
   128
 71
    21
 72
    23
 73
    22
  0
VERTEX
  5
4DD
  8
0
 62
     9
 10
0.0
 20
0.0
 30
0.0
 70
   128
 71
    24
 72
     1
 73
    22
  0
VERTEX
  5
4DE
  8
0
 62
     9
 10
0.0
 20
0.0
 30
0.0
 70
   128
 71
    25
 72
     3
 73
    24
  0
VERTEX
  5
4DF
  8
0
 62
     9
 10
0.0
 20
0.0
 30
0.0
 70
   128
 71
    26
 72
     5
 73
     3
  0
VERTEX
  5
4E0
  8
0
 62
     9
 10
0.0
 20
0.0
 30
0.0
 70
   128
 71
    27
 72
     7
 73
     5
  0
VERTEX
  5
4E1
  8
0
 62
     9
 10
0.0
 20
0.0
 30
0.0
 70
   128
 71
    28
 72
     9
 73
     7
  0
VERTEX
  5
4E2
  8
0
 62
     9
 10
0.0
 20
0.0
 30
0.0
 70
   128
 71
    29
 72
    11
 73
     9
  0
VERTEX
  5
4E3
  8
0
 62
     9
 10
0.0
 20
0.0
 30
0.0
 70
   128
 71
    30
 72
    13
 73
    11
  0
VERTEX
  5
4E4
  8
0
 62
     9
 10
0.0
 20
0.0
 30
0.0
 70
   128
 71
    31
 72
    15
 73
    13
  0
VERTEX
  5
4E5
  8
0
 62
     9
 10
0.0
 20
0.0
 30
0.0
 70
   128
 71
    32
 72
    17
 73
    15
  0
VERTEX
  5
4E6
  8
0
 62
     9
 10
0.0
 20
0.0
 30
0.0
 70
   128
 71
    33
 72
    19
 73
    17
  0
VERTEX
  5
4E7
  8
0
 62
     9
 10
0.0
 20
0.0
 30
0.0
 70
   128
 71
    34
 72
    21
 73
    19
  0
VERTEX
  5
4E8
  8
0
 62
     9
 10
0.0
 20
0.0
 30
0.0
 70
   128
 71
    35
 72
    23
 73
    21
  0
VERTEX
  5
4E9
  8
0
 62
     9
 10
0.0
 20
0.0
 30
0.0
 70
   128
 71
    36
 72
    24
 73
    23
  0
VERTEX
  5
4EA
  8
0
 62
     9
 10
0.0
 20
0.0
 30
0.0
 70
   128
 71
    37
 72
    25
 73
    36
  0
VERTEX
  5
4EB
  8
0
 62
     9
 10
0.0
 20
0.0
 30
0.0
 70
   128
 71
    37
 72
    38
 73
    25
  0
VERTEX
  5
4EC
  8
0
 62
     9
 10
0.0
 20
0.0
 30
0.0
 70
   128
 71
    25
 72
    38
 73
    39
  0
VERTEX
  5
4ED
  8
0
 62
     9
 10
0.0
 20
0.0
 30
0.0
 70
   128
 71
    40
 72
    27
 73
    26
  0
VERTEX
  5
4EE
  8
0
 62
     9
 10
0.0
 20
0.0
 30
0.0
 70
   128
 71
    40
 72
    41
 73
    27
  0
VERTEX
  5
4EF
  8
0
 62
     9
 10
0.0
 20
0.0
 30
0.0
 70
   128
 71
    28
 72
    27
 73
    41
  0
VERTEX
  5
4F0
  8
0
 62
     9
 10
0.0
 20
0.0
 30
0.0
 70
   128
 71
    43
 72
    42
 73
    29
  0
VERTEX
  5
4F1
  8
0
 62
     9
 10
0.0
 20
0.0
 30
0.0
 70
   128
 71
    29
 72
    28
 73
    43
  0
VERTEX
  5
4F2
  8
0
 62
     9
 10
0.0
 20
0.0
 30
0.0
 70
   128
 71
    30
 72
    29
 73
    42
  0
VERTEX
  5
4F3
  8
0
 62
     9
 10
0.0
 20
0.0
 30
0.0
 70
   128
 71
    31
 72
    30
 73
    44
  0
VERTEX
  5
4F4
  8
0
 62
     9
 10
0.0
 20
0.0
 30
0.0
 70
   128
 71
    45
 72
    32
 73
    31
  0
VERTEX
  5
4F5
  8
0
 62
     9
 10
0.0
 20
0.0
 30
0.0
 70
   128
 71
    45
 72
    46
 73
    32
  0
VERTEX
  5
4F6
  8
0
 62
     9
 10
0.0
 20
0.0
 30
0.0
 70
   128
 71
    33
 72
    32
 73
    46
  0
VERTEX
  5
4F7
  8
0
 62
     9
 10
0.0
 20
0.0
 30
0.0
 70
   128
 71
    48
 72
    47
 73
    34
  0
VERTEX
  5
4F8
  8
0
 62
     9
 10
0.0
 20
0.0
 30
0.0
 70
   128
 71
    34
 72
    33
 73
    48
  0
VERTEX
  5
4F9
  8
0
 62
     9
 10
0.0
 20
0.0
 30
0.0
 70
   128
 71
    34
 72
    47
 73
    49
  0
VERTEX
  5
4FA
  8
0
 62
     9
 10
0.0
 20
0.0
 30
0.0
 70
   128
 71
    51
 72
    50
 73
    36
  0
VERTEX
  5
4FB
  8
0
 62
     9
 10
0.0
 20
0.0
 30
0.0
 70
   128
 71
    36
 72
    35
 73
    51
  0
VERTEX
  5
4FC
  8
0
 62
     9
 10
0.0
 20
0.0
 30
0.0
 70
   128
 71
    35
 72
    49
 73
    51
  0
VERTEX
  5
4FD
  8
0
 62
     9
 10
0.0
 20
0.0
 30
0.0
 70
   128
 71
    49
 72
    35
 73
    34
  0
VERTEX
  5
4FE
  8
0
 62
     9
 10
0.0
 20
0.0
 30
0.0
 70
   128
 71
    33
 72
    52
 73
    48
  0
VERTEX
  5
4FF
  8
0
 62
     9
 10
0.0
 20
0.0
 30
0.0
 70
   128
 71
    46
 72
    52
 73
    33
  0
VERTEX
  5
500
  8
0
 62
     9
 10
0.0
 20
0.0
 30
0.0
 70
   128
 71
    31
 72
    53
 73
    45
  0
VERTEX
  5
501
  8
0
 62
     9
 10
0.0
 20
0.0
 30
0.0
 70
   128
 71
    44
 72
    53
 73
    31
  0
VERTEX
  5
502
  8
0
 62
     9
 10
0.0
 20
0.0
 30
0.0
 70
   128
 71
    42
 72
    44
 73
    30
  0
VERTEX
  5
503
  8
0
 62
     9
 10
0.0
 20
0.0
 30
0.0
 70
   128
 71
    28
 72
    54
 73
    43
  0
VERTEX
  5
504
  8
0
 62
     9
 10
0.0
 20
0.0
 30
0.0
 70
   128
 71
    41
 72
    54
 73
    28
  0
VERTEX
  5
505
  8
0
 62
     9
 10
0.0
 20
0.0
 30
0.0
 70
   128
 71
    26
 72
    39
 73
    40
  0
VERTEX
  5
506
  8
0
 62
     9
 10
0.0
 20
0.0
 30
0.0
 70
   128
 71
    39
 72
    26
 73
    25
  0
VERTEX
  5
507
  8
0
 62
     9
 10
0.0
 20
0.0
 30
0.0
 70
   128
 71
    36
 72
    50
 73
    37
  0
VERTEX
  5
508
  8
0
 62
     9
 10
0.0
 20
0.0
 30
0.0
 70
   128
 71
    23
 72
    35
 73
    36
  0
VERTEX
  5
509
  8
0
 62
     9
 10
0.0
 20
0.0
 30
0.0
 70
   128
 71
    21
 72
    34
 73
    35
  0
VERTEX
  5
50A
  8
0
 62
     9
 10
0.0
 20
0.0
 30
0.0
 70
   128
 71
    19
 72
    33
 73
    34
  0
VERTEX
  5
50B
  8
0
 62
     9
 10
0.0
 20
0.0
 30
0.0
 70
   128
 71
    17
 72
    32
 73
    33
  0
VERTEX
  5
50C
  8
0
 62
     9
 10
0.0
 20
0.0
 30
0.0
 70
   128
 71
    15
 72
    31
 73
    32
  0
VERTEX
  5
50D
  8
0
 62
     9
 10
0.0
 20
0.0
 30
0.0
 70
   128
 71
    13
 72
    30
 73
    31
  0
VERTEX
  5
50E
  8
0
 62
     9
 10
0.0
 20
0.0
 30
0.0
 70
   128
 71
    11
 72
    29
 73
    30
  0
VERTEX
  5
50F
  8
0
 62
     9
 10
0.0
 20
0.0
 30
0.0
 70
   128
 71
     9
 72
    28
 73
    29
  0
VERTEX
  5
510
  8
0
 62
     9
 10
0.0
 20
0.0
 30
0.0
 70
   128
 71
     7
 72
    27
 73
    28
  0
VERTEX
  5
511
  8
0
 62
     9
 10
0.0
 20
0.0
 30
0.0
 70
   128
 71
     5
 72
    26
 73
    27
  0
VERTEX
  5
512
  8
0
 62
     9
 10
0.0
 20
0.0
 30
0.0
 70
   128
 71
     3
 72
    25
 73
    26
  0
VERTEX
  5
513
  8
0
 62
     9
 10
0.0
 20
0.0
 30
0.0
 70
   128
 71
    24
 72
    36
 73
    25
  0
VERTEX
  5
514
  8
0
 62
     9
 10
0.0
 20
0.0
 30
0.0
 70
   128
 71
    22
 72
    23
 73
    24
  0
VERTEX
  5
515
  8
0
 62
     9
 10
0.0
 20
0.0
 30
0.0
 70
   128
 71
    22
 72
    20
 73
    21
  0
VERTEX
  5
516
  8
0
 62
     9
 10
0.0
 20
0.0
 30
0.0
 70
   128
 71
    18
 72
    19
 73
    21
  0
VERTEX
  5
517
  8
0
 62
     9
 10
0.0
 20
0.0
 30
0.0
 70
   128
 71
    18
 72
    16
 73
    17
  0
VERTEX
  5
518
  8
0
 62
     9
 10
0.0
 20
0.0
 30
0.0
 70
   128
 71
    14
 72
    15
 73
    17
  0
VERTEX
  5
519
  8
0
 62
     9
 10
0.0
 20
0.0
 30
0.0
 70
   128
 71
    14
 72
    12
 73
    13
  0
VERTEX
  5
51A
  8
0
 62
     9
 10
0.0
 20
0.0
 30
0.0
 70
   128
 71
    12
 72
    10
 73
    11
  0
VERTEX
  5
51B
  8
0
 62
     9
 10
0.0
 20
0.0
 30
0.0
 70
   128
 71
     8
 72
     9
 73
    11
  0
VERTEX
  5
51C
  8
0
 62
     9
 10
0.0
 20
0.0
 30
0.0
 70
   128
 71
     6
 72
     7
 73
     9
  0
VERTEX
  5
51D
  8
0
 62
     9
 10
0.0
 20
0.0
 30
0.0
 70
   128
 71
     4
 72
     5
 73
     7
  0
VERTEX
  5
51E
  8
0
 62
     9
 10
0.0
 20
0.0
 30
0.0
 70
   128
 71
     4
 72
     2
 73
     3
  0
VERTEX
  5
51F
  8
0
 62
     9
 10
0.0
 20
0.0
 30
0.0
 70
   128
 71
     1
 72
    24
 73
     3
  0
SEQEND
  5
520
  8
0
 62
     9
  0
ENDBLK
  5
523
  8
0
  0
BLOCK
  8
0
  2
E3_NODE_8_
 70
     0
 10
0.0
 20
0.0
 30
0.0
  3
E3_NODE_8_
  1

  0
POLYLINE
  5
525
  8
0
 62
     9
 66
     1
 10
0.0
 20
0.0
 30
0.0
 70
    64
 71
    36
 72
    48
  0
VERTEX
  5
526
  8
0
 10
8.96500015258789
 20
-8.942999839782715
 30
15.48900032043457
 70
   192
  0
VERTEX
  5
527
  8
0
 10
8.96500015258789
 20
0.0
 30
17.88500022888184
 70
   192
  0
VERTEX
  5
528
  8
0
 10
8.600000381469727
 20
0.0
 30
17.27099990844727
 70
   192
  0
VERTEX
  5
529
  8
0
 10
8.96500015258789
 20
-15.48900032043457
 30
8.942999839782715
 70
   192
  0
VERTEX
  5
52A
  8
0
 10
8.600000381469727
 20
-8.635000228881836
 30
14.95699977874756
 70
   192
  0
VERTEX
  5
52B
  8
0
 10
8.96500015258789
 20
-17.88500022888184
 30
0.0
 70
   192
  0
VERTEX
  5
52C
  8
0
 10
8.600000381469727
 20
-14.95699977874756
 30
8.635000228881836
 70
   192
  0
VERTEX
  5
52D
  8
0
 10
8.96500015258789
 20
-15.48900032043457
 30
-8.942999839782715
 70
   192
  0
VERTEX
  5
52E
  8
0
 10
8.600000381469727
 20
-17.27099990844727
 30
0.0
 70
   192
  0
VERTEX
  5
52F
  8
0
 10
8.96500015258789
 20
-8.942999839782715
 30
-15.48900032043457
 70
   192
  0
VERTEX
  5
530
  8
0
 10
8.600000381469727
 20
-14.95699977874756
 30
-8.635000228881836
 70
   192
  0
VERTEX
  5
531
  8
0
 10
8.96500015258789
 20
0.0
 30
-17.88500022888184
 70
   192
  0
VERTEX
  5
532
  8
0
 10
8.600000381469727
 20
-8.635000228881836
 30
-14.95699977874756
 70
   192
  0
VERTEX
  5
533
  8
0
 10
8.96500015258789
 20
8.942999839782715
 30
-15.48900032043457
 70
   192
  0
VERTEX
  5
534
  8
0
 10
8.600000381469727
 20
0.0
 30
-17.27099990844727
 70
   192
  0
VERTEX
  5
535
  8
0
 10
8.600000381469727
 20
8.635000228881836
 30
-14.95699977874756
 70
   192
  0
VERTEX
  5
536
  8
0
 10
8.600000381469727
 20
14.95699977874756
 30
-8.635000228881836
 70
   192
  0
VERTEX
  5
537
  8
0
 10
8.96500015258789
 20
17.88500022888184
 30
0.0
 70
   192
  0
VERTEX
  5
538
  8
0
 10
8.96500015258789
 20
15.48900032043457
 30
-8.942999839782715
 70
   192
  0
VERTEX
  5
539
  8
0
 10
8.600000381469727
 20
17.27099990844727
 30
0.0
 70
   192
  0
VERTEX
  5
53A
  8
0
 10
8.600000381469727
 20
14.95699977874756
 30
8.635000228881836
 70
   192
  0
VERTEX
  5
53B
  8
0
 10
8.96500015258789
 20
15.48900032043457
 30
8.942999839782715
 70
   192
  0
VERTEX
  5
53C
  8
0
 10
8.600000381469727
 20
8.635000228881836
 30
14.95699977874756
 70
   192
  0
VERTEX
  5
53D
  8
0
 10
8.96500015258789
 20
8.942999839782715
 30
15.48900032043457
 70
   192
  0
VERTEX
  5
53E
  8
0
 10
9.678999900817871
 20
-8.930000305175781
 30
15.46599960327148
 70
   192
  0
VERTEX
  5
53F
  8
0
 10
9.678999900817871
 20
0.0
 30
17.85899925231934
 70
   192
  0
VERTEX
  5
540
  8
0
 10
9.678999900817871
 20
-15.46599960327148
 30
8.930000305175781
 70
   192
  0
VERTEX
  5
541
  8
0
 10
9.678999900817871
 20
-17.85899925231934
 30
0.0
 70
   192
  0
VERTEX
  5
542
  8
0
 10
9.678999900817871
 20
-15.46599960327148
 30
-8.930000305175781
 70
   192
  0
VERTEX
  5
543
  8
0
 10
9.678999900817871
 20
-8.930000305175781
 30
-15.46599960327148
 70
   192
  0
VERTEX
  5
544
  8
0
 10
9.678999900817871
 20
0.0
 30
-17.85899925231934
 70
   192
  0
VERTEX
  5
545
  8
0
 10
9.678999900817871
 20
8.930000305175781
 30
-15.46599960327148
 70
   192
  0
VERTEX
  5
546
  8
0
 10
9.678999900817871
 20
15.46599960327148
 30
-8.930000305175781
 70
   192
  0
VERTEX
  5
547
  8
0
 10
9.678999900817871
 20
17.85899925231934
 30
0.0
 70
   192
  0
VERTEX
  5
548
  8
0
 10
9.678999900817871
 20
15.46599960327148
 30
8.930000305175781
 70
   192
  0
VERTEX
  5
549
  8
0
 10
9.678999900817871
 20
8.930000305175781
 30
15.46599960327148
 70
   192
  0
VERTEX
  5
54A
  8
0
 62
     9
 10
0.0
 20
0.0
 30
0.0
 70
   128
 71
     3
 72
     2
 73
     1
  0
VERTEX
  5
54B
  8
0
 62
     9
 10
0.0
 20
0.0
 30
0.0
 70
   128
 71
     5
 72
     1
 73
     4
  0
VERTEX
  5
54C
  8
0
 62
     9
 10
0.0
 20
0.0
 30
0.0
 70
   128
 71
     7
 72
     4
 73
     6
  0
VERTEX
  5
54D
  8
0
 62
     9
 10
0.0
 20
0.0
 30
0.0
 70
   128
 71
     9
 72
     6
 73
     8
  0
VERTEX
  5
54E
  8
0
 62
     9
 10
0.0
 20
0.0
 30
0.0
 70
   128
 71
    11
 72
     8
 73
    10
  0
VERTEX
  5
54F
  8
0
 62
     9
 10
0.0
 20
0.0
 30
0.0
 70
   128
 71
    13
 72
    10
 73
    12
  0
VERTEX
  5
550
  8
0
 62
     9
 10
0.0
 20
0.0
 30
0.0
 70
   128
 71
    15
 72
    12
 73
    14
  0
VERTEX
  5
551
  8
0
 62
     9
 10
0.0
 20
0.0
 30
0.0
 70
   128
 71
    17
 72
    16
 73
    14
  0
VERTEX
  5
552
  8
0
 62
     9
 10
0.0
 20
0.0
 30
0.0
 70
   128
 71
    17
 72
    19
 73
    18
  0
VERTEX
  5
553
  8
0
 62
     9
 10
0.0
 20
0.0
 30
0.0
 70
   128
 71
    21
 72
    20
 73
    18
  0
VERTEX
  5
554
  8
0
 62
     9
 10
0.0
 20
0.0
 30
0.0
 70
   128
 71
    23
 72
    21
 73
    22
  0
VERTEX
  5
555
  8
0
 62
     9
 10
0.0
 20
0.0
 30
0.0
 70
   128
 71
     3
 72
    23
 73
    24
  0
VERTEX
  5
556
  8
0
 62
     9
 10
0.0
 20
0.0
 30
0.0
 70
   128
 71
    26
 72
    25
 73
     1
  0
VERTEX
  5
557
  8
0
 62
     9
 10
0.0
 20
0.0
 30
0.0
 70
   128
 71
    25
 72
    27
 73
     4
  0
VERTEX
  5
558
  8
0
 62
     9
 10
0.0
 20
0.0
 30
0.0
 70
   128
 71
    27
 72
    28
 73
     6
  0
VERTEX
  5
559
  8
0
 62
     9
 10
0.0
 20
0.0
 30
0.0
 70
   128
 71
    29
 72
     8
 73
     6
  0
VERTEX
  5
55A
  8
0
 62
     9
 10
0.0
 20
0.0
 30
0.0
 70
   128
 71
    29
 72
    30
 73
    10
  0
VERTEX
  5
55B
  8
0
 62
     9
 10
0.0
 20
0.0
 30
0.0
 70
   128
 71
    30
 72
    31
 73
    12
  0
VERTEX
  5
55C
  8
0
 62
     9
 10
0.0
 20
0.0
 30
0.0
 70
   128
 71
    31
 72
    32
 73
    14
  0
VERTEX
  5
55D
  8
0
 62
     9
 10
0.0
 20
0.0
 30
0.0
 70
   128
 71
    32
 72
    33
 73
    19
  0
VERTEX
  5
55E
  8
0
 62
     9
 10
0.0
 20
0.0
 30
0.0
 70
   128
 71
    34
 72
    18
 73
    19
  0
VERTEX
  5
55F
  8
0
 62
     9
 10
0.0
 20
0.0
 30
0.0
 70
   128
 71
    34
 72
    35
 73
    22
  0
VERTEX
  5
560
  8
0
 62
     9
 10
0.0
 20
0.0
 30
0.0
 70
   128
 71
    35
 72
    36
 73
    24
  0
VERTEX
  5
561
  8
0
 62
     9
 10
0.0
 20
0.0
 30
0.0
 70
   128
 71
    26
 72
     2
 73
    24
  0
VERTEX
  5
562
  8
0
 62
     9
 10
0.0
 20
0.0
 30
0.0
 70
   128
 71
    24
 72
    36
 73
    26
  0
VERTEX
  5
563
  8
0
 62
     9
 10
0.0
 20
0.0
 30
0.0
 70
   128
 71
    24
 72
    22
 73
    35
  0
VERTEX
  5
564
  8
0
 62
     9
 10
0.0
 20
0.0
 30
0.0
 70
   128
 71
    22
 72
    18
 73
    34
  0
VERTEX
  5
565
  8
0
 62
     9
 10
0.0
 20
0.0
 30
0.0
 70
   128
 71
    19
 72
    33
 73
    34
  0
VERTEX
  5
566
  8
0
 62
     9
 10
0.0
 20
0.0
 30
0.0
 70
   128
 71
    19
 72
    14
 73
    32
  0
VERTEX
  5
567
  8
0
 62
     9
 10
0.0
 20
0.0
 30
0.0
 70
   128
 71
    14
 72
    12
 73
    31
  0
VERTEX
  5
568
  8
0
 62
     9
 10
0.0
 20
0.0
 30
0.0
 70
   128
 71
    12
 72
    10
 73
    30
  0
VERTEX
  5
569
  8
0
 62
     9
 10
0.0
 20
0.0
 30
0.0
 70
   128
 71
    10
 72
     8
 73
    29
  0
VERTEX
  5
56A
  8
0
 62
     9
 10
0.0
 20
0.0
 30
0.0
 70
   128
 71
     6
 72
    28
 73
    29
  0
VERTEX
  5
56B
  8
0
 62
     9
 10
0.0
 20
0.0
 30
0.0
 70
   128
 71
     6
 72
     4
 73
    27
  0
VERTEX
  5
56C
  8
0
 62
     9
 10
0.0
 20
0.0
 30
0.0
 70
   128
 71
     4
 72
     1
 73
    25
  0
VERTEX
  5
56D
  8
0
 62
     9
 10
0.0
 20
0.0
 30
0.0
 70
   128
 71
     1
 72
     2
 73
    26
  0
VERTEX
  5
56E
  8
0
 62
     9
 10
0.0
 20
0.0
 30
0.0
 70
   128
 71
    24
 72
     2
 73
     3
  0
VERTEX
  5
56F
  8
0
 62
     9
 10
0.0
 20
0.0
 30
0.0
 70
   128
 71
    22
 72
    24
 73
    23
  0
VERTEX
  5
570
  8
0
 62
     9
 10
0.0
 20
0.0
 30
0.0
 70
   128
 71
    18
 72
    22
 73
    21
  0
VERTEX
  5
571
  8
0
 62
     9
 10
0.0
 20
0.0
 30
0.0
 70
   128
 71
    18
 72
    20
 73
    17
  0
VERTEX
  5
572
  8
0
 62
     9
 10
0.0
 20
0.0
 30
0.0
 70
   128
 71
    14
 72
    19
 73
    17
  0
VERTEX
  5
573
  8
0
 62
     9
 10
0.0
 20
0.0
 30
0.0
 70
   128
 71
    14
 72
    16
 73
    15
  0
VERTEX
  5
574
  8
0
 62
     9
 10
0.0
 20
0.0
 30
0.0
 70
   128
 71
    12
 72
    15
 73
    13
  0
VERTEX
  5
575
  8
0
 62
     9
 10
0.0
 20
0.0
 30
0.0
 70
   128
 71
    10
 72
    13
 73
    11
  0
VERTEX
  5
576
  8
0
 62
     9
 10
0.0
 20
0.0
 30
0.0
 70
   128
 71
     8
 72
    11
 73
     9
  0
VERTEX
  5
577
  8
0
 62
     9
 10
0.0
 20
0.0
 30
0.0
 70
   128
 71
     6
 72
     9
 73
     7
  0
VERTEX
  5
578
  8
0
 62
     9
 10
0.0
 20
0.0
 30
0.0
 70
   128
 71
     4
 72
     7
 73
     5
  0
VERTEX
  5
579
  8
0
 62
     9
 10
0.0
 20
0.0
 30
0.0
 70
   128
 71
     1
 72
     5
 73
     3
  0
SEQEND
  5
57A
  8
0
 62
     9
  0
ENDBLK
  5
57D
  8
0
  0
BLOCK
  8
0
  2
E3_NODE_9_
 70
     0
 10
0.0
 20
0.0
 30
0.0
  3
E3_NODE_9_
  1

  0
POLYLINE
  5
57F
  8
0
 62
     9
 66
     1
 10
0.0
 20
0.0
 30
0.0
 70
    64
 71
    41
 72
    70
  0
VERTEX
  5
580
  8
0
 10
47.02799987792969
 20
0.0
 30
9.717000007629395
 70
   192
  0
VERTEX
  5
581
  8
0
 10
47.02799987792969
 20
-5.711999893188477
 30
7.861000061035156
 70
   192
  0
VERTEX
  5
582
  8
0
 10
53.42499923706055
 20
-7.296000003814697
 30
10.04199981689453
 70
   192
  0
VERTEX
  5
583
  8
0
 10
53.42499923706055
 20
0.0
 30
12.41300010681152
 70
   192
  0
VERTEX
  5
584
  8
0
 10
47.02799987792969
 20
-9.241000175476074
 30
3.003000020980835
 70
   192
  0
VERTEX
  5
585
  8
0
 10
53.42499923706055
 20
-11.80599975585938
 30
3.835999965667725
 70
   192
  0
VERTEX
  5
586
  8
0
 10
47.02799987792969
 20
-9.241000175476074
 30
-3.003000020980835
 70
   192
  0
VERTEX
  5
587
  8
0
 10
53.42499923706055
 20
-11.80599975585938
 30
-3.835999965667725
 70
   192
  0
VERTEX
  5
588
  8
0
 10
47.02799987792969
 20
-5.711999893188477
 30
-7.861000061035156
 70
   192
  0
VERTEX
  5
589
  8
0
 10
53.42499923706055
 20
-7.296000003814697
 30
-10.04199981689453
 70
   192
  0
VERTEX
  5
58A
  8
0
 10
47.02799987792969
 20
0.0
 30
-9.717000007629395
 70
   192
  0
VERTEX
  5
58B
  8
0
 10
53.42499923706055
 20
0.0
 30
-12.41300010681152
 70
   192
  0
VERTEX
  5
58C
  8
0
 10
47.02799987792969
 20
5.711999893188477
 30
-7.861000061035156
 70
   192
  0
VERTEX
  5
58D
  8
0
 10
53.42499923706055
 20
7.296000003814697
 30
-10.04199981689453
 70
   192
  0
VERTEX
  5
58E
  8
0
 10
47.02799987792969
 20
9.241000175476074
 30
-3.003000020980835
 70
   192
  0
VERTEX
  5
58F
  8
0
 10
53.42499923706055
 20
11.80599975585938
 30
-3.835999965667725
 70
   192
  0
VERTEX
  5
590
  8
0
 10
47.02799987792969
 20
9.241000175476074
 30
3.003000020980835
 70
   192
  0
VERTEX
  5
591
  8
0
 10
53.42499923706055
 20
11.80599975585938
 30
3.835999965667725
 70
   192
  0
VERTEX
  5
592
  8
0
 10
47.02799987792969
 20
5.711999893188477
 30
7.861000061035156
 70
   192
  0
VERTEX
  5
593
  8
0
 10
53.42499923706055
 20
7.296000003814697
 30
10.04199981689453
 70
   192
  0
VERTEX
  5
594
  8
0
 10
60.27399826049805
 20
-6.63100004196167
 30
9.12600040435791
 70
   192
  0
VERTEX
  5
595
  8
0
 10
60.27399826049805
 20
0.0
 30
11.2810001373291
 70
   192
  0
VERTEX
  5
596
  8
0
 10
60.27399826049805
 20
-10.72900009155273
 30
3.486000061035156
 70
   192
  0
VERTEX
  5
597
  8
0
 10
60.27399826049805
 20
-10.72900009155273
 30
-3.486000061035156
 70
   192
  0
VERTEX
  5
598
  8
0
 10
60.27399826049805
 20
-6.63100004196167
 30
-9.12600040435791
 70
   192
  0
VERTEX
  5
599
  8
0
 10
60.27399826049805
 20
0.0
 30
-11.2810001373291
 70
   192
  0
VERTEX
  5
59A
  8
0
 10
60.27399826049805
 20
6.63100004196167
 30
-9.12600040435791
 70
   192
  0
VERTEX
  5
59B
  8
0
 10
60.27399826049805
 20
10.72900009155273
 30
-3.486000061035156
 70
   192
  0
VERTEX
  5
59C
  8
0
 10
60.27399826049805
 20
10.72900009155273
 30
3.486000061035156
 70
   192
  0
VERTEX
  5
59D
  8
0
 10
60.27399826049805
 20
6.63100004196167
 30
9.12600040435791
 70
   192
  0
VERTEX
  5
59E
  8
0
 10
65.46199798583984
 20
-3.920000076293945
 30
5.394999980926514
 70
   192
  0
VERTEX
  5
59F
  8
0
 10
65.46199798583984
 20
0.0
 30
6.669000148773193
 70
   192
  0
VERTEX
  5
5A0
  8
0
 10
65.46199798583984
 20
-6.342000007629395
 30
2.061000108718872
 70
   192
  0
VERTEX
  5
5A1
  8
0
 10
65.46199798583984
 20
-6.342000007629395
 30
-2.061000108718872
 70
   192
  0
VERTEX
  5
5A2
  8
0
 10
65.46199798583984
 20
-3.920000076293945
 30
-5.394999980926514
 70
   192
  0
VERTEX
  5
5A3
  8
0
 10
65.46199798583984
 20
0.0
 30
-6.669000148773193
 70
   192
  0
VERTEX
  5
5A4
  8
0
 10
65.46199798583984
 20
3.920000076293945
 30
-5.394999980926514
 70
   192
  0
VERTEX
  5
5A5
  8
0
 10
65.46199798583984
 20
6.342000007629395
 30
-2.061000108718872
 70
   192
  0
VERTEX
  5
5A6
  8
0
 10
65.46199798583984
 20
6.342000007629395
 30
2.061000108718872
 70
   192
  0
VERTEX
  5
5A7
  8
0
 10
65.46199798583984
 20
3.920000076293945
 30
5.394999980926514
 70
   192
  0
VERTEX
  5
5A8
  8
0
 10
67.38999938964844
 20
0.0
 30
0.0
 70
   192
  0
VERTEX
  5
5A9
  8
0
 62
     9
 10
0.0
 20
0.0
 30
0.0
 70
   128
 71
     3
 72
     2
 73
     1
  0
VERTEX
  5
5AA
  8
0
 62
     9
 10
0.0
 20
0.0
 30
0.0
 70
   128
 71
     4
 72
     3
 73
     1
  0
VERTEX
  5
5AB
  8
0
 62
     9
 10
0.0
 20
0.0
 30
0.0
 70
   128
 71
     6
 72
     5
 73
     2
  0
VERTEX
  5
5AC
  8
0
 62
     9
 10
0.0
 20
0.0
 30
0.0
 70
   128
 71
     3
 72
     6
 73
     2
  0
VERTEX
  5
5AD
  8
0
 62
     9
 10
0.0
 20
0.0
 30
0.0
 70
   128
 71
     8
 72
     7
 73
     5
  0
VERTEX
  5
5AE
  8
0
 62
     9
 10
0.0
 20
0.0
 30
0.0
 70
   128
 71
     6
 72
     8
 73
     5
  0
VERTEX
  5
5AF
  8
0
 62
     9
 10
0.0
 20
0.0
 30
0.0
 70
   128
 71
    10
 72
     9
 73
     7
  0
VERTEX
  5
5B0
  8
0
 62
     9
 10
0.0
 20
0.0
 30
0.0
 70
   128
 71
     8
 72
    10
 73
     7
  0
VERTEX
  5
5B1
  8
0
 62
     9
 10
0.0
 20
0.0
 30
0.0
 70
   128
 71
    12
 72
    11
 73
     9
  0
VERTEX
  5
5B2
  8
0
 62
     9
 10
0.0
 20
0.0
 30
0.0
 70
   128
 71
    10
 72
    12
 73
     9
  0
VERTEX
  5
5B3
  8
0
 62
     9
 10
0.0
 20
0.0
 30
0.0
 70
   128
 71
    14
 72
    13
 73
    11
  0
VERTEX
  5
5B4
  8
0
 62
     9
 10
0.0
 20
0.0
 30
0.0
 70
   128
 71
    12
 72
    14
 73
    11
  0
VERTEX
  5
5B5
  8
0
 62
     9
 10
0.0
 20
0.0
 30
0.0
 70
   128
 71
    16
 72
    15
 73
    13
  0
VERTEX
  5
5B6
  8
0
 62
     9
 10
0.0
 20
0.0
 30
0.0
 70
   128
 71
    14
 72
    16
 73
    13
  0
VERTEX
  5
5B7
  8
0
 62
     9
 10
0.0
 20
0.0
 30
0.0
 70
   128
 71
    18
 72
    17
 73
    15
  0
VERTEX
  5
5B8
  8
0
 62
     9
 10
0.0
 20
0.0
 30
0.0
 70
   128
 71
    16
 72
    18
 73
    15
  0
VERTEX
  5
5B9
  8
0
 62
     9
 10
0.0
 20
0.0
 30
0.0
 70
   128
 71
    20
 72
    19
 73
    17
  0
VERTEX
  5
5BA
  8
0
 62
     9
 10
0.0
 20
0.0
 30
0.0
 70
   128
 71
    18
 72
    20
 73
    17
  0
VERTEX
  5
5BB
  8
0
 62
     9
 10
0.0
 20
0.0
 30
0.0
 70
   128
 71
     4
 72
     1
 73
    19
  0
VERTEX
  5
5BC
  8
0
 62
     9
 10
0.0
 20
0.0
 30
0.0
 70
   128
 71
    20
 72
     4
 73
    19
  0
VERTEX
  5
5BD
  8
0
 62
     9
 10
0.0
 20
0.0
 30
0.0
 70
   128
 71
    21
 72
     3
 73
     4
  0
VERTEX
  5
5BE
  8
0
 62
     9
 10
0.0
 20
0.0
 30
0.0
 70
   128
 71
    22
 72
    21
 73
     4
  0
VERTEX
  5
5BF
  8
0
 62
     9
 10
0.0
 20
0.0
 30
0.0
 70
   128
 71
    23
 72
     6
 73
     3
  0
VERTEX
  5
5C0
  8
0
 62
     9
 10
0.0
 20
0.0
 30
0.0
 70
   128
 71
    21
 72
    23
 73
     3
  0
VERTEX
  5
5C1
  8
0
 62
     9
 10
0.0
 20
0.0
 30
0.0
 70
   128
 71
    24
 72
     8
 73
     6
  0
VERTEX
  5
5C2
  8
0
 62
     9
 10
0.0
 20
0.0
 30
0.0
 70
   128
 71
    23
 72
    24
 73
     6
  0
VERTEX
  5
5C3
  8
0
 62
     9
 10
0.0
 20
0.0
 30
0.0
 70
   128
 71
    25
 72
    10
 73
     8
  0
VERTEX
  5
5C4
  8
0
 62
     9
 10
0.0
 20
0.0
 30
0.0
 70
   128
 71
    24
 72
    25
 73
     8
  0
VERTEX
  5
5C5
  8
0
 62
     9
 10
0.0
 20
0.0
 30
0.0
 70
   128
 71
    26
 72
    12
 73
    10
  0
VERTEX
  5
5C6
  8
0
 62
     9
 10
0.0
 20
0.0
 30
0.0
 70
   128
 71
    25
 72
    26
 73
    10
  0
VERTEX
  5
5C7
  8
0
 62
     9
 10
0.0
 20
0.0
 30
0.0
 70
   128
 71
    27
 72
    14
 73
    12
  0
VERTEX
  5
5C8
  8
0
 62
     9
 10
0.0
 20
0.0
 30
0.0
 70
   128
 71
    26
 72
    27
 73
    12
  0
VERTEX
  5
5C9
  8
0
 62
     9
 10
0.0
 20
0.0
 30
0.0
 70
   128
 71
    28
 72
    16
 73
    14
  0
VERTEX
  5
5CA
  8
0
 62
     9
 10
0.0
 20
0.0
 30
0.0
 70
   128
 71
    27
 72
    28
 73
    14
  0
VERTEX
  5
5CB
  8
0
 62
     9
 10
0.0
 20
0.0
 30
0.0
 70
   128
 71
    29
 72
    18
 73
    16
  0
VERTEX
  5
5CC
  8
0
 62
     9
 10
0.0
 20
0.0
 30
0.0
 70
   128
 71
    28
 72
    29
 73
    16
  0
VERTEX
  5
5CD
  8
0
 62
     9
 10
0.0
 20
0.0
 30
0.0
 70
   128
 71
    30
 72
    20
 73
    18
  0
VERTEX
  5
5CE
  8
0
 62
     9
 10
0.0
 20
0.0
 30
0.0
 70
   128
 71
    29
 72
    30
 73
    18
  0
VERTEX
  5
5CF
  8
0
 62
     9
 10
0.0
 20
0.0
 30
0.0
 70
   128
 71
    22
 72
     4
 73
    20
  0
VERTEX
  5
5D0
  8
0
 62
     9
 10
0.0
 20
0.0
 30
0.0
 70
   128
 71
    30
 72
    22
 73
    20
  0
VERTEX
  5
5D1
  8
0
 62
     9
 10
0.0
 20
0.0
 30
0.0
 70
   128
 71
    31
 72
    21
 73
    22
  0
VERTEX
  5
5D2
  8
0
 62
     9
 10
0.0
 20
0.0
 30
0.0
 70
   128
 71
    32
 72
    31
 73
    22
  0
VERTEX
  5
5D3
  8
0
 62
     9
 10
0.0
 20
0.0
 30
0.0
 70
   128
 71
    33
 72
    23
 73
    21
  0
VERTEX
  5
5D4
  8
0
 62
     9
 10
0.0
 20
0.0
 30
0.0
 70
   128
 71
    31
 72
    33
 73
    21
  0
VERTEX
  5
5D5
  8
0
 62
     9
 10
0.0
 20
0.0
 30
0.0
 70
   128
 71
    34
 72
    24
 73
    23
  0
VERTEX
  5
5D6
  8
0
 62
     9
 10
0.0
 20
0.0
 30
0.0
 70
   128
 71
    33
 72
    34
 73
    23
  0
VERTEX
  5
5D7
  8
0
 62
     9
 10
0.0
 20
0.0
 30
0.0
 70
   128
 71
    35
 72
    25
 73
    24
  0
VERTEX
  5
5D8
  8
0
 62
     9
 10
0.0
 20
0.0
 30
0.0
 70
   128
 71
    34
 72
    35
 73
    24
  0
VERTEX
  5
5D9
  8
0
 62
     9
 10
0.0
 20
0.0
 30
0.0
 70
   128
 71
    36
 72
    26
 73
    25
  0
VERTEX
  5
5DA
  8
0
 62
     9
 10
0.0
 20
0.0
 30
0.0
 70
   128
 71
    35
 72
    36
 73
    25
  0
VERTEX
  5
5DB
  8
0
 62
     9
 10
0.0
 20
0.0
 30
0.0
 70
   128
 71
    37
 72
    27
 73
    26
  0
VERTEX
  5
5DC
  8
0
 62
     9
 10
0.0
 20
0.0
 30
0.0
 70
   128
 71
    36
 72
    37
 73
    26
  0
VERTEX
  5
5DD
  8
0
 62
     9
 10
0.0
 20
0.0
 30
0.0
 70
   128
 71
    38
 72
    28
 73
    27
  0
VERTEX
  5
5DE
  8
0
 62
     9
 10
0.0
 20
0.0
 30
0.0
 70
   128
 71
    37
 72
    38
 73
    27
  0
VERTEX
  5
5DF
  8
0
 62
     9
 10
0.0
 20
0.0
 30
0.0
 70
   128
 71
    39
 72
    29
 73
    28
  0
VERTEX
  5
5E0
  8
0
 62
     9
 10
0.0
 20
0.0
 30
0.0
 70
   128
 71
    38
 72
    39
 73
    28
  0
VERTEX
  5
5E1
  8
0
 62
     9
 10
0.0
 20
0.0
 30
0.0
 70
   128
 71
    40
 72
    30
 73
    29
  0
VERTEX
  5
5E2
  8
0
 62
     9
 10
0.0
 20
0.0
 30
0.0
 70
   128
 71
    39
 72
    40
 73
    29
  0
VERTEX
  5
5E3
  8
0
 62
     9
 10
0.0
 20
0.0
 30
0.0
 70
   128
 71
    32
 72
    22
 73
    30
  0
VERTEX
  5
5E4
  8
0
 62
     9
 10
0.0
 20
0.0
 30
0.0
 70
   128
 71
    40
 72
    32
 73
    30
  0
VERTEX
  5
5E5
  8
0
 62
     9
 10
0.0
 20
0.0
 30
0.0
 70
   128
 71
    41
 72
    31
 73
    32
  0
VERTEX
  5
5E6
  8
0
 62
     9
 10
0.0
 20
0.0
 30
0.0
 70
   128
 71
    41
 72
    33
 73
    31
  0
VERTEX
  5
5E7
  8
0
 62
     9
 10
0.0
 20
0.0
 30
0.0
 70
   128
 71
    41
 72
    34
 73
    33
  0
VERTEX
  5
5E8
  8
0
 62
     9
 10
0.0
 20
0.0
 30
0.0
 70
   128
 71
    41
 72
    35
 73
    34
  0
VERTEX
  5
5E9
  8
0
 62
     9
 10
0.0
 20
0.0
 30
0.0
 70
   128
 71
    41
 72
    36
 73
    35
  0
VERTEX
  5
5EA
  8
0
 62
     9
 10
0.0
 20
0.0
 30
0.0
 70
   128
 71
    41
 72
    37
 73
    36
  0
VERTEX
  5
5EB
  8
0
 62
     9
 10
0.0
 20
0.0
 30
0.0
 70
   128
 71
    41
 72
    38
 73
    37
  0
VERTEX
  5
5EC
  8
0
 62
     9
 10
0.0
 20
0.0
 30
0.0
 70
   128
 71
    41
 72
    39
 73
    38
  0
VERTEX
  5
5ED
  8
0
 62
     9
 10
0.0
 20
0.0
 30
0.0
 70
   128
 71
    41
 72
    40
 73
    39
  0
VERTEX
  5
5EE
  8
0
 62
     9
 10
0.0
 20
0.0
 30
0.0
 70
   128
 71
    41
 72
    32
 73
    40
  0
SEQEND
  5
5EF
  8
0
 62
     9
  0
ENDBLK
  5
5F2
  8
0
  0
ENDSEC
  0
SECTION
  2
ENTITIES
  0
INSERT
  5
2C9
  8
LAYER_1
  2
E3_NODE
 10
0.0
 20
0.0
 30
0.0
  0
INSERT
  5
2EA
  8
LAYER_1
  2
E3_NODE_1_
 10
0.0
 20
0.0
 30
0.0
  0
INSERT
  5
352
  8
LAYER_1
  2
E3_NODE_2_
 10
0.0
 20
0.0
 30
0.0
  0
INSERT
  5
3A8
  8
LAYER_1
  2
E3_NODE_3_
 10
0.0
 20
0.0
 30
0.0
  0
INSERT
  5
423
  8
LAYER_1
  2
E3_NODE_4_
 10
0.0
 20
0.0
 30
0.0
  0
INSERT
  5
45D
  8
LAYER_1
  2
E3_NODE_5_
 10
0.0
 20
0.0
 30
0.0
  0
INSERT
  5
497
  8
LAYER_1
  2
E3_NODE_6_
 10
0.0
 20
0.0
 30
0.0
  0
INSERT
  5
521
  8
LAYER_1
  2
E3_NODE_7_
 10
0.0
 20
0.0
 30
0.0
  0
INSERT
  5
57B
  8
LAYER_1
  2
E3_NODE_8_
 10
0.0
 20
0.0
 30
0.0
  0
INSERT
  5
5F0
  8
LAYER_1
  2
E3_NODE_9_
 10
0.0
 20
0.0
 30
0.0
  0
ENDSEC
  0
EOF
