  0
SECTION
  2
HEADER
  9
$ACADVER
  1
AC1009
  9
$DWGCODEPAGE
  3
ansi_1252
  9
$INSBASE
 10
0.0
 20
0.0
 30
0.0
  9
$EXTMIN
 10
1.000000000000000E+20
 20
1.000000000000000E+20
 30
1.000000000000000E+20
  9
$EXTMAX
 10
-1.000000000000000E+20
 20
-1.000000000000000E+20
 30
-1.000000000000000E+20
  9
$LIMMIN
 10
0.0
 20
0.0
  9
$LIMMAX
 10
12.0
 20
9.0
  9
$ORTHOMODE
 70
     0
  9
$REGENMODE
 70
     1
  9
$FILLMODE
 70
     1
  9
$QTEXTMODE
 70
     0
  9
$MIRRTEXT
 70
     1
  9
$DRAGMODE
 70
     2
  9
$LTSCALE
 40
1.0
  9
$OSMODE
 70
    37
  9
$ATTMODE
 70
     1
  9
$TEXTSIZE
 40
0.2
  9
$TRACEWID
 40
0.05
  9
$TEXTSTYLE
  7
STANDARD
  9
$CLAYER
  8
0
  9
$CELTYPE
  6
BYLAYER
  9
$CECOLOR
 62
   256
  9
$DIMSCALE
 40
1.0
  9
$DIMASZ
 40
0.18
  9
$DIMEXO
 40
0.0625
  9
$DIMDLI
 40
0.38
  9
$DIMRND
 40
0.0
  9
$DIMDLE
 40
0.0
  9
$DIMEXE
 40
0.18
  9
$DIMTP
 40
0.0
  9
$DIMTM
 40
0.0
  9
$DIMTXT
 40
0.18
  9
$DIMCEN
 40
0.09
  9
$DIMTSZ
 40
0.0
  9
$DIMTOL
 70
     0
  9
$DIMLIM
 70
     0
  9
$DIMTIH
 70
     1
  9
$DIMTOH
 70
     1
  9
$DIMSE1
 70
     0
  9
$DIMSE2
 70
     0
  9
$DIMTAD
 70
     0
  9
$DIMZIN
 70
     0
  9
$DIMBLK
  1

  9
$DIMASO
 70
     1
  9
$DIMSHO
 70
     1
  9
$DIMPOST
  1

  9
$DIMAPOST
  1

  9
$DIMALT
 70
     0
  9
$DIMALTD
 70
     2
  9
$DIMALTF
 40
25.4
  9
$DIMLFAC
 40
1.0
  9
$DIMTOFL
 70
     0
  9
$DIMTVP
 40
0.0
  9
$DIMTIX
 70
     0
  9
$DIMSOXD
 70
     0
  9
$DIMSAH
 70
     0
  9
$DIMBLK1
  1

  9
$DIMBLK2
  1

  9
$DIMSTYLE
  2
STANDARD
  9
$DIMCLRD
 70
     0
  9
$DIMCLRE
 70
     0
  9
$DIMCLRT
 70
     0
  9
$DIMTFAC
 40
1.0
  9
$DIMGAP
 40
0.09
  9
$LUNITS
 70
     2
  9
$LUPREC
 70
     4
  9
$SKETCHINC
 40
0.1
  9
$FILLETRAD
 40
0.5
  9
$AUNITS
 70
     0
  9
$AUPREC
 70
     0
  9
$MENU
  1
.
  9
$ELEVATION
 40
0.0
  9
$PELEVATION
 40
0.0
  9
$THICKNESS
 40
0.0
  9
$LIMCHECK
 70
     0
  9
$CHAMFERA
 40
0.5
  9
$CHAMFERB
 40
0.5
  9
$SKPOLY
 70
     0
  9
$TDCREATE
 40
2455467.495161493
  9
$TDUPDATE
 40
2455467.495161493
  9
$TDINDWG
 40
0.0000000116
  9
$TDUSRTIMER
 40
0.0000000116
  9
$USRTIMER
 70
     1
  9
$ANGBASE
 50
0.0
  9
$ANGDIR
 70
     0
  9
$PDMODE
 70
     0
  9
$PDSIZE
 40
0.0
  9
$PLINEWID
 40
0.0
  9
$COORDS
 70
     1
  9
$SPLFRAME
 70
     0
  9
$SPLINETYPE
 70
     6
  9
$SPLINESEGS
 70
     8
  9
$ATTDIA
 70
     0
  9
$ATTREQ
 70
     1
  9
$HANDLING
 70
     1
  9
$HANDSEED
  5
B03
  9
$SURFTAB1
 70
     6
  9
$SURFTAB2
 70
     6
  9
$SURFTYPE
 70
     6
  9
$SURFU
 70
     6
  9
$SURFV
 70
     6
  9
$UCSNAME
  2

  9
$UCSORG
 10
0.0
 20
0.0
 30
0.0
  9
$UCSXDIR
 10
1.0
 20
0.0
 30
0.0
  9
$UCSYDIR
 10
0.0
 20
1.0
 30
0.0
  9
$PUCSNAME
  2

  9
$PUCSORG
 10
0.0
 20
0.0
 30
0.0
  9
$PUCSXDIR
 10
1.0
 20
0.0
 30
0.0
  9
$PUCSYDIR
 10
0.0
 20
1.0
 30
0.0
  9
$USERI1
 70
     0
  9
$USERI2
 70
     0
  9
$USERI3
 70
     0
  9
$USERI4
 70
     0
  9
$USERI5
 70
     0
  9
$USERR1
 40
0.0
  9
$USERR2
 40
0.0
  9
$USERR3
 40
0.0
  9
$USERR4
 40
0.0
  9
$USERR5
 40
0.0
  9
$WORLDVIEW
 70
     1
  9
$SHADEDGE
 70
     3
  9
$SHADEDIF
 70
    70
  9
$TILEMODE
 70
     1
  9
$MAXACTVP
 70
    64
  9
$PLIMCHECK
 70
     0
  9
$PEXTMIN
 10
1.000000000000000E+20
 20
1.000000000000000E+20
 30
1.000000000000000E+20
  9
$PEXTMAX
 10
-1.000000000000000E+20
 20
-1.000000000000000E+20
 30
-1.000000000000000E+20
  9
$PLIMMIN
 10
0.0
 20
0.0
  9
$PLIMMAX
 10
12.0
 20
9.0
  9
$UNITMODE
 70
     0
  9
$VISRETAIN
 70
     1
  9
$PLINEGEN
 70
     0
  9
$PSLTSCALE
 70
     1
  0
ENDSEC
  0
SECTION
  2
TABLES
  0
TABLE
  2
VPORT
 70
     1
  0
VPORT
  2
*ACTIVE
 70
     0
 10
0.0
 20
0.0
 11
1.0
 21
1.0
 12
0.0
 22
0.0
 13
0.0
 23
0.0
 14
0.5
 24
0.5
 15
0.5
 25
0.5
 16
452.52001953125
 26
258.5606079101562
 36
452.52001953125
 17
-30.59201049804688
 27
0.20001220703125
 37
-1.95001220703125
 40
391.7135001648142
 41
1.972972972850329
 42
50.0
 43
0.0
 44
0.0
 50
0.0
 51
0.0
 71
     0
 72
   100
 73
     1
 74
     3
 75
     0
 76
     0
 77
     0
 78
     0
  0
ENDTAB
  0
TABLE
  2
LTYPE
 70
     1
  0
LTYPE
  2
CONTINUOUS
 70
     0
  3
Solid line
 72
    65
 73
     0
 40
0.0
  0
ENDTAB
  0
TABLE
  2
LAYER
 70
     2
  0
LAYER
  2
0
 70
     0
 62
     7
  6
CONTINUOUS
  0
LAYER
  2
LAYER_1
 70
     0
 62
     7
  6
CONTINUOUS
  0
ENDTAB
  0
TABLE
  2
STYLE
 70
     1
  0
STYLE
  2
STANDARD
 70
     0
 40
0.0
 41
1.0
 50
0.0
 71
     0
 42
0.2
  3
txt
  4

  0
ENDTAB
  0
TABLE
  2
VIEW
 70
     0
  0
ENDTAB
  0
TABLE
  2
UCS
 70
     0
  0
ENDTAB
  0
TABLE
  2
APPID
 70
     1
  0
APPID
  2
ACAD
 70
     0
  0
ENDTAB
  0
TABLE
  2
DIMSTYLE
 70
     1
  0
DIMSTYLE
  2
STANDARD
 70
     0
  3

  4

  5

  6

  7

 40
1.0
 41
0.18
 42
0.0625
 43
0.38
 44
0.18
 45
0.0
 46
0.0
 47
0.0
 48
0.0
140
0.18
141
0.09
142
0.0
143
25.4
144
1.0
145
0.0
146
1.0
147
0.09
 71
     0
 72
     0
 73
     1
 74
     1
 75
     0
 76
     0
 77
     0
 78
     0
170
     0
171
     2
172
     0
173
     0
174
     0
175
     0
176
     0
177
     0
178
     0
  0
ENDTAB
  0
ENDSEC
  0
SECTION
  2
BLOCKS
  0
BLOCK
  8
0
  2
$MODEL_SPACE
 70
     0
 10
0.0
 20
0.0
 30
0.0
  3
$MODEL_SPACE
  1

  0
ENDBLK
  5
21
  8
0
  0
BLOCK
 67
     1
  8
0
  2
$PAPER_SPACE
 70
     0
 10
0.0
 20
0.0
 30
0.0
  3
$PAPER_SPACE
  1

  0
ENDBLK
  5
1D
 67
     1
  8
0
  0
BLOCK
  8
0
  2
E3_NODE
 70
     0
 10
0.0
 20
0.0
 30
0.0
  3
E3_NODE
  1

  0
POLYLINE
  5
3C
  8
0
 62
     9
 66
     1
 10
0.0
 20
0.0
 30
0.0
 70
    64
 71
     8
 72
     6
  0
VERTEX
  5
3D
  8
0
 10
8.210000038146973
 20
-166.697998046875
 30
-2.200000047683716
 70
   192
  0
VERTEX
  5
3E
  8
0
 10
-8.210000038146973
 20
-166.697998046875
 30
2.200000047683716
 70
   192
  0
VERTEX
  5
3F
  8
0
 10
-7.361000061035156
 20
-166.697998046875
 30
-4.25
 70
   192
  0
VERTEX
  5
40
  8
0
 10
7.361000061035156
 20
-166.697998046875
 30
4.25
 70
   192
  0
VERTEX
  5
41
  8
0
 10
2.200000047683716
 20
-166.697998046875
 30
8.210000038146973
 70
   192
  0
VERTEX
  5
42
  8
0
 10
-4.25
 20
-166.697998046875
 30
7.361000061035156
 70
   192
  0
VERTEX
  5
43
  8
0
 10
-2.200000047683716
 20
-166.697998046875
 30
-8.210000038146973
 70
   192
  0
VERTEX
  5
44
  8
0
 10
4.25
 20
-166.697998046875
 30
-7.361000061035156
 70
   192
  0
VERTEX
  5
45
  8
0
 62
     9
 10
0.0
 20
0.0
 30
0.0
 70
   128
 71
     3
 72
     2
 73
     1
  0
VERTEX
  5
46
  8
0
 62
     9
 10
0.0
 20
0.0
 30
0.0
 70
   128
 71
     6
 72
     5
 73
     4
  0
VERTEX
  5
47
  8
0
 62
     9
 10
0.0
 20
0.0
 30
0.0
 70
   128
 71
     1
 72
     7
 73
     3
  0
VERTEX
  5
48
  8
0
 62
     9
 10
0.0
 20
0.0
 30
0.0
 70
   128
 71
     4
 72
     1
 73
     2
  0
VERTEX
  5
49
  8
0
 62
     9
 10
0.0
 20
0.0
 30
0.0
 70
   128
 71
     4
 72
     2
 73
     6
  0
VERTEX
  5
4A
  8
0
 62
     9
 10
0.0
 20
0.0
 30
0.0
 70
   128
 71
     1
 72
     8
 73
     7
  0
SEQEND
  5
4B
  8
0
 62
     9
  0
ENDBLK
  5
4F
  8
0
  0
BLOCK
  8
0
  2
E3_NODE_1_
 70
     0
 10
0.0
 20
0.0
 30
0.0
  3
E3_NODE_1_
  1

  0
POLYLINE
  5
51
  8
0
 62
     9
 66
     1
 10
0.0
 20
0.0
 30
0.0
 70
    64
 71
     8
 72
     6
  0
VERTEX
  5
52
  8
0
 10
-7.361000061035156
 20
167.0980072021484
 30
-4.25
 70
   192
  0
VERTEX
  5
53
  8
0
 10
-4.25
 20
167.0980072021484
 30
7.361000061035156
 70
   192
  0
VERTEX
  5
54
  8
0
 10
2.200000047683716
 20
167.0980072021484
 30
8.210000038146973
 70
   192
  0
VERTEX
  5
55
  8
0
 10
7.361000061035156
 20
167.0980072021484
 30
4.25
 70
   192
  0
VERTEX
  5
56
  8
0
 10
8.210000038146973
 20
167.0980072021484
 30
-2.200000047683716
 70
   192
  0
VERTEX
  5
57
  8
0
 10
-8.210000038146973
 20
167.0980072021484
 30
2.200000047683716
 70
   192
  0
VERTEX
  5
58
  8
0
 10
4.25
 20
167.0980072021484
 30
-7.361000061035156
 70
   192
  0
VERTEX
  5
59
  8
0
 10
-2.200000047683716
 20
167.0980072021484
 30
-8.210000038146973
 70
   192
  0
VERTEX
  5
5A
  8
0
 62
     9
 10
0.0
 20
0.0
 30
0.0
 70
   128
 71
     3
 72
     2
 73
     1
  0
VERTEX
  5
5B
  8
0
 62
     9
 10
0.0
 20
0.0
 30
0.0
 70
   128
 71
     5
 72
     4
 73
     1
  0
VERTEX
  5
5C
  8
0
 62
     9
 10
0.0
 20
0.0
 30
0.0
 70
   128
 71
     2
 72
     6
 73
     1
  0
VERTEX
  5
5D
  8
0
 62
     9
 10
0.0
 20
0.0
 30
0.0
 70
   128
 71
     1
 72
     7
 73
     5
  0
VERTEX
  5
5E
  8
0
 62
     9
 10
0.0
 20
0.0
 30
0.0
 70
   128
 71
     1
 72
     8
 73
     7
  0
VERTEX
  5
5F
  8
0
 62
     9
 10
0.0
 20
0.0
 30
0.0
 70
   128
 71
     1
 72
     4
 73
     3
  0
SEQEND
  5
60
  8
0
 62
     9
  0
ENDBLK
  5
63
  8
0
  0
BLOCK
  8
0
  2
E3_NODE_2_
 70
     0
 10
0.0
 20
0.0
 30
0.0
  3
E3_NODE_2_
  1

  0
POLYLINE
  5
65
  8
0
 62
     9
 66
     1
 10
0.0
 20
0.0
 30
0.0
 70
    64
 71
    18
 72
    16
  0
VERTEX
  5
66
  8
0
 10
-59.0
 20
68.32499694824219
 30
-18.3390007019043
 70
   192
  0
VERTEX
  5
67
  8
0
 10
-59.0
 20
81.67500305175781
 30
-18.3390007019043
 70
   192
  0
VERTEX
  5
68
  8
0
 10
-59.0
 20
87.54499816894531
 30
-14.94999980926514
 70
   192
  0
VERTEX
  5
69
  8
0
 10
-59.0
 20
75.0
 30
19.51600074768066
 70
   192
  0
VERTEX
  5
6A
  8
0
 10
-59.0
 20
68.32499694824219
 30
18.3390007019043
 70
   192
  0
VERTEX
  5
6B
  8
0
 10
-59.0
 20
62.45500183105469
 30
14.94999980926514
 70
   192
  0
VERTEX
  5
6C
  8
0
 10
-59.0
 20
75.0
 30
-19.51600074768066
 70
   192
  0
VERTEX
  5
6D
  8
0
 10
-59.0
 20
91.9010009765625
 30
-9.758000373840332
 70
   192
  0
VERTEX
  5
6E
  8
0
 10
-59.0
 20
58.0989990234375
 30
-9.758000373840332
 70
   192
  0
VERTEX
  5
6F
  8
0
 10
-59.0
 20
62.45500183105469
 30
-14.94999980926514
 70
   192
  0
VERTEX
  5
70
  8
0
 10
-59.0
 20
81.67500305175781
 30
18.3390007019043
 70
   192
  0
VERTEX
  5
71
  8
0
 10
-59.0
 20
58.0989990234375
 30
9.758000373840332
 70
   192
  0
VERTEX
  5
72
  8
0
 10
-59.0
 20
55.77999877929688
 30
3.388999938964844
 70
   192
  0
VERTEX
  5
73
  8
0
 10
-59.0
 20
55.77999877929688
 30
-3.388999938964844
 70
   192
  0
VERTEX
  5
74
  8
0
 10
-59.0
 20
91.9010009765625
 30
9.758000373840332
 70
   192
  0
VERTEX
  5
75
  8
0
 10
-59.0
 20
87.54499816894531
 30
14.94999980926514
 70
   192
  0
VERTEX
  5
76
  8
0
 10
-59.0
 20
94.22000122070312
 30
3.388999938964844
 70
   192
  0
VERTEX
  5
77
  8
0
 10
-59.0
 20
94.22000122070312
 30
-3.388999938964844
 70
   192
  0
VERTEX
  5
78
  8
0
 62
     9
 10
0.0
 20
0.0
 30
0.0
 70
   128
 71
     3
 72
     2
 73
     1
  0
VERTEX
  5
79
  8
0
 62
     9
 10
0.0
 20
0.0
 30
0.0
 70
   128
 71
     6
 72
     5
 73
     4
  0
VERTEX
  5
7A
  8
0
 62
     9
 10
0.0
 20
0.0
 30
0.0
 70
   128
 71
     2
 72
     7
 73
     1
  0
VERTEX
  5
7B
  8
0
 62
     9
 10
0.0
 20
0.0
 30
0.0
 70
   128
 71
    10
 72
     9
 73
     8
  0
VERTEX
  5
7C
  8
0
 62
     9
 10
0.0
 20
0.0
 30
0.0
 70
   128
 71
    13
 72
    12
 73
    11
  0
VERTEX
  5
7D
  8
0
 62
     9
 10
0.0
 20
0.0
 30
0.0
 70
   128
 71
     4
 72
    11
 73
    12
  0
VERTEX
  5
7E
  8
0
 62
     9
 10
0.0
 20
0.0
 30
0.0
 70
   128
 71
    16
 72
    15
 73
    14
  0
VERTEX
  5
7F
  8
0
 62
     9
 10
0.0
 20
0.0
 30
0.0
 70
   128
 71
     8
 72
     1
 73
    10
  0
VERTEX
  5
80
  8
0
 62
     9
 10
0.0
 20
0.0
 30
0.0
 70
   128
 71
     4
 72
    12
 73
     6
  0
VERTEX
  5
81
  8
0
 62
     9
 10
0.0
 20
0.0
 30
0.0
 70
   128
 71
    15
 72
    17
 73
    14
  0
VERTEX
  5
82
  8
0
 62
     9
 10
0.0
 20
0.0
 30
0.0
 70
   128
 71
    18
 72
     8
 73
    14
  0
VERTEX
  5
83
  8
0
 62
     9
 10
0.0
 20
0.0
 30
0.0
 70
   128
 71
     9
 72
    14
 73
     8
  0
VERTEX
  5
84
  8
0
 62
     9
 10
0.0
 20
0.0
 30
0.0
 70
   128
 71
    14
 72
    11
 73
    16
  0
VERTEX
  5
85
  8
0
 62
     9
 10
0.0
 20
0.0
 30
0.0
 70
   128
 71
     1
 72
     8
 73
     3
  0
VERTEX
  5
86
  8
0
 62
     9
 10
0.0
 20
0.0
 30
0.0
 70
   128
 71
    14
 72
    17
 73
    18
  0
VERTEX
  5
87
  8
0
 62
     9
 10
0.0
 20
0.0
 30
0.0
 70
   128
 71
    11
 72
    14
 73
    13
  0
SEQEND
  5
88
  8
0
 62
     9
  0
ENDBLK
  5
8B
  8
0
  0
BLOCK
  8
0
  2
E3_NODE_3_
 70
     0
 10
0.0
 20
0.0
 30
0.0
  3
E3_NODE_3_
  1

  0
POLYLINE
  5
8D
  8
0
 62
     9
 66
     1
 10
0.0
 20
0.0
 30
0.0
 70
    64
 71
    72
 72
   108
  0
VERTEX
  5
8E
  8
0
 10
-60.87699890136719
 20
75.0
 30
-26.7819995880127
 70
   192
  0
VERTEX
  5
8F
  8
0
 10
-59.0
 20
75.0
 30
-19.51600074768066
 70
   192
  0
VERTEX
  5
90
  8
0
 10
-59.0
 20
68.32499694824219
 30
-18.3390007019043
 70
   192
  0
VERTEX
  5
91
  8
0
 10
-60.87699890136719
 20
65.83999633789062
 30
-25.16699981689453
 70
   192
  0
VERTEX
  5
92
  8
0
 10
-59.0
 20
62.45500183105469
 30
-14.94999980926514
 70
   192
  0
VERTEX
  5
93
  8
0
 10
-60.87699890136719
 20
51.80599975585938
 30
-13.39099979400635
 70
   192
  0
VERTEX
  5
94
  8
0
 10
-60.87699890136719
 20
57.78499984741211
 30
-20.51600074768066
 70
   192
  0
VERTEX
  5
95
  8
0
 10
-59.0
 20
58.0989990234375
 30
-9.758000373840332
 70
   192
  0
VERTEX
  5
96
  8
0
 10
-59.0
 20
55.77999877929688
 30
-3.388999938964844
 70
   192
  0
VERTEX
  5
97
  8
0
 10
-60.87699890136719
 20
48.625
 30
4.651000022888184
 70
   192
  0
VERTEX
  5
98
  8
0
 10
-60.87699890136719
 20
48.625
 30
-4.651000022888184
 70
   192
  0
VERTEX
  5
99
  8
0
 10
-59.0
 20
55.77999877929688
 30
3.388999938964844
 70
   192
  0
VERTEX
  5
9A
  8
0
 10
-59.0
 20
58.0989990234375
 30
9.758000373840332
 70
   192
  0
VERTEX
  5
9B
  8
0
 10
-60.87699890136719
 20
57.78499984741211
 30
20.51600074768066
 70
   192
  0
VERTEX
  5
9C
  8
0
 10
-60.87699890136719
 20
51.80599975585938
 30
13.39099979400635
 70
   192
  0
VERTEX
  5
9D
  8
0
 10
-59.0
 20
62.45500183105469
 30
14.94999980926514
 70
   192
  0
VERTEX
  5
9E
  8
0
 10
-59.0
 20
68.32499694824219
 30
18.3390007019043
 70
   192
  0
VERTEX
  5
9F
  8
0
 10
-60.87699890136719
 20
65.83999633789062
 30
25.16699981689453
 70
   192
  0
VERTEX
  5
A0
  8
0
 10
-59.0
 20
75.0
 30
19.51600074768066
 70
   192
  0
VERTEX
  5
A1
  8
0
 10
-60.87699890136719
 20
75.0
 30
26.7819995880127
 70
   192
  0
VERTEX
  5
A2
  8
0
 10
-59.0
 20
81.67500305175781
 30
18.3390007019043
 70
   192
  0
VERTEX
  5
A3
  8
0
 10
-60.87699890136719
 20
92.21499633789062
 30
20.51600074768066
 70
   192
  0
VERTEX
  5
A4
  8
0
 10
-60.87699890136719
 20
84.16000366210938
 30
25.16699981689453
 70
   192
  0
VERTEX
  5
A5
  8
0
 10
-59.0
 20
87.54499816894531
 30
14.94999980926514
 70
   192
  0
VERTEX
  5
A6
  8
0
 10
-59.0
 20
91.9010009765625
 30
9.758000373840332
 70
   192
  0
VERTEX
  5
A7
  8
0
 10
-60.87699890136719
 20
98.19400024414062
 30
13.39099979400635
 70
   192
  0
VERTEX
  5
A8
  8
0
 10
-59.0
 20
94.22000122070312
 30
3.388999938964844
 70
   192
  0
VERTEX
  5
A9
  8
0
 10
-60.87699890136719
 20
101.375
 30
-4.651000022888184
 70
   192
  0
VERTEX
  5
AA
  8
0
 10
-60.87699890136719
 20
101.375
 30
4.651000022888184
 70
   192
  0
VERTEX
  5
AB
  8
0
 10
-59.0
 20
94.22000122070312
 30
-3.388999938964844
 70
   192
  0
VERTEX
  5
AC
  8
0
 10
-59.0
 20
91.9010009765625
 30
-9.758000373840332
 70
   192
  0
VERTEX
  5
AD
  8
0
 10
-60.87699890136719
 20
98.19400024414062
 30
-13.39099979400635
 70
   192
  0
VERTEX
  5
AE
  8
0
 10
-59.0
 20
87.54499816894531
 30
-14.94999980926514
 70
   192
  0
VERTEX
  5
AF
  8
0
 10
-60.87699890136719
 20
84.16000366210938
 30
-25.16699981689453
 70
   192
  0
VERTEX
  5
B0
  8
0
 10
-60.87699890136719
 20
92.21499633789062
 30
-20.51600074768066
 70
   192
  0
VERTEX
  5
B1
  8
0
 10
-59.0
 20
81.67500305175781
 30
-18.3390007019043
 70
   192
  0
VERTEX
  5
B2
  8
0
 10
-66.03900146484375
 20
63.97700119018555
 30
-30.2859992980957
 70
   192
  0
VERTEX
  5
B3
  8
0
 10
-66.03900146484375
 20
54.28300094604492
 30
-24.68899917602539
 70
   192
  0
VERTEX
  5
B4
  8
0
 10
-66.03900146484375
 20
47.0890007019043
 30
-16.11499977111816
 70
   192
  0
VERTEX
  5
B5
  8
0
 10
-66.03900146484375
 20
43.2599983215332
 30
-5.597000122070312
 70
   192
  0
VERTEX
  5
B6
  8
0
 10
-66.03900146484375
 20
43.2599983215332
 30
5.597000122070312
 70
   192
  0
VERTEX
  5
B7
  8
0
 10
-66.03900146484375
 20
47.0890007019043
 30
16.11499977111816
 70
   192
  0
VERTEX
  5
B8
  8
0
 10
-66.03900146484375
 20
54.28300094604492
 30
24.68899917602539
 70
   192
  0
VERTEX
  5
B9
  8
0
 10
-66.03900146484375
 20
63.97700119018555
 30
30.2859992980957
 70
   192
  0
VERTEX
  5
BA
  8
0
 10
-66.03900146484375
 20
75.0
 30
32.22900009155273
 70
   192
  0
VERTEX
  5
BB
  8
0
 10
-66.03900146484375
 20
86.02300262451172
 30
30.2859992980957
 70
   192
  0
VERTEX
  5
BC
  8
0
 10
-66.03900146484375
 20
95.71700286865234
 30
24.68899917602539
 70
   192
  0
VERTEX
  5
BD
  8
0
 10
-66.03900146484375
 20
102.911003112793
 30
16.11499977111816
 70
   192
  0
VERTEX
  5
BE
  8
0
 10
-66.03900146484375
 20
106.7399978637695
 30
5.597000122070312
 70
   192
  0
VERTEX
  5
BF
  8
0
 10
-66.03900146484375
 20
106.7399978637695
 30
-5.597000122070312
 70
   192
  0
VERTEX
  5
C0
  8
0
 10
-66.03900146484375
 20
102.911003112793
 30
-16.11499977111816
 70
   192
  0
VERTEX
  5
C1
  8
0
 10
-66.03900146484375
 20
95.71700286865234
 30
-24.68899917602539
 70
   192
  0
VERTEX
  5
C2
  8
0
 10
-66.03900146484375
 20
86.02300262451172
 30
-30.2859992980957
 70
   192
  0
VERTEX
  5
C3
  8
0
 10
-66.03900146484375
 20
75.0
 30
-32.22900009155273
 70
   192
  0
VERTEX
  5
C4
  8
0
 10
-73.19400024414062
 20
63.20199966430664
 30
-32.41400146484375
 70
   192
  0
VERTEX
  5
C5
  8
0
 10
-73.19400024414062
 20
75.0
 30
-34.49399948120117
 70
   192
  0
VERTEX
  5
C6
  8
0
 10
-73.19400024414062
 20
52.82699966430664
 30
-26.42399978637695
 70
   192
  0
VERTEX
  5
C7
  8
0
 10
-73.19400024414062
 20
45.12699890136719
 30
-17.24699974060059
 70
   192
  0
VERTEX
  5
C8
  8
0
 10
-73.19400024414062
 20
41.02999877929688
 30
-5.989999771118164
 70
   192
  0
VERTEX
  5
C9
  8
0
 10
-73.19400024414062
 20
45.12699890136719
 30
17.24699974060059
 70
   192
  0
VERTEX
  5
CA
  8
0
 10
-73.19400024414062
 20
41.02999877929688
 30
5.989999771118164
 70
   192
  0
VERTEX
  5
CB
  8
0
 10
-73.19400024414062
 20
52.82699966430664
 30
26.42399978637695
 70
   192
  0
VERTEX
  5
CC
  8
0
 10
-73.19400024414062
 20
75.0
 30
34.49399948120117
 70
   192
  0
VERTEX
  5
CD
  8
0
 10
-73.19400024414062
 20
63.20199966430664
 30
32.41400146484375
 70
   192
  0
VERTEX
  5
CE
  8
0
 10
-73.19400024414062
 20
86.7979965209961
 30
32.41400146484375
 70
   192
  0
VERTEX
  5
CF
  8
0
 10
-73.19400024414062
 20
97.1729965209961
 30
26.42399978637695
 70
   192
  0
VERTEX
  5
D0
  8
0
 10
-73.19400024414062
 20
108.9700012207031
 30
5.989999771118164
 70
   192
  0
VERTEX
  5
D1
  8
0
 10
-73.19400024414062
 20
104.8730010986328
 30
17.24699974060059
 70
   192
  0
VERTEX
  5
D2
  8
0
 10
-73.19400024414062
 20
108.9700012207031
 30
-5.989999771118164
 70
   192
  0
VERTEX
  5
D3
  8
0
 10
-73.19400024414062
 20
97.1729965209961
 30
-26.42399978637695
 70
   192
  0
VERTEX
  5
D4
  8
0
 10
-73.19400024414062
 20
104.8730010986328
 30
-17.24699974060059
 70
   192
  0
VERTEX
  5
D5
  8
0
 10
-73.19400024414062
 20
86.7979965209961
 30
-32.41400146484375
 70
   192
  0
VERTEX
  5
D6
  8
0
 62
     9
 10
0.0
 20
0.0
 30
0.0
 70
   128
 71
     3
 72
     2
 73
     1
  0
VERTEX
  5
D7
  8
0
 62
     9
 10
0.0
 20
0.0
 30
0.0
 70
   128
 71
     5
 72
     3
 73
     4
  0
VERTEX
  5
D8
  8
0
 62
     9
 10
0.0
 20
0.0
 30
0.0
 70
   128
 71
     5
 72
     7
 73
     6
  0
VERTEX
  5
D9
  8
0
 62
     9
 10
0.0
 20
0.0
 30
0.0
 70
   128
 71
     9
 72
     8
 73
     6
  0
VERTEX
  5
DA
  8
0
 62
     9
 10
0.0
 20
0.0
 30
0.0
 70
   128
 71
     9
 72
    11
 73
    10
  0
VERTEX
  5
DB
  8
0
 62
     9
 10
0.0
 20
0.0
 30
0.0
 70
   128
 71
    13
 72
    12
 73
    10
  0
VERTEX
  5
DC
  8
0
 62
     9
 10
0.0
 20
0.0
 30
0.0
 70
   128
 71
    13
 72
    15
 73
    14
  0
VERTEX
  5
DD
  8
0
 62
     9
 10
0.0
 20
0.0
 30
0.0
 70
   128
 71
    17
 72
    16
 73
    14
  0
VERTEX
  5
DE
  8
0
 62
     9
 10
0.0
 20
0.0
 30
0.0
 70
   128
 71
    19
 72
    17
 73
    18
  0
VERTEX
  5
DF
  8
0
 62
     9
 10
0.0
 20
0.0
 30
0.0
 70
   128
 71
    21
 72
    19
 73
    20
  0
VERTEX
  5
E0
  8
0
 62
     9
 10
0.0
 20
0.0
 30
0.0
 70
   128
 71
    21
 72
    23
 73
    22
  0
VERTEX
  5
E1
  8
0
 62
     9
 10
0.0
 20
0.0
 30
0.0
 70
   128
 71
    25
 72
    24
 73
    22
  0
VERTEX
  5
E2
  8
0
 62
     9
 10
0.0
 20
0.0
 30
0.0
 70
   128
 71
    27
 72
    25
 73
    26
  0
VERTEX
  5
E3
  8
0
 62
     9
 10
0.0
 20
0.0
 30
0.0
 70
   128
 71
    27
 72
    29
 73
    28
  0
VERTEX
  5
E4
  8
0
 62
     9
 10
0.0
 20
0.0
 30
0.0
 70
   128
 71
    31
 72
    30
 73
    28
  0
VERTEX
  5
E5
  8
0
 62
     9
 10
0.0
 20
0.0
 30
0.0
 70
   128
 71
    33
 72
    31
 73
    32
  0
VERTEX
  5
E6
  8
0
 62
     9
 10
0.0
 20
0.0
 30
0.0
 70
   128
 71
    33
 72
    35
 73
    34
  0
VERTEX
  5
E7
  8
0
 62
     9
 10
0.0
 20
0.0
 30
0.0
 70
   128
 71
    36
 72
    34
 73
     1
  0
VERTEX
  5
E8
  8
0
 62
     9
 10
0.0
 20
0.0
 30
0.0
 70
   128
 71
    37
 72
     4
 73
     1
  0
VERTEX
  5
E9
  8
0
 62
     9
 10
0.0
 20
0.0
 30
0.0
 70
   128
 71
    38
 72
     7
 73
     4
  0
VERTEX
  5
EA
  8
0
 62
     9
 10
0.0
 20
0.0
 30
0.0
 70
   128
 71
    39
 72
     6
 73
     7
  0
VERTEX
  5
EB
  8
0
 62
     9
 10
0.0
 20
0.0
 30
0.0
 70
   128
 71
    40
 72
    11
 73
     6
  0
VERTEX
  5
EC
  8
0
 62
     9
 10
0.0
 20
0.0
 30
0.0
 70
   128
 71
    41
 72
    10
 73
    11
  0
VERTEX
  5
ED
  8
0
 62
     9
 10
0.0
 20
0.0
 30
0.0
 70
   128
 71
    42
 72
    15
 73
    10
  0
VERTEX
  5
EE
  8
0
 62
     9
 10
0.0
 20
0.0
 30
0.0
 70
   128
 71
    43
 72
    14
 73
    15
  0
VERTEX
  5
EF
  8
0
 62
     9
 10
0.0
 20
0.0
 30
0.0
 70
   128
 71
    44
 72
    18
 73
    14
  0
VERTEX
  5
F0
  8
0
 62
     9
 10
0.0
 20
0.0
 30
0.0
 70
   128
 71
    45
 72
    20
 73
    18
  0
VERTEX
  5
F1
  8
0
 62
     9
 10
0.0
 20
0.0
 30
0.0
 70
   128
 71
    46
 72
    23
 73
    20
  0
VERTEX
  5
F2
  8
0
 62
     9
 10
0.0
 20
0.0
 30
0.0
 70
   128
 71
    47
 72
    22
 73
    23
  0
VERTEX
  5
F3
  8
0
 62
     9
 10
0.0
 20
0.0
 30
0.0
 70
   128
 71
    48
 72
    26
 73
    22
  0
VERTEX
  5
F4
  8
0
 62
     9
 10
0.0
 20
0.0
 30
0.0
 70
   128
 71
    49
 72
    29
 73
    26
  0
VERTEX
  5
F5
  8
0
 62
     9
 10
0.0
 20
0.0
 30
0.0
 70
   128
 71
    50
 72
    28
 73
    29
  0
VERTEX
  5
F6
  8
0
 62
     9
 10
0.0
 20
0.0
 30
0.0
 70
   128
 71
    51
 72
    32
 73
    28
  0
VERTEX
  5
F7
  8
0
 62
     9
 10
0.0
 20
0.0
 30
0.0
 70
   128
 71
    52
 72
    35
 73
    32
  0
VERTEX
  5
F8
  8
0
 62
     9
 10
0.0
 20
0.0
 30
0.0
 70
   128
 71
    53
 72
    34
 73
    35
  0
VERTEX
  5
F9
  8
0
 62
     9
 10
0.0
 20
0.0
 30
0.0
 70
   128
 71
    54
 72
     1
 73
    34
  0
VERTEX
  5
FA
  8
0
 62
     9
 10
0.0
 20
0.0
 30
0.0
 70
   128
 71
    54
 72
    56
 73
    55
  0
VERTEX
  5
FB
  8
0
 62
     9
 10
0.0
 20
0.0
 30
0.0
 70
   128
 71
    37
 72
    55
 73
    57
  0
VERTEX
  5
FC
  8
0
 62
     9
 10
0.0
 20
0.0
 30
0.0
 70
   128
 71
    38
 72
    57
 73
    58
  0
VERTEX
  5
FD
  8
0
 62
     9
 10
0.0
 20
0.0
 30
0.0
 70
   128
 71
    40
 72
    39
 73
    58
  0
VERTEX
  5
FE
  8
0
 62
     9
 10
0.0
 20
0.0
 30
0.0
 70
   128
 71
    41
 72
    40
 73
    59
  0
VERTEX
  5
FF
  8
0
 62
     9
 10
0.0
 20
0.0
 30
0.0
 70
   128
 71
    41
 72
    61
 73
    60
  0
VERTEX
  5
100
  8
0
 62
     9
 10
0.0
 20
0.0
 30
0.0
 70
   128
 71
    42
 72
    60
 73
    62
  0
VERTEX
  5
101
  8
0
 62
     9
 10
0.0
 20
0.0
 30
0.0
 70
   128
 71
    44
 72
    43
 73
    62
  0
VERTEX
  5
102
  8
0
 62
     9
 10
0.0
 20
0.0
 30
0.0
 70
   128
 71
    44
 72
    64
 73
    63
  0
VERTEX
  5
103
  8
0
 62
     9
 10
0.0
 20
0.0
 30
0.0
 70
   128
 71
    45
 72
    63
 73
    65
  0
VERTEX
  5
104
  8
0
 62
     9
 10
0.0
 20
0.0
 30
0.0
 70
   128
 71
    46
 72
    65
 73
    66
  0
VERTEX
  5
105
  8
0
 62
     9
 10
0.0
 20
0.0
 30
0.0
 70
   128
 71
    48
 72
    47
 73
    66
  0
VERTEX
  5
106
  8
0
 62
     9
 10
0.0
 20
0.0
 30
0.0
 70
   128
 71
    48
 72
    68
 73
    67
  0
VERTEX
  5
107
  8
0
 62
     9
 10
0.0
 20
0.0
 30
0.0
 70
   128
 71
    49
 72
    67
 73
    69
  0
VERTEX
  5
108
  8
0
 62
     9
 10
0.0
 20
0.0
 30
0.0
 70
   128
 71
    51
 72
    50
 73
    69
  0
VERTEX
  5
109
  8
0
 62
     9
 10
0.0
 20
0.0
 30
0.0
 70
   128
 71
    51
 72
    71
 73
    70
  0
VERTEX
  5
10A
  8
0
 62
     9
 10
0.0
 20
0.0
 30
0.0
 70
   128
 71
    52
 72
    70
 73
    72
  0
VERTEX
  5
10B
  8
0
 62
     9
 10
0.0
 20
0.0
 30
0.0
 70
   128
 71
    54
 72
    53
 73
    72
  0
VERTEX
  5
10C
  8
0
 62
     9
 10
0.0
 20
0.0
 30
0.0
 70
   128
 71
    72
 72
    56
 73
    54
  0
VERTEX
  5
10D
  8
0
 62
     9
 10
0.0
 20
0.0
 30
0.0
 70
   128
 71
    72
 72
    53
 73
    52
  0
VERTEX
  5
10E
  8
0
 62
     9
 10
0.0
 20
0.0
 30
0.0
 70
   128
 71
    70
 72
    52
 73
    51
  0
VERTEX
  5
10F
  8
0
 62
     9
 10
0.0
 20
0.0
 30
0.0
 70
   128
 71
    69
 72
    71
 73
    51
  0
VERTEX
  5
110
  8
0
 62
     9
 10
0.0
 20
0.0
 30
0.0
 70
   128
 71
    69
 72
    50
 73
    49
  0
VERTEX
  5
111
  8
0
 62
     9
 10
0.0
 20
0.0
 30
0.0
 70
   128
 71
    67
 72
    49
 73
    48
  0
VERTEX
  5
112
  8
0
 62
     9
 10
0.0
 20
0.0
 30
0.0
 70
   128
 71
    66
 72
    68
 73
    48
  0
VERTEX
  5
113
  8
0
 62
     9
 10
0.0
 20
0.0
 30
0.0
 70
   128
 71
    66
 72
    47
 73
    46
  0
VERTEX
  5
114
  8
0
 62
     9
 10
0.0
 20
0.0
 30
0.0
 70
   128
 71
    65
 72
    46
 73
    45
  0
VERTEX
  5
115
  8
0
 62
     9
 10
0.0
 20
0.0
 30
0.0
 70
   128
 71
    63
 72
    45
 73
    44
  0
VERTEX
  5
116
  8
0
 62
     9
 10
0.0
 20
0.0
 30
0.0
 70
   128
 71
    62
 72
    64
 73
    44
  0
VERTEX
  5
117
  8
0
 62
     9
 10
0.0
 20
0.0
 30
0.0
 70
   128
 71
    62
 72
    43
 73
    42
  0
VERTEX
  5
118
  8
0
 62
     9
 10
0.0
 20
0.0
 30
0.0
 70
   128
 71
    60
 72
    42
 73
    41
  0
VERTEX
  5
119
  8
0
 62
     9
 10
0.0
 20
0.0
 30
0.0
 70
   128
 71
    59
 72
    61
 73
    41
  0
VERTEX
  5
11A
  8
0
 62
     9
 10
0.0
 20
0.0
 30
0.0
 70
   128
 71
    58
 72
    59
 73
    40
  0
VERTEX
  5
11B
  8
0
 62
     9
 10
0.0
 20
0.0
 30
0.0
 70
   128
 71
    58
 72
    39
 73
    38
  0
VERTEX
  5
11C
  8
0
 62
     9
 10
0.0
 20
0.0
 30
0.0
 70
   128
 71
    57
 72
    38
 73
    37
  0
VERTEX
  5
11D
  8
0
 62
     9
 10
0.0
 20
0.0
 30
0.0
 70
   128
 71
    55
 72
    37
 73
    54
  0
VERTEX
  5
11E
  8
0
 62
     9
 10
0.0
 20
0.0
 30
0.0
 70
   128
 71
    34
 72
    53
 73
    54
  0
VERTEX
  5
11F
  8
0
 62
     9
 10
0.0
 20
0.0
 30
0.0
 70
   128
 71
    35
 72
    52
 73
    53
  0
VERTEX
  5
120
  8
0
 62
     9
 10
0.0
 20
0.0
 30
0.0
 70
   128
 71
    32
 72
    51
 73
    52
  0
VERTEX
  5
121
  8
0
 62
     9
 10
0.0
 20
0.0
 30
0.0
 70
   128
 71
    28
 72
    50
 73
    51
  0
VERTEX
  5
122
  8
0
 62
     9
 10
0.0
 20
0.0
 30
0.0
 70
   128
 71
    29
 72
    49
 73
    50
  0
VERTEX
  5
123
  8
0
 62
     9
 10
0.0
 20
0.0
 30
0.0
 70
   128
 71
    26
 72
    48
 73
    49
  0
VERTEX
  5
124
  8
0
 62
     9
 10
0.0
 20
0.0
 30
0.0
 70
   128
 71
    22
 72
    47
 73
    48
  0
VERTEX
  5
125
  8
0
 62
     9
 10
0.0
 20
0.0
 30
0.0
 70
   128
 71
    23
 72
    46
 73
    47
  0
VERTEX
  5
126
  8
0
 62
     9
 10
0.0
 20
0.0
 30
0.0
 70
   128
 71
    20
 72
    45
 73
    46
  0
VERTEX
  5
127
  8
0
 62
     9
 10
0.0
 20
0.0
 30
0.0
 70
   128
 71
    18
 72
    44
 73
    45
  0
VERTEX
  5
128
  8
0
 62
     9
 10
0.0
 20
0.0
 30
0.0
 70
   128
 71
    14
 72
    43
 73
    44
  0
VERTEX
  5
129
  8
0
 62
     9
 10
0.0
 20
0.0
 30
0.0
 70
   128
 71
    15
 72
    42
 73
    43
  0
VERTEX
  5
12A
  8
0
 62
     9
 10
0.0
 20
0.0
 30
0.0
 70
   128
 71
    10
 72
    41
 73
    42
  0
VERTEX
  5
12B
  8
0
 62
     9
 10
0.0
 20
0.0
 30
0.0
 70
   128
 71
    11
 72
    40
 73
    41
  0
VERTEX
  5
12C
  8
0
 62
     9
 10
0.0
 20
0.0
 30
0.0
 70
   128
 71
     6
 72
    39
 73
    40
  0
VERTEX
  5
12D
  8
0
 62
     9
 10
0.0
 20
0.0
 30
0.0
 70
   128
 71
     7
 72
    38
 73
    39
  0
VERTEX
  5
12E
  8
0
 62
     9
 10
0.0
 20
0.0
 30
0.0
 70
   128
 71
     4
 72
    37
 73
    38
  0
VERTEX
  5
12F
  8
0
 62
     9
 10
0.0
 20
0.0
 30
0.0
 70
   128
 71
     1
 72
    54
 73
    37
  0
VERTEX
  5
130
  8
0
 62
     9
 10
0.0
 20
0.0
 30
0.0
 70
   128
 71
     1
 72
     2
 73
    36
  0
VERTEX
  5
131
  8
0
 62
     9
 10
0.0
 20
0.0
 30
0.0
 70
   128
 71
    34
 72
    36
 73
    33
  0
VERTEX
  5
132
  8
0
 62
     9
 10
0.0
 20
0.0
 30
0.0
 70
   128
 71
    32
 72
    35
 73
    33
  0
VERTEX
  5
133
  8
0
 62
     9
 10
0.0
 20
0.0
 30
0.0
 70
   128
 71
    28
 72
    32
 73
    31
  0
VERTEX
  5
134
  8
0
 62
     9
 10
0.0
 20
0.0
 30
0.0
 70
   128
 71
    28
 72
    30
 73
    27
  0
VERTEX
  5
135
  8
0
 62
     9
 10
0.0
 20
0.0
 30
0.0
 70
   128
 71
    26
 72
    29
 73
    27
  0
VERTEX
  5
136
  8
0
 62
     9
 10
0.0
 20
0.0
 30
0.0
 70
   128
 71
    22
 72
    26
 73
    25
  0
VERTEX
  5
137
  8
0
 62
     9
 10
0.0
 20
0.0
 30
0.0
 70
   128
 71
    22
 72
    24
 73
    21
  0
VERTEX
  5
138
  8
0
 62
     9
 10
0.0
 20
0.0
 30
0.0
 70
   128
 71
    20
 72
    23
 73
    21
  0
VERTEX
  5
139
  8
0
 62
     9
 10
0.0
 20
0.0
 30
0.0
 70
   128
 71
    18
 72
    20
 73
    19
  0
VERTEX
  5
13A
  8
0
 62
     9
 10
0.0
 20
0.0
 30
0.0
 70
   128
 71
    14
 72
    18
 73
    17
  0
VERTEX
  5
13B
  8
0
 62
     9
 10
0.0
 20
0.0
 30
0.0
 70
   128
 71
    14
 72
    16
 73
    13
  0
VERTEX
  5
13C
  8
0
 62
     9
 10
0.0
 20
0.0
 30
0.0
 70
   128
 71
    10
 72
    15
 73
    13
  0
VERTEX
  5
13D
  8
0
 62
     9
 10
0.0
 20
0.0
 30
0.0
 70
   128
 71
    10
 72
    12
 73
     9
  0
VERTEX
  5
13E
  8
0
 62
     9
 10
0.0
 20
0.0
 30
0.0
 70
   128
 71
     6
 72
    11
 73
     9
  0
VERTEX
  5
13F
  8
0
 62
     9
 10
0.0
 20
0.0
 30
0.0
 70
   128
 71
     6
 72
     8
 73
     5
  0
VERTEX
  5
140
  8
0
 62
     9
 10
0.0
 20
0.0
 30
0.0
 70
   128
 71
     4
 72
     7
 73
     5
  0
VERTEX
  5
141
  8
0
 62
     9
 10
0.0
 20
0.0
 30
0.0
 70
   128
 71
     1
 72
     4
 73
     3
  0
SEQEND
  5
142
  8
0
 62
     9
  0
ENDBLK
  5
145
  8
0
  0
BLOCK
  8
0
  2
E3_NODE_4_
 70
     0
 10
0.0
 20
0.0
 30
0.0
  3
E3_NODE_4_
  1

  0
POLYLINE
  5
147
  8
0
 62
     9
 66
     1
 10
0.0
 20
0.0
 30
0.0
 70
    64
 71
    36
 72
    36
  0
VERTEX
  5
148
  8
0
 10
-92.0
 20
63.02899932861328
 30
-32.88899993896484
 70
   192
  0
VERTEX
  5
149
  8
0
 10
-92.0
 20
75.0
 30
-35.0
 70
   192
  0
VERTEX
  5
14A
  8
0
 10
-73.19400024414062
 20
75.0
 30
-34.49399948120117
 70
   192
  0
VERTEX
  5
14B
  8
0
 10
-73.19400024414062
 20
63.20199966430664
 30
-32.41400146484375
 70
   192
  0
VERTEX
  5
14C
  8
0
 10
-73.19400024414062
 20
52.82699966430664
 30
-26.42399978637695
 70
   192
  0
VERTEX
  5
14D
  8
0
 10
-92.0
 20
44.68899917602539
 30
-17.5
 70
   192
  0
VERTEX
  5
14E
  8
0
 10
-92.0
 20
52.50199890136719
 30
-26.8120002746582
 70
   192
  0
VERTEX
  5
14F
  8
0
 10
-92.0
 20
40.53200149536133
 30
-6.078000068664551
 70
   192
  0
VERTEX
  5
150
  8
0
 10
-73.19400024414062
 20
45.12699890136719
 30
-17.24699974060059
 70
   192
  0
VERTEX
  5
151
  8
0
 10
-73.19400024414062
 20
41.02999877929688
 30
-5.989999771118164
 70
   192
  0
VERTEX
  5
152
  8
0
 10
-73.19400024414062
 20
41.02999877929688
 30
5.989999771118164
 70
   192
  0
VERTEX
  5
153
  8
0
 10
-92.0
 20
44.68899917602539
 30
17.5
 70
   192
  0
VERTEX
  5
154
  8
0
 10
-92.0
 20
40.53200149536133
 30
6.078000068664551
 70
   192
  0
VERTEX
  5
155
  8
0
 10
-73.19400024414062
 20
45.12699890136719
 30
17.24699974060059
 70
   192
  0
VERTEX
  5
156
  8
0
 10
-73.19400024414062
 20
52.82699966430664
 30
26.42399978637695
 70
   192
  0
VERTEX
  5
157
  8
0
 10
-92.0
 20
52.50199890136719
 30
26.8120002746582
 70
   192
  0
VERTEX
  5
158
  8
0
 10
-73.19400024414062
 20
63.20199966430664
 30
32.41400146484375
 70
   192
  0
VERTEX
  5
159
  8
0
 10
-92.0
 20
75.0
 30
35.0
 70
   192
  0
VERTEX
  5
15A
  8
0
 10
-92.0
 20
63.02899932861328
 30
32.88899993896484
 70
   192
  0
VERTEX
  5
15B
  8
0
 10
-73.19400024414062
 20
75.0
 30
34.49399948120117
 70
   192
  0
VERTEX
  5
15C
  8
0
 10
-73.19400024414062
 20
86.7979965209961
 30
32.41400146484375
 70
   192
  0
VERTEX
  5
15D
  8
0
 10
-92.0
 20
97.49800109863281
 30
26.8120002746582
 70
   192
  0
VERTEX
  5
15E
  8
0
 10
-92.0
 20
86.97100067138672
 30
32.88899993896484
 70
   192
  0
VERTEX
  5
15F
  8
0
 10
-73.19400024414062
 20
97.1729965209961
 30
26.42399978637695
 70
   192
  0
VERTEX
  5
160
  8
0
 10
-73.19400024414062
 20
104.8730010986328
 30
17.24699974060059
 70
   192
  0
VERTEX
  5
161
  8
0
 10
-92.0
 20
109.4680023193359
 30
6.078000068664551
 70
   192
  0
VERTEX
  5
162
  8
0
 10
-92.0
 20
105.3109970092773
 30
17.5
 70
   192
  0
VERTEX
  5
163
  8
0
 10
-92.0
 20
109.4680023193359
 30
-6.078000068664551
 70
   192
  0
VERTEX
  5
164
  8
0
 10
-73.19400024414062
 20
108.9700012207031
 30
5.989999771118164
 70
   192
  0
VERTEX
  5
165
  8
0
 10
-73.19400024414062
 20
108.9700012207031
 30
-5.989999771118164
 70
   192
  0
VERTEX
  5
166
  8
0
 10
-73.19400024414062
 20
104.8730010986328
 30
-17.24699974060059
 70
   192
  0
VERTEX
  5
167
  8
0
 10
-92.0
 20
97.49800109863281
 30
-26.8120002746582
 70
   192
  0
VERTEX
  5
168
  8
0
 10
-92.0
 20
105.3109970092773
 30
-17.5
 70
   192
  0
VERTEX
  5
169
  8
0
 10
-92.0
 20
86.97100067138672
 30
-32.88899993896484
 70
   192
  0
VERTEX
  5
16A
  8
0
 10
-73.19400024414062
 20
97.1729965209961
 30
-26.42399978637695
 70
   192
  0
VERTEX
  5
16B
  8
0
 10
-73.19400024414062
 20
86.7979965209961
 30
-32.41400146484375
 70
   192
  0
VERTEX
  5
16C
  8
0
 62
     9
 10
0.0
 20
0.0
 30
0.0
 70
   128
 71
     3
 72
     2
 73
     1
  0
VERTEX
  5
16D
  8
0
 62
     9
 10
0.0
 20
0.0
 30
0.0
 70
   128
 71
     5
 72
     4
 73
     1
  0
VERTEX
  5
16E
  8
0
 62
     9
 10
0.0
 20
0.0
 30
0.0
 70
   128
 71
     5
 72
     7
 73
     6
  0
VERTEX
  5
16F
  8
0
 62
     9
 10
0.0
 20
0.0
 30
0.0
 70
   128
 71
     9
 72
     6
 73
     8
  0
VERTEX
  5
170
  8
0
 62
     9
 10
0.0
 20
0.0
 30
0.0
 70
   128
 71
    11
 72
    10
 73
     8
  0
VERTEX
  5
171
  8
0
 62
     9
 10
0.0
 20
0.0
 30
0.0
 70
   128
 71
    11
 72
    13
 73
    12
  0
VERTEX
  5
172
  8
0
 62
     9
 10
0.0
 20
0.0
 30
0.0
 70
   128
 71
    15
 72
    14
 73
    12
  0
VERTEX
  5
173
  8
0
 62
     9
 10
0.0
 20
0.0
 30
0.0
 70
   128
 71
    17
 72
    15
 73
    16
  0
VERTEX
  5
174
  8
0
 62
     9
 10
0.0
 20
0.0
 30
0.0
 70
   128
 71
    17
 72
    19
 73
    18
  0
VERTEX
  5
175
  8
0
 62
     9
 10
0.0
 20
0.0
 30
0.0
 70
   128
 71
    21
 72
    20
 73
    18
  0
VERTEX
  5
176
  8
0
 62
     9
 10
0.0
 20
0.0
 30
0.0
 70
   128
 71
    21
 72
    23
 73
    22
  0
VERTEX
  5
177
  8
0
 62
     9
 10
0.0
 20
0.0
 30
0.0
 70
   128
 71
    25
 72
    24
 73
    22
  0
VERTEX
  5
178
  8
0
 62
     9
 10
0.0
 20
0.0
 30
0.0
 70
   128
 71
    25
 72
    27
 73
    26
  0
VERTEX
  5
179
  8
0
 62
     9
 10
0.0
 20
0.0
 30
0.0
 70
   128
 71
    29
 72
    26
 73
    28
  0
VERTEX
  5
17A
  8
0
 62
     9
 10
0.0
 20
0.0
 30
0.0
 70
   128
 71
    31
 72
    30
 73
    28
  0
VERTEX
  5
17B
  8
0
 62
     9
 10
0.0
 20
0.0
 30
0.0
 70
   128
 71
    31
 72
    33
 73
    32
  0
VERTEX
  5
17C
  8
0
 62
     9
 10
0.0
 20
0.0
 30
0.0
 70
   128
 71
    35
 72
    32
 73
    34
  0
VERTEX
  5
17D
  8
0
 62
     9
 10
0.0
 20
0.0
 30
0.0
 70
   128
 71
    36
 72
    34
 73
     2
  0
VERTEX
  5
17E
  8
0
 62
     9
 10
0.0
 20
0.0
 30
0.0
 70
   128
 71
     2
 72
     3
 73
    36
  0
VERTEX
  5
17F
  8
0
 62
     9
 10
0.0
 20
0.0
 30
0.0
 70
   128
 71
    34
 72
    36
 73
    35
  0
VERTEX
  5
180
  8
0
 62
     9
 10
0.0
 20
0.0
 30
0.0
 70
   128
 71
    32
 72
    35
 73
    31
  0
VERTEX
  5
181
  8
0
 62
     9
 10
0.0
 20
0.0
 30
0.0
 70
   128
 71
    28
 72
    33
 73
    31
  0
VERTEX
  5
182
  8
0
 62
     9
 10
0.0
 20
0.0
 30
0.0
 70
   128
 71
    28
 72
    30
 73
    29
  0
VERTEX
  5
183
  8
0
 62
     9
 10
0.0
 20
0.0
 30
0.0
 70
   128
 71
    26
 72
    29
 73
    25
  0
VERTEX
  5
184
  8
0
 62
     9
 10
0.0
 20
0.0
 30
0.0
 70
   128
 71
    22
 72
    27
 73
    25
  0
VERTEX
  5
185
  8
0
 62
     9
 10
0.0
 20
0.0
 30
0.0
 70
   128
 71
    22
 72
    24
 73
    21
  0
VERTEX
  5
186
  8
0
 62
     9
 10
0.0
 20
0.0
 30
0.0
 70
   128
 71
    18
 72
    23
 73
    21
  0
VERTEX
  5
187
  8
0
 62
     9
 10
0.0
 20
0.0
 30
0.0
 70
   128
 71
    18
 72
    20
 73
    17
  0
VERTEX
  5
188
  8
0
 62
     9
 10
0.0
 20
0.0
 30
0.0
 70
   128
 71
    16
 72
    19
 73
    17
  0
VERTEX
  5
189
  8
0
 62
     9
 10
0.0
 20
0.0
 30
0.0
 70
   128
 71
    12
 72
    16
 73
    15
  0
VERTEX
  5
18A
  8
0
 62
     9
 10
0.0
 20
0.0
 30
0.0
 70
   128
 71
    12
 72
    14
 73
    11
  0
VERTEX
  5
18B
  8
0
 62
     9
 10
0.0
 20
0.0
 30
0.0
 70
   128
 71
     8
 72
    13
 73
    11
  0
VERTEX
  5
18C
  8
0
 62
     9
 10
0.0
 20
0.0
 30
0.0
 70
   128
 71
     8
 72
    10
 73
     9
  0
VERTEX
  5
18D
  8
0
 62
     9
 10
0.0
 20
0.0
 30
0.0
 70
   128
 71
     6
 72
     9
 73
     5
  0
VERTEX
  5
18E
  8
0
 62
     9
 10
0.0
 20
0.0
 30
0.0
 70
   128
 71
     1
 72
     7
 73
     5
  0
VERTEX
  5
18F
  8
0
 62
     9
 10
0.0
 20
0.0
 30
0.0
 70
   128
 71
     1
 72
     4
 73
     3
  0
SEQEND
  5
190
  8
0
 62
     9
  0
ENDBLK
  5
193
  8
0
  0
BLOCK
  8
0
  2
E3_NODE_5_
 70
     0
 10
0.0
 20
0.0
 30
0.0
  3
E3_NODE_5_
  1

  0
POLYLINE
  5
195
  8
0
 62
     9
 66
     1
 10
0.0
 20
0.0
 30
0.0
 70
    64
 71
    18
 72
    16
  0
VERTEX
  5
196
  8
0
 10
-92.0
 20
52.50199890136719
 30
-26.8120002746582
 70
   192
  0
VERTEX
  5
197
  8
0
 10
-92.0
 20
109.4680023193359
 30
-6.078000068664551
 70
   192
  0
VERTEX
  5
198
  8
0
 10
-92.0
 20
105.3109970092773
 30
-17.5
 70
   192
  0
VERTEX
  5
199
  8
0
 10
-92.0
 20
97.49800109863281
 30
26.8120002746582
 70
   192
  0
VERTEX
  5
19A
  8
0
 10
-92.0
 20
40.53200149536133
 30
-6.078000068664551
 70
   192
  0
VERTEX
  5
19B
  8
0
 10
-92.0
 20
40.53200149536133
 30
6.078000068664551
 70
   192
  0
VERTEX
  5
19C
  8
0
 10
-92.0
 20
86.97100067138672
 30
-32.88899993896484
 70
   192
  0
VERTEX
  5
19D
  8
0
 10
-92.0
 20
75.0
 30
-35.0
 70
   192
  0
VERTEX
  5
19E
  8
0
 10
-92.0
 20
63.02899932861328
 30
-32.88899993896484
 70
   192
  0
VERTEX
  5
19F
  8
0
 10
-92.0
 20
109.4680023193359
 30
6.078000068664551
 70
   192
  0
VERTEX
  5
1A0
  8
0
 10
-92.0
 20
63.02899932861328
 30
32.88899993896484
 70
   192
  0
VERTEX
  5
1A1
  8
0
 10
-92.0
 20
75.0
 30
35.0
 70
   192
  0
VERTEX
  5
1A2
  8
0
 10
-92.0
 20
44.68899917602539
 30
17.5
 70
   192
  0
VERTEX
  5
1A3
  8
0
 10
-92.0
 20
52.50199890136719
 30
26.8120002746582
 70
   192
  0
VERTEX
  5
1A4
  8
0
 10
-92.0
 20
44.68899917602539
 30
-17.5
 70
   192
  0
VERTEX
  5
1A5
  8
0
 10
-92.0
 20
97.49800109863281
 30
-26.8120002746582
 70
   192
  0
VERTEX
  5
1A6
  8
0
 10
-92.0
 20
105.3109970092773
 30
17.5
 70
   192
  0
VERTEX
  5
1A7
  8
0
 10
-92.0
 20
86.97100067138672
 30
32.88899993896484
 70
   192
  0
VERTEX
  5
1A8
  8
0
 62
     9
 10
0.0
 20
0.0
 30
0.0
 70
   128
 71
     3
 72
     2
 73
     1
  0
VERTEX
  5
1A9
  8
0
 62
     9
 10
0.0
 20
0.0
 30
0.0
 70
   128
 71
     6
 72
     5
 73
     4
  0
VERTEX
  5
1AA
  8
0
 62
     9
 10
0.0
 20
0.0
 30
0.0
 70
   128
 71
     9
 72
     8
 73
     7
  0
VERTEX
  5
1AB
  8
0
 62
     9
 10
0.0
 20
0.0
 30
0.0
 70
   128
 71
     2
 72
    10
 73
     1
  0
VERTEX
  5
1AC
  8
0
 62
     9
 10
0.0
 20
0.0
 30
0.0
 70
   128
 71
    12
 72
    11
 73
     4
  0
VERTEX
  5
1AD
  8
0
 62
     9
 10
0.0
 20
0.0
 30
0.0
 70
   128
 71
    14
 72
    13
 73
     4
  0
VERTEX
  5
1AE
  8
0
 62
     9
 10
0.0
 20
0.0
 30
0.0
 70
   128
 71
     5
 72
    15
 73
     4
  0
VERTEX
  5
1AF
  8
0
 62
     9
 10
0.0
 20
0.0
 30
0.0
 70
   128
 71
     7
 72
    16
 73
     1
  0
VERTEX
  5
1B0
  8
0
 62
     9
 10
0.0
 20
0.0
 30
0.0
 70
   128
 71
    10
 72
    17
 73
     1
  0
VERTEX
  5
1B1
  8
0
 62
     9
 10
0.0
 20
0.0
 30
0.0
 70
   128
 71
     4
 72
    11
 73
    14
  0
VERTEX
  5
1B2
  8
0
 62
     9
 10
0.0
 20
0.0
 30
0.0
 70
   128
 71
    15
 72
     1
 73
     4
  0
VERTEX
  5
1B3
  8
0
 62
     9
 10
0.0
 20
0.0
 30
0.0
 70
   128
 71
     1
 72
    16
 73
     3
  0
VERTEX
  5
1B4
  8
0
 62
     9
 10
0.0
 20
0.0
 30
0.0
 70
   128
 71
     4
 72
    13
 73
     6
  0
VERTEX
  5
1B5
  8
0
 62
     9
 10
0.0
 20
0.0
 30
0.0
 70
   128
 71
    17
 72
     4
 73
     1
  0
VERTEX
  5
1B6
  8
0
 62
     9
 10
0.0
 20
0.0
 30
0.0
 70
   128
 71
     7
 72
     1
 73
     9
  0
VERTEX
  5
1B7
  8
0
 62
     9
 10
0.0
 20
0.0
 30
0.0
 70
   128
 71
     4
 72
    18
 73
    12
  0
SEQEND
  5
1B8
  8
0
 62
     9
  0
ENDBLK
  5
1BB
  8
0
  0
BLOCK
  8
0
  2
E3_NODE_6_
 70
     0
 10
0.0
 20
0.0
 30
0.0
  3
E3_NODE_6_
  1

  0
POLYLINE
  5
1BD
  8
0
 62
     9
 66
     1
 10
0.0
 20
0.0
 30
0.0
 70
    64
 71
    12
 72
    10
  0
VERTEX
  5
1BE
  8
0
 10
20.01799964904785
 20
106.0
 30
-13.21100044250488
 70
   192
  0
VERTEX
  5
1BF
  8
0
 10
23.85000038146973
 20
106.0
 30
-2.625
 70
   192
  0
VERTEX
  5
1C0
  8
0
 10
23.85000038146973
 20
-106.0
 30
-2.625
 70
   192
  0
VERTEX
  5
1C1
  8
0
 10
11.38099956512451
 20
-106.0
 30
-21.10300064086914
 70
   192
  0
VERTEX
  5
1C2
  8
0
 10
11.38099956512451
 20
106.0
 30
-21.10300064086914
 70
   192
  0
VERTEX
  5
1C3
  8
0
 10
0.0260000005364418
 20
-106.0
 30
-24.0
 70
   192
  0
VERTEX
  5
1C4
  8
0
 10
23.97599983215332
 20
106.0
 30
0.0020000000949949
 70
   192
  0
VERTEX
  5
1C5
  8
0
 10
23.97599983215332
 20
-106.0
 30
0.0020000000949949
 70
   192
  0
VERTEX
  5
1C6
  8
0
 10
23.99600028991699
 20
106.0
 30
0.414000004529953
 70
   192
  0
VERTEX
  5
1C7
  8
0
 10
23.99600028991699
 20
-106.0
 30
0.4149999916553497
 70
   192
  0
VERTEX
  5
1C8
  8
0
 10
0.0260000005364418
 20
106.0
 30
-24.0
 70
   192
  0
VERTEX
  5
1C9
  8
0
 10
20.01799964904785
 20
-106.0
 30
-13.21100044250488
 70
   192
  0
VERTEX
  5
1CA
  8
0
 62
     9
 10
0.0
 20
0.0
 30
0.0
 70
   128
 71
     3
 72
     2
 73
     1
  0
VERTEX
  5
1CB
  8
0
 62
     9
 10
0.0
 20
0.0
 30
0.0
 70
   128
 71
     1
 72
     5
 73
     4
  0
VERTEX
  5
1CC
  8
0
 62
     9
 10
0.0
 20
0.0
 30
0.0
 70
   128
 71
     6
 72
     4
 73
     5
  0
VERTEX
  5
1CD
  8
0
 62
     9
 10
0.0
 20
0.0
 30
0.0
 70
   128
 71
     8
 72
     7
 73
     2
  0
VERTEX
  5
1CE
  8
0
 62
     9
 10
0.0
 20
0.0
 30
0.0
 70
   128
 71
     9
 72
     7
 73
     8
  0
VERTEX
  5
1CF
  8
0
 62
     9
 10
0.0
 20
0.0
 30
0.0
 70
   128
 71
     8
 72
    10
 73
     9
  0
VERTEX
  5
1D0
  8
0
 62
     9
 10
0.0
 20
0.0
 30
0.0
 70
   128
 71
     2
 72
     3
 73
     8
  0
VERTEX
  5
1D1
  8
0
 62
     9
 10
0.0
 20
0.0
 30
0.0
 70
   128
 71
     5
 72
    11
 73
     6
  0
VERTEX
  5
1D2
  8
0
 62
     9
 10
0.0
 20
0.0
 30
0.0
 70
   128
 71
     4
 72
    12
 73
     1
  0
VERTEX
  5
1D3
  8
0
 62
     9
 10
0.0
 20
0.0
 30
0.0
 70
   128
 71
     1
 72
    12
 73
     3
  0
SEQEND
  5
1D4
  8
0
 62
     9
  0
ENDBLK
  5
1D7
  8
0
  0
BLOCK
  8
0
  2
E3_NODE_7_
 70
     0
 10
0.0
 20
0.0
 30
0.0
  3
E3_NODE_7_
  1

  0
POLYLINE
  5
1D9
  8
0
 62
     9
 66
     1
 10
0.0
 20
0.0
 30
0.0
 70
    64
 71
    10
 72
     8
  0
VERTEX
  5
1DA
  8
0
 10
2.196000099182129
 20
106.0
 30
23.89500045776367
 70
   192
  0
VERTEX
  5
1DB
  8
0
 10
0.0230000000447035
 20
106.0
 30
24.0
 70
   192
  0
VERTEX
  5
1DC
  8
0
 10
0.0230000000447035
 20
-106.0
 30
24.0
 70
   192
  0
VERTEX
  5
1DD
  8
0
 10
12.85599994659424
 20
106.0
 30
20.24600028991699
 70
   192
  0
VERTEX
  5
1DE
  8
0
 10
2.196000099182129
 20
-106.0
 30
23.89500045776367
 70
   192
  0
VERTEX
  5
1DF
  8
0
 10
20.90299987792969
 20
106.0
 30
11.74699974060059
 70
   192
  0
VERTEX
  5
1E0
  8
0
 10
12.85599994659424
 20
-106.0
 30
20.24600028991699
 70
   192
  0
VERTEX
  5
1E1
  8
0
 10
20.90299987792969
 20
-106.0
 30
11.74699974060059
 70
   192
  0
VERTEX
  5
1E2
  8
0
 10
23.99600028991699
 20
-106.0
 30
0.4149999916553497
 70
   192
  0
VERTEX
  5
1E3
  8
0
 10
23.99600028991699
 20
106.0
 30
0.414000004529953
 70
   192
  0
VERTEX
  5
1E4
  8
0
 62
     9
 10
0.0
 20
0.0
 30
0.0
 70
   128
 71
     3
 72
     2
 73
     1
  0
VERTEX
  5
1E5
  8
0
 62
     9
 10
0.0
 20
0.0
 30
0.0
 70
   128
 71
     5
 72
     1
 73
     4
  0
VERTEX
  5
1E6
  8
0
 62
     9
 10
0.0
 20
0.0
 30
0.0
 70
   128
 71
     7
 72
     4
 73
     6
  0
VERTEX
  5
1E7
  8
0
 62
     9
 10
0.0
 20
0.0
 30
0.0
 70
   128
 71
     9
 72
     8
 73
     6
  0
VERTEX
  5
1E8
  8
0
 62
     9
 10
0.0
 20
0.0
 30
0.0
 70
   128
 71
     6
 72
    10
 73
     9
  0
VERTEX
  5
1E9
  8
0
 62
     9
 10
0.0
 20
0.0
 30
0.0
 70
   128
 71
     6
 72
     8
 73
     7
  0
VERTEX
  5
1EA
  8
0
 62
     9
 10
0.0
 20
0.0
 30
0.0
 70
   128
 71
     4
 72
     7
 73
     5
  0
VERTEX
  5
1EB
  8
0
 62
     9
 10
0.0
 20
0.0
 30
0.0
 70
   128
 71
     1
 72
     5
 73
     3
  0
SEQEND
  5
1EC
  8
0
 62
     9
  0
ENDBLK
  5
1EF
  8
0
  0
BLOCK
  8
0
  2
E3_NODE_8_
 70
     0
 10
0.0
 20
0.0
 30
0.0
  3
E3_NODE_8_
  1

  0
POLYLINE
  5
1F1
  8
0
 62
     9
 66
     1
 10
0.0
 20
0.0
 30
0.0
 70
    64
 71
    14
 72
    12
  0
VERTEX
  5
1F2
  8
0
 10
0.0260000005364418
 20
-106.0
 30
-24.0
 70
   192
  0
VERTEX
  5
1F3
  8
0
 10
11.38099956512451
 20
-106.0
 30
-21.10300064086914
 70
   192
  0
VERTEX
  5
1F4
  8
0
 10
20.01799964904785
 20
-106.0
 30
-13.21100044250488
 70
   192
  0
VERTEX
  5
1F5
  8
0
 10
-40.0
 20
-106.0
 30
0.0020000000949949
 70
   192
  0
VERTEX
  5
1F6
  8
0
 10
-40.0
 20
-106.0
 30
-20.50799942016602
 70
   192
  0
VERTEX
  5
1F7
  8
0
 10
23.85000038146973
 20
-106.0
 30
-2.625
 70
   192
  0
VERTEX
  5
1F8
  8
0
 10
23.99600028991699
 20
-106.0
 30
0.4149999916553497
 70
   192
  0
VERTEX
  5
1F9
  8
0
 10
20.90299987792969
 20
-106.0
 30
11.74699974060059
 70
   192
  0
VERTEX
  5
1FA
  8
0
 10
23.97599983215332
 20
-106.0
 30
0.0020000000949949
 70
   192
  0
VERTEX
  5
1FB
  8
0
 10
-40.0
 20
-106.0
 30
15.22799968719482
 70
   192
  0
VERTEX
  5
1FC
  8
0
 10
0.0230000000447035
 20
-106.0
 30
24.0
 70
   192
  0
VERTEX
  5
1FD
  8
0
 10
12.85599994659424
 20
-106.0
 30
20.24600028991699
 70
   192
  0
VERTEX
  5
1FE
  8
0
 10
2.196000099182129
 20
-106.0
 30
23.89500045776367
 70
   192
  0
VERTEX
  5
1FF
  8
0
 10
-40.0
 20
-106.0
 30
20.50799942016602
 70
   192
  0
VERTEX
  5
200
  8
0
 62
     9
 10
0.0
 20
0.0
 30
0.0
 70
   128
 71
     3
 72
     2
 73
     1
  0
VERTEX
  5
201
  8
0
 62
     9
 10
0.0
 20
0.0
 30
0.0
 70
   128
 71
     1
 72
     5
 73
     4
  0
VERTEX
  5
202
  8
0
 62
     9
 10
0.0
 20
0.0
 30
0.0
 70
   128
 71
     4
 72
     6
 73
     1
  0
VERTEX
  5
203
  8
0
 62
     9
 10
0.0
 20
0.0
 30
0.0
 70
   128
 71
     1
 72
     6
 73
     3
  0
VERTEX
  5
204
  8
0
 62
     9
 10
0.0
 20
0.0
 30
0.0
 70
   128
 71
     8
 72
     7
 73
     4
  0
VERTEX
  5
205
  8
0
 62
     9
 10
0.0
 20
0.0
 30
0.0
 70
   128
 71
     7
 72
     9
 73
     4
  0
VERTEX
  5
206
  8
0
 62
     9
 10
0.0
 20
0.0
 30
0.0
 70
   128
 71
    11
 72
     8
 73
    10
  0
VERTEX
  5
207
  8
0
 62
     9
 10
0.0
 20
0.0
 30
0.0
 70
   128
 71
    13
 72
    12
 73
     8
  0
VERTEX
  5
208
  8
0
 62
     9
 10
0.0
 20
0.0
 30
0.0
 70
   128
 71
     8
 72
    11
 73
    13
  0
VERTEX
  5
209
  8
0
 62
     9
 10
0.0
 20
0.0
 30
0.0
 70
   128
 71
    10
 72
    14
 73
    11
  0
VERTEX
  5
20A
  8
0
 62
     9
 10
0.0
 20
0.0
 30
0.0
 70
   128
 71
     4
 72
    10
 73
     8
  0
VERTEX
  5
20B
  8
0
 62
     9
 10
0.0
 20
0.0
 30
0.0
 70
   128
 71
     4
 72
     9
 73
     6
  0
SEQEND
  5
20C
  8
0
 62
     9
  0
ENDBLK
  5
20F
  8
0
  0
BLOCK
  8
0
  2
E3_NODE_9_
 70
     0
 10
0.0
 20
0.0
 30
0.0
  3
E3_NODE_9_
  1

  0
POLYLINE
  5
211
  8
0
 62
     9
 66
     1
 10
0.0
 20
0.0
 30
0.0
 70
    64
 71
    15
 72
    13
  0
VERTEX
  5
212
  8
0
 10
-40.0
 20
106.0
 30
0.0020000000949949
 70
   192
  0
VERTEX
  5
213
  8
0
 10
23.97599983215332
 20
106.0
 30
0.0020000000949949
 70
   192
  0
VERTEX
  5
214
  8
0
 10
23.85000038146973
 20
106.0
 30
-2.625
 70
   192
  0
VERTEX
  5
215
  8
0
 10
-40.0
 20
106.0
 30
-4.790999889373779
 70
   192
  0
VERTEX
  5
216
  8
0
 10
20.01799964904785
 20
106.0
 30
-13.21100044250488
 70
   192
  0
VERTEX
  5
217
  8
0
 10
-40.0
 20
106.0
 30
-14.79100036621094
 70
   192
  0
VERTEX
  5
218
  8
0
 10
0.0260000005364418
 20
106.0
 30
-24.0
 70
   192
  0
VERTEX
  5
219
  8
0
 10
11.38099956512451
 20
106.0
 30
-21.10300064086914
 70
   192
  0
VERTEX
  5
21A
  8
0
 10
-40.0
 20
106.0
 30
-20.50799942016602
 70
   192
  0
VERTEX
  5
21B
  8
0
 10
23.99600028991699
 20
106.0
 30
0.414000004529953
 70
   192
  0
VERTEX
  5
21C
  8
0
 10
2.196000099182129
 20
106.0
 30
23.89500045776367
 70
   192
  0
VERTEX
  5
21D
  8
0
 10
12.85599994659424
 20
106.0
 30
20.24600028991699
 70
   192
  0
VERTEX
  5
21E
  8
0
 10
20.90299987792969
 20
106.0
 30
11.74699974060059
 70
   192
  0
VERTEX
  5
21F
  8
0
 10
0.0230000000447035
 20
106.0
 30
24.0
 70
   192
  0
VERTEX
  5
220
  8
0
 10
-40.0
 20
106.0
 30
20.50699996948242
 70
   192
  0
VERTEX
  5
221
  8
0
 62
     9
 10
0.0
 20
0.0
 30
0.0
 70
   128
 71
     3
 72
     2
 73
     1
  0
VERTEX
  5
222
  8
0
 62
     9
 10
0.0
 20
0.0
 30
0.0
 70
   128
 71
     5
 72
     3
 73
     4
  0
VERTEX
  5
223
  8
0
 62
     9
 10
0.0
 20
0.0
 30
0.0
 70
   128
 71
     7
 72
     5
 73
     6
  0
VERTEX
  5
224
  8
0
 62
     9
 10
0.0
 20
0.0
 30
0.0
 70
   128
 71
     7
 72
     8
 73
     5
  0
VERTEX
  5
225
  8
0
 62
     9
 10
0.0
 20
0.0
 30
0.0
 70
   128
 71
     6
 72
     9
 73
     7
  0
VERTEX
  5
226
  8
0
 62
     9
 10
0.0
 20
0.0
 30
0.0
 70
   128
 71
     4
 72
     6
 73
     5
  0
VERTEX
  5
227
  8
0
 62
     9
 10
0.0
 20
0.0
 30
0.0
 70
   128
 71
    12
 72
    11
 73
    10
  0
VERTEX
  5
228
  8
0
 62
     9
 10
0.0
 20
0.0
 30
0.0
 70
   128
 71
    10
 72
    13
 73
    12
  0
VERTEX
  5
229
  8
0
 62
     9
 10
0.0
 20
0.0
 30
0.0
 70
   128
 71
    11
 72
    14
 73
     2
  0
VERTEX
  5
22A
  8
0
 62
     9
 10
0.0
 20
0.0
 30
0.0
 70
   128
 71
    14
 72
    15
 73
     1
  0
VERTEX
  5
22B
  8
0
 62
     9
 10
0.0
 20
0.0
 30
0.0
 70
   128
 71
     1
 72
     2
 73
    14
  0
VERTEX
  5
22C
  8
0
 62
     9
 10
0.0
 20
0.0
 30
0.0
 70
   128
 71
    11
 72
     2
 73
    10
  0
VERTEX
  5
22D
  8
0
 62
     9
 10
0.0
 20
0.0
 30
0.0
 70
   128
 71
     1
 72
     4
 73
     3
  0
SEQEND
  5
22E
  8
0
 62
     9
  0
ENDBLK
  5
231
  8
0
  0
BLOCK
  8
0
  2
E3_NODE_10_
 70
     0
 10
0.0
 20
0.0
 30
0.0
  3
E3_NODE_10_
  1

  0
POLYLINE
  5
233
  8
0
 62
     9
 66
     1
 10
0.0
 20
0.0
 30
0.0
 70
    64
 71
     6
 72
     4
  0
VERTEX
  5
234
  8
0
 10
0.0230000000447035
 20
-106.0
 30
24.0
 70
   192
  0
VERTEX
  5
235
  8
0
 10
0.0230000000447035
 20
106.0
 30
24.0
 70
   192
  0
VERTEX
  5
236
  8
0
 10
-40.0
 20
0.0
 30
20.50699996948242
 70
   192
  0
VERTEX
  5
237
  8
0
 10
-40.0
 20
-65.83200073242188
 30
20.50799942016602
 70
   192
  0
VERTEX
  5
238
  8
0
 10
-40.0
 20
106.0
 30
20.50699996948242
 70
   192
  0
VERTEX
  5
239
  8
0
 10
-40.0
 20
-106.0
 30
20.50799942016602
 70
   192
  0
VERTEX
  5
23A
  8
0
 62
     9
 10
0.0
 20
0.0
 30
0.0
 70
   128
 71
     3
 72
     2
 73
     1
  0
VERTEX
  5
23B
  8
0
 62
     9
 10
0.0
 20
0.0
 30
0.0
 70
   128
 71
     1
 72
     4
 73
     3
  0
VERTEX
  5
23C
  8
0
 62
     9
 10
0.0
 20
0.0
 30
0.0
 70
   128
 71
     3
 72
     5
 73
     2
  0
VERTEX
  5
23D
  8
0
 62
     9
 10
0.0
 20
0.0
 30
0.0
 70
   128
 71
     1
 72
     6
 73
     4
  0
SEQEND
  5
23E
  8
0
 62
     9
  0
ENDBLK
  5
241
  8
0
  0
BLOCK
  8
0
  2
E3_NODE_11_
 70
     0
 10
0.0
 20
0.0
 30
0.0
  3
E3_NODE_11_
  1

  0
POLYLINE
  5
243
  8
0
 62
     9
 66
     1
 10
0.0
 20
0.0
 30
0.0
 70
    64
 71
     6
 72
     4
  0
VERTEX
  5
244
  8
0
 10
0.0260000005364418
 20
106.0
 30
-24.0
 70
   192
  0
VERTEX
  5
245
  8
0
 10
0.0260000005364418
 20
-106.0
 30
-24.0
 70
   192
  0
VERTEX
  5
246
  8
0
 10
-40.0
 20
0.0
 30
-20.50799942016602
 70
   192
  0
VERTEX
  5
247
  8
0
 10
-40.0
 20
-65.83200073242188
 30
-20.50799942016602
 70
   192
  0
VERTEX
  5
248
  8
0
 10
-40.0
 20
-106.0
 30
-20.50799942016602
 70
   192
  0
VERTEX
  5
249
  8
0
 10
-40.0
 20
106.0
 30
-20.50799942016602
 70
   192
  0
VERTEX
  5
24A
  8
0
 62
     9
 10
0.0
 20
0.0
 30
0.0
 70
   128
 71
     3
 72
     2
 73
     1
  0
VERTEX
  5
24B
  8
0
 62
     9
 10
0.0
 20
0.0
 30
0.0
 70
   128
 71
     3
 72
     4
 73
     2
  0
VERTEX
  5
24C
  8
0
 62
     9
 10
0.0
 20
0.0
 30
0.0
 70
   128
 71
     4
 72
     5
 73
     2
  0
VERTEX
  5
24D
  8
0
 62
     9
 10
0.0
 20
0.0
 30
0.0
 70
   128
 71
     1
 72
     6
 73
     3
  0
SEQEND
  5
24E
  8
0
 62
     9
  0
ENDBLK
  5
251
  8
0
  0
BLOCK
  8
0
  2
E3_NODE_12_
 70
     0
 10
0.0
 20
0.0
 30
0.0
  3
E3_NODE_12_
  1

  0
POLYLINE
  5
253
  8
0
 62
     9
 66
     1
 10
0.0
 20
0.0
 30
0.0
 70
    64
 71
    13
 72
    11
  0
VERTEX
  5
254
  8
0
 10
-40.0
 20
-65.83200073242188
 30
20.50799942016602
 70
   192
  0
VERTEX
  5
255
  8
0
 10
-40.0
 20
-106.0
 30
0.0020000000949949
 70
   192
  0
VERTEX
  5
256
  8
0
 10
-40.0
 20
-106.0
 30
15.22799968719482
 70
   192
  0
VERTEX
  5
257
  8
0
 10
-40.0
 20
-65.83200073242188
 30
-20.50799942016602
 70
   192
  0
VERTEX
  5
258
  8
0
 10
-40.0
 20
-106.0
 30
-20.50799942016602
 70
   192
  0
VERTEX
  5
259
  8
0
 10
-40.0
 20
0.0
 30
20.50699996948242
 70
   192
  0
VERTEX
  5
25A
  8
0
 10
-40.0
 20
0.0
 30
-20.50799942016602
 70
   192
  0
VERTEX
  5
25B
  8
0
 10
-40.0
 20
106.0
 30
-4.790999889373779
 70
   192
  0
VERTEX
  5
25C
  8
0
 10
-40.0
 20
106.0
 30
-14.79100036621094
 70
   192
  0
VERTEX
  5
25D
  8
0
 10
-40.0
 20
106.0
 30
0.0020000000949949
 70
   192
  0
VERTEX
  5
25E
  8
0
 10
-40.0
 20
106.0
 30
20.50699996948242
 70
   192
  0
VERTEX
  5
25F
  8
0
 10
-40.0
 20
106.0
 30
-20.50799942016602
 70
   192
  0
VERTEX
  5
260
  8
0
 10
-40.0
 20
-106.0
 30
20.50799942016602
 70
   192
  0
VERTEX
  5
261
  8
0
 62
     9
 10
0.0
 20
0.0
 30
0.0
 70
   128
 71
     3
 72
     2
 73
     1
  0
VERTEX
  5
262
  8
0
 62
     9
 10
0.0
 20
0.0
 30
0.0
 70
   128
 71
     2
 72
     5
 73
     4
  0
VERTEX
  5
263
  8
0
 62
     9
 10
0.0
 20
0.0
 30
0.0
 70
   128
 71
     4
 72
     1
 73
     2
  0
VERTEX
  5
264
  8
0
 62
     9
 10
0.0
 20
0.0
 30
0.0
 70
   128
 71
     6
 72
     1
 73
     4
  0
VERTEX
  5
265
  8
0
 62
     9
 10
0.0
 20
0.0
 30
0.0
 70
   128
 71
     9
 72
     8
 73
     7
  0
VERTEX
  5
266
  8
0
 62
     9
 10
0.0
 20
0.0
 30
0.0
 70
   128
 71
    10
 72
     6
 73
     7
  0
VERTEX
  5
267
  8
0
 62
     9
 10
0.0
 20
0.0
 30
0.0
 70
   128
 71
    10
 72
    11
 73
     6
  0
VERTEX
  5
268
  8
0
 62
     9
 10
0.0
 20
0.0
 30
0.0
 70
   128
 71
     7
 72
     8
 73
    10
  0
VERTEX
  5
269
  8
0
 62
     9
 10
0.0
 20
0.0
 30
0.0
 70
   128
 71
     7
 72
    12
 73
     9
  0
VERTEX
  5
26A
  8
0
 62
     9
 10
0.0
 20
0.0
 30
0.0
 70
   128
 71
     4
 72
     7
 73
     6
  0
VERTEX
  5
26B
  8
0
 62
     9
 10
0.0
 20
0.0
 30
0.0
 70
   128
 71
     1
 72
    13
 73
     3
  0
SEQEND
  5
26C
  8
0
 62
     9
  0
ENDBLK
  5
26F
  8
0
  0
BLOCK
  8
0
  2
E3_NODE_13_
 70
     0
 10
0.0
 20
0.0
 30
0.0
  3
E3_NODE_13_
  1

  0
POLYLINE
  5
271
  8
0
 62
     9
 66
     1
 10
0.0
 20
0.0
 30
0.0
 70
    64
 71
    20
 72
    20
  0
VERTEX
  5
272
  8
0
 10
-73.0
 20
75.0
 30
19.5
 70
   192
  0
VERTEX
  5
273
  8
0
 10
-73.0
 20
63.53799819946289
 30
15.77600002288818
 70
   192
  0
VERTEX
  5
274
  8
0
 10
-40.0
 20
63.53799819946289
 30
15.77600002288818
 70
   192
  0
VERTEX
  5
275
  8
0
 10
-40.0
 20
75.0
 30
19.5
 70
   192
  0
VERTEX
  5
276
  8
0
 10
-73.0
 20
56.45399856567383
 30
6.026000022888184
 70
   192
  0
VERTEX
  5
277
  8
0
 10
-40.0
 20
56.45399856567383
 30
6.026000022888184
 70
   192
  0
VERTEX
  5
278
  8
0
 10
-73.0
 20
56.45399856567383
 30
-6.026000022888184
 70
   192
  0
VERTEX
  5
279
  8
0
 10
-40.0
 20
56.45399856567383
 30
-6.026000022888184
 70
   192
  0
VERTEX
  5
27A
  8
0
 10
-73.0
 20
63.53799819946289
 30
-15.77600002288818
 70
   192
  0
VERTEX
  5
27B
  8
0
 10
-40.0
 20
63.53799819946289
 30
-15.77600002288818
 70
   192
  0
VERTEX
  5
27C
  8
0
 10
-73.0
 20
75.0
 30
-19.5
 70
   192
  0
VERTEX
  5
27D
  8
0
 10
-40.0
 20
75.0
 30
-19.5
 70
   192
  0
VERTEX
  5
27E
  8
0
 10
-73.0
 20
86.46199798583984
 30
-15.77600002288818
 70
   192
  0
VERTEX
  5
27F
  8
0
 10
-40.0
 20
86.46199798583984
 30
-15.77600002288818
 70
   192
  0
VERTEX
  5
280
  8
0
 10
-73.0
 20
93.5459976196289
 30
-6.026000022888184
 70
   192
  0
VERTEX
  5
281
  8
0
 10
-40.0
 20
93.5459976196289
 30
-6.026000022888184
 70
   192
  0
VERTEX
  5
282
  8
0
 10
-73.0
 20
93.5459976196289
 30
6.026000022888184
 70
   192
  0
VERTEX
  5
283
  8
0
 10
-40.0
 20
93.5459976196289
 30
6.026000022888184
 70
   192
  0
VERTEX
  5
284
  8
0
 10
-73.0
 20
86.46199798583984
 30
15.77600002288818
 70
   192
  0
VERTEX
  5
285
  8
0
 10
-40.0
 20
86.46199798583984
 30
15.77600002288818
 70
   192
  0
VERTEX
  5
286
  8
0
 62
     9
 10
0.0
 20
0.0
 30
0.0
 70
   128
 71
     3
 72
     2
 73
     1
  0
VERTEX
  5
287
  8
0
 62
     9
 10
0.0
 20
0.0
 30
0.0
 70
   128
 71
     4
 72
     3
 73
     1
  0
VERTEX
  5
288
  8
0
 62
     9
 10
0.0
 20
0.0
 30
0.0
 70
   128
 71
     6
 72
     5
 73
     2
  0
VERTEX
  5
289
  8
0
 62
     9
 10
0.0
 20
0.0
 30
0.0
 70
   128
 71
     3
 72
     6
 73
     2
  0
VERTEX
  5
28A
  8
0
 62
     9
 10
0.0
 20
0.0
 30
0.0
 70
   128
 71
     8
 72
     7
 73
     5
  0
VERTEX
  5
28B
  8
0
 62
     9
 10
0.0
 20
0.0
 30
0.0
 70
   128
 71
     6
 72
     8
 73
     5
  0
VERTEX
  5
28C
  8
0
 62
     9
 10
0.0
 20
0.0
 30
0.0
 70
   128
 71
    10
 72
     9
 73
     7
  0
VERTEX
  5
28D
  8
0
 62
     9
 10
0.0
 20
0.0
 30
0.0
 70
   128
 71
     8
 72
    10
 73
     7
  0
VERTEX
  5
28E
  8
0
 62
     9
 10
0.0
 20
0.0
 30
0.0
 70
   128
 71
    12
 72
    11
 73
     9
  0
VERTEX
  5
28F
  8
0
 62
     9
 10
0.0
 20
0.0
 30
0.0
 70
   128
 71
    10
 72
    12
 73
     9
  0
VERTEX
  5
290
  8
0
 62
     9
 10
0.0
 20
0.0
 30
0.0
 70
   128
 71
    14
 72
    13
 73
    11
  0
VERTEX
  5
291
  8
0
 62
     9
 10
0.0
 20
0.0
 30
0.0
 70
   128
 71
    12
 72
    14
 73
    11
  0
VERTEX
  5
292
  8
0
 62
     9
 10
0.0
 20
0.0
 30
0.0
 70
   128
 71
    16
 72
    15
 73
    13
  0
VERTEX
  5
293
  8
0
 62
     9
 10
0.0
 20
0.0
 30
0.0
 70
   128
 71
    14
 72
    16
 73
    13
  0
VERTEX
  5
294
  8
0
 62
     9
 10
0.0
 20
0.0
 30
0.0
 70
   128
 71
    18
 72
    17
 73
    15
  0
VERTEX
  5
295
  8
0
 62
     9
 10
0.0
 20
0.0
 30
0.0
 70
   128
 71
    16
 72
    18
 73
    15
  0
VERTEX
  5
296
  8
0
 62
     9
 10
0.0
 20
0.0
 30
0.0
 70
   128
 71
    20
 72
    19
 73
    17
  0
VERTEX
  5
297
  8
0
 62
     9
 10
0.0
 20
0.0
 30
0.0
 70
   128
 71
    18
 72
    20
 73
    17
  0
VERTEX
  5
298
  8
0
 62
     9
 10
0.0
 20
0.0
 30
0.0
 70
   128
 71
     4
 72
     1
 73
    19
  0
VERTEX
  5
299
  8
0
 62
     9
 10
0.0
 20
0.0
 30
0.0
 70
   128
 71
    20
 72
     4
 73
    19
  0
SEQEND
  5
29A
  8
0
 62
     9
  0
ENDBLK
  5
29D
  8
0
  0
BLOCK
  8
0
  2
E3_NODE_14_
 70
     0
 10
0.0
 20
0.0
 30
0.0
  3
E3_NODE_14_
  1

  0
POLYLINE
  5
29F
  8
0
 62
     9
 66
     1
 10
0.0
 20
0.0
 30
0.0
 70
    64
 71
     4
 72
     2
  0
VERTEX
  5
2A0
  8
0
 10
22.32900047302246
 20
-120.6999969482422
 30
18.66500091552734
 70
   192
  0
VERTEX
  5
2A1
  8
0
 10
27.32900047302246
 20
-120.6999969482422
 30
10.00500011444092
 70
   192
  0
VERTEX
  5
2A2
  8
0
 10
23.71299934387207
 20
-120.6999969482422
 30
7.916999816894531
 70
   192
  0
VERTEX
  5
2A3
  8
0
 10
18.71299934387207
 20
-120.6999969482422
 30
16.57799911499023
 70
   192
  0
VERTEX
  5
2A4
  8
0
 62
     9
 10
0.0
 20
0.0
 30
0.0
 70
   128
 71
     3
 72
     2
 73
     1
  0
VERTEX
  5
2A5
  8
0
 62
     9
 10
0.0
 20
0.0
 30
0.0
 70
   128
 71
     1
 72
     4
 73
     3
  0
SEQEND
  5
2A6
  8
0
 62
     9
  0
ENDBLK
  5
2A9
  8
0
  0
BLOCK
  8
0
  2
E3_NODE_15_
 70
     0
 10
0.0
 20
0.0
 30
0.0
  3
E3_NODE_15_
  1

  0
POLYLINE
  5
2AB
  8
0
 62
     9
 66
     1
 10
0.0
 20
0.0
 30
0.0
 70
    64
 71
    13
 72
    11
  0
VERTEX
  5
2AC
  8
0
 10
23.3169994354248
 20
-136.0899963378906
 30
19.23500061035156
 70
   192
  0
VERTEX
  5
2AD
  8
0
 10
28.37599945068359
 20
-136.0820007324219
 30
10.60900020599365
 70
   192
  0
VERTEX
  5
2AE
  8
0
 10
27.51399993896484
 20
-126.7919998168945
 30
10.11200046539307
 70
   192
  0
VERTEX
  5
2AF
  8
0
 10
22.41900062561035
 20
-124.6009979248047
 30
18.71699905395508
 70
   192
  0
VERTEX
  5
2B0
  8
0
 10
27.41900062561035
 20
-124.6009979248047
 30
10.05700016021729
 70
   192
  0
VERTEX
  5
2B1
  8
0
 10
27.32900047302246
 20
-120.6999969482422
 30
10.00500011444092
 70
   192
  0
VERTEX
  5
2B2
  8
0
 10
22.32900047302246
 20
-120.6999969482422
 30
18.66500091552734
 70
   192
  0
VERTEX
  5
2B3
  8
0
 10
23.38800048828125
 20
-137.0059967041016
 30
19.27700042724609
 70
   192
  0
VERTEX
  5
2B4
  8
0
 10
25.37800025939941
 20
-149.2039947509766
 30
20.42600059509277
 70
   192
  0
VERTEX
  5
2B5
  8
0
 10
25.81599998474121
 20
-151.2519989013672
 30
20.67799949645996
 70
   192
  0
VERTEX
  5
2B6
  8
0
 10
28.64500045776367
 20
-151.2519989013672
 30
16.53800010681152
 70
   192
  0
VERTEX
  5
2B7
  8
0
 10
30.81599998474121
 20
-151.2519989013672
 30
12.01799964904785
 70
   192
  0
VERTEX
  5
2B8
  8
0
 10
28.65500068664551
 20
-139.0980072021484
 30
10.77099990844727
 70
   192
  0
VERTEX
  5
2B9
  8
0
 62
     9
 10
0.0
 20
0.0
 30
0.0
 70
   128
 71
     3
 72
     2
 73
     1
  0
VERTEX
  5
2BA
  8
0
 62
     9
 10
0.0
 20
0.0
 30
0.0
 70
   128
 71
     1
 72
     4
 73
     3
  0
VERTEX
  5
2BB
  8
0
 62
     9
 10
0.0
 20
0.0
 30
0.0
 70
   128
 71
     6
 72
     5
 73
     4
  0
VERTEX
  5
2BC
  8
0
 62
     9
 10
0.0
 20
0.0
 30
0.0
 70
   128
 71
     4
 72
     7
 73
     6
  0
VERTEX
  5
2BD
  8
0
 62
     9
 10
0.0
 20
0.0
 30
0.0
 70
   128
 71
     8
 72
     1
 73
     2
  0
VERTEX
  5
2BE
  8
0
 62
     9
 10
0.0
 20
0.0
 30
0.0
 70
   128
 71
    11
 72
    10
 73
     9
  0
VERTEX
  5
2BF
  8
0
 62
     9
 10
0.0
 20
0.0
 30
0.0
 70
   128
 71
    13
 72
    12
 73
     9
  0
VERTEX
  5
2C0
  8
0
 62
     9
 10
0.0
 20
0.0
 30
0.0
 70
   128
 71
     9
 72
     8
 73
    13
  0
VERTEX
  5
2C1
  8
0
 62
     9
 10
0.0
 20
0.0
 30
0.0
 70
   128
 71
     9
 72
    12
 73
    11
  0
VERTEX
  5
2C2
  8
0
 62
     9
 10
0.0
 20
0.0
 30
0.0
 70
   128
 71
     2
 72
    13
 73
     8
  0
VERTEX
  5
2C3
  8
0
 62
     9
 10
0.0
 20
0.0
 30
0.0
 70
   128
 71
     4
 72
     5
 73
     3
  0
SEQEND
  5
2C4
  8
0
 62
     9
  0
ENDBLK
  5
2C7
  8
0
  0
BLOCK
  8
0
  2
E3_NODE_16_
 70
     0
 10
0.0
 20
0.0
 30
0.0
  3
E3_NODE_16_
  1

  0
POLYLINE
  5
2C9
  8
0
 62
     9
 66
     1
 10
0.0
 20
0.0
 30
0.0
 70
    64
 71
    11
 72
     9
  0
VERTEX
  5
2CA
  8
0
 10
28.65500068664551
 20
-139.0980072021484
 30
10.77099990844727
 70
   192
  0
VERTEX
  5
2CB
  8
0
 10
30.81599998474121
 20
-151.2519989013672
 30
12.01799964904785
 70
   192
  0
VERTEX
  5
2CC
  8
0
 10
30.06100082397461
 20
-151.5169982910156
 30
11.58199977874756
 70
   192
  0
VERTEX
  5
2CD
  8
0
 10
23.71299934387207
 20
-120.6999969482422
 30
7.916999816894531
 70
   192
  0
VERTEX
  5
2CE
  8
0
 10
27.51399993896484
 20
-126.7919998168945
 30
10.11200046539307
 70
   192
  0
VERTEX
  5
2CF
  8
0
 10
28.37599945068359
 20
-136.0820007324219
 30
10.60900020599365
 70
   192
  0
VERTEX
  5
2D0
  8
0
 10
25.79199981689453
 20
-152.2819976806641
 30
9.116999626159668
 70
   192
  0
VERTEX
  5
2D1
  8
0
 10
23.71299934387207
 20
-152.2960052490234
 30
7.916999816894531
 70
   192
  0
VERTEX
  5
2D2
  8
0
 10
27.32900047302246
 20
-120.6999969482422
 30
10.00500011444092
 70
   192
  0
VERTEX
  5
2D3
  8
0
 10
27.41900062561035
 20
-124.6009979248047
 30
10.05700016021729
 70
   192
  0
VERTEX
  5
2D4
  8
0
 10
25.14599990844727
 20
-152.2960052490234
 30
8.744000434875488
 70
   192
  0
VERTEX
  5
2D5
  8
0
 62
     9
 10
0.0
 20
0.0
 30
0.0
 70
   128
 71
     3
 72
     2
 73
     1
  0
VERTEX
  5
2D6
  8
0
 62
     9
 10
0.0
 20
0.0
 30
0.0
 70
   128
 71
     6
 72
     5
 73
     4
  0
VERTEX
  5
2D7
  8
0
 62
     9
 10
0.0
 20
0.0
 30
0.0
 70
   128
 71
     1
 72
     7
 73
     3
  0
VERTEX
  5
2D8
  8
0
 62
     9
 10
0.0
 20
0.0
 30
0.0
 70
   128
 71
     4
 72
     8
 73
     6
  0
VERTEX
  5
2D9
  8
0
 62
     9
 10
0.0
 20
0.0
 30
0.0
 70
   128
 71
    10
 72
     9
 73
     4
  0
VERTEX
  5
2DA
  8
0
 62
     9
 10
0.0
 20
0.0
 30
0.0
 70
   128
 71
     1
 72
    11
 73
     7
  0
VERTEX
  5
2DB
  8
0
 62
     9
 10
0.0
 20
0.0
 30
0.0
 70
   128
 71
     4
 72
     5
 73
    10
  0
VERTEX
  5
2DC
  8
0
 62
     9
 10
0.0
 20
0.0
 30
0.0
 70
   128
 71
     8
 72
     1
 73
     6
  0
VERTEX
  5
2DD
  8
0
 62
     9
 10
0.0
 20
0.0
 30
0.0
 70
   128
 71
     1
 72
     8
 73
    11
  0
SEQEND
  5
2DE
  8
0
 62
     9
  0
ENDBLK
  5
2E1
  8
0
  0
BLOCK
  8
0
  2
E3_NODE_17_
 70
     0
 10
0.0
 20
0.0
 30
0.0
  3
E3_NODE_17_
  1

  0
POLYLINE
  5
2E3
  8
0
 62
     9
 66
     1
 10
0.0
 20
0.0
 30
0.0
 70
    64
 71
    11
 72
     9
  0
VERTEX
  5
2E4
  8
0
 10
25.37800025939941
 20
-149.2039947509766
 30
20.42600059509277
 70
   192
  0
VERTEX
  5
2E5
  8
0
 10
20.79199981689453
 20
-152.2819976806641
 30
17.77799987792969
 70
   192
  0
VERTEX
  5
2E6
  8
0
 10
24.76499938964844
 20
-151.6100006103516
 30
20.07200050354004
 70
   192
  0
VERTEX
  5
2E7
  8
0
 10
18.71299934387207
 20
-120.6999969482422
 30
16.57799911499023
 70
   192
  0
VERTEX
  5
2E8
  8
0
 10
18.71299934387207
 20
-152.2960052490234
 30
16.57799911499023
 70
   192
  0
VERTEX
  5
2E9
  8
0
 10
23.3169994354248
 20
-136.0899963378906
 30
19.23500061035156
 70
   192
  0
VERTEX
  5
2EA
  8
0
 10
20.14599990844727
 20
-152.2960052490234
 30
17.40500068664551
 70
   192
  0
VERTEX
  5
2EB
  8
0
 10
23.38800048828125
 20
-137.0059967041016
 30
19.27700042724609
 70
   192
  0
VERTEX
  5
2EC
  8
0
 10
22.41900062561035
 20
-124.6009979248047
 30
18.71699905395508
 70
   192
  0
VERTEX
  5
2ED
  8
0
 10
25.81599998474121
 20
-151.2519989013672
 30
20.67799949645996
 70
   192
  0
VERTEX
  5
2EE
  8
0
 10
22.32900047302246
 20
-120.6999969482422
 30
18.66500091552734
 70
   192
  0
VERTEX
  5
2EF
  8
0
 62
     9
 10
0.0
 20
0.0
 30
0.0
 70
   128
 71
     3
 72
     2
 73
     1
  0
VERTEX
  5
2F0
  8
0
 62
     9
 10
0.0
 20
0.0
 30
0.0
 70
   128
 71
     6
 72
     5
 73
     4
  0
VERTEX
  5
2F1
  8
0
 62
     9
 10
0.0
 20
0.0
 30
0.0
 70
   128
 71
     2
 72
     7
 73
     1
  0
VERTEX
  5
2F2
  8
0
 62
     9
 10
0.0
 20
0.0
 30
0.0
 70
   128
 71
     6
 72
     8
 73
     5
  0
VERTEX
  5
2F3
  8
0
 62
     9
 10
0.0
 20
0.0
 30
0.0
 70
   128
 71
     7
 72
     5
 73
     1
  0
VERTEX
  5
2F4
  8
0
 62
     9
 10
0.0
 20
0.0
 30
0.0
 70
   128
 71
     4
 72
     9
 73
     6
  0
VERTEX
  5
2F5
  8
0
 62
     9
 10
0.0
 20
0.0
 30
0.0
 70
   128
 71
     1
 72
    10
 73
     3
  0
VERTEX
  5
2F6
  8
0
 62
     9
 10
0.0
 20
0.0
 30
0.0
 70
   128
 71
     5
 72
     8
 73
     1
  0
VERTEX
  5
2F7
  8
0
 62
     9
 10
0.0
 20
0.0
 30
0.0
 70
   128
 71
     4
 72
    11
 73
     9
  0
SEQEND
  5
2F8
  8
0
 62
     9
  0
ENDBLK
  5
2FB
  8
0
  0
BLOCK
  8
0
  2
E3_NODE_18_
 70
     0
 10
0.0
 20
0.0
 30
0.0
  3
E3_NODE_18_
  1

  0
POLYLINE
  5
2FD
  8
0
 62
     9
 66
     1
 10
0.0
 20
0.0
 30
0.0
 70
    64
 71
    10
 72
     8
  0
VERTEX
  5
2FE
  8
0
 10
23.05599975585938
 20
-152.2960052490234
 30
13.31099987030029
 70
   192
  0
VERTEX
  5
2FF
  8
0
 10
25.79199981689453
 20
-152.2819976806641
 30
9.116999626159668
 70
   192
  0
VERTEX
  5
300
  8
0
 10
30.06100082397461
 20
-151.5169982910156
 30
11.58199977874756
 70
   192
  0
VERTEX
  5
301
  8
0
 10
25.14599990844727
 20
-152.2960052490234
 30
8.744000434875488
 70
   192
  0
VERTEX
  5
302
  8
0
 10
28.64500045776367
 20
-151.2519989013672
 30
16.53800010681152
 70
   192
  0
VERTEX
  5
303
  8
0
 10
24.76499938964844
 20
-151.6100006103516
 30
20.07200050354004
 70
   192
  0
VERTEX
  5
304
  8
0
 10
20.79199981689453
 20
-152.2819976806641
 30
17.77799987792969
 70
   192
  0
VERTEX
  5
305
  8
0
 10
25.81599998474121
 20
-151.2519989013672
 30
20.67799949645996
 70
   192
  0
VERTEX
  5
306
  8
0
 10
20.14599990844727
 20
-152.2960052490234
 30
17.40500068664551
 70
   192
  0
VERTEX
  5
307
  8
0
 10
30.81599998474121
 20
-151.2519989013672
 30
12.01799964904785
 70
   192
  0
VERTEX
  5
308
  8
0
 62
     9
 10
0.0
 20
0.0
 30
0.0
 70
   128
 71
     3
 72
     2
 73
     1
  0
VERTEX
  5
309
  8
0
 62
     9
 10
0.0
 20
0.0
 30
0.0
 70
   128
 71
     2
 72
     4
 73
     1
  0
VERTEX
  5
30A
  8
0
 62
     9
 10
0.0
 20
0.0
 30
0.0
 70
   128
 71
     1
 72
     5
 73
     3
  0
VERTEX
  5
30B
  8
0
 62
     9
 10
0.0
 20
0.0
 30
0.0
 70
   128
 71
     6
 72
     5
 73
     1
  0
VERTEX
  5
30C
  8
0
 62
     9
 10
0.0
 20
0.0
 30
0.0
 70
   128
 71
     1
 72
     7
 73
     6
  0
VERTEX
  5
30D
  8
0
 62
     9
 10
0.0
 20
0.0
 30
0.0
 70
   128
 71
     6
 72
     8
 73
     5
  0
VERTEX
  5
30E
  8
0
 62
     9
 10
0.0
 20
0.0
 30
0.0
 70
   128
 71
     1
 72
     9
 73
     7
  0
VERTEX
  5
30F
  8
0
 62
     9
 10
0.0
 20
0.0
 30
0.0
 70
   128
 71
     5
 72
    10
 73
     3
  0
SEQEND
  5
310
  8
0
 62
     9
  0
ENDBLK
  5
313
  8
0
  0
BLOCK
  8
0
  2
E3_NODE_19_
 70
     0
 10
0.0
 20
0.0
 30
0.0
  3
E3_NODE_19_
  1

  0
POLYLINE
  5
315
  8
0
 62
     9
 66
     1
 10
0.0
 20
0.0
 30
0.0
 70
    64
 71
     5
 72
     3
  0
VERTEX
  5
316
  8
0
 10
18.71299934387207
 20
-152.2960052490234
 30
16.57799911499023
 70
   192
  0
VERTEX
  5
317
  8
0
 10
23.71299934387207
 20
-152.2960052490234
 30
7.916999816894531
 70
   192
  0
VERTEX
  5
318
  8
0
 10
23.05599975585938
 20
-152.2960052490234
 30
13.31099987030029
 70
   192
  0
VERTEX
  5
319
  8
0
 10
25.14599990844727
 20
-152.2960052490234
 30
8.744000434875488
 70
   192
  0
VERTEX
  5
31A
  8
0
 10
20.14599990844727
 20
-152.2960052490234
 30
17.40500068664551
 70
   192
  0
VERTEX
  5
31B
  8
0
 62
     9
 10
0.0
 20
0.0
 30
0.0
 70
   128
 71
     3
 72
     2
 73
     1
  0
VERTEX
  5
31C
  8
0
 62
     9
 10
0.0
 20
0.0
 30
0.0
 70
   128
 71
     3
 72
     4
 73
     2
  0
VERTEX
  5
31D
  8
0
 62
     9
 10
0.0
 20
0.0
 30
0.0
 70
   128
 71
     1
 72
     5
 73
     3
  0
SEQEND
  5
31E
  8
0
 62
     9
  0
ENDBLK
  5
321
  8
0
  0
BLOCK
  8
0
  2
E3_NODE_20_
 70
     0
 10
0.0
 20
0.0
 30
0.0
  3
E3_NODE_20_
  1

  0
POLYLINE
  5
323
  8
0
 62
     9
 66
     1
 10
0.0
 20
0.0
 30
0.0
 70
    64
 71
    14
 72
    14
  0
VERTEX
  5
324
  8
0
 10
-7.611000061035156
 20
-7.035999774932861
 30
-21.5
 70
   192
  0
VERTEX
  5
325
  8
0
 10
-11.0
 20
0.0
 30
-21.5
 70
   192
  0
VERTEX
  5
326
  8
0
 10
-11.0
 20
0.0
 30
-30.0
 70
   192
  0
VERTEX
  5
327
  8
0
 10
0.003000000026077
 20
-8.77400016784668
 30
-30.0
 70
   192
  0
VERTEX
  5
328
  8
0
 10
0.003000000026077
 20
-8.77400016784668
 30
-21.5
 70
   192
  0
VERTEX
  5
329
  8
0
 10
6.109000205993652
 20
-3.904999971389771
 30
-30.0
 70
   192
  0
VERTEX
  5
32A
  8
0
 10
6.109000205993652
 20
3.904999971389771
 30
-30.0
 70
   192
  0
VERTEX
  5
32B
  8
0
 10
6.109000205993652
 20
3.904999971389771
 30
-21.5
 70
   192
  0
VERTEX
  5
32C
  8
0
 10
6.109000205993652
 20
-3.904999971389771
 30
-21.5
 70
   192
  0
VERTEX
  5
32D
  8
0
 10
0.003000000026077
 20
8.77400016784668
 30
-30.0
 70
   192
  0
VERTEX
  5
32E
  8
0
 10
0.003000000026077
 20
8.77400016784668
 30
-21.5
 70
   192
  0
VERTEX
  5
32F
  8
0
 10
-7.611000061035156
 20
7.035999774932861
 30
-30.0
 70
   192
  0
VERTEX
  5
330
  8
0
 10
-7.611000061035156
 20
7.035999774932861
 30
-21.5
 70
   192
  0
VERTEX
  5
331
  8
0
 10
-7.611000061035156
 20
-7.035999774932861
 30
-30.0
 70
   192
  0
VERTEX
  5
332
  8
0
 62
     9
 10
0.0
 20
0.0
 30
0.0
 70
   128
 71
     3
 72
     2
 73
     1
  0
VERTEX
  5
333
  8
0
 62
     9
 10
0.0
 20
0.0
 30
0.0
 70
   128
 71
     1
 72
     5
 73
     4
  0
VERTEX
  5
334
  8
0
 62
     9
 10
0.0
 20
0.0
 30
0.0
 70
   128
 71
     6
 72
     4
 73
     5
  0
VERTEX
  5
335
  8
0
 62
     9
 10
0.0
 20
0.0
 30
0.0
 70
   128
 71
     9
 72
     8
 73
     7
  0
VERTEX
  5
336
  8
0
 62
     9
 10
0.0
 20
0.0
 30
0.0
 70
   128
 71
     8
 72
    11
 73
    10
  0
VERTEX
  5
337
  8
0
 62
     9
 10
0.0
 20
0.0
 30
0.0
 70
   128
 71
    11
 72
    13
 73
    12
  0
VERTEX
  5
338
  8
0
 62
     9
 10
0.0
 20
0.0
 30
0.0
 70
   128
 71
    12
 72
    13
 73
     2
  0
VERTEX
  5
339
  8
0
 62
     9
 10
0.0
 20
0.0
 30
0.0
 70
   128
 71
     2
 72
     3
 73
    12
  0
VERTEX
  5
33A
  8
0
 62
     9
 10
0.0
 20
0.0
 30
0.0
 70
   128
 71
    12
 72
    10
 73
    11
  0
VERTEX
  5
33B
  8
0
 62
     9
 10
0.0
 20
0.0
 30
0.0
 70
   128
 71
    10
 72
     7
 73
     8
  0
VERTEX
  5
33C
  8
0
 62
     9
 10
0.0
 20
0.0
 30
0.0
 70
   128
 71
     7
 72
     6
 73
     9
  0
VERTEX
  5
33D
  8
0
 62
     9
 10
0.0
 20
0.0
 30
0.0
 70
   128
 71
     5
 72
     9
 73
     6
  0
VERTEX
  5
33E
  8
0
 62
     9
 10
0.0
 20
0.0
 30
0.0
 70
   128
 71
     4
 72
    14
 73
     1
  0
VERTEX
  5
33F
  8
0
 62
     9
 10
0.0
 20
0.0
 30
0.0
 70
   128
 71
     1
 72
    14
 73
     3
  0
SEQEND
  5
340
  8
0
 62
     9
  0
ENDBLK
  5
343
  8
0
  0
BLOCK
  8
0
  2
E3_NODE_21_
 70
     0
 10
0.0
 20
0.0
 30
0.0
  3
E3_NODE_21_
  1

  0
POLYLINE
  5
345
  8
0
 62
     9
 66
     1
 10
0.0
 20
0.0
 30
0.0
 70
    64
 71
    14
 72
    14
  0
VERTEX
  5
346
  8
0
 10
0.3319999873638153
 20
-10.21700000762939
 30
-30.0
 70
   192
  0
VERTEX
  5
347
  8
0
 10
7.441999912261963
 20
-4.546999931335449
 30
-30.0
 70
   192
  0
VERTEX
  5
348
  8
0
 10
6.109000205993652
 20
-3.904999971389771
 30
-30.0
 70
   192
  0
VERTEX
  5
349
  8
0
 10
7.441999912261963
 20
4.546999931335449
 30
-30.0
 70
   192
  0
VERTEX
  5
34A
  8
0
 10
6.109000205993652
 20
3.904999971389771
 30
-30.0
 70
   192
  0
VERTEX
  5
34B
  8
0
 10
0.3319999873638153
 20
10.21700000762939
 30
-30.0
 70
   192
  0
VERTEX
  5
34C
  8
0
 10
0.003000000026077
 20
8.77400016784668
 30
-30.0
 70
   192
  0
VERTEX
  5
34D
  8
0
 10
-12.47999954223633
 20
0.0
 30
-30.0
 70
   192
  0
VERTEX
  5
34E
  8
0
 10
-11.0
 20
0.0
 30
-30.0
 70
   192
  0
VERTEX
  5
34F
  8
0
 10
-7.611000061035156
 20
7.035999774932861
 30
-30.0
 70
   192
  0
VERTEX
  5
350
  8
0
 10
-8.534000396728516
 20
-8.194000244140625
 30
-30.0
 70
   192
  0
VERTEX
  5
351
  8
0
 10
-7.611000061035156
 20
-7.035999774932861
 30
-30.0
 70
   192
  0
VERTEX
  5
352
  8
0
 10
-8.534000396728516
 20
8.194000244140625
 30
-30.0
 70
   192
  0
VERTEX
  5
353
  8
0
 10
0.003000000026077
 20
-8.77400016784668
 30
-30.0
 70
   192
  0
VERTEX
  5
354
  8
0
 62
     9
 10
0.0
 20
0.0
 30
0.0
 70
   128
 71
     3
 72
     2
 73
     1
  0
VERTEX
  5
355
  8
0
 62
     9
 10
0.0
 20
0.0
 30
0.0
 70
   128
 71
     5
 72
     4
 73
     2
  0
VERTEX
  5
356
  8
0
 62
     9
 10
0.0
 20
0.0
 30
0.0
 70
   128
 71
     2
 72
     3
 73
     5
  0
VERTEX
  5
357
  8
0
 62
     9
 10
0.0
 20
0.0
 30
0.0
 70
   128
 71
     5
 72
     7
 73
     6
  0
VERTEX
  5
358
  8
0
 62
     9
 10
0.0
 20
0.0
 30
0.0
 70
   128
 71
    10
 72
     9
 73
     8
  0
VERTEX
  5
359
  8
0
 62
     9
 10
0.0
 20
0.0
 30
0.0
 70
   128
 71
    12
 72
    11
 73
     8
  0
VERTEX
  5
35A
  8
0
 62
     9
 10
0.0
 20
0.0
 30
0.0
 70
   128
 71
     6
 72
     4
 73
     5
  0
VERTEX
  5
35B
  8
0
 62
     9
 10
0.0
 20
0.0
 30
0.0
 70
   128
 71
     7
 72
    10
 73
    13
  0
VERTEX
  5
35C
  8
0
 62
     9
 10
0.0
 20
0.0
 30
0.0
 70
   128
 71
     8
 72
     9
 73
    12
  0
VERTEX
  5
35D
  8
0
 62
     9
 10
0.0
 20
0.0
 30
0.0
 70
   128
 71
    14
 72
     1
 73
    11
  0
VERTEX
  5
35E
  8
0
 62
     9
 10
0.0
 20
0.0
 30
0.0
 70
   128
 71
    13
 72
     6
 73
     7
  0
VERTEX
  5
35F
  8
0
 62
     9
 10
0.0
 20
0.0
 30
0.0
 70
   128
 71
    11
 72
    12
 73
    14
  0
VERTEX
  5
360
  8
0
 62
     9
 10
0.0
 20
0.0
 30
0.0
 70
   128
 71
     8
 72
    13
 73
    10
  0
VERTEX
  5
361
  8
0
 62
     9
 10
0.0
 20
0.0
 30
0.0
 70
   128
 71
     1
 72
    14
 73
     3
  0
SEQEND
  5
362
  8
0
 62
     9
  0
ENDBLK
  5
365
  8
0
  0
BLOCK
  8
0
  2
E3_NODE_22_
 70
     0
 10
0.0
 20
0.0
 30
0.0
  3
E3_NODE_22_
  1

  0
POLYLINE
  5
367
  8
0
 62
     9
 66
     1
 10
0.0
 20
0.0
 30
0.0
 70
    64
 71
    14
 72
    14
  0
VERTEX
  5
368
  8
0
 10
-8.534000396728516
 20
-8.194000244140625
 30
-30.0
 70
   192
  0
VERTEX
  5
369
  8
0
 10
-12.47999954223633
 20
0.0
 30
-30.0
 70
   192
  0
VERTEX
  5
36A
  8
0
 10
-12.47999954223633
 20
0.0
 30
-38.90000152587891
 70
   192
  0
VERTEX
  5
36B
  8
0
 10
0.3319999873638153
 20
-10.21700000762939
 30
-38.90000152587891
 70
   192
  0
VERTEX
  5
36C
  8
0
 10
0.3319999873638153
 20
-10.21700000762939
 30
-30.0
 70
   192
  0
VERTEX
  5
36D
  8
0
 10
7.441999912261963
 20
-4.546999931335449
 30
-38.90000152587891
 70
   192
  0
VERTEX
  5
36E
  8
0
 10
7.441999912261963
 20
4.546999931335449
 30
-38.90000152587891
 70
   192
  0
VERTEX
  5
36F
  8
0
 10
7.441999912261963
 20
4.546999931335449
 30
-30.0
 70
   192
  0
VERTEX
  5
370
  8
0
 10
7.441999912261963
 20
-4.546999931335449
 30
-30.0
 70
   192
  0
VERTEX
  5
371
  8
0
 10
0.3319999873638153
 20
10.21700000762939
 30
-38.90000152587891
 70
   192
  0
VERTEX
  5
372
  8
0
 10
0.3319999873638153
 20
10.21700000762939
 30
-30.0
 70
   192
  0
VERTEX
  5
373
  8
0
 10
-8.534000396728516
 20
8.194000244140625
 30
-38.90000152587891
 70
   192
  0
VERTEX
  5
374
  8
0
 10
-8.534000396728516
 20
8.194000244140625
 30
-30.0
 70
   192
  0
VERTEX
  5
375
  8
0
 10
-8.534000396728516
 20
-8.194000244140625
 30
-38.90000152587891
 70
   192
  0
VERTEX
  5
376
  8
0
 62
     9
 10
0.0
 20
0.0
 30
0.0
 70
   128
 71
     3
 72
     2
 73
     1
  0
VERTEX
  5
377
  8
0
 62
     9
 10
0.0
 20
0.0
 30
0.0
 70
   128
 71
     1
 72
     5
 73
     4
  0
VERTEX
  5
378
  8
0
 62
     9
 10
0.0
 20
0.0
 30
0.0
 70
   128
 71
     6
 72
     4
 73
     5
  0
VERTEX
  5
379
  8
0
 62
     9
 10
0.0
 20
0.0
 30
0.0
 70
   128
 71
     9
 72
     8
 73
     7
  0
VERTEX
  5
37A
  8
0
 62
     9
 10
0.0
 20
0.0
 30
0.0
 70
   128
 71
     8
 72
    11
 73
    10
  0
VERTEX
  5
37B
  8
0
 62
     9
 10
0.0
 20
0.0
 30
0.0
 70
   128
 71
    11
 72
    13
 73
    12
  0
VERTEX
  5
37C
  8
0
 62
     9
 10
0.0
 20
0.0
 30
0.0
 70
   128
 71
     2
 72
     3
 73
    12
  0
VERTEX
  5
37D
  8
0
 62
     9
 10
0.0
 20
0.0
 30
0.0
 70
   128
 71
    12
 72
    13
 73
     2
  0
VERTEX
  5
37E
  8
0
 62
     9
 10
0.0
 20
0.0
 30
0.0
 70
   128
 71
    12
 72
    10
 73
    11
  0
VERTEX
  5
37F
  8
0
 62
     9
 10
0.0
 20
0.0
 30
0.0
 70
   128
 71
    10
 72
     7
 73
     8
  0
VERTEX
  5
380
  8
0
 62
     9
 10
0.0
 20
0.0
 30
0.0
 70
   128
 71
     7
 72
     6
 73
     9
  0
VERTEX
  5
381
  8
0
 62
     9
 10
0.0
 20
0.0
 30
0.0
 70
   128
 71
     5
 72
     9
 73
     6
  0
VERTEX
  5
382
  8
0
 62
     9
 10
0.0
 20
0.0
 30
0.0
 70
   128
 71
     4
 72
    14
 73
     1
  0
VERTEX
  5
383
  8
0
 62
     9
 10
0.0
 20
0.0
 30
0.0
 70
   128
 71
     1
 72
    14
 73
     3
  0
SEQEND
  5
384
  8
0
 62
     9
  0
ENDBLK
  5
387
  8
0
  0
BLOCK
  8
0
  2
E3_NODE_23_
 70
     0
 10
0.0
 20
0.0
 30
0.0
  3
E3_NODE_23_
  1

  0
POLYLINE
  5
389
  8
0
 62
     9
 66
     1
 10
0.0
 20
0.0
 30
0.0
 70
    64
 71
     7
 72
     5
  0
VERTEX
  5
38A
  8
0
 10
0.3319999873638153
 20
10.21700000762939
 30
-38.90000152587891
 70
   192
  0
VERTEX
  5
38B
  8
0
 10
7.441999912261963
 20
-4.546999931335449
 30
-38.90000152587891
 70
   192
  0
VERTEX
  5
38C
  8
0
 10
0.3319999873638153
 20
-10.21700000762939
 30
-38.90000152587891
 70
   192
  0
VERTEX
  5
38D
  8
0
 10
7.441999912261963
 20
4.546999931335449
 30
-38.90000152587891
 70
   192
  0
VERTEX
  5
38E
  8
0
 10
-8.534000396728516
 20
-8.194000244140625
 30
-38.90000152587891
 70
   192
  0
VERTEX
  5
38F
  8
0
 10
-12.47999954223633
 20
0.0
 30
-38.90000152587891
 70
   192
  0
VERTEX
  5
390
  8
0
 10
-8.534000396728516
 20
8.194000244140625
 30
-38.90000152587891
 70
   192
  0
VERTEX
  5
391
  8
0
 62
     9
 10
0.0
 20
0.0
 30
0.0
 70
   128
 71
     3
 72
     2
 73
     1
  0
VERTEX
  5
392
  8
0
 62
     9
 10
0.0
 20
0.0
 30
0.0
 70
   128
 71
     2
 72
     4
 73
     1
  0
VERTEX
  5
393
  8
0
 62
     9
 10
0.0
 20
0.0
 30
0.0
 70
   128
 71
     7
 72
     6
 73
     5
  0
VERTEX
  5
394
  8
0
 62
     9
 10
0.0
 20
0.0
 30
0.0
 70
   128
 71
     5
 72
     1
 73
     7
  0
VERTEX
  5
395
  8
0
 62
     9
 10
0.0
 20
0.0
 30
0.0
 70
   128
 71
     1
 72
     5
 73
     3
  0
SEQEND
  5
396
  8
0
 62
     9
  0
ENDBLK
  5
399
  8
0
  0
BLOCK
  8
0
  2
E3_NODE_24_
 70
     0
 10
0.0
 20
0.0
 30
0.0
  3
E3_NODE_24_
  1

  0
POLYLINE
  5
39B
  8
0
 62
     9
 66
     1
 10
0.0
 20
0.0
 30
0.0
 70
    64
 71
    18
 72
    16
  0
VERTEX
  5
39C
  8
0
 10
-59.0
 20
-68.32499694824219
 30
-18.3390007019043
 70
   192
  0
VERTEX
  5
39D
  8
0
 10
-59.0
 20
-87.54499816894531
 30
-14.94999980926514
 70
   192
  0
VERTEX
  5
39E
  8
0
 10
-59.0
 20
-81.67500305175781
 30
-18.3390007019043
 70
   192
  0
VERTEX
  5
39F
  8
0
 10
-59.0
 20
-91.9010009765625
 30
9.758000373840332
 70
   192
  0
VERTEX
  5
3A0
  8
0
 10
-59.0
 20
-68.32499694824219
 30
18.3390007019043
 70
   192
  0
VERTEX
  5
3A1
  8
0
 10
-59.0
 20
-75.0
 30
19.51600074768066
 70
   192
  0
VERTEX
  5
3A2
  8
0
 10
-59.0
 20
-91.9010009765625
 30
-9.758000373840332
 70
   192
  0
VERTEX
  5
3A3
  8
0
 10
-59.0
 20
-81.67500305175781
 30
18.3390007019043
 70
   192
  0
VERTEX
  5
3A4
  8
0
 10
-59.0
 20
-94.22000122070312
 30
-3.388999938964844
 70
   192
  0
VERTEX
  5
3A5
  8
0
 10
-59.0
 20
-62.45500183105469
 30
-14.94999980926514
 70
   192
  0
VERTEX
  5
3A6
  8
0
 10
-59.0
 20
-62.45500183105469
 30
14.94999980926514
 70
   192
  0
VERTEX
  5
3A7
  8
0
 10
-59.0
 20
-55.77999877929688
 30
3.388999938964844
 70
   192
  0
VERTEX
  5
3A8
  8
0
 10
-59.0
 20
-58.0989990234375
 30
9.758000373840332
 70
   192
  0
VERTEX
  5
3A9
  8
0
 10
-59.0
 20
-58.0989990234375
 30
-9.758000373840332
 70
   192
  0
VERTEX
  5
3AA
  8
0
 10
-59.0
 20
-55.77999877929688
 30
-3.388999938964844
 70
   192
  0
VERTEX
  5
3AB
  8
0
 10
-59.0
 20
-75.0
 30
-19.51600074768066
 70
   192
  0
VERTEX
  5
3AC
  8
0
 10
-59.0
 20
-94.22000122070312
 30
3.388999938964844
 70
   192
  0
VERTEX
  5
3AD
  8
0
 10
-59.0
 20
-87.54499816894531
 30
14.94999980926514
 70
   192
  0
VERTEX
  5
3AE
  8
0
 62
     9
 10
0.0
 20
0.0
 30
0.0
 70
   128
 71
     3
 72
     2
 73
     1
  0
VERTEX
  5
3AF
  8
0
 62
     9
 10
0.0
 20
0.0
 30
0.0
 70
   128
 71
     6
 72
     5
 73
     4
  0
VERTEX
  5
3B0
  8
0
 62
     9
 10
0.0
 20
0.0
 30
0.0
 70
   128
 71
     2
 72
     7
 73
     1
  0
VERTEX
  5
3B1
  8
0
 62
     9
 10
0.0
 20
0.0
 30
0.0
 70
   128
 71
     4
 72
     8
 73
     6
  0
VERTEX
  5
3B2
  8
0
 62
     9
 10
0.0
 20
0.0
 30
0.0
 70
   128
 71
    10
 72
     1
 73
     9
  0
VERTEX
  5
3B3
  8
0
 62
     9
 10
0.0
 20
0.0
 30
0.0
 70
   128
 71
     7
 72
     9
 73
     1
  0
VERTEX
  5
3B4
  8
0
 62
     9
 10
0.0
 20
0.0
 30
0.0
 70
   128
 71
     5
 72
    11
 73
     4
  0
VERTEX
  5
3B5
  8
0
 62
     9
 10
0.0
 20
0.0
 30
0.0
 70
   128
 71
    13
 72
    12
 73
     4
  0
VERTEX
  5
3B6
  8
0
 62
     9
 10
0.0
 20
0.0
 30
0.0
 70
   128
 71
    15
 72
    14
 73
     9
  0
VERTEX
  5
3B7
  8
0
 62
     9
 10
0.0
 20
0.0
 30
0.0
 70
   128
 71
     1
 72
    16
 73
     3
  0
VERTEX
  5
3B8
  8
0
 62
     9
 10
0.0
 20
0.0
 30
0.0
 70
   128
 71
    17
 72
     4
 73
    12
  0
VERTEX
  5
3B9
  8
0
 62
     9
 10
0.0
 20
0.0
 30
0.0
 70
   128
 71
     4
 72
    11
 73
    13
  0
VERTEX
  5
3BA
  8
0
 62
     9
 10
0.0
 20
0.0
 30
0.0
 70
   128
 71
     9
 72
    14
 73
    10
  0
VERTEX
  5
3BB
  8
0
 62
     9
 10
0.0
 20
0.0
 30
0.0
 70
   128
 71
     4
 72
    18
 73
     8
  0
VERTEX
  5
3BC
  8
0
 62
     9
 10
0.0
 20
0.0
 30
0.0
 70
   128
 71
    12
 72
     9
 73
    17
  0
VERTEX
  5
3BD
  8
0
 62
     9
 10
0.0
 20
0.0
 30
0.0
 70
   128
 71
     9
 72
    12
 73
    15
  0
SEQEND
  5
3BE
  8
0
 62
     9
  0
ENDBLK
  5
3C1
  8
0
  0
BLOCK
  8
0
  2
E3_NODE_25_
 70
     0
 10
0.0
 20
0.0
 30
0.0
  3
E3_NODE_25_
  1

  0
POLYLINE
  5
3C3
  8
0
 62
     9
 66
     1
 10
0.0
 20
0.0
 30
0.0
 70
    64
 71
    72
 72
   108
  0
VERTEX
  5
3C4
  8
0
 10
-60.87699890136719
 20
-75.0
 30
26.7819995880127
 70
   192
  0
VERTEX
  5
3C5
  8
0
 10
-59.0
 20
-75.0
 30
19.51600074768066
 70
   192
  0
VERTEX
  5
3C6
  8
0
 10
-59.0
 20
-68.32499694824219
 30
18.3390007019043
 70
   192
  0
VERTEX
  5
3C7
  8
0
 10
-60.87699890136719
 20
-65.83999633789062
 30
25.16699981689453
 70
   192
  0
VERTEX
  5
3C8
  8
0
 10
-59.0
 20
-62.45500183105469
 30
14.94999980926514
 70
   192
  0
VERTEX
  5
3C9
  8
0
 10
-60.87699890136719
 20
-51.80599975585938
 30
13.39099979400635
 70
   192
  0
VERTEX
  5
3CA
  8
0
 10
-60.87699890136719
 20
-57.78499984741211
 30
20.51600074768066
 70
   192
  0
VERTEX
  5
3CB
  8
0
 10
-59.0
 20
-58.0989990234375
 30
9.758000373840332
 70
   192
  0
VERTEX
  5
3CC
  8
0
 10
-59.0
 20
-55.77999877929688
 30
3.388999938964844
 70
   192
  0
VERTEX
  5
3CD
  8
0
 10
-60.87699890136719
 20
-48.625
 30
4.651000022888184
 70
   192
  0
VERTEX
  5
3CE
  8
0
 10
-59.0
 20
-55.77999877929688
 30
-3.388999938964844
 70
   192
  0
VERTEX
  5
3CF
  8
0
 10
-60.87699890136719
 20
-48.625
 30
-4.651000022888184
 70
   192
  0
VERTEX
  5
3D0
  8
0
 10
-59.0
 20
-58.0989990234375
 30
-9.758000373840332
 70
   192
  0
VERTEX
  5
3D1
  8
0
 10
-60.87699890136719
 20
-57.78499984741211
 30
-20.51600074768066
 70
   192
  0
VERTEX
  5
3D2
  8
0
 10
-60.87699890136719
 20
-51.80599975585938
 30
-13.39099979400635
 70
   192
  0
VERTEX
  5
3D3
  8
0
 10
-59.0
 20
-62.45500183105469
 30
-14.94999980926514
 70
   192
  0
VERTEX
  5
3D4
  8
0
 10
-59.0
 20
-68.32499694824219
 30
-18.3390007019043
 70
   192
  0
VERTEX
  5
3D5
  8
0
 10
-60.87699890136719
 20
-65.83999633789062
 30
-25.16699981689453
 70
   192
  0
VERTEX
  5
3D6
  8
0
 10
-59.0
 20
-75.0
 30
-19.51600074768066
 70
   192
  0
VERTEX
  5
3D7
  8
0
 10
-60.87699890136719
 20
-75.0
 30
-26.7819995880127
 70
   192
  0
VERTEX
  5
3D8
  8
0
 10
-59.0
 20
-81.67500305175781
 30
-18.3390007019043
 70
   192
  0
VERTEX
  5
3D9
  8
0
 10
-60.87699890136719
 20
-92.21499633789062
 30
-20.51600074768066
 70
   192
  0
VERTEX
  5
3DA
  8
0
 10
-60.87699890136719
 20
-84.16000366210938
 30
-25.16699981689453
 70
   192
  0
VERTEX
  5
3DB
  8
0
 10
-59.0
 20
-87.54499816894531
 30
-14.94999980926514
 70
   192
  0
VERTEX
  5
3DC
  8
0
 10
-59.0
 20
-91.9010009765625
 30
-9.758000373840332
 70
   192
  0
VERTEX
  5
3DD
  8
0
 10
-60.87699890136719
 20
-98.19400024414062
 30
-13.39099979400635
 70
   192
  0
VERTEX
  5
3DE
  8
0
 10
-59.0
 20
-94.22000122070312
 30
-3.388999938964844
 70
   192
  0
VERTEX
  5
3DF
  8
0
 10
-60.87699890136719
 20
-101.375
 30
4.651000022888184
 70
   192
  0
VERTEX
  5
3E0
  8
0
 10
-60.87699890136719
 20
-101.375
 30
-4.651000022888184
 70
   192
  0
VERTEX
  5
3E1
  8
0
 10
-60.87699890136719
 20
-98.19400024414062
 30
13.39099979400635
 70
   192
  0
VERTEX
  5
3E2
  8
0
 10
-59.0
 20
-94.22000122070312
 30
3.388999938964844
 70
   192
  0
VERTEX
  5
3E3
  8
0
 10
-59.0
 20
-91.9010009765625
 30
9.758000373840332
 70
   192
  0
VERTEX
  5
3E4
  8
0
 10
-59.0
 20
-87.54499816894531
 30
14.94999980926514
 70
   192
  0
VERTEX
  5
3E5
  8
0
 10
-60.87699890136719
 20
-84.16000366210938
 30
25.16699981689453
 70
   192
  0
VERTEX
  5
3E6
  8
0
 10
-60.87699890136719
 20
-92.21499633789062
 30
20.51600074768066
 70
   192
  0
VERTEX
  5
3E7
  8
0
 10
-59.0
 20
-81.67500305175781
 30
18.3390007019043
 70
   192
  0
VERTEX
  5
3E8
  8
0
 10
-66.03900146484375
 20
-63.97700119018555
 30
30.2859992980957
 70
   192
  0
VERTEX
  5
3E9
  8
0
 10
-66.03900146484375
 20
-54.28300094604492
 30
24.68899917602539
 70
   192
  0
VERTEX
  5
3EA
  8
0
 10
-66.03900146484375
 20
-47.0890007019043
 30
16.11499977111816
 70
   192
  0
VERTEX
  5
3EB
  8
0
 10
-66.03900146484375
 20
-43.2599983215332
 30
5.597000122070312
 70
   192
  0
VERTEX
  5
3EC
  8
0
 10
-66.03900146484375
 20
-43.2599983215332
 30
-5.597000122070312
 70
   192
  0
VERTEX
  5
3ED
  8
0
 10
-66.03900146484375
 20
-47.0890007019043
 30
-16.11499977111816
 70
   192
  0
VERTEX
  5
3EE
  8
0
 10
-66.03900146484375
 20
-54.28300094604492
 30
-24.68899917602539
 70
   192
  0
VERTEX
  5
3EF
  8
0
 10
-66.03900146484375
 20
-63.97700119018555
 30
-30.2859992980957
 70
   192
  0
VERTEX
  5
3F0
  8
0
 10
-66.03900146484375
 20
-75.0
 30
-32.22900009155273
 70
   192
  0
VERTEX
  5
3F1
  8
0
 10
-66.03900146484375
 20
-86.02300262451172
 30
-30.2859992980957
 70
   192
  0
VERTEX
  5
3F2
  8
0
 10
-66.03900146484375
 20
-95.71700286865234
 30
-24.68899917602539
 70
   192
  0
VERTEX
  5
3F3
  8
0
 10
-66.03900146484375
 20
-102.911003112793
 30
-16.11499977111816
 70
   192
  0
VERTEX
  5
3F4
  8
0
 10
-66.03900146484375
 20
-106.7399978637695
 30
-5.597000122070312
 70
   192
  0
VERTEX
  5
3F5
  8
0
 10
-66.03900146484375
 20
-106.7399978637695
 30
5.597000122070312
 70
   192
  0
VERTEX
  5
3F6
  8
0
 10
-66.03900146484375
 20
-102.911003112793
 30
16.11499977111816
 70
   192
  0
VERTEX
  5
3F7
  8
0
 10
-66.03900146484375
 20
-95.71700286865234
 30
24.68899917602539
 70
   192
  0
VERTEX
  5
3F8
  8
0
 10
-66.03900146484375
 20
-86.02300262451172
 30
30.2859992980957
 70
   192
  0
VERTEX
  5
3F9
  8
0
 10
-66.03900146484375
 20
-75.0
 30
32.22900009155273
 70
   192
  0
VERTEX
  5
3FA
  8
0
 10
-73.19400024414062
 20
-63.20199966430664
 30
32.41400146484375
 70
   192
  0
VERTEX
  5
3FB
  8
0
 10
-73.19400024414062
 20
-75.0
 30
34.49399948120117
 70
   192
  0
VERTEX
  5
3FC
  8
0
 10
-73.19400024414062
 20
-52.82699966430664
 30
26.42399978637695
 70
   192
  0
VERTEX
  5
3FD
  8
0
 10
-73.19400024414062
 20
-45.12699890136719
 30
17.24699974060059
 70
   192
  0
VERTEX
  5
3FE
  8
0
 10
-73.19400024414062
 20
-41.02999877929688
 30
5.989999771118164
 70
   192
  0
VERTEX
  5
3FF
  8
0
 10
-73.19400024414062
 20
-45.12699890136719
 30
-17.24699974060059
 70
   192
  0
VERTEX
  5
400
  8
0
 10
-73.19400024414062
 20
-41.02999877929688
 30
-5.989999771118164
 70
   192
  0
VERTEX
  5
401
  8
0
 10
-73.19400024414062
 20
-52.82699966430664
 30
-26.42399978637695
 70
   192
  0
VERTEX
  5
402
  8
0
 10
-73.19400024414062
 20
-63.20199966430664
 30
-32.41400146484375
 70
   192
  0
VERTEX
  5
403
  8
0
 10
-73.19400024414062
 20
-75.0
 30
-34.49399948120117
 70
   192
  0
VERTEX
  5
404
  8
0
 10
-73.19400024414062
 20
-86.7979965209961
 30
-32.41400146484375
 70
   192
  0
VERTEX
  5
405
  8
0
 10
-73.19400024414062
 20
-97.1729965209961
 30
-26.42399978637695
 70
   192
  0
VERTEX
  5
406
  8
0
 10
-73.19400024414062
 20
-104.8730010986328
 30
-17.24699974060059
 70
   192
  0
VERTEX
  5
407
  8
0
 10
-73.19400024414062
 20
-108.9700012207031
 30
5.989999771118164
 70
   192
  0
VERTEX
  5
408
  8
0
 10
-73.19400024414062
 20
-108.9700012207031
 30
-5.989999771118164
 70
   192
  0
VERTEX
  5
409
  8
0
 10
-73.19400024414062
 20
-104.8730010986328
 30
17.24699974060059
 70
   192
  0
VERTEX
  5
40A
  8
0
 10
-73.19400024414062
 20
-97.1729965209961
 30
26.42399978637695
 70
   192
  0
VERTEX
  5
40B
  8
0
 10
-73.19400024414062
 20
-86.7979965209961
 30
32.41400146484375
 70
   192
  0
VERTEX
  5
40C
  8
0
 62
     9
 10
0.0
 20
0.0
 30
0.0
 70
   128
 71
     3
 72
     2
 73
     1
  0
VERTEX
  5
40D
  8
0
 62
     9
 10
0.0
 20
0.0
 30
0.0
 70
   128
 71
     5
 72
     3
 73
     4
  0
VERTEX
  5
40E
  8
0
 62
     9
 10
0.0
 20
0.0
 30
0.0
 70
   128
 71
     5
 72
     7
 73
     6
  0
VERTEX
  5
40F
  8
0
 62
     9
 10
0.0
 20
0.0
 30
0.0
 70
   128
 71
     9
 72
     8
 73
     6
  0
VERTEX
  5
410
  8
0
 62
     9
 10
0.0
 20
0.0
 30
0.0
 70
   128
 71
    11
 72
     9
 73
    10
  0
VERTEX
  5
411
  8
0
 62
     9
 10
0.0
 20
0.0
 30
0.0
 70
   128
 71
    13
 72
    11
 73
    12
  0
VERTEX
  5
412
  8
0
 62
     9
 10
0.0
 20
0.0
 30
0.0
 70
   128
 71
    13
 72
    15
 73
    14
  0
VERTEX
  5
413
  8
0
 62
     9
 10
0.0
 20
0.0
 30
0.0
 70
   128
 71
    17
 72
    16
 73
    14
  0
VERTEX
  5
414
  8
0
 62
     9
 10
0.0
 20
0.0
 30
0.0
 70
   128
 71
    19
 72
    17
 73
    18
  0
VERTEX
  5
415
  8
0
 62
     9
 10
0.0
 20
0.0
 30
0.0
 70
   128
 71
    21
 72
    19
 73
    20
  0
VERTEX
  5
416
  8
0
 62
     9
 10
0.0
 20
0.0
 30
0.0
 70
   128
 71
    21
 72
    23
 73
    22
  0
VERTEX
  5
417
  8
0
 62
     9
 10
0.0
 20
0.0
 30
0.0
 70
   128
 71
    25
 72
    24
 73
    22
  0
VERTEX
  5
418
  8
0
 62
     9
 10
0.0
 20
0.0
 30
0.0
 70
   128
 71
    27
 72
    25
 73
    26
  0
VERTEX
  5
419
  8
0
 62
     9
 10
0.0
 20
0.0
 30
0.0
 70
   128
 71
    27
 72
    29
 73
    28
  0
VERTEX
  5
41A
  8
0
 62
     9
 10
0.0
 20
0.0
 30
0.0
 70
   128
 71
    31
 72
    28
 73
    30
  0
VERTEX
  5
41B
  8
0
 62
     9
 10
0.0
 20
0.0
 30
0.0
 70
   128
 71
    33
 72
    32
 73
    30
  0
VERTEX
  5
41C
  8
0
 62
     9
 10
0.0
 20
0.0
 30
0.0
 70
   128
 71
    33
 72
    35
 73
    34
  0
VERTEX
  5
41D
  8
0
 62
     9
 10
0.0
 20
0.0
 30
0.0
 70
   128
 71
    36
 72
    34
 73
     1
  0
VERTEX
  5
41E
  8
0
 62
     9
 10
0.0
 20
0.0
 30
0.0
 70
   128
 71
    37
 72
     4
 73
     1
  0
VERTEX
  5
41F
  8
0
 62
     9
 10
0.0
 20
0.0
 30
0.0
 70
   128
 71
    38
 72
     7
 73
     4
  0
VERTEX
  5
420
  8
0
 62
     9
 10
0.0
 20
0.0
 30
0.0
 70
   128
 71
    39
 72
     6
 73
     7
  0
VERTEX
  5
421
  8
0
 62
     9
 10
0.0
 20
0.0
 30
0.0
 70
   128
 71
    40
 72
    10
 73
     6
  0
VERTEX
  5
422
  8
0
 62
     9
 10
0.0
 20
0.0
 30
0.0
 70
   128
 71
    41
 72
    12
 73
    10
  0
VERTEX
  5
423
  8
0
 62
     9
 10
0.0
 20
0.0
 30
0.0
 70
   128
 71
    42
 72
    15
 73
    12
  0
VERTEX
  5
424
  8
0
 62
     9
 10
0.0
 20
0.0
 30
0.0
 70
   128
 71
    43
 72
    14
 73
    15
  0
VERTEX
  5
425
  8
0
 62
     9
 10
0.0
 20
0.0
 30
0.0
 70
   128
 71
    44
 72
    18
 73
    14
  0
VERTEX
  5
426
  8
0
 62
     9
 10
0.0
 20
0.0
 30
0.0
 70
   128
 71
    45
 72
    20
 73
    18
  0
VERTEX
  5
427
  8
0
 62
     9
 10
0.0
 20
0.0
 30
0.0
 70
   128
 71
    46
 72
    23
 73
    20
  0
VERTEX
  5
428
  8
0
 62
     9
 10
0.0
 20
0.0
 30
0.0
 70
   128
 71
    47
 72
    22
 73
    23
  0
VERTEX
  5
429
  8
0
 62
     9
 10
0.0
 20
0.0
 30
0.0
 70
   128
 71
    48
 72
    26
 73
    22
  0
VERTEX
  5
42A
  8
0
 62
     9
 10
0.0
 20
0.0
 30
0.0
 70
   128
 71
    49
 72
    29
 73
    26
  0
VERTEX
  5
42B
  8
0
 62
     9
 10
0.0
 20
0.0
 30
0.0
 70
   128
 71
    50
 72
    28
 73
    29
  0
VERTEX
  5
42C
  8
0
 62
     9
 10
0.0
 20
0.0
 30
0.0
 70
   128
 71
    51
 72
    30
 73
    28
  0
VERTEX
  5
42D
  8
0
 62
     9
 10
0.0
 20
0.0
 30
0.0
 70
   128
 71
    52
 72
    35
 73
    30
  0
VERTEX
  5
42E
  8
0
 62
     9
 10
0.0
 20
0.0
 30
0.0
 70
   128
 71
    53
 72
    34
 73
    35
  0
VERTEX
  5
42F
  8
0
 62
     9
 10
0.0
 20
0.0
 30
0.0
 70
   128
 71
    54
 72
     1
 73
    34
  0
VERTEX
  5
430
  8
0
 62
     9
 10
0.0
 20
0.0
 30
0.0
 70
   128
 71
    54
 72
    56
 73
    55
  0
VERTEX
  5
431
  8
0
 62
     9
 10
0.0
 20
0.0
 30
0.0
 70
   128
 71
    37
 72
    55
 73
    57
  0
VERTEX
  5
432
  8
0
 62
     9
 10
0.0
 20
0.0
 30
0.0
 70
   128
 71
    38
 72
    57
 73
    58
  0
VERTEX
  5
433
  8
0
 62
     9
 10
0.0
 20
0.0
 30
0.0
 70
   128
 71
    39
 72
    58
 73
    59
  0
VERTEX
  5
434
  8
0
 62
     9
 10
0.0
 20
0.0
 30
0.0
 70
   128
 71
    41
 72
    40
 73
    59
  0
VERTEX
  5
435
  8
0
 62
     9
 10
0.0
 20
0.0
 30
0.0
 70
   128
 71
    41
 72
    61
 73
    60
  0
VERTEX
  5
436
  8
0
 62
     9
 10
0.0
 20
0.0
 30
0.0
 70
   128
 71
    42
 72
    60
 73
    62
  0
VERTEX
  5
437
  8
0
 62
     9
 10
0.0
 20
0.0
 30
0.0
 70
   128
 71
    43
 72
    62
 73
    63
  0
VERTEX
  5
438
  8
0
 62
     9
 10
0.0
 20
0.0
 30
0.0
 70
   128
 71
    44
 72
    63
 73
    64
  0
VERTEX
  5
439
  8
0
 62
     9
 10
0.0
 20
0.0
 30
0.0
 70
   128
 71
    45
 72
    64
 73
    65
  0
VERTEX
  5
43A
  8
0
 62
     9
 10
0.0
 20
0.0
 30
0.0
 70
   128
 71
    46
 72
    65
 73
    66
  0
VERTEX
  5
43B
  8
0
 62
     9
 10
0.0
 20
0.0
 30
0.0
 70
   128
 71
    48
 72
    47
 73
    66
  0
VERTEX
  5
43C
  8
0
 62
     9
 10
0.0
 20
0.0
 30
0.0
 70
   128
 71
    49
 72
    48
 73
    67
  0
VERTEX
  5
43D
  8
0
 62
     9
 10
0.0
 20
0.0
 30
0.0
 70
   128
 71
    49
 72
    69
 73
    68
  0
VERTEX
  5
43E
  8
0
 62
     9
 10
0.0
 20
0.0
 30
0.0
 70
   128
 71
    51
 72
    50
 73
    68
  0
VERTEX
  5
43F
  8
0
 62
     9
 10
0.0
 20
0.0
 30
0.0
 70
   128
 71
    52
 72
    51
 73
    70
  0
VERTEX
  5
440
  8
0
 62
     9
 10
0.0
 20
0.0
 30
0.0
 70
   128
 71
    53
 72
    52
 73
    71
  0
VERTEX
  5
441
  8
0
 62
     9
 10
0.0
 20
0.0
 30
0.0
 70
   128
 71
    54
 72
    53
 73
    72
  0
VERTEX
  5
442
  8
0
 62
     9
 10
0.0
 20
0.0
 30
0.0
 70
   128
 71
    72
 72
    56
 73
    54
  0
VERTEX
  5
443
  8
0
 62
     9
 10
0.0
 20
0.0
 30
0.0
 70
   128
 71
    71
 72
    72
 73
    53
  0
VERTEX
  5
444
  8
0
 62
     9
 10
0.0
 20
0.0
 30
0.0
 70
   128
 71
    70
 72
    71
 73
    52
  0
VERTEX
  5
445
  8
0
 62
     9
 10
0.0
 20
0.0
 30
0.0
 70
   128
 71
    68
 72
    70
 73
    51
  0
VERTEX
  5
446
  8
0
 62
     9
 10
0.0
 20
0.0
 30
0.0
 70
   128
 71
    68
 72
    50
 73
    49
  0
VERTEX
  5
447
  8
0
 62
     9
 10
0.0
 20
0.0
 30
0.0
 70
   128
 71
    67
 72
    69
 73
    49
  0
VERTEX
  5
448
  8
0
 62
     9
 10
0.0
 20
0.0
 30
0.0
 70
   128
 71
    66
 72
    67
 73
    48
  0
VERTEX
  5
449
  8
0
 62
     9
 10
0.0
 20
0.0
 30
0.0
 70
   128
 71
    66
 72
    47
 73
    46
  0
VERTEX
  5
44A
  8
0
 62
     9
 10
0.0
 20
0.0
 30
0.0
 70
   128
 71
    65
 72
    46
 73
    45
  0
VERTEX
  5
44B
  8
0
 62
     9
 10
0.0
 20
0.0
 30
0.0
 70
   128
 71
    64
 72
    45
 73
    44
  0
VERTEX
  5
44C
  8
0
 62
     9
 10
0.0
 20
0.0
 30
0.0
 70
   128
 71
    63
 72
    44
 73
    43
  0
VERTEX
  5
44D
  8
0
 62
     9
 10
0.0
 20
0.0
 30
0.0
 70
   128
 71
    62
 72
    43
 73
    42
  0
VERTEX
  5
44E
  8
0
 62
     9
 10
0.0
 20
0.0
 30
0.0
 70
   128
 71
    60
 72
    42
 73
    41
  0
VERTEX
  5
44F
  8
0
 62
     9
 10
0.0
 20
0.0
 30
0.0
 70
   128
 71
    59
 72
    61
 73
    41
  0
VERTEX
  5
450
  8
0
 62
     9
 10
0.0
 20
0.0
 30
0.0
 70
   128
 71
    59
 72
    40
 73
    39
  0
VERTEX
  5
451
  8
0
 62
     9
 10
0.0
 20
0.0
 30
0.0
 70
   128
 71
    58
 72
    39
 73
    38
  0
VERTEX
  5
452
  8
0
 62
     9
 10
0.0
 20
0.0
 30
0.0
 70
   128
 71
    57
 72
    38
 73
    37
  0
VERTEX
  5
453
  8
0
 62
     9
 10
0.0
 20
0.0
 30
0.0
 70
   128
 71
    55
 72
    37
 73
    54
  0
VERTEX
  5
454
  8
0
 62
     9
 10
0.0
 20
0.0
 30
0.0
 70
   128
 71
    34
 72
    53
 73
    54
  0
VERTEX
  5
455
  8
0
 62
     9
 10
0.0
 20
0.0
 30
0.0
 70
   128
 71
    35
 72
    52
 73
    53
  0
VERTEX
  5
456
  8
0
 62
     9
 10
0.0
 20
0.0
 30
0.0
 70
   128
 71
    30
 72
    51
 73
    52
  0
VERTEX
  5
457
  8
0
 62
     9
 10
0.0
 20
0.0
 30
0.0
 70
   128
 71
    28
 72
    50
 73
    51
  0
VERTEX
  5
458
  8
0
 62
     9
 10
0.0
 20
0.0
 30
0.0
 70
   128
 71
    29
 72
    49
 73
    50
  0
VERTEX
  5
459
  8
0
 62
     9
 10
0.0
 20
0.0
 30
0.0
 70
   128
 71
    26
 72
    48
 73
    49
  0
VERTEX
  5
45A
  8
0
 62
     9
 10
0.0
 20
0.0
 30
0.0
 70
   128
 71
    22
 72
    47
 73
    48
  0
VERTEX
  5
45B
  8
0
 62
     9
 10
0.0
 20
0.0
 30
0.0
 70
   128
 71
    23
 72
    46
 73
    47
  0
VERTEX
  5
45C
  8
0
 62
     9
 10
0.0
 20
0.0
 30
0.0
 70
   128
 71
    20
 72
    45
 73
    46
  0
VERTEX
  5
45D
  8
0
 62
     9
 10
0.0
 20
0.0
 30
0.0
 70
   128
 71
    18
 72
    44
 73
    45
  0
VERTEX
  5
45E
  8
0
 62
     9
 10
0.0
 20
0.0
 30
0.0
 70
   128
 71
    14
 72
    43
 73
    44
  0
VERTEX
  5
45F
  8
0
 62
     9
 10
0.0
 20
0.0
 30
0.0
 70
   128
 71
    15
 72
    42
 73
    43
  0
VERTEX
  5
460
  8
0
 62
     9
 10
0.0
 20
0.0
 30
0.0
 70
   128
 71
    12
 72
    41
 73
    42
  0
VERTEX
  5
461
  8
0
 62
     9
 10
0.0
 20
0.0
 30
0.0
 70
   128
 71
    10
 72
    40
 73
    41
  0
VERTEX
  5
462
  8
0
 62
     9
 10
0.0
 20
0.0
 30
0.0
 70
   128
 71
     6
 72
    39
 73
    40
  0
VERTEX
  5
463
  8
0
 62
     9
 10
0.0
 20
0.0
 30
0.0
 70
   128
 71
     7
 72
    38
 73
    39
  0
VERTEX
  5
464
  8
0
 62
     9
 10
0.0
 20
0.0
 30
0.0
 70
   128
 71
     4
 72
    37
 73
    38
  0
VERTEX
  5
465
  8
0
 62
     9
 10
0.0
 20
0.0
 30
0.0
 70
   128
 71
     1
 72
    54
 73
    37
  0
VERTEX
  5
466
  8
0
 62
     9
 10
0.0
 20
0.0
 30
0.0
 70
   128
 71
     1
 72
     2
 73
    36
  0
VERTEX
  5
467
  8
0
 62
     9
 10
0.0
 20
0.0
 30
0.0
 70
   128
 71
    34
 72
    36
 73
    33
  0
VERTEX
  5
468
  8
0
 62
     9
 10
0.0
 20
0.0
 30
0.0
 70
   128
 71
    30
 72
    35
 73
    33
  0
VERTEX
  5
469
  8
0
 62
     9
 10
0.0
 20
0.0
 30
0.0
 70
   128
 71
    30
 72
    32
 73
    31
  0
VERTEX
  5
46A
  8
0
 62
     9
 10
0.0
 20
0.0
 30
0.0
 70
   128
 71
    28
 72
    31
 73
    27
  0
VERTEX
  5
46B
  8
0
 62
     9
 10
0.0
 20
0.0
 30
0.0
 70
   128
 71
    26
 72
    29
 73
    27
  0
VERTEX
  5
46C
  8
0
 62
     9
 10
0.0
 20
0.0
 30
0.0
 70
   128
 71
    22
 72
    26
 73
    25
  0
VERTEX
  5
46D
  8
0
 62
     9
 10
0.0
 20
0.0
 30
0.0
 70
   128
 71
    22
 72
    24
 73
    21
  0
VERTEX
  5
46E
  8
0
 62
     9
 10
0.0
 20
0.0
 30
0.0
 70
   128
 71
    20
 72
    23
 73
    21
  0
VERTEX
  5
46F
  8
0
 62
     9
 10
0.0
 20
0.0
 30
0.0
 70
   128
 71
    18
 72
    20
 73
    19
  0
VERTEX
  5
470
  8
0
 62
     9
 10
0.0
 20
0.0
 30
0.0
 70
   128
 71
    14
 72
    18
 73
    17
  0
VERTEX
  5
471
  8
0
 62
     9
 10
0.0
 20
0.0
 30
0.0
 70
   128
 71
    14
 72
    16
 73
    13
  0
VERTEX
  5
472
  8
0
 62
     9
 10
0.0
 20
0.0
 30
0.0
 70
   128
 71
    12
 72
    15
 73
    13
  0
VERTEX
  5
473
  8
0
 62
     9
 10
0.0
 20
0.0
 30
0.0
 70
   128
 71
    10
 72
    12
 73
    11
  0
VERTEX
  5
474
  8
0
 62
     9
 10
0.0
 20
0.0
 30
0.0
 70
   128
 71
     6
 72
    10
 73
     9
  0
VERTEX
  5
475
  8
0
 62
     9
 10
0.0
 20
0.0
 30
0.0
 70
   128
 71
     6
 72
     8
 73
     5
  0
VERTEX
  5
476
  8
0
 62
     9
 10
0.0
 20
0.0
 30
0.0
 70
   128
 71
     4
 72
     7
 73
     5
  0
VERTEX
  5
477
  8
0
 62
     9
 10
0.0
 20
0.0
 30
0.0
 70
   128
 71
     1
 72
     4
 73
     3
  0
SEQEND
  5
478
  8
0
 62
     9
  0
ENDBLK
  5
47B
  8
0
  0
BLOCK
  8
0
  2
E3_NODE_26_
 70
     0
 10
0.0
 20
0.0
 30
0.0
  3
E3_NODE_26_
  1

  0
POLYLINE
  5
47D
  8
0
 62
     9
 66
     1
 10
0.0
 20
0.0
 30
0.0
 70
    64
 71
    36
 72
    36
  0
VERTEX
  5
47E
  8
0
 10
-92.0
 20
-75.0
 30
35.0
 70
   192
  0
VERTEX
  5
47F
  8
0
 10
-73.19400024414062
 20
-75.0
 30
34.49399948120117
 70
   192
  0
VERTEX
  5
480
  8
0
 10
-73.19400024414062
 20
-63.20199966430664
 30
32.41400146484375
 70
   192
  0
VERTEX
  5
481
  8
0
 10
-92.0
 20
-63.02899932861328
 30
32.88899993896484
 70
   192
  0
VERTEX
  5
482
  8
0
 10
-73.19400024414062
 20
-52.82699966430664
 30
26.42399978637695
 70
   192
  0
VERTEX
  5
483
  8
0
 10
-92.0
 20
-44.68899917602539
 30
17.5
 70
   192
  0
VERTEX
  5
484
  8
0
 10
-92.0
 20
-52.50199890136719
 30
26.8120002746582
 70
   192
  0
VERTEX
  5
485
  8
0
 10
-92.0
 20
-40.53200149536133
 30
6.078000068664551
 70
   192
  0
VERTEX
  5
486
  8
0
 10
-73.19400024414062
 20
-45.12699890136719
 30
17.24699974060059
 70
   192
  0
VERTEX
  5
487
  8
0
 10
-73.19400024414062
 20
-41.02999877929688
 30
5.989999771118164
 70
   192
  0
VERTEX
  5
488
  8
0
 10
-73.19400024414062
 20
-41.02999877929688
 30
-5.989999771118164
 70
   192
  0
VERTEX
  5
489
  8
0
 10
-92.0
 20
-44.68899917602539
 30
-17.5
 70
   192
  0
VERTEX
  5
48A
  8
0
 10
-92.0
 20
-40.53200149536133
 30
-6.078000068664551
 70
   192
  0
VERTEX
  5
48B
  8
0
 10
-92.0
 20
-52.50199890136719
 30
-26.8120002746582
 70
   192
  0
VERTEX
  5
48C
  8
0
 10
-73.19400024414062
 20
-45.12699890136719
 30
-17.24699974060059
 70
   192
  0
VERTEX
  5
48D
  8
0
 10
-73.19400024414062
 20
-52.82699966430664
 30
-26.42399978637695
 70
   192
  0
VERTEX
  5
48E
  8
0
 10
-73.19400024414062
 20
-63.20199966430664
 30
-32.41400146484375
 70
   192
  0
VERTEX
  5
48F
  8
0
 10
-92.0
 20
-63.02899932861328
 30
-32.88899993896484
 70
   192
  0
VERTEX
  5
490
  8
0
 10
-73.19400024414062
 20
-75.0
 30
-34.49399948120117
 70
   192
  0
VERTEX
  5
491
  8
0
 10
-92.0
 20
-86.97100067138672
 30
-32.88899993896484
 70
   192
  0
VERTEX
  5
492
  8
0
 10
-92.0
 20
-75.0
 30
-35.0
 70
   192
  0
VERTEX
  5
493
  8
0
 10
-92.0
 20
-97.49800109863281
 30
-26.8120002746582
 70
   192
  0
VERTEX
  5
494
  8
0
 10
-73.19400024414062
 20
-86.7979965209961
 30
-32.41400146484375
 70
   192
  0
VERTEX
  5
495
  8
0
 10
-73.19400024414062
 20
-97.1729965209961
 30
-26.42399978637695
 70
   192
  0
VERTEX
  5
496
  8
0
 10
-73.19400024414062
 20
-104.8730010986328
 30
-17.24699974060059
 70
   192
  0
VERTEX
  5
497
  8
0
 10
-92.0
 20
-105.3109970092773
 30
-17.5
 70
   192
  0
VERTEX
  5
498
  8
0
 10
-73.19400024414062
 20
-108.9700012207031
 30
-5.989999771118164
 70
   192
  0
VERTEX
  5
499
  8
0
 10
-92.0
 20
-109.4680023193359
 30
6.078000068664551
 70
   192
  0
VERTEX
  5
49A
  8
0
 10
-92.0
 20
-109.4680023193359
 30
-6.078000068664551
 70
   192
  0
VERTEX
  5
49B
  8
0
 10
-73.19400024414062
 20
-108.9700012207031
 30
5.989999771118164
 70
   192
  0
VERTEX
  5
49C
  8
0
 10
-73.19400024414062
 20
-104.8730010986328
 30
17.24699974060059
 70
   192
  0
VERTEX
  5
49D
  8
0
 10
-92.0
 20
-105.3109970092773
 30
17.5
 70
   192
  0
VERTEX
  5
49E
  8
0
 10
-73.19400024414062
 20
-97.1729965209961
 30
26.42399978637695
 70
   192
  0
VERTEX
  5
49F
  8
0
 10
-92.0
 20
-86.97100067138672
 30
32.88899993896484
 70
   192
  0
VERTEX
  5
4A0
  8
0
 10
-92.0
 20
-97.49800109863281
 30
26.8120002746582
 70
   192
  0
VERTEX
  5
4A1
  8
0
 10
-73.19400024414062
 20
-86.7979965209961
 30
32.41400146484375
 70
   192
  0
VERTEX
  5
4A2
  8
0
 62
     9
 10
0.0
 20
0.0
 30
0.0
 70
   128
 71
     3
 72
     2
 73
     1
  0
VERTEX
  5
4A3
  8
0
 62
     9
 10
0.0
 20
0.0
 30
0.0
 70
   128
 71
     5
 72
     3
 73
     4
  0
VERTEX
  5
4A4
  8
0
 62
     9
 10
0.0
 20
0.0
 30
0.0
 70
   128
 71
     5
 72
     7
 73
     6
  0
VERTEX
  5
4A5
  8
0
 62
     9
 10
0.0
 20
0.0
 30
0.0
 70
   128
 71
     9
 72
     6
 73
     8
  0
VERTEX
  5
4A6
  8
0
 62
     9
 10
0.0
 20
0.0
 30
0.0
 70
   128
 71
    11
 72
    10
 73
     8
  0
VERTEX
  5
4A7
  8
0
 62
     9
 10
0.0
 20
0.0
 30
0.0
 70
   128
 71
    11
 72
    13
 73
    12
  0
VERTEX
  5
4A8
  8
0
 62
     9
 10
0.0
 20
0.0
 30
0.0
 70
   128
 71
    15
 72
    12
 73
    14
  0
VERTEX
  5
4A9
  8
0
 62
     9
 10
0.0
 20
0.0
 30
0.0
 70
   128
 71
    17
 72
    16
 73
    14
  0
VERTEX
  5
4AA
  8
0
 62
     9
 10
0.0
 20
0.0
 30
0.0
 70
   128
 71
    19
 72
    17
 73
    18
  0
VERTEX
  5
4AB
  8
0
 62
     9
 10
0.0
 20
0.0
 30
0.0
 70
   128
 71
    19
 72
    21
 73
    20
  0
VERTEX
  5
4AC
  8
0
 62
     9
 10
0.0
 20
0.0
 30
0.0
 70
   128
 71
    23
 72
    20
 73
    22
  0
VERTEX
  5
4AD
  8
0
 62
     9
 10
0.0
 20
0.0
 30
0.0
 70
   128
 71
    25
 72
    24
 73
    22
  0
VERTEX
  5
4AE
  8
0
 62
     9
 10
0.0
 20
0.0
 30
0.0
 70
   128
 71
    27
 72
    25
 73
    26
  0
VERTEX
  5
4AF
  8
0
 62
     9
 10
0.0
 20
0.0
 30
0.0
 70
   128
 71
    27
 72
    29
 73
    28
  0
VERTEX
  5
4B0
  8
0
 62
     9
 10
0.0
 20
0.0
 30
0.0
 70
   128
 71
    31
 72
    30
 73
    28
  0
VERTEX
  5
4B1
  8
0
 62
     9
 10
0.0
 20
0.0
 30
0.0
 70
   128
 71
    33
 72
    31
 73
    32
  0
VERTEX
  5
4B2
  8
0
 62
     9
 10
0.0
 20
0.0
 30
0.0
 70
   128
 71
    33
 72
    35
 73
    34
  0
VERTEX
  5
4B3
  8
0
 62
     9
 10
0.0
 20
0.0
 30
0.0
 70
   128
 71
    36
 72
    34
 73
     1
  0
VERTEX
  5
4B4
  8
0
 62
     9
 10
0.0
 20
0.0
 30
0.0
 70
   128
 71
     1
 72
     2
 73
    36
  0
VERTEX
  5
4B5
  8
0
 62
     9
 10
0.0
 20
0.0
 30
0.0
 70
   128
 71
    34
 72
    36
 73
    33
  0
VERTEX
  5
4B6
  8
0
 62
     9
 10
0.0
 20
0.0
 30
0.0
 70
   128
 71
    32
 72
    35
 73
    33
  0
VERTEX
  5
4B7
  8
0
 62
     9
 10
0.0
 20
0.0
 30
0.0
 70
   128
 71
    28
 72
    32
 73
    31
  0
VERTEX
  5
4B8
  8
0
 62
     9
 10
0.0
 20
0.0
 30
0.0
 70
   128
 71
    28
 72
    30
 73
    27
  0
VERTEX
  5
4B9
  8
0
 62
     9
 10
0.0
 20
0.0
 30
0.0
 70
   128
 71
    26
 72
    29
 73
    27
  0
VERTEX
  5
4BA
  8
0
 62
     9
 10
0.0
 20
0.0
 30
0.0
 70
   128
 71
    22
 72
    26
 73
    25
  0
VERTEX
  5
4BB
  8
0
 62
     9
 10
0.0
 20
0.0
 30
0.0
 70
   128
 71
    22
 72
    24
 73
    23
  0
VERTEX
  5
4BC
  8
0
 62
     9
 10
0.0
 20
0.0
 30
0.0
 70
   128
 71
    20
 72
    23
 73
    19
  0
VERTEX
  5
4BD
  8
0
 62
     9
 10
0.0
 20
0.0
 30
0.0
 70
   128
 71
    18
 72
    21
 73
    19
  0
VERTEX
  5
4BE
  8
0
 62
     9
 10
0.0
 20
0.0
 30
0.0
 70
   128
 71
    14
 72
    18
 73
    17
  0
VERTEX
  5
4BF
  8
0
 62
     9
 10
0.0
 20
0.0
 30
0.0
 70
   128
 71
    14
 72
    16
 73
    15
  0
VERTEX
  5
4C0
  8
0
 62
     9
 10
0.0
 20
0.0
 30
0.0
 70
   128
 71
    12
 72
    15
 73
    11
  0
VERTEX
  5
4C1
  8
0
 62
     9
 10
0.0
 20
0.0
 30
0.0
 70
   128
 71
     8
 72
    13
 73
    11
  0
VERTEX
  5
4C2
  8
0
 62
     9
 10
0.0
 20
0.0
 30
0.0
 70
   128
 71
     8
 72
    10
 73
     9
  0
VERTEX
  5
4C3
  8
0
 62
     9
 10
0.0
 20
0.0
 30
0.0
 70
   128
 71
     6
 72
     9
 73
     5
  0
VERTEX
  5
4C4
  8
0
 62
     9
 10
0.0
 20
0.0
 30
0.0
 70
   128
 71
     4
 72
     7
 73
     5
  0
VERTEX
  5
4C5
  8
0
 62
     9
 10
0.0
 20
0.0
 30
0.0
 70
   128
 71
     1
 72
     4
 73
     3
  0
SEQEND
  5
4C6
  8
0
 62
     9
  0
ENDBLK
  5
4C9
  8
0
  0
BLOCK
  8
0
  2
E3_NODE_27_
 70
     0
 10
0.0
 20
0.0
 30
0.0
  3
E3_NODE_27_
  1

  0
POLYLINE
  5
4CB
  8
0
 62
     9
 66
     1
 10
0.0
 20
0.0
 30
0.0
 70
    64
 71
    18
 72
    16
  0
VERTEX
  5
4CC
  8
0
 10
-92.0
 20
-52.50199890136719
 30
26.8120002746582
 70
   192
  0
VERTEX
  5
4CD
  8
0
 10
-92.0
 20
-109.4680023193359
 30
6.078000068664551
 70
   192
  0
VERTEX
  5
4CE
  8
0
 10
-92.0
 20
-105.3109970092773
 30
17.5
 70
   192
  0
VERTEX
  5
4CF
  8
0
 10
-92.0
 20
-97.49800109863281
 30
-26.8120002746582
 70
   192
  0
VERTEX
  5
4D0
  8
0
 10
-92.0
 20
-40.53200149536133
 30
6.078000068664551
 70
   192
  0
VERTEX
  5
4D1
  8
0
 10
-92.0
 20
-40.53200149536133
 30
-6.078000068664551
 70
   192
  0
VERTEX
  5
4D2
  8
0
 10
-92.0
 20
-63.02899932861328
 30
32.88899993896484
 70
   192
  0
VERTEX
  5
4D3
  8
0
 10
-92.0
 20
-97.49800109863281
 30
26.8120002746582
 70
   192
  0
VERTEX
  5
4D4
  8
0
 10
-92.0
 20
-86.97100067138672
 30
32.88899993896484
 70
   192
  0
VERTEX
  5
4D5
  8
0
 10
-92.0
 20
-109.4680023193359
 30
-6.078000068664551
 70
   192
  0
VERTEX
  5
4D6
  8
0
 10
-92.0
 20
-63.02899932861328
 30
-32.88899993896484
 70
   192
  0
VERTEX
  5
4D7
  8
0
 10
-92.0
 20
-75.0
 30
-35.0
 70
   192
  0
VERTEX
  5
4D8
  8
0
 10
-92.0
 20
-44.68899917602539
 30
-17.5
 70
   192
  0
VERTEX
  5
4D9
  8
0
 10
-92.0
 20
-52.50199890136719
 30
-26.8120002746582
 70
   192
  0
VERTEX
  5
4DA
  8
0
 10
-92.0
 20
-44.68899917602539
 30
17.5
 70
   192
  0
VERTEX
  5
4DB
  8
0
 10
-92.0
 20
-75.0
 30
35.0
 70
   192
  0
VERTEX
  5
4DC
  8
0
 10
-92.0
 20
-105.3109970092773
 30
-17.5
 70
   192
  0
VERTEX
  5
4DD
  8
0
 10
-92.0
 20
-86.97100067138672
 30
-32.88899993896484
 70
   192
  0
VERTEX
  5
4DE
  8
0
 62
     9
 10
0.0
 20
0.0
 30
0.0
 70
   128
 71
     3
 72
     2
 73
     1
  0
VERTEX
  5
4DF
  8
0
 62
     9
 10
0.0
 20
0.0
 30
0.0
 70
   128
 71
     6
 72
     5
 73
     4
  0
VERTEX
  5
4E0
  8
0
 62
     9
 10
0.0
 20
0.0
 30
0.0
 70
   128
 71
     9
 72
     8
 73
     7
  0
VERTEX
  5
4E1
  8
0
 62
     9
 10
0.0
 20
0.0
 30
0.0
 70
   128
 71
     2
 72
    10
 73
     1
  0
VERTEX
  5
4E2
  8
0
 62
     9
 10
0.0
 20
0.0
 30
0.0
 70
   128
 71
    12
 72
    11
 73
     4
  0
VERTEX
  5
4E3
  8
0
 62
     9
 10
0.0
 20
0.0
 30
0.0
 70
   128
 71
    14
 72
    13
 73
     4
  0
VERTEX
  5
4E4
  8
0
 62
     9
 10
0.0
 20
0.0
 30
0.0
 70
   128
 71
     5
 72
    15
 73
     4
  0
VERTEX
  5
4E5
  8
0
 62
     9
 10
0.0
 20
0.0
 30
0.0
 70
   128
 71
     7
 72
    16
 73
     9
  0
VERTEX
  5
4E6
  8
0
 62
     9
 10
0.0
 20
0.0
 30
0.0
 70
   128
 71
    10
 72
    17
 73
     1
  0
VERTEX
  5
4E7
  8
0
 62
     9
 10
0.0
 20
0.0
 30
0.0
 70
   128
 71
     4
 72
    11
 73
    14
  0
VERTEX
  5
4E8
  8
0
 62
     9
 10
0.0
 20
0.0
 30
0.0
 70
   128
 71
    15
 72
     1
 73
     4
  0
VERTEX
  5
4E9
  8
0
 62
     9
 10
0.0
 20
0.0
 30
0.0
 70
   128
 71
     1
 72
     8
 73
     3
  0
VERTEX
  5
4EA
  8
0
 62
     9
 10
0.0
 20
0.0
 30
0.0
 70
   128
 71
     4
 72
    13
 73
     6
  0
VERTEX
  5
4EB
  8
0
 62
     9
 10
0.0
 20
0.0
 30
0.0
 70
   128
 71
    17
 72
     4
 73
     1
  0
VERTEX
  5
4EC
  8
0
 62
     9
 10
0.0
 20
0.0
 30
0.0
 70
   128
 71
     8
 72
     1
 73
     7
  0
VERTEX
  5
4ED
  8
0
 62
     9
 10
0.0
 20
0.0
 30
0.0
 70
   128
 71
     4
 72
    18
 73
    12
  0
SEQEND
  5
4EE
  8
0
 62
     9
  0
ENDBLK
  5
4F1
  8
0
  0
BLOCK
  8
0
  2
E3_NODE_28_
 70
     0
 10
0.0
 20
0.0
 30
0.0
  3
E3_NODE_28_
  1

  0
POLYLINE
  5
4F3
  8
0
 62
     9
 66
     1
 10
0.0
 20
0.0
 30
0.0
 70
    64
 71
    14
 72
    12
  0
VERTEX
  5
4F4
  8
0
 10
0.0719999969005585
 20
143.1000061035156
 30
24.0
 70
   192
  0
VERTEX
  5
4F5
  8
0
 10
4.889999866485596
 20
143.1000061035156
 30
20.28000068664551
 70
   192
  0
VERTEX
  5
4F6
  8
0
 10
3.046999931335449
 20
143.1000061035156
 30
19.89800071716309
 70
   192
  0
VERTEX
  5
4F7
  8
0
 10
1.937999963760376
 20
143.1000061035156
 30
19.66799926757812
 70
   192
  0
VERTEX
  5
4F8
  8
0
 10
-4.722000122070312
 20
143.1000061035156
 30
17.41399955749512
 70
   192
  0
VERTEX
  5
4F9
  8
0
 10
11.86499977111816
 20
143.1000061035156
 30
20.86199951171875
 70
   192
  0
VERTEX
  5
4FA
  8
0
 10
-11.99899959564209
 20
143.1000061035156
 30
20.78499984741211
 70
   192
  0
VERTEX
  5
4FB
  8
0
 10
-8.791000366210938
 20
143.1000061035156
 30
15.2180004119873
 70
   192
  0
VERTEX
  5
4FC
  8
0
 10
-20.81999969482422
 20
143.1000061035156
 30
11.93900012969971
 70
   192
  0
VERTEX
  5
4FD
  8
0
 10
-16.31999969482422
 20
143.1000061035156
 30
9.812000274658203
 70
   192
  0
VERTEX
  5
4FE
  8
0
 10
-18.66900062561035
 20
143.1000061035156
 30
7.230000019073486
 70
   192
  0
VERTEX
  5
4FF
  8
0
 10
-10.77999973297119
 20
143.1000061035156
 30
14.14400005340576
 70
   192
  0
VERTEX
  5
500
  8
0
 10
-20.95400047302246
 20
143.1000061035156
 30
4.71999979019165
 70
   192
  0
VERTEX
  5
501
  8
0
 10
-23.99900054931641
 20
143.1000061035156
 30
0.1570000052452087
 70
   192
  0
VERTEX
  5
502
  8
0
 62
     9
 10
0.0
 20
0.0
 30
0.0
 70
   128
 71
     3
 72
     2
 73
     1
  0
VERTEX
  5
503
  8
0
 62
     9
 10
0.0
 20
0.0
 30
0.0
 70
   128
 71
     5
 72
     4
 73
     1
  0
VERTEX
  5
504
  8
0
 62
     9
 10
0.0
 20
0.0
 30
0.0
 70
   128
 71
     2
 72
     6
 73
     1
  0
VERTEX
  5
505
  8
0
 62
     9
 10
0.0
 20
0.0
 30
0.0
 70
   128
 71
     8
 72
     5
 73
     7
  0
VERTEX
  5
506
  8
0
 62
     9
 10
0.0
 20
0.0
 30
0.0
 70
   128
 71
     1
 72
     4
 73
     3
  0
VERTEX
  5
507
  8
0
 62
     9
 10
0.0
 20
0.0
 30
0.0
 70
   128
 71
    11
 72
    10
 73
     9
  0
VERTEX
  5
508
  8
0
 62
     9
 10
0.0
 20
0.0
 30
0.0
 70
   128
 71
    12
 72
     7
 73
     9
  0
VERTEX
  5
509
  8
0
 62
     9
 10
0.0
 20
0.0
 30
0.0
 70
   128
 71
     1
 72
     7
 73
     5
  0
VERTEX
  5
50A
  8
0
 62
     9
 10
0.0
 20
0.0
 30
0.0
 70
   128
 71
     9
 72
    13
 73
    11
  0
VERTEX
  5
50B
  8
0
 62
     9
 10
0.0
 20
0.0
 30
0.0
 70
   128
 71
     7
 72
    12
 73
     8
  0
VERTEX
  5
50C
  8
0
 62
     9
 10
0.0
 20
0.0
 30
0.0
 70
   128
 71
     9
 72
    10
 73
    12
  0
VERTEX
  5
50D
  8
0
 62
     9
 10
0.0
 20
0.0
 30
0.0
 70
   128
 71
     9
 72
    14
 73
    13
  0
SEQEND
  5
50E
  8
0
 62
     9
  0
ENDBLK
  5
511
  8
0
  0
BLOCK
  8
0
  2
E3_NODE_29_
 70
     0
 10
0.0
 20
0.0
 30
0.0
  3
E3_NODE_29_
  1

  0
POLYLINE
  5
513
  8
0
 62
     9
 66
     1
 10
0.0
 20
0.0
 30
0.0
 70
    64
 71
    14
 72
    12
  0
VERTEX
  5
514
  8
0
 10
-11.99899959564209
 20
143.1000061035156
 30
20.78499984741211
 70
   192
  0
VERTEX
  5
515
  8
0
 10
-11.99899959564209
 20
115.0999984741211
 30
20.78499984741211
 70
   192
  0
VERTEX
  5
516
  8
0
 10
0.0719999969005585
 20
115.0999984741211
 30
24.0
 70
   192
  0
VERTEX
  5
517
  8
0
 10
-20.81999969482422
 20
115.0999984741211
 30
11.93900012969971
 70
   192
  0
VERTEX
  5
518
  8
0
 10
-20.81999969482422
 20
143.1000061035156
 30
11.93900012969971
 70
   192
  0
VERTEX
  5
519
  8
0
 10
-23.91699981689453
 20
129.1239929199219
 30
1.998999953269958
 70
   192
  0
VERTEX
  5
51A
  8
0
 10
-23.99900054931641
 20
143.1000061035156
 30
0.1570000052452087
 70
   192
  0
VERTEX
  5
51B
  8
0
 10
-23.98800086975098
 20
141.093994140625
 30
0.421999990940094
 70
   192
  0
VERTEX
  5
51C
  8
0
 10
0.0719999969005585
 20
143.1000061035156
 30
24.0
 70
   192
  0
VERTEX
  5
51D
  8
0
 10
10.23400020599365
 20
129.1840057373047
 30
21.70899963378906
 70
   192
  0
VERTEX
  5
51E
  8
0
 10
11.63000011444092
 20
141.093994140625
 30
20.98399925231934
 70
   192
  0
VERTEX
  5
51F
  8
0
 10
9.404999732971191
 20
115.0999984741211
 30
22.07999992370605
 70
   192
  0
VERTEX
  5
520
  8
0
 10
11.86499977111816
 20
143.1000061035156
 30
20.86199951171875
 70
   192
  0
VERTEX
  5
521
  8
0
 10
-23.82399940490723
 20
115.0999984741211
 30
2.897000074386597
 70
   192
  0
VERTEX
  5
522
  8
0
 62
     9
 10
0.0
 20
0.0
 30
0.0
 70
   128
 71
     3
 72
     2
 73
     1
  0
VERTEX
  5
523
  8
0
 62
     9
 10
0.0
 20
0.0
 30
0.0
 70
   128
 71
     1
 72
     2
 73
     4
  0
VERTEX
  5
524
  8
0
 62
     9
 10
0.0
 20
0.0
 30
0.0
 70
   128
 71
     6
 72
     5
 73
     4
  0
VERTEX
  5
525
  8
0
 62
     9
 10
0.0
 20
0.0
 30
0.0
 70
   128
 71
     8
 72
     7
 73
     5
  0
VERTEX
  5
526
  8
0
 62
     9
 10
0.0
 20
0.0
 30
0.0
 70
   128
 71
     5
 72
     6
 73
     8
  0
VERTEX
  5
527
  8
0
 62
     9
 10
0.0
 20
0.0
 30
0.0
 70
   128
 71
    11
 72
    10
 73
     9
  0
VERTEX
  5
528
  8
0
 62
     9
 10
0.0
 20
0.0
 30
0.0
 70
   128
 71
    10
 72
    12
 73
     3
  0
VERTEX
  5
529
  8
0
 62
     9
 10
0.0
 20
0.0
 30
0.0
 70
   128
 71
     3
 72
     9
 73
    10
  0
VERTEX
  5
52A
  8
0
 62
     9
 10
0.0
 20
0.0
 30
0.0
 70
   128
 71
     9
 72
    13
 73
    11
  0
VERTEX
  5
52B
  8
0
 62
     9
 10
0.0
 20
0.0
 30
0.0
 70
   128
 71
     4
 72
    14
 73
     6
  0
VERTEX
  5
52C
  8
0
 62
     9
 10
0.0
 20
0.0
 30
0.0
 70
   128
 71
     4
 72
     5
 73
     1
  0
VERTEX
  5
52D
  8
0
 62
     9
 10
0.0
 20
0.0
 30
0.0
 70
   128
 71
     1
 72
     9
 73
     3
  0
SEQEND
  5
52E
  8
0
 62
     9
  0
ENDBLK
  5
531
  8
0
  0
BLOCK
  8
0
  2
E3_NODE_30_
 70
     0
 10
0.0
 20
0.0
 30
0.0
  3
E3_NODE_30_
  1

  0
POLYLINE
  5
533
  8
0
 62
     9
 66
     1
 10
0.0
 20
0.0
 30
0.0
 70
    64
 71
    35
 72
    33
  0
VERTEX
  5
534
  8
0
 10
-25.96599960327148
 20
115.0999984741211
 30
-1.335000038146973
 70
   192
  0
VERTEX
  5
535
  8
0
 10
-23.82399940490723
 20
115.0999984741211
 30
2.897000074386597
 70
   192
  0
VERTEX
  5
536
  8
0
 10
-23.91699981689453
 20
129.1239929199219
 30
1.998999953269958
 70
   192
  0
VERTEX
  5
537
  8
0
 10
-23.98800086975098
 20
141.093994140625
 30
0.421999990940094
 70
   192
  0
VERTEX
  5
538
  8
0
 10
-25.78000068664551
 20
141.0800018310547
 30
-3.244999885559082
 70
   192
  0
VERTEX
  5
539
  8
0
 10
-25.91600036621094
 20
135.1390075683594
 30
-2.494999885559082
 70
   192
  0
VERTEX
  5
53A
  8
0
 10
-20.48800086975098
 20
167.1000061035156
 30
-0.7099999785423279
 70
   192
  0
VERTEX
  5
53B
  8
0
 10
-24.92200088500977
 20
167.1000061035156
 30
-7.408999919891357
 70
   192
  0
VERTEX
  5
53C
  8
0
 10
-25.5319995880127
 20
151.8990020751953
 30
-4.611000061035156
 70
   192
  0
VERTEX
  5
53D
  8
0
 10
-20.95400047302246
 20
143.1000061035156
 30
4.71999979019165
 70
   192
  0
VERTEX
  5
53E
  8
0
 10
-16.91399955749512
 20
167.1000061035156
 30
3.128999948501587
 70
   192
  0
VERTEX
  5
53F
  8
0
 10
-23.99900054931641
 20
143.1000061035156
 30
0.1570000052452087
 70
   192
  0
VERTEX
  5
540
  8
0
 10
-18.66900062561035
 20
143.1000061035156
 30
7.230000019073486
 70
   192
  0
VERTEX
  5
541
  8
0
 10
-8.640000343322754
 20
167.1000061035156
 30
10.07900047302246
 70
   192
  0
VERTEX
  5
542
  8
0
 10
-15.01000022888184
 20
167.1000061035156
 30
5.175000190734863
 70
   192
  0
VERTEX
  5
543
  8
0
 10
-16.31999969482422
 20
143.1000061035156
 30
9.812000274658203
 70
   192
  0
VERTEX
  5
544
  8
0
 10
-10.77999973297119
 20
143.1000061035156
 30
14.14400005340576
 70
   192
  0
VERTEX
  5
545
  8
0
 10
-8.791000366210938
 20
143.1000061035156
 30
15.2180004119873
 70
   192
  0
VERTEX
  5
546
  8
0
 10
-6.488999843597412
 20
167.1000061035156
 30
11.22999954223633
 70
   192
  0
VERTEX
  5
547
  8
0
 10
-4.722000122070312
 20
143.1000061035156
 30
17.41399955749512
 70
   192
  0
VERTEX
  5
548
  8
0
 10
-1.550999999046326
 20
167.1000061035156
 30
13.87100028991699
 70
   192
  0
VERTEX
  5
549
  8
0
 10
1.937999963760376
 20
143.1000061035156
 30
19.66799926757812
 70
   192
  0
VERTEX
  5
54A
  8
0
 10
5.714000225067139
 20
167.1000061035156
 30
16.35899925231934
 70
   192
  0
VERTEX
  5
54B
  8
0
 10
3.046999931335449
 20
143.1000061035156
 30
19.89800071716309
 70
   192
  0
VERTEX
  5
54C
  8
0
 10
15.68299961090088
 20
141.0829925537109
 30
20.71999931335449
 70
   192
  0
VERTEX
  5
54D
  8
0
 10
16.71699905395508
 20
151.5670013427734
 30
19.8430004119873
 70
   192
  0
VERTEX
  5
54E
  8
0
 10
11.86499977111816
 20
143.1000061035156
 30
20.86199951171875
 70
   192
  0
VERTEX
  5
54F
  8
0
 10
4.889999866485596
 20
143.1000061035156
 30
20.28000068664551
 70
   192
  0
VERTEX
  5
550
  8
0
 10
13.63799953460693
 20
167.1000061035156
 30
17.70899963378906
 70
   192
  0
VERTEX
  5
551
  8
0
 10
18.87700080871582
 20
167.1000061035156
 30
17.87899971008301
 70
   192
  0
VERTEX
  5
552
  8
0
 10
14.13700008392334
 20
115.0999984741211
 30
21.81900024414062
 70
   192
  0
VERTEX
  5
553
  8
0
 10
15.16600036621094
 20
135.8359985351562
 30
21.15900039672852
 70
   192
  0
VERTEX
  5
554
  8
0
 10
10.23400020599365
 20
129.1840057373047
 30
21.70899963378906
 70
   192
  0
VERTEX
  5
555
  8
0
 10
11.63000011444092
 20
141.093994140625
 30
20.98399925231934
 70
   192
  0
VERTEX
  5
556
  8
0
 10
9.404999732971191
 20
115.0999984741211
 30
22.07999992370605
 70
   192
  0
VERTEX
  5
557
  8
0
 62
     9
 10
0.0
 20
0.0
 30
0.0
 70
   128
 71
     3
 72
     2
 73
     1
  0
VERTEX
  5
558
  8
0
 62
     9
 10
0.0
 20
0.0
 30
0.0
 70
   128
 71
     6
 72
     5
 73
     4
  0
VERTEX
  5
559
  8
0
 62
     9
 10
0.0
 20
0.0
 30
0.0
 70
   128
 71
     4
 72
     3
 73
     6
  0
VERTEX
  5
55A
  8
0
 62
     9
 10
0.0
 20
0.0
 30
0.0
 70
   128
 71
     9
 72
     8
 73
     7
  0
VERTEX
  5
55B
  8
0
 62
     9
 10
0.0
 20
0.0
 30
0.0
 70
   128
 71
     7
 72
    11
 73
    10
  0
VERTEX
  5
55C
  8
0
 62
     9
 10
0.0
 20
0.0
 30
0.0
 70
   128
 71
    10
 72
    12
 73
     7
  0
VERTEX
  5
55D
  8
0
 62
     9
 10
0.0
 20
0.0
 30
0.0
 70
   128
 71
    11
 72
    13
 73
    10
  0
VERTEX
  5
55E
  8
0
 62
     9
 10
0.0
 20
0.0
 30
0.0
 70
   128
 71
    12
 72
     4
 73
     5
  0
VERTEX
  5
55F
  8
0
 62
     9
 10
0.0
 20
0.0
 30
0.0
 70
   128
 71
     5
 72
     9
 73
    12
  0
VERTEX
  5
560
  8
0
 62
     9
 10
0.0
 20
0.0
 30
0.0
 70
   128
 71
    16
 72
    15
 73
    14
  0
VERTEX
  5
561
  8
0
 62
     9
 10
0.0
 20
0.0
 30
0.0
 70
   128
 71
    16
 72
    13
 73
    15
  0
VERTEX
  5
562
  8
0
 62
     9
 10
0.0
 20
0.0
 30
0.0
 70
   128
 71
    14
 72
    17
 73
    16
  0
VERTEX
  5
563
  8
0
 62
     9
 10
0.0
 20
0.0
 30
0.0
 70
   128
 71
    18
 72
    17
 73
    14
  0
VERTEX
  5
564
  8
0
 62
     9
 10
0.0
 20
0.0
 30
0.0
 70
   128
 71
    14
 72
    19
 73
    18
  0
VERTEX
  5
565
  8
0
 62
     9
 10
0.0
 20
0.0
 30
0.0
 70
   128
 71
    20
 72
    18
 73
    19
  0
VERTEX
  5
566
  8
0
 62
     9
 10
0.0
 20
0.0
 30
0.0
 70
   128
 71
    22
 72
    20
 73
    21
  0
VERTEX
  5
567
  8
0
 62
     9
 10
0.0
 20
0.0
 30
0.0
 70
   128
 71
    21
 72
    23
 73
    22
  0
VERTEX
  5
568
  8
0
 62
     9
 10
0.0
 20
0.0
 30
0.0
 70
   128
 71
    23
 72
    24
 73
    22
  0
VERTEX
  5
569
  8
0
 62
     9
 10
0.0
 20
0.0
 30
0.0
 70
   128
 71
    27
 72
    26
 73
    25
  0
VERTEX
  5
56A
  8
0
 62
     9
 10
0.0
 20
0.0
 30
0.0
 70
   128
 71
    27
 72
    28
 73
    23
  0
VERTEX
  5
56B
  8
0
 62
     9
 10
0.0
 20
0.0
 30
0.0
 70
   128
 71
    28
 72
    24
 73
    23
  0
VERTEX
  5
56C
  8
0
 62
     9
 10
0.0
 20
0.0
 30
0.0
 70
   128
 71
    26
 72
    27
 73
    29
  0
VERTEX
  5
56D
  8
0
 62
     9
 10
0.0
 20
0.0
 30
0.0
 70
   128
 71
    29
 72
    30
 73
    26
  0
VERTEX
  5
56E
  8
0
 62
     9
 10
0.0
 20
0.0
 30
0.0
 70
   128
 71
    23
 72
    29
 73
    27
  0
VERTEX
  5
56F
  8
0
 62
     9
 10
0.0
 20
0.0
 30
0.0
 70
   128
 71
    33
 72
    32
 73
    31
  0
VERTEX
  5
570
  8
0
 62
     9
 10
0.0
 20
0.0
 30
0.0
 70
   128
 71
    33
 72
    34
 73
    32
  0
VERTEX
  5
571
  8
0
 62
     9
 10
0.0
 20
0.0
 30
0.0
 70
   128
 71
    31
 72
    35
 73
    33
  0
VERTEX
  5
572
  8
0
 62
     9
 10
0.0
 20
0.0
 30
0.0
 70
   128
 71
    34
 72
    25
 73
    32
  0
VERTEX
  5
573
  8
0
 62
     9
 10
0.0
 20
0.0
 30
0.0
 70
   128
 71
    25
 72
    34
 73
    27
  0
VERTEX
  5
574
  8
0
 62
     9
 10
0.0
 20
0.0
 30
0.0
 70
   128
 71
    19
 72
    21
 73
    20
  0
VERTEX
  5
575
  8
0
 62
     9
 10
0.0
 20
0.0
 30
0.0
 70
   128
 71
    13
 72
    11
 73
    15
  0
VERTEX
  5
576
  8
0
 62
     9
 10
0.0
 20
0.0
 30
0.0
 70
   128
 71
     7
 72
    12
 73
     9
  0
VERTEX
  5
577
  8
0
 62
     9
 10
0.0
 20
0.0
 30
0.0
 70
   128
 71
     1
 72
     6
 73
     3
  0
SEQEND
  5
578
  8
0
 62
     9
  0
ENDBLK
  5
57B
  8
0
  0
BLOCK
  8
0
  2
E3_NODE_31_
 70
     0
 10
0.0
 20
0.0
 30
0.0
  3
E3_NODE_31_
  1

  0
POLYLINE
  5
57D
  8
0
 62
     9
 66
     1
 10
0.0
 20
0.0
 30
0.0
 70
    64
 71
    34
 72
    34
  0
VERTEX
  5
57E
  8
0
 10
7.367000102996826
 20
167.1000061035156
 30
4.251999855041504
 70
   192
  0
VERTEX
  5
57F
  8
0
 10
24.78800010681152
 20
167.1000061035156
 30
7.84499979019165
 70
   192
  0
VERTEX
  5
580
  8
0
 10
24.92200088500977
 20
167.1000061035156
 30
7.408999919891357
 70
   192
  0
VERTEX
  5
581
  8
0
 10
13.63799953460693
 20
167.1000061035156
 30
17.70899963378906
 70
   192
  0
VERTEX
  5
582
  8
0
 10
18.87700080871582
 20
167.1000061035156
 30
17.87899971008301
 70
   192
  0
VERTEX
  5
583
  8
0
 10
20.48800086975098
 20
167.1000061035156
 30
0.7099999785423279
 70
   192
  0
VERTEX
  5
584
  8
0
 10
22.40200042724609
 20
167.1000061035156
 30
13.19699954986572
 70
   192
  0
VERTEX
  5
585
  8
0
 10
2.206000089645386
 20
167.1000061035156
 30
8.211999893188477
 70
   192
  0
VERTEX
  5
586
  8
0
 10
5.714000225067139
 20
167.1000061035156
 30
16.35899925231934
 70
   192
  0
VERTEX
  5
587
  8
0
 10
16.91399955749512
 20
167.1000061035156
 30
-3.128999948501587
 70
   192
  0
VERTEX
  5
588
  8
0
 10
15.01000022888184
 20
167.1000061035156
 30
-5.175000190734863
 70
   192
  0
VERTEX
  5
589
  8
0
 10
8.215999603271484
 20
167.1000061035156
 30
-2.197999954223633
 70
   192
  0
VERTEX
  5
58A
  8
0
 10
22.49399948120117
 20
167.1000061035156
 30
12.98999977111816
 70
   192
  0
VERTEX
  5
58B
  8
0
 10
8.640000343322754
 20
167.1000061035156
 30
-10.07900047302246
 70
   192
  0
VERTEX
  5
58C
  8
0
 10
1.550999999046326
 20
167.1000061035156
 30
-13.87100028991699
 70
   192
  0
VERTEX
  5
58D
  8
0
 10
-2.194000005722046
 20
167.1000061035156
 30
-8.208999633789062
 70
   192
  0
VERTEX
  5
58E
  8
0
 10
4.25600004196167
 20
167.1000061035156
 30
-7.360000133514404
 70
   192
  0
VERTEX
  5
58F
  8
0
 10
6.488999843597412
 20
167.1000061035156
 30
-11.22999954223633
 70
   192
  0
VERTEX
  5
590
  8
0
 10
-7.355000019073486
 20
167.1000061035156
 30
-4.248000144958496
 70
   192
  0
VERTEX
  5
591
  8
0
 10
-13.63799953460693
 20
167.1000061035156
 30
-17.70899963378906
 70
   192
  0
VERTEX
  5
592
  8
0
 10
-18.87700080871582
 20
167.1000061035156
 30
-17.87899971008301
 70
   192
  0
VERTEX
  5
593
  8
0
 10
-24.78800010681152
 20
167.1000061035156
 30
-7.84499979019165
 70
   192
  0
VERTEX
  5
594
  8
0
 10
-24.92200088500977
 20
167.1000061035156
 30
-7.408999919891357
 70
   192
  0
VERTEX
  5
595
  8
0
 10
-5.714000225067139
 20
167.1000061035156
 30
-16.35899925231934
 70
   192
  0
VERTEX
  5
596
  8
0
 10
-22.40200042724609
 20
167.1000061035156
 30
-13.19699954986572
 70
   192
  0
VERTEX
  5
597
  8
0
 10
-20.48800086975098
 20
167.1000061035156
 30
-0.7099999785423279
 70
   192
  0
VERTEX
  5
598
  8
0
 10
-16.91399955749512
 20
167.1000061035156
 30
3.128999948501587
 70
   192
  0
VERTEX
  5
599
  8
0
 10
-15.01000022888184
 20
167.1000061035156
 30
5.175000190734863
 70
   192
  0
VERTEX
  5
59A
  8
0
 10
-8.204000473022461
 20
167.1000061035156
 30
2.200999975204468
 70
   192
  0
VERTEX
  5
59B
  8
0
 10
-22.49399948120117
 20
167.1000061035156
 30
-12.98999977111816
 70
   192
  0
VERTEX
  5
59C
  8
0
 10
-8.640000343322754
 20
167.1000061035156
 30
10.07900047302246
 70
   192
  0
VERTEX
  5
59D
  8
0
 10
-1.550999999046326
 20
167.1000061035156
 30
13.87100028991699
 70
   192
  0
VERTEX
  5
59E
  8
0
 10
-4.24399995803833
 20
167.1000061035156
 30
7.36299991607666
 70
   192
  0
VERTEX
  5
59F
  8
0
 10
-6.488999843597412
 20
167.1000061035156
 30
11.22999954223633
 70
   192
  0
VERTEX
  5
5A0
  8
0
 62
     9
 10
0.0
 20
0.0
 30
0.0
 70
   128
 71
     3
 72
     2
 73
     1
  0
VERTEX
  5
5A1
  8
0
 62
     9
 10
0.0
 20
0.0
 30
0.0
 70
   128
 71
     5
 72
     4
 73
     1
  0
VERTEX
  5
5A2
  8
0
 62
     9
 10
0.0
 20
0.0
 30
0.0
 70
   128
 71
     1
 72
     6
 73
     3
  0
VERTEX
  5
5A3
  8
0
 62
     9
 10
0.0
 20
0.0
 30
0.0
 70
   128
 71
     1
 72
     7
 73
     5
  0
VERTEX
  5
5A4
  8
0
 62
     9
 10
0.0
 20
0.0
 30
0.0
 70
   128
 71
     9
 72
     8
 73
     1
  0
VERTEX
  5
5A5
  8
0
 62
     9
 10
0.0
 20
0.0
 30
0.0
 70
   128
 71
    12
 72
    11
 73
    10
  0
VERTEX
  5
5A6
  8
0
 62
     9
 10
0.0
 20
0.0
 30
0.0
 70
   128
 71
     2
 72
    13
 73
     1
  0
VERTEX
  5
5A7
  8
0
 62
     9
 10
0.0
 20
0.0
 30
0.0
 70
   128
 71
    14
 72
    11
 73
    12
  0
VERTEX
  5
5A8
  8
0
 62
     9
 10
0.0
 20
0.0
 30
0.0
 70
   128
 71
    17
 72
    16
 73
    15
  0
VERTEX
  5
5A9
  8
0
 62
     9
 10
0.0
 20
0.0
 30
0.0
 70
   128
 71
     1
 72
     4
 73
     9
  0
VERTEX
  5
5AA
  8
0
 62
     9
 10
0.0
 20
0.0
 30
0.0
 70
   128
 71
     1
 72
    10
 73
     6
  0
VERTEX
  5
5AB
  8
0
 62
     9
 10
0.0
 20
0.0
 30
0.0
 70
   128
 71
    12
 72
    17
 73
    14
  0
VERTEX
  5
5AC
  8
0
 62
     9
 10
0.0
 20
0.0
 30
0.0
 70
   128
 71
    15
 72
    18
 73
    17
  0
VERTEX
  5
5AD
  8
0
 62
     9
 10
0.0
 20
0.0
 30
0.0
 70
   128
 71
    21
 72
    20
 73
    19
  0
VERTEX
  5
5AE
  8
0
 62
     9
 10
0.0
 20
0.0
 30
0.0
 70
   128
 71
    23
 72
    22
 73
    19
  0
VERTEX
  5
5AF
  8
0
 62
     9
 10
0.0
 20
0.0
 30
0.0
 70
   128
 71
    10
 72
     1
 73
    12
  0
VERTEX
  5
5B0
  8
0
 62
     9
 10
0.0
 20
0.0
 30
0.0
 70
   128
 71
    16
 72
    24
 73
    15
  0
VERTEX
  5
5B1
  8
0
 62
     9
 10
0.0
 20
0.0
 30
0.0
 70
   128
 71
    19
 72
    25
 73
    21
  0
VERTEX
  5
5B2
  8
0
 62
     9
 10
0.0
 20
0.0
 30
0.0
 70
   128
 71
    24
 72
    16
 73
    19
  0
VERTEX
  5
5B3
  8
0
 62
     9
 10
0.0
 20
0.0
 30
0.0
 70
   128
 71
    19
 72
    26
 73
    23
  0
VERTEX
  5
5B4
  8
0
 62
     9
 10
0.0
 20
0.0
 30
0.0
 70
   128
 71
    17
 72
    18
 73
    14
  0
VERTEX
  5
5B5
  8
0
 62
     9
 10
0.0
 20
0.0
 30
0.0
 70
   128
 71
    19
 72
    20
 73
    24
  0
VERTEX
  5
5B6
  8
0
 62
     9
 10
0.0
 20
0.0
 30
0.0
 70
   128
 71
    29
 72
    28
 73
    27
  0
VERTEX
  5
5B7
  8
0
 62
     9
 10
0.0
 20
0.0
 30
0.0
 70
   128
 71
    22
 72
    30
 73
    19
  0
VERTEX
  5
5B8
  8
0
 62
     9
 10
0.0
 20
0.0
 30
0.0
 70
   128
 71
    31
 72
    28
 73
    29
  0
VERTEX
  5
5B9
  8
0
 62
     9
 10
0.0
 20
0.0
 30
0.0
 70
   128
 71
    33
 72
     8
 73
    32
  0
VERTEX
  5
5BA
  8
0
 62
     9
 10
0.0
 20
0.0
 30
0.0
 70
   128
 71
    19
 72
    30
 73
    25
  0
VERTEX
  5
5BB
  8
0
 62
     9
 10
0.0
 20
0.0
 30
0.0
 70
   128
 71
    19
 72
    27
 73
    26
  0
VERTEX
  5
5BC
  8
0
 62
     9
 10
0.0
 20
0.0
 30
0.0
 70
   128
 71
    29
 72
    33
 73
    31
  0
VERTEX
  5
5BD
  8
0
 62
     9
 10
0.0
 20
0.0
 30
0.0
 70
   128
 71
    32
 72
    34
 73
    33
  0
VERTEX
  5
5BE
  8
0
 62
     9
 10
0.0
 20
0.0
 30
0.0
 70
   128
 71
    27
 72
    19
 73
    29
  0
VERTEX
  5
5BF
  8
0
 62
     9
 10
0.0
 20
0.0
 30
0.0
 70
   128
 71
     8
 72
     9
 73
    32
  0
VERTEX
  5
5C0
  8
0
 62
     9
 10
0.0
 20
0.0
 30
0.0
 70
   128
 71
    33
 72
    34
 73
    31
  0
VERTEX
  5
5C1
  8
0
 62
     9
 10
0.0
 20
0.0
 30
0.0
 70
   128
 71
     1
 72
    13
 73
     7
  0
SEQEND
  5
5C2
  8
0
 62
     9
  0
ENDBLK
  5
5C5
  8
0
  0
BLOCK
  8
0
  2
E3_NODE_32_
 70
     0
 10
0.0
 20
0.0
 30
0.0
  3
E3_NODE_32_
  1

  0
POLYLINE
  5
5C7
  8
0
 62
     9
 66
     1
 10
0.0
 20
0.0
 30
0.0
 70
    64
 71
    34
 72
    34
  0
VERTEX
  5
5C8
  8
0
 10
18.82699966430664
 20
115.0999984741211
 30
17.88899993896484
 70
   192
  0
VERTEX
  5
5C9
  8
0
 10
19.49900054931641
 20
120.8499984741211
 30
17.20400047302246
 70
   192
  0
VERTEX
  5
5CA
  8
0
 10
19.50099945068359
 20
136.7749938964844
 30
17.20599937438965
 70
   192
  0
VERTEX
  5
5CB
  8
0
 10
22.46699905395508
 20
115.0999984741211
 30
12.97700023651123
 70
   192
  0
VERTEX
  5
5CC
  8
0
 10
22.47800064086914
 20
120.8499984741211
 30
12.98200035095215
 70
   192
  0
VERTEX
  5
5CD
  8
0
 10
22.29700088500977
 20
120.8499984741211
 30
13.3730001449585
 70
   192
  0
VERTEX
  5
5CE
  8
0
 10
22.24399948120117
 20
115.0999984741211
 30
13.46100044250488
 70
   192
  0
VERTEX
  5
5CF
  8
0
 10
18.66500091552734
 20
115.0999984741211
 30
18.09900093078613
 70
   192
  0
VERTEX
  5
5D0
  8
0
 10
19.4950008392334
 20
140.6049957275391
 30
17.20199966430664
 70
   192
  0
VERTEX
  5
5D1
  8
0
 10
19.4950008392334
 20
141.1020050048828
 30
17.20199966430664
 70
   192
  0
VERTEX
  5
5D2
  8
0
 10
15.16600036621094
 20
135.8359985351562
 30
21.15900039672852
 70
   192
  0
VERTEX
  5
5D3
  8
0
 10
15.68299961090088
 20
141.0829925537109
 30
20.71999931335449
 70
   192
  0
VERTEX
  5
5D4
  8
0
 10
14.13700008392334
 20
115.0999984741211
 30
21.81900024414062
 70
   192
  0
VERTEX
  5
5D5
  8
0
 10
22.40200042724609
 20
167.1000061035156
 30
13.19699954986572
 70
   192
  0
VERTEX
  5
5D6
  8
0
 10
18.87700080871582
 20
167.1000061035156
 30
17.87899971008301
 70
   192
  0
VERTEX
  5
5D7
  8
0
 10
19.47699928283691
 20
152.6999969482422
 30
17.1919994354248
 70
   192
  0
VERTEX
  5
5D8
  8
0
 10
22.49399948120117
 20
167.1000061035156
 30
12.98999977111816
 70
   192
  0
VERTEX
  5
5D9
  8
0
 10
22.45999908447266
 20
152.6999969482422
 30
13.09700012207031
 70
   192
  0
VERTEX
  5
5DA
  8
0
 10
22.50600051879883
 20
152.6999969482422
 30
12.99499988555908
 70
   192
  0
VERTEX
  5
5DB
  8
0
 10
16.71699905395508
 20
151.5670013427734
 30
19.8430004119873
 70
   192
  0
VERTEX
  5
5DC
  8
0
 10
24.64500045776367
 20
141.1020050048828
 30
8.281999588012695
 70
   192
  0
VERTEX
  5
5DD
  8
0
 10
25.78000068664551
 20
141.0800018310547
 30
3.244999885559082
 70
   192
  0
VERTEX
  5
5DE
  8
0
 10
25.5319995880127
 20
151.8970031738281
 30
4.610000133514404
 70
   192
  0
VERTEX
  5
5DF
  8
0
 10
24.62800025939941
 20
152.6999969482422
 30
8.272000312805176
 70
   192
  0
VERTEX
  5
5E0
  8
0
 10
24.92200088500977
 20
167.1000061035156
 30
7.408999919891357
 70
   192
  0
VERTEX
  5
5E1
  8
0
 10
24.78800010681152
 20
167.1000061035156
 30
7.84499979019165
 70
   192
  0
VERTEX
  5
5E2
  8
0
 10
24.85600090026855
 20
115.0999984741211
 30
7.355999946594238
 70
   192
  0
VERTEX
  5
5E3
  8
0
 10
25.88899993896484
 20
115.0999984741211
 30
2.403000116348267
 70
   192
  0
VERTEX
  5
5E4
  8
0
 10
25.91600036621094
 20
135.1380004882812
 30
2.494999885559082
 70
   192
  0
VERTEX
  5
5E5
  8
0
 10
24.64599990844727
 20
140.6060028076172
 30
8.282999992370605
 70
   192
  0
VERTEX
  5
5E6
  8
0
 10
24.69300079345703
 20
115.0999984741211
 30
8.138999938964844
 70
   192
  0
VERTEX
  5
5E7
  8
0
 10
24.64900016784668
 20
120.8499984741211
 30
8.284000396728516
 70
   192
  0
VERTEX
  5
5E8
  8
0
 10
24.65200042724609
 20
136.7749938964844
 30
8.28600025177002
 70
   192
  0
VERTEX
  5
5E9
  8
0
 10
25.96599960327148
 20
115.0999984741211
 30
1.335000038146973
 70
   192
  0
VERTEX
  5
5EA
  8
0
 62
     9
 10
0.0
 20
0.0
 30
0.0
 70
   128
 71
     3
 72
     2
 73
     1
  0
VERTEX
  5
5EB
  8
0
 62
     9
 10
0.0
 20
0.0
 30
0.0
 70
   128
 71
     6
 72
     5
 73
     4
  0
VERTEX
  5
5EC
  8
0
 62
     9
 10
0.0
 20
0.0
 30
0.0
 70
   128
 71
     2
 72
     6
 73
     7
  0
VERTEX
  5
5ED
  8
0
 62
     9
 10
0.0
 20
0.0
 30
0.0
 70
   128
 71
     7
 72
     1
 73
     2
  0
VERTEX
  5
5EE
  8
0
 62
     9
 10
0.0
 20
0.0
 30
0.0
 70
   128
 71
     4
 72
     7
 73
     6
  0
VERTEX
  5
5EF
  8
0
 62
     9
 10
0.0
 20
0.0
 30
0.0
 70
   128
 71
     9
 72
     1
 73
     8
  0
VERTEX
  5
5F0
  8
0
 62
     9
 10
0.0
 20
0.0
 30
0.0
 70
   128
 71
    11
 72
    10
 73
     8
  0
VERTEX
  5
5F1
  8
0
 62
     9
 10
0.0
 20
0.0
 30
0.0
 70
   128
 71
    11
 72
    12
 73
    10
  0
VERTEX
  5
5F2
  8
0
 62
     9
 10
0.0
 20
0.0
 30
0.0
 70
   128
 71
     8
 72
    13
 73
    11
  0
VERTEX
  5
5F3
  8
0
 62
     9
 10
0.0
 20
0.0
 30
0.0
 70
   128
 71
    16
 72
    15
 73
    14
  0
VERTEX
  5
5F4
  8
0
 62
     9
 10
0.0
 20
0.0
 30
0.0
 70
   128
 71
    18
 72
    14
 73
    17
  0
VERTEX
  5
5F5
  8
0
 62
     9
 10
0.0
 20
0.0
 30
0.0
 70
   128
 71
    17
 72
    19
 73
    18
  0
VERTEX
  5
5F6
  8
0
 62
     9
 10
0.0
 20
0.0
 30
0.0
 70
   128
 71
    20
 72
    16
 73
    10
  0
VERTEX
  5
5F7
  8
0
 62
     9
 10
0.0
 20
0.0
 30
0.0
 70
   128
 71
    20
 72
    15
 73
    16
  0
VERTEX
  5
5F8
  8
0
 62
     9
 10
0.0
 20
0.0
 30
0.0
 70
   128
 71
    10
 72
    12
 73
    20
  0
VERTEX
  5
5F9
  8
0
 62
     9
 10
0.0
 20
0.0
 30
0.0
 70
   128
 71
    23
 72
    22
 73
    21
  0
VERTEX
  5
5FA
  8
0
 62
     9
 10
0.0
 20
0.0
 30
0.0
 70
   128
 71
    21
 72
    24
 73
    23
  0
VERTEX
  5
5FB
  8
0
 62
     9
 10
0.0
 20
0.0
 30
0.0
 70
   128
 71
    24
 72
    19
 73
    17
  0
VERTEX
  5
5FC
  8
0
 62
     9
 10
0.0
 20
0.0
 30
0.0
 70
   128
 71
    26
 72
    25
 73
    24
  0
VERTEX
  5
5FD
  8
0
 62
     9
 10
0.0
 20
0.0
 30
0.0
 70
   128
 71
    17
 72
    26
 73
    24
  0
VERTEX
  5
5FE
  8
0
 62
     9
 10
0.0
 20
0.0
 30
0.0
 70
   128
 71
    29
 72
    28
 73
    27
  0
VERTEX
  5
5FF
  8
0
 62
     9
 10
0.0
 20
0.0
 30
0.0
 70
   128
 71
    27
 72
    30
 73
    29
  0
VERTEX
  5
600
  8
0
 62
     9
 10
0.0
 20
0.0
 30
0.0
 70
   128
 71
    30
 72
    21
 73
    22
  0
VERTEX
  5
601
  8
0
 62
     9
 10
0.0
 20
0.0
 30
0.0
 70
   128
 71
    30
 72
    22
 73
    29
  0
VERTEX
  5
602
  8
0
 62
     9
 10
0.0
 20
0.0
 30
0.0
 70
   128
 71
    32
 72
    31
 73
     4
  0
VERTEX
  5
603
  8
0
 62
     9
 10
0.0
 20
0.0
 30
0.0
 70
   128
 71
     4
 72
     5
 73
    32
  0
VERTEX
  5
604
  8
0
 62
     9
 10
0.0
 20
0.0
 30
0.0
 70
   128
 71
    33
 72
    30
 73
    27
  0
VERTEX
  5
605
  8
0
 62
     9
 10
0.0
 20
0.0
 30
0.0
 70
   128
 71
    27
 72
    32
 73
    33
  0
VERTEX
  5
606
  8
0
 62
     9
 10
0.0
 20
0.0
 30
0.0
 70
   128
 71
    32
 72
    27
 73
    31
  0
VERTEX
  5
607
  8
0
 62
     9
 10
0.0
 20
0.0
 30
0.0
 70
   128
 71
    29
 72
    34
 73
    28
  0
VERTEX
  5
608
  8
0
 62
     9
 10
0.0
 20
0.0
 30
0.0
 70
   128
 71
    24
 72
    25
 73
    23
  0
VERTEX
  5
609
  8
0
 62
     9
 10
0.0
 20
0.0
 30
0.0
 70
   128
 71
    14
 72
    18
 73
    16
  0
VERTEX
  5
60A
  8
0
 62
     9
 10
0.0
 20
0.0
 30
0.0
 70
   128
 71
     8
 72
    10
 73
     9
  0
VERTEX
  5
60B
  8
0
 62
     9
 10
0.0
 20
0.0
 30
0.0
 70
   128
 71
     1
 72
     9
 73
     3
  0
SEQEND
  5
60C
  8
0
 62
     9
  0
ENDBLK
  5
60F
  8
0
  0
BLOCK
  8
0
  2
E3_NODE_33_
 70
     0
 10
0.0
 20
0.0
 30
0.0
  3
E3_NODE_33_
  1

  0
POLYLINE
  5
611
  8
0
 62
     9
 66
     1
 10
0.0
 20
0.0
 30
0.0
 70
    64
 71
    23
 72
    24
  0
VERTEX
  5
612
  8
0
 10
-22.2450008392334
 20
115.0999984741211
 30
-13.46000003814697
 70
   192
  0
VERTEX
  5
613
  8
0
 10
-22.51700019836426
 20
141.1020050048828
 30
-13.0
 70
   192
  0
VERTEX
  5
614
  8
0
 10
-19.44599914550781
 20
141.1020050048828
 30
-17.26300048828125
 70
   192
  0
VERTEX
  5
615
  8
0
 10
-18.82799911499023
 20
115.0999984741211
 30
-17.88899993896484
 70
   192
  0
VERTEX
  5
616
  8
0
 10
-24.85700035095215
 20
115.0999984741211
 30
-7.355999946594238
 70
   192
  0
VERTEX
  5
617
  8
0
 10
-25.88899993896484
 20
115.0999984741211
 30
-2.400000095367432
 70
   192
  0
VERTEX
  5
618
  8
0
 10
-25.91600036621094
 20
135.1390075683594
 30
-2.494999885559082
 70
   192
  0
VERTEX
  5
619
  8
0
 10
-24.67300033569336
 20
141.1020050048828
 30
-8.208999633789062
 70
   192
  0
VERTEX
  5
61A
  8
0
 10
-25.78000068664551
 20
141.0800018310547
 30
-3.244999885559082
 70
   192
  0
VERTEX
  5
61B
  8
0
 10
-22.40200042724609
 20
167.1000061035156
 30
-13.19699954986572
 70
   192
  0
VERTEX
  5
61C
  8
0
 10
-18.87700080871582
 20
167.1000061035156
 30
-17.87899971008301
 70
   192
  0
VERTEX
  5
61D
  8
0
 10
-22.49399948120117
 20
167.1000061035156
 30
-12.98999977111816
 70
   192
  0
VERTEX
  5
61E
  8
0
 10
-16.7180004119873
 20
151.5679931640625
 30
-19.8430004119873
 70
   192
  0
VERTEX
  5
61F
  8
0
 10
-15.68400001525879
 20
141.0829925537109
 30
-20.72100067138672
 70
   192
  0
VERTEX
  5
620
  8
0
 10
-24.78800010681152
 20
167.1000061035156
 30
-7.84499979019165
 70
   192
  0
VERTEX
  5
621
  8
0
 10
-25.5319995880127
 20
151.8990020751953
 30
-4.611000061035156
 70
   192
  0
VERTEX
  5
622
  8
0
 10
-18.66600036621094
 20
115.0999984741211
 30
-18.09900093078613
 70
   192
  0
VERTEX
  5
623
  8
0
 10
-15.16699981689453
 20
135.8370056152344
 30
-21.15900039672852
 70
   192
  0
VERTEX
  5
624
  8
0
 10
-14.13899993896484
 20
115.0999984741211
 30
-21.81999969482422
 70
   192
  0
VERTEX
  5
625
  8
0
 10
-22.46699905395508
 20
115.0999984741211
 30
-12.97700023651123
 70
   192
  0
VERTEX
  5
626
  8
0
 10
-24.69400024414062
 20
115.0999984741211
 30
-8.13700008392334
 70
   192
  0
VERTEX
  5
627
  8
0
 10
-24.92200088500977
 20
167.1000061035156
 30
-7.408999919891357
 70
   192
  0
VERTEX
  5
628
  8
0
 10
-25.96599960327148
 20
115.0999984741211
 30
-1.335000038146973
 70
   192
  0
VERTEX
  5
629
  8
0
 62
     9
 10
0.0
 20
0.0
 30
0.0
 70
   128
 71
     3
 72
     2
 73
     1
  0
VERTEX
  5
62A
  8
0
 62
     9
 10
0.0
 20
0.0
 30
0.0
 70
   128
 71
     1
 72
     4
 73
     3
  0
VERTEX
  5
62B
  8
0
 62
     9
 10
0.0
 20
0.0
 30
0.0
 70
   128
 71
     7
 72
     6
 73
     5
  0
VERTEX
  5
62C
  8
0
 62
     9
 10
0.0
 20
0.0
 30
0.0
 70
   128
 71
     5
 72
     8
 73
     7
  0
VERTEX
  5
62D
  8
0
 62
     9
 10
0.0
 20
0.0
 30
0.0
 70
   128
 71
     8
 72
     9
 73
     7
  0
VERTEX
  5
62E
  8
0
 62
     9
 10
0.0
 20
0.0
 30
0.0
 70
   128
 71
     3
 72
    11
 73
    10
  0
VERTEX
  5
62F
  8
0
 62
     9
 10
0.0
 20
0.0
 30
0.0
 70
   128
 71
    10
 72
    12
 73
     2
  0
VERTEX
  5
630
  8
0
 62
     9
 10
0.0
 20
0.0
 30
0.0
 70
   128
 71
    13
 72
    11
 73
     3
  0
VERTEX
  5
631
  8
0
 62
     9
 10
0.0
 20
0.0
 30
0.0
 70
   128
 71
     3
 72
    14
 73
    13
  0
VERTEX
  5
632
  8
0
 62
     9
 10
0.0
 20
0.0
 30
0.0
 70
   128
 71
    16
 72
     8
 73
    15
  0
VERTEX
  5
633
  8
0
 62
     9
 10
0.0
 20
0.0
 30
0.0
 70
   128
 71
    16
 72
     9
 73
     8
  0
VERTEX
  5
634
  8
0
 62
     9
 10
0.0
 20
0.0
 30
0.0
 70
   128
 71
     8
 72
     2
 73
    12
  0
VERTEX
  5
635
  8
0
 62
     9
 10
0.0
 20
0.0
 30
0.0
 70
   128
 71
    12
 72
    15
 73
     8
  0
VERTEX
  5
636
  8
0
 62
     9
 10
0.0
 20
0.0
 30
0.0
 70
   128
 71
    18
 72
     3
 73
    17
  0
VERTEX
  5
637
  8
0
 62
     9
 10
0.0
 20
0.0
 30
0.0
 70
   128
 71
    18
 72
    14
 73
     3
  0
VERTEX
  5
638
  8
0
 62
     9
 10
0.0
 20
0.0
 30
0.0
 70
   128
 71
    17
 72
    19
 73
    18
  0
VERTEX
  5
639
  8
0
 62
     9
 10
0.0
 20
0.0
 30
0.0
 70
   128
 71
     8
 72
    21
 73
    20
  0
VERTEX
  5
63A
  8
0
 62
     9
 10
0.0
 20
0.0
 30
0.0
 70
   128
 71
    20
 72
     2
 73
     8
  0
VERTEX
  5
63B
  8
0
 62
     9
 10
0.0
 20
0.0
 30
0.0
 70
   128
 71
     8
 72
     5
 73
    21
  0
VERTEX
  5
63C
  8
0
 62
     9
 10
0.0
 20
0.0
 30
0.0
 70
   128
 71
     3
 72
     4
 73
    17
  0
VERTEX
  5
63D
  8
0
 62
     9
 10
0.0
 20
0.0
 30
0.0
 70
   128
 71
    15
 72
    22
 73
    16
  0
VERTEX
  5
63E
  8
0
 62
     9
 10
0.0
 20
0.0
 30
0.0
 70
   128
 71
    10
 72
     2
 73
     3
  0
VERTEX
  5
63F
  8
0
 62
     9
 10
0.0
 20
0.0
 30
0.0
 70
   128
 71
     7
 72
    23
 73
     6
  0
VERTEX
  5
640
  8
0
 62
     9
 10
0.0
 20
0.0
 30
0.0
 70
   128
 71
     2
 72
    20
 73
     1
  0
SEQEND
  5
641
  8
0
 62
     9
  0
ENDBLK
  5
644
  8
0
  0
BLOCK
  8
0
  2
E3_NODE_34_
 70
     0
 10
0.0
 20
0.0
 30
0.0
  3
E3_NODE_34_
  1

  0
POLYLINE
  5
646
  8
0
 62
     9
 66
     1
 10
0.0
 20
0.0
 30
0.0
 70
    64
 71
    28
 72
    26
  0
VERTEX
  5
647
  8
0
 10
-9.402999877929688
 20
115.0999984741211
 30
-22.08099937438965
 70
   192
  0
VERTEX
  5
648
  8
0
 10
-23.82399940490723
 20
115.0999984741211
 30
2.897000074386597
 70
   192
  0
VERTEX
  5
649
  8
0
 10
-25.96599960327148
 20
115.0999984741211
 30
-1.335000038146973
 70
   192
  0
VERTEX
  5
64A
  8
0
 10
-18.82799911499023
 20
115.0999984741211
 30
-17.88899993896484
 70
   192
  0
VERTEX
  5
64B
  8
0
 10
-18.66600036621094
 20
115.0999984741211
 30
-18.09900093078613
 70
   192
  0
VERTEX
  5
64C
  8
0
 10
-22.46699905395508
 20
115.0999984741211
 30
-12.97700023651123
 70
   192
  0
VERTEX
  5
64D
  8
0
 10
-22.2450008392334
 20
115.0999984741211
 30
-13.46000003814697
 70
   192
  0
VERTEX
  5
64E
  8
0
 10
-24.85700035095215
 20
115.0999984741211
 30
-7.355999946594238
 70
   192
  0
VERTEX
  5
64F
  8
0
 10
-24.69400024414062
 20
115.0999984741211
 30
-8.13700008392334
 70
   192
  0
VERTEX
  5
650
  8
0
 10
-25.88899993896484
 20
115.0999984741211
 30
-2.400000095367432
 70
   192
  0
VERTEX
  5
651
  8
0
 10
9.404999732971191
 20
115.0999984741211
 30
22.07999992370605
 70
   192
  0
VERTEX
  5
652
  8
0
 10
18.82699966430664
 20
115.0999984741211
 30
17.88899993896484
 70
   192
  0
VERTEX
  5
653
  8
0
 10
18.66500091552734
 20
115.0999984741211
 30
18.09900093078613
 70
   192
  0
VERTEX
  5
654
  8
0
 10
22.46699905395508
 20
115.0999984741211
 30
12.97700023651123
 70
   192
  0
VERTEX
  5
655
  8
0
 10
22.24399948120117
 20
115.0999984741211
 30
13.46100044250488
 70
   192
  0
VERTEX
  5
656
  8
0
 10
-0.0710000023245811
 20
115.0999984741211
 30
-24.0
 70
   192
  0
VERTEX
  5
657
  8
0
 10
0.0719999969005585
 20
115.0999984741211
 30
24.0
 70
   192
  0
VERTEX
  5
658
  8
0
 10
-11.99899959564209
 20
115.0999984741211
 30
20.78499984741211
 70
   192
  0
VERTEX
  5
659
  8
0
 10
24.85600090026855
 20
115.0999984741211
 30
7.355999946594238
 70
   192
  0
VERTEX
  5
65A
  8
0
 10
24.69300079345703
 20
115.0999984741211
 30
8.138999938964844
 70
   192
  0
VERTEX
  5
65B
  8
0
 10
23.82399940490723
 20
115.0999984741211
 30
-2.898000001907349
 70
   192
  0
VERTEX
  5
65C
  8
0
 10
25.96599960327148
 20
115.0999984741211
 30
1.335000038146973
 70
   192
  0
VERTEX
  5
65D
  8
0
 10
25.88899993896484
 20
115.0999984741211
 30
2.403000116348267
 70
   192
  0
VERTEX
  5
65E
  8
0
 10
12.0
 20
115.0999984741211
 30
-20.78499984741211
 70
   192
  0
VERTEX
  5
65F
  8
0
 10
-14.13899993896484
 20
115.0999984741211
 30
-21.81999969482422
 70
   192
  0
VERTEX
  5
660
  8
0
 10
-20.81999969482422
 20
115.0999984741211
 30
11.93900012969971
 70
   192
  0
VERTEX
  5
661
  8
0
 10
20.81999969482422
 20
115.0999984741211
 30
-11.9379997253418
 70
   192
  0
VERTEX
  5
662
  8
0
 10
14.13700008392334
 20
115.0999984741211
 30
21.81900024414062
 70
   192
  0
VERTEX
  5
663
  8
0
 62
     9
 10
0.0
 20
0.0
 30
0.0
 70
   128
 71
     3
 72
     2
 73
     1
  0
VERTEX
  5
664
  8
0
 62
     9
 10
0.0
 20
0.0
 30
0.0
 70
   128
 71
     5
 72
     4
 73
     1
  0
VERTEX
  5
665
  8
0
 62
     9
 10
0.0
 20
0.0
 30
0.0
 70
   128
 71
     7
 72
     6
 73
     1
  0
VERTEX
  5
666
  8
0
 62
     9
 10
0.0
 20
0.0
 30
0.0
 70
   128
 71
     9
 72
     8
 73
     1
  0
VERTEX
  5
667
  8
0
 62
     9
 10
0.0
 20
0.0
 30
0.0
 70
   128
 71
     1
 72
    10
 73
     3
  0
VERTEX
  5
668
  8
0
 62
     9
 10
0.0
 20
0.0
 30
0.0
 70
   128
 71
    13
 72
    12
 73
    11
  0
VERTEX
  5
669
  8
0
 62
     9
 10
0.0
 20
0.0
 30
0.0
 70
   128
 71
    15
 72
    14
 73
    11
  0
VERTEX
  5
66A
  8
0
 62
     9
 10
0.0
 20
0.0
 30
0.0
 70
   128
 71
     1
 72
     4
 73
     7
  0
VERTEX
  5
66B
  8
0
 62
     9
 10
0.0
 20
0.0
 30
0.0
 70
   128
 71
     1
 72
     8
 73
    10
  0
VERTEX
  5
66C
  8
0
 62
     9
 10
0.0
 20
0.0
 30
0.0
 70
   128
 71
    18
 72
    17
 73
    16
  0
VERTEX
  5
66D
  8
0
 62
     9
 10
0.0
 20
0.0
 30
0.0
 70
   128
 71
    11
 72
    12
 73
    15
  0
VERTEX
  5
66E
  8
0
 62
     9
 10
0.0
 20
0.0
 30
0.0
 70
   128
 71
    20
 72
    19
 73
    11
  0
VERTEX
  5
66F
  8
0
 62
     9
 10
0.0
 20
0.0
 30
0.0
 70
   128
 71
    22
 72
    21
 73
    11
  0
VERTEX
  5
670
  8
0
 62
     9
 10
0.0
 20
0.0
 30
0.0
 70
   128
 71
     1
 72
     6
 73
     9
  0
VERTEX
  5
671
  8
0
 62
     9
 10
0.0
 20
0.0
 30
0.0
 70
   128
 71
    17
 72
    11
 73
    16
  0
VERTEX
  5
672
  8
0
 62
     9
 10
0.0
 20
0.0
 30
0.0
 70
   128
 71
    11
 72
    14
 73
    20
  0
VERTEX
  5
673
  8
0
 62
     9
 10
0.0
 20
0.0
 30
0.0
 70
   128
 71
    11
 72
    23
 73
    22
  0
VERTEX
  5
674
  8
0
 62
     9
 10
0.0
 20
0.0
 30
0.0
 70
   128
 71
    24
 72
    16
 73
    11
  0
VERTEX
  5
675
  8
0
 62
     9
 10
0.0
 20
0.0
 30
0.0
 70
   128
 71
     1
 72
    25
 73
     5
  0
VERTEX
  5
676
  8
0
 62
     9
 10
0.0
 20
0.0
 30
0.0
 70
   128
 71
    16
 72
    26
 73
    18
  0
VERTEX
  5
677
  8
0
 62
     9
 10
0.0
 20
0.0
 30
0.0
 70
   128
 71
    11
 72
    19
 73
    23
  0
VERTEX
  5
678
  8
0
 62
     9
 10
0.0
 20
0.0
 30
0.0
 70
   128
 71
    11
 72
    27
 73
    24
  0
VERTEX
  5
679
  8
0
 62
     9
 10
0.0
 20
0.0
 30
0.0
 70
   128
 71
    16
 72
     2
 73
    26
  0
VERTEX
  5
67A
  8
0
 62
     9
 10
0.0
 20
0.0
 30
0.0
 70
   128
 71
    11
 72
    21
 73
    27
  0
VERTEX
  5
67B
  8
0
 62
     9
 10
0.0
 20
0.0
 30
0.0
 70
   128
 71
    11
 72
    28
 73
    13
  0
VERTEX
  5
67C
  8
0
 62
     9
 10
0.0
 20
0.0
 30
0.0
 70
   128
 71
     2
 72
    16
 73
     1
  0
SEQEND
  5
67D
  8
0
 62
     9
  0
ENDBLK
  5
680
  8
0
  0
BLOCK
  8
0
  2
E3_NODE_35_
 70
     0
 10
0.0
 20
0.0
 30
0.0
  3
E3_NODE_35_
  1

  0
POLYLINE
  5
682
  8
0
 62
     9
 66
     1
 10
0.0
 20
0.0
 30
0.0
 70
    64
 71
    35
 72
    33
  0
VERTEX
  5
683
  8
0
 10
25.96599960327148
 20
115.0999984741211
 30
1.335000038146973
 70
   192
  0
VERTEX
  5
684
  8
0
 10
23.82399940490723
 20
115.0999984741211
 30
-2.898000001907349
 70
   192
  0
VERTEX
  5
685
  8
0
 10
23.91699981689453
 20
129.1239929199219
 30
-2.0
 70
   192
  0
VERTEX
  5
686
  8
0
 10
23.98800086975098
 20
141.093994140625
 30
-0.421999990940094
 70
   192
  0
VERTEX
  5
687
  8
0
 10
25.78000068664551
 20
141.0800018310547
 30
3.244999885559082
 70
   192
  0
VERTEX
  5
688
  8
0
 10
25.91600036621094
 20
135.1380004882812
 30
2.494999885559082
 70
   192
  0
VERTEX
  5
689
  8
0
 10
20.48800086975098
 20
167.1000061035156
 30
0.7099999785423279
 70
   192
  0
VERTEX
  5
68A
  8
0
 10
24.92200088500977
 20
167.1000061035156
 30
7.408999919891357
 70
   192
  0
VERTEX
  5
68B
  8
0
 10
25.5319995880127
 20
151.8970031738281
 30
4.610000133514404
 70
   192
  0
VERTEX
  5
68C
  8
0
 10
20.95299911499023
 20
143.1000061035156
 30
-4.721000194549561
 70
   192
  0
VERTEX
  5
68D
  8
0
 10
16.91399955749512
 20
167.1000061035156
 30
-3.128999948501587
 70
   192
  0
VERTEX
  5
68E
  8
0
 10
23.99900054931641
 20
143.1000061035156
 30
-0.1580000072717667
 70
   192
  0
VERTEX
  5
68F
  8
0
 10
18.66900062561035
 20
143.1000061035156
 30
-7.230999946594238
 70
   192
  0
VERTEX
  5
690
  8
0
 10
8.640000343322754
 20
167.1000061035156
 30
-10.07900047302246
 70
   192
  0
VERTEX
  5
691
  8
0
 10
15.01000022888184
 20
167.1000061035156
 30
-5.175000190734863
 70
   192
  0
VERTEX
  5
692
  8
0
 10
16.31900024414062
 20
143.1000061035156
 30
-9.812999725341797
 70
   192
  0
VERTEX
  5
693
  8
0
 10
10.7790002822876
 20
143.1000061035156
 30
-14.14500045776367
 70
   192
  0
VERTEX
  5
694
  8
0
 10
8.791000366210938
 20
143.1000061035156
 30
-15.2180004119873
 70
   192
  0
VERTEX
  5
695
  8
0
 10
6.488999843597412
 20
167.1000061035156
 30
-11.22999954223633
 70
   192
  0
VERTEX
  5
696
  8
0
 10
4.721000194549561
 20
143.1000061035156
 30
-17.41500091552734
 70
   192
  0
VERTEX
  5
697
  8
0
 10
1.550999999046326
 20
167.1000061035156
 30
-13.87100028991699
 70
   192
  0
VERTEX
  5
698
  8
0
 10
-1.939000010490417
 20
143.1000061035156
 30
-19.66900062561035
 70
   192
  0
VERTEX
  5
699
  8
0
 10
-5.714000225067139
 20
167.1000061035156
 30
-16.35899925231934
 70
   192
  0
VERTEX
  5
69A
  8
0
 10
-3.046999931335449
 20
143.1000061035156
 30
-19.89900016784668
 70
   192
  0
VERTEX
  5
69B
  8
0
 10
-15.68400001525879
 20
141.0829925537109
 30
-20.72100067138672
 70
   192
  0
VERTEX
  5
69C
  8
0
 10
-16.7180004119873
 20
151.5679931640625
 30
-19.8430004119873
 70
   192
  0
VERTEX
  5
69D
  8
0
 10
-11.86299991607666
 20
143.1000061035156
 30
-20.86300086975098
 70
   192
  0
VERTEX
  5
69E
  8
0
 10
-4.888999938964844
 20
143.1000061035156
 30
-20.2810001373291
 70
   192
  0
VERTEX
  5
69F
  8
0
 10
-13.63799953460693
 20
167.1000061035156
 30
-17.70899963378906
 70
   192
  0
VERTEX
  5
6A0
  8
0
 10
-18.87700080871582
 20
167.1000061035156
 30
-17.87899971008301
 70
   192
  0
VERTEX
  5
6A1
  8
0
 10
-14.13899993896484
 20
115.0999984741211
 30
-21.81999969482422
 70
   192
  0
VERTEX
  5
6A2
  8
0
 10
-15.16699981689453
 20
135.8370056152344
 30
-21.15900039672852
 70
   192
  0
VERTEX
  5
6A3
  8
0
 10
-10.23099994659424
 20
129.1840057373047
 30
-21.70999908447266
 70
   192
  0
VERTEX
  5
6A4
  8
0
 10
-11.62800025939941
 20
141.093994140625
 30
-20.98500061035156
 70
   192
  0
VERTEX
  5
6A5
  8
0
 10
-9.402999877929688
 20
115.0999984741211
 30
-22.08099937438965
 70
   192
  0
VERTEX
  5
6A6
  8
0
 62
     9
 10
0.0
 20
0.0
 30
0.0
 70
   128
 71
     3
 72
     2
 73
     1
  0
VERTEX
  5
6A7
  8
0
 62
     9
 10
0.0
 20
0.0
 30
0.0
 70
   128
 71
     6
 72
     5
 73
     4
  0
VERTEX
  5
6A8
  8
0
 62
     9
 10
0.0
 20
0.0
 30
0.0
 70
   128
 71
     4
 72
     3
 73
     6
  0
VERTEX
  5
6A9
  8
0
 62
     9
 10
0.0
 20
0.0
 30
0.0
 70
   128
 71
     9
 72
     8
 73
     7
  0
VERTEX
  5
6AA
  8
0
 62
     9
 10
0.0
 20
0.0
 30
0.0
 70
   128
 71
     7
 72
    11
 73
    10
  0
VERTEX
  5
6AB
  8
0
 62
     9
 10
0.0
 20
0.0
 30
0.0
 70
   128
 71
    10
 72
    12
 73
     7
  0
VERTEX
  5
6AC
  8
0
 62
     9
 10
0.0
 20
0.0
 30
0.0
 70
   128
 71
    11
 72
    13
 73
    10
  0
VERTEX
  5
6AD
  8
0
 62
     9
 10
0.0
 20
0.0
 30
0.0
 70
   128
 71
    12
 72
     4
 73
     5
  0
VERTEX
  5
6AE
  8
0
 62
     9
 10
0.0
 20
0.0
 30
0.0
 70
   128
 71
     5
 72
     9
 73
    12
  0
VERTEX
  5
6AF
  8
0
 62
     9
 10
0.0
 20
0.0
 30
0.0
 70
   128
 71
    16
 72
    15
 73
    14
  0
VERTEX
  5
6B0
  8
0
 62
     9
 10
0.0
 20
0.0
 30
0.0
 70
   128
 71
    16
 72
    13
 73
    15
  0
VERTEX
  5
6B1
  8
0
 62
     9
 10
0.0
 20
0.0
 30
0.0
 70
   128
 71
    14
 72
    17
 73
    16
  0
VERTEX
  5
6B2
  8
0
 62
     9
 10
0.0
 20
0.0
 30
0.0
 70
   128
 71
    18
 72
    17
 73
    14
  0
VERTEX
  5
6B3
  8
0
 62
     9
 10
0.0
 20
0.0
 30
0.0
 70
   128
 71
    14
 72
    19
 73
    18
  0
VERTEX
  5
6B4
  8
0
 62
     9
 10
0.0
 20
0.0
 30
0.0
 70
   128
 71
    20
 72
    18
 73
    19
  0
VERTEX
  5
6B5
  8
0
 62
     9
 10
0.0
 20
0.0
 30
0.0
 70
   128
 71
    22
 72
    20
 73
    21
  0
VERTEX
  5
6B6
  8
0
 62
     9
 10
0.0
 20
0.0
 30
0.0
 70
   128
 71
    21
 72
    23
 73
    22
  0
VERTEX
  5
6B7
  8
0
 62
     9
 10
0.0
 20
0.0
 30
0.0
 70
   128
 71
    23
 72
    24
 73
    22
  0
VERTEX
  5
6B8
  8
0
 62
     9
 10
0.0
 20
0.0
 30
0.0
 70
   128
 71
    27
 72
    26
 73
    25
  0
VERTEX
  5
6B9
  8
0
 62
     9
 10
0.0
 20
0.0
 30
0.0
 70
   128
 71
    27
 72
    28
 73
    23
  0
VERTEX
  5
6BA
  8
0
 62
     9
 10
0.0
 20
0.0
 30
0.0
 70
   128
 71
    28
 72
    24
 73
    23
  0
VERTEX
  5
6BB
  8
0
 62
     9
 10
0.0
 20
0.0
 30
0.0
 70
   128
 71
    26
 72
    27
 73
    29
  0
VERTEX
  5
6BC
  8
0
 62
     9
 10
0.0
 20
0.0
 30
0.0
 70
   128
 71
    29
 72
    30
 73
    26
  0
VERTEX
  5
6BD
  8
0
 62
     9
 10
0.0
 20
0.0
 30
0.0
 70
   128
 71
    23
 72
    29
 73
    27
  0
VERTEX
  5
6BE
  8
0
 62
     9
 10
0.0
 20
0.0
 30
0.0
 70
   128
 71
    33
 72
    32
 73
    31
  0
VERTEX
  5
6BF
  8
0
 62
     9
 10
0.0
 20
0.0
 30
0.0
 70
   128
 71
    33
 72
    34
 73
    32
  0
VERTEX
  5
6C0
  8
0
 62
     9
 10
0.0
 20
0.0
 30
0.0
 70
   128
 71
    31
 72
    35
 73
    33
  0
VERTEX
  5
6C1
  8
0
 62
     9
 10
0.0
 20
0.0
 30
0.0
 70
   128
 71
    34
 72
    25
 73
    32
  0
VERTEX
  5
6C2
  8
0
 62
     9
 10
0.0
 20
0.0
 30
0.0
 70
   128
 71
    25
 72
    34
 73
    27
  0
VERTEX
  5
6C3
  8
0
 62
     9
 10
0.0
 20
0.0
 30
0.0
 70
   128
 71
    19
 72
    21
 73
    20
  0
VERTEX
  5
6C4
  8
0
 62
     9
 10
0.0
 20
0.0
 30
0.0
 70
   128
 71
    13
 72
    11
 73
    15
  0
VERTEX
  5
6C5
  8
0
 62
     9
 10
0.0
 20
0.0
 30
0.0
 70
   128
 71
     7
 72
    12
 73
     9
  0
VERTEX
  5
6C6
  8
0
 62
     9
 10
0.0
 20
0.0
 30
0.0
 70
   128
 71
     1
 72
     6
 73
     3
  0
SEQEND
  5
6C7
  8
0
 62
     9
  0
ENDBLK
  5
6CA
  8
0
  0
BLOCK
  8
0
  2
E3_NODE_36_
 70
     0
 10
0.0
 20
0.0
 30
0.0
  3
E3_NODE_36_
  1

  0
POLYLINE
  5
6CC
  8
0
 62
     9
 66
     1
 10
0.0
 20
0.0
 30
0.0
 70
    64
 71
    14
 72
    12
  0
VERTEX
  5
6CD
  8
0
 10
12.0
 20
115.0999984741211
 30
-20.78499984741211
 70
   192
  0
VERTEX
  5
6CE
  8
0
 10
-0.0710000023245811
 20
115.0999984741211
 30
-24.0
 70
   192
  0
VERTEX
  5
6CF
  8
0
 10
-0.0710000023245811
 20
143.1000061035156
 30
-24.0
 70
   192
  0
VERTEX
  5
6D0
  8
0
 10
20.81999969482422
 20
143.1000061035156
 30
-11.9379997253418
 70
   192
  0
VERTEX
  5
6D1
  8
0
 10
20.81999969482422
 20
115.0999984741211
 30
-11.9379997253418
 70
   192
  0
VERTEX
  5
6D2
  8
0
 10
23.91699981689453
 20
129.1239929199219
 30
-2.0
 70
   192
  0
VERTEX
  5
6D3
  8
0
 10
23.99900054931641
 20
143.1000061035156
 30
-0.1580000072717667
 70
   192
  0
VERTEX
  5
6D4
  8
0
 10
23.98800086975098
 20
141.093994140625
 30
-0.421999990940094
 70
   192
  0
VERTEX
  5
6D5
  8
0
 10
-10.23099994659424
 20
129.1840057373047
 30
-21.70999908447266
 70
   192
  0
VERTEX
  5
6D6
  8
0
 10
-11.62800025939941
 20
141.093994140625
 30
-20.98500061035156
 70
   192
  0
VERTEX
  5
6D7
  8
0
 10
-9.402999877929688
 20
115.0999984741211
 30
-22.08099937438965
 70
   192
  0
VERTEX
  5
6D8
  8
0
 10
-11.86299991607666
 20
143.1000061035156
 30
-20.86300086975098
 70
   192
  0
VERTEX
  5
6D9
  8
0
 10
23.82399940490723
 20
115.0999984741211
 30
-2.898000001907349
 70
   192
  0
VERTEX
  5
6DA
  8
0
 10
12.0
 20
143.1000061035156
 30
-20.78499984741211
 70
   192
  0
VERTEX
  5
6DB
  8
0
 62
     9
 10
0.0
 20
0.0
 30
0.0
 70
   128
 71
     3
 72
     2
 73
     1
  0
VERTEX
  5
6DC
  8
0
 62
     9
 10
0.0
 20
0.0
 30
0.0
 70
   128
 71
     1
 72
     5
 73
     4
  0
VERTEX
  5
6DD
  8
0
 62
     9
 10
0.0
 20
0.0
 30
0.0
 70
   128
 71
     6
 72
     4
 73
     5
  0
VERTEX
  5
6DE
  8
0
 62
     9
 10
0.0
 20
0.0
 30
0.0
 70
   128
 71
     8
 72
     7
 73
     4
  0
VERTEX
  5
6DF
  8
0
 62
     9
 10
0.0
 20
0.0
 30
0.0
 70
   128
 71
     4
 72
     6
 73
     8
  0
VERTEX
  5
6E0
  8
0
 62
     9
 10
0.0
 20
0.0
 30
0.0
 70
   128
 71
    10
 72
     9
 73
     3
  0
VERTEX
  5
6E1
  8
0
 62
     9
 10
0.0
 20
0.0
 30
0.0
 70
   128
 71
     9
 72
    11
 73
     2
  0
VERTEX
  5
6E2
  8
0
 62
     9
 10
0.0
 20
0.0
 30
0.0
 70
   128
 71
     2
 72
     3
 73
     9
  0
VERTEX
  5
6E3
  8
0
 62
     9
 10
0.0
 20
0.0
 30
0.0
 70
   128
 71
     3
 72
    12
 73
    10
  0
VERTEX
  5
6E4
  8
0
 62
     9
 10
0.0
 20
0.0
 30
0.0
 70
   128
 71
     5
 72
    13
 73
     6
  0
VERTEX
  5
6E5
  8
0
 62
     9
 10
0.0
 20
0.0
 30
0.0
 70
   128
 71
     4
 72
    14
 73
     1
  0
VERTEX
  5
6E6
  8
0
 62
     9
 10
0.0
 20
0.0
 30
0.0
 70
   128
 71
     1
 72
    14
 73
     3
  0
SEQEND
  5
6E7
  8
0
 62
     9
  0
ENDBLK
  5
6EA
  8
0
  0
BLOCK
  8
0
  2
E3_NODE_37_
 70
     0
 10
0.0
 20
0.0
 30
0.0
  3
E3_NODE_37_
  1

  0
POLYLINE
  5
6EC
  8
0
 62
     9
 66
     1
 10
0.0
 20
0.0
 30
0.0
 70
    64
 71
    14
 72
    12
  0
VERTEX
  5
6ED
  8
0
 10
-0.0710000023245811
 20
143.1000061035156
 30
-24.0
 70
   192
  0
VERTEX
  5
6EE
  8
0
 10
-4.888999938964844
 20
143.1000061035156
 30
-20.2810001373291
 70
   192
  0
VERTEX
  5
6EF
  8
0
 10
-3.046999931335449
 20
143.1000061035156
 30
-19.89900016784668
 70
   192
  0
VERTEX
  5
6F0
  8
0
 10
-1.939000010490417
 20
143.1000061035156
 30
-19.66900062561035
 70
   192
  0
VERTEX
  5
6F1
  8
0
 10
4.721000194549561
 20
143.1000061035156
 30
-17.41500091552734
 70
   192
  0
VERTEX
  5
6F2
  8
0
 10
-11.86299991607666
 20
143.1000061035156
 30
-20.86300086975098
 70
   192
  0
VERTEX
  5
6F3
  8
0
 10
12.0
 20
143.1000061035156
 30
-20.78499984741211
 70
   192
  0
VERTEX
  5
6F4
  8
0
 10
8.791000366210938
 20
143.1000061035156
 30
-15.2180004119873
 70
   192
  0
VERTEX
  5
6F5
  8
0
 10
20.81999969482422
 20
143.1000061035156
 30
-11.9379997253418
 70
   192
  0
VERTEX
  5
6F6
  8
0
 10
16.31900024414062
 20
143.1000061035156
 30
-9.812999725341797
 70
   192
  0
VERTEX
  5
6F7
  8
0
 10
18.66900062561035
 20
143.1000061035156
 30
-7.230999946594238
 70
   192
  0
VERTEX
  5
6F8
  8
0
 10
10.7790002822876
 20
143.1000061035156
 30
-14.14500045776367
 70
   192
  0
VERTEX
  5
6F9
  8
0
 10
20.95299911499023
 20
143.1000061035156
 30
-4.721000194549561
 70
   192
  0
VERTEX
  5
6FA
  8
0
 10
23.99900054931641
 20
143.1000061035156
 30
-0.1580000072717667
 70
   192
  0
VERTEX
  5
6FB
  8
0
 62
     9
 10
0.0
 20
0.0
 30
0.0
 70
   128
 71
     3
 72
     2
 73
     1
  0
VERTEX
  5
6FC
  8
0
 62
     9
 10
0.0
 20
0.0
 30
0.0
 70
   128
 71
     5
 72
     4
 73
     1
  0
VERTEX
  5
6FD
  8
0
 62
     9
 10
0.0
 20
0.0
 30
0.0
 70
   128
 71
     2
 72
     6
 73
     1
  0
VERTEX
  5
6FE
  8
0
 62
     9
 10
0.0
 20
0.0
 30
0.0
 70
   128
 71
     8
 72
     5
 73
     7
  0
VERTEX
  5
6FF
  8
0
 62
     9
 10
0.0
 20
0.0
 30
0.0
 70
   128
 71
     1
 72
     4
 73
     3
  0
VERTEX
  5
700
  8
0
 62
     9
 10
0.0
 20
0.0
 30
0.0
 70
   128
 71
    11
 72
    10
 73
     9
  0
VERTEX
  5
701
  8
0
 62
     9
 10
0.0
 20
0.0
 30
0.0
 70
   128
 71
    12
 72
     7
 73
     9
  0
VERTEX
  5
702
  8
0
 62
     9
 10
0.0
 20
0.0
 30
0.0
 70
   128
 71
     1
 72
     7
 73
     5
  0
VERTEX
  5
703
  8
0
 62
     9
 10
0.0
 20
0.0
 30
0.0
 70
   128
 71
     9
 72
    13
 73
    11
  0
VERTEX
  5
704
  8
0
 62
     9
 10
0.0
 20
0.0
 30
0.0
 70
   128
 71
     7
 72
    12
 73
     8
  0
VERTEX
  5
705
  8
0
 62
     9
 10
0.0
 20
0.0
 30
0.0
 70
   128
 71
     9
 72
    10
 73
    12
  0
VERTEX
  5
706
  8
0
 62
     9
 10
0.0
 20
0.0
 30
0.0
 70
   128
 71
     9
 72
    14
 73
    13
  0
SEQEND
  5
707
  8
0
 62
     9
  0
ENDBLK
  5
70A
  8
0
  0
BLOCK
  8
0
  2
E3_NODE_38_
 70
     0
 10
0.0
 20
0.0
 30
0.0
  3
E3_NODE_38_
  1

  0
POLYLINE
  5
70C
  8
0
 62
     9
 66
     1
 10
0.0
 20
0.0
 30
0.0
 70
    64
 71
    20
 72
    20
  0
VERTEX
  5
70D
  8
0
 10
-73.0
 20
-75.0
 30
-19.5
 70
   192
  0
VERTEX
  5
70E
  8
0
 10
-73.0
 20
-63.53799819946289
 30
-15.77600002288818
 70
   192
  0
VERTEX
  5
70F
  8
0
 10
-40.0
 20
-63.53799819946289
 30
-15.77600002288818
 70
   192
  0
VERTEX
  5
710
  8
0
 10
-40.0
 20
-75.0
 30
-19.5
 70
   192
  0
VERTEX
  5
711
  8
0
 10
-73.0
 20
-56.45399856567383
 30
-6.026000022888184
 70
   192
  0
VERTEX
  5
712
  8
0
 10
-40.0
 20
-56.45399856567383
 30
-6.026000022888184
 70
   192
  0
VERTEX
  5
713
  8
0
 10
-73.0
 20
-56.45399856567383
 30
6.026000022888184
 70
   192
  0
VERTEX
  5
714
  8
0
 10
-40.0
 20
-56.45399856567383
 30
6.026000022888184
 70
   192
  0
VERTEX
  5
715
  8
0
 10
-73.0
 20
-63.53799819946289
 30
15.77600002288818
 70
   192
  0
VERTEX
  5
716
  8
0
 10
-40.0
 20
-63.53799819946289
 30
15.77600002288818
 70
   192
  0
VERTEX
  5
717
  8
0
 10
-73.0
 20
-75.0
 30
19.5
 70
   192
  0
VERTEX
  5
718
  8
0
 10
-40.0
 20
-75.0
 30
19.5
 70
   192
  0
VERTEX
  5
719
  8
0
 10
-73.0
 20
-86.46199798583984
 30
15.77600002288818
 70
   192
  0
VERTEX
  5
71A
  8
0
 10
-40.0
 20
-86.46199798583984
 30
15.77600002288818
 70
   192
  0
VERTEX
  5
71B
  8
0
 10
-73.0
 20
-93.5459976196289
 30
6.026000022888184
 70
   192
  0
VERTEX
  5
71C
  8
0
 10
-40.0
 20
-93.5459976196289
 30
6.026000022888184
 70
   192
  0
VERTEX
  5
71D
  8
0
 10
-73.0
 20
-93.5459976196289
 30
-6.026000022888184
 70
   192
  0
VERTEX
  5
71E
  8
0
 10
-40.0
 20
-93.5459976196289
 30
-6.026000022888184
 70
   192
  0
VERTEX
  5
71F
  8
0
 10
-73.0
 20
-86.46199798583984
 30
-15.77600002288818
 70
   192
  0
VERTEX
  5
720
  8
0
 10
-40.0
 20
-86.46199798583984
 30
-15.77600002288818
 70
   192
  0
VERTEX
  5
721
  8
0
 62
     9
 10
0.0
 20
0.0
 30
0.0
 70
   128
 71
     3
 72
     2
 73
     1
  0
VERTEX
  5
722
  8
0
 62
     9
 10
0.0
 20
0.0
 30
0.0
 70
   128
 71
     4
 72
     3
 73
     1
  0
VERTEX
  5
723
  8
0
 62
     9
 10
0.0
 20
0.0
 30
0.0
 70
   128
 71
     6
 72
     5
 73
     2
  0
VERTEX
  5
724
  8
0
 62
     9
 10
0.0
 20
0.0
 30
0.0
 70
   128
 71
     3
 72
     6
 73
     2
  0
VERTEX
  5
725
  8
0
 62
     9
 10
0.0
 20
0.0
 30
0.0
 70
   128
 71
     8
 72
     7
 73
     5
  0
VERTEX
  5
726
  8
0
 62
     9
 10
0.0
 20
0.0
 30
0.0
 70
   128
 71
     6
 72
     8
 73
     5
  0
VERTEX
  5
727
  8
0
 62
     9
 10
0.0
 20
0.0
 30
0.0
 70
   128
 71
    10
 72
     9
 73
     7
  0
VERTEX
  5
728
  8
0
 62
     9
 10
0.0
 20
0.0
 30
0.0
 70
   128
 71
     8
 72
    10
 73
     7
  0
VERTEX
  5
729
  8
0
 62
     9
 10
0.0
 20
0.0
 30
0.0
 70
   128
 71
    12
 72
    11
 73
     9
  0
VERTEX
  5
72A
  8
0
 62
     9
 10
0.0
 20
0.0
 30
0.0
 70
   128
 71
    10
 72
    12
 73
     9
  0
VERTEX
  5
72B
  8
0
 62
     9
 10
0.0
 20
0.0
 30
0.0
 70
   128
 71
    14
 72
    13
 73
    11
  0
VERTEX
  5
72C
  8
0
 62
     9
 10
0.0
 20
0.0
 30
0.0
 70
   128
 71
    12
 72
    14
 73
    11
  0
VERTEX
  5
72D
  8
0
 62
     9
 10
0.0
 20
0.0
 30
0.0
 70
   128
 71
    16
 72
    15
 73
    13
  0
VERTEX
  5
72E
  8
0
 62
     9
 10
0.0
 20
0.0
 30
0.0
 70
   128
 71
    14
 72
    16
 73
    13
  0
VERTEX
  5
72F
  8
0
 62
     9
 10
0.0
 20
0.0
 30
0.0
 70
   128
 71
    18
 72
    17
 73
    15
  0
VERTEX
  5
730
  8
0
 62
     9
 10
0.0
 20
0.0
 30
0.0
 70
   128
 71
    16
 72
    18
 73
    15
  0
VERTEX
  5
731
  8
0
 62
     9
 10
0.0
 20
0.0
 30
0.0
 70
   128
 71
    20
 72
    19
 73
    17
  0
VERTEX
  5
732
  8
0
 62
     9
 10
0.0
 20
0.0
 30
0.0
 70
   128
 71
    18
 72
    20
 73
    17
  0
VERTEX
  5
733
  8
0
 62
     9
 10
0.0
 20
0.0
 30
0.0
 70
   128
 71
     4
 72
     1
 73
    19
  0
VERTEX
  5
734
  8
0
 62
     9
 10
0.0
 20
0.0
 30
0.0
 70
   128
 71
    20
 72
     4
 73
    19
  0
SEQEND
  5
735
  8
0
 62
     9
  0
ENDBLK
  5
738
  8
0
  0
BLOCK
  8
0
  2
E3_NODE_39_
 70
     0
 10
0.0
 20
0.0
 30
0.0
  3
E3_NODE_39_
  1

  0
POLYLINE
  5
73A
  8
0
 62
     9
 66
     1
 10
0.0
 20
0.0
 30
0.0
 70
    64
 71
    14
 72
    12
  0
VERTEX
  5
73B
  8
0
 10
20.82099914550781
 20
-142.6999969482422
 30
-11.9370002746582
 70
   192
  0
VERTEX
  5
73C
  8
0
 10
20.00799942016602
 20
-142.6999969482422
 30
-5.90500020980835
 70
   192
  0
VERTEX
  5
73D
  8
0
 10
18.7549991607666
 20
-142.6999969482422
 30
-7.309999942779541
 70
   192
  0
VERTEX
  5
73E
  8
0
 10
18.00200080871582
 20
-142.6999969482422
 30
-8.154999732971191
 70
   192
  0
VERTEX
  5
73F
  8
0
 10
12.72000026702881
 20
-142.6999969482422
 30
-12.79599952697754
 70
   192
  0
VERTEX
  5
740
  8
0
 10
23.99900054931641
 20
-142.6999969482422
 30
-0.1560000032186508
 70
   192
  0
VERTEX
  5
741
  8
0
 10
12.00100040435791
 20
-142.6999969482422
 30
-20.78400039672852
 70
   192
  0
VERTEX
  5
742
  8
0
 10
8.782999992370605
 20
-142.6999969482422
 30
-15.22200012207031
 70
   192
  0
VERTEX
  5
743
  8
0
 10
-0.0710000023245811
 20
-142.6999969482422
 30
-24.0
 70
   192
  0
VERTEX
  5
744
  8
0
 10
0.3370000123977661
 20
-142.6999969482422
 30
-19.03899955749512
 70
   192
  0
VERTEX
  5
745
  8
0
 10
-3.072999954223633
 20
-142.6999969482422
 30
-19.78300094604492
 70
   192
  0
VERTEX
  5
746
  8
0
 10
6.859000205993652
 20
-142.6999969482422
 30
-16.40800094604492
 70
   192
  0
VERTEX
  5
747
  8
0
 10
-6.388999938964844
 20
-142.6999969482422
 30
-20.50699996948242
 70
   192
  0
VERTEX
  5
748
  8
0
 10
-11.86299991607666
 20
-142.6999969482422
 30
-20.86300086975098
 70
   192
  0
VERTEX
  5
749
  8
0
 62
     9
 10
0.0
 20
0.0
 30
0.0
 70
   128
 71
     3
 72
     2
 73
     1
  0
VERTEX
  5
74A
  8
0
 62
     9
 10
0.0
 20
0.0
 30
0.0
 70
   128
 71
     5
 72
     4
 73
     1
  0
VERTEX
  5
74B
  8
0
 62
     9
 10
0.0
 20
0.0
 30
0.0
 70
   128
 71
     2
 72
     6
 73
     1
  0
VERTEX
  5
74C
  8
0
 62
     9
 10
0.0
 20
0.0
 30
0.0
 70
   128
 71
     8
 72
     5
 73
     7
  0
VERTEX
  5
74D
  8
0
 62
     9
 10
0.0
 20
0.0
 30
0.0
 70
   128
 71
     1
 72
     4
 73
     3
  0
VERTEX
  5
74E
  8
0
 62
     9
 10
0.0
 20
0.0
 30
0.0
 70
   128
 71
    11
 72
    10
 73
     9
  0
VERTEX
  5
74F
  8
0
 62
     9
 10
0.0
 20
0.0
 30
0.0
 70
   128
 71
    12
 72
     7
 73
     9
  0
VERTEX
  5
750
  8
0
 62
     9
 10
0.0
 20
0.0
 30
0.0
 70
   128
 71
     1
 72
     7
 73
     5
  0
VERTEX
  5
751
  8
0
 62
     9
 10
0.0
 20
0.0
 30
0.0
 70
   128
 71
     9
 72
    13
 73
    11
  0
VERTEX
  5
752
  8
0
 62
     9
 10
0.0
 20
0.0
 30
0.0
 70
   128
 71
     7
 72
    12
 73
     8
  0
VERTEX
  5
753
  8
0
 62
     9
 10
0.0
 20
0.0
 30
0.0
 70
   128
 71
     9
 72
    10
 73
    12
  0
VERTEX
  5
754
  8
0
 62
     9
 10
0.0
 20
0.0
 30
0.0
 70
   128
 71
     9
 72
    14
 73
    13
  0
SEQEND
  5
755
  8
0
 62
     9
  0
ENDBLK
  5
758
  8
0
  0
BLOCK
  8
0
  2
E3_NODE_40_
 70
     0
 10
0.0
 20
0.0
 30
0.0
  3
E3_NODE_40_
  1

  0
POLYLINE
  5
75A
  8
0
 62
     9
 66
     1
 10
0.0
 20
0.0
 30
0.0
 70
    64
 71
    14
 72
    12
  0
VERTEX
  5
75B
  8
0
 10
12.00100040435791
 20
-142.6999969482422
 30
-20.78400039672852
 70
   192
  0
VERTEX
  5
75C
  8
0
 10
12.00100040435791
 20
-114.6999969482422
 30
-20.78400039672852
 70
   192
  0
VERTEX
  5
75D
  8
0
 10
20.82099914550781
 20
-114.6999969482422
 30
-11.9370002746582
 70
   192
  0
VERTEX
  5
75E
  8
0
 10
-0.0710000023245811
 20
-114.6999969482422
 30
-24.0
 70
   192
  0
VERTEX
  5
75F
  8
0
 10
-0.0710000023245811
 20
-142.6999969482422
 30
-24.0
 70
   192
  0
VERTEX
  5
760
  8
0
 10
-10.22700023651123
 20
-128.7239990234375
 30
-21.71199989318848
 70
   192
  0
VERTEX
  5
761
  8
0
 10
-11.86299991607666
 20
-142.6999969482422
 30
-20.86300086975098
 70
   192
  0
VERTEX
  5
762
  8
0
 10
-11.62899971008301
 20
-140.6940002441406
 30
-20.98500061035156
 70
   192
  0
VERTEX
  5
763
  8
0
 10
20.82099914550781
 20
-142.6999969482422
 30
-11.9370002746582
 70
   192
  0
VERTEX
  5
764
  8
0
 10
23.91699981689453
 20
-128.7839965820312
 30
-1.991999983787537
 70
   192
  0
VERTEX
  5
765
  8
0
 10
23.98800086975098
 20
-140.6940002441406
 30
-0.4199999868869781
 70
   192
  0
VERTEX
  5
766
  8
0
 10
23.82500076293945
 20
-114.6999969482422
 30
-2.894999980926514
 70
   192
  0
VERTEX
  5
767
  8
0
 10
23.99900054931641
 20
-142.6999969482422
 30
-0.1560000032186508
 70
   192
  0
VERTEX
  5
768
  8
0
 10
-9.402999877929688
 20
-114.6999969482422
 30
-22.08099937438965
 70
   192
  0
VERTEX
  5
769
  8
0
 62
     9
 10
0.0
 20
0.0
 30
0.0
 70
   128
 71
     3
 72
     2
 73
     1
  0
VERTEX
  5
76A
  8
0
 62
     9
 10
0.0
 20
0.0
 30
0.0
 70
   128
 71
     1
 72
     2
 73
     4
  0
VERTEX
  5
76B
  8
0
 62
     9
 10
0.0
 20
0.0
 30
0.0
 70
   128
 71
     6
 72
     5
 73
     4
  0
VERTEX
  5
76C
  8
0
 62
     9
 10
0.0
 20
0.0
 30
0.0
 70
   128
 71
     8
 72
     7
 73
     5
  0
VERTEX
  5
76D
  8
0
 62
     9
 10
0.0
 20
0.0
 30
0.0
 70
   128
 71
     5
 72
     6
 73
     8
  0
VERTEX
  5
76E
  8
0
 62
     9
 10
0.0
 20
0.0
 30
0.0
 70
   128
 71
    11
 72
    10
 73
     9
  0
VERTEX
  5
76F
  8
0
 62
     9
 10
0.0
 20
0.0
 30
0.0
 70
   128
 71
    10
 72
    12
 73
     3
  0
VERTEX
  5
770
  8
0
 62
     9
 10
0.0
 20
0.0
 30
0.0
 70
   128
 71
     3
 72
     9
 73
    10
  0
VERTEX
  5
771
  8
0
 62
     9
 10
0.0
 20
0.0
 30
0.0
 70
   128
 71
     9
 72
    13
 73
    11
  0
VERTEX
  5
772
  8
0
 62
     9
 10
0.0
 20
0.0
 30
0.0
 70
   128
 71
     4
 72
    14
 73
     6
  0
VERTEX
  5
773
  8
0
 62
     9
 10
0.0
 20
0.0
 30
0.0
 70
   128
 71
     4
 72
     5
 73
     1
  0
VERTEX
  5
774
  8
0
 62
     9
 10
0.0
 20
0.0
 30
0.0
 70
   128
 71
     1
 72
     9
 73
     3
  0
SEQEND
  5
775
  8
0
 62
     9
  0
ENDBLK
  5
778
  8
0
  0
BLOCK
  8
0
  2
E3_NODE_41_
 70
     0
 10
0.0
 20
0.0
 30
0.0
  3
E3_NODE_41_
  1

  0
POLYLINE
  5
77A
  8
0
 62
     9
 66
     1
 10
0.0
 20
0.0
 30
0.0
 70
    64
 71
    35
 72
    33
  0
VERTEX
  5
77B
  8
0
 10
-14.13899993896484
 20
-114.6999969482422
 30
-21.81999969482422
 70
   192
  0
VERTEX
  5
77C
  8
0
 10
-9.402999877929688
 20
-114.6999969482422
 30
-22.08099937438965
 70
   192
  0
VERTEX
  5
77D
  8
0
 10
-10.22700023651123
 20
-128.7239990234375
 30
-21.71199989318848
 70
   192
  0
VERTEX
  5
77E
  8
0
 10
-11.62899971008301
 20
-140.6940002441406
 30
-20.98500061035156
 70
   192
  0
VERTEX
  5
77F
  8
0
 10
-15.69999980926514
 20
-140.6799926757812
 30
-20.70400047302246
 70
   192
  0
VERTEX
  5
780
  8
0
 10
-15.11800003051758
 20
-134.7389984130859
 30
-21.19599914550781
 70
   192
  0
VERTEX
  5
781
  8
0
 10
-10.85900020599365
 20
-166.6999969482422
 30
-17.38800048828125
 70
   192
  0
VERTEX
  5
782
  8
0
 10
-18.87700080871582
 20
-166.6999969482422
 30
-17.87899971008301
 70
   192
  0
VERTEX
  5
783
  8
0
 10
-16.75900077819824
 20
-151.4989929199219
 30
-19.80599975585938
 70
   192
  0
VERTEX
  5
784
  8
0
 10
-6.388999938964844
 20
-142.6999969482422
 30
-20.50699996948242
 70
   192
  0
VERTEX
  5
785
  8
0
 10
-5.748000144958496
 20
-166.6999969482422
 30
-16.21299934387207
 70
   192
  0
VERTEX
  5
786
  8
0
 10
-11.86299991607666
 20
-142.6999969482422
 30
-20.86300086975098
 70
   192
  0
VERTEX
  5
787
  8
0
 10
-3.072999954223633
 20
-142.6999969482422
 30
-19.78300094604492
 70
   192
  0
VERTEX
  5
788
  8
0
 10
4.408999919891357
 20
-166.6999969482422
 30
-12.52200031280518
 70
   192
  0
VERTEX
  5
789
  8
0
 10
-3.023999929428101
 20
-166.6999969482422
 30
-15.58600044250488
 70
   192
  0
VERTEX
  5
78A
  8
0
 10
0.3370000123977661
 20
-142.6999969482422
 30
-19.03899955749512
 70
   192
  0
VERTEX
  5
78B
  8
0
 10
6.859000205993652
 20
-142.6999969482422
 30
-16.40800094604492
 70
   192
  0
VERTEX
  5
78C
  8
0
 10
8.782999992370605
 20
-142.6999969482422
 30
-15.22200012207031
 70
   192
  0
VERTEX
  5
78D
  8
0
 10
6.480999946594238
 20
-166.6999969482422
 30
-11.23400020599365
 70
   192
  0
VERTEX
  5
78E
  8
0
 10
12.72000026702881
 20
-142.6999969482422
 30
-12.79599952697754
 70
   192
  0
VERTEX
  5
78F
  8
0
 10
11.23700046539307
 20
-166.6999969482422
 30
-8.279000282287598
 70
   192
  0
VERTEX
  5
790
  8
0
 10
18.00200080871582
 20
-142.6999969482422
 30
-8.154999732971191
 70
   192
  0
VERTEX
  5
791
  8
0
 10
17.02400016784668
 20
-166.6999969482422
 30
-3.230999946594238
 70
   192
  0
VERTEX
  5
792
  8
0
 10
18.7549991607666
 20
-142.6999969482422
 30
-7.309999942779541
 70
   192
  0
VERTEX
  5
793
  8
0
 10
25.78499984741211
 20
-140.6829986572266
 30
3.221999883651733
 70
   192
  0
VERTEX
  5
794
  8
0
 10
25.54299926757812
 20
-151.1670074462891
 30
4.556000232696533
 70
   192
  0
VERTEX
  5
795
  8
0
 10
23.99900054931641
 20
-142.6999969482422
 30
-0.1560000032186508
 70
   192
  0
VERTEX
  5
796
  8
0
 10
20.00799942016602
 20
-142.6999969482422
 30
-5.90500020980835
 70
   192
  0
VERTEX
  5
797
  8
0
 10
22.15500068664551
 20
-166.6999969482422
 30
2.957000017166138
 70
   192
  0
VERTEX
  5
798
  8
0
 10
24.92200088500977
 20
-166.6999969482422
 30
7.408999919891357
 70
   192
  0
VERTEX
  5
799
  8
0
 10
25.9640007019043
 20
-114.6999969482422
 30
1.333999991416931
 70
   192
  0
VERTEX
  5
79A
  8
0
 10
25.9069995880127
 20
-135.4360046386719
 30
2.555000066757202
 70
   192
  0
VERTEX
  5
79B
  8
0
 10
23.91699981689453
 20
-128.7839965820312
 30
-1.991999983787537
 70
   192
  0
VERTEX
  5
79C
  8
0
 10
23.98800086975098
 20
-140.6940002441406
 30
-0.4199999868869781
 70
   192
  0
VERTEX
  5
79D
  8
0
 10
23.82500076293945
 20
-114.6999969482422
 30
-2.894999980926514
 70
   192
  0
VERTEX
  5
79E
  8
0
 62
     9
 10
0.0
 20
0.0
 30
0.0
 70
   128
 71
     3
 72
     2
 73
     1
  0
VERTEX
  5
79F
  8
0
 62
     9
 10
0.0
 20
0.0
 30
0.0
 70
   128
 71
     6
 72
     5
 73
     4
  0
VERTEX
  5
7A0
  8
0
 62
     9
 10
0.0
 20
0.0
 30
0.0
 70
   128
 71
     4
 72
     3
 73
     6
  0
VERTEX
  5
7A1
  8
0
 62
     9
 10
0.0
 20
0.0
 30
0.0
 70
   128
 71
     9
 72
     8
 73
     7
  0
VERTEX
  5
7A2
  8
0
 62
     9
 10
0.0
 20
0.0
 30
0.0
 70
   128
 71
     7
 72
    11
 73
    10
  0
VERTEX
  5
7A3
  8
0
 62
     9
 10
0.0
 20
0.0
 30
0.0
 70
   128
 71
    10
 72
    12
 73
     7
  0
VERTEX
  5
7A4
  8
0
 62
     9
 10
0.0
 20
0.0
 30
0.0
 70
   128
 71
    11
 72
    13
 73
    10
  0
VERTEX
  5
7A5
  8
0
 62
     9
 10
0.0
 20
0.0
 30
0.0
 70
   128
 71
    12
 72
     4
 73
     5
  0
VERTEX
  5
7A6
  8
0
 62
     9
 10
0.0
 20
0.0
 30
0.0
 70
   128
 71
     5
 72
     9
 73
    12
  0
VERTEX
  5
7A7
  8
0
 62
     9
 10
0.0
 20
0.0
 30
0.0
 70
   128
 71
    16
 72
    15
 73
    14
  0
VERTEX
  5
7A8
  8
0
 62
     9
 10
0.0
 20
0.0
 30
0.0
 70
   128
 71
    16
 72
    13
 73
    15
  0
VERTEX
  5
7A9
  8
0
 62
     9
 10
0.0
 20
0.0
 30
0.0
 70
   128
 71
    14
 72
    17
 73
    16
  0
VERTEX
  5
7AA
  8
0
 62
     9
 10
0.0
 20
0.0
 30
0.0
 70
   128
 71
    18
 72
    17
 73
    14
  0
VERTEX
  5
7AB
  8
0
 62
     9
 10
0.0
 20
0.0
 30
0.0
 70
   128
 71
    14
 72
    19
 73
    18
  0
VERTEX
  5
7AC
  8
0
 62
     9
 10
0.0
 20
0.0
 30
0.0
 70
   128
 71
    20
 72
    18
 73
    19
  0
VERTEX
  5
7AD
  8
0
 62
     9
 10
0.0
 20
0.0
 30
0.0
 70
   128
 71
    22
 72
    20
 73
    21
  0
VERTEX
  5
7AE
  8
0
 62
     9
 10
0.0
 20
0.0
 30
0.0
 70
   128
 71
    21
 72
    23
 73
    22
  0
VERTEX
  5
7AF
  8
0
 62
     9
 10
0.0
 20
0.0
 30
0.0
 70
   128
 71
    23
 72
    24
 73
    22
  0
VERTEX
  5
7B0
  8
0
 62
     9
 10
0.0
 20
0.0
 30
0.0
 70
   128
 71
    27
 72
    26
 73
    25
  0
VERTEX
  5
7B1
  8
0
 62
     9
 10
0.0
 20
0.0
 30
0.0
 70
   128
 71
    27
 72
    28
 73
    23
  0
VERTEX
  5
7B2
  8
0
 62
     9
 10
0.0
 20
0.0
 30
0.0
 70
   128
 71
    28
 72
    24
 73
    23
  0
VERTEX
  5
7B3
  8
0
 62
     9
 10
0.0
 20
0.0
 30
0.0
 70
   128
 71
    26
 72
    27
 73
    29
  0
VERTEX
  5
7B4
  8
0
 62
     9
 10
0.0
 20
0.0
 30
0.0
 70
   128
 71
    29
 72
    30
 73
    26
  0
VERTEX
  5
7B5
  8
0
 62
     9
 10
0.0
 20
0.0
 30
0.0
 70
   128
 71
    23
 72
    29
 73
    27
  0
VERTEX
  5
7B6
  8
0
 62
     9
 10
0.0
 20
0.0
 30
0.0
 70
   128
 71
    33
 72
    32
 73
    31
  0
VERTEX
  5
7B7
  8
0
 62
     9
 10
0.0
 20
0.0
 30
0.0
 70
   128
 71
    33
 72
    34
 73
    32
  0
VERTEX
  5
7B8
  8
0
 62
     9
 10
0.0
 20
0.0
 30
0.0
 70
   128
 71
    31
 72
    35
 73
    33
  0
VERTEX
  5
7B9
  8
0
 62
     9
 10
0.0
 20
0.0
 30
0.0
 70
   128
 71
    34
 72
    25
 73
    32
  0
VERTEX
  5
7BA
  8
0
 62
     9
 10
0.0
 20
0.0
 30
0.0
 70
   128
 71
    25
 72
    34
 73
    27
  0
VERTEX
  5
7BB
  8
0
 62
     9
 10
0.0
 20
0.0
 30
0.0
 70
   128
 71
    19
 72
    21
 73
    20
  0
VERTEX
  5
7BC
  8
0
 62
     9
 10
0.0
 20
0.0
 30
0.0
 70
   128
 71
    13
 72
    11
 73
    15
  0
VERTEX
  5
7BD
  8
0
 62
     9
 10
0.0
 20
0.0
 30
0.0
 70
   128
 71
     7
 72
    12
 73
     9
  0
VERTEX
  5
7BE
  8
0
 62
     9
 10
0.0
 20
0.0
 30
0.0
 70
   128
 71
     1
 72
     6
 73
     3
  0
SEQEND
  5
7BF
  8
0
 62
     9
  0
ENDBLK
  5
7C2
  8
0
  0
BLOCK
  8
0
  2
E3_NODE_42_
 70
     0
 10
0.0
 20
0.0
 30
0.0
  3
E3_NODE_42_
  1

  0
POLYLINE
  5
7C4
  8
0
 62
     9
 66
     1
 10
0.0
 20
0.0
 30
0.0
 70
    64
 71
    34
 72
    34
  0
VERTEX
  5
7C5
  8
0
 10
7.366000175476074
 20
-166.6999969482422
 30
4.254000186920166
 70
   192
  0
VERTEX
  5
7C6
  8
0
 10
22.15500068664551
 20
-166.6999969482422
 30
2.957000017166138
 70
   192
  0
VERTEX
  5
7C7
  8
0
 10
24.92200088500977
 20
-166.6999969482422
 30
7.408999919891357
 70
   192
  0
VERTEX
  5
7C8
  8
0
 10
19.1879997253418
 20
-166.6999969482422
 30
17.54500007629395
 70
   192
  0
VERTEX
  5
7C9
  8
0
 10
18.87700080871582
 20
-166.6999969482422
 30
17.87899971008301
 70
   192
  0
VERTEX
  5
7CA
  8
0
 10
11.23700046539307
 20
-166.6999969482422
 30
-8.279000282287598
 70
   192
  0
VERTEX
  5
7CB
  8
0
 10
8.21500015258789
 20
-166.6999969482422
 30
-2.196000099182129
 70
   192
  0
VERTEX
  5
7CC
  8
0
 10
4.254000186920166
 20
-166.6999969482422
 30
-7.35699987411499
 70
   192
  0
VERTEX
  5
7CD
  8
0
 10
22.6299991607666
 20
-166.6999969482422
 30
12.80200004577637
 70
   192
  0
VERTEX
  5
7CE
  8
0
 10
17.02400016784668
 20
-166.6999969482422
 30
-3.230999946594238
 70
   192
  0
VERTEX
  5
7CF
  8
0
 10
10.85900020599365
 20
-166.6999969482422
 30
17.38800048828125
 70
   192
  0
VERTEX
  5
7D0
  8
0
 10
2.203999996185303
 20
-166.6999969482422
 30
8.21500015258789
 70
   192
  0
VERTEX
  5
7D1
  8
0
 10
3.023999929428101
 20
-166.6999969482422
 30
15.58600044250488
 70
   192
  0
VERTEX
  5
7D2
  8
0
 10
-4.408999919891357
 20
-166.6999969482422
 30
12.52200031280518
 70
   192
  0
VERTEX
  5
7D3
  8
0
 10
-11.23700046539307
 20
-166.6999969482422
 30
8.279000282287598
 70
   192
  0
VERTEX
  5
7D4
  8
0
 10
-8.206000328063965
 20
-166.6999969482422
 30
2.203999996185303
 70
   192
  0
VERTEX
  5
7D5
  8
0
 10
-4.245999813079834
 20
-166.6999969482422
 30
7.366000175476074
 70
   192
  0
VERTEX
  5
7D6
  8
0
 10
-7.35699987411499
 20
-166.6999969482422
 30
-4.245999813079834
 70
   192
  0
VERTEX
  5
7D7
  8
0
 10
-22.15500068664551
 20
-166.6999969482422
 30
-2.957000017166138
 70
   192
  0
VERTEX
  5
7D8
  8
0
 10
-24.92200088500977
 20
-166.6999969482422
 30
-7.408999919891357
 70
   192
  0
VERTEX
  5
7D9
  8
0
 10
-19.1879997253418
 20
-166.6999969482422
 30
-17.54500007629395
 70
   192
  0
VERTEX
  5
7DA
  8
0
 10
-18.87700080871582
 20
-166.6999969482422
 30
-17.87899971008301
 70
   192
  0
VERTEX
  5
7DB
  8
0
 10
6.480999946594238
 20
-166.6999969482422
 30
-11.23400020599365
 70
   192
  0
VERTEX
  5
7DC
  8
0
 10
5.748000144958496
 20
-166.6999969482422
 30
16.21199989318848
 70
   192
  0
VERTEX
  5
7DD
  8
0
 10
22.49699974060059
 20
-166.6999969482422
 30
12.98499965667725
 70
   192
  0
VERTEX
  5
7DE
  8
0
 10
-6.480999946594238
 20
-166.6999969482422
 30
11.23400020599365
 70
   192
  0
VERTEX
  5
7DF
  8
0
 10
-22.6299991607666
 20
-166.6999969482422
 30
-12.80200004577637
 70
   192
  0
VERTEX
  5
7E0
  8
0
 10
-17.02400016784668
 20
-166.6999969482422
 30
3.230999946594238
 70
   192
  0
VERTEX
  5
7E1
  8
0
 10
-10.85900020599365
 20
-166.6999969482422
 30
-17.38800048828125
 70
   192
  0
VERTEX
  5
7E2
  8
0
 10
-2.196000099182129
 20
-166.6999969482422
 30
-8.206000328063965
 70
   192
  0
VERTEX
  5
7E3
  8
0
 10
-3.023999929428101
 20
-166.6999969482422
 30
-15.58600044250488
 70
   192
  0
VERTEX
  5
7E4
  8
0
 10
4.408999919891357
 20
-166.6999969482422
 30
-12.52200031280518
 70
   192
  0
VERTEX
  5
7E5
  8
0
 10
-5.748000144958496
 20
-166.6999969482422
 30
-16.21299934387207
 70
   192
  0
VERTEX
  5
7E6
  8
0
 10
-22.49699974060059
 20
-166.6999969482422
 30
-12.98499965667725
 70
   192
  0
VERTEX
  5
7E7
  8
0
 62
     9
 10
0.0
 20
0.0
 30
0.0
 70
   128
 71
     3
 72
     2
 73
     1
  0
VERTEX
  5
7E8
  8
0
 62
     9
 10
0.0
 20
0.0
 30
0.0
 70
   128
 71
     5
 72
     4
 73
     1
  0
VERTEX
  5
7E9
  8
0
 62
     9
 10
0.0
 20
0.0
 30
0.0
 70
   128
 71
     8
 72
     7
 73
     6
  0
VERTEX
  5
7EA
  8
0
 62
     9
 10
0.0
 20
0.0
 30
0.0
 70
   128
 71
     1
 72
     9
 73
     3
  0
VERTEX
  5
7EB
  8
0
 62
     9
 10
0.0
 20
0.0
 30
0.0
 70
   128
 71
    10
 72
     7
 73
     1
  0
VERTEX
  5
7EC
  8
0
 62
     9
 10
0.0
 20
0.0
 30
0.0
 70
   128
 71
     1
 72
    11
 73
     5
  0
VERTEX
  5
7ED
  8
0
 62
     9
 10
0.0
 20
0.0
 30
0.0
 70
   128
 71
    14
 72
    13
 73
    12
  0
VERTEX
  5
7EE
  8
0
 62
     9
 10
0.0
 20
0.0
 30
0.0
 70
   128
 71
    17
 72
    16
 73
    15
  0
VERTEX
  5
7EF
  8
0
 62
     9
 10
0.0
 20
0.0
 30
0.0
 70
   128
 71
    20
 72
    19
 73
    18
  0
VERTEX
  5
7F0
  8
0
 62
     9
 10
0.0
 20
0.0
 30
0.0
 70
   128
 71
    22
 72
    21
 73
    18
  0
VERTEX
  5
7F1
  8
0
 62
     9
 10
0.0
 20
0.0
 30
0.0
 70
   128
 71
     6
 72
    23
 73
     8
  0
VERTEX
  5
7F2
  8
0
 62
     9
 10
0.0
 20
0.0
 30
0.0
 70
   128
 71
     1
 72
     2
 73
    10
  0
VERTEX
  5
7F3
  8
0
 62
     9
 10
0.0
 20
0.0
 30
0.0
 70
   128
 71
    12
 72
    13
 73
    24
  0
VERTEX
  5
7F4
  8
0
 62
     9
 10
0.0
 20
0.0
 30
0.0
 70
   128
 71
     4
 72
    25
 73
     1
  0
VERTEX
  5
7F5
  8
0
 62
     9
 10
0.0
 20
0.0
 30
0.0
 70
   128
 71
    12
 72
    17
 73
    14
  0
VERTEX
  5
7F6
  8
0
 62
     9
 10
0.0
 20
0.0
 30
0.0
 70
   128
 71
    15
 72
    26
 73
    17
  0
VERTEX
  5
7F7
  8
0
 62
     9
 10
0.0
 20
0.0
 30
0.0
 70
   128
 71
    18
 72
    27
 73
    20
  0
VERTEX
  5
7F8
  8
0
 62
     9
 10
0.0
 20
0.0
 30
0.0
 70
   128
 71
    28
 72
    16
 73
    18
  0
VERTEX
  5
7F9
  8
0
 62
     9
 10
0.0
 20
0.0
 30
0.0
 70
   128
 71
    18
 72
    29
 73
    22
  0
VERTEX
  5
7FA
  8
0
 62
     9
 10
0.0
 20
0.0
 30
0.0
 70
   128
 71
    32
 72
    31
 73
    30
  0
VERTEX
  5
7FB
  8
0
 62
     9
 10
0.0
 20
0.0
 30
0.0
 70
   128
 71
     1
 72
    25
 73
     9
  0
VERTEX
  5
7FC
  8
0
 62
     9
 10
0.0
 20
0.0
 30
0.0
 70
   128
 71
     1
 72
    24
 73
    11
  0
VERTEX
  5
7FD
  8
0
 62
     9
 10
0.0
 20
0.0
 30
0.0
 70
   128
 71
    16
 72
    28
 73
    15
  0
VERTEX
  5
7FE
  8
0
 62
     9
 10
0.0
 20
0.0
 30
0.0
 70
   128
 71
    18
 72
    19
 73
    28
  0
VERTEX
  5
7FF
  8
0
 62
     9
 10
0.0
 20
0.0
 30
0.0
 70
   128
 71
    30
 72
    31
 73
    33
  0
VERTEX
  5
800
  8
0
 62
     9
 10
0.0
 20
0.0
 30
0.0
 70
   128
 71
    21
 72
    34
 73
    18
  0
VERTEX
  5
801
  8
0
 62
     9
 10
0.0
 20
0.0
 30
0.0
 70
   128
 71
    30
 72
     8
 73
    32
  0
VERTEX
  5
802
  8
0
 62
     9
 10
0.0
 20
0.0
 30
0.0
 70
   128
 71
    24
 72
     1
 73
    12
  0
VERTEX
  5
803
  8
0
 62
     9
 10
0.0
 20
0.0
 30
0.0
 70
   128
 71
    18
 72
    34
 73
    27
  0
VERTEX
  5
804
  8
0
 62
     9
 10
0.0
 20
0.0
 30
0.0
 70
   128
 71
    18
 72
    33
 73
    29
  0
VERTEX
  5
805
  8
0
 62
     9
 10
0.0
 20
0.0
 30
0.0
 70
   128
 71
     7
 72
    10
 73
     6
  0
VERTEX
  5
806
  8
0
 62
     9
 10
0.0
 20
0.0
 30
0.0
 70
   128
 71
    33
 72
    18
 73
    30
  0
VERTEX
  5
807
  8
0
 62
     9
 10
0.0
 20
0.0
 30
0.0
 70
   128
 71
    17
 72
    26
 73
    14
  0
VERTEX
  5
808
  8
0
 62
     9
 10
0.0
 20
0.0
 30
0.0
 70
   128
 71
     8
 72
    23
 73
    32
  0
SEQEND
  5
809
  8
0
 62
     9
  0
ENDBLK
  5
80C
  8
0
  0
BLOCK
  8
0
  2
E3_NODE_43_
 70
     0
 10
0.0
 20
0.0
 30
0.0
  3
E3_NODE_43_
  1

  0
POLYLINE
  5
80E
  8
0
 62
     9
 66
     1
 10
0.0
 20
0.0
 30
0.0
 70
    64
 71
    34
 72
    34
  0
VERTEX
  5
80F
  8
0
 10
24.9060001373291
 20
-114.6999969482422
 30
7.361000061035156
 70
   192
  0
VERTEX
  5
810
  8
0
 10
24.64900016784668
 20
-120.4499969482422
 30
8.284000396728516
 70
   192
  0
VERTEX
  5
811
  8
0
 10
24.65099906921387
 20
-136.375
 30
8.28600025177002
 70
   192
  0
VERTEX
  5
812
  8
0
 10
22.47200012207031
 20
-114.6999969482422
 30
12.9680004119873
 70
   192
  0
VERTEX
  5
813
  8
0
 10
22.48200035095215
 20
-120.4499969482422
 30
12.97500038146973
 70
   192
  0
VERTEX
  5
814
  8
0
 10
22.72999954223633
 20
-120.4499969482422
 30
12.6230001449585
 70
   192
  0
VERTEX
  5
815
  8
0
 10
22.77899932861328
 20
-114.6999969482422
 30
12.53299999237061
 70
   192
  0
VERTEX
  5
816
  8
0
 10
25.00699996948242
 20
-114.6999969482422
 30
7.113999843597412
 70
   192
  0
VERTEX
  5
817
  8
0
 10
24.64500045776367
 20
-140.2050018310547
 30
8.281999588012695
 70
   192
  0
VERTEX
  5
818
  8
0
 10
24.64500045776367
 20
-140.7019958496094
 30
8.281999588012695
 70
   192
  0
VERTEX
  5
819
  8
0
 10
25.9069995880127
 20
-135.4360046386719
 30
2.555000066757202
 70
   192
  0
VERTEX
  5
81A
  8
0
 10
25.78499984741211
 20
-140.6829986572266
 30
3.221999883651733
 70
   192
  0
VERTEX
  5
81B
  8
0
 10
25.9640007019043
 20
-114.6999969482422
 30
1.333999991416931
 70
   192
  0
VERTEX
  5
81C
  8
0
 10
22.6299991607666
 20
-166.6999969482422
 30
12.80200004577637
 70
   192
  0
VERTEX
  5
81D
  8
0
 10
24.92200088500977
 20
-166.6999969482422
 30
7.408999919891357
 70
   192
  0
VERTEX
  5
81E
  8
0
 10
24.62700080871582
 20
-152.3000030517578
 30
8.272000312805176
 70
   192
  0
VERTEX
  5
81F
  8
0
 10
22.49699974060059
 20
-166.6999969482422
 30
12.98499965667725
 70
   192
  0
VERTEX
  5
820
  8
0
 10
22.57299995422363
 20
-152.3000030517578
 30
12.90200042724609
 70
   192
  0
VERTEX
  5
821
  8
0
 10
22.50699996948242
 20
-152.3000030517578
 30
12.99300003051758
 70
   192
  0
VERTEX
  5
822
  8
0
 10
25.54299926757812
 20
-151.1670074462891
 30
4.556000232696533
 70
   192
  0
VERTEX
  5
823
  8
0
 10
19.4950008392334
 20
-140.7019958496094
 30
17.20199966430664
 70
   192
  0
VERTEX
  5
824
  8
0
 10
15.69999980926514
 20
-140.6799926757812
 30
20.70400047302246
 70
   192
  0
VERTEX
  5
825
  8
0
 10
16.75900077819824
 20
-151.4969940185547
 30
19.80599975585938
 70
   192
  0
VERTEX
  5
826
  8
0
 10
19.47800064086914
 20
-152.3000030517578
 30
17.1919994354248
 70
   192
  0
VERTEX
  5
827
  8
0
 10
18.87700080871582
 20
-166.6999969482422
 30
17.87899971008301
 70
   192
  0
VERTEX
  5
828
  8
0
 10
19.1879997253418
 20
-166.6999969482422
 30
17.54500007629395
 70
   192
  0
VERTEX
  5
829
  8
0
 10
18.79899978637695
 20
-114.6999969482422
 30
17.84799957275391
 70
   192
  0
VERTEX
  5
82A
  8
0
 10
15.02499961853027
 20
-114.6999969482422
 30
21.2189998626709
 70
   192
  0
VERTEX
  5
82B
  8
0
 10
15.11800003051758
 20
-134.7380065917969
 30
21.19700050354004
 70
   192
  0
VERTEX
  5
82C
  8
0
 10
19.49600028991699
 20
-140.2059936523438
 30
17.20299911499023
 70
   192
  0
VERTEX
  5
82D
  8
0
 10
19.39500045776367
 20
-114.6999969482422
 30
17.31599998474121
 70
   192
  0
VERTEX
  5
82E
  8
0
 10
19.49900054931641
 20
-120.4499969482422
 30
17.20499992370605
 70
   192
  0
VERTEX
  5
82F
  8
0
 10
19.50200080871582
 20
-136.375
 30
17.20599937438965
 70
   192
  0
VERTEX
  5
830
  8
0
 10
14.13899993896484
 20
-114.6999969482422
 30
21.81999969482422
 70
   192
  0
VERTEX
  5
831
  8
0
 62
     9
 10
0.0
 20
0.0
 30
0.0
 70
   128
 71
     3
 72
     2
 73
     1
  0
VERTEX
  5
832
  8
0
 62
     9
 10
0.0
 20
0.0
 30
0.0
 70
   128
 71
     6
 72
     5
 73
     4
  0
VERTEX
  5
833
  8
0
 62
     9
 10
0.0
 20
0.0
 30
0.0
 70
   128
 71
     2
 72
     6
 73
     7
  0
VERTEX
  5
834
  8
0
 62
     9
 10
0.0
 20
0.0
 30
0.0
 70
   128
 71
     7
 72
     1
 73
     2
  0
VERTEX
  5
835
  8
0
 62
     9
 10
0.0
 20
0.0
 30
0.0
 70
   128
 71
     4
 72
     7
 73
     6
  0
VERTEX
  5
836
  8
0
 62
     9
 10
0.0
 20
0.0
 30
0.0
 70
   128
 71
     9
 72
     1
 73
     8
  0
VERTEX
  5
837
  8
0
 62
     9
 10
0.0
 20
0.0
 30
0.0
 70
   128
 71
    11
 72
    10
 73
     8
  0
VERTEX
  5
838
  8
0
 62
     9
 10
0.0
 20
0.0
 30
0.0
 70
   128
 71
    11
 72
    12
 73
    10
  0
VERTEX
  5
839
  8
0
 62
     9
 10
0.0
 20
0.0
 30
0.0
 70
   128
 71
     8
 72
    13
 73
    11
  0
VERTEX
  5
83A
  8
0
 62
     9
 10
0.0
 20
0.0
 30
0.0
 70
   128
 71
    16
 72
    15
 73
    14
  0
VERTEX
  5
83B
  8
0
 62
     9
 10
0.0
 20
0.0
 30
0.0
 70
   128
 71
    18
 72
    14
 73
    17
  0
VERTEX
  5
83C
  8
0
 62
     9
 10
0.0
 20
0.0
 30
0.0
 70
   128
 71
    17
 72
    19
 73
    18
  0
VERTEX
  5
83D
  8
0
 62
     9
 10
0.0
 20
0.0
 30
0.0
 70
   128
 71
    20
 72
    16
 73
    10
  0
VERTEX
  5
83E
  8
0
 62
     9
 10
0.0
 20
0.0
 30
0.0
 70
   128
 71
    20
 72
    15
 73
    16
  0
VERTEX
  5
83F
  8
0
 62
     9
 10
0.0
 20
0.0
 30
0.0
 70
   128
 71
    10
 72
    12
 73
    20
  0
VERTEX
  5
840
  8
0
 62
     9
 10
0.0
 20
0.0
 30
0.0
 70
   128
 71
    23
 72
    22
 73
    21
  0
VERTEX
  5
841
  8
0
 62
     9
 10
0.0
 20
0.0
 30
0.0
 70
   128
 71
    21
 72
    24
 73
    23
  0
VERTEX
  5
842
  8
0
 62
     9
 10
0.0
 20
0.0
 30
0.0
 70
   128
 71
    24
 72
    19
 73
    17
  0
VERTEX
  5
843
  8
0
 62
     9
 10
0.0
 20
0.0
 30
0.0
 70
   128
 71
    26
 72
    25
 73
    24
  0
VERTEX
  5
844
  8
0
 62
     9
 10
0.0
 20
0.0
 30
0.0
 70
   128
 71
    17
 72
    26
 73
    24
  0
VERTEX
  5
845
  8
0
 62
     9
 10
0.0
 20
0.0
 30
0.0
 70
   128
 71
    29
 72
    28
 73
    27
  0
VERTEX
  5
846
  8
0
 62
     9
 10
0.0
 20
0.0
 30
0.0
 70
   128
 71
    27
 72
    30
 73
    29
  0
VERTEX
  5
847
  8
0
 62
     9
 10
0.0
 20
0.0
 30
0.0
 70
   128
 71
    30
 72
    21
 73
    22
  0
VERTEX
  5
848
  8
0
 62
     9
 10
0.0
 20
0.0
 30
0.0
 70
   128
 71
    30
 72
    22
 73
    29
  0
VERTEX
  5
849
  8
0
 62
     9
 10
0.0
 20
0.0
 30
0.0
 70
   128
 71
    32
 72
    31
 73
     4
  0
VERTEX
  5
84A
  8
0
 62
     9
 10
0.0
 20
0.0
 30
0.0
 70
   128
 71
     4
 72
     5
 73
    32
  0
VERTEX
  5
84B
  8
0
 62
     9
 10
0.0
 20
0.0
 30
0.0
 70
   128
 71
    33
 72
    30
 73
    27
  0
VERTEX
  5
84C
  8
0
 62
     9
 10
0.0
 20
0.0
 30
0.0
 70
   128
 71
    27
 72
    32
 73
    33
  0
VERTEX
  5
84D
  8
0
 62
     9
 10
0.0
 20
0.0
 30
0.0
 70
   128
 71
    32
 72
    27
 73
    31
  0
VERTEX
  5
84E
  8
0
 62
     9
 10
0.0
 20
0.0
 30
0.0
 70
   128
 71
    29
 72
    34
 73
    28
  0
VERTEX
  5
84F
  8
0
 62
     9
 10
0.0
 20
0.0
 30
0.0
 70
   128
 71
    24
 72
    25
 73
    23
  0
VERTEX
  5
850
  8
0
 62
     9
 10
0.0
 20
0.0
 30
0.0
 70
   128
 71
    14
 72
    18
 73
    16
  0
VERTEX
  5
851
  8
0
 62
     9
 10
0.0
 20
0.0
 30
0.0
 70
   128
 71
     8
 72
    10
 73
     9
  0
VERTEX
  5
852
  8
0
 62
     9
 10
0.0
 20
0.0
 30
0.0
 70
   128
 71
     1
 72
     9
 73
     3
  0
SEQEND
  5
853
  8
0
 62
     9
  0
ENDBLK
  5
856
  8
0
  0
BLOCK
  8
0
  2
E3_NODE_44_
 70
     0
 10
0.0
 20
0.0
 30
0.0
  3
E3_NODE_44_
  1

  0
POLYLINE
  5
858
  8
0
 62
     9
 66
     1
 10
0.0
 20
0.0
 30
0.0
 70
    64
 71
    23
 72
    24
  0
VERTEX
  5
859
  8
0
 10
-22.77899932861328
 20
-114.6999969482422
 30
-12.53400039672852
 70
   192
  0
VERTEX
  5
85A
  8
0
 10
-22.51700019836426
 20
-140.7019958496094
 30
-13.0
 70
   192
  0
VERTEX
  5
85B
  8
0
 10
-24.67300033569336
 20
-140.7019958496094
 30
-8.208999633789062
 70
   192
  0
VERTEX
  5
85C
  8
0
 10
-24.9060001373291
 20
-114.6999969482422
 30
-7.361000061035156
 70
   192
  0
VERTEX
  5
85D
  8
0
 10
-18.79899978637695
 20
-114.6999969482422
 30
-17.84799957275391
 70
   192
  0
VERTEX
  5
85E
  8
0
 10
-15.02299976348877
 20
-114.6999969482422
 30
-21.21999931335449
 70
   192
  0
VERTEX
  5
85F
  8
0
 10
-15.11800003051758
 20
-134.7389984130859
 30
-21.19599914550781
 70
   192
  0
VERTEX
  5
860
  8
0
 10
-19.44599914550781
 20
-140.7019958496094
 30
-17.26300048828125
 70
   192
  0
VERTEX
  5
861
  8
0
 10
-15.69999980926514
 20
-140.6799926757812
 30
-20.70400047302246
 70
   192
  0
VERTEX
  5
862
  8
0
 10
-22.6299991607666
 20
-166.6999969482422
 30
-12.80200004577637
 70
   192
  0
VERTEX
  5
863
  8
0
 10
-24.92200088500977
 20
-166.6999969482422
 30
-7.408999919891357
 70
   192
  0
VERTEX
  5
864
  8
0
 10
-22.49699974060059
 20
-166.6999969482422
 30
-12.98499965667725
 70
   192
  0
VERTEX
  5
865
  8
0
 10
-25.54400062561035
 20
-151.1679992675781
 30
-4.556000232696533
 70
   192
  0
VERTEX
  5
866
  8
0
 10
-25.78700065612793
 20
-140.6829986572266
 30
-3.221999883651733
 70
   192
  0
VERTEX
  5
867
  8
0
 10
-19.1879997253418
 20
-166.6999969482422
 30
-17.54500007629395
 70
   192
  0
VERTEX
  5
868
  8
0
 10
-16.75900077819824
 20
-151.4989929199219
 30
-19.80599975585938
 70
   192
  0
VERTEX
  5
869
  8
0
 10
-25.00699996948242
 20
-114.6999969482422
 30
-7.114999771118164
 70
   192
  0
VERTEX
  5
86A
  8
0
 10
-25.90800094604492
 20
-135.4369964599609
 30
-2.555000066757202
 70
   192
  0
VERTEX
  5
86B
  8
0
 10
-25.96599960327148
 20
-114.6999969482422
 30
-1.335000038146973
 70
   192
  0
VERTEX
  5
86C
  8
0
 10
-22.47200012207031
 20
-114.6999969482422
 30
-12.9680004119873
 70
   192
  0
VERTEX
  5
86D
  8
0
 10
-19.39399909973145
 20
-114.6999969482422
 30
-17.3169994354248
 70
   192
  0
VERTEX
  5
86E
  8
0
 10
-18.87700080871582
 20
-166.6999969482422
 30
-17.87899971008301
 70
   192
  0
VERTEX
  5
86F
  8
0
 10
-14.13899993896484
 20
-114.6999969482422
 30
-21.81999969482422
 70
   192
  0
VERTEX
  5
870
  8
0
 62
     9
 10
0.0
 20
0.0
 30
0.0
 70
   128
 71
     3
 72
     2
 73
     1
  0
VERTEX
  5
871
  8
0
 62
     9
 10
0.0
 20
0.0
 30
0.0
 70
   128
 71
     1
 72
     4
 73
     3
  0
VERTEX
  5
872
  8
0
 62
     9
 10
0.0
 20
0.0
 30
0.0
 70
   128
 71
     7
 72
     6
 73
     5
  0
VERTEX
  5
873
  8
0
 62
     9
 10
0.0
 20
0.0
 30
0.0
 70
   128
 71
     5
 72
     8
 73
     7
  0
VERTEX
  5
874
  8
0
 62
     9
 10
0.0
 20
0.0
 30
0.0
 70
   128
 71
     8
 72
     9
 73
     7
  0
VERTEX
  5
875
  8
0
 62
     9
 10
0.0
 20
0.0
 30
0.0
 70
   128
 71
     3
 72
    11
 73
    10
  0
VERTEX
  5
876
  8
0
 62
     9
 10
0.0
 20
0.0
 30
0.0
 70
   128
 71
    10
 72
    12
 73
     2
  0
VERTEX
  5
877
  8
0
 62
     9
 10
0.0
 20
0.0
 30
0.0
 70
   128
 71
    13
 72
    11
 73
     3
  0
VERTEX
  5
878
  8
0
 62
     9
 10
0.0
 20
0.0
 30
0.0
 70
   128
 71
     3
 72
    14
 73
    13
  0
VERTEX
  5
879
  8
0
 62
     9
 10
0.0
 20
0.0
 30
0.0
 70
   128
 71
    16
 72
     8
 73
    15
  0
VERTEX
  5
87A
  8
0
 62
     9
 10
0.0
 20
0.0
 30
0.0
 70
   128
 71
    16
 72
     9
 73
     8
  0
VERTEX
  5
87B
  8
0
 62
     9
 10
0.0
 20
0.0
 30
0.0
 70
   128
 71
     8
 72
     2
 73
    12
  0
VERTEX
  5
87C
  8
0
 62
     9
 10
0.0
 20
0.0
 30
0.0
 70
   128
 71
    12
 72
    15
 73
     8
  0
VERTEX
  5
87D
  8
0
 62
     9
 10
0.0
 20
0.0
 30
0.0
 70
   128
 71
    18
 72
     3
 73
    17
  0
VERTEX
  5
87E
  8
0
 62
     9
 10
0.0
 20
0.0
 30
0.0
 70
   128
 71
    18
 72
    14
 73
     3
  0
VERTEX
  5
87F
  8
0
 62
     9
 10
0.0
 20
0.0
 30
0.0
 70
   128
 71
    17
 72
    19
 73
    18
  0
VERTEX
  5
880
  8
0
 62
     9
 10
0.0
 20
0.0
 30
0.0
 70
   128
 71
     8
 72
    21
 73
    20
  0
VERTEX
  5
881
  8
0
 62
     9
 10
0.0
 20
0.0
 30
0.0
 70
   128
 71
    20
 72
     2
 73
     8
  0
VERTEX
  5
882
  8
0
 62
     9
 10
0.0
 20
0.0
 30
0.0
 70
   128
 71
     8
 72
     5
 73
    21
  0
VERTEX
  5
883
  8
0
 62
     9
 10
0.0
 20
0.0
 30
0.0
 70
   128
 71
     3
 72
     4
 73
    17
  0
VERTEX
  5
884
  8
0
 62
     9
 10
0.0
 20
0.0
 30
0.0
 70
   128
 71
    15
 72
    22
 73
    16
  0
VERTEX
  5
885
  8
0
 62
     9
 10
0.0
 20
0.0
 30
0.0
 70
   128
 71
    10
 72
     2
 73
     3
  0
VERTEX
  5
886
  8
0
 62
     9
 10
0.0
 20
0.0
 30
0.0
 70
   128
 71
     7
 72
    23
 73
     6
  0
VERTEX
  5
887
  8
0
 62
     9
 10
0.0
 20
0.0
 30
0.0
 70
   128
 71
     2
 72
    20
 73
     1
  0
SEQEND
  5
888
  8
0
 62
     9
  0
ENDBLK
  5
88B
  8
0
  0
BLOCK
  8
0
  2
E3_NODE_45_
 70
     0
 10
0.0
 20
0.0
 30
0.0
  3
E3_NODE_45_
  1

  0
POLYLINE
  5
88D
  8
0
 62
     9
 66
     1
 10
0.0
 20
0.0
 30
0.0
 70
    64
 71
    28
 72
    26
  0
VERTEX
  5
88E
  8
0
 10
-23.82399940490723
 20
-114.6999969482422
 30
2.898000001907349
 70
   192
  0
VERTEX
  5
88F
  8
0
 10
-22.47200012207031
 20
-114.6999969482422
 30
-12.9680004119873
 70
   192
  0
VERTEX
  5
890
  8
0
 10
-22.77899932861328
 20
-114.6999969482422
 30
-12.53400039672852
 70
   192
  0
VERTEX
  5
891
  8
0
 10
-18.79899978637695
 20
-114.6999969482422
 30
-17.84799957275391
 70
   192
  0
VERTEX
  5
892
  8
0
 10
-19.39399909973145
 20
-114.6999969482422
 30
-17.3169994354248
 70
   192
  0
VERTEX
  5
893
  8
0
 10
-9.402999877929688
 20
-114.6999969482422
 30
-22.08099937438965
 70
   192
  0
VERTEX
  5
894
  8
0
 10
-14.13899993896484
 20
-114.6999969482422
 30
-21.81999969482422
 70
   192
  0
VERTEX
  5
895
  8
0
 10
-15.02299976348877
 20
-114.6999969482422
 30
-21.21999931335449
 70
   192
  0
VERTEX
  5
896
  8
0
 10
23.82500076293945
 20
-114.6999969482422
 30
-2.894999980926514
 70
   192
  0
VERTEX
  5
897
  8
0
 10
9.402999877929688
 20
-114.6999969482422
 30
22.08099937438965
 70
   192
  0
VERTEX
  5
898
  8
0
 10
14.13899993896484
 20
-114.6999969482422
 30
21.81999969482422
 70
   192
  0
VERTEX
  5
899
  8
0
 10
-24.9060001373291
 20
-114.6999969482422
 30
-7.361000061035156
 70
   192
  0
VERTEX
  5
89A
  8
0
 10
-25.00699996948242
 20
-114.6999969482422
 30
-7.114999771118164
 70
   192
  0
VERTEX
  5
89B
  8
0
 10
-20.81999969482422
 20
-114.6999969482422
 30
11.9379997253418
 70
   192
  0
VERTEX
  5
89C
  8
0
 10
20.82099914550781
 20
-114.6999969482422
 30
-11.9370002746582
 70
   192
  0
VERTEX
  5
89D
  8
0
 10
12.00100040435791
 20
-114.6999969482422
 30
-20.78400039672852
 70
   192
  0
VERTEX
  5
89E
  8
0
 10
24.9060001373291
 20
-114.6999969482422
 30
7.361000061035156
 70
   192
  0
VERTEX
  5
89F
  8
0
 10
25.00699996948242
 20
-114.6999969482422
 30
7.113999843597412
 70
   192
  0
VERTEX
  5
8A0
  8
0
 10
22.47200012207031
 20
-114.6999969482422
 30
12.9680004119873
 70
   192
  0
VERTEX
  5
8A1
  8
0
 10
22.77899932861328
 20
-114.6999969482422
 30
12.53299999237061
 70
   192
  0
VERTEX
  5
8A2
  8
0
 10
18.79899978637695
 20
-114.6999969482422
 30
17.84799957275391
 70
   192
  0
VERTEX
  5
8A3
  8
0
 10
19.39500045776367
 20
-114.6999969482422
 30
17.31599998474121
 70
   192
  0
VERTEX
  5
8A4
  8
0
 10
15.02499961853027
 20
-114.6999969482422
 30
21.2189998626709
 70
   192
  0
VERTEX
  5
8A5
  8
0
 10
-12.0
 20
-114.6999969482422
 30
20.78499984741211
 70
   192
  0
VERTEX
  5
8A6
  8
0
 10
-25.96599960327148
 20
-114.6999969482422
 30
-1.335000038146973
 70
   192
  0
VERTEX
  5
8A7
  8
0
 10
-0.0710000023245811
 20
-114.6999969482422
 30
-24.0
 70
   192
  0
VERTEX
  5
8A8
  8
0
 10
0.0710000023245811
 20
-114.6999969482422
 30
24.0
 70
   192
  0
VERTEX
  5
8A9
  8
0
 10
25.9640007019043
 20
-114.6999969482422
 30
1.333999991416931
 70
   192
  0
VERTEX
  5
8AA
  8
0
 62
     9
 10
0.0
 20
0.0
 30
0.0
 70
   128
 71
     3
 72
     2
 73
     1
  0
VERTEX
  5
8AB
  8
0
 62
     9
 10
0.0
 20
0.0
 30
0.0
 70
   128
 71
     5
 72
     4
 73
     1
  0
VERTEX
  5
8AC
  8
0
 62
     9
 10
0.0
 20
0.0
 30
0.0
 70
   128
 71
     7
 72
     6
 73
     1
  0
VERTEX
  5
8AD
  8
0
 62
     9
 10
0.0
 20
0.0
 30
0.0
 70
   128
 71
     1
 72
     2
 73
     5
  0
VERTEX
  5
8AE
  8
0
 62
     9
 10
0.0
 20
0.0
 30
0.0
 70
   128
 71
     1
 72
     8
 73
     7
  0
VERTEX
  5
8AF
  8
0
 62
     9
 10
0.0
 20
0.0
 30
0.0
 70
   128
 71
    11
 72
    10
 73
     9
  0
VERTEX
  5
8B0
  8
0
 62
     9
 10
0.0
 20
0.0
 30
0.0
 70
   128
 71
    13
 72
    12
 73
     1
  0
VERTEX
  5
8B1
  8
0
 62
     9
 10
0.0
 20
0.0
 30
0.0
 70
   128
 71
     1
 72
     4
 73
     8
  0
VERTEX
  5
8B2
  8
0
 62
     9
 10
0.0
 20
0.0
 30
0.0
 70
   128
 71
    16
 72
    15
 73
    14
  0
VERTEX
  5
8B3
  8
0
 62
     9
 10
0.0
 20
0.0
 30
0.0
 70
   128
 71
    18
 72
    17
 73
     9
  0
VERTEX
  5
8B4
  8
0
 62
     9
 10
0.0
 20
0.0
 30
0.0
 70
   128
 71
    20
 72
    19
 73
     9
  0
VERTEX
  5
8B5
  8
0
 62
     9
 10
0.0
 20
0.0
 30
0.0
 70
   128
 71
    22
 72
    21
 73
     9
  0
VERTEX
  5
8B6
  8
0
 62
     9
 10
0.0
 20
0.0
 30
0.0
 70
   128
 71
     9
 72
    23
 73
    11
  0
VERTEX
  5
8B7
  8
0
 62
     9
 10
0.0
 20
0.0
 30
0.0
 70
   128
 71
     1
 72
    12
 73
     3
  0
VERTEX
  5
8B8
  8
0
 62
     9
 10
0.0
 20
0.0
 30
0.0
 70
   128
 71
    15
 72
     9
 73
    14
  0
VERTEX
  5
8B9
  8
0
 62
     9
 10
0.0
 20
0.0
 30
0.0
 70
   128
 71
     9
 72
    17
 73
    20
  0
VERTEX
  5
8BA
  8
0
 62
     9
 10
0.0
 20
0.0
 30
0.0
 70
   128
 71
     9
 72
    21
 73
    23
  0
VERTEX
  5
8BB
  8
0
 62
     9
 10
0.0
 20
0.0
 30
0.0
 70
   128
 71
    24
 72
    14
 73
     9
  0
VERTEX
  5
8BC
  8
0
 62
     9
 10
0.0
 20
0.0
 30
0.0
 70
   128
 71
     1
 72
    25
 73
    13
  0
VERTEX
  5
8BD
  8
0
 62
     9
 10
0.0
 20
0.0
 30
0.0
 70
   128
 71
    14
 72
    26
 73
    16
  0
VERTEX
  5
8BE
  8
0
 62
     9
 10
0.0
 20
0.0
 30
0.0
 70
   128
 71
     9
 72
    19
 73
    22
  0
VERTEX
  5
8BF
  8
0
 62
     9
 10
0.0
 20
0.0
 30
0.0
 70
   128
 71
     9
 72
    27
 73
    24
  0
VERTEX
  5
8C0
  8
0
 62
     9
 10
0.0
 20
0.0
 30
0.0
 70
   128
 71
    14
 72
     6
 73
    26
  0
VERTEX
  5
8C1
  8
0
 62
     9
 10
0.0
 20
0.0
 30
0.0
 70
   128
 71
     9
 72
    10
 73
    27
  0
VERTEX
  5
8C2
  8
0
 62
     9
 10
0.0
 20
0.0
 30
0.0
 70
   128
 71
     9
 72
    28
 73
    18
  0
VERTEX
  5
8C3
  8
0
 62
     9
 10
0.0
 20
0.0
 30
0.0
 70
   128
 71
     6
 72
    14
 73
     1
  0
SEQEND
  5
8C4
  8
0
 62
     9
  0
ENDBLK
  5
8C7
  8
0
  0
BLOCK
  8
0
  2
E3_NODE_46_
 70
     0
 10
0.0
 20
0.0
 30
0.0
  3
E3_NODE_46_
  1

  0
POLYLINE
  5
8C9
  8
0
 62
     9
 66
     1
 10
0.0
 20
0.0
 30
0.0
 70
    64
 71
    35
 72
    33
  0
VERTEX
  5
8CA
  8
0
 10
14.13899993896484
 20
-114.6999969482422
 30
21.81999969482422
 70
   192
  0
VERTEX
  5
8CB
  8
0
 10
9.402999877929688
 20
-114.6999969482422
 30
22.08099937438965
 70
   192
  0
VERTEX
  5
8CC
  8
0
 10
10.22599983215332
 20
-128.7239990234375
 30
21.71199989318848
 70
   192
  0
VERTEX
  5
8CD
  8
0
 10
11.62800025939941
 20
-140.6940002441406
 30
20.98500061035156
 70
   192
  0
VERTEX
  5
8CE
  8
0
 10
15.69999980926514
 20
-140.6799926757812
 30
20.70400047302246
 70
   192
  0
VERTEX
  5
8CF
  8
0
 10
15.11800003051758
 20
-134.7380065917969
 30
21.19700050354004
 70
   192
  0
VERTEX
  5
8D0
  8
0
 10
10.85900020599365
 20
-166.6999969482422
 30
17.38800048828125
 70
   192
  0
VERTEX
  5
8D1
  8
0
 10
18.87700080871582
 20
-166.6999969482422
 30
17.87899971008301
 70
   192
  0
VERTEX
  5
8D2
  8
0
 10
16.75900077819824
 20
-151.4969940185547
 30
19.80599975585938
 70
   192
  0
VERTEX
  5
8D3
  8
0
 10
6.388000011444092
 20
-142.6999969482422
 30
20.50699996948242
 70
   192
  0
VERTEX
  5
8D4
  8
0
 10
5.748000144958496
 20
-166.6999969482422
 30
16.21199989318848
 70
   192
  0
VERTEX
  5
8D5
  8
0
 10
11.86299991607666
 20
-142.6999969482422
 30
20.86300086975098
 70
   192
  0
VERTEX
  5
8D6
  8
0
 10
3.072999954223633
 20
-142.6999969482422
 30
19.78400039672852
 70
   192
  0
VERTEX
  5
8D7
  8
0
 10
-4.408999919891357
 20
-166.6999969482422
 30
12.52200031280518
 70
   192
  0
VERTEX
  5
8D8
  8
0
 10
3.023999929428101
 20
-166.6999969482422
 30
15.58600044250488
 70
   192
  0
VERTEX
  5
8D9
  8
0
 10
-0.3389999866485596
 20
-142.6999969482422
 30
19.03899955749512
 70
   192
  0
VERTEX
  5
8DA
  8
0
 10
-6.860000133514404
 20
-142.6999969482422
 30
16.40800094604492
 70
   192
  0
VERTEX
  5
8DB
  8
0
 10
-8.784000396728516
 20
-142.6999969482422
 30
15.22200012207031
 70
   192
  0
VERTEX
  5
8DC
  8
0
 10
-6.480999946594238
 20
-166.6999969482422
 30
11.23400020599365
 70
   192
  0
VERTEX
  5
8DD
  8
0
 10
-12.7209997177124
 20
-142.6999969482422
 30
12.79599952697754
 70
   192
  0
VERTEX
  5
8DE
  8
0
 10
-11.23700046539307
 20
-166.6999969482422
 30
8.279000282287598
 70
   192
  0
VERTEX
  5
8DF
  8
0
 10
-18.00300025939941
 20
-142.6999969482422
 30
8.154999732971191
 70
   192
  0
VERTEX
  5
8E0
  8
0
 10
-17.02400016784668
 20
-166.6999969482422
 30
3.230999946594238
 70
   192
  0
VERTEX
  5
8E1
  8
0
 10
-18.75600051879883
 20
-142.6999969482422
 30
7.309999942779541
 70
   192
  0
VERTEX
  5
8E2
  8
0
 10
-25.78700065612793
 20
-140.6829986572266
 30
-3.221999883651733
 70
   192
  0
VERTEX
  5
8E3
  8
0
 10
-25.54400062561035
 20
-151.1679992675781
 30
-4.556000232696533
 70
   192
  0
VERTEX
  5
8E4
  8
0
 10
-23.99900054931641
 20
-142.6999969482422
 30
0.1580000072717667
 70
   192
  0
VERTEX
  5
8E5
  8
0
 10
-20.00799942016602
 20
-142.6999969482422
 30
5.907000064849854
 70
   192
  0
VERTEX
  5
8E6
  8
0
 10
-22.15500068664551
 20
-166.6999969482422
 30
-2.957000017166138
 70
   192
  0
VERTEX
  5
8E7
  8
0
 10
-24.92200088500977
 20
-166.6999969482422
 30
-7.408999919891357
 70
   192
  0
VERTEX
  5
8E8
  8
0
 10
-25.96599960327148
 20
-114.6999969482422
 30
-1.335000038146973
 70
   192
  0
VERTEX
  5
8E9
  8
0
 10
-25.90800094604492
 20
-135.4369964599609
 30
-2.555000066757202
 70
   192
  0
VERTEX
  5
8EA
  8
0
 10
-23.91699981689453
 20
-128.7839965820312
 30
1.99399995803833
 70
   192
  0
VERTEX
  5
8EB
  8
0
 10
-23.98800086975098
 20
-140.6940002441406
 30
0.421999990940094
 70
   192
  0
VERTEX
  5
8EC
  8
0
 10
-23.82399940490723
 20
-114.6999969482422
 30
2.898000001907349
 70
   192
  0
VERTEX
  5
8ED
  8
0
 62
     9
 10
0.0
 20
0.0
 30
0.0
 70
   128
 71
     3
 72
     2
 73
     1
  0
VERTEX
  5
8EE
  8
0
 62
     9
 10
0.0
 20
0.0
 30
0.0
 70
   128
 71
     6
 72
     5
 73
     4
  0
VERTEX
  5
8EF
  8
0
 62
     9
 10
0.0
 20
0.0
 30
0.0
 70
   128
 71
     4
 72
     3
 73
     6
  0
VERTEX
  5
8F0
  8
0
 62
     9
 10
0.0
 20
0.0
 30
0.0
 70
   128
 71
     9
 72
     8
 73
     7
  0
VERTEX
  5
8F1
  8
0
 62
     9
 10
0.0
 20
0.0
 30
0.0
 70
   128
 71
     7
 72
    11
 73
    10
  0
VERTEX
  5
8F2
  8
0
 62
     9
 10
0.0
 20
0.0
 30
0.0
 70
   128
 71
    10
 72
    12
 73
     7
  0
VERTEX
  5
8F3
  8
0
 62
     9
 10
0.0
 20
0.0
 30
0.0
 70
   128
 71
    11
 72
    13
 73
    10
  0
VERTEX
  5
8F4
  8
0
 62
     9
 10
0.0
 20
0.0
 30
0.0
 70
   128
 71
    12
 72
     4
 73
     5
  0
VERTEX
  5
8F5
  8
0
 62
     9
 10
0.0
 20
0.0
 30
0.0
 70
   128
 71
     5
 72
     9
 73
    12
  0
VERTEX
  5
8F6
  8
0
 62
     9
 10
0.0
 20
0.0
 30
0.0
 70
   128
 71
    16
 72
    15
 73
    14
  0
VERTEX
  5
8F7
  8
0
 62
     9
 10
0.0
 20
0.0
 30
0.0
 70
   128
 71
    16
 72
    13
 73
    15
  0
VERTEX
  5
8F8
  8
0
 62
     9
 10
0.0
 20
0.0
 30
0.0
 70
   128
 71
    14
 72
    17
 73
    16
  0
VERTEX
  5
8F9
  8
0
 62
     9
 10
0.0
 20
0.0
 30
0.0
 70
   128
 71
    18
 72
    17
 73
    14
  0
VERTEX
  5
8FA
  8
0
 62
     9
 10
0.0
 20
0.0
 30
0.0
 70
   128
 71
    14
 72
    19
 73
    18
  0
VERTEX
  5
8FB
  8
0
 62
     9
 10
0.0
 20
0.0
 30
0.0
 70
   128
 71
    20
 72
    18
 73
    19
  0
VERTEX
  5
8FC
  8
0
 62
     9
 10
0.0
 20
0.0
 30
0.0
 70
   128
 71
    22
 72
    20
 73
    21
  0
VERTEX
  5
8FD
  8
0
 62
     9
 10
0.0
 20
0.0
 30
0.0
 70
   128
 71
    21
 72
    23
 73
    22
  0
VERTEX
  5
8FE
  8
0
 62
     9
 10
0.0
 20
0.0
 30
0.0
 70
   128
 71
    23
 72
    24
 73
    22
  0
VERTEX
  5
8FF
  8
0
 62
     9
 10
0.0
 20
0.0
 30
0.0
 70
   128
 71
    27
 72
    26
 73
    25
  0
VERTEX
  5
900
  8
0
 62
     9
 10
0.0
 20
0.0
 30
0.0
 70
   128
 71
    27
 72
    28
 73
    23
  0
VERTEX
  5
901
  8
0
 62
     9
 10
0.0
 20
0.0
 30
0.0
 70
   128
 71
    28
 72
    24
 73
    23
  0
VERTEX
  5
902
  8
0
 62
     9
 10
0.0
 20
0.0
 30
0.0
 70
   128
 71
    26
 72
    27
 73
    29
  0
VERTEX
  5
903
  8
0
 62
     9
 10
0.0
 20
0.0
 30
0.0
 70
   128
 71
    29
 72
    30
 73
    26
  0
VERTEX
  5
904
  8
0
 62
     9
 10
0.0
 20
0.0
 30
0.0
 70
   128
 71
    23
 72
    29
 73
    27
  0
VERTEX
  5
905
  8
0
 62
     9
 10
0.0
 20
0.0
 30
0.0
 70
   128
 71
    33
 72
    32
 73
    31
  0
VERTEX
  5
906
  8
0
 62
     9
 10
0.0
 20
0.0
 30
0.0
 70
   128
 71
    33
 72
    34
 73
    32
  0
VERTEX
  5
907
  8
0
 62
     9
 10
0.0
 20
0.0
 30
0.0
 70
   128
 71
    31
 72
    35
 73
    33
  0
VERTEX
  5
908
  8
0
 62
     9
 10
0.0
 20
0.0
 30
0.0
 70
   128
 71
    34
 72
    25
 73
    32
  0
VERTEX
  5
909
  8
0
 62
     9
 10
0.0
 20
0.0
 30
0.0
 70
   128
 71
    25
 72
    34
 73
    27
  0
VERTEX
  5
90A
  8
0
 62
     9
 10
0.0
 20
0.0
 30
0.0
 70
   128
 71
    19
 72
    21
 73
    20
  0
VERTEX
  5
90B
  8
0
 62
     9
 10
0.0
 20
0.0
 30
0.0
 70
   128
 71
    13
 72
    11
 73
    15
  0
VERTEX
  5
90C
  8
0
 62
     9
 10
0.0
 20
0.0
 30
0.0
 70
   128
 71
     7
 72
    12
 73
     9
  0
VERTEX
  5
90D
  8
0
 62
     9
 10
0.0
 20
0.0
 30
0.0
 70
   128
 71
     1
 72
     6
 73
     3
  0
SEQEND
  5
90E
  8
0
 62
     9
  0
ENDBLK
  5
911
  8
0
  0
BLOCK
  8
0
  2
E3_NODE_47_
 70
     0
 10
0.0
 20
0.0
 30
0.0
  3
E3_NODE_47_
  1

  0
POLYLINE
  5
913
  8
0
 62
     9
 66
     1
 10
0.0
 20
0.0
 30
0.0
 70
    64
 71
    14
 72
    12
  0
VERTEX
  5
914
  8
0
 10
-12.0
 20
-114.6999969482422
 30
20.78499984741211
 70
   192
  0
VERTEX
  5
915
  8
0
 10
-20.81999969482422
 20
-114.6999969482422
 30
11.9379997253418
 70
   192
  0
VERTEX
  5
916
  8
0
 10
-20.81999969482422
 20
-142.6999969482422
 30
11.9379997253418
 70
   192
  0
VERTEX
  5
917
  8
0
 10
0.0710000023245811
 20
-142.6999969482422
 30
24.0
 70
   192
  0
VERTEX
  5
918
  8
0
 10
0.0710000023245811
 20
-114.6999969482422
 30
24.0
 70
   192
  0
VERTEX
  5
919
  8
0
 10
10.22599983215332
 20
-128.7239990234375
 30
21.71199989318848
 70
   192
  0
VERTEX
  5
91A
  8
0
 10
11.86299991607666
 20
-142.6999969482422
 30
20.86300086975098
 70
   192
  0
VERTEX
  5
91B
  8
0
 10
11.62800025939941
 20
-140.6940002441406
 30
20.98500061035156
 70
   192
  0
VERTEX
  5
91C
  8
0
 10
-23.91699981689453
 20
-128.7839965820312
 30
1.99399995803833
 70
   192
  0
VERTEX
  5
91D
  8
0
 10
-23.98800086975098
 20
-140.6940002441406
 30
0.421999990940094
 70
   192
  0
VERTEX
  5
91E
  8
0
 10
-23.82399940490723
 20
-114.6999969482422
 30
2.898000001907349
 70
   192
  0
VERTEX
  5
91F
  8
0
 10
-23.99900054931641
 20
-142.6999969482422
 30
0.1580000072717667
 70
   192
  0
VERTEX
  5
920
  8
0
 10
9.402999877929688
 20
-114.6999969482422
 30
22.08099937438965
 70
   192
  0
VERTEX
  5
921
  8
0
 10
-12.0
 20
-142.6999969482422
 30
20.78499984741211
 70
   192
  0
VERTEX
  5
922
  8
0
 62
     9
 10
0.0
 20
0.0
 30
0.0
 70
   128
 71
     3
 72
     2
 73
     1
  0
VERTEX
  5
923
  8
0
 62
     9
 10
0.0
 20
0.0
 30
0.0
 70
   128
 71
     1
 72
     5
 73
     4
  0
VERTEX
  5
924
  8
0
 62
     9
 10
0.0
 20
0.0
 30
0.0
 70
   128
 71
     6
 72
     4
 73
     5
  0
VERTEX
  5
925
  8
0
 62
     9
 10
0.0
 20
0.0
 30
0.0
 70
   128
 71
     8
 72
     7
 73
     4
  0
VERTEX
  5
926
  8
0
 62
     9
 10
0.0
 20
0.0
 30
0.0
 70
   128
 71
     4
 72
     6
 73
     8
  0
VERTEX
  5
927
  8
0
 62
     9
 10
0.0
 20
0.0
 30
0.0
 70
   128
 71
    10
 72
     9
 73
     3
  0
VERTEX
  5
928
  8
0
 62
     9
 10
0.0
 20
0.0
 30
0.0
 70
   128
 71
     9
 72
    11
 73
     2
  0
VERTEX
  5
929
  8
0
 62
     9
 10
0.0
 20
0.0
 30
0.0
 70
   128
 71
     2
 72
     3
 73
     9
  0
VERTEX
  5
92A
  8
0
 62
     9
 10
0.0
 20
0.0
 30
0.0
 70
   128
 71
     3
 72
    12
 73
    10
  0
VERTEX
  5
92B
  8
0
 62
     9
 10
0.0
 20
0.0
 30
0.0
 70
   128
 71
     5
 72
    13
 73
     6
  0
VERTEX
  5
92C
  8
0
 62
     9
 10
0.0
 20
0.0
 30
0.0
 70
   128
 71
     4
 72
    14
 73
     1
  0
VERTEX
  5
92D
  8
0
 62
     9
 10
0.0
 20
0.0
 30
0.0
 70
   128
 71
     1
 72
    14
 73
     3
  0
SEQEND
  5
92E
  8
0
 62
     9
  0
ENDBLK
  5
931
  8
0
  0
BLOCK
  8
0
  2
E3_NODE_48_
 70
     0
 10
0.0
 20
0.0
 30
0.0
  3
E3_NODE_48_
  1

  0
POLYLINE
  5
933
  8
0
 62
     9
 66
     1
 10
0.0
 20
0.0
 30
0.0
 70
    64
 71
    14
 72
    12
  0
VERTEX
  5
934
  8
0
 10
-20.81999969482422
 20
-142.6999969482422
 30
11.9379997253418
 70
   192
  0
VERTEX
  5
935
  8
0
 10
-20.00799942016602
 20
-142.6999969482422
 30
5.907000064849854
 70
   192
  0
VERTEX
  5
936
  8
0
 10
-18.75600051879883
 20
-142.6999969482422
 30
7.309999942779541
 70
   192
  0
VERTEX
  5
937
  8
0
 10
-18.00300025939941
 20
-142.6999969482422
 30
8.154999732971191
 70
   192
  0
VERTEX
  5
938
  8
0
 10
-12.7209997177124
 20
-142.6999969482422
 30
12.79599952697754
 70
   192
  0
VERTEX
  5
939
  8
0
 10
-23.99900054931641
 20
-142.6999969482422
 30
0.1580000072717667
 70
   192
  0
VERTEX
  5
93A
  8
0
 10
-12.0
 20
-142.6999969482422
 30
20.78499984741211
 70
   192
  0
VERTEX
  5
93B
  8
0
 10
-8.784000396728516
 20
-142.6999969482422
 30
15.22200012207031
 70
   192
  0
VERTEX
  5
93C
  8
0
 10
0.0710000023245811
 20
-142.6999969482422
 30
24.0
 70
   192
  0
VERTEX
  5
93D
  8
0
 10
-0.3389999866485596
 20
-142.6999969482422
 30
19.03899955749512
 70
   192
  0
VERTEX
  5
93E
  8
0
 10
3.072999954223633
 20
-142.6999969482422
 30
19.78400039672852
 70
   192
  0
VERTEX
  5
93F
  8
0
 10
-6.860000133514404
 20
-142.6999969482422
 30
16.40800094604492
 70
   192
  0
VERTEX
  5
940
  8
0
 10
6.388000011444092
 20
-142.6999969482422
 30
20.50699996948242
 70
   192
  0
VERTEX
  5
941
  8
0
 10
11.86299991607666
 20
-142.6999969482422
 30
20.86300086975098
 70
   192
  0
VERTEX
  5
942
  8
0
 62
     9
 10
0.0
 20
0.0
 30
0.0
 70
   128
 71
     3
 72
     2
 73
     1
  0
VERTEX
  5
943
  8
0
 62
     9
 10
0.0
 20
0.0
 30
0.0
 70
   128
 71
     5
 72
     4
 73
     1
  0
VERTEX
  5
944
  8
0
 62
     9
 10
0.0
 20
0.0
 30
0.0
 70
   128
 71
     2
 72
     6
 73
     1
  0
VERTEX
  5
945
  8
0
 62
     9
 10
0.0
 20
0.0
 30
0.0
 70
   128
 71
     8
 72
     5
 73
     7
  0
VERTEX
  5
946
  8
0
 62
     9
 10
0.0
 20
0.0
 30
0.0
 70
   128
 71
     1
 72
     4
 73
     3
  0
VERTEX
  5
947
  8
0
 62
     9
 10
0.0
 20
0.0
 30
0.0
 70
   128
 71
    11
 72
    10
 73
     9
  0
VERTEX
  5
948
  8
0
 62
     9
 10
0.0
 20
0.0
 30
0.0
 70
   128
 71
    12
 72
     7
 73
     9
  0
VERTEX
  5
949
  8
0
 62
     9
 10
0.0
 20
0.0
 30
0.0
 70
   128
 71
     1
 72
     7
 73
     5
  0
VERTEX
  5
94A
  8
0
 62
     9
 10
0.0
 20
0.0
 30
0.0
 70
   128
 71
     9
 72
    13
 73
    11
  0
VERTEX
  5
94B
  8
0
 62
     9
 10
0.0
 20
0.0
 30
0.0
 70
   128
 71
     7
 72
    12
 73
     8
  0
VERTEX
  5
94C
  8
0
 62
     9
 10
0.0
 20
0.0
 30
0.0
 70
   128
 71
     9
 72
    10
 73
    12
  0
VERTEX
  5
94D
  8
0
 62
     9
 10
0.0
 20
0.0
 30
0.0
 70
   128
 71
     9
 72
    14
 73
    13
  0
SEQEND
  5
94E
  8
0
 62
     9
  0
ENDBLK
  5
951
  8
0
  0
BLOCK
  8
0
  2
E3_NODE_49_
 70
     0
 10
0.0
 20
0.0
 30
0.0
  3
E3_NODE_49_
  1

  0
POLYLINE
  5
953
  8
0
 62
     9
 66
     1
 10
0.0
 20
0.0
 30
0.0
 70
    64
 71
     4
 72
     2
  0
VERTEX
  5
954
  8
0
 10
18.71299934387207
 20
121.0999984741211
 30
16.57799911499023
 70
   192
  0
VERTEX
  5
955
  8
0
 10
23.71299934387207
 20
121.0999984741211
 30
7.916999816894531
 70
   192
  0
VERTEX
  5
956
  8
0
 10
27.32900047302246
 20
121.0999984741211
 30
10.00500011444092
 70
   192
  0
VERTEX
  5
957
  8
0
 10
22.32900047302246
 20
121.0999984741211
 30
18.66500091552734
 70
   192
  0
VERTEX
  5
958
  8
0
 62
     9
 10
0.0
 20
0.0
 30
0.0
 70
   128
 71
     3
 72
     2
 73
     1
  0
VERTEX
  5
959
  8
0
 62
     9
 10
0.0
 20
0.0
 30
0.0
 70
   128
 71
     1
 72
     4
 73
     3
  0
SEQEND
  5
95A
  8
0
 62
     9
  0
ENDBLK
  5
95D
  8
0
  0
BLOCK
  8
0
  2
E3_NODE_50_
 70
     0
 10
0.0
 20
0.0
 30
0.0
  3
E3_NODE_50_
  1

  0
POLYLINE
  5
95F
  8
0
 62
     9
 66
     1
 10
0.0
 20
0.0
 30
0.0
 70
    64
 71
    13
 72
    11
  0
VERTEX
  5
960
  8
0
 10
28.3169994354248
 20
136.4900054931641
 30
10.57499980926514
 70
   192
  0
VERTEX
  5
961
  8
0
 10
23.37599945068359
 20
136.4819946289062
 30
19.26899909973145
 70
   192
  0
VERTEX
  5
962
  8
0
 10
22.51399993896484
 20
127.1920013427734
 30
18.77199935913086
 70
   192
  0
VERTEX
  5
963
  8
0
 10
27.41900062561035
 20
125.0009994506836
 30
10.05700016021729
 70
   192
  0
VERTEX
  5
964
  8
0
 10
27.32900047302246
 20
121.0999984741211
 30
10.00500011444092
 70
   192
  0
VERTEX
  5
965
  8
0
 10
22.41900062561035
 20
125.0009994506836
 30
18.71699905395508
 70
   192
  0
VERTEX
  5
966
  8
0
 10
22.32900047302246
 20
121.0999984741211
 30
18.66500091552734
 70
   192
  0
VERTEX
  5
967
  8
0
 10
28.38800048828125
 20
137.406005859375
 30
10.61600017547607
 70
   192
  0
VERTEX
  5
968
  8
0
 10
30.37800025939941
 20
149.60400390625
 30
11.76500034332275
 70
   192
  0
VERTEX
  5
969
  8
0
 10
30.81599998474121
 20
151.6519927978516
 30
12.01799964904785
 70
   192
  0
VERTEX
  5
96A
  8
0
 10
28.64500045776367
 20
151.6519927978516
 30
16.53800010681152
 70
   192
  0
VERTEX
  5
96B
  8
0
 10
25.81599998474121
 20
151.6519927978516
 30
20.67799949645996
 70
   192
  0
VERTEX
  5
96C
  8
0
 10
23.65500068664551
 20
139.4980010986328
 30
19.43099975585938
 70
   192
  0
VERTEX
  5
96D
  8
0
 62
     9
 10
0.0
 20
0.0
 30
0.0
 70
   128
 71
     3
 72
     2
 73
     1
  0
VERTEX
  5
96E
  8
0
 62
     9
 10
0.0
 20
0.0
 30
0.0
 70
   128
 71
     1
 72
     4
 73
     3
  0
VERTEX
  5
96F
  8
0
 62
     9
 10
0.0
 20
0.0
 30
0.0
 70
   128
 71
     6
 72
     4
 73
     5
  0
VERTEX
  5
970
  8
0
 62
     9
 10
0.0
 20
0.0
 30
0.0
 70
   128
 71
     5
 72
     7
 73
     6
  0
VERTEX
  5
971
  8
0
 62
     9
 10
0.0
 20
0.0
 30
0.0
 70
   128
 71
     8
 72
     1
 73
     2
  0
VERTEX
  5
972
  8
0
 62
     9
 10
0.0
 20
0.0
 30
0.0
 70
   128
 71
    11
 72
    10
 73
     9
  0
VERTEX
  5
973
  8
0
 62
     9
 10
0.0
 20
0.0
 30
0.0
 70
   128
 71
    13
 72
    12
 73
     9
  0
VERTEX
  5
974
  8
0
 62
     9
 10
0.0
 20
0.0
 30
0.0
 70
   128
 71
     9
 72
     8
 73
    13
  0
VERTEX
  5
975
  8
0
 62
     9
 10
0.0
 20
0.0
 30
0.0
 70
   128
 71
     9
 72
    12
 73
    11
  0
VERTEX
  5
976
  8
0
 62
     9
 10
0.0
 20
0.0
 30
0.0
 70
   128
 71
     2
 72
    13
 73
     8
  0
VERTEX
  5
977
  8
0
 62
     9
 10
0.0
 20
0.0
 30
0.0
 70
   128
 71
     4
 72
     6
 73
     3
  0
SEQEND
  5
978
  8
0
 62
     9
  0
ENDBLK
  5
97B
  8
0
  0
BLOCK
  8
0
  2
E3_NODE_51_
 70
     0
 10
0.0
 20
0.0
 30
0.0
  3
E3_NODE_51_
  1

  0
POLYLINE
  5
97D
  8
0
 62
     9
 66
     1
 10
0.0
 20
0.0
 30
0.0
 70
    64
 71
    11
 72
     9
  0
VERTEX
  5
97E
  8
0
 10
23.65500068664551
 20
139.4980010986328
 30
19.43099975585938
 70
   192
  0
VERTEX
  5
97F
  8
0
 10
25.81599998474121
 20
151.6519927978516
 30
20.67799949645996
 70
   192
  0
VERTEX
  5
980
  8
0
 10
25.06100082397461
 20
151.9170074462891
 30
20.24300003051758
 70
   192
  0
VERTEX
  5
981
  8
0
 10
18.71299934387207
 20
121.0999984741211
 30
16.57799911499023
 70
   192
  0
VERTEX
  5
982
  8
0
 10
22.51399993896484
 20
127.1920013427734
 30
18.77199935913086
 70
   192
  0
VERTEX
  5
983
  8
0
 10
23.37599945068359
 20
136.4819946289062
 30
19.26899909973145
 70
   192
  0
VERTEX
  5
984
  8
0
 10
20.79199981689453
 20
152.6820068359375
 30
17.77799987792969
 70
   192
  0
VERTEX
  5
985
  8
0
 10
18.71299934387207
 20
152.6959991455078
 30
16.57799911499023
 70
   192
  0
VERTEX
  5
986
  8
0
 10
22.32900047302246
 20
121.0999984741211
 30
18.66500091552734
 70
   192
  0
VERTEX
  5
987
  8
0
 10
22.41900062561035
 20
125.0009994506836
 30
18.71699905395508
 70
   192
  0
VERTEX
  5
988
  8
0
 10
20.14599990844727
 20
152.6959991455078
 30
17.40500068664551
 70
   192
  0
VERTEX
  5
989
  8
0
 62
     9
 10
0.0
 20
0.0
 30
0.0
 70
   128
 71
     3
 72
     2
 73
     1
  0
VERTEX
  5
98A
  8
0
 62
     9
 10
0.0
 20
0.0
 30
0.0
 70
   128
 71
     6
 72
     5
 73
     4
  0
VERTEX
  5
98B
  8
0
 62
     9
 10
0.0
 20
0.0
 30
0.0
 70
   128
 71
     1
 72
     7
 73
     3
  0
VERTEX
  5
98C
  8
0
 62
     9
 10
0.0
 20
0.0
 30
0.0
 70
   128
 71
     4
 72
     8
 73
     6
  0
VERTEX
  5
98D
  8
0
 62
     9
 10
0.0
 20
0.0
 30
0.0
 70
   128
 71
    10
 72
     9
 73
     4
  0
VERTEX
  5
98E
  8
0
 62
     9
 10
0.0
 20
0.0
 30
0.0
 70
   128
 71
     1
 72
    11
 73
     7
  0
VERTEX
  5
98F
  8
0
 62
     9
 10
0.0
 20
0.0
 30
0.0
 70
   128
 71
     4
 72
     5
 73
    10
  0
VERTEX
  5
990
  8
0
 62
     9
 10
0.0
 20
0.0
 30
0.0
 70
   128
 71
     8
 72
     1
 73
     6
  0
VERTEX
  5
991
  8
0
 62
     9
 10
0.0
 20
0.0
 30
0.0
 70
   128
 71
     1
 72
     8
 73
    11
  0
SEQEND
  5
992
  8
0
 62
     9
  0
ENDBLK
  5
995
  8
0
  0
BLOCK
  8
0
  2
E3_NODE_52_
 70
     0
 10
0.0
 20
0.0
 30
0.0
  3
E3_NODE_52_
  1

  0
POLYLINE
  5
997
  8
0
 62
     9
 66
     1
 10
0.0
 20
0.0
 30
0.0
 70
    64
 71
    11
 72
     9
  0
VERTEX
  5
998
  8
0
 10
30.37800025939941
 20
149.60400390625
 30
11.76500034332275
 70
   192
  0
VERTEX
  5
999
  8
0
 10
25.79199981689453
 20
152.6820068359375
 30
9.116999626159668
 70
   192
  0
VERTEX
  5
99A
  8
0
 10
29.76499938964844
 20
152.0099945068359
 30
11.41100025177002
 70
   192
  0
VERTEX
  5
99B
  8
0
 10
23.71299934387207
 20
121.0999984741211
 30
7.916999816894531
 70
   192
  0
VERTEX
  5
99C
  8
0
 10
23.71299934387207
 20
152.6959991455078
 30
7.916999816894531
 70
   192
  0
VERTEX
  5
99D
  8
0
 10
28.3169994354248
 20
136.4900054931641
 30
10.57499980926514
 70
   192
  0
VERTEX
  5
99E
  8
0
 10
25.14599990844727
 20
152.6959991455078
 30
8.744000434875488
 70
   192
  0
VERTEX
  5
99F
  8
0
 10
28.38800048828125
 20
137.406005859375
 30
10.61600017547607
 70
   192
  0
VERTEX
  5
9A0
  8
0
 10
27.41900062561035
 20
125.0009994506836
 30
10.05700016021729
 70
   192
  0
VERTEX
  5
9A1
  8
0
 10
30.81599998474121
 20
151.6519927978516
 30
12.01799964904785
 70
   192
  0
VERTEX
  5
9A2
  8
0
 10
27.32900047302246
 20
121.0999984741211
 30
10.00500011444092
 70
   192
  0
VERTEX
  5
9A3
  8
0
 62
     9
 10
0.0
 20
0.0
 30
0.0
 70
   128
 71
     3
 72
     2
 73
     1
  0
VERTEX
  5
9A4
  8
0
 62
     9
 10
0.0
 20
0.0
 30
0.0
 70
   128
 71
     6
 72
     5
 73
     4
  0
VERTEX
  5
9A5
  8
0
 62
     9
 10
0.0
 20
0.0
 30
0.0
 70
   128
 71
     2
 72
     7
 73
     1
  0
VERTEX
  5
9A6
  8
0
 62
     9
 10
0.0
 20
0.0
 30
0.0
 70
   128
 71
     6
 72
     8
 73
     5
  0
VERTEX
  5
9A7
  8
0
 62
     9
 10
0.0
 20
0.0
 30
0.0
 70
   128
 71
     7
 72
     5
 73
     1
  0
VERTEX
  5
9A8
  8
0
 62
     9
 10
0.0
 20
0.0
 30
0.0
 70
   128
 71
     4
 72
     9
 73
     6
  0
VERTEX
  5
9A9
  8
0
 62
     9
 10
0.0
 20
0.0
 30
0.0
 70
   128
 71
     1
 72
    10
 73
     3
  0
VERTEX
  5
9AA
  8
0
 62
     9
 10
0.0
 20
0.0
 30
0.0
 70
   128
 71
     5
 72
     8
 73
     1
  0
VERTEX
  5
9AB
  8
0
 62
     9
 10
0.0
 20
0.0
 30
0.0
 70
   128
 71
     4
 72
    11
 73
     9
  0
SEQEND
  5
9AC
  8
0
 62
     9
  0
ENDBLK
  5
9AF
  8
0
  0
BLOCK
  8
0
  2
E3_NODE_53_
 70
     0
 10
0.0
 20
0.0
 30
0.0
  3
E3_NODE_53_
  1

  0
POLYLINE
  5
9B1
  8
0
 62
     9
 66
     1
 10
0.0
 20
0.0
 30
0.0
 70
    64
 71
    10
 72
     8
  0
VERTEX
  5
9B2
  8
0
 10
23.05599975585938
 20
152.6959991455078
 30
13.31099987030029
 70
   192
  0
VERTEX
  5
9B3
  8
0
 10
20.79199981689453
 20
152.6820068359375
 30
17.77799987792969
 70
   192
  0
VERTEX
  5
9B4
  8
0
 10
25.06100082397461
 20
151.9170074462891
 30
20.24300003051758
 70
   192
  0
VERTEX
  5
9B5
  8
0
 10
20.14599990844727
 20
152.6959991455078
 30
17.40500068664551
 70
   192
  0
VERTEX
  5
9B6
  8
0
 10
28.64500045776367
 20
151.6519927978516
 30
16.53800010681152
 70
   192
  0
VERTEX
  5
9B7
  8
0
 10
29.76499938964844
 20
152.0099945068359
 30
11.41100025177002
 70
   192
  0
VERTEX
  5
9B8
  8
0
 10
25.79199981689453
 20
152.6820068359375
 30
9.116999626159668
 70
   192
  0
VERTEX
  5
9B9
  8
0
 10
30.81599998474121
 20
151.6519927978516
 30
12.01799964904785
 70
   192
  0
VERTEX
  5
9BA
  8
0
 10
25.14599990844727
 20
152.6959991455078
 30
8.744000434875488
 70
   192
  0
VERTEX
  5
9BB
  8
0
 10
25.81599998474121
 20
151.6519927978516
 30
20.67799949645996
 70
   192
  0
VERTEX
  5
9BC
  8
0
 62
     9
 10
0.0
 20
0.0
 30
0.0
 70
   128
 71
     3
 72
     2
 73
     1
  0
VERTEX
  5
9BD
  8
0
 62
     9
 10
0.0
 20
0.0
 30
0.0
 70
   128
 71
     2
 72
     4
 73
     1
  0
VERTEX
  5
9BE
  8
0
 62
     9
 10
0.0
 20
0.0
 30
0.0
 70
   128
 71
     1
 72
     5
 73
     3
  0
VERTEX
  5
9BF
  8
0
 62
     9
 10
0.0
 20
0.0
 30
0.0
 70
   128
 71
     6
 72
     5
 73
     1
  0
VERTEX
  5
9C0
  8
0
 62
     9
 10
0.0
 20
0.0
 30
0.0
 70
   128
 71
     1
 72
     7
 73
     6
  0
VERTEX
  5
9C1
  8
0
 62
     9
 10
0.0
 20
0.0
 30
0.0
 70
   128
 71
     6
 72
     8
 73
     5
  0
VERTEX
  5
9C2
  8
0
 62
     9
 10
0.0
 20
0.0
 30
0.0
 70
   128
 71
     1
 72
     9
 73
     7
  0
VERTEX
  5
9C3
  8
0
 62
     9
 10
0.0
 20
0.0
 30
0.0
 70
   128
 71
     5
 72
    10
 73
     3
  0
SEQEND
  5
9C4
  8
0
 62
     9
  0
ENDBLK
  5
9C7
  8
0
  0
BLOCK
  8
0
  2
E3_NODE_54_
 70
     0
 10
0.0
 20
0.0
 30
0.0
  3
E3_NODE_54_
  1

  0
POLYLINE
  5
9C9
  8
0
 62
     9
 66
     1
 10
0.0
 20
0.0
 30
0.0
 70
    64
 71
     5
 72
     3
  0
VERTEX
  5
9CA
  8
0
 10
23.71299934387207
 20
152.6959991455078
 30
7.916999816894531
 70
   192
  0
VERTEX
  5
9CB
  8
0
 10
18.71299934387207
 20
152.6959991455078
 30
16.57799911499023
 70
   192
  0
VERTEX
  5
9CC
  8
0
 10
23.05599975585938
 20
152.6959991455078
 30
13.31099987030029
 70
   192
  0
VERTEX
  5
9CD
  8
0
 10
20.14599990844727
 20
152.6959991455078
 30
17.40500068664551
 70
   192
  0
VERTEX
  5
9CE
  8
0
 10
25.14599990844727
 20
152.6959991455078
 30
8.744000434875488
 70
   192
  0
VERTEX
  5
9CF
  8
0
 62
     9
 10
0.0
 20
0.0
 30
0.0
 70
   128
 71
     3
 72
     2
 73
     1
  0
VERTEX
  5
9D0
  8
0
 62
     9
 10
0.0
 20
0.0
 30
0.0
 70
   128
 71
     3
 72
     4
 73
     2
  0
VERTEX
  5
9D1
  8
0
 62
     9
 10
0.0
 20
0.0
 30
0.0
 70
   128
 71
     1
 72
     5
 73
     3
  0
SEQEND
  5
9D2
  8
0
 62
     9
  0
ENDBLK
  5
9D5
  8
0
  0
BLOCK
  8
0
  2
E3_NODE_55_
 70
     0
 10
0.0
 20
0.0
 30
0.0
  3
E3_NODE_55_
  1

  0
POLYLINE
  5
9D7
  8
0
 62
     9
 66
     1
 10
0.0
 20
0.0
 30
0.0
 70
    64
 71
    21
 72
    21
  0
VERTEX
  5
9D8
  8
0
 10
16.30200004577637
 20
114.0
 30
11.8439998626709
 70
   192
  0
VERTEX
  5
9D9
  8
0
 10
20.14999961853027
 20
114.0
 30
0.0
 70
   192
  0
VERTEX
  5
9DA
  8
0
 10
20.14999961853027
 20
117.5
 30
0.0
 70
   192
  0
VERTEX
  5
9DB
  8
0
 10
6.22700023651123
 20
117.5
 30
19.16399955749512
 70
   192
  0
VERTEX
  5
9DC
  8
0
 10
6.22700023651123
 20
114.0
 30
19.16399955749512
 70
   192
  0
VERTEX
  5
9DD
  8
0
 10
-6.22700023651123
 20
114.0
 30
19.16399955749512
 70
   192
  0
VERTEX
  5
9DE
  8
0
 10
0.0
 20
117.5
 30
20.14999961853027
 70
   192
  0
VERTEX
  5
9DF
  8
0
 10
-16.30200004577637
 20
117.5
 30
11.8439998626709
 70
   192
  0
VERTEX
  5
9E0
  8
0
 10
-16.30200004577637
 20
114.0
 30
11.8439998626709
 70
   192
  0
VERTEX
  5
9E1
  8
0
 10
-20.14999961853027
 20
117.5
 30
0.0
 70
   192
  0
VERTEX
  5
9E2
  8
0
 10
-16.30200004577637
 20
117.5
 30
-11.8439998626709
 70
   192
  0
VERTEX
  5
9E3
  8
0
 10
-16.30200004577637
 20
114.0
 30
-11.8439998626709
 70
   192
  0
VERTEX
  5
9E4
  8
0
 10
-20.14999961853027
 20
114.0
 30
0.0
 70
   192
  0
VERTEX
  5
9E5
  8
0
 10
-6.22700023651123
 20
117.5
 30
-19.16399955749512
 70
   192
  0
VERTEX
  5
9E6
  8
0
 10
-6.22700023651123
 20
114.0
 30
-19.16399955749512
 70
   192
  0
VERTEX
  5
9E7
  8
0
 10
6.22700023651123
 20
117.5
 30
-19.16399955749512
 70
   192
  0
VERTEX
  5
9E8
  8
0
 10
6.22700023651123
 20
114.0
 30
-19.16399955749512
 70
   192
  0
VERTEX
  5
9E9
  8
0
 10
16.30200004577637
 20
117.5
 30
-11.8439998626709
 70
   192
  0
VERTEX
  5
9EA
  8
0
 10
16.30200004577637
 20
114.0
 30
-11.8439998626709
 70
   192
  0
VERTEX
  5
9EB
  8
0
 10
-6.22700023651123
 20
117.5
 30
19.16399955749512
 70
   192
  0
VERTEX
  5
9EC
  8
0
 10
16.30200004577637
 20
117.5
 30
11.8439998626709
 70
   192
  0
VERTEX
  5
9ED
  8
0
 62
     9
 10
0.0
 20
0.0
 30
0.0
 70
   128
 71
     3
 72
     2
 73
     1
  0
VERTEX
  5
9EE
  8
0
 62
     9
 10
0.0
 20
0.0
 30
0.0
 70
   128
 71
     1
 72
     5
 73
     4
  0
VERTEX
  5
9EF
  8
0
 62
     9
 10
0.0
 20
0.0
 30
0.0
 70
   128
 71
     7
 72
     5
 73
     6
  0
VERTEX
  5
9F0
  8
0
 62
     9
 10
0.0
 20
0.0
 30
0.0
 70
   128
 71
     7
 72
     4
 73
     5
  0
VERTEX
  5
9F1
  8
0
 62
     9
 10
0.0
 20
0.0
 30
0.0
 70
   128
 71
     6
 72
     9
 73
     8
  0
VERTEX
  5
9F2
  8
0
 62
     9
 10
0.0
 20
0.0
 30
0.0
 70
   128
 71
    10
 72
     8
 73
     9
  0
VERTEX
  5
9F3
  8
0
 62
     9
 10
0.0
 20
0.0
 30
0.0
 70
   128
 71
    13
 72
    12
 73
    11
  0
VERTEX
  5
9F4
  8
0
 62
     9
 10
0.0
 20
0.0
 30
0.0
 70
   128
 71
    12
 72
    15
 73
    14
  0
VERTEX
  5
9F5
  8
0
 62
     9
 10
0.0
 20
0.0
 30
0.0
 70
   128
 71
    15
 72
    17
 73
    16
  0
VERTEX
  5
9F6
  8
0
 62
     9
 10
0.0
 20
0.0
 30
0.0
 70
   128
 71
    17
 72
    19
 73
    18
  0
VERTEX
  5
9F7
  8
0
 62
     9
 10
0.0
 20
0.0
 30
0.0
 70
   128
 71
     2
 72
     3
 73
    18
  0
VERTEX
  5
9F8
  8
0
 62
     9
 10
0.0
 20
0.0
 30
0.0
 70
   128
 71
    18
 72
    19
 73
     2
  0
VERTEX
  5
9F9
  8
0
 62
     9
 10
0.0
 20
0.0
 30
0.0
 70
   128
 71
    18
 72
    16
 73
    17
  0
VERTEX
  5
9FA
  8
0
 62
     9
 10
0.0
 20
0.0
 30
0.0
 70
   128
 71
    16
 72
    14
 73
    15
  0
VERTEX
  5
9FB
  8
0
 62
     9
 10
0.0
 20
0.0
 30
0.0
 70
   128
 71
    14
 72
    11
 73
    12
  0
VERTEX
  5
9FC
  8
0
 62
     9
 10
0.0
 20
0.0
 30
0.0
 70
   128
 71
    11
 72
    10
 73
    13
  0
VERTEX
  5
9FD
  8
0
 62
     9
 10
0.0
 20
0.0
 30
0.0
 70
   128
 71
     9
 72
    13
 73
    10
  0
VERTEX
  5
9FE
  8
0
 62
     9
 10
0.0
 20
0.0
 30
0.0
 70
   128
 71
     8
 72
    20
 73
     6
  0
VERTEX
  5
9FF
  8
0
 62
     9
 10
0.0
 20
0.0
 30
0.0
 70
   128
 71
     6
 72
    20
 73
     7
  0
VERTEX
  5
A00
  8
0
 62
     9
 10
0.0
 20
0.0
 30
0.0
 70
   128
 71
     4
 72
    21
 73
     1
  0
VERTEX
  5
A01
  8
0
 62
     9
 10
0.0
 20
0.0
 30
0.0
 70
   128
 71
     1
 72
    21
 73
     3
  0
SEQEND
  5
A02
  8
0
 62
     9
  0
ENDBLK
  5
A05
  8
0
  0
BLOCK
  8
0
  2
E3_NODE_56_
 70
     0
 10
0.0
 20
0.0
 30
0.0
  3
E3_NODE_56_
  1

  0
POLYLINE
  5
A07
  8
0
 62
     9
 66
     1
 10
0.0
 20
0.0
 30
0.0
 70
    64
 71
    21
 72
    21
  0
VERTEX
  5
A08
  8
0
 10
-3.415999889373779
 20
114.0
 30
23.75600051879883
 70
   192
  0
VERTEX
  5
A09
  8
0
 10
9.970000267028809
 20
114.0
 30
21.83099937438965
 70
   192
  0
VERTEX
  5
A0A
  8
0
 10
6.22700023651123
 20
114.0
 30
19.16399955749512
 70
   192
  0
VERTEX
  5
A0B
  8
0
 10
20.19000053405762
 20
114.0
 30
12.97500038146973
 70
   192
  0
VERTEX
  5
A0C
  8
0
 10
16.30200004577637
 20
114.0
 30
11.8439998626709
 70
   192
  0
VERTEX
  5
A0D
  8
0
 10
24.0
 20
114.0
 30
0.0
 70
   192
  0
VERTEX
  5
A0E
  8
0
 10
20.14999961853027
 20
114.0
 30
0.0
 70
   192
  0
VERTEX
  5
A0F
  8
0
 10
-3.415999889373779
 20
114.0
 30
-23.75600051879883
 70
   192
  0
VERTEX
  5
A10
  8
0
 10
-6.22700023651123
 20
114.0
 30
-19.16399955749512
 70
   192
  0
VERTEX
  5
A11
  8
0
 10
6.22700023651123
 20
114.0
 30
-19.16399955749512
 70
   192
  0
VERTEX
  5
A12
  8
0
 10
-15.71700000762939
 20
114.0
 30
-18.13800048828125
 70
   192
  0
VERTEX
  5
A13
  8
0
 10
-16.30200004577637
 20
114.0
 30
-11.8439998626709
 70
   192
  0
VERTEX
  5
A14
  8
0
 10
-23.02799987792969
 20
114.0
 30
-6.76200008392334
 70
   192
  0
VERTEX
  5
A15
  8
0
 10
-20.14999961853027
 20
114.0
 30
0.0
 70
   192
  0
VERTEX
  5
A16
  8
0
 10
20.19000053405762
 20
114.0
 30
-12.97500038146973
 70
   192
  0
VERTEX
  5
A17
  8
0
 10
16.30200004577637
 20
114.0
 30
-11.8439998626709
 70
   192
  0
VERTEX
  5
A18
  8
0
 10
9.970000267028809
 20
114.0
 30
-21.83099937438965
 70
   192
  0
VERTEX
  5
A19
  8
0
 10
-23.02799987792969
 20
114.0
 30
6.76200008392334
 70
   192
  0
VERTEX
  5
A1A
  8
0
 10
-15.71700000762939
 20
114.0
 30
18.13800048828125
 70
   192
  0
VERTEX
  5
A1B
  8
0
 10
-16.30200004577637
 20
114.0
 30
11.8439998626709
 70
   192
  0
VERTEX
  5
A1C
  8
0
 10
-6.22700023651123
 20
114.0
 30
19.16399955749512
 70
   192
  0
VERTEX
  5
A1D
  8
0
 62
     9
 10
0.0
 20
0.0
 30
0.0
 70
   128
 71
     3
 72
     2
 73
     1
  0
VERTEX
  5
A1E
  8
0
 62
     9
 10
0.0
 20
0.0
 30
0.0
 70
   128
 71
     5
 72
     4
 73
     2
  0
VERTEX
  5
A1F
  8
0
 62
     9
 10
0.0
 20
0.0
 30
0.0
 70
   128
 71
     2
 72
     3
 73
     5
  0
VERTEX
  5
A20
  8
0
 62
     9
 10
0.0
 20
0.0
 30
0.0
 70
   128
 71
     7
 72
     6
 73
     4
  0
VERTEX
  5
A21
  8
0
 62
     9
 10
0.0
 20
0.0
 30
0.0
 70
   128
 71
    10
 72
     9
 73
     8
  0
VERTEX
  5
A22
  8
0
 62
     9
 10
0.0
 20
0.0
 30
0.0
 70
   128
 71
     9
 72
    12
 73
    11
  0
VERTEX
  5
A23
  8
0
 62
     9
 10
0.0
 20
0.0
 30
0.0
 70
   128
 71
    12
 72
    14
 73
    13
  0
VERTEX
  5
A24
  8
0
 62
     9
 10
0.0
 20
0.0
 30
0.0
 70
   128
 71
     4
 72
     5
 73
     7
  0
VERTEX
  5
A25
  8
0
 62
     9
 10
0.0
 20
0.0
 30
0.0
 70
   128
 71
     7
 72
    16
 73
    15
  0
VERTEX
  5
A26
  8
0
 62
     9
 10
0.0
 20
0.0
 30
0.0
 70
   128
 71
    16
 72
    10
 73
    17
  0
VERTEX
  5
A27
  8
0
 62
     9
 10
0.0
 20
0.0
 30
0.0
 70
   128
 71
    11
 72
     8
 73
     9
  0
VERTEX
  5
A28
  8
0
 62
     9
 10
0.0
 20
0.0
 30
0.0
 70
   128
 71
    14
 72
    18
 73
    13
  0
VERTEX
  5
A29
  8
0
 62
     9
 10
0.0
 20
0.0
 30
0.0
 70
   128
 71
    20
 72
    19
 73
    18
  0
VERTEX
  5
A2A
  8
0
 62
     9
 10
0.0
 20
0.0
 30
0.0
 70
   128
 71
    15
 72
     6
 73
     7
  0
VERTEX
  5
A2B
  8
0
 62
     9
 10
0.0
 20
0.0
 30
0.0
 70
   128
 71
     8
 72
    17
 73
    10
  0
VERTEX
  5
A2C
  8
0
 62
     9
 10
0.0
 20
0.0
 30
0.0
 70
   128
 71
    18
 72
    14
 73
    20
  0
VERTEX
  5
A2D
  8
0
 62
     9
 10
0.0
 20
0.0
 30
0.0
 70
   128
 71
    21
 72
     1
 73
    19
  0
VERTEX
  5
A2E
  8
0
 62
     9
 10
0.0
 20
0.0
 30
0.0
 70
   128
 71
    17
 72
    15
 73
    16
  0
VERTEX
  5
A2F
  8
0
 62
     9
 10
0.0
 20
0.0
 30
0.0
 70
   128
 71
    19
 72
    20
 73
    21
  0
VERTEX
  5
A30
  8
0
 62
     9
 10
0.0
 20
0.0
 30
0.0
 70
   128
 71
    13
 72
    11
 73
    12
  0
VERTEX
  5
A31
  8
0
 62
     9
 10
0.0
 20
0.0
 30
0.0
 70
   128
 71
     1
 72
    21
 73
     3
  0
SEQEND
  5
A32
  8
0
 62
     9
  0
ENDBLK
  5
A35
  8
0
  0
BLOCK
  8
0
  2
E3_NODE_57_
 70
     0
 10
0.0
 20
0.0
 30
0.0
  3
E3_NODE_57_
  1

  0
POLYLINE
  5
A37
  8
0
 62
     9
 66
     1
 10
0.0
 20
0.0
 30
0.0
 70
    64
 71
    22
 72
    22
  0
VERTEX
  5
A38
  8
0
 10
20.19000053405762
 20
106.0
 30
12.97500038146973
 70
   192
  0
VERTEX
  5
A39
  8
0
 10
24.0
 20
106.0
 30
0.0
 70
   192
  0
VERTEX
  5
A3A
  8
0
 10
24.0
 20
114.0
 30
0.0
 70
   192
  0
VERTEX
  5
A3B
  8
0
 10
9.970000267028809
 20
114.0
 30
21.83099937438965
 70
   192
  0
VERTEX
  5
A3C
  8
0
 10
9.970000267028809
 20
106.0
 30
21.83099937438965
 70
   192
  0
VERTEX
  5
A3D
  8
0
 10
-3.415999889373779
 20
114.0
 30
23.75600051879883
 70
   192
  0
VERTEX
  5
A3E
  8
0
 10
-3.415999889373779
 20
106.0
 30
23.75600051879883
 70
   192
  0
VERTEX
  5
A3F
  8
0
 10
-15.71700000762939
 20
114.0
 30
18.13800048828125
 70
   192
  0
VERTEX
  5
A40
  8
0
 10
-15.71700000762939
 20
106.0
 30
18.13800048828125
 70
   192
  0
VERTEX
  5
A41
  8
0
 10
-23.02799987792969
 20
114.0
 30
6.76200008392334
 70
   192
  0
VERTEX
  5
A42
  8
0
 10
-23.02799987792969
 20
114.0
 30
-6.76200008392334
 70
   192
  0
VERTEX
  5
A43
  8
0
 10
-23.02799987792969
 20
106.0
 30
-6.76200008392334
 70
   192
  0
VERTEX
  5
A44
  8
0
 10
-23.02799987792969
 20
106.0
 30
6.76200008392334
 70
   192
  0
VERTEX
  5
A45
  8
0
 10
-15.71700000762939
 20
114.0
 30
-18.13800048828125
 70
   192
  0
VERTEX
  5
A46
  8
0
 10
-15.71700000762939
 20
106.0
 30
-18.13800048828125
 70
   192
  0
VERTEX
  5
A47
  8
0
 10
-3.415999889373779
 20
114.0
 30
-23.75600051879883
 70
   192
  0
VERTEX
  5
A48
  8
0
 10
-3.415999889373779
 20
106.0
 30
-23.75600051879883
 70
   192
  0
VERTEX
  5
A49
  8
0
 10
9.970000267028809
 20
114.0
 30
-21.83099937438965
 70
   192
  0
VERTEX
  5
A4A
  8
0
 10
9.970000267028809
 20
106.0
 30
-21.83099937438965
 70
   192
  0
VERTEX
  5
A4B
  8
0
 10
20.19000053405762
 20
114.0
 30
-12.97500038146973
 70
   192
  0
VERTEX
  5
A4C
  8
0
 10
20.19000053405762
 20
106.0
 30
-12.97500038146973
 70
   192
  0
VERTEX
  5
A4D
  8
0
 10
20.19000053405762
 20
114.0
 30
12.97500038146973
 70
   192
  0
VERTEX
  5
A4E
  8
0
 62
     9
 10
0.0
 20
0.0
 30
0.0
 70
   128
 71
     3
 72
     2
 73
     1
  0
VERTEX
  5
A4F
  8
0
 62
     9
 10
0.0
 20
0.0
 30
0.0
 70
   128
 71
     1
 72
     5
 73
     4
  0
VERTEX
  5
A50
  8
0
 62
     9
 10
0.0
 20
0.0
 30
0.0
 70
   128
 71
     5
 72
     7
 73
     6
  0
VERTEX
  5
A51
  8
0
 62
     9
 10
0.0
 20
0.0
 30
0.0
 70
   128
 71
     7
 72
     9
 73
     8
  0
VERTEX
  5
A52
  8
0
 62
     9
 10
0.0
 20
0.0
 30
0.0
 70
   128
 71
    10
 72
     8
 73
     9
  0
VERTEX
  5
A53
  8
0
 62
     9
 10
0.0
 20
0.0
 30
0.0
 70
   128
 71
    13
 72
    12
 73
    11
  0
VERTEX
  5
A54
  8
0
 62
     9
 10
0.0
 20
0.0
 30
0.0
 70
   128
 71
    12
 72
    15
 73
    14
  0
VERTEX
  5
A55
  8
0
 62
     9
 10
0.0
 20
0.0
 30
0.0
 70
   128
 71
    15
 72
    17
 73
    16
  0
VERTEX
  5
A56
  8
0
 62
     9
 10
0.0
 20
0.0
 30
0.0
 70
   128
 71
    17
 72
    19
 73
    18
  0
VERTEX
  5
A57
  8
0
 62
     9
 10
0.0
 20
0.0
 30
0.0
 70
   128
 71
    19
 72
    21
 73
    20
  0
VERTEX
  5
A58
  8
0
 62
     9
 10
0.0
 20
0.0
 30
0.0
 70
   128
 71
     2
 72
     3
 73
    20
  0
VERTEX
  5
A59
  8
0
 62
     9
 10
0.0
 20
0.0
 30
0.0
 70
   128
 71
    20
 72
    21
 73
     2
  0
VERTEX
  5
A5A
  8
0
 62
     9
 10
0.0
 20
0.0
 30
0.0
 70
   128
 71
    20
 72
    18
 73
    19
  0
VERTEX
  5
A5B
  8
0
 62
     9
 10
0.0
 20
0.0
 30
0.0
 70
   128
 71
    18
 72
    16
 73
    17
  0
VERTEX
  5
A5C
  8
0
 62
     9
 10
0.0
 20
0.0
 30
0.0
 70
   128
 71
    16
 72
    14
 73
    15
  0
VERTEX
  5
A5D
  8
0
 62
     9
 10
0.0
 20
0.0
 30
0.0
 70
   128
 71
    14
 72
    11
 73
    12
  0
VERTEX
  5
A5E
  8
0
 62
     9
 10
0.0
 20
0.0
 30
0.0
 70
   128
 71
    11
 72
    10
 73
    13
  0
VERTEX
  5
A5F
  8
0
 62
     9
 10
0.0
 20
0.0
 30
0.0
 70
   128
 71
     9
 72
    13
 73
    10
  0
VERTEX
  5
A60
  8
0
 62
     9
 10
0.0
 20
0.0
 30
0.0
 70
   128
 71
     8
 72
     6
 73
     7
  0
VERTEX
  5
A61
  8
0
 62
     9
 10
0.0
 20
0.0
 30
0.0
 70
   128
 71
     6
 72
     4
 73
     5
  0
VERTEX
  5
A62
  8
0
 62
     9
 10
0.0
 20
0.0
 30
0.0
 70
   128
 71
     4
 72
    22
 73
     1
  0
VERTEX
  5
A63
  8
0
 62
     9
 10
0.0
 20
0.0
 30
0.0
 70
   128
 71
     1
 72
    22
 73
     3
  0
SEQEND
  5
A64
  8
0
 62
     9
  0
ENDBLK
  5
A67
  8
0
  0
BLOCK
  8
0
  2
E3_NODE_58_
 70
     0
 10
0.0
 20
0.0
 30
0.0
  3
E3_NODE_58_
  1

  0
POLYLINE
  5
A69
  8
0
 62
     9
 66
     1
 10
0.0
 20
0.0
 30
0.0
 70
    64
 71
    20
 72
    20
  0
VERTEX
  5
A6A
  8
0
 10
-11.26799964904785
 20
-117.5
 30
16.70499992370605
 70
   192
  0
VERTEX
  5
A6B
  8
0
 10
-11.26799964904785
 20
-114.0
 30
16.70499992370605
 70
   192
  0
VERTEX
  5
A6C
  8
0
 10
-18.93499946594238
 20
-114.0
 30
6.892000198364258
 70
   192
  0
VERTEX
  5
A6D
  8
0
 10
0.703000009059906
 20
-117.5
 30
20.13800048828125
 70
   192
  0
VERTEX
  5
A6E
  8
0
 10
0.703000009059906
 20
-114.0
 30
20.13800048828125
 70
   192
  0
VERTEX
  5
A6F
  8
0
 10
12.4060001373291
 20
-114.0
 30
15.87800025939941
 70
   192
  0
VERTEX
  5
A70
  8
0
 10
19.36899948120117
 20
-114.0
 30
5.553999900817871
 70
   192
  0
VERTEX
  5
A71
  8
0
 10
12.4060001373291
 20
-117.5
 30
15.87800025939941
 70
   192
  0
VERTEX
  5
A72
  8
0
 10
18.93499946594238
 20
-117.5
 30
-6.892000198364258
 70
   192
  0
VERTEX
  5
A73
  8
0
 10
18.93499946594238
 20
-114.0
 30
-6.892000198364258
 70
   192
  0
VERTEX
  5
A74
  8
0
 10
11.26799964904785
 20
-114.0
 30
-16.70499992370605
 70
   192
  0
VERTEX
  5
A75
  8
0
 10
-0.703000009059906
 20
-114.0
 30
-20.13800048828125
 70
   192
  0
VERTEX
  5
A76
  8
0
 10
11.26799964904785
 20
-117.5
 30
-16.70499992370605
 70
   192
  0
VERTEX
  5
A77
  8
0
 10
-12.4060001373291
 20
-117.5
 30
-15.87800025939941
 70
   192
  0
VERTEX
  5
A78
  8
0
 10
-12.4060001373291
 20
-114.0
 30
-15.87800025939941
 70
   192
  0
VERTEX
  5
A79
  8
0
 10
-19.36899948120117
 20
-117.5
 30
-5.553999900817871
 70
   192
  0
VERTEX
  5
A7A
  8
0
 10
-19.36899948120117
 20
-114.0
 30
-5.553999900817871
 70
   192
  0
VERTEX
  5
A7B
  8
0
 10
-18.93499946594238
 20
-117.5
 30
6.892000198364258
 70
   192
  0
VERTEX
  5
A7C
  8
0
 10
-0.703000009059906
 20
-117.5
 30
-20.13800048828125
 70
   192
  0
VERTEX
  5
A7D
  8
0
 10
19.36899948120117
 20
-117.5
 30
5.553999900817871
 70
   192
  0
VERTEX
  5
A7E
  8
0
 62
     9
 10
0.0
 20
0.0
 30
0.0
 70
   128
 71
     3
 72
     2
 73
     1
  0
VERTEX
  5
A7F
  8
0
 62
     9
 10
0.0
 20
0.0
 30
0.0
 70
   128
 71
     2
 72
     5
 73
     4
  0
VERTEX
  5
A80
  8
0
 62
     9
 10
0.0
 20
0.0
 30
0.0
 70
   128
 71
     4
 72
     5
 73
     6
  0
VERTEX
  5
A81
  8
0
 62
     9
 10
0.0
 20
0.0
 30
0.0
 70
   128
 71
     8
 72
     6
 73
     7
  0
VERTEX
  5
A82
  8
0
 62
     9
 10
0.0
 20
0.0
 30
0.0
 70
   128
 71
     7
 72
    10
 73
     9
  0
VERTEX
  5
A83
  8
0
 62
     9
 10
0.0
 20
0.0
 30
0.0
 70
   128
 71
     9
 72
    10
 73
    11
  0
VERTEX
  5
A84
  8
0
 62
     9
 10
0.0
 20
0.0
 30
0.0
 70
   128
 71
    13
 72
    11
 73
    12
  0
VERTEX
  5
A85
  8
0
 62
     9
 10
0.0
 20
0.0
 30
0.0
 70
   128
 71
    12
 72
    15
 73
    14
  0
VERTEX
  5
A86
  8
0
 62
     9
 10
0.0
 20
0.0
 30
0.0
 70
   128
 71
    15
 72
    17
 73
    16
  0
VERTEX
  5
A87
  8
0
 62
     9
 10
0.0
 20
0.0
 30
0.0
 70
   128
 71
    16
 72
    17
 73
     3
  0
VERTEX
  5
A88
  8
0
 62
     9
 10
0.0
 20
0.0
 30
0.0
 70
   128
 71
     3
 72
    18
 73
    16
  0
VERTEX
  5
A89
  8
0
 62
     9
 10
0.0
 20
0.0
 30
0.0
 70
   128
 71
    16
 72
    14
 73
    15
  0
VERTEX
  5
A8A
  8
0
 62
     9
 10
0.0
 20
0.0
 30
0.0
 70
   128
 71
    14
 72
    19
 73
    12
  0
VERTEX
  5
A8B
  8
0
 62
     9
 10
0.0
 20
0.0
 30
0.0
 70
   128
 71
    12
 72
    19
 73
    13
  0
VERTEX
  5
A8C
  8
0
 62
     9
 10
0.0
 20
0.0
 30
0.0
 70
   128
 71
    11
 72
    13
 73
     9
  0
VERTEX
  5
A8D
  8
0
 62
     9
 10
0.0
 20
0.0
 30
0.0
 70
   128
 71
     9
 72
    20
 73
     7
  0
VERTEX
  5
A8E
  8
0
 62
     9
 10
0.0
 20
0.0
 30
0.0
 70
   128
 71
     7
 72
    20
 73
     8
  0
VERTEX
  5
A8F
  8
0
 62
     9
 10
0.0
 20
0.0
 30
0.0
 70
   128
 71
     6
 72
     8
 73
     4
  0
VERTEX
  5
A90
  8
0
 62
     9
 10
0.0
 20
0.0
 30
0.0
 70
   128
 71
     4
 72
     1
 73
     2
  0
VERTEX
  5
A91
  8
0
 62
     9
 10
0.0
 20
0.0
 30
0.0
 70
   128
 71
     1
 72
    18
 73
     3
  0
SEQEND
  5
A92
  8
0
 62
     9
  0
ENDBLK
  5
A95
  8
0
  0
BLOCK
  8
0
  2
E3_NODE_59_
 70
     0
 10
0.0
 20
0.0
 30
0.0
  3
E3_NODE_59_
  1

  0
POLYLINE
  5
A97
  8
0
 62
     9
 66
     1
 10
0.0
 20
0.0
 30
0.0
 70
    64
 71
    22
 72
    22
  0
VERTEX
  5
A98
  8
0
 10
8.208000183105469
 20
-114.0
 30
22.55299949645996
 70
   192
  0
VERTEX
  5
A99
  8
0
 10
0.703000009059906
 20
-114.0
 30
20.13800048828125
 70
   192
  0
VERTEX
  5
A9A
  8
0
 10
12.4060001373291
 20
-114.0
 30
15.87800025939941
 70
   192
  0
VERTEX
  5
A9B
  8
0
 10
16.83499908447266
 20
-114.0
 30
17.10499954223633
 70
   192
  0
VERTEX
  5
A9C
  8
0
 10
-8.5649995803833
 20
-114.0
 30
22.42000007629395
 70
   192
  0
VERTEX
  5
A9D
  8
0
 10
-11.26799964904785
 20
-114.0
 30
16.70499992370605
 70
   192
  0
VERTEX
  5
A9E
  8
0
 10
-19.32600021362305
 20
-114.0
 30
14.22999954223633
 70
   192
  0
VERTEX
  5
A9F
  8
0
 10
-18.93499946594238
 20
-114.0
 30
6.892000198364258
 70
   192
  0
VERTEX
  5
AA0
  8
0
 10
-20.97200012207031
 20
-114.0
 30
-11.66899967193604
 70
   192
  0
VERTEX
  5
AA1
  8
0
 10
-11.33500003814697
 20
-114.0
 30
-21.15500068664551
 70
   192
  0
VERTEX
  5
AA2
  8
0
 10
-12.4060001373291
 20
-114.0
 30
-15.87800025939941
 70
   192
  0
VERTEX
  5
AA3
  8
0
 10
1.901999950408936
 20
-114.0
 30
-23.92499923706055
 70
   192
  0
VERTEX
  5
AA4
  8
0
 10
-0.703000009059906
 20
-114.0
 30
-20.13800048828125
 70
   192
  0
VERTEX
  5
AA5
  8
0
 10
4.914999961853027
 20
-114.0
 30
23.49099922180176
 70
   192
  0
VERTEX
  5
AA6
  8
0
 10
-23.95199966430664
 20
-114.0
 30
1.521999955177307
 70
   192
  0
VERTEX
  5
AA7
  8
0
 10
-19.36899948120117
 20
-114.0
 30
-5.553999900817871
 70
   192
  0
VERTEX
  5
AA8
  8
0
 10
14.53499984741211
 20
-114.0
 30
-19.09799957275391
 70
   192
  0
VERTEX
  5
AA9
  8
0
 10
11.26799964904785
 20
-114.0
 30
-16.70499992370605
 70
   192
  0
VERTEX
  5
AAA
  8
0
 10
22.55299949645996
 20
-114.0
 30
-8.208000183105469
 70
   192
  0
VERTEX
  5
AAB
  8
0
 10
18.93499946594238
 20
-114.0
 30
-6.892000198364258
 70
   192
  0
VERTEX
  5
AAC
  8
0
 10
23.40999984741211
 20
-114.0
 30
5.287000179290771
 70
   192
  0
VERTEX
  5
AAD
  8
0
 10
19.36899948120117
 20
-114.0
 30
5.553999900817871
 70
   192
  0
VERTEX
  5
AAE
  8
0
 62
     9
 10
0.0
 20
0.0
 30
0.0
 70
   128
 71
     3
 72
     2
 73
     1
  0
VERTEX
  5
AAF
  8
0
 62
     9
 10
0.0
 20
0.0
 30
0.0
 70
   128
 71
     1
 72
     4
 73
     3
  0
VERTEX
  5
AB0
  8
0
 62
     9
 10
0.0
 20
0.0
 30
0.0
 70
   128
 71
     2
 72
     6
 73
     5
  0
VERTEX
  5
AB1
  8
0
 62
     9
 10
0.0
 20
0.0
 30
0.0
 70
   128
 71
     6
 72
     8
 73
     7
  0
VERTEX
  5
AB2
  8
0
 62
     9
 10
0.0
 20
0.0
 30
0.0
 70
   128
 71
    11
 72
    10
 73
     9
  0
VERTEX
  5
AB3
  8
0
 62
     9
 10
0.0
 20
0.0
 30
0.0
 70
   128
 71
    13
 72
    12
 73
    10
  0
VERTEX
  5
AB4
  8
0
 62
     9
 10
0.0
 20
0.0
 30
0.0
 70
   128
 71
     5
 72
    14
 73
     2
  0
VERTEX
  5
AB5
  8
0
 62
     9
 10
0.0
 20
0.0
 30
0.0
 70
   128
 71
     8
 72
    15
 73
     7
  0
VERTEX
  5
AB6
  8
0
 62
     9
 10
0.0
 20
0.0
 30
0.0
 70
   128
 71
    16
 72
     9
 73
    15
  0
VERTEX
  5
AB7
  8
0
 62
     9
 10
0.0
 20
0.0
 30
0.0
 70
   128
 71
    10
 72
    11
 73
    13
  0
VERTEX
  5
AB8
  8
0
 62
     9
 10
0.0
 20
0.0
 30
0.0
 70
   128
 71
    18
 72
    17
 73
    12
  0
VERTEX
  5
AB9
  8
0
 62
     9
 10
0.0
 20
0.0
 30
0.0
 70
   128
 71
    20
 72
    19
 73
    17
  0
VERTEX
  5
ABA
  8
0
 62
     9
 10
0.0
 20
0.0
 30
0.0
 70
   128
 71
    20
 72
    22
 73
    21
  0
VERTEX
  5
ABB
  8
0
 62
     9
 10
0.0
 20
0.0
 30
0.0
 70
   128
 71
     2
 72
    14
 73
     1
  0
VERTEX
  5
ABC
  8
0
 62
     9
 10
0.0
 20
0.0
 30
0.0
 70
   128
 71
    15
 72
     8
 73
    16
  0
VERTEX
  5
ABD
  8
0
 62
     9
 10
0.0
 20
0.0
 30
0.0
 70
   128
 71
    12
 72
    13
 73
    18
  0
VERTEX
  5
ABE
  8
0
 62
     9
 10
0.0
 20
0.0
 30
0.0
 70
   128
 71
    21
 72
    19
 73
    20
  0
VERTEX
  5
ABF
  8
0
 62
     9
 10
0.0
 20
0.0
 30
0.0
 70
   128
 71
     7
 72
     5
 73
     6
  0
VERTEX
  5
AC0
  8
0
 62
     9
 10
0.0
 20
0.0
 30
0.0
 70
   128
 71
    17
 72
    18
 73
    20
  0
VERTEX
  5
AC1
  8
0
 62
     9
 10
0.0
 20
0.0
 30
0.0
 70
   128
 71
     9
 72
    16
 73
    11
  0
VERTEX
  5
AC2
  8
0
 62
     9
 10
0.0
 20
0.0
 30
0.0
 70
   128
 71
     4
 72
    22
 73
     3
  0
VERTEX
  5
AC3
  8
0
 62
     9
 10
0.0
 20
0.0
 30
0.0
 70
   128
 71
     4
 72
    21
 73
    22
  0
SEQEND
  5
AC4
  8
0
 62
     9
  0
ENDBLK
  5
AC7
  8
0
  0
BLOCK
  8
0
  2
E3_NODE_60_
 70
     0
 10
0.0
 20
0.0
 30
0.0
  3
E3_NODE_60_
  1

  0
POLYLINE
  5
AC9
  8
0
 62
     9
 66
     1
 10
0.0
 20
0.0
 30
0.0
 70
    64
 71
    24
 72
    24
  0
VERTEX
  5
ACA
  8
0
 10
23.40999984741211
 20
-106.0
 30
5.287000179290771
 70
   192
  0
VERTEX
  5
ACB
  8
0
 10
23.40999984741211
 20
-114.0
 30
5.287000179290771
 70
   192
  0
VERTEX
  5
ACC
  8
0
 10
22.55299949645996
 20
-114.0
 30
-8.208000183105469
 70
   192
  0
VERTEX
  5
ACD
  8
0
 10
16.83499908447266
 20
-114.0
 30
17.10499954223633
 70
   192
  0
VERTEX
  5
ACE
  8
0
 10
8.208000183105469
 20
-106.0
 30
22.55299949645996
 70
   192
  0
VERTEX
  5
ACF
  8
0
 10
4.914999961853027
 20
-106.0
 30
23.49099922180176
 70
   192
  0
VERTEX
  5
AD0
  8
0
 10
4.914999961853027
 20
-114.0
 30
23.49099922180176
 70
   192
  0
VERTEX
  5
AD1
  8
0
 10
16.83499908447266
 20
-106.0
 30
17.10499954223633
 70
   192
  0
VERTEX
  5
AD2
  8
0
 10
8.208000183105469
 20
-114.0
 30
22.55299949645996
 70
   192
  0
VERTEX
  5
AD3
  8
0
 10
-8.5649995803833
 20
-114.0
 30
22.42000007629395
 70
   192
  0
VERTEX
  5
AD4
  8
0
 10
-19.32600021362305
 20
-114.0
 30
14.22999954223633
 70
   192
  0
VERTEX
  5
AD5
  8
0
 10
-8.5649995803833
 20
-106.0
 30
22.42000007629395
 70
   192
  0
VERTEX
  5
AD6
  8
0
 10
-23.95199966430664
 20
-106.0
 30
1.521999955177307
 70
   192
  0
VERTEX
  5
AD7
  8
0
 10
-23.95199966430664
 20
-114.0
 30
1.521999955177307
 70
   192
  0
VERTEX
  5
AD8
  8
0
 10
-20.97200012207031
 20
-106.0
 30
-11.66899967193604
 70
   192
  0
VERTEX
  5
AD9
  8
0
 10
-20.97200012207031
 20
-114.0
 30
-11.66899967193604
 70
   192
  0
VERTEX
  5
ADA
  8
0
 10
-11.33500003814697
 20
-114.0
 30
-21.15500068664551
 70
   192
  0
VERTEX
  5
ADB
  8
0
 10
1.901999950408936
 20
-106.0
 30
-23.92499923706055
 70
   192
  0
VERTEX
  5
ADC
  8
0
 10
1.901999950408936
 20
-114.0
 30
-23.92499923706055
 70
   192
  0
VERTEX
  5
ADD
  8
0
 10
14.53499984741211
 20
-106.0
 30
-19.09799957275391
 70
   192
  0
VERTEX
  5
ADE
  8
0
 10
14.53499984741211
 20
-114.0
 30
-19.09799957275391
 70
   192
  0
VERTEX
  5
ADF
  8
0
 10
22.55299949645996
 20
-106.0
 30
-8.208000183105469
 70
   192
  0
VERTEX
  5
AE0
  8
0
 10
-11.33500003814697
 20
-106.0
 30
-21.15500068664551
 70
   192
  0
VERTEX
  5
AE1
  8
0
 10
-19.32600021362305
 20
-106.0
 30
14.22999954223633
 70
   192
  0
VERTEX
  5
AE2
  8
0
 62
     9
 10
0.0
 20
0.0
 30
0.0
 70
   128
 71
     3
 72
     2
 73
     1
  0
VERTEX
  5
AE3
  8
0
 62
     9
 10
0.0
 20
0.0
 30
0.0
 70
   128
 71
     1
 72
     2
 73
     4
  0
VERTEX
  5
AE4
  8
0
 62
     9
 10
0.0
 20
0.0
 30
0.0
 70
   128
 71
     7
 72
     6
 73
     5
  0
VERTEX
  5
AE5
  8
0
 62
     9
 10
0.0
 20
0.0
 30
0.0
 70
   128
 71
     5
 72
     8
 73
     4
  0
VERTEX
  5
AE6
  8
0
 62
     9
 10
0.0
 20
0.0
 30
0.0
 70
   128
 71
     4
 72
     9
 73
     5
  0
VERTEX
  5
AE7
  8
0
 62
     9
 10
0.0
 20
0.0
 30
0.0
 70
   128
 71
     6
 72
     7
 73
    10
  0
VERTEX
  5
AE8
  8
0
 62
     9
 10
0.0
 20
0.0
 30
0.0
 70
   128
 71
    12
 72
    10
 73
    11
  0
VERTEX
  5
AE9
  8
0
 62
     9
 10
0.0
 20
0.0
 30
0.0
 70
   128
 71
    11
 72
    14
 73
    13
  0
VERTEX
  5
AEA
  8
0
 62
     9
 10
0.0
 20
0.0
 30
0.0
 70
   128
 71
    14
 72
    16
 73
    15
  0
VERTEX
  5
AEB
  8
0
 62
     9
 10
0.0
 20
0.0
 30
0.0
 70
   128
 71
    15
 72
    16
 73
    17
  0
VERTEX
  5
AEC
  8
0
 62
     9
 10
0.0
 20
0.0
 30
0.0
 70
   128
 71
    17
 72
    19
 73
    18
  0
VERTEX
  5
AED
  8
0
 62
     9
 10
0.0
 20
0.0
 30
0.0
 70
   128
 71
    19
 72
    21
 73
    20
  0
VERTEX
  5
AEE
  8
0
 62
     9
 10
0.0
 20
0.0
 30
0.0
 70
   128
 71
    21
 72
     3
 73
    22
  0
VERTEX
  5
AEF
  8
0
 62
     9
 10
0.0
 20
0.0
 30
0.0
 70
   128
 71
    22
 72
    20
 73
    21
  0
VERTEX
  5
AF0
  8
0
 62
     9
 10
0.0
 20
0.0
 30
0.0
 70
   128
 71
    20
 72
    18
 73
    19
  0
VERTEX
  5
AF1
  8
0
 62
     9
 10
0.0
 20
0.0
 30
0.0
 70
   128
 71
    18
 72
    23
 73
    17
  0
VERTEX
  5
AF2
  8
0
 62
     9
 10
0.0
 20
0.0
 30
0.0
 70
   128
 71
    17
 72
    23
 73
    15
  0
VERTEX
  5
AF3
  8
0
 62
     9
 10
0.0
 20
0.0
 30
0.0
 70
   128
 71
    15
 72
    13
 73
    14
  0
VERTEX
  5
AF4
  8
0
 62
     9
 10
0.0
 20
0.0
 30
0.0
 70
   128
 71
    13
 72
    24
 73
    11
  0
VERTEX
  5
AF5
  8
0
 62
     9
 10
0.0
 20
0.0
 30
0.0
 70
   128
 71
    11
 72
    24
 73
    12
  0
VERTEX
  5
AF6
  8
0
 62
     9
 10
0.0
 20
0.0
 30
0.0
 70
   128
 71
    10
 72
    12
 73
     6
  0
VERTEX
  5
AF7
  8
0
 62
     9
 10
0.0
 20
0.0
 30
0.0
 70
   128
 71
     5
 72
     9
 73
     7
  0
VERTEX
  5
AF8
  8
0
 62
     9
 10
0.0
 20
0.0
 30
0.0
 70
   128
 71
     4
 72
     8
 73
     1
  0
VERTEX
  5
AF9
  8
0
 62
     9
 10
0.0
 20
0.0
 30
0.0
 70
   128
 71
     1
 72
    22
 73
     3
  0
SEQEND
  5
AFA
  8
0
 62
     9
  0
ENDBLK
  5
AFD
  8
0
  0
ENDSEC
  0
SECTION
  2
ENTITIES
  0
INSERT
  5
4C
  8
LAYER_1
  2
E3_NODE
 10
0.0
 20
0.0
 30
0.0
  0
INSERT
  5
61
  8
LAYER_1
  2
E3_NODE_1_
 10
0.0
 20
0.0
 30
0.0
  0
INSERT
  5
89
  8
LAYER_1
  2
E3_NODE_2_
 10
0.0
 20
0.0
 30
0.0
  0
INSERT
  5
143
  8
LAYER_1
  2
E3_NODE_3_
 10
0.0
 20
0.0
 30
0.0
  0
INSERT
  5
191
  8
LAYER_1
  2
E3_NODE_4_
 10
0.0
 20
0.0
 30
0.0
  0
INSERT
  5
1B9
  8
LAYER_1
  2
E3_NODE_5_
 10
0.0
 20
0.0
 30
0.0
  0
INSERT
  5
1D5
  8
LAYER_1
  2
E3_NODE_6_
 10
0.0
 20
0.0
 30
0.0
  0
INSERT
  5
1ED
  8
LAYER_1
  2
E3_NODE_7_
 10
0.0
 20
0.0
 30
0.0
  0
INSERT
  5
20D
  8
LAYER_1
  2
E3_NODE_8_
 10
0.0
 20
0.0
 30
0.0
  0
INSERT
  5
22F
  8
LAYER_1
  2
E3_NODE_9_
 10
0.0
 20
0.0
 30
0.0
  0
INSERT
  5
23F
  8
LAYER_1
  2
E3_NODE_10_
 10
0.0
 20
0.0
 30
0.0
  0
INSERT
  5
24F
  8
LAYER_1
  2
E3_NODE_11_
 10
0.0
 20
0.0
 30
0.0
  0
INSERT
  5
26D
  8
LAYER_1
  2
E3_NODE_12_
 10
0.0
 20
0.0
 30
0.0
  0
INSERT
  5
29B
  8
LAYER_1
  2
E3_NODE_13_
 10
0.0
 20
0.0
 30
0.0
  0
INSERT
  5
2A7
  8
LAYER_1
  2
E3_NODE_14_
 10
0.0
 20
0.0
 30
0.0
  0
INSERT
  5
2C5
  8
LAYER_1
  2
E3_NODE_15_
 10
0.0
 20
0.0
 30
0.0
  0
INSERT
  5
2DF
  8
LAYER_1
  2
E3_NODE_16_
 10
0.0
 20
0.0
 30
0.0
  0
INSERT
  5
2F9
  8
LAYER_1
  2
E3_NODE_17_
 10
0.0
 20
0.0
 30
0.0
  0
INSERT
  5
311
  8
LAYER_1
  2
E3_NODE_18_
 10
0.0
 20
0.0
 30
0.0
  0
INSERT
  5
31F
  8
LAYER_1
  2
E3_NODE_19_
 10
0.0
 20
0.0
 30
0.0
  0
INSERT
  5
341
  8
LAYER_1
  2
E3_NODE_20_
 10
0.0
 20
0.0
 30
0.0
  0
INSERT
  5
363
  8
LAYER_1
  2
E3_NODE_21_
 10
0.0
 20
0.0
 30
0.0
  0
INSERT
  5
385
  8
LAYER_1
  2
E3_NODE_22_
 10
0.0
 20
0.0
 30
0.0
  0
INSERT
  5
397
  8
LAYER_1
  2
E3_NODE_23_
 10
0.0
 20
0.0
 30
0.0
  0
INSERT
  5
3BF
  8
LAYER_1
  2
E3_NODE_24_
 10
0.0
 20
0.0
 30
0.0
  0
INSERT
  5
479
  8
LAYER_1
  2
E3_NODE_25_
 10
0.0
 20
0.0
 30
0.0
  0
INSERT
  5
4C7
  8
LAYER_1
  2
E3_NODE_26_
 10
0.0
 20
0.0
 30
0.0
  0
INSERT
  5
4EF
  8
LAYER_1
  2
E3_NODE_27_
 10
0.0
 20
0.0
 30
0.0
  0
INSERT
  5
50F
  8
LAYER_1
  2
E3_NODE_28_
 10
0.0
 20
0.0
 30
0.0
  0
INSERT
  5
52F
  8
LAYER_1
  2
E3_NODE_29_
 10
0.0
 20
0.0
 30
0.0
  0
INSERT
  5
579
  8
LAYER_1
  2
E3_NODE_30_
 10
0.0
 20
0.0
 30
0.0
  0
INSERT
  5
5C3
  8
LAYER_1
  2
E3_NODE_31_
 10
0.0
 20
0.0
 30
0.0
  0
INSERT
  5
60D
  8
LAYER_1
  2
E3_NODE_32_
 10
0.0
 20
0.0
 30
0.0
  0
INSERT
  5
642
  8
LAYER_1
  2
E3_NODE_33_
 10
0.0
 20
0.0
 30
0.0
  0
INSERT
  5
67E
  8
LAYER_1
  2
E3_NODE_34_
 10
0.0
 20
0.0
 30
0.0
  0
INSERT
  5
6C8
  8
LAYER_1
  2
E3_NODE_35_
 10
0.0
 20
0.0
 30
0.0
  0
INSERT
  5
6E8
  8
LAYER_1
  2
E3_NODE_36_
 10
0.0
 20
0.0
 30
0.0
  0
INSERT
  5
708
  8
LAYER_1
  2
E3_NODE_37_
 10
0.0
 20
0.0
 30
0.0
  0
INSERT
  5
736
  8
LAYER_1
  2
E3_NODE_38_
 10
0.0
 20
0.0
 30
0.0
  0
INSERT
  5
756
  8
LAYER_1
  2
E3_NODE_39_
 10
0.0
 20
0.0
 30
0.0
  0
INSERT
  5
776
  8
LAYER_1
  2
E3_NODE_40_
 10
0.0
 20
0.0
 30
0.0
  0
INSERT
  5
7C0
  8
LAYER_1
  2
E3_NODE_41_
 10
0.0
 20
0.0
 30
0.0
  0
INSERT
  5
80A
  8
LAYER_1
  2
E3_NODE_42_
 10
0.0
 20
0.0
 30
0.0
  0
INSERT
  5
854
  8
LAYER_1
  2
E3_NODE_43_
 10
0.0
 20
0.0
 30
0.0
  0
INSERT
  5
889
  8
LAYER_1
  2
E3_NODE_44_
 10
0.0
 20
0.0
 30
0.0
  0
INSERT
  5
8C5
  8
LAYER_1
  2
E3_NODE_45_
 10
0.0
 20
0.0
 30
0.0
  0
INSERT
  5
90F
  8
LAYER_1
  2
E3_NODE_46_
 10
0.0
 20
0.0
 30
0.0
  0
INSERT
  5
92F
  8
LAYER_1
  2
E3_NODE_47_
 10
0.0
 20
0.0
 30
0.0
  0
INSERT
  5
94F
  8
LAYER_1
  2
E3_NODE_48_
 10
0.0
 20
0.0
 30
0.0
  0
INSERT
  5
95B
  8
LAYER_1
  2
E3_NODE_49_
 10
0.0
 20
0.0
 30
0.0
  0
INSERT
  5
979
  8
LAYER_1
  2
E3_NODE_50_
 10
0.0
 20
0.0
 30
0.0
  0
INSERT
  5
993
  8
LAYER_1
  2
E3_NODE_51_
 10
0.0
 20
0.0
 30
0.0
  0
INSERT
  5
9AD
  8
LAYER_1
  2
E3_NODE_52_
 10
0.0
 20
0.0
 30
0.0
  0
INSERT
  5
9C5
  8
LAYER_1
  2
E3_NODE_53_
 10
0.0
 20
0.0
 30
0.0
  0
INSERT
  5
9D3
  8
LAYER_1
  2
E3_NODE_54_
 10
0.0
 20
0.0
 30
0.0
  0
INSERT
  5
A03
  8
LAYER_1
  2
E3_NODE_55_
 10
0.0
 20
0.0
 30
0.0
  0
INSERT
  5
A33
  8
LAYER_1
  2
E3_NODE_56_
 10
0.0
 20
0.0
 30
0.0
  0
INSERT
  5
A65
  8
LAYER_1
  2
E3_NODE_57_
 10
0.0
 20
0.0
 30
0.0
  0
INSERT
  5
A93
  8
LAYER_1
  2
E3_NODE_58_
 10
0.0
 20
0.0
 30
0.0
  0
INSERT
  5
AC5
  8
LAYER_1
  2
E3_NODE_59_
 10
0.0
 20
0.0
 30
0.0
  0
INSERT
  5
AFB
  8
LAYER_1
  2
E3_NODE_60_
 10
0.0
 20
0.0
 30
0.0
  0
ENDSEC
  0
EOF
