  0
SECTION
  2
HEADER
  9
$ACADVER
  1
AC1015
  9
$ACADMAINTVER
 70
     6
  9
$DWGCODEPAGE
  3
ANSI_1252
  9
$INSBASE
 10
0.0
 20
0.0
 30
0.0
  9
$EXTMIN
 10
0.0
 20
0.0
 30
0.0
  9
$EXTMAX
 10
1682.0
 20
2378.0
 30
0.0
  9
$LIMMIN
 10
0.0
 20
0.0
  9
$LIMMAX
 10
1682.0
 20
2378.0
  9
$ORTHOMODE
 70
     0
  9
$REGENMODE
 70
     1
  9
$FILLMODE
 70
     1
  9
$QTEXTMODE
 70
     0
  9
$MIRRTEXT
 70
     1
  9
$LTSCALE
 40
1.0
  9
$ATTMODE
 70
     1
  9
$TEXTSIZE
 40
2.5
  9
$TRACEWID
 40
1.0
  9
$TEXTSTYLE
  7
Standard
  9
$CLAYER
  8
0
  9
$CELTYPE
  6
ByLayer
  9
$CECOLOR
 62
   256
  9
$CELTSCALE
 40
1.0
  9
$DISPSILH
 70
     0
  9
$DIMSCALE
 40
1.0
  9
$DIMASZ
 40
2.5
  9
$DIMEXO
 40
0.625
  9
$DIMDLI
 40
3.75
  9
$DIMRND
 40
0.0
  9
$DIMDLE
 40
0.0
  9
$DIMEXE
 40
1.25
  9
$DIMTP
 40
0.0
  9
$DIMTM
 40
0.0
  9
$DIMTXT
 40
2.5
  9
$DIMCEN
 40
2.5
  9
$DIMTSZ
 40
0.0
  9
$DIMTOL
 70
     0
  9
$DIMLIM
 70
     0
  9
$DIMTIH
 70
     0
  9
$DIMTOH
 70
     0
  9
$DIMSE1
 70
     0
  9
$DIMSE2
 70
     0
  9
$DIMTAD
 70
     1
  9
$DIMZIN
 70
     8
  9
$DIMBLK
  1

  9
$DIMASO
 70
     1
  9
$DIMSHO
 70
     1
  9
$DIMPOST
  1

  9
$DIMAPOST
  1

  9
$DIMALT
 70
     0
  9
$DIMALTD
 70
     3
  9
$DIMALTF
 40
0.0393700787
  9
$DIMLFAC
 40
1.0
  9
$DIMTOFL
 70
     1
  9
$DIMTVP
 40
0.0
  9
$DIMTIX
 70
     0
  9
$DIMSOXD
 70
     0
  9
$DIMSAH
 70
     0
  9
$DIMBLK1
  1

  9
$DIMBLK2
  1

  9
$DIMSTYLE
  2
ISO-25
  9
$DIMCLRD
 70
     0
  9
$DIMCLRE
 70
     0
  9
$DIMCLRT
 70
     0
  9
$DIMTFAC
 40
1.0
  9
$DIMGAP
 40
0.625
  9
$DIMJUST
 70
     0
  9
$DIMSD1
 70
     0
  9
$DIMSD2
 70
     0
  9
$DIMTOLJ
 70
     0
  9
$DIMTZIN
 70
     8
  9
$DIMALTZ
 70
     0
  9
$DIMALTTZ
 70
     0
  9
$DIMUPT
 70
     0
  9
$DIMDEC
 70
     2
  9
$DIMTDEC
 70
     2
  9
$DIMALTU
 70
     2
  9
$DIMALTTD
 70
     3
  9
$DIMTXSTY
  7
Standard
  9
$DIMAUNIT
 70
     0
  9
$DIMADEC
 70
     0
  9
$DIMALTRND
 40
0.0
  9
$DIMAZIN
 70
     0
  9
$DIMDSEP
 70
    44
  9
$DIMATFIT
 70
     3
  9
$DIMFRAC
 70
     0
  9
$DIMLDRBLK
  1

  9
$DIMLUNIT
 70
     2
  9
$DIMLWD
 70
    -2
  9
$DIMLWE
 70
    -2
  9
$DIMTMOVE
 70
     0
  9
$LUNITS
 70
     2
  9
$LUPREC
 70
     4
  9
$SKETCHINC
 40
1.0
  9
$FILLETRAD
 40
10.0
  9
$AUNITS
 70
     0
  9
$AUPREC
 70
     0
  9
$MENU
  1
.
  9
$ELEVATION
 40
0.0
  9
$PELEVATION
 40
0.0
  9
$THICKNESS
 40
0.0
  9
$LIMCHECK
 70
     0
  9
$CHAMFERA
 40
10.0
  9
$CHAMFERB
 40
10.0
  9
$CHAMFERC
 40
20.0
  9
$CHAMFERD
 40
0.0
  9
$SKPOLY
 70
     0
  9
$TDCREATE
 40
2455483.558585718
  9
$TDUCREATE
 40
2455483.475252384
  9
$TDUPDATE
 40
2455483.558585729
  9
$TDUUPDATE
 40
2455483.475252396
  9
$TDINDWG
 40
0.0000000116
  9
$TDUSRTIMER
 40
0.0000000116
  9
$USRTIMER
 70
     1
  9
$ANGBASE
 50
0.0
  9
$ANGDIR
 70
     0
  9
$PDMODE
 70
     0
  9
$PDSIZE
 40
0.0
  9
$PLINEWID
 40
0.0
  9
$SPLFRAME
 70
     0
  9
$SPLINETYPE
 70
     6
  9
$SPLINESEGS
 70
     8
  9
$HANDSEED
  5
26B
  9
$SURFTAB1
 70
     6
  9
$SURFTAB2
 70
     6
  9
$SURFTYPE
 70
     6
  9
$SURFU
 70
     6
  9
$SURFV
 70
     6
  9
$UCSBASE
  2

  9
$UCSNAME
  2

  9
$UCSORG
 10
0.0
 20
0.0
 30
0.0
  9
$UCSXDIR
 10
1.0
 20
0.0
 30
0.0
  9
$UCSYDIR
 10
0.0
 20
1.0
 30
0.0
  9
$UCSORTHOREF
  2

  9
$UCSORTHOVIEW
 70
     0
  9
$UCSORGTOP
 10
0.0
 20
0.0
 30
0.0
  9
$UCSORGBOTTOM
 10
0.0
 20
0.0
 30
0.0
  9
$UCSORGLEFT
 10
0.0
 20
0.0
 30
0.0
  9
$UCSORGRIGHT
 10
0.0
 20
0.0
 30
0.0
  9
$UCSORGFRONT
 10
0.0
 20
0.0
 30
0.0
  9
$UCSORGBACK
 10
0.0
 20
0.0
 30
0.0
  9
$PUCSBASE
  2

  9
$PUCSNAME
  2

  9
$PUCSORG
 10
0.0
 20
0.0
 30
0.0
  9
$PUCSXDIR
 10
1.0
 20
0.0
 30
0.0
  9
$PUCSYDIR
 10
0.0
 20
1.0
 30
0.0
  9
$PUCSORTHOREF
  2

  9
$PUCSORTHOVIEW
 70
     0
  9
$PUCSORGTOP
 10
0.0
 20
0.0
 30
0.0
  9
$PUCSORGBOTTOM
 10
0.0
 20
0.0
 30
0.0
  9
$PUCSORGLEFT
 10
0.0
 20
0.0
 30
0.0
  9
$PUCSORGRIGHT
 10
0.0
 20
0.0
 30
0.0
  9
$PUCSORGFRONT
 10
0.0
 20
0.0
 30
0.0
  9
$PUCSORGBACK
 10
0.0
 20
0.0
 30
0.0
  9
$USERI1
 70
     0
  9
$USERI2
 70
     0
  9
$USERI3
 70
     0
  9
$USERI4
 70
     0
  9
$USERI5
 70
     0
  9
$USERR1
 40
0.0
  9
$USERR2
 40
0.0
  9
$USERR3
 40
0.0
  9
$USERR4
 40
0.0
  9
$USERR5
 40
0.0
  9
$WORLDVIEW
 70
     1
  9
$SHADEDGE
 70
     3
  9
$SHADEDIF
 70
    70
  9
$TILEMODE
 70
     1
  9
$MAXACTVP
 70
    64
  9
$PINSBASE
 10
0.0
 20
0.0
 30
0.0
  9
$PLIMCHECK
 70
     0
  9
$PEXTMIN
 10
0.0
 20
0.0
 30
0.0
  9
$PEXTMAX
 10
1682.0
 20
2378.0
 30
0.0
  9
$PLIMMIN
 10
0.0
 20
0.0
  9
$PLIMMAX
 10
1682.0
 20
2378.0
  9
$UNITMODE
 70
     0
  9
$VISRETAIN
 70
     1
  9
$PLINEGEN
 70
     0
  9
$PSLTSCALE
 70
     1
  9
$TREEDEPTH
 70
  3020
  9
$CMLSTYLE
  2
Standard
  9
$CMLJUST
 70
     0
  9
$CMLSCALE
 40
20.0
  9
$PROXYGRAPHICS
 70
     1
  9
$MEASUREMENT
 70
     1
  9
$CELWEIGHT
370
    -1
  9
$ENDCAPS
280
     0
  9
$JOINSTYLE
280
     0
  9
$LWDISPLAY
290
     0
  9
$INSUNITS
 70
     4
  9
$HYPERLINKBASE
  1

  9
$STYLESHEET
  1

  9
$XEDIT
290
     1
  9
$CEPSNTYPE
380
     0
  9
$PSTYLEMODE
290
     1
  9
$FINGERPRINTGUID
  2
{DD9E169E-B315-4843-93C8-96981058404D}
  9
$VERSIONGUID
  2
{FAEB1C32-E019-11D5-929B-00C0DF256EC4}
  9
$EXTNAMES
290
     1
  9
$PSVPSCALE
 40
0.0
  9
$OLESTARTUP
290
     0
  0
ENDSEC
  0
SECTION
  2
CLASSES
  0
CLASS
  1
ACDBDICTIONARYWDFLT
  2
AcDbDictionaryWithDefault
  3
ObjectDBX Classes
 90
        0
280
     0
281
     0
  0
CLASS
  1
VISUALSTYLE
  2
AcDbVisualStyle
  3
ObjectDBX Classes
 90
     4095
280
     0
281
     0
  0
CLASS
  1
SCALE
  2
AcDbScale
  3
ObjectDBX Classes
 90
     1153
280
     0
281
     0
  0
CLASS
  1
DICTIONARYVAR
  2
AcDbDictionaryVar
  3
ObjectDBX Classes
 90
        0
280
     0
281
     0
  0
CLASS
  1
ACDBPLACEHOLDER
  2
AcDbPlaceHolder
  3
ObjectDBX Classes
 90
        0
280
     0
281
     0
  0
CLASS
  1
LAYOUT
  2
AcDbLayout
  3
ObjectDBX Classes
 90
        0
280
     0
281
     0
  0
ENDSEC
  0
SECTION
  2
TABLES
  0
TABLE
  2
VPORT
  5
8
330
0
100
AcDbSymbolTable
 70
     1
  0
VPORT
  5
29
330
8
100
AcDbSymbolTableRecord
100
AcDbViewportTableRecord
  2
*Active
 70
     0
 10
0.0
 20
0.0
 11
1.0
 21
1.0
 12
344.1869158879
 22
148.5
 13
0.0
 23
0.0
 14
10.0
 24
10.0
 15
10.0
 25
10.0
 16
0.0
 26
0.0
 36
1.0
 17
0.0
 27
0.0
 37
0.0
 40
297.0
 41
1.9729729729
 42
50.0
 43
0.0
 44
0.0
 50
0.0
 51
0.0
 71
     0
 72
   100
 73
     1
 74
     3
 75
     0
 76
     0
 77
     0
 78
     0
281
     0
 65
     1
110
0.0
120
0.0
130
0.0
111
1.0
121
0.0
131
0.0
112
0.0
122
1.0
132
0.0
 79
     0
146
0.0
  0
ENDTAB
  0
TABLE
  2
LTYPE
  5
5
330
0
100
AcDbSymbolTable
 70
     2
  0
LTYPE
  5
14
330
5
100
AcDbSymbolTableRecord
100
AcDbLinetypeTableRecord
  2
ByBlock
 70
     0
  3

 72
    65
 73
     0
 40
0.0
  0
LTYPE
  5
15
330
5
100
AcDbSymbolTableRecord
100
AcDbLinetypeTableRecord
  2
ByLayer
 70
     0
  3

 72
    65
 73
     0
 40
0.0
  0
LTYPE
  5
16
330
5
100
AcDbSymbolTableRecord
100
AcDbLinetypeTableRecord
  2
Continuous
 70
     0
  3
Solid line
 72
    65
 73
     0
 40
0.0
  0
LTYPE
  5
60
330
5
100
AcDbSymbolTableRecord
100
AcDbLinetypeTableRecord
  2
CENTER2
 70
     0
  3
Center (.5x) ___ _ ___ _ ___ _ ___ _ ___ _ ___
 72
    65
 73
     4
 40
28.575
 49
19.05
 74
     4
 75
     0
340
0
 46
0.0
 50
0.0
 44
0.0
 45
0.0
 49
-3.175
 74
     4
 75
     0
340
0
 46
0.0
 50
0.0
 44
0.0
 45
0.0
 49
3.175
 74
     4
 75
     0
340
0
 46
0.0
 50
0.0
 44
0.0
 45
0.0
 49
-3.175
 74
     4
 75
     0
340
0
 46
0.0
 50
0.0
 44
0.0
 45
0.0
  0
ENDTAB
  0
TABLE
  2
LAYER
  5
2
330
0
100
AcDbSymbolTable
 70
    17
  0
LAYER
  5
10
330
2
100
AcDbSymbolTableRecord
100
AcDbLayerTableRecord
  2
0
 70
     0
 62
     7
  6
Continuous
370
    -3
390
F
  0
LAYER
  5
5D
330
2
100
AcDbSymbolTableRecord
100
AcDbLayerTableRecord
  2
Default
 70
     0
 62
     7
  6
Continuous
370
    -3
390
F
  0
LAYER
  5
87
330
2
100
AcDbSymbolTableRecord
100
AcDbLayerTableRecord
  2
$DDT_AUDIT_GENERATED_(87)
 70
     0
 62
     7
  6
Continuous
370
    -3
390
F
  0
LAYER
  5
A6
330
2
100
AcDbSymbolTableRecord
100
AcDbLayerTableRecord
  2
A4225108_211188_
 70
     0
 62
     7
  6
Continuous
370
    -3
390
F
  0
LAYER
  5
AD
330
2
100
AcDbSymbolTableRecord
100
AcDbLayerTableRecord
  2
A4225112_211188_
 70
     0
 62
     7
  6
Continuous
370
    -3
390
F
  0
LAYER
  5
B0
330
2
100
AcDbSymbolTableRecord
100
AcDbLayerTableRecord
  2
$DDT_AUDIT_GENERATED_(B0)
 70
     0
 62
     7
  6
Continuous
370
    -3
390
F
  0
LAYER
  5
B6
330
2
100
AcDbSymbolTableRecord
100
AcDbLayerTableRecord
  2
$DDT_AUDIT_GENERATED_(B6)
 70
     0
 62
     7
  6
Continuous
370
    -3
390
F
  0
LAYER
  5
BF
330
2
100
AcDbSymbolTableRecord
100
AcDbLayerTableRecord
  2
$DDT_AUDIT_GENERATED_(BF)
 70
     0
 62
     7
  6
Continuous
370
    -3
390
F
  0
LAYER
  5
CD
330
2
100
AcDbSymbolTableRecord
100
AcDbLayerTableRecord
  2
$DDT_AUDIT_GENERATED_(CD)
 70
     0
 62
     7
  6
Continuous
370
    -3
390
F
  0
LAYER
  5
D5
330
2
100
AcDbSymbolTableRecord
100
AcDbLayerTableRecord
  2
$DDT_AUDIT_GENERATED_(D5)
 70
     0
 62
     7
  6
Continuous
370
    -3
390
F
  0
LAYER
  5
E4
330
2
100
AcDbSymbolTableRecord
100
AcDbLayerTableRecord
  2
$DDT_AUDIT_GENERATED_(E4)
 70
     0
 62
     7
  6
Continuous
370
    -3
390
F
  0
LAYER
  5
11D
330
2
100
AcDbSymbolTableRecord
100
AcDbLayerTableRecord
  2
$DDT_AUDIT_GENERATED_(11D)
 70
     0
 62
     7
  6
Continuous
370
    -3
390
F
  0
LAYER
  5
14C
330
2
100
AcDbSymbolTableRecord
100
AcDbLayerTableRecord
  2
$DDT_AUDIT_GENERATED_(14C)
 70
     0
 62
     7
  6
Continuous
370
    -3
390
F
  0
LAYER
  5
152
330
2
100
AcDbSymbolTableRecord
100
AcDbLayerTableRecord
  2
$DDT_AUDIT_GENERATED_(152)
 70
     0
 62
     7
  6
Continuous
370
    -3
390
F
  0
LAYER
  5
16F
330
2
100
AcDbSymbolTableRecord
100
AcDbLayerTableRecord
  2
$DDT_AUDIT_GENERATED_(16F)
 70
     0
 62
     7
  6
Continuous
370
    -3
390
F
  0
LAYER
  5
17B
330
2
100
AcDbSymbolTableRecord
100
AcDbLayerTableRecord
  2
$DDT_AUDIT_GENERATED_(17B)
 70
     0
 62
     7
  6
Continuous
370
    -3
390
F
  0
LAYER
  5
213
330
2
100
AcDbSymbolTableRecord
100
AcDbLayerTableRecord
  2
$DDT_AUDIT_GENERATED_(213)
 70
     0
 62
     7
  6
Continuous
370
    -3
390
F
  0
ENDTAB
  0
TABLE
  2
STYLE
  5
3
330
0
100
AcDbSymbolTable
 70
     2
  0
STYLE
  5
11
330
3
100
AcDbSymbolTableRecord
100
AcDbTextStyleTableRecord
  2
Standard
 70
     0
 40
0.0
 41
1.0
 50
0.0
 71
     0
 42
2.5
  3
txt
  4

  0
STYLE
  5
25A
330
3
100
AcDbSymbolTableRecord
100
AcDbTextStyleTableRecord
  2
SEACAD_seiso_ttf
 70
     0
 40
0.0
 41
1.0
 50
0.0
 71
     0
 42
0.2
  3
seiso.ttf
  4

  0
ENDTAB
  0
TABLE
  2
VIEW
  5
6
330
0
100
AcDbSymbolTable
 70
     0
  0
ENDTAB
  0
TABLE
  2
UCS
  5
7
330
0
100
AcDbSymbolTable
 70
     0
  0
ENDTAB
  0
TABLE
  2
APPID
  5
9
330
0
100
AcDbSymbolTable
 70
     1
  0
APPID
  5
12
330
9
100
AcDbSymbolTableRecord
100
AcDbRegAppTableRecord
  2
ACAD
 70
     0
  0
ENDTAB
  0
TABLE
  2
DIMSTYLE
  5
A
330
0
100
AcDbSymbolTable
 70
     1
100
AcDbDimStyleTable
  0
DIMSTYLE
105
27
330
A
100
AcDbSymbolTableRecord
100
AcDbDimStyleTableRecord
  2
ISO-25
 70
     0
 41
2.5
 42
0.625
 43
3.75
 44
1.25
 73
     0
 74
     0
 77
     1
 78
     8
140
2.5
141
2.5
143
0.0393700787
147
0.625
171
     3
172
     1
271
     2
272
     2
274
     3
278
    44
283
     0
284
     8
340
11
  0
ENDTAB
  0
TABLE
  2
BLOCK_RECORD
  5
1
330
0
100
AcDbSymbolTable
 70
     9
  0
BLOCK_RECORD
  5
1F
330
1
100
AcDbSymbolTableRecord
100
AcDbBlockTableRecord
  2
*Model_Space
340
22
  0
BLOCK_RECORD
  5
1B
330
1
100
AcDbSymbolTableRecord
100
AcDbBlockTableRecord
  2
*Paper_Space
340
1E
  0
BLOCK_RECORD
  5
5E
330
1
100
AcDbSymbolTableRecord
100
AcDbBlockTableRecord
  2
SEANNOT_GROUP
340
0
102
{BLKREFS
331
5F
102
}
  0
BLOCK_RECORD
  5
65
330
1
100
AcDbSymbolTableRecord
100
AcDbBlockTableRecord
  2
SEANNOT_GROUP1
340
0
102
{BLKREFS
331
66
102
}
  0
BLOCK_RECORD
  5
6B
330
1
100
AcDbSymbolTableRecord
100
AcDbBlockTableRecord
  2
SEANNOT_GROUP2
340
0
102
{BLKREFS
331
6C
102
}
  0
BLOCK_RECORD
  5
75
330
1
100
AcDbSymbolTableRecord
100
AcDbBlockTableRecord
  2
SEANNOT_GROUP3
340
0
102
{BLKREFS
331
76
102
}
  0
BLOCK_RECORD
  5
7F
330
1
100
AcDbSymbolTableRecord
100
AcDbBlockTableRecord
  2
SEANNOT_GROUP4
340
0
102
{BLKREFS
331
80
102
}
  0
BLOCK_RECORD
  5
85
330
1
100
AcDbSymbolTableRecord
100
AcDbBlockTableRecord
  2
SE
340
0
102
{BLKREFS
331
86
102
}
  0
BLOCK_RECORD
  5
129
330
1
100
AcDbSymbolTableRecord
100
AcDbBlockTableRecord
  2
SE1
340
0
102
{BLKREFS
331
12A
102
}
  0
BLOCK_RECORD
  5
191
330
1
100
AcDbSymbolTableRecord
100
AcDbBlockTableRecord
  2
SE2
340
0
102
{BLKREFS
331
192
102
}
  0
ENDTAB
  0
ENDSEC
  0
SECTION
  2
BLOCKS
  0
BLOCK
  5
20
330
1F
100
AcDbEntity
  8
0
100
AcDbBlockBegin
  2
*Model_Space
 70
     0
 10
0.0
 20
0.0
 30
0.0
  3
*Model_Space
  1

  0
ENDBLK
  5
21
330
1F
100
AcDbEntity
  8
0
100
AcDbBlockEnd
  0
BLOCK
  5
1C
330
1B
100
AcDbEntity
 67
     1
  8
0
100
AcDbBlockBegin
  2
*Paper_Space
 70
     0
 10
0.0
 20
0.0
 30
0.0
  3
*Paper_Space
  1

  0
ENDBLK
  5
1D
330
1B
100
AcDbEntity
 67
     1
  8
0
100
AcDbBlockEnd
  0
BLOCK
  5
63
330
5E
100
AcDbEntity
  8
0
100
AcDbBlockBegin
  2
SEANNOT_GROUP
 70
     0
 10
0.0
 20
0.0
 30
0.0
  3
SEANNOT_GROUP
  1

  0
LINE
  5
61
330
5E
100
AcDbEntity
  8
Default
  6
CENTER2
 62
     7
100
AcDbLine
 10
100.5700207483
 20
259.7553528749
 30
0.0
 11
60.5700216423
 21
259.7553528749
 31
0.0
  0
LINE
  5
62
330
5E
100
AcDbEntity
  8
Default
  6
CENTER2
 62
     7
100
AcDbLine
 10
80.5700211953
 20
279.7553524279
 30
0.0
 11
80.5700211953
 21
239.7553533219
 31
0.0
  0
ENDBLK
  5
64
330
5E
100
AcDbEntity
  8
0
100
AcDbBlockEnd
  0
BLOCK
  5
69
330
65
100
AcDbEntity
  8
0
100
AcDbBlockBegin
  2
SEANNOT_GROUP1
 70
     0
 10
0.0
 20
0.0
 30
0.0
  3
SEANNOT_GROUP1
  1

  0
LINE
  5
67
330
65
100
AcDbEntity
  8
Default
  6
CENTER2
 62
     7
100
AcDbLine
 10
250.5699783688
 20
259.7553528749
 30
0.0
 11
210.5699792629
 21
259.7553528749
 31
0.0
  0
LINE
  5
68
330
65
100
AcDbEntity
  8
Default
  6
CENTER2
 62
     7
100
AcDbLine
 10
230.5699788158
 20
279.7553524279
 30
0.0
 11
230.5699788158
 21
239.7553533219
 31
0.0
  0
ENDBLK
  5
6A
330
65
100
AcDbEntity
  8
0
100
AcDbBlockEnd
  0
BLOCK
  5
73
330
6B
100
AcDbEntity
  8
0
100
AcDbBlockBegin
  2
SEANNOT_GROUP2
 70
     0
 10
0.0
 20
0.0
 30
0.0
  3
SEANNOT_GROUP2
  1

  0
LINE
  5
6D
330
6B
100
AcDbEntity
  8
Default
  6
CENTER2
 62
     7
100
AcDbLine
 10
100.5708081004
 20
354.0097117687
 30
0.0
 11
60.5708089945
 21
354.0097117687
 31
0.0
  0
LINE
  5
6E
330
6B
100
AcDbEntity
  8
Default
  6
CENTER2
 62
     7
100
AcDbLine
 10
80.5708085474
 20
374.0097113216
 30
0.0
 11
80.5708085474
 21
334.0097122157
 31
0.0
  0
LINE
  5
6F
330
6B
100
AcDbEntity
  8
Default
  6
CENTER2
 62
     7
100
AcDbLine
 10
105.5708079887
 20
354.0097117687
 30
0.0
 11
98.0693884135
 21
354.0097117687
 31
0.0
  0
LINE
  5
70
330
6B
100
AcDbEntity
  8
Default
  6
CENTER2
 62
     7
100
AcDbLine
 10
80.5708085474
 20
379.0097112099
 30
0.0
 11
80.5708085474
 21
371.5082916348
 31
0.0
  0
LINE
  5
71
330
6B
100
AcDbEntity
  8
Default
  6
CENTER2
 62
     7
100
AcDbLine
 10
55.5708091062
 20
354.0097117687
 30
0.0
 11
63.0722286814
 21
354.0097117687
 31
0.0
  0
LINE
  5
72
330
6B
100
AcDbEntity
  8
Default
  6
CENTER2
 62
     7
100
AcDbLine
 10
80.5708085474
 20
329.0097123275
 30
0.0
 11
80.5708085474
 21
336.5111319026
 31
0.0
  0
ENDBLK
  5
74
330
6B
100
AcDbEntity
  8
0
100
AcDbBlockEnd
  0
BLOCK
  5
7D
330
75
100
AcDbEntity
  8
0
100
AcDbBlockBegin
  2
SEANNOT_GROUP3
 70
     0
 10
0.0
 20
0.0
 30
0.0
  3
SEANNOT_GROUP3
  1

  0
LINE
  5
77
330
75
100
AcDbEntity
  8
Default
  6
CENTER2
 62
     7
100
AcDbLine
 10
250.5699783688
 20
354.0097089597
 30
0.0
 11
210.5699792629
 21
354.0097089597
 31
0.0
  0
LINE
  5
78
330
75
100
AcDbEntity
  8
Default
  6
CENTER2
 62
     7
100
AcDbLine
 10
230.5699788158
 20
374.0097085126
 30
0.0
 11
230.5699788158
 21
334.0097094067
 31
0.0
  0
LINE
  5
79
330
75
100
AcDbEntity
  8
Default
  6
CENTER2
 62
     7
100
AcDbLine
 10
255.569978257
 20
354.0097089597
 30
0.0
 11
248.5699788158
 21
354.0097089597
 31
0.0
  0
LINE
  5
7A
330
75
100
AcDbEntity
  8
Default
  6
CENTER2
 62
     7
100
AcDbLine
 10
230.5699788158
 20
379.0097084009
 30
0.0
 11
230.5699788158
 21
372.0097089597
 31
0.0
  0
LINE
  5
7B
330
75
100
AcDbEntity
  8
Default
  6
CENTER2
 62
     7
100
AcDbLine
 10
205.5699793746
 20
354.0097089597
 30
0.0
 11
212.5699788158
 21
354.0097089597
 31
0.0
  0
LINE
  5
7C
330
75
100
AcDbEntity
  8
Default
  6
CENTER2
 62
     7
100
AcDbLine
 10
230.5699788158
 20
329.0097095185
 30
0.0
 11
230.5699788158
 21
336.0097089597
 31
0.0
  0
ENDBLK
  5
7E
330
75
100
AcDbEntity
  8
0
100
AcDbBlockEnd
  0
BLOCK
  5
83
330
7F
100
AcDbEntity
  8
0
100
AcDbBlockBegin
  2
SEANNOT_GROUP4
 70
     0
 10
0.0
 20
0.0
 30
0.0
  3
SEANNOT_GROUP4
  1

  0
LINE
  5
81
330
7F
100
AcDbEntity
  8
Default
  6
CENTER2
 62
     7
100
AcDbLine
 10
387.468499553
 20
354.0097089607
 30
0.0
 11
347.468500447
 21
354.0097089607
 31
0.0
  0
LINE
  5
82
330
7F
100
AcDbEntity
  8
Default
  6
CENTER2
 62
     7
100
AcDbLine
 10
367.4685
 20
374.0097085137
 30
0.0
 11
367.4685
 21
334.0097094078
 31
0.0
  0
ENDBLK
  5
84
330
7F
100
AcDbEntity
  8
0
100
AcDbBlockEnd
  0
BLOCK
  5
127
330
85
100
AcDbEntity
  8
0
100
AcDbBlockBegin
  2
SE
 70
     0
 10
0.0
 20
0.0
 30
0.0
  3
SE
  1

  0
LINE
  5
88
330
85
100
AcDbEntity
  8
$DDT_AUDIT_GENERATED_(87)
  6
Continuous
 62
     7
100
AcDbLine
 10
155.5699991524
 20
374.0097117687
 30
0.0
 11
170.57003761
 21
374.0097117687
 31
0.0
  0
LINE
  5
89
330
85
100
AcDbEntity
  8
$DDT_AUDIT_GENERATED_(87)
  6
Continuous
 62
     7
100
AcDbLine
 10
140.56996239
 20
374.0097117687
 30
0.0
 11
155.5699991524
 21
374.0097117687
 31
0.0
  0
LINE
  5
8A
330
85
100
AcDbEntity
  8
$DDT_AUDIT_GENERATED_(87)
  6
Continuous
 62
     7
100
AcDbLine
 10
122.1733415917
 20
374.0097117687
 30
0.0
 11
140.57
 21
374.0097117687
 31
0.0
  0
LINE
  5
8B
330
85
100
AcDbEntity
  8
$DDT_AUDIT_GENERATED_(87)
  6
Continuous
 62
     7
100
AcDbLine
 10
170.57
 20
374.0097117687
 30
0.0
 11
188.9666584077
 21
374.0097117687
 31
0.0
  0
SPLINE
  5
8C
330
85
100
AcDbEntity
  8
$DDT_AUDIT_GENERATED_(87)
  6
Continuous
 62
     7
100
AcDbSpline
210
0.0
220
0.0
230
1.0
 70
     8
 71
     3
 72
    21
 73
    17
 74
     0
 42
0.0000000005697091
 43
0.0000000001
 40
0.0
 40
0.0
 40
0.0
 40
0.0
 40
0.03321860945278
 40
0.0660774165159793
 40
0.1308427115140623
 40
0.2573159687896694
 40
0.3813544747130674
 40
0.443109538643987
 40
0.5049380201019726
 40
0.6285618105973495
 40
0.6906410932548576
 40
0.752891936826904
 40
0.8783746190704933
 40
0.9417301042027983
 40
0.9708007414976199
 40
1.0
 40
1.0
 40
1.0
 40
1.0
 10
189.570055804855
 20
374.0096627697836
 30
0.0
 10
189.2578799687111
 20
374.0096115544549
 30
0.0
 10
188.6370281472304
 20
374.0096024700621
 30
0.0
 10
187.4114704940357
 20
374.0095055237359
 30
0.0
 10
185.3313435014539
 20
374.0089942283941
 30
0.0
 10
182.5064085526241
 20
374.0059762525797
 30
0.0
 10
180.0009270890839
 20
373.985797810108
 30
0.0
 10
178.2819252682915
 20
373.9298158842931
 30
0.0
 10
176.7711711309067
 20
373.8217191473508
 30
0.0
 10
175.5149198851411
 20
373.6301031177865
 30
0.0
 10
174.509725547994
 20
373.333106090536
 30
0.0
 10
173.6455259467314
 20
372.9764378854857
 30
0.0
 10
172.9851514786699
 20
372.571245433649
 30
0.0
 10
172.6722220209953
 20
372.2717309754451
 30
0.0
 10
172.5821521652634
 20
372.119272382967
 30
0.0
 10
172.5740566782396
 20
372.0462856754905
 30
0.0
 10
172.5699999999999
 20
372.0097282510973
 30
0.0
  0
SPLINE
  5
8D
330
85
100
AcDbEntity
  8
$DDT_AUDIT_GENERATED_(87)
  6
Continuous
 62
     7
100
AcDbSpline
210
0.0
220
0.0
230
1.0
 70
     8
 71
     3
 72
    21
 73
    17
 74
     0
 42
0.000000000569697
 43
0.0000000001
 40
0.0
 40
0.0
 40
0.0
 40
0.0
 40
0.0292840191021329
 40
0.0582701435842647
 40
0.1216256040763491
 40
0.2471082375173717
 40
0.3093590568789617
 40
0.3714383153925687
 40
0.4950620578076301
 40
0.5568905152204693
 40
0.6186455551334501
 40
0.7426840128160226
 40
0.8691572209039016
 40
0.9339224907132679
 40
0.966787582009861
 40
1.0
 40
1.0
 40
1.0
 40
1.0
 10
138.5699999999999
 20
372.0097238188384
 30
0.0
 10
138.5659895479747
 20
372.0473827345739
 30
0.0
 10
138.5580094406494
 20
372.1223414546881
 30
0.0
 10
138.4675278414454
 20
372.2699870977914
 30
0.0
 10
138.1549434799724
 20
372.572616870533
 30
0.0
 10
137.4944590556231
 20
372.9762212856208
 30
0.0
 10
136.6302772005428
 20
373.3331457809497
 30
0.0
 10
135.6250785151735
 20
373.6300800418664
 30
0.0
 10
134.3688291359462
 20
373.8217228305753
 30
0.0
 10
132.8580746642031
 20
373.9298152032144
 30
0.0
 10
131.1390730500074
 20
373.9857982200888
 30
0.0
 10
128.6335905216486
 20
374.0059759763988
 30
0.0
 10
125.8086592072621
 20
374.0089946497343
 30
0.0
 10
123.7284671841025
 20
374.0095049605486
 30
0.0
 10
122.5029185097559
 20
374.0096035026891
 30
0.0
 10
121.8820631817499
 20
374.009611900439
 30
0.0
 10
121.5699442019543
 20
374.0096627644438
 30
0.0
  0
LINE
  5
8E
330
85
100
AcDbEntity
  8
$DDT_AUDIT_GENERATED_(87)
  6
Continuous
 62
     7
100
AcDbLine
 10
188.9666583314
 20
374.0097117687
 30
0.0
 11
189.5699961995
 21
374.009709395
 31
0.0
  0
LINE
  5
8F
330
85
100
AcDbEntity
  8
$DDT_AUDIT_GENERATED_(87)
  6
Continuous
 62
     7
100
AcDbLine
 10
121.5700038005
 20
374.009709395
 30
0.0
 11
122.1733416656
 21
374.0097117687
 31
0.0
  0
ARC
  5
90
330
85
100
AcDbEntity
  8
$DDT_AUDIT_GENERATED_(87)
  6
Continuous
 62
     7
100
AcDbCircle
 10
140.5699457646
 20
372.0097471988
 30
0.0
 40
1.999964569942491
100
AcDbArc
 50
89.9995237096
 51
180.0010150163
  0
ARC
  5
91
330
85
100
AcDbEntity
  8
$DDT_AUDIT_GENERATED_(87)
  6
Continuous
 62
     7
100
AcDbCircle
 10
170.57
 20
372.0097117687
 30
0.0
 40
1.999999999999984
100
AcDbArc
 50
0.0
 51
89.9996632978
  0
LINE
  5
92
330
85
100
AcDbEntity
  8
$DDT_AUDIT_GENERATED_(87)
  6
Continuous
 62
     7
100
AcDbLine
 10
171.57003761
 20
344.0097117687
 30
0.0
 11
155.5699993643
 21
344.0097117687
 31
0.0
  0
LINE
  5
93
330
85
100
AcDbEntity
  8
$DDT_AUDIT_GENERATED_(87)
  6
Continuous
 62
     7
100
AcDbLine
 10
155.5699993643
 20
344.0097117687
 30
0.0
 11
139.56996239
 21
344.0097117687
 31
0.0
  0
LINE
  5
94
330
85
100
AcDbEntity
  8
$DDT_AUDIT_GENERATED_(87)
  6
Continuous
 62
     7
100
AcDbLine
 10
139.57
 20
344.0097117687
 30
0.0
 11
138.1539475295
 21
344.0097117687
 31
0.0
  0
LINE
  5
95
330
85
100
AcDbEntity
  8
$DDT_AUDIT_GENERATED_(87)
  6
Continuous
 62
     7
100
AcDbLine
 10
138.57
 20
345.0097117687
 30
0.0
 11
138.57
 21
372.0097117687
 31
0.0
  0
LINE
  5
96
330
85
100
AcDbEntity
  8
$DDT_AUDIT_GENERATED_(87)
  6
Continuous
 62
     7
100
AcDbLine
 10
172.5699971902
 20
345.0097120184
 30
0.0
 11
172.5699971902
 21
372.0097115192
 31
0.0
  0
LINE
  5
97
330
85
100
AcDbEntity
  8
$DDT_AUDIT_GENERATED_(87)
  6
Continuous
 62
     7
100
AcDbLine
 10
179.570460256
 20
344.5356941999
 30
0.0
 11
179.5485084362
 21
344.5297505171
 31
0.0
  0
ARC
  5
98
330
85
100
AcDbEntity
  8
$DDT_AUDIT_GENERATED_(87)
  6
Continuous
 62
     7
100
AcDbCircle
 10
171.5700528924
 20
345.0096748716
 30
0.0
 40
0.9999631034588561
100
AcDbArc
 50
269.9980468622
 51
0.0021284375
  0
ARC
  5
99
330
85
100
AcDbEntity
  8
$DDT_AUDIT_GENERATED_(87)
  6
Continuous
 62
     7
100
AcDbCircle
 10
139.57
 20
345.0097117687
 30
0.0
 40
1.000000000000003
100
AcDbArc
 50
180.0
 51
269.9989225531
  0
LINE
  5
9A
330
85
100
AcDbEntity
  8
$DDT_AUDIT_GENERATED_(87)
  6
Continuous
 62
     7
100
AcDbLine
 10
131.5914917523
 20
344.5297504661
 30
0.0
 11
131.569539744
 21
344.5356941999
 31
0.0
  0
LINE
  5
9B
330
85
100
AcDbEntity
  8
$DDT_AUDIT_GENERATED_(87)
  6
Continuous
 62
     7
100
AcDbLine
 10
172.9860524705
 20
344.0097117687
 30
0.0
 11
171.57
 21
344.0097117687
 31
0.0
  0
LINE
  5
9C
330
85
100
AcDbEntity
  8
$DDT_AUDIT_GENERATED_(87)
  6
Continuous
 62
     7
100
AcDbLine
 10
63.07
 20
334.3097117687
 30
0.0
 11
63.07
 21
373.7097117687
 31
0.0
  0
LINE
  5
9D
330
85
100
AcDbEntity
  8
$DDT_AUDIT_GENERATED_(87)
  6
Continuous
 62
     7
100
AcDbLine
 10
248.07
 20
373.7097117687
 30
0.0
 11
248.07
 21
334.3097117687
 31
0.0
  0
LINE
  5
9E
330
85
100
AcDbEntity
  8
$DDT_AUDIT_GENERATED_(87)
  6
Continuous
 62
     7
100
AcDbLine
 10
63.37
 20
334.0097117687
 30
0.0
 11
145.32
 21
334.0097117687
 31
0.0
  0
LINE
  5
9F
330
85
100
AcDbEntity
  8
$DDT_AUDIT_GENERATED_(87)
  6
Continuous
 62
     7
100
AcDbLine
 10
165.82
 20
334.0097117687
 30
0.0
 11
247.77
 21
334.0097117687
 31
0.0
  0
LINE
  5
A0
330
85
100
AcDbEntity
  8
$DDT_AUDIT_GENERATED_(87)
  6
Continuous
 62
     7
100
AcDbLine
 10
121.5377722434
 20
374.0097117687
 30
0.0
 11
63.37
 21
374.0097117687
 31
0.0
  0
LINE
  5
A1
330
85
100
AcDbEntity
  8
$DDT_AUDIT_GENERATED_(87)
  6
Continuous
 62
     7
100
AcDbLine
 10
247.77
 20
374.0097117687
 30
0.0
 11
189.6022277566
 21
374.0097117687
 31
0.0
  0
ARC
  5
A2
330
85
100
AcDbEntity
  8
$DDT_AUDIT_GENERATED_(87)
  6
Continuous
 62
     7
100
AcDbCircle
 10
63.37
 20
334.3097117687
 30
0.0
 40
0.2999999999999947
100
AcDbArc
 50
180.0
 51
270.0
  0
ARC
  5
A3
330
85
100
AcDbEntity
  8
$DDT_AUDIT_GENERATED_(87)
  6
Continuous
 62
     7
100
AcDbCircle
 10
63.37
 20
373.7097117687
 30
0.0
 40
0.3000000000000017
100
AcDbArc
 50
90.0
 51
180.0
  0
ARC
  5
A4
330
85
100
AcDbEntity
  8
$DDT_AUDIT_GENERATED_(87)
  6
Continuous
 62
     7
100
AcDbCircle
 10
247.77
 20
373.7097117687
 30
0.0
 40
0.2999999999999947
100
AcDbArc
 50
0.0
 51
90.0
  0
ARC
  5
A5
330
85
100
AcDbEntity
  8
$DDT_AUDIT_GENERATED_(87)
  6
Continuous
 62
     7
100
AcDbCircle
 10
247.77
 20
334.3097117687
 30
0.0
 40
0.3000000000000017
100
AcDbArc
 50
270.0
 51
0.0
  0
LINE
  5
A7
330
85
100
AcDbEntity
  8
A4225108_211188_
  6
Continuous
 62
     7
100
AcDbLine
 10
165.82
 20
323.4538528749
 30
0.0
 11
145.32
 21
323.4538528749
 31
0.0
  0
LINE
  5
A8
330
85
100
AcDbEntity
  8
A4225108_211188_
  6
Continuous
 62
     7
100
AcDbLine
 10
146.32
 20
322.4538528749
 30
0.0
 11
164.82
 21
322.4538528749
 31
0.0
  0
LINE
  5
A9
330
85
100
AcDbEntity
  8
A4225108_211188_
  6
Continuous
 62
     7
100
AcDbLine
 10
165.82
 20
323.4538528749
 30
0.0
 11
165.82
 21
344.0097117687
 31
0.0
  0
LINE
  5
AA
330
85
100
AcDbEntity
  8
A4225108_211188_
  6
Continuous
 62
     7
100
AcDbLine
 10
145.32
 20
344.0097117687
 30
0.0
 11
145.32
 21
323.4538528749
 31
0.0
  0
LINE
  5
AB
330
85
100
AcDbEntity
  8
A4225108_211188_
  6
Continuous
 62
     7
100
AcDbLine
 10
145.32
 20
323.4538528749
 30
0.0
 11
146.32
 21
322.4538528749
 31
0.0
  0
LINE
  5
AC
330
85
100
AcDbEntity
  8
A4225108_211188_
  6
Continuous
 62
     7
100
AcDbLine
 10
164.82
 20
322.4538528749
 30
0.0
 11
165.82
 21
323.4538528749
 31
0.0
  0
LINE
  5
AE
330
85
100
AcDbEntity
  8
A4225112_211188_
  6
Continuous
 62
     7
100
AcDbLine
 10
149.97
 20
379.6038528749
 30
0.0
 11
149.97
 21
374.0097117687
 31
0.0
  0
LINE
  5
AF
330
85
100
AcDbEntity
  8
A4225112_211188_
  6
Continuous
 62
     7
100
AcDbLine
 10
161.17
 20
374.0097117687
 30
0.0
 11
161.17
 21
379.6038528749
 31
0.0
  0
LINE
  5
B1
330
85
100
AcDbEntity
  8
$DDT_AUDIT_GENERATED_(B0)
  6
Continuous
 62
     7
100
AcDbLine
 10
62.35
 20
347.3629933925
 30
0.0
 11
63.07
 21
347.3629933925
 31
0.0
  0
LINE
  5
B2
330
85
100
AcDbEntity
  8
$DDT_AUDIT_GENERATED_(B0)
  6
Continuous
 62
     7
100
AcDbLine
 10
62.35
 20
343.0328663736
 30
0.0
 11
63.07
 21
343.0328663736
 31
0.0
  0
LINE
  5
B3
330
85
100
AcDbEntity
  8
$DDT_AUDIT_GENERATED_(B0)
  6
Continuous
 62
     7
100
AcDbLine
 10
62.35
 20
343.6898950441
 30
0.0
 11
63.07
 21
343.6898950441
 31
0.0
  0
LINE
  5
B4
330
85
100
AcDbEntity
  8
$DDT_AUDIT_GENERATED_(B0)
  6
Continuous
 62
     7
100
AcDbLine
 10
63.07
 20
371.8097117687
 30
0.0
 11
62.35
 21
371.8097117687
 31
0.0
  0
LINE
  5
B5
330
85
100
AcDbEntity
  8
$DDT_AUDIT_GENERATED_(B0)
  6
Continuous
 62
     7
100
AcDbLine
 10
62.35
 20
336.2097117687
 30
0.0
 11
63.07
 21
336.2097117687
 31
0.0
  0
LINE
  5
B7
330
85
100
AcDbEntity
  8
$DDT_AUDIT_GENERATED_(B6)
  6
Continuous
 62
     7
100
AcDbLine
 10
248.07
 20
370.8352500842
 30
0.0
 11
248.77
 21
370.8352500842
 31
0.0
  0
LINE
  5
B8
330
85
100
AcDbEntity
  8
$DDT_AUDIT_GENERATED_(B6)
  6
Continuous
 62
     7
100
AcDbLine
 10
248.07
 20
356.8838939862
 30
0.0
 11
248.77
 21
356.8838939862
 31
0.0
  0
LINE
  5
B9
330
85
100
AcDbEntity
  8
$DDT_AUDIT_GENERATED_(B6)
  6
Continuous
 62
     7
100
AcDbLine
 10
248.07
 20
340.0583556707
 30
0.0
 11
248.77
 21
340.0583556707
 31
0.0
  0
LINE
  5
BA
330
85
100
AcDbEntity
  8
$DDT_AUDIT_GENERATED_(B6)
  6
Continuous
 62
     7
100
AcDbLine
 10
248.77
 20
336.01151876
 30
0.0
 11
248.07
 21
336.01151876
 31
0.0
  0
LINE
  5
BB
330
85
100
AcDbEntity
  8
$DDT_AUDIT_GENERATED_(B6)
  6
Continuous
 62
     7
100
AcDbLine
 10
248.77
 20
345.2314915105
 30
0.0
 11
248.07
 21
345.2314915105
 31
0.0
  0
LINE
  5
BC
330
85
100
AcDbEntity
  8
$DDT_AUDIT_GENERATED_(B6)
  6
Continuous
 62
     7
100
AcDbLine
 10
248.77
 20
363.2296845192
 30
0.0
 11
248.07
 21
363.2296845192
 31
0.0
  0
LINE
  5
BD
330
85
100
AcDbEntity
  8
$DDT_AUDIT_GENERATED_(B6)
  6
Continuous
 62
     7
100
AcDbLine
 10
248.77
 20
372.0097117687
 30
0.0
 11
248.07
 21
372.0097117687
 31
0.0
  0
LINE
  5
BE
330
85
100
AcDbEntity
  8
$DDT_AUDIT_GENERATED_(B6)
  6
Continuous
 62
     7
100
AcDbLine
 10
248.07
 20
336.0097117687
 30
0.0
 11
248.77
 21
336.0097117687
 31
0.0
  0
LINE
  5
C0
330
85
100
AcDbEntity
  8
$DDT_AUDIT_GENERATED_(BF)
  6
Continuous
 62
     7
100
AcDbLine
 10
40.7342313451
 20
358.1508164903
 30
0.0
 11
41.45
 21
358.1508164903
 31
0.0
  0
LINE
  5
C1
330
85
100
AcDbEntity
  8
$DDT_AUDIT_GENERATED_(BF)
  6
Continuous
 62
     7
100
AcDbLine
 10
40.9804891887
 20
357.6331784001
 30
0.0
 11
41.45
 21
357.6331784001
 31
0.0
  0
ARC
  5
C2
330
85
100
AcDbEntity
  8
$DDT_AUDIT_GENERATED_(BF)
  6
Continuous
 62
     7
100
AcDbCircle
 10
41.458068354
 20
357.1412681659
 30
0.0
 40
0.4919763986601727
100
AcDbArc
 50
61.9215076935
 51
90.9396860461
  0
LINE
  5
C3
330
85
100
AcDbEntity
  8
$DDT_AUDIT_GENERATED_(BF)
  6
Continuous
 62
     7
100
AcDbLine
 10
34.35
 20
363.1626242004
 30
0.0
 11
34.35
 21
363.8102196778
 31
0.0
  0
LINE
  5
C4
330
85
100
AcDbEntity
  8
$DDT_AUDIT_GENERATED_(BF)
  6
Continuous
 62
     7
100
AcDbLine
 10
31.55
 20
344.4274756139
 30
0.0
 11
31.55
 21
344.0447431533
 31
0.0
  0
LINE
  5
C5
330
85
100
AcDbEntity
  8
$DDT_AUDIT_GENERATED_(BF)
  6
Continuous
 62
     7
100
AcDbLine
 10
27.55
 20
345.6566736853
 30
0.0
 11
27.55
 21
345.2267360569
 31
0.0
  0
LINE
  5
C6
330
85
100
AcDbEntity
  8
$DDT_AUDIT_GENERATED_(BF)
  6
Continuous
 62
     7
100
AcDbLine
 10
41.95
 20
351.2336377926
 30
0.0
 11
41.95
 21
356.7933916206
 31
0.0
  0
SPLINE
  5
C7
330
85
100
AcDbEntity
  8
$DDT_AUDIT_GENERATED_(BF)
  6
Continuous
 62
     7
100
AcDbSpline
210
0.0
220
0.0
230
1.0
 70
     8
 71
     3
 72
     8
 73
     4
 74
     0
 42
0.0000000085025621
 43
0.0000000001
 40
0.7601048009716858
 40
0.7601048009716858
 40
0.7601048009716858
 40
0.7601048009716858
 40
0.912087270899115
 40
0.912087270899115
 40
0.912087270899115
 40
0.912087270899115
 10
31.67545415586992
 20
344.0449398108318
 30
0.0
 10
31.7074787823723
 20
344.0947397799357
 30
0.0
 10
31.74821212726649
 20
344.1391688927558
 30
0.0
 10
31.79601478818216
 20
344.1742012580931
 30
0.0
  0
LINE
  5
C8
330
85
100
AcDbEntity
  8
$DDT_AUDIT_GENERATED_(BF)
  6
Continuous
 62
     7
100
AcDbLine
 10
29.55
 20
363.0144811444
 30
0.0
 11
29.55
 21
363.4044970138
 31
0.0
  0
LINE
  5
C9
330
85
100
AcDbEntity
  8
$DDT_AUDIT_GENERATED_(BF)
  6
Continuous
 62
     7
100
AcDbLine
 10
31.55
 20
363.9661374268
 30
0.0
 11
31.55
 21
363.8806492371
 31
0.0
  0
LINE
  5
CA
330
85
100
AcDbEntity
  8
$DDT_AUDIT_GENERATED_(BF)
  6
Continuous
 62
     7
100
AcDbLine
 10
31.55
 20
363.8806492371
 30
0.0
 11
30.7894959126
 21
363.8806492371
 31
0.0
  0
LINE
  5
CB
330
85
100
AcDbEntity
  8
$DDT_AUDIT_GENERATED_(BF)
  6
Continuous
 62
     7
100
AcDbLine
 10
31.55
 20
363.8806492371
 30
0.0
 11
31.55
 21
363.4044970138
 31
0.0
  0
LINE
  5
CC
330
85
100
AcDbEntity
  8
$DDT_AUDIT_GENERATED_(BF)
  6
Continuous
 62
     7
100
AcDbLine
 10
29.55
 20
363.4044970138
 30
0.0
 11
29.55
 21
363.6092206534
 31
0.0
  0
LINE
  5
CE
330
85
100
AcDbEntity
  8
$DDT_AUDIT_GENERATED_(CD)
  6
Continuous
 62
     7
100
AcDbLine
 10
41.8
 20
357.1341616634
 30
0.0
 11
41.1705007109
 21
357.1341616634
 31
0.0
  0
LINE
  5
CF
330
85
100
AcDbEntity
  8
$DDT_AUDIT_GENERATED_(CD)
  6
Continuous
 62
     7
100
AcDbLine
 10
36.6801381949
 20
345.001391421
 30
0.0
 11
35.5161629549
 21
345.001391421
 31
0.0
  0
LINE
  5
D0
330
85
100
AcDbEntity
  8
$DDT_AUDIT_GENERATED_(CD)
  6
Continuous
 62
     7
100
AcDbLine
 10
41.8
 20
357.1341616634
 30
0.0
 11
41.8
 21
350.7709361832
 31
0.0
  0
LINE
  5
D1
330
85
100
AcDbEntity
  8
$DDT_AUDIT_GENERATED_(CD)
  6
Continuous
 62
     7
100
AcDbLine
 10
31.8
 20
344.0320018593
 30
0.0
 11
31.8
 21
344.3030188568
 31
0.0
  0
LINE
  5
D2
330
85
100
AcDbEntity
  8
$DDT_AUDIT_GENERATED_(CD)
  6
Continuous
 62
     7
100
AcDbLine
 10
35.515954563
 20
345.0013224572
 30
0.0
 11
36.6799886582
 21
345.0013224572
 31
0.0
  0
LINE
  5
D3
330
85
100
AcDbEntity
  8
$DDT_AUDIT_GENERATED_(CD)
  6
Continuous
 62
     7
100
AcDbLine
 10
34.7452248397
 20
344.3030188568
 30
0.0
 11
31.8
 21
344.3030188568
 31
0.0
  0
LINE
  5
D4
330
85
100
AcDbEntity
  8
$DDT_AUDIT_GENERATED_(CD)
  6
Continuous
 62
     7
100
AcDbLine
 10
31.8
 20
344.3030188568
 30
0.0
 11
31.8
 21
344.4123295505
 31
0.0
  0
CIRCLE
  5
D6
330
85
100
AcDbEntity
  8
$DDT_AUDIT_GENERATED_(D5)
  6
Continuous
 62
     7
100
AcDbCircle
 10
32.25
 20
353.9097117687
 30
0.0
 40
9.500000000000002
  0
SPLINE
  5
D7
330
85
100
AcDbEntity
  8
$DDT_AUDIT_GENERATED_(D5)
  6
Continuous
 62
     7
100
AcDbSpline
210
0.0
220
0.0
230
1.0
 70
    12
 71
     2
 72
     6
 73
     3
 74
     0
 42
0.0000000994709998
 43
0.0000000001
 40
0.0
 40
0.0
 40
0.0
 40
1.0
 40
1.0
 40
1.0
 10
33.77172193439176
 20
363.2870441374488
 30
0.0
 41
1.0
 10
33.77078178771653
 20
363.3374018888219
 30
0.0
 41
1.0
 10
33.76977595179864
 20
363.3875570910042
 30
0.0
 41
1.0
  0
LINE
  5
D8
330
85
100
AcDbEntity
  8
$DDT_AUDIT_GENERATED_(D5)
  6
Continuous
 62
     7
100
AcDbLine
 10
28.95
 20
363.2491273905
 30
0.0
 11
28.95
 21
362.8181347492
 31
0.0
  0
LINE
  5
D9
330
85
100
AcDbEntity
  8
$DDT_AUDIT_GENERATED_(D5)
  6
Continuous
 62
     7
100
AcDbLine
 10
23.45
 20
350.0483648534
 30
0.0
 11
23.3545454545
 21
350.57491216
 31
0.0
  0
LINE
  5
DA
330
85
100
AcDbEntity
  8
$DDT_AUDIT_GENERATED_(D5)
  6
Continuous
 62
     7
100
AcDbLine
 10
23.45
 20
349.4584658716
 30
0.0
 11
23.45
 21
350.0483648534
 31
0.0
  0
ELLIPSE
  5
DB
330
85
100
AcDbEntity
  8
$DDT_AUDIT_GENERATED_(D5)
  6
Continuous
 62
     7
100
AcDbEllipse
 10
26.8633822259
 20
350.033561916
 30
0.0
 11
0.1208704216937306
 21
-6.999997444956633
 31
0.0
210
0.0
220
0.0
230
1.0
 40
0.0494815199
 41
0.8523413720573134
 42
0.9316751060984525
  0
ARC
  5
DC
330
85
100
AcDbEntity
  8
$DDT_AUDIT_GENERATED_(D5)
  6
Continuous
 62
     7
100
AcDbCircle
 10
26.9252133395
 20
346.4267713078
 30
0.0
 40
0.3160492981505423
100
AcDbArc
 50
236.3748261194
 51
258.9483167073
  0
LINE
  5
DD
330
85
100
AcDbEntity
  8
$DDT_AUDIT_GENERATED_(D5)
  6
Continuous
 62
     7
100
AcDbLine
 10
32.4767673297
 20
363.7097117687
 30
0.0
 11
33.4357738948
 21
363.7097117687
 31
0.0
  0
ARC
  5
DE
330
85
100
AcDbEntity
  8
$DDT_AUDIT_GENERATED_(D5)
  6
Continuous
 62
     7
100
AcDbCircle
 10
33.4317094123
 20
363.3712779097
 30
0.0
 40
0.3384582646275182
100
AcDbArc
 50
2.7568787211
 51
89.3119290773
  0
ARC
  5
DF
330
85
100
AcDbEntity
  8
$DDT_AUDIT_GENERATED_(D5)
  6
Continuous
 62
     7
100
AcDbCircle
 10
32.4816699158
 20
363.3670490476
 30
0.0
 40
0.3426977907577877
100
AcDbArc
 50
90.8196932769
 51
172.9529253512
  0
LINE
  5
E0
330
85
100
AcDbEntity
  8
$DDT_AUDIT_GENERATED_(D5)
  6
Continuous
 62
     7
100
AcDbLine
 10
22.7500162859
 20
353.8921211205
 30
0.0
 11
22.7500162859
 21
357.0004576983
 31
0.0
  0
ARC
  5
E1
330
85
100
AcDbEntity
  8
$DDT_AUDIT_GENERATED_(D5)
  6
Continuous
 62
     7
100
AcDbCircle
 10
32.288799211
 20
353.9697484183
 30
0.0
 40
9.861767300127763
100
AcDbArc
 50
109.7891612724
 51
159.5255596161
  0
SPLINE
  5
E2
330
85
100
AcDbEntity
  8
$DDT_AUDIT_GENERATED_(D5)
  6
Continuous
 62
     7
100
AcDbSpline
210
0.0
220
0.0
230
1.0
 70
     8
 71
     3
 72
    12
 73
     8
 74
     0
 42
0.000000024384038
 43
0.0000000001
 40
0.0
 40
0.0
 40
0.0
 40
0.0
 40
0.5000000000000036
 40
0.5000000000000036
 40
0.7500000000000018
 40
0.7500000000000018
 40
1.0
 40
1.0
 40
1.0
 40
1.0
 10
23.0500162858584
 20
357.4192910463532
 30
0.0
 10
23.02608731189648
 20
357.3554691651092
 30
0.0
 10
23.00057603547767
 20
357.292120476118
 30
0.0
 10
22.95533197628286
 20
357.1994621756429
 30
0.0
 10
22.93909883650353
 20
357.1687343887513
 30
0.0
 10
22.90031292138289
 20
357.1104802158148
 30
0.0
 10
22.87677695446783
 20
357.0804356385909
 30
0.0
 10
22.85022272368825
 20
357.0727856742697
 30
0.0
  0
LINE
  5
E3
330
85
100
AcDbEntity
  8
$DDT_AUDIT_GENERATED_(D5)
  6
Continuous
 62
     7
100
AcDbLine
 10
28.95
 20
363.4163580521
 30
0.0
 11
28.95
 21
363.2491273905
 31
0.0
  0
LINE
  5
E5
330
85
100
AcDbEntity
  8
$DDT_AUDIT_GENERATED_(E4)
  6
Continuous
 62
     7
100
AcDbLine
 10
62.35
 20
373.5097117687
 30
0.0
 11
62.35
 21
334.5097117687
 31
0.0
  0
CIRCLE
  5
E6
330
85
100
AcDbEntity
  8
$DDT_AUDIT_GENERATED_(E4)
  6
Continuous
 62
     7
100
AcDbCircle
 10
32.3499820652
 20
354.0095886046
 30
0.0
 40
10.00002514887398
  0
LINE
  5
E7
330
85
100
AcDbEntity
  8
$DDT_AUDIT_GENERATED_(E4)
  6
Continuous
 62
     7
100
AcDbLine
 10
6.35
 20
373.0097117687
 30
0.0
 11
6.35
 21
335.0097117687
 31
0.0
  0
LINE
  5
E8
330
85
100
AcDbEntity
  8
$DDT_AUDIT_GENERATED_(E4)
  6
Continuous
 62
     7
100
AcDbLine
 10
61.85
 20
374.0097117687
 30
0.0
 11
7.35
 21
374.0097117687
 31
0.0
  0
LINE
  5
E9
330
85
100
AcDbEntity
  8
$DDT_AUDIT_GENERATED_(E4)
  6
Continuous
 62
     7
100
AcDbLine
 10
7.35
 20
334.0097117687
 30
0.0
 11
61.85
 21
334.0097117687
 31
0.0
  0
ARC
  5
EA
330
85
100
AcDbEntity
  8
$DDT_AUDIT_GENERATED_(E4)
  6
Continuous
 62
     7
100
AcDbCircle
 10
61.85
 20
373.5097117687
 30
0.0
 40
0.5000000000000004
100
AcDbArc
 50
0.0
 51
90.0
  0
ARC
  5
EB
330
85
100
AcDbEntity
  8
$DDT_AUDIT_GENERATED_(E4)
  6
Continuous
 62
     7
100
AcDbCircle
 10
61.85
 20
334.5097117687
 30
0.0
 40
0.5000000000001323
100
AcDbArc
 50
270.0
 51
0.0
  0
ARC
  5
EC
330
85
100
AcDbEntity
  8
$DDT_AUDIT_GENERATED_(E4)
  6
Continuous
 62
     7
100
AcDbCircle
 10
7.35
 20
335.0097117687
 30
0.0
 40
0.9999999999995013
100
AcDbArc
 50
180.0
 51
270.0
  0
ARC
  5
ED
330
85
100
AcDbEntity
  8
$DDT_AUDIT_GENERATED_(E4)
  6
Continuous
 62
     7
100
AcDbCircle
 10
7.35
 20
373.0097117687
 30
0.0
 40
0.9999999999995013
100
AcDbArc
 50
90.0
 51
180.0
  0
ARC
  5
EE
330
85
100
AcDbEntity
  8
$DDT_AUDIT_GENERATED_(E4)
  6
Continuous
 62
     7
100
AcDbCircle
 10
25.75
 20
346.6476647744
 30
0.0
 40
0.3000000000000225
100
AcDbArc
 50
0.0
 51
18.8370798508
  0
ARC
  5
EF
330
85
100
AcDbEntity
  8
$DDT_AUDIT_GENERATED_(E4)
  6
Continuous
 62
     7
100
AcDbCircle
 10
25.75
 20
346.6476647744
 30
0.0
 40
0.3000000000000225
100
AcDbArc
 50
75.5423286278
 51
89.7
  0
LINE
  5
F0
330
85
100
AcDbEntity
  8
$DDT_AUDIT_GENERATED_(BF)
  6
Continuous
 62
     7
100
AcDbLine
 10
270.3857686549
 20
349.868607047
 30
0.0
 11
269.67
 21
349.868607047
 31
0.0
  0
LINE
  5
F1
330
85
100
AcDbEntity
  8
$DDT_AUDIT_GENERATED_(BF)
  6
Continuous
 62
     7
100
AcDbLine
 10
270.1395108113
 20
350.3862451372
 30
0.0
 11
269.67
 21
350.3862451372
 31
0.0
  0
ARC
  5
F2
330
85
100
AcDbEntity
  8
$DDT_AUDIT_GENERATED_(BF)
  6
Continuous
 62
     7
100
AcDbCircle
 10
269.661931646
 20
350.8781553714
 30
0.0
 40
0.4919763986601707
100
AcDbArc
 50
241.9215076935
 51
270.9396860461
  0
LINE
  5
F3
330
85
100
AcDbEntity
  8
$DDT_AUDIT_GENERATED_(BF)
  6
Continuous
 62
     7
100
AcDbLine
 10
276.77
 20
344.856799337
 30
0.0
 11
276.77
 21
344.2092038595
 31
0.0
  0
LINE
  5
F4
330
85
100
AcDbEntity
  8
$DDT_AUDIT_GENERATED_(BF)
  6
Continuous
 62
     7
100
AcDbLine
 10
279.57
 20
363.5919479235
 30
0.0
 11
279.57
 21
363.9746803841
 31
0.0
  0
LINE
  5
F5
330
85
100
AcDbEntity
  8
$DDT_AUDIT_GENERATED_(BF)
  6
Continuous
 62
     7
100
AcDbLine
 10
283.57
 20
362.362749852
 30
0.0
 11
283.57
 21
362.7926874805
 31
0.0
  0
LINE
  5
F6
330
85
100
AcDbEntity
  8
$DDT_AUDIT_GENERATED_(BF)
  6
Continuous
 62
     7
100
AcDbLine
 10
269.17
 20
356.7857857448
 30
0.0
 11
269.17
 21
351.2260319168
 31
0.0
  0
SPLINE
  5
F7
330
85
100
AcDbEntity
  8
$DDT_AUDIT_GENERATED_(BF)
  6
Continuous
 62
     7
100
AcDbSpline
210
0.0
220
0.0
230
1.0
 70
     8
 71
     3
 72
     8
 73
     4
 74
     0
 42
0.0000000085025621
 43
0.0000000001
 40
0.7601048009717026
 40
0.7601048009717026
 40
0.7601048009717026
 40
0.7601048009717026
 40
0.912087270899115
 40
0.912087270899115
 40
0.912087270899115
 40
0.912087270899115
 10
279.4445458441296
 20
363.9744837265249
 30
0.0
 10
279.4125212176272
 20
363.9246837574211
 30
0.0
 10
279.371787872733
 20
363.8802546446009
 30
0.0
 10
279.3239852118173
 20
363.8452222792635
 30
0.0
  0
LINE
  5
F8
330
85
100
AcDbEntity
  8
$DDT_AUDIT_GENERATED_(BF)
  6
Continuous
 62
     7
100
AcDbLine
 10
281.57
 20
345.0049423929
 30
0.0
 11
281.57
 21
344.6149265236
 31
0.0
  0
LINE
  5
F9
330
85
100
AcDbEntity
  8
$DDT_AUDIT_GENERATED_(BF)
  6
Continuous
 62
     7
100
AcDbLine
 10
279.57
 20
344.0532861105
 30
0.0
 11
279.57
 21
344.1387743002
 31
0.0
  0
LINE
  5
FA
330
85
100
AcDbEntity
  8
$DDT_AUDIT_GENERATED_(BF)
  6
Continuous
 62
     7
100
AcDbLine
 10
279.57
 20
344.1387743002
 30
0.0
 11
280.3305040874
 21
344.1387743002
 31
0.0
  0
LINE
  5
FB
330
85
100
AcDbEntity
  8
$DDT_AUDIT_GENERATED_(BF)
  6
Continuous
 62
     7
100
AcDbLine
 10
279.57
 20
344.1387743002
 30
0.0
 11
279.57
 21
344.6149265236
 31
0.0
  0
LINE
  5
FC
330
85
100
AcDbEntity
  8
$DDT_AUDIT_GENERATED_(BF)
  6
Continuous
 62
     7
100
AcDbLine
 10
281.57
 20
344.6149265236
 30
0.0
 11
281.57
 21
344.410202884
 31
0.0
  0
LINE
  5
FD
330
85
100
AcDbEntity
  8
$DDT_AUDIT_GENERATED_(CD)
  6
Continuous
 62
     7
100
AcDbLine
 10
269.32
 20
350.8852618739
 30
0.0
 11
269.9494992891
 21
350.8852618739
 31
0.0
  0
LINE
  5
FE
330
85
100
AcDbEntity
  8
$DDT_AUDIT_GENERATED_(CD)
  6
Continuous
 62
     7
100
AcDbLine
 10
274.4398618051
 20
363.0180321163
 30
0.0
 11
275.6038370451
 21
363.0180321163
 31
0.0
  0
LINE
  5
FF
330
85
100
AcDbEntity
  8
$DDT_AUDIT_GENERATED_(CD)
  6
Continuous
 62
     7
100
AcDbLine
 10
269.32
 20
350.8852618739
 30
0.0
 11
269.32
 21
357.2484873542
 31
0.0
  0
LINE
  5
100
330
85
100
AcDbEntity
  8
$DDT_AUDIT_GENERATED_(CD)
  6
Continuous
 62
     7
100
AcDbLine
 10
279.32
 20
363.9874216781
 30
0.0
 11
279.32
 21
363.7164046805
 31
0.0
  0
LINE
  5
101
330
85
100
AcDbEntity
  8
$DDT_AUDIT_GENERATED_(CD)
  6
Continuous
 62
     7
100
AcDbLine
 10
275.604045437
 20
363.0181010801
 30
0.0
 11
274.4400113418
 21
363.0181010801
 31
0.0
  0
LINE
  5
102
330
85
100
AcDbEntity
  8
$DDT_AUDIT_GENERATED_(CD)
  6
Continuous
 62
     7
100
AcDbLine
 10
276.3747751603
 20
363.7164046805
 30
0.0
 11
279.32
 21
363.7164046805
 31
0.0
  0
LINE
  5
103
330
85
100
AcDbEntity
  8
$DDT_AUDIT_GENERATED_(CD)
  6
Continuous
 62
     7
100
AcDbLine
 10
279.32
 20
363.7164046805
 30
0.0
 11
279.32
 21
363.6070939868
 31
0.0
  0
CIRCLE
  5
104
330
85
100
AcDbEntity
  8
$DDT_AUDIT_GENERATED_(D5)
  6
Continuous
 62
     7
100
AcDbCircle
 10
278.87
 20
354.1097117687
 30
0.0
 40
9.500000000000002
  0
SPLINE
  5
105
330
85
100
AcDbEntity
  8
$DDT_AUDIT_GENERATED_(D5)
  6
Continuous
 62
     7
100
AcDbSpline
210
0.0
220
0.0
230
1.0
 70
    12
 71
     2
 72
     6
 73
     3
 74
     0
 42
0.0000000994709998
 43
0.0000000001
 40
0.0
 40
0.0
 40
0.0
 40
1.0
 40
1.0
 40
1.0
 10
277.3482780656077
 20
344.7323793999079
 30
0.0
 41
1.0
 10
277.3492182122829
 20
344.6820216485344
 30
0.0
 41
1.0
 10
277.3502240482008
 20
344.6318664463525
 30
0.0
 41
1.0
  0
LINE
  5
106
330
85
100
AcDbEntity
  8
$DDT_AUDIT_GENERATED_(D5)
  6
Continuous
 62
     7
100
AcDbLine
 10
282.17
 20
344.7702961469
 30
0.0
 11
282.17
 21
345.2012887882
 31
0.0
  0
LINE
  5
107
330
85
100
AcDbEntity
  8
$DDT_AUDIT_GENERATED_(D5)
  6
Continuous
 62
     7
100
AcDbLine
 10
287.67
 20
357.9710586839
 30
0.0
 11
287.7654545455
 21
357.4445113773
 31
0.0
  0
LINE
  5
108
330
85
100
AcDbEntity
  8
$DDT_AUDIT_GENERATED_(D5)
  6
Continuous
 62
     7
100
AcDbLine
 10
287.67
 20
358.5609576657
 30
0.0
 11
287.67
 21
357.9710586839
 31
0.0
  0
ELLIPSE
  5
109
330
85
100
AcDbEntity
  8
$DDT_AUDIT_GENERATED_(D5)
  6
Continuous
 62
     7
100
AcDbEllipse
 10
284.2566177741
 20
357.9858616214
 30
0.0
 11
-0.1208704216935641
 21
6.999997444953412
 31
0.0
210
0.0
220
0.0
230
1.0
 40
0.0494815199
 41
0.852341372057473
 42
0.9316751060986376
  0
ARC
  5
10A
330
85
100
AcDbEntity
  8
$DDT_AUDIT_GENERATED_(D5)
  6
Continuous
 62
     7
100
AcDbCircle
 10
284.1947866605
 20
361.5926522295
 30
0.0
 40
0.3160492981505353
100
AcDbArc
 50
56.3748261194
 51
78.9483167073
  0
LINE
  5
10B
330
85
100
AcDbEntity
  8
$DDT_AUDIT_GENERATED_(D5)
  6
Continuous
 62
     7
100
AcDbLine
 10
278.6432326703
 20
344.3097117687
 30
0.0
 11
277.6842261052
 21
344.3097117687
 31
0.0
  0
ARC
  5
10C
330
85
100
AcDbEntity
  8
$DDT_AUDIT_GENERATED_(D5)
  6
Continuous
 62
     7
100
AcDbCircle
 10
277.6882905877
 20
344.6481456276
 30
0.0
 40
0.3384582646275182
100
AcDbArc
 50
182.7568787211
 51
269.3119290773
  0
ARC
  5
10D
330
85
100
AcDbEntity
  8
$DDT_AUDIT_GENERATED_(D5)
  6
Continuous
 62
     7
100
AcDbCircle
 10
278.6383300842
 20
344.6523744898
 30
0.0
 40
0.3426977907577584
100
AcDbArc
 50
270.8196932769
 51
352.9529253512
  0
LINE
  5
10E
330
85
100
AcDbEntity
  8
$DDT_AUDIT_GENERATED_(D5)
  6
Continuous
 62
     7
100
AcDbLine
 10
288.3699837141
 20
354.1273024169
 30
0.0
 11
288.3699837141
 21
351.018965839
 31
0.0
  0
ARC
  5
10F
330
85
100
AcDbEntity
  8
$DDT_AUDIT_GENERATED_(D5)
  6
Continuous
 62
     7
100
AcDbCircle
 10
278.831200789
 20
354.0496751191
 30
0.0
 40
9.86176730012776
100
AcDbArc
 50
289.7891612724
 51
339.5255596161
  0
SPLINE
  5
110
330
85
100
AcDbEntity
  8
$DDT_AUDIT_GENERATED_(D5)
  6
Continuous
 62
     7
100
AcDbSpline
210
0.0
220
0.0
230
1.0
 70
     8
 71
     3
 72
    12
 73
     8
 74
     0
 42
0.000000024384038
 43
0.0000000001
 40
0.0
 40
0.0
 40
0.0
 40
0.0
 40
0.5000000000000036
 40
0.5000000000000036
 40
0.7500000000000018
 40
0.7500000000000018
 40
1.0
 40
1.0
 40
1.0
 40
1.0
 10
288.0699837141411
 20
350.6001324910035
 30
0.0
 10
288.093912688103
 20
350.6639543722475
 30
0.0
 10
288.1194239645218
 20
350.7273030612387
 30
0.0
 10
288.1646680237167
 20
350.8199613617139
 30
0.0
 10
288.1809011634959
 20
350.8506891486054
 30
0.0
 10
288.2196870786166
 20
350.9089433215419
 30
0.0
 10
288.2432230455316
 20
350.9389878987658
 30
0.0
 10
288.2697772763112
 20
350.946637863087
 30
0.0
  0
LINE
  5
111
330
85
100
AcDbEntity
  8
$DDT_AUDIT_GENERATED_(D5)
  6
Continuous
 62
     7
100
AcDbLine
 10
282.17
 20
344.6030654853
 30
0.0
 11
282.17
 21
344.7702961469
 31
0.0
  0
LINE
  5
112
330
85
100
AcDbEntity
  8
$DDT_AUDIT_GENERATED_(E4)
  6
Continuous
 62
     7
100
AcDbLine
 10
248.77
 20
334.5097117687
 30
0.0
 11
248.77
 21
373.5097117687
 31
0.0
  0
CIRCLE
  5
113
330
85
100
AcDbEntity
  8
$DDT_AUDIT_GENERATED_(E4)
  6
Continuous
 62
     7
100
AcDbCircle
 10
278.7700179348
 20
354.0098349327
 30
0.0
 40
10.00002514887398
  0
LINE
  5
114
330
85
100
AcDbEntity
  8
$DDT_AUDIT_GENERATED_(E4)
  6
Continuous
 62
     7
100
AcDbLine
 10
304.77
 20
335.0097117687
 30
0.0
 11
304.77
 21
373.0097117687
 31
0.0
  0
LINE
  5
115
330
85
100
AcDbEntity
  8
$DDT_AUDIT_GENERATED_(E4)
  6
Continuous
 62
     7
100
AcDbLine
 10
249.27
 20
334.0097117687
 30
0.0
 11
303.77
 21
334.0097117687
 31
0.0
  0
LINE
  5
116
330
85
100
AcDbEntity
  8
$DDT_AUDIT_GENERATED_(E4)
  6
Continuous
 62
     7
100
AcDbLine
 10
303.77
 20
374.0097117687
 30
0.0
 11
249.27
 21
374.0097117687
 31
0.0
  0
ARC
  5
117
330
85
100
AcDbEntity
  8
$DDT_AUDIT_GENERATED_(E4)
  6
Continuous
 62
     7
100
AcDbCircle
 10
249.27
 20
334.5097117687
 30
0.0
 40
0.5000000000000004
100
AcDbArc
 50
180.0
 51
270.0
  0
ARC
  5
118
330
85
100
AcDbEntity
  8
$DDT_AUDIT_GENERATED_(E4)
  6
Continuous
 62
     7
100
AcDbCircle
 10
249.27
 20
373.5097117687
 30
0.0
 40
0.5000000000001323
100
AcDbArc
 50
90.0
 51
180.0
  0
ARC
  5
119
330
85
100
AcDbEntity
  8
$DDT_AUDIT_GENERATED_(E4)
  6
Continuous
 62
     7
100
AcDbCircle
 10
303.77
 20
373.0097117687
 30
0.0
 40
0.9999999999995013
100
AcDbArc
 50
0.0
 51
90.0
  0
ARC
  5
11A
330
85
100
AcDbEntity
  8
$DDT_AUDIT_GENERATED_(E4)
  6
Continuous
 62
     7
100
AcDbCircle
 10
303.77
 20
335.0097117687
 30
0.0
 40
0.9999999999995013
100
AcDbArc
 50
270.0
 51
0.0
  0
ARC
  5
11B
330
85
100
AcDbEntity
  8
$DDT_AUDIT_GENERATED_(E4)
  6
Continuous
 62
     7
100
AcDbCircle
 10
285.37
 20
361.371758763
 30
0.0
 40
0.3000000000000225
100
AcDbArc
 50
180.0
 51
198.8370798507
  0
ARC
  5
11C
330
85
100
AcDbEntity
  8
$DDT_AUDIT_GENERATED_(E4)
  6
Continuous
 62
     7
100
AcDbCircle
 10
285.37
 20
361.371758763
 30
0.0
 40
0.3000000000000225
100
AcDbArc
 50
255.5423286278
 51
269.7
  0
LINE
  5
11E
330
85
100
AcDbEntity
  8
$DDT_AUDIT_GENERATED_(11D)
  6
Continuous
 62
     7
100
AcDbLine
 10
148.4719124067
 20
379.6038528749
 30
0.0
 11
162.6680875933
 21
379.6038528749
 31
0.0
  0
LINE
  5
11F
330
85
100
AcDbEntity
  8
$DDT_AUDIT_GENERATED_(11D)
  6
Continuous
 62
     7
100
AcDbLine
 10
164.6680875933
 20
397.9804915334
 30
0.0
 11
146.4719124067
 21
397.9804915334
 31
0.0
  0
ARC
  5
120
330
85
100
AcDbEntity
  8
$DDT_AUDIT_GENERATED_(11D)
  6
Continuous
 62
     7
100
AcDbCircle
 10
155.57
 20
374.6038528749
 30
0.0
 40
28.00000000000001
100
AcDbArc
 50
70.7627384947
 51
109.2372615053
  0
ARC
  5
121
330
85
100
AcDbEntity
  8
$DDT_AUDIT_GENERATED_(11D)
  6
Continuous
 62
     7
100
AcDbCircle
 10
164.2682915111
 20
399.5297375089
 30
0.0
 40
1.600000000000004
100
AcDbArc
 50
284.4699705644
 51
70.7627384947
  0
ARC
  5
122
330
85
100
AcDbEntity
  8
$DDT_AUDIT_GENERATED_(11D)
  6
Continuous
 62
     7
100
AcDbCircle
 10
146.8717084889
 20
399.5297375089
 30
0.0
 40
1.6
100
AcDbArc
 50
109.2372615053
 51
255.5300294356
  0
LINE
  5
123
330
85
100
AcDbEntity
  8
$DDT_AUDIT_GENERATED_(11D)
  6
Continuous
 62
     7
100
AcDbLine
 10
163.1680875933
 20
380.1038528749
 30
0.0
 11
163.1680875933
 21
397.9804915334
 31
0.0
  0
LINE
  5
124
330
85
100
AcDbEntity
  8
$DDT_AUDIT_GENERATED_(11D)
  6
Continuous
 62
     7
100
AcDbLine
 10
147.9719124067
 20
397.9804915334
 30
0.0
 11
147.9719124067
 21
380.1038528749
 31
0.0
  0
ARC
  5
125
330
85
100
AcDbEntity
  8
$DDT_AUDIT_GENERATED_(11D)
  6
Continuous
 62
     7
100
AcDbCircle
 10
162.6680875933
 20
380.1038528749
 30
0.0
 40
0.5000000000000004
100
AcDbArc
 50
270.0
 51
0.0
  0
ARC
  5
126
330
85
100
AcDbEntity
  8
$DDT_AUDIT_GENERATED_(11D)
  6
Continuous
 62
     7
100
AcDbCircle
 10
148.4719124067
 20
380.1038528749
 30
0.0
 40
0.5000000000000004
100
AcDbArc
 50
180.0
 51
270.0
  0
ENDBLK
  5
128
330
85
100
AcDbEntity
  8
0
100
AcDbBlockEnd
  0
BLOCK
  5
18F
330
129
100
AcDbEntity
  8
0
100
AcDbBlockBegin
  2
SE1
 70
     0
 10
0.0
 20
0.0
 30
0.0
  3
SE1
  1

  0
LINE
  5
12B
330
129
100
AcDbEntity
  8
$DDT_AUDIT_GENERATED_(87)
  6
Continuous
 62
     7
100
AcDbLine
 10
503.8738498304
 20
374.0097117687
 30
0.0
 11
518.8738528749
 21
374.0097117687
 31
0.0
  0
LINE
  5
12C
330
129
100
AcDbEntity
  8
$DDT_AUDIT_GENERATED_(87)
  6
Continuous
 62
     7
100
AcDbLine
 10
437.6355218783
 20
374.0097117687
 30
0.0
 11
503.8738498304
 21
374.0097117687
 31
0.0
  0
LINE
  5
12D
330
129
100
AcDbEntity
  8
$DDT_AUDIT_GENERATED_(87)
  6
Continuous
 62
     7
100
AcDbLine
 10
418.873858972
 20
374.0097117687
 30
0.0
 11
437.6355218783
 21
374.0097117687
 31
0.0
  0
ARC
  5
12E
330
129
100
AcDbEntity
  8
$DDT_AUDIT_GENERATED_(87)
  6
Continuous
 62
     7
100
AcDbCircle
 10
419.170198568
 20
287.785305143
 30
0.0
 40
86.22483392466658
100
AcDbArc
 50
77.6341277641
 51
90.1333391624
  0
SPLINE
  5
12F
330
129
100
AcDbEntity
  8
$DDT_AUDIT_GENERATED_(87)
  6
Continuous
 62
     7
100
AcDbSpline
210
0.0
220
0.0
230
1.0
 70
     8
 71
     3
 72
    24
 73
    20
 74
     0
 42
0.0000000003436931
 43
0.0000000001
 40
0.0
 40
0.0
 40
0.0
 40
0.0
 40
0.0109695652157395
 40
0.0277858847516245
 40
0.1039460692588575
 40
0.1901727956391628
 40
0.2766046197898804
 40
0.3660738560860786
 40
0.4544049186975103
 40
0.5373365949024077
 40
0.614395249988206
 40
0.685512591256938
 40
0.7189967060076392
 40
0.7512157978584846
 40
0.8123702780424176
 40
0.8703716364978116
 40
0.9271119825084212
 40
0.9847110054567569
 40
1.0
 40
1.0
 40
1.0
 40
1.0
 10
443.2664937823796
 20
345.0097155620215
 30
0.0
 10
443.3010361958001
 20
345.1033673469481
 30
0.0
 10
443.3873468990989
 20
345.3415005144997
 30
0.0
 10
443.6985390770181
 20
346.240920840031
 30
0.0
 10
444.165714088621
 20
347.8397533687074
 30
0.0
 10
444.6270572151588
 20
350.158538195855
 30
0.0
 10
444.882549466083
 20
352.6839305293752
 30
0.0
 10
444.8873178306458
 20
355.2806127671648
 30
0.0
 10
444.6302419114994
 20
357.8552420296805
 30
0.0
 10
444.1437609840961
 20
360.2819531016727
 30
0.0
 10
443.4856325391472
 20
362.488528962871
 30
0.0
 10
442.8256301771018
 20
364.1659241170928
 30
0.0
 10
442.2575371997666
 20
365.3902673874451
 30
0.0
 10
441.6911197222095
 20
366.5006141788745
 30
0.0
 10
440.9506449891934
 20
367.7799801450751
 30
0.0
 10
440.0032243427862
 20
369.1906310011755
 30
0.0
 10
439.0014755266204
 20
370.4948504981168
 30
0.0
 10
438.1995873464952
 20
371.4137716698827
 30
0.0
 10
437.7338478709282
 20
371.9072260372857
 30
0.0
 10
437.6355521807611
 20
372.0097238188384
 30
0.0
  0
LINE
  5
130
330
129
100
AcDbEntity
  8
$DDT_AUDIT_GENERATED_(87)
  6
Continuous
 62
     7
100
AcDbLine
 10
519.8738528749
 20
344.0097117687
 30
0.0
 11
503.8738498304
 21
344.0097117687
 31
0.0
  0
LINE
  5
131
330
129
100
AcDbEntity
  8
$DDT_AUDIT_GENERATED_(87)
  6
Continuous
 62
     7
100
AcDbLine
 10
503.8738498304
 20
344.0097117687
 30
0.0
 11
443.2664806998
 21
344.0097117687
 31
0.0
  0
LINE
  5
132
330
129
100
AcDbEntity
  8
$DDT_AUDIT_GENERATED_(87)
  6
Continuous
 62
     7
100
AcDbLine
 10
443.2664806998
 20
344.0097117687
 30
0.0
 11
438.873858972
 21
344.0097117687
 31
0.0
  0
ARC
  5
133
330
129
100
AcDbEntity
  8
$DDT_AUDIT_GENERATED_(87)
  6
Continuous
 62
     7
100
AcDbCircle
 10
438.873858972
 20
339.0097117687
 30
0.0
 40
4.999999999999999
100
AcDbArc
 50
90.0
 51
134.5889192349
  0
SPLINE
  5
134
330
129
100
AcDbEntity
  8
$DDT_AUDIT_GENERATED_(87)
  6
Continuous
 62
     7
100
AcDbSpline
210
0.0
220
0.0
230
1.0
 70
     8
 71
     3
 72
    14
 73
    10
 74
     0
 42
0.0000000026913328
 43
0.0000000001
 40
0.0
 40
0.0
 40
0.0
 40
0.0
 40
0.25
 40
0.25
 40
0.5
 40
0.5
 40
0.75
 40
0.75
 40
1.0
 40
1.0
 40
1.0
 40
1.0
 10
398.1227649938437
 20
363.7177810563129
 30
0.0
 10
398.4788269153227
 20
363.5794040499273
 30
0.0
 10
398.8534554171505
 20
363.468187426494
 30
0.0
 10
399.5856797266591
 20
363.3327972518793
 30
0.0
 10
399.9422815818007
 20
363.3092242318208
 30
0.0
 10
400.5759990279428
 20
363.3615025845254
 30
0.0
 10
400.8522050683284
 20
363.4372789241514
 30
0.0
 10
401.2873761951482
 20
363.6689730757791
 30
0.0
 10
401.4463828355232
 20
363.824211788788
 30
0.0
 10
401.5479427708371
 20
364.0003387655234
 30
0.0
  0
SPLINE
  5
135
330
129
100
AcDbEntity
  8
$DDT_AUDIT_GENERATED_(87)
  6
Continuous
 62
     7
100
AcDbSpline
210
0.0
220
0.0
230
1.0
 70
     8
 71
     3
 72
    14
 73
    10
 74
     0
 42
0.0000000026913184
 43
0.0000000001
 40
0.0
 40
0.0
 40
0.0
 40
0.0
 40
0.25
 40
0.25
 40
0.5
 40
0.5
 40
0.75
 40
0.75
 40
1.0
 40
1.0
 40
1.0
 40
1.0
 10
398.1227614430543
 20
344.3016189321894
 30
0.0
 10
398.4788250779779
 20
344.4399967502659
 30
0.0
 10
398.8534553366325
 20
344.5512139887999
 30
0.0
 10
399.5856831141048
 20
344.6866048681421
 30
0.0
 10
399.9422866803341
 20
344.7101779770513
 30
0.0
 10
400.5760073664057
 20
344.6578992445478
 30
0.0
 10
400.8522149353723
 20
344.582122436455
 30
0.0
 10
401.2873887996333
 20
344.3504268609056
 30
0.0
 10
401.4463966468913
 20
344.1951871935522
 30
0.0
 10
401.5479575761272
 20
344.0190590962899
 30
0.0
  0
LINE
  5
136
330
129
100
AcDbEntity
  8
$DDT_AUDIT_GENERATED_(87)
  6
Continuous
 62
     7
100
AcDbLine
 10
386.0685
 20
370.5097097547
 30
0.0
 11
386.0685
 21
337.509831635
 31
0.0
  0
LINE
  5
137
330
129
100
AcDbEntity
  8
$DDT_AUDIT_GENERATED_(87)
  6
Continuous
 62
     7
100
AcDbLine
 10
386.5685
 20
337.0097120087
 30
0.0
 11
386.5685
 21
337.0098345744
 31
0.0
  0
LINE
  5
138
330
129
100
AcDbEntity
  8
$DDT_AUDIT_GENERATED_(87)
  6
Continuous
 62
     7
100
AcDbLine
 10
520.8738528749
 20
345.0046177437
 30
0.0
 11
520.8738528749
 21
372.0097117687
 31
0.0
  0
LINE
  5
139
330
129
100
AcDbEntity
  8
$DDT_AUDIT_GENERATED_(87)
  6
Continuous
 62
     7
100
AcDbLine
 10
405.3388567763
 20
371.0097117683
 30
0.0
 11
386.5685
 21
371.0097117683
 31
0.0
  0
LINE
  5
13A
330
129
100
AcDbEntity
  8
$DDT_AUDIT_GENERATED_(87)
  6
Continuous
 62
     7
100
AcDbLine
 10
386.5685
 20
337.0097117691
 30
0.0
 11
405.3388459855
 21
337.0097117691
 31
0.0
  0
ARC
  5
13B
330
129
100
AcDbEntity
  8
$DDT_AUDIT_GENERATED_(87)
  6
Continuous
 62
     7
100
AcDbCircle
 10
518.8738528749
 20
372.0097117687
 30
0.0
 40
1.999999999999988
100
AcDbArc
 50
0.0
 51
90.0
  0
ARC
  5
13C
330
129
100
AcDbEntity
  8
$DDT_AUDIT_GENERATED_(87)
  6
Continuous
 62
     7
100
AcDbCircle
 10
519.8738528749
 20
345.0097117687
 30
0.0
 40
0.9999999999999991
100
AcDbArc
 50
270.0
 51
0.0188517009
  0
ARC
  5
13D
330
129
100
AcDbEntity
  8
$DDT_AUDIT_GENERATED_(87)
  6
Continuous
 62
     7
100
AcDbCircle
 10
438.4990502319
 20
339.3359548117
 30
0.0
 40
4.498664604734772
100
AcDbArc
 50
134.1078898943
 51
142.5774164284
  0
ARC
  5
13E
330
129
100
AcDbEntity
  8
$DDT_AUDIT_GENERATED_(87)
  6
Continuous
 62
     7
100
AcDbCircle
 10
405.3372255629
 20
324.9670589947
 30
0.0
 40
12.04256489778325
100
AcDbArc
 50
65.2393748358
 51
90.1411174208
  0
ARC
  5
13F
330
129
100
AcDbEntity
  8
$DDT_AUDIT_GENERATED_(87)
  6
Continuous
 62
     7
100
AcDbCircle
 10
405.3359419014
 20
383.0582619763
 30
0.0
 40
12.04846708994578
100
AcDbArc
 50
269.8651072885
 51
294.7477131459
  0
ARC
  5
140
330
129
100
AcDbEntity
  8
$DDT_AUDIT_GENERATED_(87)
  6
Continuous
 62
     7
100
AcDbCircle
 10
386.568500036
 20
337.5098304547
 30
0.0
 40
0.4999962966536841
100
AcDbArc
 50
179.972772926
 51
270.2803798671
  0
ARC
  5
141
330
129
100
AcDbEntity
  8
$DDT_AUDIT_GENERATED_(87)
  6
Continuous
 62
     7
100
AcDbCircle
 10
386.5685000078
 20
370.5096556224
 30
0.0
 40
0.4999982555479451
100
AcDbArc
 50
89.870959163
 51
180.0128766739
  0
ARC
  5
142
330
129
100
AcDbEntity
  8
$DDT_AUDIT_GENERATED_(87)
  6
Continuous
 62
     7
100
AcDbCircle
 10
386.5685000181
 20
337.5098304534
 30
0.0
 40
0.4999962969034286
100
AcDbArc
 50
179.972773253
 51
270.1414146464
  0
ARC
  5
143
330
129
100
AcDbEntity
  8
$DDT_AUDIT_GENERATED_(87)
  6
Continuous
 62
     7
100
AcDbCircle
 10
386.5685000115
 20
370.509655623
 30
0.0
 40
0.4999982555369027
100
AcDbArc
 50
89.8102109309
 51
180.0128765282
  0
LINE
  5
144
330
129
100
AcDbEntity
  8
A4225108_211188_
  6
Continuous
 62
     7
100
AcDbLine
 10
438.623858972
 20
323.4538528749
 30
0.0
 11
459.123858972
 21
323.4538528749
 31
0.0
  0
LINE
  5
145
330
129
100
AcDbEntity
  8
A4225108_211188_
  6
Continuous
 62
     7
100
AcDbLine
 10
439.623858972
 20
322.4538528749
 30
0.0
 11
458.123858972
 21
322.4538528749
 31
0.0
  0
LINE
  5
146
330
129
100
AcDbEntity
  8
A4225108_211188_
  6
Continuous
 62
     7
100
AcDbLine
 10
459.123858972
 20
323.4538528749
 30
0.0
 11
459.123858972
 21
344.0097117687
 31
0.0
  0
LINE
  5
147
330
129
100
AcDbEntity
  8
A4225108_211188_
  6
Continuous
 62
     7
100
AcDbLine
 10
438.623858972
 20
344.0034578575
 30
0.0
 11
438.623858972
 21
323.4538528749
 31
0.0
  0
LINE
  5
148
330
129
100
AcDbEntity
  8
A4225108_211188_
  6
Continuous
 62
     7
100
AcDbLine
 10
438.623858972
 20
323.4538528749
 30
0.0
 11
439.623858972
 21
322.4538528749
 31
0.0
  0
LINE
  5
149
330
129
100
AcDbEntity
  8
A4225108_211188_
  6
Continuous
 62
     7
100
AcDbLine
 10
458.123858972
 20
322.4538528749
 30
0.0
 11
459.123858972
 21
323.4538528749
 31
0.0
  0
LINE
  5
14A
330
129
100
AcDbEntity
  8
A4225112_211188_
  6
Continuous
 62
     7
100
AcDbLine
 10
443.273858972
 20
379.6038528749
 30
0.0
 11
443.273858972
 21
374.0097117687
 31
0.0
  0
LINE
  5
14B
330
129
100
AcDbEntity
  8
A4225112_211188_
  6
Continuous
 62
     7
100
AcDbLine
 10
454.473858972
 20
374.0097117687
 30
0.0
 11
454.473858972
 21
379.6038528749
 31
0.0
  0
LINE
  5
14D
330
129
100
AcDbEntity
  8
$DDT_AUDIT_GENERATED_(14C)
  6
Continuous
 62
     7
100
AcDbLine
 10
385.3685
 20
343.5597089607
 30
0.0
 11
385.3685
 21
364.4597089607
 31
0.0
  0
LINE
  5
14E
330
129
100
AcDbEntity
  8
$DDT_AUDIT_GENERATED_(14C)
  6
Continuous
 62
     7
100
AcDbLine
 10
386.0685
 20
364.4597089607
 30
0.0
 11
385.3685
 21
364.4597089607
 31
0.0
  0
LINE
  5
14F
330
129
100
AcDbEntity
  8
$DDT_AUDIT_GENERATED_(14C)
  6
Continuous
 62
     7
100
AcDbLine
 10
385.3685
 20
343.5597089607
 30
0.0
 11
386.0685
 21
343.5597089607
 31
0.0
  0
LINE
  5
150
330
129
100
AcDbEntity
  8
$DDT_AUDIT_GENERATED_(14C)
  6
Continuous
 62
     7
100
AcDbLine
 10
385.3685
 20
364.4597089607
 30
0.0
 11
385.2685
 21
364.3762585859
 31
0.0
  0
LINE
  5
151
330
129
100
AcDbEntity
  8
$DDT_AUDIT_GENERATED_(14C)
  6
Continuous
 62
     7
100
AcDbLine
 10
385.2685
 20
343.6431593356
 30
0.0
 11
385.3685
 21
343.5597089607
 31
0.0
  0
LINE
  5
153
330
129
100
AcDbEntity
  8
$DDT_AUDIT_GENERATED_(152)
  6
Continuous
 62
     7
100
AcDbLine
 10
381.7685
 20
363.8750900175
 30
0.0
 11
381.7685
 21
360.2597089607
 31
0.0
  0
LINE
  5
154
330
129
100
AcDbEntity
  8
$DDT_AUDIT_GENERATED_(152)
  6
Continuous
 62
     7
100
AcDbLine
 10
385.2685
 20
339.5097089607
 30
0.0
 11
385.2685
 21
368.5097089607
 31
0.0
  0
LINE
  5
155
330
129
100
AcDbEntity
  8
$DDT_AUDIT_GENERATED_(152)
  6
Continuous
 62
     7
100
AcDbLine
 10
368.2685
 20
339.5097089607
 30
0.0
 11
368.2685
 21
368.5097089607
 31
0.0
  0
LINE
  5
156
330
129
100
AcDbEntity
  8
$DDT_AUDIT_GENERATED_(152)
  6
Continuous
 62
     7
100
AcDbLine
 10
371.7685
 20
363.8750900175
 30
0.0
 11
371.7685
 21
360.2597089607
 31
0.0
  0
LINE
  5
157
330
129
100
AcDbEntity
  8
$DDT_AUDIT_GENERATED_(152)
  6
Continuous
 62
     7
100
AcDbLine
 10
371.7685
 20
347.7597089607
 30
0.0
 11
371.7685
 21
344.144327904
 31
0.0
  0
LINE
  5
158
330
129
100
AcDbEntity
  8
$DDT_AUDIT_GENERATED_(152)
  6
Continuous
 62
     7
100
AcDbLine
 10
371.7685
 20
337.894327904
 30
0.0
 11
371.7685
 21
337.7597089607
 31
0.0
  0
LINE
  5
159
330
129
100
AcDbEntity
  8
$DDT_AUDIT_GENERATED_(152)
  6
Continuous
 62
     7
100
AcDbLine
 10
371.7685
 20
370.2597089607
 30
0.0
 11
371.7685
 21
370.1250900175
 31
0.0
  0
SPLINE
  5
15A
330
129
100
AcDbEntity
  8
$DDT_AUDIT_GENERATED_(152)
  6
Continuous
 62
     7
100
AcDbSpline
210
0.0
220
0.0
230
1.0
 70
     8
 71
     3
 72
    14
 73
    10
 74
     0
 42
0.0000000011014719
 43
0.0000000001
 40
0.0
 40
0.0
 40
0.0
 40
0.0
 40
0.25
 40
0.25
 40
0.5
 40
0.5
 40
0.75
 40
0.75
 40
1.0
 40
1.0
 40
1.0
 40
1.0
 10
371.7685000000066
 20
370.1250900175147
 30
0.0
 10
370.7906934315534
 20
369.7777721688874
 30
0.0
 10
370.0938349373726
 20
369.279844856304
 30
0.0
 10
369.1871529855028
 20
368.1899367917357
 30
0.0
 10
368.9732058851838
 20
367.5960626103307
 30
0.0
 10
368.9723387321419
 20
366.4076575069418
 30
0.0
 10
369.1796572904109
 20
365.8221037245448
 30
0.0
 10
370.0902557863344
 20
364.7218219814383
 30
0.0
 10
370.7917705988502
 20
364.2220252552645
 30
0.0
 10
371.7685000000066
 20
363.8750900175147
 30
0.0
  0
SPLINE
  5
15B
330
129
100
AcDbEntity
  8
$DDT_AUDIT_GENERATED_(152)
  6
Continuous
 62
     7
100
AcDbSpline
210
0.0
220
0.0
230
1.0
 70
     8
 71
     3
 72
    14
 73
    10
 74
     0
 42
0.0000000011014719
 43
0.0000000001
 40
0.0
 40
0.0
 40
0.0
 40
0.0
 40
0.25
 40
0.25
 40
0.5
 40
0.5
 40
0.75
 40
0.75
 40
1.0
 40
1.0
 40
1.0
 40
1.0
 10
371.7685000000066
 20
344.1443279039815
 30
0.0
 10
370.7906934315534
 20
343.7970100553542
 30
0.0
 10
370.0938349373726
 20
343.2990827427709
 30
0.0
 10
369.1871529855028
 20
342.2091746782026
 30
0.0
 10
368.9732058851838
 20
341.6153004967975
 30
0.0
 10
368.9723387321419
 20
340.4268953934087
 30
0.0
 10
369.1796572904109
 20
339.8413416110117
 30
0.0
 10
370.0902557863344
 20
338.7410598679052
 30
0.0
 10
370.7917705988502
 20
338.2412631417313
 30
0.0
 10
371.7685000000066
 20
337.8943279039815
 30
0.0
  0
SPLINE
  5
15C
330
129
100
AcDbEntity
  8
$DDT_AUDIT_GENERATED_(152)
  6
Continuous
 62
     7
100
AcDbSpline
210
0.0
220
0.0
230
1.0
 70
     8
 71
     3
 72
    14
 73
    10
 74
     0
 42
0.0000000006969408
 43
0.0000000001
 40
0.0
 40
0.0
 40
0.0
 40
0.0
 40
0.25
 40
0.25
 40
0.5
 40
0.5
 40
0.75
 40
0.75
 40
1.0
 40
1.0
 40
1.0
 40
1.0
 10
371.7685000000066
 20
360.2597089607481
 30
0.0
 10
370.7928715572368
 20
359.566620608236
 30
0.0
 10
370.0868928685894
 20
358.5590604404051
 30
0.0
 10
369.1811791041932
 20
356.3684149880314
 30
0.0
 10
368.9708767075033
 20
355.1842006845419
 30
0.0
 10
368.9746915456403
 20
352.8041126757175
 30
0.0
 10
369.18999078819
 20
351.6210890661739
 30
0.0
 10
370.0951771028282
 20
349.4490860263314
 30
0.0
 10
370.8002110643002
 20
348.4475833130981
 30
0.0
 10
371.7685000000066
 20
347.7597089607481
 30
0.0
  0
LINE
  5
15D
330
129
100
AcDbEntity
  8
$DDT_AUDIT_GENERATED_(152)
  6
Continuous
 62
     7
100
AcDbLine
 10
381.7685
 20
347.7597089607
 30
0.0
 11
381.7685
 21
344.144327904
 31
0.0
  0
LINE
  5
15E
330
129
100
AcDbEntity
  8
$DDT_AUDIT_GENERATED_(152)
  6
Continuous
 62
     7
100
AcDbLine
 10
381.7685
 20
337.894327904
 30
0.0
 11
381.7685
 21
337.7597089607
 31
0.0
  0
LINE
  5
15F
330
129
100
AcDbEntity
  8
$DDT_AUDIT_GENERATED_(152)
  6
Continuous
 62
     7
100
AcDbLine
 10
381.7685
 20
370.2597089607
 30
0.0
 11
381.7685
 21
370.1250900175
 31
0.0
  0
LINE
  5
160
330
129
100
AcDbEntity
  8
$DDT_AUDIT_GENERATED_(152)
  6
Continuous
 62
     7
100
AcDbLine
 10
371.7685
 20
360.2597089607
 30
0.0
 11
381.7685
 21
360.2597089607
 31
0.0
  0
SPLINE
  5
161
330
129
100
AcDbEntity
  8
$DDT_AUDIT_GENERATED_(152)
  6
Continuous
 62
     7
100
AcDbSpline
210
0.0
220
0.0
230
1.0
 70
     8
 71
     3
 72
    14
 73
    10
 74
     0
 42
0.0000000006969408
 43
0.0000000001
 40
0.0
 40
0.0
 40
0.0
 40
0.0
 40
0.25
 40
0.25
 40
0.5
 40
0.5
 40
0.75
 40
0.75
 40
1.0
 40
1.0
 40
1.0
 40
1.0
 10
381.7685000000066
 20
360.2597089607481
 30
0.0
 10
382.7441284427763
 20
359.566620608236
 30
0.0
 10
383.4501071314237
 20
358.5590604404051
 30
0.0
 10
384.3558208958199
 20
356.3684149880314
 30
0.0
 10
384.5661232925098
 20
355.1842006845419
 30
0.0
 10
384.5623084543729
 20
352.8041126757175
 30
0.0
 10
384.3470092118231
 20
351.6210890661739
 30
0.0
 10
383.4418228971849
 20
349.4490860263314
 30
0.0
 10
382.7367889357129
 20
348.4475833130981
 30
0.0
 10
381.7685000000066
 20
347.7597089607481
 30
0.0
  0
LINE
  5
162
330
129
100
AcDbEntity
  8
$DDT_AUDIT_GENERATED_(152)
  6
Continuous
 62
     7
100
AcDbLine
 10
381.7685
 20
347.7597089607
 30
0.0
 11
371.7685
 21
347.7597089607
 31
0.0
  0
LINE
  5
163
330
129
100
AcDbEntity
  8
$DDT_AUDIT_GENERATED_(152)
  6
Continuous
 62
     7
100
AcDbLine
 10
371.7685
 20
344.144327904
 30
0.0
 11
381.7685
 21
344.144327904
 31
0.0
  0
SPLINE
  5
164
330
129
100
AcDbEntity
  8
$DDT_AUDIT_GENERATED_(152)
  6
Continuous
 62
     7
100
AcDbSpline
210
0.0
220
0.0
230
1.0
 70
     8
 71
     3
 72
    14
 73
    10
 74
     0
 42
0.0000000011014719
 43
0.0000000001
 40
0.0
 40
0.0
 40
0.0
 40
0.0
 40
0.2500000000000001
 40
0.2500000000000001
 40
0.5000000000000001
 40
0.5000000000000001
 40
0.7500000000000002
 40
0.7500000000000002
 40
1.0
 40
1.0
 40
1.0
 40
1.0
 10
381.7685000000066
 20
344.1443279039815
 30
0.0
 10
382.7463065684597
 20
343.7970100553542
 30
0.0
 10
383.4431650626406
 20
343.2990827427708
 30
0.0
 10
384.3498470145103
 20
342.2091746782026
 30
0.0
 10
384.5637941148293
 20
341.6153004967975
 30
0.0
 10
384.5646612678713
 20
340.4268953934087
 30
0.0
 10
384.3573427096022
 20
339.8413416110117
 30
0.0
 10
383.4467442136788
 20
338.7410598679052
 30
0.0
 10
382.7452294011629
 20
338.2412631417313
 30
0.0
 10
381.7685000000066
 20
337.8943279039815
 30
0.0
  0
LINE
  5
165
330
129
100
AcDbEntity
  8
$DDT_AUDIT_GENERATED_(152)
  6
Continuous
 62
     7
100
AcDbLine
 10
381.7685
 20
337.894327904
 30
0.0
 11
371.7685
 21
337.894327904
 31
0.0
  0
LINE
  5
166
330
129
100
AcDbEntity
  8
$DDT_AUDIT_GENERATED_(152)
  6
Continuous
 62
     7
100
AcDbLine
 10
371.7685
 20
370.1250900175
 30
0.0
 11
381.7685
 21
370.1250900175
 31
0.0
  0
SPLINE
  5
167
330
129
100
AcDbEntity
  8
$DDT_AUDIT_GENERATED_(152)
  6
Continuous
 62
     7
100
AcDbSpline
210
0.0
220
0.0
230
1.0
 70
     8
 71
     3
 72
    14
 73
    10
 74
     0
 42
0.0000000011014719
 43
0.0000000001
 40
0.0
 40
0.0
 40
0.0
 40
0.0
 40
0.2499999999999999
 40
0.2499999999999999
 40
0.4999999999999999
 40
0.4999999999999999
 40
0.7499999999999999
 40
0.7499999999999999
 40
1.0
 40
1.0
 40
1.0
 40
1.0
 10
381.7685000000066
 20
370.1250900175147
 30
0.0
 10
382.7463065684597
 20
369.7777721688874
 30
0.0
 10
383.4431650626406
 20
369.279844856304
 30
0.0
 10
384.3498470145103
 20
368.1899367917357
 30
0.0
 10
384.5637941148293
 20
367.5960626103307
 30
0.0
 10
384.5646612678713
 20
366.4076575069418
 30
0.0
 10
384.3573427096022
 20
365.8221037245448
 30
0.0
 10
383.4467442136788
 20
364.7218219814383
 30
0.0
 10
382.7452294011629
 20
364.2220252552645
 30
0.0
 10
381.7685000000066
 20
363.8750900175147
 30
0.0
  0
LINE
  5
168
330
129
100
AcDbEntity
  8
$DDT_AUDIT_GENERATED_(152)
  6
Continuous
 62
     7
100
AcDbLine
 10
381.7685
 20
363.8750900175
 30
0.0
 11
371.7685
 21
363.8750900175
 31
0.0
  0
LINE
  5
169
330
129
100
AcDbEntity
  8
$DDT_AUDIT_GENERATED_(152)
  6
Continuous
 62
     7
100
AcDbLine
 10
381.7685
 20
370.2597089607
 30
0.0
 11
371.7685
 21
370.2597089607
 31
0.0
  0
ARC
  5
16A
330
129
100
AcDbEntity
  8
$DDT_AUDIT_GENERATED_(152)
  6
Continuous
 62
     7
100
AcDbCircle
 10
379.1327988018
 20
360.6133065643
 30
0.0
 40
10.0
100
AcDbArc
 50
52.1519040322
 51
74.7179936136
  0
ARC
  5
16B
330
129
100
AcDbEntity
  8
$DDT_AUDIT_GENERATED_(152)
  6
Continuous
 62
     7
100
AcDbCircle
 10
379.1327988018
 20
347.4061113572
 30
0.0
 40
9.999999999999996
100
AcDbArc
 50
285.2820063864
 51
307.8480959678
  0
ARC
  5
16C
330
129
100
AcDbEntity
  8
$DDT_AUDIT_GENERATED_(152)
  6
Continuous
 62
     7
100
AcDbCircle
 10
374.4042011982
 20
360.6133065643
 30
0.0
 40
10.0
100
AcDbArc
 50
105.2820063864
 51
127.8480959678
  0
ARC
  5
16D
330
129
100
AcDbEntity
  8
$DDT_AUDIT_GENERATED_(152)
  6
Continuous
 62
     7
100
AcDbCircle
 10
374.4042011982
 20
347.4061113572
 30
0.0
 40
10.0
100
AcDbArc
 50
232.1519040322
 51
254.7179936136
  0
LINE
  5
16E
330
129
100
AcDbEntity
  8
$DDT_AUDIT_GENERATED_(152)
  6
Continuous
 62
     7
100
AcDbLine
 10
371.7685
 20
337.7597089607
 30
0.0
 11
381.7685
 21
337.7597089607
 31
0.0
  0
LINE
  5
170
330
129
100
AcDbEntity
  8
$DDT_AUDIT_GENERATED_(16F)
  6
Continuous
 62
     7
100
AcDbLine
 10
367.4685
 20
368.0097089607
 30
0.0
 11
367.4685
 21
340.0097089607
 31
0.0
  0
LINE
  5
171
330
129
100
AcDbEntity
  8
$DDT_AUDIT_GENERATED_(16F)
  6
Continuous
 62
     7
100
AcDbLine
 10
367.4685
 20
340.0097089607
 30
0.0
 11
368.2685
 21
340.0097089607
 31
0.0
  0
LINE
  5
172
330
129
100
AcDbEntity
  8
$DDT_AUDIT_GENERATED_(16F)
  6
Continuous
 62
     7
100
AcDbLine
 10
368.2685
 20
368.0097089607
 30
0.0
 11
367.4685
 21
368.0097089607
 31
0.0
  0
ARC
  5
173
330
129
100
AcDbEntity
  8
$DDT_AUDIT_GENERATED_(D5)
  6
Continuous
 62
     7
100
AcDbCircle
 10
418.9138594692
 20
353.9097118434
 30
0.0
 40
20.00000000000007
100
AcDbArc
 50
332.5191538925
 51
22.6461462145
  0
ARC
  5
174
330
129
100
AcDbEntity
  8
$DDT_AUDIT_GENERATED_(D5)
  6
Continuous
 62
     7
100
AcDbCircle
 10
436.2287008886
 20
344.8954008232
 30
0.0
 40
0.4798146752942993
100
AcDbArc
 50
291.8808442731
 51
325.6478298386
  0
ARC
  5
175
330
129
100
AcDbEntity
  8
$DDT_AUDIT_GENERATED_(D5)
  6
Continuous
 62
     7
100
AcDbCircle
 10
417.5471582624
 20
353.9738977144
 30
0.0
 40
21.36376860355669
100
AcDbArc
 50
0.0008720038
 51
1.777362228
  0
CIRCLE
  5
176
330
129
100
AcDbEntity
  8
$DDT_AUDIT_GENERATED_(E4)
  6
Continuous
 62
     7
100
AcDbCircle
 10
418.873858972
 20
354.0097117687
 30
0.0
 40
20.0
  0
CIRCLE
  5
177
330
129
100
AcDbEntity
  8
$DDT_AUDIT_GENERATED_(E4)
  6
Continuous
 62
     7
100
AcDbCircle
 10
418.873858972
 20
354.0097117687
 30
0.0
 40
18.5
  0
ARC
  5
178
330
129
100
AcDbEntity
  8
$DDT_AUDIT_GENERATED_(E4)
  6
Continuous
 62
     7
100
AcDbCircle
 10
416.7963136943
 20
371.5267244151
 30
0.0
 40
0.8603071284242526
100
AcDbArc
 50
95.9168138773
 51
123.3112686892
  0
ARC
  5
179
330
129
100
AcDbEntity
  8
$DDT_AUDIT_GENERATED_(E4)
  6
Continuous
 62
     7
100
AcDbCircle
 10
421.9286594442
 20
336.6306144283
 30
0.0
 40
0.8545480361039074
100
AcDbArc
 50
279.1619923027
 51
306.6019461978
  0
ARC
  5
17A
330
129
100
AcDbEntity
  8
$DDT_AUDIT_GENERATED_(E4)
  6
Continuous
 62
     7
100
AcDbCircle
 10
420.9514042497
 20
371.5267244151
 30
0.0
 40
0.860307128429465
100
AcDbArc
 50
56.6887313109
 51
84.0831861235
  0
ARC
  5
17C
330
129
100
AcDbEntity
  8
$DDT_AUDIT_GENERATED_(17B)
  6
Continuous
 62
     7
100
AcDbCircle
 10
402.687240843
 20
358.7799265075
 30
0.0
 40
7.913521316272557
100
AcDbArc
 50
256.3822223315
 51
257.8259352886
  0
ARC
  5
17D
330
129
100
AcDbEntity
  8
$DDT_AUDIT_GENERATED_(17B)
  6
Continuous
 62
     7
100
AcDbCircle
 10
418.873858972
 20
354.0097117687
 30
0.0
 40
18.30000000000001
100
AcDbArc
 50
189.8181777051
 51
170.1818222949
  0
ARC
  5
17E
330
129
100
AcDbEntity
  8
$DDT_AUDIT_GENERATED_(17B)
  6
Continuous
 62
     7
100
AcDbCircle
 10
405.8590058519
 20
351.7573260853
 30
0.0
 40
5.091682810285755
100
AcDbArc
 50
188.4197431901
 51
189.8173165234
  0
ARC
  5
17F
330
129
100
AcDbEntity
  8
$DDT_AUDIT_GENERATED_(17B)
  6
Continuous
 62
     7
100
AcDbCircle
 10
405.8590058519
 20
356.2620974521
 30
0.0
 40
5.091682810329504
100
AcDbArc
 50
170.1826834766
 51
171.5802568099
  0
ARC
  5
180
330
129
100
AcDbEntity
  8
$DDT_AUDIT_GENERATED_(17B)
  6
Continuous
 62
     7
100
AcDbCircle
 10
402.552463516
 20
349.8255905902
 30
0.0
 40
7.312190544060581
100
AcDbArc
 50
102.1102077774
 51
103.6766482125
  0
ARC
  5
181
330
129
100
AcDbEntity
  8
$DDT_AUDIT_GENERATED_(17B)
  6
Continuous
 62
     7
100
AcDbCircle
 10
400.9590477137
 20
356.9751315552
 30
0.0
 40
0.1406548230563059
100
AcDbArc
 50
166.636208024
 51
198.3482669379
  0
ARC
  5
182
330
129
100
AcDbEntity
  8
$DDT_AUDIT_GENERATED_(17B)
  6
Continuous
 62
     7
100
AcDbCircle
 10
400.9927661927
 20
350.9970238785
 30
0.0
 40
0.1906037347200354
100
AcDbArc
 50
119.6637340873
 51
151.2983425485
  0
ARC
  5
183
330
129
100
AcDbEntity
  8
$DDT_AUDIT_GENERATED_(17B)
  6
Continuous
 62
     7
100
AcDbCircle
 10
400.9928063786
 20
357.0225343214
 30
0.0
 40
0.1907406400913038
100
AcDbArc
 50
208.7279702242
 51
240.3457960491
  0
SPLINE
  5
184
330
129
100
AcDbEntity
  8
$DDT_AUDIT_GENERATED_(17B)
  6
Continuous
 62
     7
100
AcDbSpline
210
0.0
220
0.0
230
1.0
 70
     8
 71
     3
 72
    20
 73
    16
 74
     0
 42
0.000000128267494
 43
0.0000000001
 40
0.0
 40
0.0
 40
0.0
 40
0.0
 40
0.2997089934633306
 40
0.2997089934633306
 40
0.2997089934633306
 40
0.6013718668682171
 40
0.6013718668682171
 40
0.6013718668682171
 40
0.7887897968669835
 40
0.7887897968669835
 40
0.7887897968669835
 40
0.9458021757247637
 40
0.9458021757247637
 40
0.9458021757247637
 40
1.0
 40
1.0
 40
1.0
 40
1.0
 10
400.8255815059065
 20
351.0885611069818
 30
0.0
 10
400.8232272918485
 20
351.0835366766312
 30
0.0
 10
400.8214523283873
 20
351.0776530742091
 30
0.0
 10
400.8203209376424
 20
351.0710315296088
 30
0.0
 10
400.8191854708705
 20
351.0643861297715
 30
0.0
 10
400.8186854735477
 20
351.0568715656954
 30
0.0
 10
400.8188105380098
 20
351.0485727314429
 30
0.0
 10
400.8188885613829
 20
351.0433953770633
 30
0.0
 10
400.819210862585
 20
351.0378230537695
 30
0.0
 10
400.8197385712778
 20
351.0320256029859
 30
0.0
 10
400.8201800965474
 20
351.0271749703265
 30
0.0
 10
400.8207755604325
 20
351.0220595745172
 30
0.0
 10
400.8214570011602
 20
351.0170286565678
 30
0.0
 10
400.8216950916825
 20
351.0152708897754
 30
0.0
 10
400.8219447200859
 20
351.0135139465156
 30
0.0
 10
400.8222015227324
 20
351.011781995097
 30
0.0
  0
ARC
  5
185
330
129
100
AcDbEntity
  8
$DDT_AUDIT_GENERATED_(17B)
  6
Continuous
 62
     7
100
AcDbCircle
 10
388.189498934
 20
354.0097117687
 30
0.0
 40
12.96722893385297
100
AcDbArc
 50
346.9836811935
 51
13.0163188065
  0
LINE
  5
186
330
129
100
AcDbEntity
  8
$DDT_AUDIT_GENERATED_(11D)
  6
Continuous
 62
     7
100
AcDbLine
 10
441.7757713787
 20
379.6038528749
 30
0.0
 11
455.9719465653
 21
379.6038528749
 31
0.0
  0
LINE
  5
187
330
129
100
AcDbEntity
  8
$DDT_AUDIT_GENERATED_(11D)
  6
Continuous
 62
     7
100
AcDbLine
 10
439.7757713787
 20
397.9804915334
 30
0.0
 11
457.9719465653
 21
397.9804915334
 31
0.0
  0
ARC
  5
188
330
129
100
AcDbEntity
  8
$DDT_AUDIT_GENERATED_(11D)
  6
Continuous
 62
     7
100
AcDbCircle
 10
448.873858972
 20
374.6038528749
 30
0.0
 40
28.00000000000001
100
AcDbArc
 50
70.7627384947
 51
109.2372615053
  0
ARC
  5
189
330
129
100
AcDbEntity
  8
$DDT_AUDIT_GENERATED_(11D)
  6
Continuous
 62
     7
100
AcDbCircle
 10
457.5721504831
 20
399.5297375089
 30
0.0
 40
1.600000000000004
100
AcDbArc
 50
284.4699705644
 51
70.7627384947
  0
ARC
  5
18A
330
129
100
AcDbEntity
  8
$DDT_AUDIT_GENERATED_(11D)
  6
Continuous
 62
     7
100
AcDbCircle
 10
440.1755674609
 20
399.5297375089
 30
0.0
 40
1.599999999999999
100
AcDbArc
 50
109.2372615053
 51
255.5300294356
  0
LINE
  5
18B
330
129
100
AcDbEntity
  8
$DDT_AUDIT_GENERATED_(11D)
  6
Continuous
 62
     7
100
AcDbLine
 10
456.4719465653
 20
380.1038528749
 30
0.0
 11
456.4719465653
 21
397.9804915334
 31
0.0
  0
LINE
  5
18C
330
129
100
AcDbEntity
  8
$DDT_AUDIT_GENERATED_(11D)
  6
Continuous
 62
     7
100
AcDbLine
 10
441.2757713787
 20
397.9804915334
 30
0.0
 11
441.2757713787
 21
380.1038528749
 31
0.0
  0
ARC
  5
18D
330
129
100
AcDbEntity
  8
$DDT_AUDIT_GENERATED_(11D)
  6
Continuous
 62
     7
100
AcDbCircle
 10
455.9719465653
 20
380.1038528749
 30
0.0
 40
0.5000000000000004
100
AcDbArc
 50
270.0
 51
0.0
  0
ARC
  5
18E
330
129
100
AcDbEntity
  8
$DDT_AUDIT_GENERATED_(11D)
  6
Continuous
 62
     7
100
AcDbCircle
 10
441.7757713787
 20
380.1038528749
 30
0.0
 40
0.5000000000000004
100
AcDbArc
 50
180.0
 51
270.0
  0
ENDBLK
  5
190
330
129
100
AcDbEntity
  8
0
100
AcDbBlockEnd
  0
BLOCK
  5
258
330
191
100
AcDbEntity
  8
0
100
AcDbBlockBegin
  2
SE2
 70
     0
 10
0.0
 20
0.0
 30
0.0
  3
SE2
  1

  0
ARC
  5
193
330
191
100
AcDbEntity
  8
$DDT_AUDIT_GENERATED_(87)
  6
Continuous
 62
     7
100
AcDbCircle
 10
166.6200563095
 20
206.2879848685
 30
0.0
 40
22.9297421511722
100
AcDbArc
 50
348.0727253693
 51
359.2468608685
  0
ARC
  5
194
330
191
100
AcDbEntity
  8
$DDT_AUDIT_GENERATED_(87)
  6
Continuous
 62
     7
100
AcDbCircle
 10
173.1878688498
 20
205.1540483249
 30
0.0
 40
16.27126212272655
100
AcDbArc
 50
334.4326364916
 51
347.1997156065
  0
ARC
  5
195
330
191
100
AcDbEntity
  8
$DDT_AUDIT_GENERATED_(87)
  6
Continuous
 62
     7
100
AcDbCircle
 10
157.7476504971
 20
213.1907385635
 30
0.0
 40
33.67306364550541
100
AcDbArc
 50
322.8022415074
 51
333.4352166391
  0
ARC
  5
196
330
191
100
AcDbEntity
  8
$DDT_AUDIT_GENERATED_(87)
  6
Continuous
 62
     7
100
AcDbCircle
 10
128.7614597513
 20
233.3471323354
 30
0.0
 40
68.96366331392554
100
AcDbArc
 50
322.7031995208
 51
324.0223587522
  0
ARC
  5
197
330
191
100
AcDbEntity
  8
$DDT_AUDIT_GENERATED_(87)
  6
Continuous
 62
     7
100
AcDbCircle
 10
152.6268491444
 20
214.9997462861
 30
0.0
 40
38.86131565527869
100
AcDbArc
 50
319.9334077622
 51
322.9013412081
  0
ARC
  5
198
330
191
100
AcDbEntity
  8
$DDT_AUDIT_GENERATED_(87)
  6
Continuous
 62
     7
100
AcDbCircle
 10
173.475267486
 20
197.3612373788
 30
0.0
 40
11.55284571557834
100
AcDbArc
 50
313.113186757
 51
320.3253915686
  0
SPLINE
  5
199
330
191
100
AcDbEntity
  8
$DDT_AUDIT_GENERATED_(87)
  6
Continuous
 62
     7
100
AcDbSpline
210
0.0
220
0.0
230
1.0
 70
     8
 71
     3
 72
    14
 73
    10
 74
     0
 42
0.0000000060934733
 43
0.0000000001
 40
0.0
 40
0.0
 40
0.0
 40
0.0
 40
0.1130358816822743
 40
0.2263789535894655
 40
0.3400522107062196
 40
0.4540784482227731
 40
0.5684802502943558
 40
0.6832799793904278
 40
0.7367162687273352
 40
0.7367162687273352
 40
0.7367162687273352
 40
0.7367162687273352
 10
181.3709652047246
 20
188.9276022394806
 30
0.0
 10
181.3078018265682
 20
188.871923527979
 30
0.0
 10
181.1813246052846
 20
188.7604133907589
 30
0.0
 10
181.0046658117588
 20
188.625614911757
 30
0.0
 10
180.8372453653498
 20
188.515154465123
 30
0.0
 10
180.6800238800764
 20
188.4320013909909
 30
0.0
 10
180.5327466591275
 20
188.3761621693113
 30
0.0
 10
180.420093177797
 20
188.3533724090071
 30
0.0
 10
180.3567898689752
 20
188.350028553133
 30
0.0
 10
180.337062243066
 20
188.3499961985684
 30
0.0
  0
ARC
  5
19A
330
191
100
AcDbEntity
  8
$DDT_AUDIT_GENERATED_(87)
  6
Continuous
 62
     7
100
AcDbCircle
 10
144.4093722214
 20
206.2756991201
 30
0.0
 40
22.81902131650486
100
AcDbArc
 50
180.7259430731
 51
191.9544706892
  0
ARC
  5
19B
330
191
100
AcDbEntity
  8
$DDT_AUDIT_GENERATED_(87)
  6
Continuous
 62
     7
100
AcDbCircle
 10
137.9457397336
 20
205.1518246212
 30
0.0
 40
16.26453689245345
100
AcDbArc
 50
192.7976338781
 51
205.5700140237
  0
ARC
  5
19C
330
191
100
AcDbEntity
  8
$DDT_AUDIT_GENERATED_(87)
  6
Continuous
 62
     7
100
AcDbCircle
 10
154.3457949541
 20
213.7837737593
 30
0.0
 40
34.79121965435758
100
AcDbArc
 50
206.7361186075
 51
217.026423246
  0
LINE
  5
19D
330
191
100
AcDbEntity
  8
$DDT_AUDIT_GENERATED_(87)
  6
Continuous
 62
     7
100
AcDbLine
 10
122.1733415917
 20
208.3499939029
 30
0.0
 11
188.9666584077
 21
208.3499939029
 31
0.0
  0
SPLINE
  5
19E
330
191
100
AcDbEntity
  8
$DDT_AUDIT_GENERATED_(87)
  6
Continuous
 62
     7
100
AcDbSpline
210
0.0
220
0.0
230
1.0
 70
     8
 71
     2
 72
    22
 73
    19
 74
     0
 42
0.000000000343283
 43
0.0000000001
 40
0.0
 40
0.0
 40
0.0
 40
0.0625
 40
0.0625
 40
0.125
 40
0.125
 40
0.25
 40
0.25
 40
0.375
 40
0.375
 40
0.5
 40
0.5
 40
0.625
 40
0.625
 40
0.75
 40
0.75
 40
0.875
 40
0.875
 40
1.0
 40
1.0
 40
1.0
 10
170.5699999999999
 20
189.5883309966013
 30
0.0
 10
170.5700378576105
 20
190.5518822487022
 30
0.0
 10
170.6390423523529
 20
191.4174201693422
 30
0.0
 10
170.7176187997464
 20
192.403021109427
 30
0.0
 10
170.9099083755379
 20
193.3856916482631
 30
0.0
 10
171.2835046355647
 20
195.2949061058664
 30
0.0
 10
172.0788309620717
 20
197.0721328231036
 30
0.0
 10
172.826431328641
 20
198.7427116798587
 30
0.0
 10
173.9312049434142
 20
200.2620020697897
 30
0.0
 10
174.9717144081983
 20
201.6929160682229
 30
0.0
 10
176.2908404621359
 20
202.9352446537926
 30
0.0
 10
177.5604416080184
 20
204.1309315944711
 30
0.0
 10
179.0290959480055
 20
205.1053695760531
 30
0.0
 10
180.4962913439741
 20
206.0788395623582
 30
0.0
 10
182.0765233617485
 20
206.7721025423073
 30
0.0
 10
183.7025171542361
 20
207.4854416528173
 30
0.0
 10
185.4022734007874
 20
207.8810955894929
 30
0.0
 10
187.1632195205937
 20
208.2909927532706
 30
0.0
 10
188.9666584077364
 20
208.3499939029042
 30
0.0
  0
ARC
  5
19F
330
191
100
AcDbEntity
  8
$DDT_AUDIT_GENERATED_(87)
  6
Continuous
 62
     7
100
AcDbCircle
 10
111.0890321326
 20
207.9048317293
 30
0.0
 40
78.4822315383999
100
AcDbArc
 50
358.5994506793
 51
0.3178790577
  0
SPLINE
  5
1A0
330
191
100
AcDbEntity
  8
$DDT_AUDIT_GENERATED_(87)
  6
Continuous
 62
     7
100
AcDbSpline
210
0.0
220
0.0
230
1.0
 70
     8
 71
     3
 72
    21
 73
    17
 74
     0
 42
0.0000000003551951
 43
0.0000000001
 40
0.0
 40
0.0
 40
0.0
 40
0.0
 40
0.03321860945278
 40
0.0660774165159793
 40
0.1308427115140623
 40
0.2573159687896694
 40
0.3813544747130674
 40
0.443109538643987
 40
0.5049380201019726
 40
0.6285618105973495
 40
0.6906410932548576
 40
0.752891936826904
 40
0.8783746190704933
 40
0.9417301042027983
 40
0.9708007414976199
 40
1.0
 40
1.0
 40
1.0
 40
1.0
 10
189.570055804855
 20
208.340251755669
 30
0.0
 10
189.2578799687111
 20
208.3352075585304
 30
0.0
 10
188.6370281472304
 20
208.3251773957852
 30
0.0
 10
187.4114704940357
 20
208.2195427574487
 30
0.0
 10
185.3313435014539
 20
207.8731163486454
 30
0.0
 10
182.5064085526241
 20
206.8968033536938
 30
0.0
 10
180.0009270890839
 20
205.3168817372711
 30
0.0
 10
178.2819252682915
 20
203.7424009728011
 30
0.0
 10
176.7711711309067
 20
201.9762578327064
 30
0.0
 10
175.5149198851411
 20
200.0114430922391
 30
0.0
 10
174.509725547994
 20
197.9291255252959
 30
0.0
 10
173.6455259467314
 20
195.7753705720805
 30
0.0
 10
172.9851514786699
 20
193.5363425573397
 30
0.0
 10
172.6722220209953
 20
191.5323368325828
 30
0.0
 10
172.5821521652634
 20
190.4028238196043
 30
0.0
 10
172.5740566782396
 20
189.8602278347226
 30
0.0
 10
172.5699999999999
 20
189.5883138174106
 30
0.0
  0
SPLINE
  5
1A1
330
191
100
AcDbEntity
  8
$DDT_AUDIT_GENERATED_(87)
  6
Continuous
 62
     7
100
AcDbSpline
210
0.0
220
0.0
230
1.0
 70
     8
 71
     3
 72
    21
 73
    17
 74
     0
 42
0.0000000003551947
 43
0.0000000001
 40
0.0
 40
0.0
 40
0.0
 40
0.0
 40
0.0292840191021329
 40
0.0582701435842647
 40
0.1216256040763491
 40
0.2471082375173717
 40
0.3093590568789617
 40
0.3714383153925687
 40
0.4950620578076301
 40
0.5568905152204693
 40
0.6186455551334501
 40
0.7426840128160226
 40
0.8691572209039016
 40
0.9339224907132679
 40
0.966787582009861
 40
1.0
 40
1.0
 40
1.0
 40
1.0
 10
138.5699999999999
 20
189.5883006941487
 30
0.0
 10
138.5659895479747
 20
189.860885495669
 30
0.0
 10
138.5580094406494
 20
190.4032219058392
 30
0.0
 10
138.4675278414454
 20
191.5333563148845
 30
0.0
 10
138.1549434799724
 20
193.5361638597029
 30
0.0
 10
137.4944590556231
 20
195.7753987921359
 30
0.0
 10
136.6302772005428
 20
197.9291203585343
 30
0.0
 10
135.6250785151735
 20
200.0114460727015
 30
0.0
 10
134.3688291359462
 20
201.9762575168653
 30
0.0
 10
132.8580746642031
 20
203.742400780902
 30
0.0
 10
131.1390730500074
 20
205.316883205828
 30
0.0
 10
128.6335905216486
 20
206.8967909291948
 30
0.0
 10
125.8086592072621
 20
207.8731531214483
 30
0.0
 10
123.7284671841025
 20
208.2194999083165
 30
0.0
 10
122.5029185097559
 20
208.3252751150659
 30
0.0
 10
121.8820631817499
 20
208.3352408757585
 30
0.0
 10
121.5699442019543
 20
208.3402517556371
 30
0.0
  0
LINE
  5
1A2
330
191
100
AcDbEntity
  8
$DDT_AUDIT_GENERATED_(87)
  6
Continuous
 62
     7
100
AcDbLine
 10
138.57
 20
123.3500030445
 30
0.0
 11
138.57
 21
189.5883006941
 31
0.0
  0
ARC
  5
1A3
330
191
100
AcDbEntity
  8
$DDT_AUDIT_GENERATED_(87)
  6
Continuous
 62
     7
100
AcDbCircle
 10
155.5699783852
 20
123.3500159952
 30
0.0
 40
17.0000159951969
100
AcDbArc
 50
180.0000436482
 51
359.9999563519
  0
LINE
  5
1A4
330
191
100
AcDbEntity
  8
$DDT_AUDIT_GENERATED_(87)
  6
Continuous
 62
     7
100
AcDbLine
 10
172.57
 20
189.5883138174
 30
0.0
 11
172.57
 21
123.3500030445
 31
0.0
  0
LINE
  5
1A5
330
191
100
AcDbEntity
  8
$DDT_AUDIT_GENERATED_(87)
  6
Continuous
 62
     7
100
AcDbLine
 10
188.9666583314
 20
208.3499939029
 30
0.0
 11
189.5699961995
 21
208.3402499085
 31
0.0
  0
LINE
  5
1A6
330
191
100
AcDbEntity
  8
$DDT_AUDIT_GENERATED_(87)
  6
Continuous
 62
     7
100
AcDbLine
 10
121.5700038005
 20
208.3402499086
 30
0.0
 11
122.1733416656
 21
208.3499939029
 31
0.0
  0
LINE
  5
1A7
330
191
100
AcDbEntity
  8
$DDT_AUDIT_GENERATED_(87)
  6
Continuous
 62
     7
100
AcDbLine
 10
138.6032314396
 20
189.5883011976
 30
0.0
 11
138.57
 21
189.5883006941
 31
0.0
  0
SPLINE
  5
1A8
330
191
100
AcDbEntity
  8
$DDT_AUDIT_GENERATED_(87)
  6
Continuous
 62
     7
100
AcDbSpline
210
0.0
220
0.0
230
1.0
 70
     8
 71
     3
 72
    23
 73
    19
 74
     0
 42
0.000000000139766
 43
0.0000000001
 40
0.5000023789970947
 40
0.5000023789970947
 40
0.5000023789970947
 40
0.5000023789970947
 40
0.5376082501094277
 40
0.5767855309682215
 40
0.6532432836809929
 40
0.6916787994084512
 40
0.7301264396961741
 40
0.7516138341423897
 40
0.768573662415631
 40
0.8068132318327546
 40
0.8450528508819439
 40
0.8620099324650506
 40
0.8835000685181278
 40
0.8974284233370233
 40
0.9219772293252255
 40
0.948927522952599
 40
0.973609512109536
 40
1.0
 40
1.0
 40
1.0
 40
1.0
 10
213.5700000019234
 20
231.3500793813378
 30
0.0
 10
213.5700177843825
 20
231.3500615980699
 30
0.0
 10
213.8217925335516
 20
231.1612794929964
 30
0.0
 10
215.2631358938359
 20
230.1011835238464
 30
0.0
 10
217.9105415976516
 20
228.1382280605947
 30
0.0
 10
221.194452360045
 20
225.8615346137418
 30
0.0
 10
223.5529052029783
 20
224.3583347515044
 30
0.0
 10
225.5619698216656
 20
223.2771108520721
 30
0.0
 10
227.6703483464271
 20
222.3238333998838
 30
0.0
 10
230.5699172972776
 20
221.5810660468742
 30
0.0
 10
233.4697996544306
 20
222.3235913251727
 30
0.0
 10
235.5775794299094
 20
223.277437782378
 30
0.0
 10
236.9479916819911
 20
224.011952088016
 30
0.0
 10
238.4321281936401
 20
224.9047177239367
 30
0.0
 10
239.9745676280298
 20
225.8912802336868
 30
0.0
 10
241.6317464213251
 20
227.0289457505762
 30
0.0
 10
243.1966669243153
 20
228.1358338805607
 30
0.0
 10
244.0718624663625
 20
228.7722401036876
 30
0.0
 10
244.5240989485043
 20
229.1010878842497
 30
0.0
  0
SPLINE
  5
1A9
330
191
100
AcDbEntity
  8
$DDT_AUDIT_GENERATED_(87)
  6
Continuous
 62
     7
100
AcDbSpline
210
0.0
220
0.0
230
1.0
 70
     8
 71
     3
 72
    25
 73
    21
 74
     0
 42
0.0000000001145888
 43
0.0000000001
 40
0.0
 40
0.0
 40
0.0
 40
0.0
 40
0.0125866958923756
 40
0.0251340680025688
 40
0.0376728633550601
 40
0.0502338930976227
 40
0.0799324843005411
 40
0.1083003676184499
 40
0.1305901901342958
 40
0.1520211690957549
 40
0.188382194184092
 40
0.2244233790574665
 40
0.2557883452643986
 40
0.289067209436859
 40
0.3256051093191099
 40
0.3853034521669185
 40
0.4277939398504057
 40
0.4638113555872769
 40
0.4989823724306833
 40
0.5001349692533592
 40
0.5001349692533592
 40
0.5001349692533592
 40
0.5001349692533592
 10
247.7699999999999
 20
225.6759101034762
 30
0.0
 10
247.5430643765065
 20
225.4687649081711
 30
0.0
 10
247.0899021294911
 20
225.0551216876266
 30
0.0
 10
246.3364094422307
 20
224.3838573801153
 30
0.0
 10
245.531123252959
 20
223.6872213539026
 30
0.0
 10
244.2771698069147
 20
222.6436845058416
 30
0.0
 10
242.5026921353332
 20
221.2571621644456
 30
0.0
 10
240.2399049001268
 20
219.7320848793944
 30
0.0
 10
238.0096575314924
 20
218.5161434521526
 30
0.0
 10
235.3398960454009
 20
217.4245449572057
 30
0.0
 10
231.9507143389559
 20
216.6773982655386
 30
0.0
 10
228.0970722079262
 20
216.8481055526824
 30
0.0
 10
224.5381601113557
 20
217.8343864831783
 30
0.0
 10
221.2936294086269
 20
219.4431151555775
 30
0.0
 10
217.6604634984778
 20
221.9276213933281
 30
0.0
 10
214.428721345214
 20
224.6803003912702
 30
0.0
 10
212.0695584142344
 20
226.8742662435458
 30
0.0
 10
210.8497462097318
 20
228.0662722033905
 30
0.0
 10
210.5741413396789
 20
228.345808761704
 30
0.0
 10
210.5699322256414
 20
228.3499900733652
 30
0.0
 10
210.5699335945467
 20
228.349986030496
 30
0.0
  0
ARC
  5
1AA
330
191
100
AcDbEntity
  8
$DDT_AUDIT_GENERATED_(87)
  6
Continuous
 62
     7
100
AcDbCircle
 10
249.3817023249
 20
230.4538473527
 30
0.0
 40
5.042446701911603
100
AcDbArc
 50
195.5616106045
 51
251.3596285152
  0
SPLINE
  5
1AB
330
191
100
AcDbEntity
  8
$DDT_AUDIT_GENERATED_(87)
  6
Continuous
 62
     7
100
AcDbSpline
210
0.0
220
0.0
230
1.0
 70
     8
 71
     3
 72
    58
 73
    54
 74
     0
 42
0.0000000001405588
 43
0.0000000001
 40
0.4989478439599227
 40
0.4989478439599227
 40
0.4989478439599227
 40
0.4989478439599227
 40
0.4999999999999984
 40
0.4999999999999984
 40
0.5312499999999988
 40
0.5312499999999988
 40
0.5624999999999991
 40
0.5624999999999991
 40
0.5937499999999994
 40
0.5937499999999994
 40
0.6015624999999996
 40
0.6015624999999996
 40
0.6093749999999994
 40
0.6093749999999994
 40
0.6171874999999994
 40
0.6171874999999994
 40
0.6210937499999994
 40
0.6210937499999994
 40
0.6249999999999994
 40
0.6249999999999994
 40
0.6406249999999998
 40
0.6406249999999998
 40
0.6484375000000001
 40
0.6484375000000001
 40
0.6562500000000003
 40
0.6562500000000003
 40
0.6875000000000001
 40
0.6875000000000001
 40
0.7187499999999999
 40
0.7187499999999999
 40
0.7499999999999997
 40
0.7499999999999997
 40
0.7812499999999996
 40
0.7812499999999996
 40
0.8124999999999993
 40
0.8124999999999993
 40
0.8749999999999989
 40
0.8749999999999989
 40
0.9062499999999987
 40
0.9062499999999987
 40
0.9374999999999984
 40
0.9374999999999984
 40
0.9453124999999986
 40
0.9453124999999986
 40
0.9531249999999988
 40
0.9531249999999988
 40
0.9609374999999989
 40
0.9609374999999989
 40
0.9687499999999991
 40
0.9687499999999991
 40
0.9843749999999996
 40
0.9843749999999996
 40
1.0
 40
1.0
 40
1.0
 40
1.0
 10
97.5699935306854
 20
231.3500744576631
 30
0.0
 10
97.56999694240213
 20
231.3500771231773
 30
0.0
 10
97.56984545701434
 20
231.3499640799623
 30
0.0
 10
97.5604426478613
 20
231.3429415668423
 30
0.0
 10
97.41659488878251
 20
231.2355310588235
 30
0.0
 10
96.85451845619411
 20
230.8194765739557
 30
0.0
 10
96.44461966854043
 20
230.5190974254077
 30
0.0
 10
95.3087039350876
 20
229.6791434363868
 30
0.0
 10
94.56248924900467
 20
229.1234158596118
 30
0.0
 10
93.36273317130731
 20
228.2590681608058
 30
0.0
 10
93.10949089208229
 20
228.0777142096537
 30
0.0
 10
92.5755815402174
 20
227.698037484566
 30
0.0
 10
92.30465118433972
 20
227.5065066724432
 30
0.0
 10
91.66457565770791
 20
227.0567608339715
 30
0.0
 10
91.29883034382313
 20
226.8016913333458
 30
0.0
 10
90.6724483088014
 20
226.3737922103227
 30
0.0
 10
90.45069520561125
 20
226.2236100239679
 30
0.0
 10
89.97982927346638
 20
225.9081473605636
 30
0.0
 10
89.7257584785464
 20
225.7395753274176
 30
0.0
 10
88.55683029306118
 20
224.9784683418952
 30
0.0
 10
87.833794053362
 20
224.5431017206245
 30
0.0
 10
87.1663682163685
 20
224.1503302394407
 30
0.0
 10
87.02585686976873
 20
224.070817510813
 30
0.0
 10
86.71235921029667
 20
223.8950813595686
 30
0.0
 10
86.55834429548263
 20
223.8104355612459
 30
0.0
 10
85.80290514121612
 20
223.4033179561249
 30
0.0
 10
85.24580273533358
 20
223.1291803088092
 30
0.0
 10
84.24358368135691
 20
222.6840178877486
 30
0.0
 10
83.81033830021893
 20
222.518316798803
 30
0.0
 10
82.9452278812471
 20
222.2366329169267
 30
0.0
 10
82.5248155364835
 20
222.1260000647584
 30
0.0
 10
81.7114696528875
 20
221.9651525379574
 30
0.0
 10
81.3185303992206
 20
221.914937863326
 30
0.0
 10
80.56234001048436
 20
221.8749266916004
 30
0.0
 10
80.1988979954392
 20
221.8851303278078
 30
0.0
 10
79.03469660950141
 20
222.0064773757524
 30
0.0
 10
78.19978298232066
 20
222.2083206372569
 30
0.0
 10
76.87750000515568
 20
222.6925033738312
 30
0.0
 10
76.40426376657744
 20
222.8934032898566
 30
0.0
 10
75.32714962770831
 20
223.409090431287
 30
0.0
 10
74.73477079652439
 20
223.7186250499537
 30
0.0
 10
73.94036265637851
 20
224.1701571332325
 30
0.0
 10
73.75309446265206
 20
224.2787861151266
 30
0.0
 10
73.20895396009345
 20
224.6045870643065
 30
0.0
 10
72.86984111325322
 20
224.8111019329851
 30
0.0
 10
72.07263812757934
 20
225.3113604585199
 30
0.0
 10
71.59857685142248
 20
225.6165153013134
 30
0.0
 10
70.62553949211596
 20
226.2648904255631
 30
0.0
 10
70.19476293725903
 20
226.5587447215139
 30
0.0
 10
69.05200722435917
 20
227.3493078108433
 30
0.0
 10
68.51539526150324
 20
227.7315459620682
 30
0.0
 10
67.48560937797669
 20
228.467536792884
 30
0.0
 10
67.02530810511495
 20
228.801413960187
 30
0.0
 10
66.61590105584501
 20
229.1010878810661
 30
0.0
  0
SPLINE
  5
1AC
330
191
100
AcDbEntity
  8
$DDT_AUDIT_GENERATED_(87)
  6
Continuous
 62
     7
100
AcDbSpline
210
0.0
220
0.0
230
1.0
 70
     8
 71
     3
 72
    22
 73
    18
 74
     0
 42
0.0000000001144092
 43
0.0000000001
 40
0.5001242374727721
 40
0.5001242374727721
 40
0.5001242374727721
 40
0.5001242374727721
 40
0.5012768190749007
 40
0.5364453999836195
 40
0.5724643728600578
 40
0.6149543362903979
 40
0.6746519425723085
 40
0.728056905071602
 40
0.7756087409923925
 40
0.8116484665886602
 40
0.8480100610189909
 40
0.8694396723576543
 40
0.8917303225335381
 40
0.9200955826084145
 40
0.9497960667550813
 40
0.9748802926293902
 40
1.0
 40
1.0
 40
1.0
 40
1.0
 10
100.5700673989503
 20
228.3499878502077
 30
0.0
 10
100.5700684384822
 20
228.349991286057
 30
0.0
 10
100.5658491075274
 20
228.3457910644502
 30
0.0
 10
100.2902353374807
 20
228.0662345388935
 30
0.0
 10
99.0706204173577
 20
226.8745375672233
 30
0.0
 10
96.71051610337287
 20
224.6790328119887
 30
0.0
 10
93.09052733115044
 20
221.599470728606
 30
0.0
 10
88.43366200633987
 20
218.5092222768974
 30
0.0
 10
83.6430083277541
 20
216.8701962801447
 30
0.0
 10
79.1895902560165
 20
216.6785019483434
 30
0.0
 10
75.8001552851026
 20
217.4243377310437
 30
0.0
 10
73.13034873506417
 20
218.5162042446425
 30
0.0
 10
70.90036476004379
 20
219.7318250353596
 30
0.0
 10
68.63651458980513
 20
221.2580549488915
 30
0.0
 10
66.55139557554553
 20
222.8861363762917
 30
0.0
 10
64.7630578554639
 20
224.4075900058331
 30
0.0
 10
63.83457135316792
 20
225.2529375889408
 30
0.0
 10
63.36999999933691
 20
225.6759101040726
 30
0.0
  0
ARC
  5
1AD
330
191
100
AcDbEntity
  8
$DDT_AUDIT_GENERATED_(87)
  6
Continuous
 62
     7
100
AcDbCircle
 10
61.7582976586
 20
230.453847377
 30
0.0
 40
5.042446729388077
100
AcDbArc
 50
288.6403715698
 51
344.438389159
  0
LINE
  5
1AE
330
191
100
AcDbEntity
  8
$DDT_AUDIT_GENERATED_(87)
  6
Continuous
 62
     7
100
AcDbLine
 10
214.07
 20
241.1553528749
 30
0.0
 11
247.069999982
 21
241.1553528749
 31
0.0
  0
LINE
  5
1AF
330
191
100
AcDbEntity
  8
$DDT_AUDIT_GENERATED_(87)
  6
Continuous
 62
     7
100
AcDbLine
 10
64.0700000178
 20
241.1553528749
 30
0.0
 11
97.07
 21
241.1553528749
 31
0.0
  0
LINE
  5
1B0
330
191
100
AcDbEntity
  8
$DDT_AUDIT_GENERATED_(87)
  6
Continuous
 62
     7
100
AcDbLine
 10
63.07
 20
188.6499939029
 30
0.0
 11
63.07
 21
225.4160213665
 31
0.0
  0
LINE
  5
1B1
330
191
100
AcDbEntity
  8
$DDT_AUDIT_GENERATED_(87)
  6
Continuous
 62
     7
100
AcDbLine
 10
63.07
 20
228.0499938755
 30
0.0
 11
63.07
 21
225.4160213665
 31
0.0
  0
ELLIPSE
  5
1B2
330
191
100
AcDbEntity
  8
$DDT_AUDIT_GENERATED_(87)
  6
Continuous
 62
     7
100
AcDbEllipse
 10
63.37
 20
225.4160067778
 30
0.0
 11
0.3000000000000225
 21
-2.775557561562891E-14
 31
0.0
210
0.0
220
0.0
230
1.0
 40
0.8662950698
 41
1.570796326795072
 42
2.957170946852017
  0
LINE
  5
1B3
330
191
100
AcDbEntity
  8
$DDT_AUDIT_GENERATED_(87)
  6
Continuous
 62
     7
100
AcDbLine
 10
248.07
 20
225.4160213605
 30
0.0
 11
248.07
 21
228.0499938827
 31
0.0
  0
LINE
  5
1B4
330
191
100
AcDbEntity
  8
$DDT_AUDIT_GENERATED_(87)
  6
Continuous
 62
     7
100
AcDbLine
 10
248.07
 20
225.4160213605
 30
0.0
 11
248.07
 21
188.6499939029
 31
0.0
  0
LINE
  5
1B5
330
191
100
AcDbEntity
  8
$DDT_AUDIT_GENERATED_(87)
  6
Continuous
 62
     7
100
AcDbLine
 10
180.3420795335
 20
188.3499939029
 30
0.0
 11
247.77
 21
188.3499939029
 31
0.0
  0
LINE
  5
1B6
330
191
100
AcDbEntity
  8
$DDT_AUDIT_GENERATED_(87)
  6
Continuous
 62
     7
100
AcDbLine
 10
63.37
 20
188.3499939029
 30
0.0
 11
130.7979204665
 21
188.3499939029
 31
0.0
  0
LINE
  5
1B7
330
191
100
AcDbEntity
  8
$DDT_AUDIT_GENERATED_(87)
  6
Continuous
 62
     7
100
AcDbLine
 10
210.5756635671
 20
228.3499939029
 30
0.0
 11
100.5643349103
 21
228.3499939029
 31
0.0
  0
SPLINE
  5
1B8
330
191
100
AcDbEntity
  8
$DDT_AUDIT_GENERATED_(87)
  6
Continuous
 62
     7
100
AcDbSpline
210
0.0
220
0.0
230
1.0
 70
     8
 71
     3
 72
    20
 73
    16
 74
     0
 42
0.0000000008950667
 43
0.0000000001
 40
0.0
 40
0.0
 40
0.0
 40
0.0
 40
0.0951397653813026
 40
0.1757523100853349
 40
0.2429471312492715
 40
0.2981066912295264
 40
0.3442329092141671
 40
0.3877414978768728
 40
0.4708606487061549
 40
0.5244270885004467
 40
0.5827330378982
 40
0.6564901071128594
 40
0.7485285521817088
 40
0.861972572558255
 40
1.0
 40
1.0
 40
1.0
 40
1.0
 10
172.5699999999999
 20
182.4240458416645
 30
0.0
 10
172.5792926426151
 20
182.7642357177092
 30
0.0
 10
172.6006969866633
 20
183.2949917079182
 30
0.0
 10
172.7605984527638
 20
184.1050279253962
 30
0.0
 10
172.9848653132591
 20
184.7679878645179
 30
0.0
 10
173.2555635045349
 20
185.3228660662019
 30
0.0
 10
173.5598889578003
 20
185.792188216655
 30
0.0
 10
173.9795506945279
 20
186.3045556909364
 30
0.0
 10
174.4961332775366
 20
186.76935416885
 30
0.0
 10
175.1158100800724
 20
187.181841101006
 30
0.0
 10
175.7469772768128
 20
187.5127348804583
 30
0.0
 10
176.5562289204192
 20
187.8306837012361
 30
0.0
 10
177.5966557350989
 20
188.1096567887738
 30
0.0
 10
178.9354035772423
 20
188.3152769456316
 30
0.0
 10
179.8329651169444
 20
188.3399150800122
 30
0.0
 10
180.4181979931838
 20
188.3500359275305
 30
0.0
  0
LINE
  5
1B9
330
191
100
AcDbEntity
  8
$DDT_AUDIT_GENERATED_(87)
  6
Continuous
 62
     7
100
AcDbLine
 10
97.57
 20
231.3500793837
 30
0.0
 11
97.57
 21
240.6553528749
 31
0.0
  0
LINE
  5
1BA
330
191
100
AcDbEntity
  8
$DDT_AUDIT_GENERATED_(87)
  6
Continuous
 62
     7
100
AcDbLine
 10
63.5700000007
 20
240.6553528749
 30
0.0
 11
63.5700000007
 21
231.3501055547
 31
0.0
  0
SPLINE
  5
1BB
330
191
100
AcDbEntity
  8
$DDT_AUDIT_GENERATED_(87)
  6
Continuous
 62
     7
100
AcDbSpline
210
0.0
220
0.0
230
1.0
 70
     8
 71
     3
 72
    20
 73
    16
 74
     0
 42
0.0000000008948302
 43
0.0000000001
 40
0.0
 40
0.0
 40
0.0
 40
0.0
 40
0.118450148380823
 40
0.2160077476294798
 40
0.2949826354620085
 40
0.3575916674203463
 40
0.4126146023752961
 40
0.4673677795505639
 40
0.5495197612219257
 40
0.5939471253890717
 40
0.6487904519181544
 40
0.7149612931324025
 40
0.7937406869104858
 40
0.8875051763003738
 40
1.0
 40
1.0
 40
1.0
 40
1.0
 10
130.7218020068163
 20
188.3500359275305
 30
0.0
 10
131.2211632334329
 20
188.3427478785067
 30
0.0
 10
131.9874124260289
 20
188.3254438159702
 30
0.0
 10
133.1339089199797
 20
188.1791611423618
 30
0.0
 10
134.0307582878479
 20
187.9851125816451
 30
0.0
 10
134.7567991634614
 20
187.7626090696125
 30
0.0
 10
135.3730998499443
 20
187.5165688814936
 30
0.0
 10
136.0300193709046
 20
187.1846602776501
 30
0.0
 10
136.6052150991388
 20
186.7960691097047
 30
0.0
 10
137.1133353070445
 20
186.3401516132331
 30
0.0
 10
137.5139147845137
 20
185.8906552934641
 30
0.0
 10
137.911460866554
 20
185.2973011823352
 30
0.0
 10
138.2607005240972
 20
184.5346198417595
 30
0.0
 10
138.5201700823354
 20
183.5428485314443
 30
0.0
 10
138.5545433920631
 20
182.8635599138112
 30
0.0
 10
138.5699999999999
 20
182.4240458416658
 30
0.0
  0
ARC
  5
1BC
330
191
100
AcDbEntity
  8
$DDT_AUDIT_GENERATED_(87)
  6
Continuous
 62
     7
100
AcDbCircle
 10
143.0069568595
 20
190.210735773
 30
0.0
 40
4.447340663246948
100
AcDbArc
 50
182.7388434342
 51
188.0453658422
  0
LINE
  5
1BD
330
191
100
AcDbEntity
  8
$DDT_AUDIT_GENERATED_(87)
  6
Continuous
 62
     7
100
AcDbLine
 10
213.57
 20
240.6553528749
 30
0.0
 11
213.57
 21
231.3500793837
 31
0.0
  0
LINE
  5
1BE
330
191
100
AcDbEntity
  8
$DDT_AUDIT_GENERATED_(87)
  6
Continuous
 62
     7
100
AcDbLine
 10
247.5699999993
 20
231.3501055547
 30
0.0
 11
247.5699999993
 21
240.6553528749
 31
0.0
  0
ARC
  5
1BF
330
191
100
AcDbEntity
  8
$DDT_AUDIT_GENERATED_(87)
  6
Continuous
 62
     7
100
AcDbCircle
 10
258.422239721
 20
231.3518421167
 30
0.0
 40
10.85225425058317
100
AcDbArc
 50
179.9062450553
 51
197.3302421373
  0
ARC
  5
1C0
330
191
100
AcDbEntity
  8
$DDT_AUDIT_GENERATED_(87)
  6
Continuous
 62
     7
100
AcDbCircle
 10
210.5698297273
 20
231.3502706124
 30
0.0
 40
3.000283097398289
100
AcDbArc
 50
270.001690265
 51
0.4824004422
  0
ARC
  5
1C1
330
191
100
AcDbEntity
  8
$DDT_AUDIT_GENERATED_(87)
  6
Continuous
 62
     7
100
AcDbCircle
 10
52.7177601905
 20
231.3518421243
 30
0.0
 40
10.85225433909383
100
AcDbArc
 50
342.6697526267
 51
0.093754935
  0
ARC
  5
1C2
330
191
100
AcDbEntity
  8
$DDT_AUDIT_GENERATED_(87)
  6
Continuous
 62
     7
100
AcDbCircle
 10
100.5701702727
 20
231.3502706124
 30
0.0
 40
3.00028309740135
100
AcDbArc
 50
179.5175995545
 51
269.998309735
  0
ARC
  5
1C3
330
191
100
AcDbEntity
  8
$DDT_AUDIT_GENERATED_(87)
  6
Continuous
 62
     7
100
AcDbCircle
 10
247.0699729737
 20
240.6553528753
 30
0.0
 40
0.4999999995938249
100
AcDbArc
 50
0.0144455818
 51
90.0061968827
  0
ARC
  5
1C4
330
191
100
AcDbEntity
  8
$DDT_AUDIT_GENERATED_(87)
  6
Continuous
 62
     7
100
AcDbCircle
 10
214.0700440029
 20
240.6553528716
 30
0.0
 40
0.5000000033576388
100
AcDbArc
 50
89.9899090627
 51
180.0700714586
  0
ARC
  5
1C5
330
191
100
AcDbEntity
  8
$DDT_AUDIT_GENERATED_(87)
  6
Continuous
 62
     7
100
AcDbCircle
 10
64.0700270259
 20
240.6553528745
 30
0.0
 40
0.4999991630572323
100
AcDbArc
 50
89.9938032011
 51
180.014699002
  0
ARC
  5
1C6
330
191
100
AcDbEntity
  8
$DDT_AUDIT_GENERATED_(87)
  6
Continuous
 62
     7
100
AcDbCircle
 10
97.0699559977
 20
240.6553528782
 30
0.0
 40
0.4999986347382668
100
AcDbArc
 50
0.0699118929
 51
90.0100908012
  0
ARC
  5
1C7
330
191
100
AcDbEntity
  8
$DDT_AUDIT_GENERATED_(87)
  6
Continuous
 62
     7
100
AcDbCircle
 10
63.37
 20
188.6499939029
 30
0.0
 40
0.2999999999999947
100
AcDbArc
 50
180.0
 51
270.0
  0
ARC
  5
1C8
330
191
100
AcDbEntity
  8
$DDT_AUDIT_GENERATED_(87)
  6
Continuous
 62
     7
100
AcDbCircle
 10
247.77
 20
228.0499939008
 30
0.0
 40
0.2999999999994947
100
AcDbArc
 50
0.0000000446
 51
13.7774397387
  0
ARC
  5
1C9
330
191
100
AcDbEntity
  8
$DDT_AUDIT_GENERATED_(87)
  6
Continuous
 62
     7
100
AcDbCircle
 10
247.77
 20
188.6499939029
 30
0.0
 40
0.3000000000000017
100
AcDbArc
 50
270.0
 51
0.0
  0
LINE
  5
1CA
330
191
100
AcDbEntity
  8
$DDT_AUDIT_GENERATED_(B0)
  6
Continuous
 62
     7
100
AcDbLine
 10
63.07
 20
226.1499939029
 30
0.0
 11
63.07
 21
225.4160213665
 31
0.0
  0
LINE
  5
1CB
330
191
100
AcDbEntity
  8
$DDT_AUDIT_GENERATED_(B0)
  6
Continuous
 62
     7
100
AcDbLine
 10
63.07
 20
226.1499939029
 30
0.0
 11
62.35
 21
226.1499939029
 31
0.0
  0
LINE
  5
1CC
330
191
100
AcDbEntity
  8
$DDT_AUDIT_GENERATED_(B0)
  6
Continuous
 62
     7
100
AcDbLine
 10
62.35
 20
190.5499939029
 30
0.0
 11
63.07
 21
190.5499939029
 31
0.0
  0
LINE
  5
1CD
330
191
100
AcDbEntity
  8
$DDT_AUDIT_GENERATED_(B6)
  6
Continuous
 62
     7
100
AcDbLine
 10
248.07
 20
201.9545845811
 30
0.0
 11
248.77
 21
201.9545845811
 31
0.0
  0
LINE
  5
1CE
330
191
100
AcDbEntity
  8
$DDT_AUDIT_GENERATED_(B6)
  6
Continuous
 62
     7
100
AcDbLine
 10
248.07
 20
190.5809456284
 30
0.0
 11
248.77
 21
190.5809456284
 31
0.0
  0
LINE
  5
1CF
330
191
100
AcDbEntity
  8
$DDT_AUDIT_GENERATED_(B6)
  6
Continuous
 62
     7
100
AcDbLine
 10
248.07
 20
225.4160213605
 30
0.0
 11
248.07
 21
226.3499939029
 31
0.0
  0
LINE
  5
1D0
330
191
100
AcDbEntity
  8
$DDT_AUDIT_GENERATED_(B6)
  6
Continuous
 62
     7
100
AcDbLine
 10
248.07
 20
226.1190421774
 30
0.0
 11
248.77
 21
226.1190421774
 31
0.0
  0
LINE
  5
1D1
330
191
100
AcDbEntity
  8
$DDT_AUDIT_GENERATED_(B6)
  6
Continuous
 62
     7
100
AcDbLine
 10
248.07
 20
219.7236328556
 30
0.0
 11
248.77
 21
219.7236328556
 31
0.0
  0
LINE
  5
1D2
330
191
100
AcDbEntity
  8
$DDT_AUDIT_GENERATED_(B6)
  6
Continuous
 62
     7
100
AcDbLine
 10
248.77
 20
208.6050398233
 30
0.0
 11
248.07
 21
208.6050398233
 31
0.0
  0
LINE
  5
1D3
330
191
100
AcDbEntity
  8
$DDT_AUDIT_GENERATED_(B6)
  6
Continuous
 62
     7
100
AcDbLine
 10
248.77
 20
224.0644092308
 30
0.0
 11
248.07
 21
224.0644092308
 31
0.0
  0
LINE
  5
1D4
330
191
100
AcDbEntity
  8
$DDT_AUDIT_GENERATED_(B6)
  6
Continuous
 62
     7
100
AcDbLine
 10
248.77
 20
192.8906244953
 30
0.0
 11
248.07
 21
192.8906244953
 31
0.0
  0
LINE
  5
1D5
330
191
100
AcDbEntity
  8
$DDT_AUDIT_GENERATED_(14C)
  6
Continuous
 62
     7
100
AcDbLine
 10
91.0200211953
 20
241.8553528749
 30
0.0
 11
70.1200211953
 21
241.8553528749
 31
0.0
  0
LINE
  5
1D6
330
191
100
AcDbEntity
  8
$DDT_AUDIT_GENERATED_(14C)
  6
Continuous
 62
     7
100
AcDbLine
 10
91.0200211953
 20
241.1553528749
 30
0.0
 11
91.0200211953
 21
241.8553528749
 31
0.0
  0
LINE
  5
1D7
330
191
100
AcDbEntity
  8
$DDT_AUDIT_GENERATED_(14C)
  6
Continuous
 62
     7
100
AcDbLine
 10
70.1200211953
 20
241.8553528749
 30
0.0
 11
70.1200211953
 21
241.1553528749
 31
0.0
  0
LINE
  5
1D8
330
191
100
AcDbEntity
  8
$DDT_AUDIT_GENERATED_(14C)
  6
Continuous
 62
     7
100
AcDbLine
 10
91.0200211953
 20
241.8553528749
 30
0.0
 11
90.9365708205
 21
241.9553528749
 31
0.0
  0
LINE
  5
1D9
330
191
100
AcDbEntity
  8
$DDT_AUDIT_GENERATED_(14C)
  6
Continuous
 62
     7
100
AcDbLine
 10
70.2034715701
 20
241.9553528749
 30
0.0
 11
70.1200211953
 21
241.8553528749
 31
0.0
  0
LINE
  5
1DA
330
191
100
AcDbEntity
  8
$DDT_AUDIT_GENERATED_(14C)
  6
Continuous
 62
     7
100
AcDbLine
 10
241.0199788158
 20
241.8553528749
 30
0.0
 11
220.1199788158
 21
241.8553528749
 31
0.0
  0
LINE
  5
1DB
330
191
100
AcDbEntity
  8
$DDT_AUDIT_GENERATED_(14C)
  6
Continuous
 62
     7
100
AcDbLine
 10
241.0199788158
 20
241.1553528749
 30
0.0
 11
241.0199788158
 21
241.8553528749
 31
0.0
  0
LINE
  5
1DC
330
191
100
AcDbEntity
  8
$DDT_AUDIT_GENERATED_(14C)
  6
Continuous
 62
     7
100
AcDbLine
 10
220.1199788158
 20
241.8553528749
 30
0.0
 11
220.1199788158
 21
241.1553528749
 31
0.0
  0
LINE
  5
1DD
330
191
100
AcDbEntity
  8
$DDT_AUDIT_GENERATED_(14C)
  6
Continuous
 62
     7
100
AcDbLine
 10
241.0199788158
 20
241.8553528749
 30
0.0
 11
240.936528441
 21
241.9553528749
 31
0.0
  0
LINE
  5
1DE
330
191
100
AcDbEntity
  8
$DDT_AUDIT_GENERATED_(14C)
  6
Continuous
 62
     7
100
AcDbLine
 10
220.2034291906
 20
241.9553528749
 30
0.0
 11
220.1199788158
 21
241.8553528749
 31
0.0
  0
LINE
  5
1DF
330
191
100
AcDbEntity
  8
$DDT_AUDIT_GENERATED_(152)
  6
Continuous
 62
     7
100
AcDbLine
 10
67.6573624216
 20
245.4553528749
 30
0.0
 11
65.5700211953
 21
245.4553528749
 31
0.0
  0
LINE
  5
1E0
330
191
100
AcDbEntity
  8
$DDT_AUDIT_GENERATED_(152)
  6
Continuous
 62
     7
100
AcDbLine
 10
95.0700211953
 20
241.9553528749
 30
0.0
 11
66.0700211953
 21
241.9553528749
 31
0.0
  0
LINE
  5
1E1
330
191
100
AcDbEntity
  8
$DDT_AUDIT_GENERATED_(152)
  6
Continuous
 62
     7
100
AcDbLine
 10
95.0700211953
 20
258.9553528749
 30
0.0
 11
66.0700211953
 21
258.9553528749
 31
0.0
  0
LINE
  5
1E2
330
191
100
AcDbEntity
  8
$DDT_AUDIT_GENERATED_(152)
  6
Continuous
 62
     7
100
AcDbLine
 10
67.6573624216
 20
255.4553528749
 30
0.0
 11
65.5700211953
 21
255.4553528749
 31
0.0
  0
LINE
  5
1E3
330
191
100
AcDbEntity
  8
$DDT_AUDIT_GENERATED_(152)
  6
Continuous
 62
     7
100
AcDbLine
 10
95.5700211953
 20
255.4553528749
 30
0.0
 11
93.4826799689
 21
255.4553528749
 31
0.0
  0
LINE
  5
1E4
330
191
100
AcDbEntity
  8
$DDT_AUDIT_GENERATED_(152)
  6
Continuous
 62
     7
100
AcDbLine
 10
82.6573624216
 20
255.4553528749
 30
0.0
 11
78.4826799689
 21
255.4553528749
 31
0.0
  0
ARC
  5
1E5
330
191
100
AcDbEntity
  8
$DDT_AUDIT_GENERATED_(152)
  6
Continuous
 62
     7
100
AcDbCircle
 10
73.0700211953
 20
251.6767933557
 30
0.0
 40
6.601089837288614
100
AcDbArc
 50
34.9187681795
 51
145.0812318205
  0
ARC
  5
1E6
330
191
100
AcDbEntity
  8
$DDT_AUDIT_GENERATED_(152)
  6
Continuous
 62
     7
100
AcDbCircle
 10
88.0700211953
 20
251.6767933557
 30
0.0
 40
6.60108983728862
100
AcDbArc
 50
34.9187681796
 51
145.0812318205
  0
LINE
  5
1E7
330
191
100
AcDbEntity
  8
$DDT_AUDIT_GENERATED_(152)
  6
Continuous
 62
     7
100
AcDbLine
 10
95.5700211953
 20
255.4553528749
 30
0.0
 11
95.5700211953
 21
258.251081604
 31
0.0
  0
LINE
  5
1E8
330
191
100
AcDbEntity
  8
$DDT_AUDIT_GENERATED_(152)
  6
Continuous
 62
     7
100
AcDbLine
 10
65.5700211953
 20
255.4553528749
 30
0.0
 11
65.5700211953
 21
258.251081604
 31
0.0
  0
LINE
  5
1E9
330
191
100
AcDbEntity
  8
$DDT_AUDIT_GENERATED_(152)
  6
Continuous
 62
     7
100
AcDbLine
 10
95.5700211953
 20
245.4553528749
 30
0.0
 11
93.4826799689
 21
245.4553528749
 31
0.0
  0
LINE
  5
1EA
330
191
100
AcDbEntity
  8
$DDT_AUDIT_GENERATED_(152)
  6
Continuous
 62
     7
100
AcDbLine
 10
82.6573624216
 20
245.4553528749
 30
0.0
 11
78.4826799689
 21
245.4553528749
 31
0.0
  0
LINE
  5
1EB
330
191
100
AcDbEntity
  8
$DDT_AUDIT_GENERATED_(152)
  6
Continuous
 62
     7
100
AcDbLine
 10
65.5700211953
 20
255.4553528749
 30
0.0
 11
65.5700211953
 21
245.4553528749
 31
0.0
  0
LINE
  5
1EC
330
191
100
AcDbEntity
  8
$DDT_AUDIT_GENERATED_(152)
  6
Continuous
 62
     7
100
AcDbLine
 10
65.5700211953
 20
242.6596241458
 30
0.0
 11
65.5700211953
 21
245.4553528749
 31
0.0
  0
LINE
  5
1ED
330
191
100
AcDbEntity
  8
$DDT_AUDIT_GENERATED_(152)
  6
Continuous
 62
     7
100
AcDbLine
 10
95.5700211953
 20
245.4553528749
 30
0.0
 11
95.5700211953
 21
242.6596241458
 31
0.0
  0
LINE
  5
1EE
330
191
100
AcDbEntity
  8
$DDT_AUDIT_GENERATED_(152)
  6
Continuous
 62
     7
100
AcDbLine
 10
95.5700211953
 20
245.4553528749
 30
0.0
 11
95.5700211953
 21
255.4553528749
 31
0.0
  0
LINE
  5
1EF
330
191
100
AcDbEntity
  8
$DDT_AUDIT_GENERATED_(152)
  6
Continuous
 62
     7
100
AcDbLine
 10
93.4826799689
 20
255.4553528749
 30
0.0
 11
93.4826799689
 21
245.4553528749
 31
0.0
  0
ARC
  5
1F0
330
191
100
AcDbEntity
  8
$DDT_AUDIT_GENERATED_(152)
  6
Continuous
 62
     7
100
AcDbCircle
 10
88.0700211953
 20
249.2339123941
 30
0.0
 40
6.601089837288617
100
AcDbArc
 50
214.9187681796
 51
325.0812318204
  0
LINE
  5
1F1
330
191
100
AcDbEntity
  8
$DDT_AUDIT_GENERATED_(152)
  6
Continuous
 62
     7
100
AcDbLine
 10
82.6573624216
 20
245.4553528749
 30
0.0
 11
82.6573624216
 21
255.4553528749
 31
0.0
  0
LINE
  5
1F2
330
191
100
AcDbEntity
  8
$DDT_AUDIT_GENERATED_(152)
  6
Continuous
 62
     7
100
AcDbLine
 10
78.4826799689
 20
255.4553528749
 30
0.0
 11
78.4826799689
 21
245.4553528749
 31
0.0
  0
ARC
  5
1F3
330
191
100
AcDbEntity
  8
$DDT_AUDIT_GENERATED_(152)
  6
Continuous
 62
     7
100
AcDbCircle
 10
73.0700211953
 20
249.2339123941
 30
0.0
 40
6.601089837288611
100
AcDbArc
 50
214.9187681795
 51
325.0812318204
  0
LINE
  5
1F4
330
191
100
AcDbEntity
  8
$DDT_AUDIT_GENERATED_(152)
  6
Continuous
 62
     7
100
AcDbLine
 10
67.6573624216
 20
245.4553528749
 30
0.0
 11
67.6573624216
 21
255.4553528749
 31
0.0
  0
ARC
  5
1F5
330
191
100
AcDbEntity
  8
$DDT_AUDIT_GENERATED_(152)
  6
Continuous
 62
     7
100
AcDbCircle
 10
87.1736187989
 20
248.0910540731
 30
0.0
 40
10.0
100
AcDbArc
 50
322.1519040322
 51
327.1030300363
  0
ARC
  5
1F6
330
191
100
AcDbEntity
  8
$DDT_AUDIT_GENERATED_(152)
  6
Continuous
 62
     7
100
AcDbCircle
 10
73.9664235917
 20
248.0910540731
 30
0.0
 40
9.999999999999988
100
AcDbArc
 50
212.9010326932
 51
217.8480959678
  0
ARC
  5
1F7
330
191
100
AcDbEntity
  8
$DDT_AUDIT_GENERATED_(152)
  6
Continuous
 62
     7
100
AcDbCircle
 10
87.1736187989
 20
252.8196516767
 30
0.0
 40
9.999999999999993
100
AcDbArc
 50
32.9010326932
 51
37.8480959678
  0
ARC
  5
1F8
330
191
100
AcDbEntity
  8
$DDT_AUDIT_GENERATED_(152)
  6
Continuous
 62
     7
100
AcDbCircle
 10
73.9664235917
 20
252.8196516767
 30
0.0
 40
10.0
100
AcDbArc
 50
142.1519040322
 51
147.1030300363
  0
LINE
  5
1F9
330
191
100
AcDbEntity
  8
$DDT_AUDIT_GENERATED_(152)
  6
Continuous
 62
     7
100
AcDbLine
 10
217.6573200422
 20
245.4553528749
 30
0.0
 11
215.5699788158
 21
245.4553528749
 31
0.0
  0
LINE
  5
1FA
330
191
100
AcDbEntity
  8
$DDT_AUDIT_GENERATED_(152)
  6
Continuous
 62
     7
100
AcDbLine
 10
245.0699788158
 20
241.9553528749
 30
0.0
 11
216.0699788158
 21
241.9553528749
 31
0.0
  0
LINE
  5
1FB
330
191
100
AcDbEntity
  8
$DDT_AUDIT_GENERATED_(152)
  6
Continuous
 62
     7
100
AcDbLine
 10
245.0699788158
 20
258.9553528749
 30
0.0
 11
216.0699788158
 21
258.9553528749
 31
0.0
  0
LINE
  5
1FC
330
191
100
AcDbEntity
  8
$DDT_AUDIT_GENERATED_(152)
  6
Continuous
 62
     7
100
AcDbLine
 10
217.6573200422
 20
255.4553528749
 30
0.0
 11
215.5699788158
 21
255.4553528749
 31
0.0
  0
LINE
  5
1FD
330
191
100
AcDbEntity
  8
$DDT_AUDIT_GENERATED_(152)
  6
Continuous
 62
     7
100
AcDbLine
 10
245.5699788158
 20
255.4553528749
 30
0.0
 11
243.4826375895
 21
255.4553528749
 31
0.0
  0
LINE
  5
1FE
330
191
100
AcDbEntity
  8
$DDT_AUDIT_GENERATED_(152)
  6
Continuous
 62
     7
100
AcDbLine
 10
232.6573200422
 20
255.4553528749
 30
0.0
 11
228.4826375895
 21
255.4553528749
 31
0.0
  0
ARC
  5
1FF
330
191
100
AcDbEntity
  8
$DDT_AUDIT_GENERATED_(152)
  6
Continuous
 62
     7
100
AcDbCircle
 10
223.0699788158
 20
251.6767933557
 30
0.0
 40
6.601089837288622
100
AcDbArc
 50
34.9187681796
 51
145.0812318204
  0
ARC
  5
200
330
191
100
AcDbEntity
  8
$DDT_AUDIT_GENERATED_(152)
  6
Continuous
 62
     7
100
AcDbCircle
 10
238.0699788158
 20
251.6767933557
 30
0.0
 40
6.60108983728862
100
AcDbArc
 50
34.9187681796
 51
145.0812318204
  0
LINE
  5
201
330
191
100
AcDbEntity
  8
$DDT_AUDIT_GENERATED_(152)
  6
Continuous
 62
     7
100
AcDbLine
 10
245.5699788158
 20
255.4553528749
 30
0.0
 11
245.5699788158
 21
258.251081604
 31
0.0
  0
LINE
  5
202
330
191
100
AcDbEntity
  8
$DDT_AUDIT_GENERATED_(152)
  6
Continuous
 62
     7
100
AcDbLine
 10
215.5699788158
 20
255.4553528749
 30
0.0
 11
215.5699788158
 21
258.251081604
 31
0.0
  0
LINE
  5
203
330
191
100
AcDbEntity
  8
$DDT_AUDIT_GENERATED_(152)
  6
Continuous
 62
     7
100
AcDbLine
 10
245.5699788158
 20
245.4553528749
 30
0.0
 11
243.4826375895
 21
245.4553528749
 31
0.0
  0
LINE
  5
204
330
191
100
AcDbEntity
  8
$DDT_AUDIT_GENERATED_(152)
  6
Continuous
 62
     7
100
AcDbLine
 10
232.6573200422
 20
245.4553528749
 30
0.0
 11
228.4826375895
 21
245.4553528749
 31
0.0
  0
LINE
  5
205
330
191
100
AcDbEntity
  8
$DDT_AUDIT_GENERATED_(152)
  6
Continuous
 62
     7
100
AcDbLine
 10
215.5699788158
 20
255.4553528749
 30
0.0
 11
215.5699788158
 21
245.4553528749
 31
0.0
  0
LINE
  5
206
330
191
100
AcDbEntity
  8
$DDT_AUDIT_GENERATED_(152)
  6
Continuous
 62
     7
100
AcDbLine
 10
215.5699788158
 20
245.4553528749
 30
0.0
 11
215.5699788158
 21
242.6596241458
 31
0.0
  0
LINE
  5
207
330
191
100
AcDbEntity
  8
$DDT_AUDIT_GENERATED_(152)
  6
Continuous
 62
     7
100
AcDbLine
 10
245.5699788158
 20
245.4553528749
 30
0.0
 11
245.5699788158
 21
242.6596241458
 31
0.0
  0
LINE
  5
208
330
191
100
AcDbEntity
  8
$DDT_AUDIT_GENERATED_(152)
  6
Continuous
 62
     7
100
AcDbLine
 10
245.5699788158
 20
245.4553528749
 30
0.0
 11
245.5699788158
 21
255.4553528749
 31
0.0
  0
LINE
  5
209
330
191
100
AcDbEntity
  8
$DDT_AUDIT_GENERATED_(152)
  6
Continuous
 62
     7
100
AcDbLine
 10
243.4826375895
 20
255.4553528749
 30
0.0
 11
243.4826375895
 21
245.4553528749
 31
0.0
  0
ARC
  5
20A
330
191
100
AcDbEntity
  8
$DDT_AUDIT_GENERATED_(152)
  6
Continuous
 62
     7
100
AcDbCircle
 10
238.0699788158
 20
249.2339123941
 30
0.0
 40
6.601089837288602
100
AcDbArc
 50
214.9187681796
 51
325.0812318204
  0
LINE
  5
20B
330
191
100
AcDbEntity
  8
$DDT_AUDIT_GENERATED_(152)
  6
Continuous
 62
     7
100
AcDbLine
 10
232.6573200422
 20
245.4553528749
 30
0.0
 11
232.6573200422
 21
255.4553528749
 31
0.0
  0
LINE
  5
20C
330
191
100
AcDbEntity
  8
$DDT_AUDIT_GENERATED_(152)
  6
Continuous
 62
     7
100
AcDbLine
 10
228.4826375895
 20
255.4553528749
 30
0.0
 11
228.4826375895
 21
245.4553528749
 31
0.0
  0
ARC
  5
20D
330
191
100
AcDbEntity
  8
$DDT_AUDIT_GENERATED_(152)
  6
Continuous
 62
     7
100
AcDbCircle
 10
223.0699788158
 20
249.2339123941
 30
0.0
 40
6.601089837288613
100
AcDbArc
 50
214.9187681796
 51
325.0812318205
  0
LINE
  5
20E
330
191
100
AcDbEntity
  8
$DDT_AUDIT_GENERATED_(152)
  6
Continuous
 62
     7
100
AcDbLine
 10
217.6573200422
 20
245.4553528749
 30
0.0
 11
217.6573200422
 21
255.4553528749
 31
0.0
  0
ARC
  5
20F
330
191
100
AcDbEntity
  8
$DDT_AUDIT_GENERATED_(152)
  6
Continuous
 62
     7
100
AcDbCircle
 10
237.1735764194
 20
248.0910540731
 30
0.0
 40
10.0
100
AcDbArc
 50
322.1519040322
 51
327.1030300363
  0
ARC
  5
210
330
191
100
AcDbEntity
  8
$DDT_AUDIT_GENERATED_(152)
  6
Continuous
 62
     7
100
AcDbCircle
 10
223.9663812122
 20
248.0910540731
 30
0.0
 40
9.999999999999991
100
AcDbArc
 50
212.9010326932
 51
217.8480959678
  0
ARC
  5
211
330
191
100
AcDbEntity
  8
$DDT_AUDIT_GENERATED_(152)
  6
Continuous
 62
     7
100
AcDbCircle
 10
237.1735764194
 20
252.8196516767
 30
0.0
 40
9.999999999999991
100
AcDbArc
 50
32.9010326932
 51
37.8480959678
  0
ARC
  5
212
330
191
100
AcDbEntity
  8
$DDT_AUDIT_GENERATED_(152)
  6
Continuous
 62
     7
100
AcDbCircle
 10
223.9663812122
 20
252.8196516767
 30
0.0
 40
10.0
100
AcDbArc
 50
142.1519040322
 51
147.1030300363
  0
LINE
  5
214
330
191
100
AcDbEntity
  8
$DDT_AUDIT_GENERATED_(213)
  6
Continuous
 62
     7
100
AcDbLine
 10
216.5699788158
 20
259.7553528749
 30
0.0
 11
244.5699788158
 21
259.7553528749
 31
0.0
  0
LINE
  5
215
330
191
100
AcDbEntity
  8
$DDT_AUDIT_GENERATED_(213)
  6
Continuous
 62
     7
100
AcDbLine
 10
216.5699788158
 20
259.7553528749
 30
0.0
 11
216.5699788158
 21
258.9553528749
 31
0.0
  0
LINE
  5
216
330
191
100
AcDbEntity
  8
$DDT_AUDIT_GENERATED_(213)
  6
Continuous
 62
     7
100
AcDbLine
 10
244.5699788158
 20
258.9553528749
 30
0.0
 11
244.5699788158
 21
259.7553528749
 31
0.0
  0
LINE
  5
217
330
191
100
AcDbEntity
  8
$DDT_AUDIT_GENERATED_(16F)
  6
Continuous
 62
     7
100
AcDbLine
 10
66.5700211953
 20
259.7553528749
 30
0.0
 11
94.5700211953
 21
259.7553528749
 31
0.0
  0
LINE
  5
218
330
191
100
AcDbEntity
  8
$DDT_AUDIT_GENERATED_(16F)
  6
Continuous
 62
     7
100
AcDbLine
 10
66.5700211953
 20
259.7553528749
 30
0.0
 11
66.5700211953
 21
258.9553528749
 31
0.0
  0
LINE
  5
219
330
191
100
AcDbEntity
  8
$DDT_AUDIT_GENERATED_(16F)
  6
Continuous
 62
     7
100
AcDbLine
 10
94.5700211953
 20
258.9553528749
 30
0.0
 11
94.5700211953
 21
259.7553528749
 31
0.0
  0
LINE
  5
21A
330
191
100
AcDbEntity
  8
$DDT_AUDIT_GENERATED_(D5)
  6
Continuous
 62
     7
100
AcDbLine
 10
23.2764868254
 20
188.3099939029
 30
0.0
 11
41.25
 21
188.3099939029
 31
0.0
  0
ARC
  5
21B
330
191
100
AcDbEntity
  8
$DDT_AUDIT_GENERATED_(D5)
  6
Continuous
 62
     7
100
AcDbCircle
 10
23.2457705174
 20
188.80360095
 30
0.0
 40
0.4924474056267171
100
AcDbArc
 50
178.3356002956
 51
273.5238898053
  0
SPLINE
  5
21C
330
191
100
AcDbEntity
  8
$DDT_AUDIT_GENERATED_(D5)
  6
Continuous
 62
     7
100
AcDbSpline
210
0.0
220
0.0
230
1.0
 70
     8
 71
     3
 72
    13
 73
     9
 74
     0
 42
0.0000000121693255
 43
0.0000000001
 40
0.0
 40
0.0
 40
0.0
 40
0.0
 40
0.1141727445213401
 40
0.3392457707215581
 40
0.5540635761255577
 40
0.7788492508277791
 40
0.9965644852578908
 40
1.0
 40
1.0
 40
1.0
 40
1.0
 10
41.23980188741334
 20
188.3197706182979
 30
0.0
 10
41.27329692106393
 20
188.3167037593749
 30
0.0
 10
41.35917364265521
 20
188.3100973688737
 30
0.0
 10
41.50532128440183
 20
188.3700276600066
 30
0.0
 10
41.64405066954465
 20
188.4853781903451
 30
0.0
 10
41.72833682340442
 20
188.6407095635484
 30
0.0
 10
41.75818154264732
 20
188.7668014351518
 30
0.0
 10
41.74907309745763
 20
188.822339150906
 30
0.0
 10
41.7489087862925
 20
188.8233384943707
 30
0.0
  0
LINE
  5
21D
330
191
100
AcDbEntity
  8
$DDT_AUDIT_GENERATED_(E4)
  6
Continuous
 62
     7
100
AcDbLine
 10
62.35
 20
188.8499939029
 30
0.0
 11
62.35
 21
227.8499939029
 31
0.0
  0
ARC
  5
21E
330
191
100
AcDbEntity
  8
$DDT_AUDIT_GENERATED_(E4)
  6
Continuous
 62
     7
100
AcDbCircle
 10
58.328403463
 20
168.6267673289
 30
0.0
 40
19.79747237390167
100
AcDbArc
 50
85.0363114587
 51
89.9420272581
  0
ARC
  5
21F
330
191
100
AcDbEntity
  8
$DDT_AUDIT_GENERATED_(E4)
  6
Continuous
 62
     7
100
AcDbCircle
 10
58.3684662244
 20
168.6267673202
 30
0.0
 40
19.79747238255634
100
AcDbArc
 50
90.057972743
 51
94.9636885403
  0
ARC
  5
220
330
191
100
AcDbEntity
  8
$DDT_AUDIT_GENERATED_(E4)
  6
Continuous
 62
     7
100
AcDbCircle
 10
13.6850271678
 20
248.8376191664
 30
0.0
 40
20.73126725268776
100
AcDbArc
 50
261.2068380978
 51
262.9112658036
  0
ARC
  5
221
330
191
100
AcDbEntity
  8
$DDT_AUDIT_GENERATED_(E4)
  6
Continuous
 62
     7
100
AcDbCircle
 10
13.6800640448
 20
248.6796472053
 30
0.0
 40
20.57389547203404
100
AcDbArc
 50
262.8706913646
 51
269.9954321436
  0
LINE
  5
222
330
191
100
AcDbEntity
  8
$DDT_AUDIT_GENERATED_(E4)
  6
Continuous
 62
     7
100
AcDbLine
 10
55.5215728924
 20
228.105751804
 30
0.0
 11
19.6784271308
 21
228.105751799
 31
0.0
  0
ARC
  5
223
330
191
100
AcDbEntity
  8
$DDT_AUDIT_GENERATED_(E4)
  6
Continuous
 62
     7
100
AcDbCircle
 10
55.5181373151
 20
248.7090838635
 30
0.0
 40
20.60333234591343
100
AcDbArc
 50
276.8524003642
 51
277.1283941512
  0
ARC
  5
224
330
191
100
AcDbEntity
  8
$DDT_AUDIT_GENERATED_(E4)
  6
Continuous
 62
     7
100
AcDbCircle
 10
55.5131769508
 20
248.8490128668
 30
0.0
 40
20.74279905604733
100
AcDbArc
 50
277.0940262401
 51
278.7932100314
  0
ARC
  5
225
330
191
100
AcDbEntity
  8
$DDT_AUDIT_GENERATED_(E4)
  6
Continuous
 62
     7
100
AcDbCircle
 10
55.5109453178
 20
248.8612684744
 30
0.0
 40
20.75525176696619
100
AcDbArc
 50
277.0959249247
 51
278.7941262683
  0
ARC
  5
226
330
191
100
AcDbEntity
  8
$DDT_AUDIT_GENERATED_(E4)
  6
Continuous
 62
     7
100
AcDbCircle
 10
55.51793841
 20
248.7142529902
 30
0.0
 40
20.60850150673468
100
AcDbArc
 50
270.010104592
 51
277.1271227437
  0
LINE
  5
227
330
191
100
AcDbEntity
  8
$DDT_AUDIT_GENERATED_(E4)
  6
Continuous
 62
     7
100
AcDbLine
 10
19.6784271308
 20
228.105751799
 30
0.0
 11
13.6784238088
 21
228.1057517982
 31
0.0
  0
LINE
  5
228
330
191
100
AcDbEntity
  8
$DDT_AUDIT_GENERATED_(E4)
  6
Continuous
 62
     7
100
AcDbLine
 10
6.35
 20
227.3499939029
 30
0.0
 11
6.35
 21
189.3499939029
 31
0.0
  0
ARC
  5
229
330
191
100
AcDbEntity
  8
$DDT_AUDIT_GENERATED_(E4)
  6
Continuous
 62
     7
100
AcDbCircle
 10
21.8504836388
 20
188.8491467722
 30
0.0
 40
0.4992122882529359
100
AcDbArc
 50
269.9437283161
 51
292.8851529668
  0
ARC
  5
22A
330
191
100
AcDbEntity
  8
$DDT_AUDIT_GENERATED_(E4)
  6
Continuous
 62
     7
100
AcDbCircle
 10
42.8494499177
 20
188.849146911
 30
0.0
 40
0.4992126264039783
100
AcDbArc
 50
247.1148569376
 51
270.0562966335
  0
ARC
  5
22B
330
191
100
AcDbEntity
  8
$DDT_AUDIT_GENERATED_(E4)
  6
Continuous
 62
     7
100
AcDbCircle
 10
32.3499657613
 20
172.3297991696
 30
0.0
 40
19.08145129063598
100
AcDbArc
 50
57.3154423289
 51
122.6858412787
  0
ARC
  5
22C
330
191
100
AcDbEntity
  8
$DDT_AUDIT_GENERATED_(E4)
  6
Continuous
 62
     7
100
AcDbCircle
 10
32.3499676155
 20
172.3293446798
 30
0.0
 40
19.08203868581761
100
AcDbArc
 50
122.6732052506
 51
122.6894056444
  0
ARC
  5
22D
330
191
100
AcDbEntity
  8
$DDT_AUDIT_GENERATED_(E4)
  6
Continuous
 62
     7
100
AcDbCircle
 10
32.3499676155
 20
172.3293446798
 30
0.0
 40
19.08203868581761
100
AcDbArc
 50
57.3105801922
 51
57.3315068153
  0
LINE
  5
22E
330
191
100
AcDbEntity
  8
$DDT_AUDIT_GENERATED_(E4)
  6
Continuous
 62
     7
100
AcDbLine
 10
10.515201856
 20
228.3499939029
 30
0.0
 11
7.35
 21
228.3499939029
 31
0.0
  0
LINE
  5
22F
330
191
100
AcDbEntity
  8
$DDT_AUDIT_GENERATED_(E4)
  6
Continuous
 62
     7
100
AcDbLine
 10
61.85
 20
228.3499939029
 30
0.0
 11
58.6841155003
 21
228.3499939029
 31
0.0
  0
LINE
  5
230
330
191
100
AcDbEntity
  8
$DDT_AUDIT_GENERATED_(E4)
  6
Continuous
 62
     7
100
AcDbLine
 10
60.0410356596
 20
188.3499939029
 30
0.0
 11
61.85
 21
188.3499939029
 31
0.0
  0
LINE
  5
231
330
191
100
AcDbEntity
  8
$DDT_AUDIT_GENERATED_(E4)
  6
Continuous
 62
     7
100
AcDbLine
 10
42.8485484081
 20
188.3499939029
 30
0.0
 11
56.6558341619
 21
188.3499939029
 31
0.0
  0
LINE
  5
232
330
191
100
AcDbEntity
  8
$DDT_AUDIT_GENERATED_(E4)
  6
Continuous
 62
     7
100
AcDbLine
 10
7.35
 20
188.3499939029
 30
0.0
 11
21.8506777596
 21
188.3499939029
 31
0.0
  0
ARC
  5
233
330
191
100
AcDbEntity
  8
$DDT_AUDIT_GENERATED_(E4)
  6
Continuous
 62
     7
100
AcDbCircle
 10
60.0413805679
 20
188.8501734165
 30
0.0
 40
0.5001795137242288
100
AcDbArc
 50
260.6530330115
 51
269.9985068307
  0
ARC
  5
234
330
191
100
AcDbEntity
  8
$DDT_AUDIT_GENERATED_(E4)
  6
Continuous
 62
     7
100
AcDbCircle
 10
56.655489119
 20
188.8501734004
 30
0.0
 40
0.5001794976383466
100
AcDbArc
 50
270.0014931726
 51
279.3469671408
  0
ARC
  5
235
330
191
100
AcDbEntity
  8
$DDT_AUDIT_GENERATED_(E4)
  6
Continuous
 62
     7
100
AcDbCircle
 10
61.85
 20
227.8499939029
 30
0.0
 40
0.5000000000000004
100
AcDbArc
 50
0.0
 51
90.0
  0
ARC
  5
236
330
191
100
AcDbEntity
  8
$DDT_AUDIT_GENERATED_(E4)
  6
Continuous
 62
     7
100
AcDbCircle
 10
61.85
 20
188.8499939029
 30
0.0
 40
0.4999999999998131
100
AcDbArc
 50
270.0
 51
0.0
  0
ARC
  5
237
330
191
100
AcDbEntity
  8
$DDT_AUDIT_GENERATED_(E4)
  6
Continuous
 62
     7
100
AcDbCircle
 10
7.35
 20
189.3499939029
 30
0.0
 40
0.9999999999995013
100
AcDbArc
 50
180.0
 51
270.0
  0
ARC
  5
238
330
191
100
AcDbEntity
  8
$DDT_AUDIT_GENERATED_(E4)
  6
Continuous
 62
     7
100
AcDbCircle
 10
7.35
 20
227.3499939029
 30
0.0
 40
0.9999999999995082
100
AcDbArc
 50
90.0
 51
180.0
  0
LINE
  5
239
330
191
100
AcDbEntity
  8
$DDT_AUDIT_GENERATED_(D5)
  6
Continuous
 62
     7
100
AcDbLine
 10
269.87
 20
188.3099939029
 30
0.0
 11
287.8435131746
 21
188.3099939029
 31
0.0
  0
ARC
  5
23A
330
191
100
AcDbEntity
  8
$DDT_AUDIT_GENERATED_(D5)
  6
Continuous
 62
     7
100
AcDbCircle
 10
269.8661158174
 20
188.8055796975
 30
0.0
 40
0.4934251573958047
100
AcDbArc
 50
179.5847688136
 51
272.3397436117
  0
ARC
  5
23B
330
191
100
AcDbEntity
  8
$DDT_AUDIT_GENERATED_(D5)
  6
Continuous
 62
     7
100
AcDbCircle
 10
287.8775097602
 20
188.7995833339
 30
0.0
 40
0.4870516018782408
100
AcDbArc
 50
265.9686826774
 51
2.3651813908
  0
LINE
  5
23C
330
191
100
AcDbEntity
  8
$DDT_AUDIT_GENERATED_(E4)
  6
Continuous
 62
     7
100
AcDbLine
 10
248.77
 20
188.8499939029
 30
0.0
 11
248.77
 21
227.8499939029
 31
0.0
  0
ARC
  5
23D
330
191
100
AcDbEntity
  8
$DDT_AUDIT_GENERATED_(E4)
  6
Continuous
 62
     7
100
AcDbCircle
 10
252.791596537
 20
168.6267673289
 30
0.0
 40
19.79747237390168
100
AcDbArc
 50
90.0579727419
 51
94.9636885413
  0
ARC
  5
23E
330
191
100
AcDbEntity
  8
$DDT_AUDIT_GENERATED_(E4)
  6
Continuous
 62
     7
100
AcDbCircle
 10
252.7515337756
 20
168.6267673202
 30
0.0
 40
19.79747238255597
100
AcDbArc
 50
85.0363114597
 51
89.942027257
  0
ARC
  5
23F
330
191
100
AcDbEntity
  8
$DDT_AUDIT_GENERATED_(E4)
  6
Continuous
 62
     7
100
AcDbCircle
 10
297.4335170545
 20
248.8444406775
 30
0.0
 40
20.73823113352871
100
AcDbArc
 50
277.0987486834
 51
278.7942556361
  0
ARC
  5
240
330
191
100
AcDbEntity
  8
$DDT_AUDIT_GENERATED_(E4)
  6
Continuous
 62
     7
100
AcDbCircle
 10
297.4349728322
 20
248.8376191664
 30
0.0
 40
20.73126725268777
100
AcDbArc
 50
277.0887341964
 51
278.0848452079
  0
ARC
  5
241
330
191
100
AcDbEntity
  8
$DDT_AUDIT_GENERATED_(E4)
  6
Continuous
 62
     7
100
AcDbCircle
 10
255.6018626849
 20
248.7090838635
 30
0.0
 40
20.60333234591343
100
AcDbArc
 50
262.8716058488
 51
269.9904460078
  0
ARC
  5
242
330
191
100
AcDbEntity
  8
$DDT_AUDIT_GENERATED_(E4)
  6
Continuous
 62
     7
100
AcDbCircle
 10
255.6068230492
 20
248.8490128668
 30
0.0
 40
20.74279905604733
100
AcDbArc
 50
261.2067899686
 51
262.9059737599
  0
LINE
  5
243
330
191
100
AcDbEntity
  8
$DDT_AUDIT_GENERATED_(E4)
  6
Continuous
 62
     7
100
AcDbLine
 10
291.4415728692
 20
228.105751799
 30
0.0
 11
255.5984271076
 21
228.105751804
 31
0.0
  0
LINE
  5
244
330
191
100
AcDbEntity
  8
$DDT_AUDIT_GENERATED_(E4)
  6
Continuous
 62
     7
100
AcDbLine
 10
297.4415761912
 20
228.1057517982
 30
0.0
 11
291.4415728692
 21
228.105751799
 31
0.0
  0
ARC
  5
245
330
191
100
AcDbEntity
  8
$DDT_AUDIT_GENERATED_(E4)
  6
Continuous
 62
     7
100
AcDbCircle
 10
297.4394962547
 20
248.6888749949
 30
0.0
 40
20.58312330142002
100
AcDbArc
 50
270.0057897716
 51
277.1357470384
  0
LINE
  5
246
330
191
100
AcDbEntity
  8
$DDT_AUDIT_GENERATED_(E4)
  6
Continuous
 62
     7
100
AcDbLine
 10
304.77
 20
189.3499939029
 30
0.0
 11
304.77
 21
227.3499939029
 31
0.0
  0
ARC
  5
247
330
191
100
AcDbEntity
  8
$DDT_AUDIT_GENERATED_(E4)
  6
Continuous
 62
     7
100
AcDbCircle
 10
268.2705500823
 20
188.849146911
 30
0.0
 40
0.4992126264042878
100
AcDbArc
 50
269.9437033665
 51
292.8851430624
  0
ARC
  5
248
330
191
100
AcDbEntity
  8
$DDT_AUDIT_GENERATED_(E4)
  6
Continuous
 62
     7
100
AcDbCircle
 10
278.7700342387
 20
172.3297950607
 30
0.0
 40
19.08145474880081
100
AcDbArc
 50
122.67319535
 51
122.6858121879
  0
ARC
  5
249
330
191
100
AcDbEntity
  8
$DDT_AUDIT_GENERATED_(E4)
  6
Continuous
 62
     7
100
AcDbCircle
 10
278.7700342387
 20
172.3297950607
 30
0.0
 40
19.08145474880081
100
AcDbArc
 50
57.3154251655
 51
57.3312777064
  0
ARC
  5
24A
330
191
100
AcDbEntity
  8
$DDT_AUDIT_GENERATED_(E4)
  6
Continuous
 62
     7
100
AcDbCircle
 10
278.7700323845
 20
172.329341602
 30
0.0
 40
19.08204127605979
100
AcDbArc
 50
57.3105993466
 51
122.6894148168
  0
ARC
  5
24B
330
191
100
AcDbEntity
  8
$DDT_AUDIT_GENERATED_(E4)
  6
Continuous
 62
     7
100
AcDbCircle
 10
289.2695163612
 20
188.8491467722
 30
0.0
 40
0.4992122882523907
100
AcDbArc
 50
247.1148470332
 51
270.0562716839
  0
LINE
  5
24C
330
191
100
AcDbEntity
  8
$DDT_AUDIT_GENERATED_(E4)
  6
Continuous
 62
     7
100
AcDbLine
 10
289.2693222404
 20
188.3499939029
 30
0.0
 11
303.77
 21
188.3499939029
 31
0.0
  0
LINE
  5
24D
330
191
100
AcDbEntity
  8
$DDT_AUDIT_GENERATED_(E4)
  6
Continuous
 62
     7
100
AcDbLine
 10
254.4641658381
 20
188.3499939029
 30
0.0
 11
268.2714515919
 21
188.3499939029
 31
0.0
  0
LINE
  5
24E
330
191
100
AcDbEntity
  8
$DDT_AUDIT_GENERATED_(E4)
  6
Continuous
 62
     7
100
AcDbLine
 10
249.27
 20
188.3499939029
 30
0.0
 11
251.0789643404
 21
188.3499939029
 31
0.0
  0
LINE
  5
24F
330
191
100
AcDbEntity
  8
$DDT_AUDIT_GENERATED_(E4)
  6
Continuous
 62
     7
100
AcDbLine
 10
252.4358755643
 20
228.3499939029
 30
0.0
 11
249.27
 21
228.3499939029
 31
0.0
  0
LINE
  5
250
330
191
100
AcDbEntity
  8
$DDT_AUDIT_GENERATED_(E4)
  6
Continuous
 62
     7
100
AcDbLine
 10
303.77
 20
228.3499939029
 30
0.0
 11
300.6034491207
 21
228.3499939029
 31
0.0
  0
ARC
  5
251
330
191
100
AcDbEntity
  8
$DDT_AUDIT_GENERATED_(E4)
  6
Continuous
 62
     7
100
AcDbCircle
 10
251.0786194321
 20
188.8501734165
 30
0.0
 40
0.5001795137242171
100
AcDbArc
 50
270.0014931693
 51
279.3469669885
  0
ARC
  5
252
330
191
100
AcDbEntity
  8
$DDT_AUDIT_GENERATED_(E4)
  6
Continuous
 62
     7
100
AcDbCircle
 10
254.464510881
 20
188.8501734004
 30
0.0
 40
0.500179497642293
100
AcDbArc
 50
260.6530328592
 51
269.9985068273
  0
ARC
  5
253
330
191
100
AcDbEntity
  8
$DDT_AUDIT_GENERATED_(E4)
  6
Continuous
 62
     7
100
AcDbCircle
 10
249.27
 20
188.8499939029
 30
0.0
 40
0.5000000000000004
100
AcDbArc
 50
180.0
 51
270.0
  0
ARC
  5
254
330
191
100
AcDbEntity
  8
$DDT_AUDIT_GENERATED_(E4)
  6
Continuous
 62
     7
100
AcDbCircle
 10
249.27
 20
227.8499939029
 30
0.0
 40
0.5000000000001323
100
AcDbArc
 50
90.0
 51
180.0
  0
ARC
  5
255
330
191
100
AcDbEntity
  8
$DDT_AUDIT_GENERATED_(E4)
  6
Continuous
 62
     7
100
AcDbCircle
 10
303.77
 20
227.3499939029
 30
0.0
 40
0.9999999999995013
100
AcDbArc
 50
0.0
 51
90.0
  0
ARC
  5
256
330
191
100
AcDbEntity
  8
$DDT_AUDIT_GENERATED_(E4)
  6
Continuous
 62
     7
100
AcDbCircle
 10
303.77
 20
189.3499939029
 30
0.0
 40
0.9999999999995082
100
AcDbArc
 50
270.0
 51
0.0
  0
CIRCLE
  5
257
330
191
100
AcDbEntity
  8
$DDT_AUDIT_GENERATED_(11D)
  6
Continuous
 62
     7
100
AcDbCircle
 10
155.57
 20
178.3499939029
 30
0.0
 40
10.29829151108909
  0
ENDBLK
  5
259
330
191
100
AcDbEntity
  8
0
100
AcDbBlockEnd
  0
ENDSEC
  0
SECTION
  2
ENTITIES
  0
INSERT
  5
5F
330
1F
100
AcDbEntity
  8
Default
100
AcDbBlockReference
  2
SEANNOT_GROUP
 10
0.0
 20
0.0
 30
0.0
  0
INSERT
  5
66
330
1F
100
AcDbEntity
  8
Default
100
AcDbBlockReference
  2
SEANNOT_GROUP1
 10
0.0
 20
0.0
 30
0.0
  0
INSERT
  5
6C
330
1F
100
AcDbEntity
  8
Default
100
AcDbBlockReference
  2
SEANNOT_GROUP2
 10
0.0
 20
0.0
 30
0.0
  0
INSERT
  5
76
330
1F
100
AcDbEntity
  8
Default
100
AcDbBlockReference
  2
SEANNOT_GROUP3
 10
0.0
 20
0.0
 30
0.0
  0
INSERT
  5
80
330
1F
100
AcDbEntity
  8
Default
100
AcDbBlockReference
  2
SEANNOT_GROUP4
 10
0.0
 20
0.0
 30
0.0
  0
INSERT
  5
86
330
1F
100
AcDbEntity
  8
Default
100
AcDbBlockReference
  2
SE
 10
0.0
 20
0.0
 30
0.0
  0
INSERT
  5
12A
330
1F
100
AcDbEntity
  8
Default
100
AcDbBlockReference
  2
SE1
 10
0.0
 20
0.0
 30
0.0
  0
INSERT
  5
192
330
1F
100
AcDbEntity
  8
Default
100
AcDbBlockReference
  2
SE2
 10
0.0
 20
0.0
 30
0.0
  0
TEXT
  5
25B
330
1F
100
AcDbEntity
  8
Default
  6
Continuous
 62
     7
100
AcDbText
 10
5.9362635081
 20
53.4225120485
 30
0.0
 40
10.0
  1
Grohe AG^J
  7
SEACAD_seiso_ttf
 11
5.9362635081
 21
63.4225120485
 31
0.0
100
AcDbText
 73
     3
  0
TEXT
  5
25C
330
1F
100
AcDbEntity
  8
Default
  6
Continuous
 62
     7
100
AcDbText
 10
5.9362635081
 20
37.0588756849
 30
0.0
 40
10.0
  1
 
  7
SEACAD_seiso_ttf
 11
5.9362635081
 21
47.0588756849
 31
0.0
100
AcDbText
 73
     3
  0
TEXT
  5
25D
330
1F
100
AcDbEntity
  8
Default
  6
Continuous
 62
     7
100
AcDbText
 10
5.9362635081
 20
20.6952393213
 30
0.0
 40
10.0
  1
ecn: 
  7
SEACAD_seiso_ttf
 11
5.9362635081
 21
30.6952393213
 31
0.0
100
AcDbText
 73
     3
  0
TEXT
  5
25E
330
1F
100
AcDbEntity
  8
Default
  6
Continuous
 62
     7
100
AcDbText
 10
5.9362635081
 20
4.3316029576
 30
0.0
 40
10.0
  1
unit: mm
  7
SEACAD_seiso_ttf
 11
5.9362635081
 21
14.3316029576
 31
0.0
100
AcDbText
 73
     3
  0
LINE
  5
25F
330
1F
100
AcDbEntity
  8
Default
  6
Continuous
 62
     7
100
AcDbLine
 10
0.0
 20
0.0
 30
0.0
 11
100.0
 21
0.0
 31
0.0
  0
LINE
  5
260
330
1F
100
AcDbEntity
  8
Default
  6
Continuous
 62
     7
100
AcDbLine
 10
0.0
 20
0.0
 30
0.0
 11
0.0
 21
100.0
 31
0.0
  0
TEXT
  5
261
330
1F
100
AcDbEntity
  8
Default
  6
Continuous
 62
     7
100
AcDbText
 10
24.3923665681
 20
-18.2375342018
 30
0.0
 40
10.0
  1
100 mm
  7
SEACAD_seiso_ttf
 11
24.3923665681
 21
-8.2375342018
 31
0.0
100
AcDbText
 73
     3
  0
TEXT
  5
262
330
1F
100
AcDbEntity
  8
Default
  6
Continuous
 62
     7
100
AcDbText
 10
-7.6150308803
 20
24.6231930421
 30
0.0
 40
10.0
  1
100 mm
 50
90.0
  7
SEACAD_seiso_ttf
 11
-17.6150308803
 21
24.6231930421
 31
0.0
100
AcDbText
 73
     3
  0
TEXT
  5
263
330
1F
100
AcDbEntity
  8
Default
  6
Continuous
 62
     7
100
AcDbText
 10
28.4878128572
 20
20.0907663715
 30
0.0
 40
10.0
  1
218000
  7
SEACAD_seiso_ttf
 11
28.4878128572
 21
30.0907663715
 31
0.0
100
AcDbText
 73
     3
  0
TEXT
  5
264
330
1F
100
AcDbEntity
  8
Default
  6
Continuous
 62
     7
100
AcDbText
 10
5.9012241913
 20
36.7242780188
 30
0.0
 40
10.0
  1
34323000
  7
SEACAD_seiso_ttf
 11
5.9012241913
 21
46.7242780188
 31
0.0
100
AcDbText
 73
     3
  0
ENDSEC
  0
SECTION
  2
OBJECTS
  0
DICTIONARY
  5
C
330
0
100
AcDbDictionary
281
     1
  3
ACAD_GROUP
350
D
  3
ACAD_LAYOUT
350
1A
  3
ACAD_MLEADERSTYLE
350
268
  3
ACAD_MLINESTYLE
350
17
  3
ACAD_PLOTSETTINGS
350
19
  3
ACAD_PLOTSTYLENAME
350
E
  3
ACAD_SCALELIST
350
3B
  3
ACAD_TABLESTYLE
350
267
  3
ACAD_VISUALSTYLE
350
2A
  3
AcDbVariableDictionary
350
265
  0
DICTIONARY
  5
D
102
{ACAD_REACTORS
330
C
102
}
330
C
100
AcDbDictionary
281
     1
  0
DICTIONARY
  5
1A
102
{ACAD_REACTORS
330
C
102
}
330
C
100
AcDbDictionary
281
     1
  3
Layout1
350
1E
  3
Model
350
22
  0
DICTIONARY
  5
268
102
{ACAD_REACTORS
330
C
102
}
330
C
100
AcDbDictionary
281
     1
  0
DICTIONARY
  5
17
102
{ACAD_REACTORS
330
C
102
}
330
C
100
AcDbDictionary
281
     1
  3
Standard
350
18
  0
DICTIONARY
  5
19
102
{ACAD_REACTORS
330
C
102
}
330
C
100
AcDbDictionary
281
     1
  0
ACDBDICTIONARYWDFLT
  5
E
102
{ACAD_REACTORS
330
C
102
}
330
C
100
AcDbDictionary
281
     1
  3
Normal
350
F
100
AcDbDictionaryWithDefault
340
F
  0
DICTIONARY
  5
3B
102
{ACAD_REACTORS
330
C
102
}
330
C
100
AcDbDictionary
281
     1
  3
A0
350
3C
  3
A1
350
3D
  3
A2
350
3E
  3
A3
350
3F
  3
A4
350
40
  3
A5
350
41
  3
A6
350
42
  3
A7
350
43
  3
A8
350
44
  3
A9
350
45
  3
B0
350
46
  3
B1
350
47
  3
B2
350
48
  3
B3
350
49
  3
B4
350
4A
  3
B5
350
4B
  3
B6
350
4C
  3
B7
350
4D
  3
B8
350
4E
  3
B9
350
4F
  3
C0
350
50
  3
C1
350
51
  3
C2
350
52
  3
C3
350
53
  3
C4
350
54
  3
C5
350
55
  3
C6
350
56
  3
C7
350
57
  3
C8
350
58
  3
C9
350
59
  3
D0
350
5A
  3
D1
350
5B
  3
D2
350
5C
  0
DICTIONARY
  5
267
102
{ACAD_REACTORS
330
C
102
}
330
C
100
AcDbDictionary
281
     1
  0
DICTIONARY
  5
2A
102
{ACAD_REACTORS
330
C
102
}
330
C
100
AcDbDictionary
281
     1
  3
2dWireframe
350
2F
  3
3D Hidden
350
31
  3
3dWireframe
350
30
  3
Basic
350
32
  3
Brighten
350
36
  3
ColorChange
350
3A
  3
Conceptual
350
34
  3
Dim
350
35
  3
Facepattern
350
39
  3
Flat
350
2B
  3
FlatWithEdges
350
2C
  3
Gouraud
350
2D
  3
GouraudWithEdges
350
2E
  3
Linepattern
350
38
  3
Realistic
350
33
  3
Thicken
350
37
  0
DICTIONARY
  5
265
102
{ACAD_REACTORS
330
C
102
}
330
C
100
AcDbDictionary
281
     1
  3
CANNOSCALE
350
266
  3
PSOLHEIGHT
350
26A
  3
PSOLWIDTH
350
269
  0
LAYOUT
  5
1E
102
{ACAD_REACTORS
330
1A
102
}
330
1A
100
AcDbPlotSettings
  1

  2
none_device
  4

  6

 40
0.0
 41
0.0
 42
0.0
 43
0.0
 44
0.0
 45
0.0
 46
0.0
 47
0.0
 48
0.0
 49
0.0
140
0.0
141
0.0
142
1.0
143
1.0
 70
   688
 72
     0
 73
     0
 74
     5
  7

 75
    16
147
1.0
148
0.0
149
0.0
100
AcDbLayout
  1
Layout1
 70
     1
 71
     1
 10
0.0
 20
0.0
 11
1682.0
 21
2378.0
 12
0.0
 22
0.0
 32
0.0
 14
0.0
 24
0.0
 34
0.0
 15
1682.0
 25
2378.0
 35
0.0
146
0.0
 13
0.0
 23
0.0
 33
0.0
 16
1.0
 26
0.0
 36
0.0
 17
0.0
 27
1.0
 37
0.0
 76
     0
330
1B
  0
LAYOUT
  5
22
102
{ACAD_REACTORS
330
1A
102
}
330
1A
100
AcDbPlotSettings
  1

  2
none_device
  4

  6

 40
0.0
 41
0.0
 42
0.0
 43
0.0
 44
0.0
 45
0.0
 46
0.0
 47
0.0
 48
0.0
 49
0.0
140
0.0
141
0.0
142
1.0
143
1.0
 70
  1712
 72
     0
 73
     0
 74
     0
  7

 75
     0
147
1.0
148
0.0
149
0.0
100
AcDbLayout
  1
Model
 70
     1
 71
     0
 10
0.0
 20
0.0
 11
1682.0
 21
2378.0
 12
0.0
 22
0.0
 32
0.0
 14
0.0
 24
0.0
 34
0.0
 15
1682.0
 25
2378.0
 35
0.0
146
0.0
 13
0.0
 23
0.0
 33
0.0
 16
1.0
 26
0.0
 36
0.0
 17
0.0
 27
1.0
 37
0.0
 76
     0
330
1F
331
29
  0
MLINESTYLE
  5
18
102
{ACAD_REACTORS
330
17
102
}
330
17
100
AcDbMlineStyle
  2
Standard
 70
     0
  3

 62
   256
 51
90.0
 52
90.0
 71
     2
 49
0.5
 62
   256
  6
BYLAYER
 49
-0.5
 62
   256
  6
BYLAYER
  0
ACDBPLACEHOLDER
  5
F
102
{ACAD_REACTORS
330
E
102
}
330
E
  0
SCALE
  5
3C
102
{ACAD_REACTORS
330
3B
102
}
330
3B
100
AcDbScale
 70
     0
300
1:1
140
1.0
141
1.0
290
     1
  0
SCALE
  5
3D
102
{ACAD_REACTORS
330
3B
102
}
330
3B
100
AcDbScale
 70
     0
300
1:2
140
1.0
141
2.0
290
     0
  0
SCALE
  5
3E
102
{ACAD_REACTORS
330
3B
102
}
330
3B
100
AcDbScale
 70
     0
300
1:4
140
1.0
141
4.0
290
     0
  0
SCALE
  5
3F
102
{ACAD_REACTORS
330
3B
102
}
330
3B
100
AcDbScale
 70
     0
300
1:5
140
1.0
141
5.0
290
     0
  0
SCALE
  5
40
102
{ACAD_REACTORS
330
3B
102
}
330
3B
100
AcDbScale
 70
     0
300
1:8
140
1.0
141
8.0
290
     0
  0
SCALE
  5
41
102
{ACAD_REACTORS
330
3B
102
}
330
3B
100
AcDbScale
 70
     0
300
1:10
140
1.0
141
10.0
290
     0
  0
SCALE
  5
42
102
{ACAD_REACTORS
330
3B
102
}
330
3B
100
AcDbScale
 70
     0
300
1:16
140
1.0
141
16.0
290
     0
  0
SCALE
  5
43
102
{ACAD_REACTORS
330
3B
102
}
330
3B
100
AcDbScale
 70
     0
300
1:20
140
1.0
141
20.0
290
     0
  0
SCALE
  5
44
102
{ACAD_REACTORS
330
3B
102
}
330
3B
100
AcDbScale
 70
     0
300
1:30
140
1.0
141
30.0
290
     0
  0
SCALE
  5
45
102
{ACAD_REACTORS
330
3B
102
}
330
3B
100
AcDbScale
 70
     0
300
1:40
140
1.0
141
40.0
290
     0
  0
SCALE
  5
46
102
{ACAD_REACTORS
330
3B
102
}
330
3B
100
AcDbScale
 70
     0
300
1:50
140
1.0
141
50.0
290
     0
  0
SCALE
  5
47
102
{ACAD_REACTORS
330
3B
102
}
330
3B
100
AcDbScale
 70
     0
300
1:100
140
1.0
141
100.0
290
     0
  0
SCALE
  5
48
102
{ACAD_REACTORS
330
3B
102
}
330
3B
100
AcDbScale
 70
     0
300
2:1
140
2.0
141
1.0
290
     0
  0
SCALE
  5
49
102
{ACAD_REACTORS
330
3B
102
}
330
3B
100
AcDbScale
 70
     0
300
4:1
140
4.0
141
1.0
290
     0
  0
SCALE
  5
4A
102
{ACAD_REACTORS
330
3B
102
}
330
3B
100
AcDbScale
 70
     0
300
8:1
140
8.0
141
1.0
290
     0
  0
SCALE
  5
4B
102
{ACAD_REACTORS
330
3B
102
}
330
3B
100
AcDbScale
 70
     0
300
10:1
140
10.0
141
1.0
290
     0
  0
SCALE
  5
4C
102
{ACAD_REACTORS
330
3B
102
}
330
3B
100
AcDbScale
 70
     0
300
100:1
140
100.0
141
1.0
290
     0
  0
SCALE
  5
4D
102
{ACAD_REACTORS
330
3B
102
}
330
3B
100
AcDbScale
 70
     0
300
1/128" = 1'-0"
140
0.0078125
141
12.0
290
     0
  0
SCALE
  5
4E
102
{ACAD_REACTORS
330
3B
102
}
330
3B
100
AcDbScale
 70
     0
300
1/64" = 1'-0"
140
0.015625
141
12.0
290
     0
  0
SCALE
  5
4F
102
{ACAD_REACTORS
330
3B
102
}
330
3B
100
AcDbScale
 70
     0
300
1/32" = 1'-0"
140
0.03125
141
12.0
290
     0
  0
SCALE
  5
50
102
{ACAD_REACTORS
330
3B
102
}
330
3B
100
AcDbScale
 70
     0
300
1/16" = 1'-0"
140
0.0625
141
12.0
290
     0
  0
SCALE
  5
51
102
{ACAD_REACTORS
330
3B
102
}
330
3B
100
AcDbScale
 70
     0
300
3/32" = 1'-0"
140
0.09375
141
12.0
290
     0
  0
SCALE
  5
52
102
{ACAD_REACTORS
330
3B
102
}
330
3B
100
AcDbScale
 70
     0
300
1/8" = 1'-0"
140
0.125
141
12.0
290
     0
  0
SCALE
  5
53
102
{ACAD_REACTORS
330
3B
102
}
330
3B
100
AcDbScale
 70
     0
300
3/16" = 1'-0"
140
0.1875
141
12.0
290
     0
  0
SCALE
  5
54
102
{ACAD_REACTORS
330
3B
102
}
330
3B
100
AcDbScale
 70
     0
300
1/4" = 1'-0"
140
0.25
141
12.0
290
     0
  0
SCALE
  5
55
102
{ACAD_REACTORS
330
3B
102
}
330
3B
100
AcDbScale
 70
     0
300
3/8" = 1'-0"
140
0.375
141
12.0
290
     0
  0
SCALE
  5
56
102
{ACAD_REACTORS
330
3B
102
}
330
3B
100
AcDbScale
 70
     0
300
1/2" = 1'-0"
140
0.5
141
12.0
290
     0
  0
SCALE
  5
57
102
{ACAD_REACTORS
330
3B
102
}
330
3B
100
AcDbScale
 70
     0
300
3/4" = 1'-0"
140
0.75
141
12.0
290
     0
  0
SCALE
  5
58
102
{ACAD_REACTORS
330
3B
102
}
330
3B
100
AcDbScale
 70
     0
300
1" = 1'-0"
140
1.0
141
12.0
290
     0
  0
SCALE
  5
59
102
{ACAD_REACTORS
330
3B
102
}
330
3B
100
AcDbScale
 70
     0
300
1-1/2" = 1'-0"
140
1.5
141
12.0
290
     0
  0
SCALE
  5
5A
102
{ACAD_REACTORS
330
3B
102
}
330
3B
100
AcDbScale
 70
     0
300
3" = 1'-0"
140
3.0
141
12.0
290
     0
  0
SCALE
  5
5B
102
{ACAD_REACTORS
330
3B
102
}
330
3B
100
AcDbScale
 70
     0
300
6" = 1'-0"
140
6.0
141
12.0
290
     0
  0
SCALE
  5
5C
102
{ACAD_REACTORS
330
3B
102
}
330
3B
100
AcDbScale
 70
     0
300
1'-0" = 1'-0"
140
12.0
141
12.0
290
     0
  0
VISUALSTYLE
  5
2F
102
{ACAD_REACTORS
330
2A
102
}
330
2A
100
AcDbVisualStyle
  2
2dWireframe
 70
     4
 71
     0
 72
     2
 73
     0
 90
        0
 40
-0.6
 41
-30.0
 62
     5
 63
     7
 74
     1
 91
        4
 64
     7
 65
   257
 75
     1
175
     1
 42
1.0
 92
        0
 66
   257
 43
1.0
 76
     1
 77
     6
 78
     2
 67
     7
 79
     5
170
     0
171
     0
290
     0
174
     0
 93
        1
 44
0.0
173
     0
291
     0
 45
0.0
1001
ACAD
1000
AcDbSavedByObjectVersion
1070
     0
  0
VISUALSTYLE
  5
31
102
{ACAD_REACTORS
330
2A
102
}
330
2A
100
AcDbVisualStyle
  2
3D Hidden
 70
     6
 71
     1
 72
     2
 73
     2
 90
        0
 40
-0.6
 41
-30.0
 62
     5
 63
     7
 74
     2
 91
        2
 64
     7
 65
   257
 75
     2
175
     1
 42
40.0
 92
        0
 66
   257
 43
1.0
 76
     1
 77
     6
 78
     2
 67
     7
 79
     3
170
     0
171
     0
290
     0
174
     0
 93
        1
 44
0.0
173
     0
291
     0
 45
0.0
1001
ACAD
1000
AcDbSavedByObjectVersion
1070
     0
  0
VISUALSTYLE
  5
30
102
{ACAD_REACTORS
330
2A
102
}
330
2A
100
AcDbVisualStyle
  2
3dWireframe
 70
     5
 71
     0
 72
     2
 73
     0
 90
        0
 40
-0.6
 41
-30.0
 62
     5
 63
     7
 74
     1
 91
        4
 64
     7
 65
   257
 75
     1
175
     1
 42
1.0
 92
        0
 66
   257
 43
1.0
 76
     1
 77
     6
 78
     2
 67
     7
 79
     5
170
     0
171
     0
290
     0
174
     0
 93
        1
 44
0.0
173
     0
291
     0
 45
0.0
1001
ACAD
1000
AcDbSavedByObjectVersion
1070
     0
  0
VISUALSTYLE
  5
32
102
{ACAD_REACTORS
330
2A
102
}
330
2A
100
AcDbVisualStyle
  2
Basic
 70
     7
 71
     1
 72
     0
 73
     1
 90
        0
 40
-0.6
 41
-30.0
 62
     5
 63
     7
 74
     0
 91
        4
 64
     7
 65
   257
 75
     1
175
     1
 42
1.0
 92
        8
 66
     7
 43
1.0
 76
     1
 77
     6
 78
     2
 67
     7
 79
     5
170
     0
171
     0
290
     0
174
     0
 93
        1
 44
0.0
173
     0
291
     1
 45
0.0
1001
ACAD
1000
AcDbSavedByObjectVersion
1070
     0
  0
VISUALSTYLE
  5
36
102
{ACAD_REACTORS
330
2A
102
}
330
2A
100
AcDbVisualStyle
  2
Brighten
 70
    12
 71
     2
 72
     2
 73
     0
 90
        0
 40
-0.6
 41
-30.0
 62
     5
 63
     7
 74
     1
 91
        4
 64
     7
 65
   257
 75
     1
175
     1
 42
1.0
 92
        8
 66
     7
 43
1.0
 76
     1
 77
     6
 78
     2
 67
     7
 79
     5
170
     0
171
     0
290
     0
174
     0
 93
        1
 44
50.0
173
     0
291
     1
 45
0.0
1001
ACAD
1000
AcDbSavedByObjectVersion
1070
     0
  0
VISUALSTYLE
  5
3A
102
{ACAD_REACTORS
330
2A
102
}
330
2A
100
AcDbVisualStyle
  2
ColorChange
 70
    16
 71
     2
 72
     2
 73
     3
 90
        0
 40
-0.6
 41
-30.0
 62
     5
 63
     8
 74
     1
 91
        4
 64
     7
 65
   257
 75
     1
175
     1
 42
1.0
 92
        8
 66
     8
 43
1.0
 76
     1
 77
     6
 78
     2
 67
     7
 79
     5
170
     0
171
     0
290
     0
174
     0
 93
        1
 44
0.0
173
     0
291
     1
 45
0.0
1001
ACAD
1000
AcDbSavedByObjectVersion
1070
     0
  0
VISUALSTYLE
  5
34
102
{ACAD_REACTORS
330
2A
102
}
330
2A
100
AcDbVisualStyle
  2
Conceptual
 70
     9
 71
     3
 72
     2
 73
     0
 90
        0
 40
-0.6
 41
-30.0
 62
     5
 63
     7
 74
     2
 91
        2
 64
     7
 65
   257
 75
     1
175
     1
 42
40.0
 92
        8
 66
     7
 43
1.0
 76
     1
 77
     6
 78
     2
 67
     7
 79
     3
170
     0
171
     0
290
     0
174
     0
 93
        1
 44
0.0
173
     0
291
     0
 45
0.0
1001
ACAD
1000
AcDbSavedByObjectVersion
1070
     0
  0
VISUALSTYLE
  5
35
102
{ACAD_REACTORS
330
2A
102
}
330
2A
100
AcDbVisualStyle
  2
Dim
 70
    11
 71
     2
 72
     2
 73
     0
 90
        0
 40
-0.6
 41
-30.0
 62
     5
 63
     7
 74
     1
 91
        4
 64
     7
 65
   257
 75
     1
175
     1
 42
1.0
 92
        8
 66
     7
 43
1.0
 76
     1
 77
     6
 78
     2
 67
     7
 79
     5
170
     0
171
     0
290
     0
174
     0
 93
        1
 44
-50.0
173
     0
291
     1
 45
0.0
1001
ACAD
1000
AcDbSavedByObjectVersion
1070
     0
  0
VISUALSTYLE
  5
39
102
{ACAD_REACTORS
330
2A
102
}
330
2A
100
AcDbVisualStyle
  2
Facepattern
 70
    15
 71
     2
 72
     2
 73
     0
 90
        0
 40
-0.6
 41
-30.0
 62
     5
 63
     7
 74
     1
 91
        4
 64
     7
 65
   257
 75
     1
175
     1
 42
1.0
 92
        8
 66
     7
 43
1.0
 76
     1
 77
     6
 78
     2
 67
     7
 79
     5
170
     0
171
     0
290
     0
174
     0
 93
        1
 44
0.0
173
     0
291
     1
 45
0.0
1001
ACAD
1000
AcDbSavedByObjectVersion
1070
     0
  0
VISUALSTYLE
  5
2B
102
{ACAD_REACTORS
330
2A
102
}
330
2A
100
AcDbVisualStyle
  2
Flat
 70
     0
 71
     2
 72
     1
 73
     1
 90
        2
 40
-0.6
 41
30.0
 62
     5
 63
     7
 74
     0
 91
        4
 64
     7
 65
   257
 75
     1
175
     1
 42
1.0
 92
        8
 66
     7
 43
1.0
 76
     1
 77
     6
 78
     2
 67
     7
 79
     5
170
     0
171
     0
290
     0
174
     0
 93
       13
 44
0.0
173
     0
291
     1
 45
0.0
1001
ACAD
1000
AcDbSavedByObjectVersion
1070
     0
  0
VISUALSTYLE
  5
2C
102
{ACAD_REACTORS
330
2A
102
}
330
2A
100
AcDbVisualStyle
  2
FlatWithEdges
 70
     1
 71
     2
 72
     1
 73
     1
 90
        2
 40
-0.6
 41
30.0
 62
     5
 63
     7
 74
     1
 91
        4
 64
     7
 65
   257
 75
     1
175
     1
 42
1.0
 92
        0
 66
   257
 43
1.0
 76
     1
 77
     6
 78
     2
 67
     7
 79
     5
170
     0
171
     0
290
     0
174
     0
 93
       13
 44
0.0
173
     0
291
     1
 45
0.0
1001
ACAD
1000
AcDbSavedByObjectVersion
1070
     0
  0
VISUALSTYLE
  5
2D
102
{ACAD_REACTORS
330
2A
102
}
330
2A
100
AcDbVisualStyle
  2
Gouraud
 70
     2
 71
     2
 72
     2
 73
     1
 90
        2
 40
-0.6
 41
30.0
 62
     5
 63
     7
 74
     0
 91
        4
 64
     7
 65
   257
 75
     1
175
     1
 42
1.0
 92
        0
 66
     7
 43
1.0
 76
     1
 77
     6
 78
     2
 67
     7
 79
     5
170
     0
171
     0
290
     0
174
     0
 93
       13
 44
0.0
173
     0
291
     1
 45
0.0
1001
ACAD
1000
AcDbSavedByObjectVersion
1070
     0
  0
VISUALSTYLE
  5
2E
102
{ACAD_REACTORS
330
2A
102
}
330
2A
100
AcDbVisualStyle
  2
GouraudWithEdges
 70
     3
 71
     2
 72
     2
 73
     1
 90
        2
 40
-0.6
 41
30.0
 62
     5
 63
     7
 74
     1
 91
        4
 64
     7
 65
   257
 75
     1
175
     1
 42
1.0
 92
        0
 66
   257
 43
1.0
 76
     1
 77
     6
 78
     2
 67
     7
 79
     5
170
     0
171
     0
290
     0
174
     0
 93
       13
 44
0.0
173
     0
291
     1
 45
0.0
1001
ACAD
1000
AcDbSavedByObjectVersion
1070
     0
  0
VISUALSTYLE
  5
38
102
{ACAD_REACTORS
330
2A
102
}
330
2A
100
AcDbVisualStyle
  2
Linepattern
 70
    14
 71
     2
 72
     2
 73
     0
 90
        0
 40
-0.6
 41
-30.0
 62
     5
 63
     7
 74
     1
 91
        4
 64
     7
 65
   257
 75
     7
175
     7
 42
1.0
 92
        8
 66
     7
 43
1.0
 76
     1
 77
     6
 78
     2
 67
     7
 79
     5
170
     0
171
     0
290
     0
174
     0
 93
        1
 44
0.0
173
     0
291
     1
 45
0.0
1001
ACAD
1000
AcDbSavedByObjectVersion
1070
     0
  0
VISUALSTYLE
  5
33
102
{ACAD_REACTORS
330
2A
102
}
330
2A
100
AcDbVisualStyle
  2
Realistic
 70
     8
 71
     2
 72
     2
 73
     0
 90
        0
 40
-0.6
 41
-30.0
 62
     5
 63
     7
 74
     1
 91
        0
 64
     7
 65
   257
 75
     1
175
     1
 42
1.0
 92
        8
 66
     8
 43
1.0
 76
     1
 77
     6
 78
     2
 67
     7
 79
     5
170
     0
171
     0
290
     0
174
     0
 93
       13
 44
0.0
173
     0
291
     0
 45
0.0
1001
ACAD
1000
AcDbSavedByObjectVersion
1070
     0
  0
VISUALSTYLE
  5
37
102
{ACAD_REACTORS
330
2A
102
}
330
2A
100
AcDbVisualStyle
  2
Thicken
 70
    13
 71
     2
 72
     2
 73
     0
 90
        0
 40
-0.6
 41
-30.0
 62
     5
 63
     7
 74
     1
 91
        4
 64
     7
 65
   257
 75
     1
175
     1
 42
1.0
 92
       12
 66
     7
 43
1.0
 76
     1
 77
     6
 78
     2
 67
     7
 79
     5
170
     0
171
     0
290
     0
174
     0
 93
        1
 44
0.0
173
     0
291
     1
 45
0.0
1001
ACAD
1000
AcDbSavedByObjectVersion
1070
     0
  0
DICTIONARYVAR
  5
266
102
{ACAD_REACTORS
330
265
102
}
330
265
100
DictionaryVariables
280
     0
  1
1:1
  0
DICTIONARYVAR
  5
26A
102
{ACAD_REACTORS
330
265
102
}
330
265
100
DictionaryVariables
280
     0
  1
80.000000
  0
DICTIONARYVAR
  5
269
102
{ACAD_REACTORS
330
265
102
}
330
265
100
DictionaryVariables
280
     0
  1
5.000000
  0
ENDSEC
  0
EOF
