  0
SECTION
  2
HEADER
  9
$ACADVER
  1
AC1009
  9
$DWGCODEPAGE
  3
ansi_1252
  9
$INSBASE
 10
0.0
 20
0.0
 30
0.0
  9
$EXTMIN
 10
1.000000000000000E+20
 20
1.000000000000000E+20
 30
1.000000000000000E+20
  9
$EXTMAX
 10
-1.000000000000000E+20
 20
-1.000000000000000E+20
 30
-1.000000000000000E+20
  9
$LIMMIN
 10
0.0
 20
0.0
  9
$LIMMAX
 10
12.0
 20
9.0
  9
$ORTHOMODE
 70
     0
  9
$REGENMODE
 70
     1
  9
$FILLMODE
 70
     1
  9
$QTEXTMODE
 70
     0
  9
$MIRRTEXT
 70
     1
  9
$DRAGMODE
 70
     2
  9
$LTSCALE
 40
1.0
  9
$OSMODE
 70
    37
  9
$ATTMODE
 70
     1
  9
$TEXTSIZE
 40
0.2
  9
$TRACEWID
 40
0.05
  9
$TEXTSTYLE
  7
STANDARD
  9
$CLAYER
  8
0
  9
$CELTYPE
  6
BYLAYER
  9
$CECOLOR
 62
   256
  9
$DIMSCALE
 40
1.0
  9
$DIMASZ
 40
0.18
  9
$DIMEXO
 40
0.0625
  9
$DIMDLI
 40
0.38
  9
$DIMRND
 40
0.0
  9
$DIMDLE
 40
0.0
  9
$DIMEXE
 40
0.18
  9
$DIMTP
 40
0.0
  9
$DIMTM
 40
0.0
  9
$DIMTXT
 40
0.18
  9
$DIMCEN
 40
0.09
  9
$DIMTSZ
 40
0.0
  9
$DIMTOL
 70
     0
  9
$DIMLIM
 70
     0
  9
$DIMTIH
 70
     1
  9
$DIMTOH
 70
     1
  9
$DIMSE1
 70
     0
  9
$DIMSE2
 70
     0
  9
$DIMTAD
 70
     0
  9
$DIMZIN
 70
     0
  9
$DIMBLK
  1

  9
$DIMASO
 70
     1
  9
$DIMSHO
 70
     1
  9
$DIMPOST
  1

  9
$DIMAPOST
  1

  9
$DIMALT
 70
     0
  9
$DIMALTD
 70
     2
  9
$DIMALTF
 40
25.4
  9
$DIMLFAC
 40
1.0
  9
$DIMTOFL
 70
     0
  9
$DIMTVP
 40
0.0
  9
$DIMTIX
 70
     0
  9
$DIMSOXD
 70
     0
  9
$DIMSAH
 70
     0
  9
$DIMBLK1
  1

  9
$DIMBLK2
  1

  9
$DIMSTYLE
  2
STANDARD
  9
$DIMCLRD
 70
     0
  9
$DIMCLRE
 70
     0
  9
$DIMCLRT
 70
     0
  9
$DIMTFAC
 40
1.0
  9
$DIMGAP
 40
0.09
  9
$LUNITS
 70
     2
  9
$LUPREC
 70
     4
  9
$SKETCHINC
 40
0.1
  9
$FILLETRAD
 40
0.5
  9
$AUNITS
 70
     0
  9
$AUPREC
 70
     0
  9
$MENU
  1
.
  9
$ELEVATION
 40
0.0
  9
$PELEVATION
 40
0.0
  9
$THICKNESS
 40
0.0
  9
$LIMCHECK
 70
     0
  9
$CHAMFERA
 40
0.5
  9
$CHAMFERB
 40
0.5
  9
$SKPOLY
 70
     0
  9
$TDCREATE
 40
2455467.486501192
  9
$TDUPDATE
 40
2455467.486501192
  9
$TDINDWG
 40
0.0000000116
  9
$TDUSRTIMER
 40
0.0000000116
  9
$USRTIMER
 70
     1
  9
$ANGBASE
 50
0.0
  9
$ANGDIR
 70
     0
  9
$PDMODE
 70
     0
  9
$PDSIZE
 40
0.0
  9
$PLINEWID
 40
0.0
  9
$COORDS
 70
     1
  9
$SPLFRAME
 70
     0
  9
$SPLINETYPE
 70
     6
  9
$SPLINESEGS
 70
     8
  9
$ATTDIA
 70
     0
  9
$ATTREQ
 70
     1
  9
$HANDLING
 70
     1
  9
$HANDSEED
  5
3B1
  9
$SURFTAB1
 70
     6
  9
$SURFTAB2
 70
     6
  9
$SURFTYPE
 70
     6
  9
$SURFU
 70
     6
  9
$SURFV
 70
     6
  9
$UCSNAME
  2

  9
$UCSORG
 10
0.0
 20
0.0
 30
0.0
  9
$UCSXDIR
 10
1.0
 20
0.0
 30
0.0
  9
$UCSYDIR
 10
0.0
 20
1.0
 30
0.0
  9
$PUCSNAME
  2

  9
$PUCSORG
 10
0.0
 20
0.0
 30
0.0
  9
$PUCSXDIR
 10
1.0
 20
0.0
 30
0.0
  9
$PUCSYDIR
 10
0.0
 20
1.0
 30
0.0
  9
$USERI1
 70
     0
  9
$USERI2
 70
     0
  9
$USERI3
 70
     0
  9
$USERI4
 70
     0
  9
$USERI5
 70
     0
  9
$USERR1
 40
0.0
  9
$USERR2
 40
0.0
  9
$USERR3
 40
0.0
  9
$USERR4
 40
0.0
  9
$USERR5
 40
0.0
  9
$WORLDVIEW
 70
     1
  9
$SHADEDGE
 70
     3
  9
$SHADEDIF
 70
    70
  9
$TILEMODE
 70
     1
  9
$MAXACTVP
 70
    64
  9
$PLIMCHECK
 70
     0
  9
$PEXTMIN
 10
1.000000000000000E+20
 20
1.000000000000000E+20
 30
1.000000000000000E+20
  9
$PEXTMAX
 10
-1.000000000000000E+20
 20
-1.000000000000000E+20
 30
-1.000000000000000E+20
  9
$PLIMMIN
 10
0.0
 20
0.0
  9
$PLIMMAX
 10
12.0
 20
9.0
  9
$UNITMODE
 70
     0
  9
$VISRETAIN
 70
     1
  9
$PLINEGEN
 70
     0
  9
$PSLTSCALE
 70
     1
  0
ENDSEC
  0
SECTION
  2
TABLES
  0
TABLE
  2
VPORT
 70
     1
  0
VPORT
  2
*ACTIVE
 70
     0
 10
0.0
 20
0.0
 11
1.0
 21
1.0
 12
0.0
 22
0.0
 13
0.0
 23
0.0
 14
0.5
 24
0.5
 15
0.5
 25
0.5
 16
359.1065063476562
 26
205.1860504150391
 36
359.1065063476562
 17
4.329498291015625
 27
0.0
 37
-27.219482421875
 40
310.8523183519431
 41
1.972972972850329
 42
50.0
 43
0.0
 44
0.0
 50
0.0
 51
0.0
 71
     0
 72
   100
 73
     1
 74
     3
 75
     0
 76
     0
 77
     0
 78
     0
  0
ENDTAB
  0
TABLE
  2
LTYPE
 70
     1
  0
LTYPE
  2
CONTINUOUS
 70
     0
  3
Solid line
 72
    65
 73
     0
 40
0.0
  0
ENDTAB
  0
TABLE
  2
LAYER
 70
     2
  0
LAYER
  2
0
 70
     0
 62
     7
  6
CONTINUOUS
  0
LAYER
  2
LAYER_1
 70
     0
 62
     7
  6
CONTINUOUS
  0
ENDTAB
  0
TABLE
  2
STYLE
 70
     1
  0
STYLE
  2
STANDARD
 70
     0
 40
0.0
 41
1.0
 50
0.0
 71
     0
 42
0.2
  3
txt
  4

  0
ENDTAB
  0
TABLE
  2
VIEW
 70
     0
  0
ENDTAB
  0
TABLE
  2
UCS
 70
     0
  0
ENDTAB
  0
TABLE
  2
APPID
 70
     1
  0
APPID
  2
ACAD
 70
     0
  0
ENDTAB
  0
TABLE
  2
DIMSTYLE
 70
     1
  0
DIMSTYLE
  2
STANDARD
 70
     0
  3

  4

  5

  6

  7

 40
1.0
 41
0.18
 42
0.0625
 43
0.38
 44
0.18
 45
0.0
 46
0.0
 47
0.0
 48
0.0
140
0.18
141
0.09
142
0.0
143
25.4
144
1.0
145
0.0
146
1.0
147
0.09
 71
     0
 72
     0
 73
     1
 74
     1
 75
     0
 76
     0
 77
     0
 78
     0
170
     0
171
     2
172
     0
173
     0
174
     0
175
     0
176
     0
177
     0
178
     0
  0
ENDTAB
  0
ENDSEC
  0
SECTION
  2
BLOCKS
  0
BLOCK
  8
0
  2
$MODEL_SPACE
 70
     0
 10
0.0
 20
0.0
 30
0.0
  3
$MODEL_SPACE
  1

  0
ENDBLK
  5
21
  8
0
  0
BLOCK
 67
     1
  8
0
  2
$PAPER_SPACE
 70
     0
 10
0.0
 20
0.0
 30
0.0
  3
$PAPER_SPACE
  1

  0
ENDBLK
  5
1D
 67
     1
  8
0
  0
BLOCK
  8
0
  2
E3_NODE
 70
     0
 10
0.0
 20
0.0
 30
0.0
  3
E3_NODE
  1

  0
POLYLINE
  5
3C
  8
0
 62
     9
 66
     1
 10
0.0
 20
0.0
 30
0.0
 70
    64
 71
     4
 72
     2
  0
VERTEX
  5
3D
  8
0
 10
-68.0
 20
-108.7539978027344
 30
-33.75400161743164
 70
   192
  0
VERTEX
  5
3E
  8
0
 10
-68.0
 20
-108.7539978027344
 30
33.75400161743164
 70
   192
  0
VERTEX
  5
3F
  8
0
 10
-68.0
 20
108.7539978027344
 30
33.75400161743164
 70
   192
  0
VERTEX
  5
40
  8
0
 10
-68.0
 20
108.7539978027344
 30
-33.75400161743164
 70
   192
  0
VERTEX
  5
41
  8
0
 62
     9
 10
0.0
 20
0.0
 30
0.0
 70
   128
 71
     3
 72
     2
 73
     1
  0
VERTEX
  5
42
  8
0
 62
     9
 10
0.0
 20
0.0
 30
0.0
 70
   128
 71
     1
 72
     4
 73
     3
  0
SEQEND
  5
43
  8
0
 62
     9
  0
ENDBLK
  5
47
  8
0
  0
BLOCK
  8
0
  2
E3_NODE_1_
 70
     0
 10
0.0
 20
0.0
 30
0.0
  3
E3_NODE_1_
  1

  0
POLYLINE
  5
49
  8
0
 62
     9
 66
     1
 10
0.0
 20
0.0
 30
0.0
 70
    64
 71
     4
 72
     2
  0
VERTEX
  5
4A
  8
0
 10
-68.0
 20
-108.7539978027344
 30
33.75400161743164
 70
   192
  0
VERTEX
  5
4B
  8
0
 10
-68.0
 20
-108.7539978027344
 30
-33.75400161743164
 70
   192
  0
VERTEX
  5
4C
  8
0
 10
5.800000190734863
 20
-107.4649963378906
 30
-32.46500015258789
 70
   192
  0
VERTEX
  5
4D
  8
0
 10
5.800000190734863
 20
-107.4649963378906
 30
32.46500015258789
 70
   192
  0
VERTEX
  5
4E
  8
0
 62
     9
 10
0.0
 20
0.0
 30
0.0
 70
   128
 71
     3
 72
     2
 73
     1
  0
VERTEX
  5
4F
  8
0
 62
     9
 10
0.0
 20
0.0
 30
0.0
 70
   128
 71
     1
 72
     4
 73
     3
  0
SEQEND
  5
50
  8
0
 62
     9
  0
ENDBLK
  5
53
  8
0
  0
BLOCK
  8
0
  2
E3_NODE_2_
 70
     0
 10
0.0
 20
0.0
 30
0.0
  3
E3_NODE_2_
  1

  0
POLYLINE
  5
55
  8
0
 62
     9
 66
     1
 10
0.0
 20
0.0
 30
0.0
 70
    64
 71
     4
 72
     2
  0
VERTEX
  5
56
  8
0
 10
5.800000190734863
 20
107.4649963378906
 30
-32.46500015258789
 70
   192
  0
VERTEX
  5
57
  8
0
 10
5.800000190734863
 20
107.4649963378906
 30
32.46500015258789
 70
   192
  0
VERTEX
  5
58
  8
0
 10
5.800000190734863
 20
-107.4649963378906
 30
32.46500015258789
 70
   192
  0
VERTEX
  5
59
  8
0
 10
5.800000190734863
 20
-107.4649963378906
 30
-32.46500015258789
 70
   192
  0
VERTEX
  5
5A
  8
0
 62
     9
 10
0.0
 20
0.0
 30
0.0
 70
   128
 71
     3
 72
     2
 73
     1
  0
VERTEX
  5
5B
  8
0
 62
     9
 10
0.0
 20
0.0
 30
0.0
 70
   128
 71
     1
 72
     4
 73
     3
  0
SEQEND
  5
5C
  8
0
 62
     9
  0
ENDBLK
  5
5F
  8
0
  0
BLOCK
  8
0
  2
E3_NODE_3_
 70
     0
 10
0.0
 20
0.0
 30
0.0
  3
E3_NODE_3_
  1

  0
POLYLINE
  5
61
  8
0
 62
     9
 66
     1
 10
0.0
 20
0.0
 30
0.0
 70
    64
 71
     4
 72
     2
  0
VERTEX
  5
62
  8
0
 10
-68.0
 20
108.7539978027344
 30
-33.75400161743164
 70
   192
  0
VERTEX
  5
63
  8
0
 10
5.800000190734863
 20
107.4649963378906
 30
-32.46500015258789
 70
   192
  0
VERTEX
  5
64
  8
0
 10
5.800000190734863
 20
-107.4649963378906
 30
-32.46500015258789
 70
   192
  0
VERTEX
  5
65
  8
0
 10
-68.0
 20
-108.7539978027344
 30
-33.75400161743164
 70
   192
  0
VERTEX
  5
66
  8
0
 62
     9
 10
0.0
 20
0.0
 30
0.0
 70
   128
 71
     3
 72
     2
 73
     1
  0
VERTEX
  5
67
  8
0
 62
     9
 10
0.0
 20
0.0
 30
0.0
 70
   128
 71
     1
 72
     4
 73
     3
  0
SEQEND
  5
68
  8
0
 62
     9
  0
ENDBLK
  5
6B
  8
0
  0
BLOCK
  8
0
  2
E3_NODE_4_
 70
     0
 10
0.0
 20
0.0
 30
0.0
  3
E3_NODE_4_
  1

  0
POLYLINE
  5
6D
  8
0
 62
     9
 66
     1
 10
0.0
 20
0.0
 30
0.0
 70
    64
 71
     4
 72
     2
  0
VERTEX
  5
6E
  8
0
 10
-68.0
 20
108.7539978027344
 30
-33.75400161743164
 70
   192
  0
VERTEX
  5
6F
  8
0
 10
-68.0
 20
108.7539978027344
 30
33.75400161743164
 70
   192
  0
VERTEX
  5
70
  8
0
 10
5.800000190734863
 20
107.4649963378906
 30
32.46500015258789
 70
   192
  0
VERTEX
  5
71
  8
0
 10
5.800000190734863
 20
107.4649963378906
 30
-32.46500015258789
 70
   192
  0
VERTEX
  5
72
  8
0
 62
     9
 10
0.0
 20
0.0
 30
0.0
 70
   128
 71
     3
 72
     2
 73
     1
  0
VERTEX
  5
73
  8
0
 62
     9
 10
0.0
 20
0.0
 30
0.0
 70
   128
 71
     1
 72
     4
 73
     3
  0
SEQEND
  5
74
  8
0
 62
     9
  0
ENDBLK
  5
77
  8
0
  0
BLOCK
  8
0
  2
E3_NODE_5_
 70
     0
 10
0.0
 20
0.0
 30
0.0
  3
E3_NODE_5_
  1

  0
POLYLINE
  5
79
  8
0
 62
     9
 66
     1
 10
0.0
 20
0.0
 30
0.0
 70
    64
 71
     4
 72
     2
  0
VERTEX
  5
7A
  8
0
 10
-68.0
 20
-108.7539978027344
 30
33.75400161743164
 70
   192
  0
VERTEX
  5
7B
  8
0
 10
5.800000190734863
 20
-107.4649963378906
 30
32.46500015258789
 70
   192
  0
VERTEX
  5
7C
  8
0
 10
5.800000190734863
 20
107.4649963378906
 30
32.46500015258789
 70
   192
  0
VERTEX
  5
7D
  8
0
 10
-68.0
 20
108.7539978027344
 30
33.75400161743164
 70
   192
  0
VERTEX
  5
7E
  8
0
 62
     9
 10
0.0
 20
0.0
 30
0.0
 70
   128
 71
     3
 72
     2
 73
     1
  0
VERTEX
  5
7F
  8
0
 62
     9
 10
0.0
 20
0.0
 30
0.0
 70
   128
 71
     1
 72
     4
 73
     3
  0
SEQEND
  5
80
  8
0
 62
     9
  0
ENDBLK
  5
83
  8
0
  0
BLOCK
  8
0
  2
E3_NODE_6_
 70
     0
 10
0.0
 20
0.0
 30
0.0
  3
E3_NODE_6_
  1

  0
POLYLINE
  5
85
  8
0
 62
     9
 66
     1
 10
0.0
 20
0.0
 30
0.0
 70
    64
 71
    22
 72
    22
  0
VERTEX
  5
86
  8
0
 10
-2.200000047683716
 20
-101.3130035400391
 30
0.0
 70
   192
  0
VERTEX
  5
87
  8
0
 10
39.20000076293945
 20
-100.9509963989258
 30
0.0
 70
   192
  0
VERTEX
  5
88
  8
0
 10
39.20000076293945
 20
-96.83200073242188
 30
14.02999973297119
 70
   192
  0
VERTEX
  5
89
  8
0
 10
-2.200000047683716
 20
-85.93099975585938
 30
23.93499946594238
 70
   192
  0
VERTEX
  5
8A
  8
0
 10
-2.200000047683716
 20
-97.13600158691406
 30
14.22599983215332
 70
   192
  0
VERTEX
  5
8B
  8
0
 10
39.20000076293945
 20
-85.78099822998047
 30
23.60600090026855
 70
   192
  0
VERTEX
  5
8C
  8
0
 10
39.20000076293945
 20
-71.30699920654297
 30
25.6870002746582
 70
   192
  0
VERTEX
  5
8D
  8
0
 10
-2.200000047683716
 20
-57.76900100708008
 30
19.88599967956543
 70
   192
  0
VERTEX
  5
8E
  8
0
 10
-2.200000047683716
 20
-71.25499725341797
 30
26.04500007629395
 70
   192
  0
VERTEX
  5
8F
  8
0
 10
-2.200000047683716
 20
-49.75299835205078
 30
7.413000106811523
 70
   192
  0
VERTEX
  5
90
  8
0
 10
39.20000076293945
 20
-58.00500106811523
 30
19.61300086975098
 70
   192
  0
VERTEX
  5
91
  8
0
 10
-2.200000047683716
 20
-49.75299835205078
 30
-7.413000106811523
 70
   192
  0
VERTEX
  5
92
  8
0
 10
39.20000076293945
 20
-50.09999847412109
 30
7.310999870300293
 70
   192
  0
VERTEX
  5
93
  8
0
 10
-2.200000047683716
 20
-57.76900100708008
 30
-19.88599967956543
 70
   192
  0
VERTEX
  5
94
  8
0
 10
39.20000076293945
 20
-50.09999847412109
 30
-7.310999870300293
 70
   192
  0
VERTEX
  5
95
  8
0
 10
-2.200000047683716
 20
-71.25499725341797
 30
-26.04500007629395
 70
   192
  0
VERTEX
  5
96
  8
0
 10
39.20000076293945
 20
-58.00500106811523
 30
-19.61300086975098
 70
   192
  0
VERTEX
  5
97
  8
0
 10
-2.200000047683716
 20
-85.93099975585938
 30
-23.93499946594238
 70
   192
  0
VERTEX
  5
98
  8
0
 10
39.20000076293945
 20
-71.30699920654297
 30
-25.6870002746582
 70
   192
  0
VERTEX
  5
99
  8
0
 10
39.20000076293945
 20
-85.78099822998047
 30
-23.60600090026855
 70
   192
  0
VERTEX
  5
9A
  8
0
 10
39.20000076293945
 20
-96.83200073242188
 30
-14.02999973297119
 70
   192
  0
VERTEX
  5
9B
  8
0
 10
-2.200000047683716
 20
-97.13600158691406
 30
-14.22599983215332
 70
   192
  0
VERTEX
  5
9C
  8
0
 62
     9
 10
0.0
 20
0.0
 30
0.0
 70
   128
 71
     3
 72
     2
 73
     1
  0
VERTEX
  5
9D
  8
0
 62
     9
 10
0.0
 20
0.0
 30
0.0
 70
   128
 71
     3
 72
     5
 73
     4
  0
VERTEX
  5
9E
  8
0
 62
     9
 10
0.0
 20
0.0
 30
0.0
 70
   128
 71
     7
 72
     6
 73
     4
  0
VERTEX
  5
9F
  8
0
 62
     9
 10
0.0
 20
0.0
 30
0.0
 70
   128
 71
     7
 72
     9
 73
     8
  0
VERTEX
  5
A0
  8
0
 62
     9
 10
0.0
 20
0.0
 30
0.0
 70
   128
 71
    11
 72
     8
 73
    10
  0
VERTEX
  5
A1
  8
0
 62
     9
 10
0.0
 20
0.0
 30
0.0
 70
   128
 71
    13
 72
    10
 73
    12
  0
VERTEX
  5
A2
  8
0
 62
     9
 10
0.0
 20
0.0
 30
0.0
 70
   128
 71
    15
 72
    12
 73
    14
  0
VERTEX
  5
A3
  8
0
 62
     9
 10
0.0
 20
0.0
 30
0.0
 70
   128
 71
    17
 72
    14
 73
    16
  0
VERTEX
  5
A4
  8
0
 62
     9
 10
0.0
 20
0.0
 30
0.0
 70
   128
 71
    19
 72
    16
 73
    18
  0
VERTEX
  5
A5
  8
0
 62
     9
 10
0.0
 20
0.0
 30
0.0
 70
   128
 71
    21
 72
    20
 73
    18
  0
VERTEX
  5
A6
  8
0
 62
     9
 10
0.0
 20
0.0
 30
0.0
 70
   128
 71
    21
 72
    22
 73
     1
  0
VERTEX
  5
A7
  8
0
 62
     9
 10
0.0
 20
0.0
 30
0.0
 70
   128
 71
     1
 72
     2
 73
    21
  0
VERTEX
  5
A8
  8
0
 62
     9
 10
0.0
 20
0.0
 30
0.0
 70
   128
 71
    18
 72
    22
 73
    21
  0
VERTEX
  5
A9
  8
0
 62
     9
 10
0.0
 20
0.0
 30
0.0
 70
   128
 71
    18
 72
    20
 73
    19
  0
VERTEX
  5
AA
  8
0
 62
     9
 10
0.0
 20
0.0
 30
0.0
 70
   128
 71
    16
 72
    19
 73
    17
  0
VERTEX
  5
AB
  8
0
 62
     9
 10
0.0
 20
0.0
 30
0.0
 70
   128
 71
    14
 72
    17
 73
    15
  0
VERTEX
  5
AC
  8
0
 62
     9
 10
0.0
 20
0.0
 30
0.0
 70
   128
 71
    12
 72
    15
 73
    13
  0
VERTEX
  5
AD
  8
0
 62
     9
 10
0.0
 20
0.0
 30
0.0
 70
   128
 71
    10
 72
    13
 73
    11
  0
VERTEX
  5
AE
  8
0
 62
     9
 10
0.0
 20
0.0
 30
0.0
 70
   128
 71
     8
 72
    11
 73
     7
  0
VERTEX
  5
AF
  8
0
 62
     9
 10
0.0
 20
0.0
 30
0.0
 70
   128
 71
     4
 72
     9
 73
     7
  0
VERTEX
  5
B0
  8
0
 62
     9
 10
0.0
 20
0.0
 30
0.0
 70
   128
 71
     4
 72
     6
 73
     3
  0
VERTEX
  5
B1
  8
0
 62
     9
 10
0.0
 20
0.0
 30
0.0
 70
   128
 71
     1
 72
     5
 73
     3
  0
SEQEND
  5
B2
  8
0
 62
     9
  0
ENDBLK
  5
B5
  8
0
  0
BLOCK
  8
0
  2
E3_NODE_7_
 70
     0
 10
0.0
 20
0.0
 30
0.0
  3
E3_NODE_7_
  1

  0
POLYLINE
  5
B7
  8
0
 62
     9
 66
     1
 10
0.0
 20
0.0
 30
0.0
 70
    64
 71
    25
 72
    25
  0
VERTEX
  5
B8
  8
0
 10
39.20000076293945
 20
-96.83200073242188
 30
14.02999973297119
 70
   192
  0
VERTEX
  5
B9
  8
0
 10
39.20000076293945
 20
-96.86599731445312
 30
10.52999973297119
 70
   192
  0
VERTEX
  5
BA
  8
0
 10
39.20000076293945
 20
-90.13200378417969
 30
18.97500038146973
 70
   192
  0
VERTEX
  5
BB
  8
0
 10
39.20000076293945
 20
-100.9509963989258
 30
0.0
 70
   192
  0
VERTEX
  5
BC
  8
0
 10
39.20000076293945
 20
-99.26899719238281
 30
0.0
 70
   192
  0
VERTEX
  5
BD
  8
0
 10
39.20000076293945
 20
-96.83200073242188
 30
-14.02999973297119
 70
   192
  0
VERTEX
  5
BE
  8
0
 10
39.20000076293945
 20
-96.86599731445312
 30
-10.52999973297119
 70
   192
  0
VERTEX
  5
BF
  8
0
 10
39.20000076293945
 20
-58.00500106811523
 30
19.61300086975098
 70
   192
  0
VERTEX
  5
C0
  8
0
 10
39.20000076293945
 20
-71.30699920654297
 30
25.6870002746582
 70
   192
  0
VERTEX
  5
C1
  8
0
 10
39.20000076293945
 20
-69.5999984741211
 30
23.6609992980957
 70
   192
  0
VERTEX
  5
C2
  8
0
 10
39.20000076293945
 20
-85.78099822998047
 30
23.60600090026855
 70
   192
  0
VERTEX
  5
C3
  8
0
 10
39.20000076293945
 20
-80.4000015258789
 30
23.6609992980957
 70
   192
  0
VERTEX
  5
C4
  8
0
 10
39.20000076293945
 20
-85.78099822998047
 30
-23.60600090026855
 70
   192
  0
VERTEX
  5
C5
  8
0
 10
39.20000076293945
 20
-90.13200378417969
 30
-18.97500038146973
 70
   192
  0
VERTEX
  5
C6
  8
0
 10
39.20000076293945
 20
-71.30699920654297
 30
-25.6870002746582
 70
   192
  0
VERTEX
  5
C7
  8
0
 10
39.20000076293945
 20
-69.5999984741211
 30
-23.6609992980957
 70
   192
  0
VERTEX
  5
C8
  8
0
 10
39.20000076293945
 20
-80.4000015258789
 30
-23.6609992980957
 70
   192
  0
VERTEX
  5
C9
  8
0
 10
39.20000076293945
 20
-58.00500106811523
 30
-19.61300086975098
 70
   192
  0
VERTEX
  5
CA
  8
0
 10
39.20000076293945
 20
-50.09999847412109
 30
-7.310999870300293
 70
   192
  0
VERTEX
  5
CB
  8
0
 10
39.20000076293945
 20
-53.13399887084961
 30
-10.52999973297119
 70
   192
  0
VERTEX
  5
CC
  8
0
 10
39.20000076293945
 20
-50.09999847412109
 30
7.310999870300293
 70
   192
  0
VERTEX
  5
CD
  8
0
 10
39.20000076293945
 20
-53.13399887084961
 30
10.52999973297119
 70
   192
  0
VERTEX
  5
CE
  8
0
 10
39.20000076293945
 20
-50.73099899291992
 30
0.0
 70
   192
  0
VERTEX
  5
CF
  8
0
 10
39.20000076293945
 20
-59.86800003051758
 30
18.97500038146973
 70
   192
  0
VERTEX
  5
D0
  8
0
 10
39.20000076293945
 20
-59.86800003051758
 30
-18.97500038146973
 70
   192
  0
VERTEX
  5
D1
  8
0
 62
     9
 10
0.0
 20
0.0
 30
0.0
 70
   128
 71
     3
 72
     2
 73
     1
  0
VERTEX
  5
D2
  8
0
 62
     9
 10
0.0
 20
0.0
 30
0.0
 70
   128
 71
     2
 72
     5
 73
     4
  0
VERTEX
  5
D3
  8
0
 62
     9
 10
0.0
 20
0.0
 30
0.0
 70
   128
 71
     4
 72
     1
 73
     2
  0
VERTEX
  5
D4
  8
0
 62
     9
 10
0.0
 20
0.0
 30
0.0
 70
   128
 71
     7
 72
     6
 73
     4
  0
VERTEX
  5
D5
  8
0
 62
     9
 10
0.0
 20
0.0
 30
0.0
 70
   128
 71
    10
 72
     9
 73
     8
  0
VERTEX
  5
D6
  8
0
 62
     9
 10
0.0
 20
0.0
 30
0.0
 70
   128
 71
    12
 72
    11
 73
     9
  0
VERTEX
  5
D7
  8
0
 62
     9
 10
0.0
 20
0.0
 30
0.0
 70
   128
 71
     4
 72
     5
 73
     7
  0
VERTEX
  5
D8
  8
0
 62
     9
 10
0.0
 20
0.0
 30
0.0
 70
   128
 71
    14
 72
    13
 73
     6
  0
VERTEX
  5
D9
  8
0
 62
     9
 10
0.0
 20
0.0
 30
0.0
 70
   128
 71
    17
 72
    16
 73
    15
  0
VERTEX
  5
DA
  8
0
 62
     9
 10
0.0
 20
0.0
 30
0.0
 70
   128
 71
    20
 72
    19
 73
    18
  0
VERTEX
  5
DB
  8
0
 62
     9
 10
0.0
 20
0.0
 30
0.0
 70
   128
 71
    23
 72
    22
 73
    21
  0
VERTEX
  5
DC
  8
0
 62
     9
 10
0.0
 20
0.0
 30
0.0
 70
   128
 71
    22
 72
    24
 73
     8
  0
VERTEX
  5
DD
  8
0
 62
     9
 10
0.0
 20
0.0
 30
0.0
 70
   128
 71
     9
 72
    10
 73
    12
  0
VERTEX
  5
DE
  8
0
 62
     9
 10
0.0
 20
0.0
 30
0.0
 70
   128
 71
     6
 72
     7
 73
    14
  0
VERTEX
  5
DF
  8
0
 62
     9
 10
0.0
 20
0.0
 30
0.0
 70
   128
 71
    15
 72
    13
 73
    17
  0
VERTEX
  5
E0
  8
0
 62
     9
 10
0.0
 20
0.0
 30
0.0
 70
   128
 71
    16
 72
    25
 73
    18
  0
VERTEX
  5
E1
  8
0
 62
     9
 10
0.0
 20
0.0
 30
0.0
 70
   128
 71
    20
 72
    23
 73
    19
  0
VERTEX
  5
E2
  8
0
 62
     9
 10
0.0
 20
0.0
 30
0.0
 70
   128
 71
     8
 72
    21
 73
    22
  0
VERTEX
  5
E3
  8
0
 62
     9
 10
0.0
 20
0.0
 30
0.0
 70
   128
 71
    12
 72
     3
 73
    11
  0
VERTEX
  5
E4
  8
0
 62
     9
 10
0.0
 20
0.0
 30
0.0
 70
   128
 71
    13
 72
    14
 73
    17
  0
VERTEX
  5
E5
  8
0
 62
     9
 10
0.0
 20
0.0
 30
0.0
 70
   128
 71
    18
 72
    25
 73
    20
  0
VERTEX
  5
E6
  8
0
 62
     9
 10
0.0
 20
0.0
 30
0.0
 70
   128
 71
     8
 72
    24
 73
    10
  0
VERTEX
  5
E7
  8
0
 62
     9
 10
0.0
 20
0.0
 30
0.0
 70
   128
 71
    18
 72
    15
 73
    16
  0
VERTEX
  5
E8
  8
0
 62
     9
 10
0.0
 20
0.0
 30
0.0
 70
   128
 71
     1
 72
    11
 73
     3
  0
VERTEX
  5
E9
  8
0
 62
     9
 10
0.0
 20
0.0
 30
0.0
 70
   128
 71
    21
 72
    19
 73
    23
  0
SEQEND
  5
EA
  8
0
 62
     9
  0
ENDBLK
  5
ED
  8
0
  0
BLOCK
  8
0
  2
E3_NODE_8_
 70
     0
 10
0.0
 20
0.0
 30
0.0
  3
E3_NODE_8_
  1

  0
POLYLINE
  5
EF
  8
0
 62
     9
 66
     1
 10
0.0
 20
0.0
 30
0.0
 70
    64
 71
    43
 72
    70
  0
VERTEX
  5
F0
  8
0
 10
55.78900146484375
 20
-85.71199798583984
 30
0.0
 70
   192
  0
VERTEX
  5
F1
  8
0
 10
55.78900146484375
 20
-84.6510009765625
 30
4.64799976348877
 70
   192
  0
VERTEX
  5
F2
  8
0
 10
49.02000045776367
 20
-92.44100189208984
 30
8.39900016784668
 70
   192
  0
VERTEX
  5
F3
  8
0
 10
55.78900146484375
 20
-81.67900085449219
 30
8.375
 70
   192
  0
VERTEX
  5
F4
  8
0
 10
49.02000045776367
 20
-87.06900024414062
 30
15.13399982452393
 70
   192
  0
VERTEX
  5
F5
  8
0
 10
55.78900146484375
 20
-77.38400268554688
 30
10.44299983978271
 70
   192
  0
VERTEX
  5
F6
  8
0
 10
49.02000045776367
 20
-79.30699920654297
 30
18.87199974060059
 70
   192
  0
VERTEX
  5
F7
  8
0
 10
55.78900146484375
 20
-72.61599731445312
 30
10.44299983978271
 70
   192
  0
VERTEX
  5
F8
  8
0
 10
49.02000045776367
 20
-70.69300079345703
 30
18.87199974060059
 70
   192
  0
VERTEX
  5
F9
  8
0
 10
55.78900146484375
 20
-68.32099914550781
 30
8.375
 70
   192
  0
VERTEX
  5
FA
  8
0
 10
49.02000045776367
 20
-62.93099975585938
 30
15.13399982452393
 70
   192
  0
VERTEX
  5
FB
  8
0
 10
55.78900146484375
 20
-65.3489990234375
 30
4.64799976348877
 70
   192
  0
VERTEX
  5
FC
  8
0
 10
49.02000045776367
 20
-57.55899810791016
 30
8.39900016784668
 70
   192
  0
VERTEX
  5
FD
  8
0
 10
55.78900146484375
 20
-64.28800201416016
 30
0.0
 70
   192
  0
VERTEX
  5
FE
  8
0
 10
49.02000045776367
 20
-55.64199829101562
 30
0.0
 70
   192
  0
VERTEX
  5
FF
  8
0
 10
55.78900146484375
 20
-65.3489990234375
 30
-4.64799976348877
 70
   192
  0
VERTEX
  5
100
  8
0
 10
49.02000045776367
 20
-57.55899810791016
 30
-8.39900016784668
 70
   192
  0
VERTEX
  5
101
  8
0
 10
55.78900146484375
 20
-68.32099914550781
 30
-8.375
 70
   192
  0
VERTEX
  5
102
  8
0
 10
49.02000045776367
 20
-62.93099975585938
 30
-15.13399982452393
 70
   192
  0
VERTEX
  5
103
  8
0
 10
55.78900146484375
 20
-72.61599731445312
 30
-10.44299983978271
 70
   192
  0
VERTEX
  5
104
  8
0
 10
49.02000045776367
 20
-70.69300079345703
 30
-18.87199974060059
 70
   192
  0
VERTEX
  5
105
  8
0
 10
55.78900146484375
 20
-77.38400268554688
 30
-10.44299983978271
 70
   192
  0
VERTEX
  5
106
  8
0
 10
49.02000045776367
 20
-79.30699920654297
 30
-18.87199974060059
 70
   192
  0
VERTEX
  5
107
  8
0
 10
55.78900146484375
 20
-81.67900085449219
 30
-8.375
 70
   192
  0
VERTEX
  5
108
  8
0
 10
49.02000045776367
 20
-87.06900024414062
 30
-15.13399982452393
 70
   192
  0
VERTEX
  5
109
  8
0
 10
55.78900146484375
 20
-84.6510009765625
 30
-4.64799976348877
 70
   192
  0
VERTEX
  5
10A
  8
0
 10
49.02000045776367
 20
-92.44100189208984
 30
-8.39900016784668
 70
   192
  0
VERTEX
  5
10B
  8
0
 10
49.02000045776367
 20
-94.35800170898438
 30
0.0
 70
   192
  0
VERTEX
  5
10C
  8
0
 10
39.20000076293945
 20
-96.86599731445312
 30
10.52999973297119
 70
   192
  0
VERTEX
  5
10D
  8
0
 10
39.20000076293945
 20
-99.26899719238281
 30
0.0
 70
   192
  0
VERTEX
  5
10E
  8
0
 10
39.20000076293945
 20
-90.13200378417969
 30
18.97500038146973
 70
   192
  0
VERTEX
  5
10F
  8
0
 10
39.20000076293945
 20
-80.4000015258789
 30
23.6609992980957
 70
   192
  0
VERTEX
  5
110
  8
0
 10
39.20000076293945
 20
-69.5999984741211
 30
23.6609992980957
 70
   192
  0
VERTEX
  5
111
  8
0
 10
39.20000076293945
 20
-59.86800003051758
 30
18.97500038146973
 70
   192
  0
VERTEX
  5
112
  8
0
 10
39.20000076293945
 20
-50.73099899291992
 30
0.0
 70
   192
  0
VERTEX
  5
113
  8
0
 10
39.20000076293945
 20
-53.13399887084961
 30
10.52999973297119
 70
   192
  0
VERTEX
  5
114
  8
0
 10
39.20000076293945
 20
-53.13399887084961
 30
-10.52999973297119
 70
   192
  0
VERTEX
  5
115
  8
0
 10
39.20000076293945
 20
-59.86800003051758
 30
-18.97500038146973
 70
   192
  0
VERTEX
  5
116
  8
0
 10
39.20000076293945
 20
-69.5999984741211
 30
-23.6609992980957
 70
   192
  0
VERTEX
  5
117
  8
0
 10
39.20000076293945
 20
-80.4000015258789
 30
-23.6609992980957
 70
   192
  0
VERTEX
  5
118
  8
0
 10
39.20000076293945
 20
-96.86599731445312
 30
-10.52999973297119
 70
   192
  0
VERTEX
  5
119
  8
0
 10
39.20000076293945
 20
-90.13200378417969
 30
-18.97500038146973
 70
   192
  0
VERTEX
  5
11A
  8
0
 10
58.20000076293945
 20
-75.0
 30
0.0
 70
   192
  0
VERTEX
  5
11B
  8
0
 62
     9
 10
0.0
 20
0.0
 30
0.0
 70
   128
 71
     3
 72
     2
 73
     1
  0
VERTEX
  5
11C
  8
0
 62
     9
 10
0.0
 20
0.0
 30
0.0
 70
   128
 71
     5
 72
     4
 73
     2
  0
VERTEX
  5
11D
  8
0
 62
     9
 10
0.0
 20
0.0
 30
0.0
 70
   128
 71
     7
 72
     6
 73
     4
  0
VERTEX
  5
11E
  8
0
 62
     9
 10
0.0
 20
0.0
 30
0.0
 70
   128
 71
     9
 72
     8
 73
     6
  0
VERTEX
  5
11F
  8
0
 62
     9
 10
0.0
 20
0.0
 30
0.0
 70
   128
 71
    11
 72
    10
 73
     8
  0
VERTEX
  5
120
  8
0
 62
     9
 10
0.0
 20
0.0
 30
0.0
 70
   128
 71
    13
 72
    12
 73
    10
  0
VERTEX
  5
121
  8
0
 62
     9
 10
0.0
 20
0.0
 30
0.0
 70
   128
 71
    15
 72
    14
 73
    12
  0
VERTEX
  5
122
  8
0
 62
     9
 10
0.0
 20
0.0
 30
0.0
 70
   128
 71
    17
 72
    16
 73
    14
  0
VERTEX
  5
123
  8
0
 62
     9
 10
0.0
 20
0.0
 30
0.0
 70
   128
 71
    19
 72
    18
 73
    16
  0
VERTEX
  5
124
  8
0
 62
     9
 10
0.0
 20
0.0
 30
0.0
 70
   128
 71
    21
 72
    20
 73
    18
  0
VERTEX
  5
125
  8
0
 62
     9
 10
0.0
 20
0.0
 30
0.0
 70
   128
 71
    23
 72
    22
 73
    20
  0
VERTEX
  5
126
  8
0
 62
     9
 10
0.0
 20
0.0
 30
0.0
 70
   128
 71
    25
 72
    24
 73
    22
  0
VERTEX
  5
127
  8
0
 62
     9
 10
0.0
 20
0.0
 30
0.0
 70
   128
 71
    27
 72
    26
 73
    24
  0
VERTEX
  5
128
  8
0
 62
     9
 10
0.0
 20
0.0
 30
0.0
 70
   128
 71
    28
 72
     1
 73
    26
  0
VERTEX
  5
129
  8
0
 62
     9
 10
0.0
 20
0.0
 30
0.0
 70
   128
 71
    28
 72
    30
 73
    29
  0
VERTEX
  5
12A
  8
0
 62
     9
 10
0.0
 20
0.0
 30
0.0
 70
   128
 71
     3
 72
    29
 73
    31
  0
VERTEX
  5
12B
  8
0
 62
     9
 10
0.0
 20
0.0
 30
0.0
 70
   128
 71
     5
 72
    31
 73
    32
  0
VERTEX
  5
12C
  8
0
 62
     9
 10
0.0
 20
0.0
 30
0.0
 70
   128
 71
     7
 72
    32
 73
    33
  0
VERTEX
  5
12D
  8
0
 62
     9
 10
0.0
 20
0.0
 30
0.0
 70
   128
 71
    11
 72
     9
 73
    33
  0
VERTEX
  5
12E
  8
0
 62
     9
 10
0.0
 20
0.0
 30
0.0
 70
   128
 71
    13
 72
    11
 73
    34
  0
VERTEX
  5
12F
  8
0
 62
     9
 10
0.0
 20
0.0
 30
0.0
 70
   128
 71
    13
 72
    36
 73
    35
  0
VERTEX
  5
130
  8
0
 62
     9
 10
0.0
 20
0.0
 30
0.0
 70
   128
 71
    15
 72
    35
 73
    37
  0
VERTEX
  5
131
  8
0
 62
     9
 10
0.0
 20
0.0
 30
0.0
 70
   128
 71
    17
 72
    37
 73
    38
  0
VERTEX
  5
132
  8
0
 62
     9
 10
0.0
 20
0.0
 30
0.0
 70
   128
 71
    21
 72
    19
 73
    38
  0
VERTEX
  5
133
  8
0
 62
     9
 10
0.0
 20
0.0
 30
0.0
 70
   128
 71
    23
 72
    21
 73
    39
  0
VERTEX
  5
134
  8
0
 62
     9
 10
0.0
 20
0.0
 30
0.0
 70
   128
 71
    25
 72
    23
 73
    40
  0
VERTEX
  5
135
  8
0
 62
     9
 10
0.0
 20
0.0
 30
0.0
 70
   128
 71
    25
 72
    42
 73
    41
  0
VERTEX
  5
136
  8
0
 62
     9
 10
0.0
 20
0.0
 30
0.0
 70
   128
 71
    27
 72
    41
 73
    30
  0
VERTEX
  5
137
  8
0
 62
     9
 10
0.0
 20
0.0
 30
0.0
 70
   128
 71
    30
 72
    28
 73
    27
  0
VERTEX
  5
138
  8
0
 62
     9
 10
0.0
 20
0.0
 30
0.0
 70
   128
 71
    41
 72
    27
 73
    25
  0
VERTEX
  5
139
  8
0
 62
     9
 10
0.0
 20
0.0
 30
0.0
 70
   128
 71
    40
 72
    42
 73
    25
  0
VERTEX
  5
13A
  8
0
 62
     9
 10
0.0
 20
0.0
 30
0.0
 70
   128
 71
    39
 72
    40
 73
    23
  0
VERTEX
  5
13B
  8
0
 62
     9
 10
0.0
 20
0.0
 30
0.0
 70
   128
 71
    38
 72
    39
 73
    21
  0
VERTEX
  5
13C
  8
0
 62
     9
 10
0.0
 20
0.0
 30
0.0
 70
   128
 71
    38
 72
    19
 73
    17
  0
VERTEX
  5
13D
  8
0
 62
     9
 10
0.0
 20
0.0
 30
0.0
 70
   128
 71
    37
 72
    17
 73
    15
  0
VERTEX
  5
13E
  8
0
 62
     9
 10
0.0
 20
0.0
 30
0.0
 70
   128
 71
    35
 72
    15
 73
    13
  0
VERTEX
  5
13F
  8
0
 62
     9
 10
0.0
 20
0.0
 30
0.0
 70
   128
 71
    34
 72
    36
 73
    13
  0
VERTEX
  5
140
  8
0
 62
     9
 10
0.0
 20
0.0
 30
0.0
 70
   128
 71
    33
 72
    34
 73
    11
  0
VERTEX
  5
141
  8
0
 62
     9
 10
0.0
 20
0.0
 30
0.0
 70
   128
 71
    33
 72
     9
 73
     7
  0
VERTEX
  5
142
  8
0
 62
     9
 10
0.0
 20
0.0
 30
0.0
 70
   128
 71
    32
 72
     7
 73
     5
  0
VERTEX
  5
143
  8
0
 62
     9
 10
0.0
 20
0.0
 30
0.0
 70
   128
 71
    31
 72
     5
 73
     3
  0
VERTEX
  5
144
  8
0
 62
     9
 10
0.0
 20
0.0
 30
0.0
 70
   128
 71
    29
 72
     3
 73
    28
  0
VERTEX
  5
145
  8
0
 62
     9
 10
0.0
 20
0.0
 30
0.0
 70
   128
 71
    26
 72
    27
 73
    28
  0
VERTEX
  5
146
  8
0
 62
     9
 10
0.0
 20
0.0
 30
0.0
 70
   128
 71
    24
 72
    25
 73
    27
  0
VERTEX
  5
147
  8
0
 62
     9
 10
0.0
 20
0.0
 30
0.0
 70
   128
 71
    22
 72
    23
 73
    25
  0
VERTEX
  5
148
  8
0
 62
     9
 10
0.0
 20
0.0
 30
0.0
 70
   128
 71
    20
 72
    21
 73
    23
  0
VERTEX
  5
149
  8
0
 62
     9
 10
0.0
 20
0.0
 30
0.0
 70
   128
 71
    18
 72
    19
 73
    21
  0
VERTEX
  5
14A
  8
0
 62
     9
 10
0.0
 20
0.0
 30
0.0
 70
   128
 71
    16
 72
    17
 73
    19
  0
VERTEX
  5
14B
  8
0
 62
     9
 10
0.0
 20
0.0
 30
0.0
 70
   128
 71
    14
 72
    15
 73
    17
  0
VERTEX
  5
14C
  8
0
 62
     9
 10
0.0
 20
0.0
 30
0.0
 70
   128
 71
    12
 72
    13
 73
    15
  0
VERTEX
  5
14D
  8
0
 62
     9
 10
0.0
 20
0.0
 30
0.0
 70
   128
 71
    10
 72
    11
 73
    13
  0
VERTEX
  5
14E
  8
0
 62
     9
 10
0.0
 20
0.0
 30
0.0
 70
   128
 71
     8
 72
     9
 73
    11
  0
VERTEX
  5
14F
  8
0
 62
     9
 10
0.0
 20
0.0
 30
0.0
 70
   128
 71
     6
 72
     7
 73
     9
  0
VERTEX
  5
150
  8
0
 62
     9
 10
0.0
 20
0.0
 30
0.0
 70
   128
 71
     4
 72
     5
 73
     7
  0
VERTEX
  5
151
  8
0
 62
     9
 10
0.0
 20
0.0
 30
0.0
 70
   128
 71
     2
 72
     3
 73
     5
  0
VERTEX
  5
152
  8
0
 62
     9
 10
0.0
 20
0.0
 30
0.0
 70
   128
 71
     1
 72
    28
 73
     3
  0
VERTEX
  5
153
  8
0
 62
     9
 10
0.0
 20
0.0
 30
0.0
 70
   128
 71
    43
 72
    26
 73
     1
  0
VERTEX
  5
154
  8
0
 62
     9
 10
0.0
 20
0.0
 30
0.0
 70
   128
 71
    43
 72
    24
 73
    26
  0
VERTEX
  5
155
  8
0
 62
     9
 10
0.0
 20
0.0
 30
0.0
 70
   128
 71
    43
 72
    22
 73
    24
  0
VERTEX
  5
156
  8
0
 62
     9
 10
0.0
 20
0.0
 30
0.0
 70
   128
 71
    43
 72
    20
 73
    22
  0
VERTEX
  5
157
  8
0
 62
     9
 10
0.0
 20
0.0
 30
0.0
 70
   128
 71
    43
 72
    18
 73
    20
  0
VERTEX
  5
158
  8
0
 62
     9
 10
0.0
 20
0.0
 30
0.0
 70
   128
 71
    43
 72
    16
 73
    18
  0
VERTEX
  5
159
  8
0
 62
     9
 10
0.0
 20
0.0
 30
0.0
 70
   128
 71
    43
 72
    14
 73
    16
  0
VERTEX
  5
15A
  8
0
 62
     9
 10
0.0
 20
0.0
 30
0.0
 70
   128
 71
    43
 72
    12
 73
    14
  0
VERTEX
  5
15B
  8
0
 62
     9
 10
0.0
 20
0.0
 30
0.0
 70
   128
 71
    43
 72
    10
 73
    12
  0
VERTEX
  5
15C
  8
0
 62
     9
 10
0.0
 20
0.0
 30
0.0
 70
   128
 71
    43
 72
     8
 73
    10
  0
VERTEX
  5
15D
  8
0
 62
     9
 10
0.0
 20
0.0
 30
0.0
 70
   128
 71
    43
 72
     6
 73
     8
  0
VERTEX
  5
15E
  8
0
 62
     9
 10
0.0
 20
0.0
 30
0.0
 70
   128
 71
    43
 72
     4
 73
     6
  0
VERTEX
  5
15F
  8
0
 62
     9
 10
0.0
 20
0.0
 30
0.0
 70
   128
 71
    43
 72
     2
 73
     4
  0
VERTEX
  5
160
  8
0
 62
     9
 10
0.0
 20
0.0
 30
0.0
 70
   128
 71
    43
 72
     1
 73
     2
  0
SEQEND
  5
161
  8
0
 62
     9
  0
ENDBLK
  5
164
  8
0
  0
BLOCK
  8
0
  2
E3_NODE_9_
 70
     0
 10
0.0
 20
0.0
 30
0.0
  3
E3_NODE_9_
  1

  0
POLYLINE
  5
166
  8
0
 62
     9
 66
     1
 10
0.0
 20
0.0
 30
0.0
 70
    64
 71
    16
 72
    16
  0
VERTEX
  5
167
  8
0
 10
40.79999923706055
 20
64.21700286865234
 30
-10.78299999237061
 70
   192
  0
VERTEX
  5
168
  8
0
 10
5.800000190734863
 20
64.21700286865234
 30
-10.78299999237061
 70
   192
  0
VERTEX
  5
169
  8
0
 10
5.800000190734863
 20
75.0
 30
-15.25
 70
   192
  0
VERTEX
  5
16A
  8
0
 10
5.800000190734863
 20
59.75
 30
0.0
 70
   192
  0
VERTEX
  5
16B
  8
0
 10
5.800000190734863
 20
64.21700286865234
 30
10.78299999237061
 70
   192
  0
VERTEX
  5
16C
  8
0
 10
40.79999923706055
 20
59.75
 30
0.0
 70
   192
  0
VERTEX
  5
16D
  8
0
 10
40.79999923706055
 20
75.0
 30
15.25
 70
   192
  0
VERTEX
  5
16E
  8
0
 10
5.800000190734863
 20
75.0
 30
15.25
 70
   192
  0
VERTEX
  5
16F
  8
0
 10
5.800000190734863
 20
85.78299713134766
 30
10.78299999237061
 70
   192
  0
VERTEX
  5
170
  8
0
 10
40.79999923706055
 20
90.25
 30
0.0
 70
   192
  0
VERTEX
  5
171
  8
0
 10
5.800000190734863
 20
90.25
 30
0.0
 70
   192
  0
VERTEX
  5
172
  8
0
 10
40.79999923706055
 20
85.78299713134766
 30
-10.78299999237061
 70
   192
  0
VERTEX
  5
173
  8
0
 10
5.800000190734863
 20
85.78299713134766
 30
-10.78299999237061
 70
   192
  0
VERTEX
  5
174
  8
0
 10
40.79999923706055
 20
75.0
 30
-15.25
 70
   192
  0
VERTEX
  5
175
  8
0
 10
40.79999923706055
 20
85.78299713134766
 30
10.78299999237061
 70
   192
  0
VERTEX
  5
176
  8
0
 10
40.79999923706055
 20
64.21700286865234
 30
10.78299999237061
 70
   192
  0
VERTEX
  5
177
  8
0
 62
     9
 10
0.0
 20
0.0
 30
0.0
 70
   128
 71
     3
 72
     2
 73
     1
  0
VERTEX
  5
178
  8
0
 62
     9
 10
0.0
 20
0.0
 30
0.0
 70
   128
 71
     1
 72
     2
 73
     4
  0
VERTEX
  5
179
  8
0
 62
     9
 10
0.0
 20
0.0
 30
0.0
 70
   128
 71
     6
 72
     4
 73
     5
  0
VERTEX
  5
17A
  8
0
 62
     9
 10
0.0
 20
0.0
 30
0.0
 70
   128
 71
     5
 72
     8
 73
     7
  0
VERTEX
  5
17B
  8
0
 62
     9
 10
0.0
 20
0.0
 30
0.0
 70
   128
 71
     7
 72
     8
 73
     9
  0
VERTEX
  5
17C
  8
0
 62
     9
 10
0.0
 20
0.0
 30
0.0
 70
   128
 71
     9
 72
    11
 73
    10
  0
VERTEX
  5
17D
  8
0
 62
     9
 10
0.0
 20
0.0
 30
0.0
 70
   128
 71
    11
 72
    13
 73
    12
  0
VERTEX
  5
17E
  8
0
 62
     9
 10
0.0
 20
0.0
 30
0.0
 70
   128
 71
    12
 72
    13
 73
     3
  0
VERTEX
  5
17F
  8
0
 62
     9
 10
0.0
 20
0.0
 30
0.0
 70
   128
 71
     3
 72
    14
 73
    12
  0
VERTEX
  5
180
  8
0
 62
     9
 10
0.0
 20
0.0
 30
0.0
 70
   128
 71
    12
 72
    10
 73
    11
  0
VERTEX
  5
181
  8
0
 62
     9
 10
0.0
 20
0.0
 30
0.0
 70
   128
 71
    10
 72
    15
 73
     9
  0
VERTEX
  5
182
  8
0
 62
     9
 10
0.0
 20
0.0
 30
0.0
 70
   128
 71
     9
 72
    15
 73
     7
  0
VERTEX
  5
183
  8
0
 62
     9
 10
0.0
 20
0.0
 30
0.0
 70
   128
 71
     7
 72
    16
 73
     5
  0
VERTEX
  5
184
  8
0
 62
     9
 10
0.0
 20
0.0
 30
0.0
 70
   128
 71
     5
 72
    16
 73
     6
  0
VERTEX
  5
185
  8
0
 62
     9
 10
0.0
 20
0.0
 30
0.0
 70
   128
 71
     4
 72
     6
 73
     1
  0
VERTEX
  5
186
  8
0
 62
     9
 10
0.0
 20
0.0
 30
0.0
 70
   128
 71
     1
 72
    14
 73
     3
  0
SEQEND
  5
187
  8
0
 62
     9
  0
ENDBLK
  5
18A
  8
0
  0
BLOCK
  8
0
  2
E3_NODE_10_
 70
     0
 10
0.0
 20
0.0
 30
0.0
  3
E3_NODE_10_
  1

  0
POLYLINE
  5
18C
  8
0
 62
     9
 66
     1
 10
0.0
 20
0.0
 30
0.0
 70
    64
 71
     8
 72
     6
  0
VERTEX
  5
18D
  8
0
 10
40.79999923706055
 20
85.78299713134766
 30
10.78299999237061
 70
   192
  0
VERTEX
  5
18E
  8
0
 10
40.79999923706055
 20
75.0
 30
15.25
 70
   192
  0
VERTEX
  5
18F
  8
0
 10
40.79999923706055
 20
64.21700286865234
 30
10.78299999237061
 70
   192
  0
VERTEX
  5
190
  8
0
 10
40.79999923706055
 20
64.21700286865234
 30
-10.78299999237061
 70
   192
  0
VERTEX
  5
191
  8
0
 10
40.79999923706055
 20
75.0
 30
-15.25
 70
   192
  0
VERTEX
  5
192
  8
0
 10
40.79999923706055
 20
59.75
 30
0.0
 70
   192
  0
VERTEX
  5
193
  8
0
 10
40.79999923706055
 20
85.78299713134766
 30
-10.78299999237061
 70
   192
  0
VERTEX
  5
194
  8
0
 10
40.79999923706055
 20
90.25
 30
0.0
 70
   192
  0
VERTEX
  5
195
  8
0
 62
     9
 10
0.0
 20
0.0
 30
0.0
 70
   128
 71
     3
 72
     2
 73
     1
  0
VERTEX
  5
196
  8
0
 62
     9
 10
0.0
 20
0.0
 30
0.0
 70
   128
 71
     5
 72
     4
 73
     1
  0
VERTEX
  5
197
  8
0
 62
     9
 10
0.0
 20
0.0
 30
0.0
 70
   128
 71
     1
 72
     6
 73
     3
  0
VERTEX
  5
198
  8
0
 62
     9
 10
0.0
 20
0.0
 30
0.0
 70
   128
 71
     1
 72
     7
 73
     5
  0
VERTEX
  5
199
  8
0
 62
     9
 10
0.0
 20
0.0
 30
0.0
 70
   128
 71
     1
 72
     8
 73
     7
  0
VERTEX
  5
19A
  8
0
 62
     9
 10
0.0
 20
0.0
 30
0.0
 70
   128
 71
     1
 72
     4
 73
     6
  0
SEQEND
  5
19B
  8
0
 62
     9
  0
ENDBLK
  5
19E
  8
0
  0
BLOCK
  8
0
  2
E3_NODE_11_
 70
     0
 10
0.0
 20
0.0
 30
0.0
  3
E3_NODE_11_
  1

  0
POLYLINE
  5
1A0
  8
0
 62
     9
 66
     1
 10
0.0
 20
0.0
 30
0.0
 70
    64
 71
    21
 72
    20
  0
VERTEX
  5
1A1
  8
0
 10
76.47799682617188
 20
-75.0
 30
1.103000044822693
 70
   192
  0
VERTEX
  5
1A2
  8
0
 10
76.43399810791016
 20
-94.3219985961914
 30
-16.30100059509277
 70
   192
  0
VERTEX
  5
1A3
  8
0
 10
76.51699829101562
 20
-89.947998046875
 30
-19.47800064086914
 70
   192
  0
VERTEX
  5
1A4
  8
0
 10
75.63800048828125
 20
-97.51699829101562
 30
14.08600044250488
 70
   192
  0
VERTEX
  5
1A5
  8
0
 10
75.77300262451172
 20
-99.18699645996094
 30
8.946000099182129
 70
   192
  0
VERTEX
  5
1A6
  8
0
 10
75.31300354003906
 20
-69.59400177001953
 30
26.51300048828125
 70
   192
  0
VERTEX
  5
1A7
  8
0
 10
75.2979965209961
 20
-75.0
 30
27.08099937438965
 70
   192
  0
VERTEX
  5
1A8
  8
0
 10
75.90699768066406
 20
-49.14199829101562
 30
3.806999921798706
 70
   192
  0
VERTEX
  5
1A9
  8
0
 10
75.77300262451172
 20
-50.8129997253418
 30
8.946000099182129
 70
   192
  0
VERTEX
  5
1AA
  8
0
 10
76.5999984741211
 20
-64.42500305175781
 30
-22.65399932861328
 70
   192
  0
VERTEX
  5
1AB
  8
0
 10
76.51699829101562
 20
-60.05199813842773
 30
-19.47800064086914
 70
   192
  0
VERTEX
  5
1AC
  8
0
 10
76.65899658203125
 20
-75.0
 30
-24.90099906921387
 70
   192
  0
VERTEX
  5
1AD
  8
0
 10
76.43399810791016
 20
-55.67800140380859
 30
-16.30100059509277
 70
   192
  0
VERTEX
  5
1AE
  8
0
 10
76.18900299072266
 20
-50.27299880981445
 30
-6.941999912261963
 70
   192
  0
VERTEX
  5
1AF
  8
0
 10
75.63800048828125
 20
-52.48300170898438
 30
14.08600044250488
 70
   192
  0
VERTEX
  5
1B0
  8
0
 10
75.4280014038086
 20
-59.71799850463867
 30
22.11700057983398
 70
   192
  0
VERTEX
  5
1B1
  8
0
 10
75.31300354003906
 20
-80.40599822998047
 30
26.51300048828125
 70
   192
  0
VERTEX
  5
1B2
  8
0
 10
75.4280014038086
 20
-90.28199768066406
 30
22.11700057983398
 70
   192
  0
VERTEX
  5
1B3
  8
0
 10
75.90699768066406
 20
-100.8580017089844
 30
3.806999921798706
 70
   192
  0
VERTEX
  5
1B4
  8
0
 10
76.18900299072266
 20
-99.72699737548828
 30
-6.941999912261963
 70
   192
  0
VERTEX
  5
1B5
  8
0
 10
76.5999984741211
 20
-85.57499694824219
 30
-22.65399932861328
 70
   192
  0
VERTEX
  5
1B6
  8
0
 62
     9
 10
0.0
 20
0.0
 30
0.0
 70
   128
 71
     3
 72
     2
 73
     1
  0
VERTEX
  5
1B7
  8
0
 62
     9
 10
0.0
 20
0.0
 30
0.0
 70
   128
 71
     5
 72
     4
 73
     1
  0
VERTEX
  5
1B8
  8
0
 62
     9
 10
0.0
 20
0.0
 30
0.0
 70
   128
 71
     7
 72
     6
 73
     1
  0
VERTEX
  5
1B9
  8
0
 62
     9
 10
0.0
 20
0.0
 30
0.0
 70
   128
 71
     9
 72
     8
 73
     1
  0
VERTEX
  5
1BA
  8
0
 62
     9
 10
0.0
 20
0.0
 30
0.0
 70
   128
 71
    11
 72
    10
 73
     1
  0
VERTEX
  5
1BB
  8
0
 62
     9
 10
0.0
 20
0.0
 30
0.0
 70
   128
 71
     1
 72
    10
 73
    12
  0
VERTEX
  5
1BC
  8
0
 62
     9
 10
0.0
 20
0.0
 30
0.0
 70
   128
 71
     1
 72
    13
 73
    11
  0
VERTEX
  5
1BD
  8
0
 62
     9
 10
0.0
 20
0.0
 30
0.0
 70
   128
 71
     1
 72
    14
 73
    13
  0
VERTEX
  5
1BE
  8
0
 62
     9
 10
0.0
 20
0.0
 30
0.0
 70
   128
 71
     1
 72
     8
 73
    14
  0
VERTEX
  5
1BF
  8
0
 62
     9
 10
0.0
 20
0.0
 30
0.0
 70
   128
 71
     1
 72
    15
 73
     9
  0
VERTEX
  5
1C0
  8
0
 62
     9
 10
0.0
 20
0.0
 30
0.0
 70
   128
 71
     1
 72
    16
 73
    15
  0
VERTEX
  5
1C1
  8
0
 62
     9
 10
0.0
 20
0.0
 30
0.0
 70
   128
 71
     1
 72
     6
 73
    16
  0
VERTEX
  5
1C2
  8
0
 62
     9
 10
0.0
 20
0.0
 30
0.0
 70
   128
 71
     1
 72
    17
 73
     7
  0
VERTEX
  5
1C3
  8
0
 62
     9
 10
0.0
 20
0.0
 30
0.0
 70
   128
 71
     1
 72
    18
 73
    17
  0
VERTEX
  5
1C4
  8
0
 62
     9
 10
0.0
 20
0.0
 30
0.0
 70
   128
 71
     1
 72
     4
 73
    18
  0
VERTEX
  5
1C5
  8
0
 62
     9
 10
0.0
 20
0.0
 30
0.0
 70
   128
 71
     1
 72
    19
 73
     5
  0
VERTEX
  5
1C6
  8
0
 62
     9
 10
0.0
 20
0.0
 30
0.0
 70
   128
 71
     1
 72
    20
 73
    19
  0
VERTEX
  5
1C7
  8
0
 62
     9
 10
0.0
 20
0.0
 30
0.0
 70
   128
 71
     1
 72
     2
 73
    20
  0
VERTEX
  5
1C8
  8
0
 62
     9
 10
0.0
 20
0.0
 30
0.0
 70
   128
 71
     1
 72
    21
 73
     3
  0
VERTEX
  5
1C9
  8
0
 62
     9
 10
0.0
 20
0.0
 30
0.0
 70
   128
 71
     1
 72
    12
 73
    21
  0
SEQEND
  5
1CA
  8
0
 62
     9
  0
ENDBLK
  5
1CD
  8
0
  0
BLOCK
  8
0
  2
E3_NODE_12_
 70
     0
 10
0.0
 20
0.0
 30
0.0
  3
E3_NODE_12_
  1

  0
POLYLINE
  5
1CF
  8
0
 62
     9
 66
     1
 10
0.0
 20
0.0
 30
0.0
 70
    64
 71
    44
 72
    46
  0
VERTEX
  5
1D0
  8
0
 10
41.70100021362305
 20
-50.27299880981445
 30
-7.84499979019165
 70
   192
  0
VERTEX
  5
1D1
  8
0
 10
76.18900299072266
 20
-50.27299880981445
 30
-6.941999912261963
 70
   192
  0
VERTEX
  5
1D2
  8
0
 10
76.43399810791016
 20
-55.67800140380859
 30
-16.30100059509277
 70
   192
  0
VERTEX
  5
1D3
  8
0
 10
42.04100036621094
 20
-59.71799850463867
 30
-20.84000015258789
 70
   192
  0
VERTEX
  5
1D4
  8
0
 10
41.70100021362305
 20
-99.72699737548828
 30
-7.84499979019165
 70
   192
  0
VERTEX
  5
1D5
  8
0
 10
42.04100036621094
 20
-90.28199768066406
 30
-20.84000015258789
 70
   192
  0
VERTEX
  5
1D6
  8
0
 10
76.43399810791016
 20
-94.3219985961914
 30
-16.30100059509277
 70
   192
  0
VERTEX
  5
1D7
  8
0
 10
76.51699829101562
 20
-89.947998046875
 30
-19.47800064086914
 70
   192
  0
VERTEX
  5
1D8
  8
0
 10
42.17100143432617
 20
-75.0
 30
-25.80400085449219
 70
   192
  0
VERTEX
  5
1D9
  8
0
 10
64.61299896240234
 20
-65.19999694824219
 30
-23.29800033569336
 70
   192
  0
VERTEX
  5
1DA
  8
0
 10
76.51699829101562
 20
-60.05199813842773
 30
-19.47800064086914
 70
   192
  0
VERTEX
  5
1DB
  8
0
 10
72.11000061035156
 20
-65.19999694824219
 30
-23.10199928283691
 70
   192
  0
VERTEX
  5
1DC
  8
0
 10
76.65899658203125
 20
-75.0
 30
-24.90099906921387
 70
   192
  0
VERTEX
  5
1DD
  8
0
 10
72.16100311279297
 20
-75.0
 30
-25.01899909973145
 70
   192
  0
VERTEX
  5
1DE
  8
0
 10
76.5999984741211
 20
-64.42500305175781
 30
-22.65399932861328
 70
   192
  0
VERTEX
  5
1DF
  8
0
 10
76.5999984741211
 20
-85.57499694824219
 30
-22.65399932861328
 70
   192
  0
VERTEX
  5
1E0
  8
0
 10
72.11000061035156
 20
-84.80000305175781
 30
-23.10199928283691
 70
   192
  0
VERTEX
  5
1E1
  8
0
 10
64.61299896240234
 20
-84.80000305175781
 30
-23.29800033569336
 70
   192
  0
VERTEX
  5
1E2
  8
0
 10
64.66300201416016
 20
-75.0
 30
-25.21500015258789
 70
   192
  0
VERTEX
  5
1E3
  8
0
 10
41.4900016784668
 20
-49.0
 30
0.1870000064373016
 70
   192
  0
VERTEX
  5
1E4
  8
0
 10
75.90699768066406
 20
-49.14199829101562
 30
3.806999921798706
 70
   192
  0
VERTEX
  5
1E5
  8
0
 10
46.20600128173828
 20
-50.89799880981445
 30
8.192999839782715
 70
   192
  0
VERTEX
  5
1E6
  8
0
 10
75.77300262451172
 20
-50.8129997253418
 30
8.946000099182129
 70
   192
  0
VERTEX
  5
1E7
  8
0
 10
75.63800048828125
 20
-52.48300170898438
 30
14.08600044250488
 70
   192
  0
VERTEX
  5
1E8
  8
0
 10
48.57400131225586
 20
-51.85100173950195
 30
12.21399974822998
 70
   192
  0
VERTEX
  5
1E9
  8
0
 10
54.07199859619141
 20
-59.73099899291992
 30
21.54700088500977
 70
   192
  0
VERTEX
  5
1EA
  8
0
 10
75.4280014038086
 20
-59.71799850463867
 30
22.11700057983398
 70
   192
  0
VERTEX
  5
1EB
  8
0
 10
75.2979965209961
 20
-75.0
 30
27.08099937438965
 70
   192
  0
VERTEX
  5
1EC
  8
0
 10
75.31300354003906
 20
-69.59400177001953
 30
26.51300048828125
 70
   192
  0
VERTEX
  5
1ED
  8
0
 10
56.86999893188477
 20
-71.04299926757812
 30
26.29599952697754
 70
   192
  0
VERTEX
  5
1EE
  8
0
 10
54.10499954223633
 20
-59.77799987792969
 30
21.60300064086914
 70
   192
  0
VERTEX
  5
1EF
  8
0
 10
56.67399978637695
 20
-74.9469985961914
 30
25.9640007019043
 70
   192
  0
VERTEX
  5
1F0
  8
0
 10
56.26100158691406
 20
-83.1760025024414
 30
25.26300048828125
 70
   192
  0
VERTEX
  5
1F1
  8
0
 10
75.31300354003906
 20
-80.40599822998047
 30
26.51300048828125
 70
   192
  0
VERTEX
  5
1F2
  8
0
 10
75.4280014038086
 20
-90.28199768066406
 30
22.11700057983398
 70
   192
  0
VERTEX
  5
1F3
  8
0
 10
75.63800048828125
 20
-97.51699829101562
 30
14.08600044250488
 70
   192
  0
VERTEX
  5
1F4
  8
0
 10
53.74599838256836
 20
-89.93499755859375
 30
20.99399948120117
 70
   192
  0
VERTEX
  5
1F5
  8
0
 10
52.41400146484375
 20
-93.51599884033203
 30
18.73200035095215
 70
   192
  0
VERTEX
  5
1F6
  8
0
 10
75.77300262451172
 20
-99.18699645996094
 30
8.946000099182129
 70
   192
  0
VERTEX
  5
1F7
  8
0
 10
76.18900299072266
 20
-99.72699737548828
 30
-6.941999912261963
 70
   192
  0
VERTEX
  5
1F8
  8
0
 10
46.17100143432617
 20
-99.7959976196289
 30
8.133999824523926
 70
   192
  0
VERTEX
  5
1F9
  8
0
 10
41.4900016784668
 20
-101.0
 30
0.1870000064373016
 70
   192
  0
VERTEX
  5
1FA
  8
0
 10
75.90699768066406
 20
-100.8580017089844
 30
3.806999921798706
 70
   192
  0
VERTEX
  5
1FB
  8
0
 10
46.28300094604492
 20
-99.68299865722656
 30
8.324000358581543
 70
   192
  0
VERTEX
  5
1FC
  8
0
 62
     9
 10
0.0
 20
0.0
 30
0.0
 70
   128
 71
     3
 72
     2
 73
     1
  0
VERTEX
  5
1FD
  8
0
 62
     9
 10
0.0
 20
0.0
 30
0.0
 70
   128
 71
     1
 72
     4
 73
     3
  0
VERTEX
  5
1FE
  8
0
 62
     9
 10
0.0
 20
0.0
 30
0.0
 70
   128
 71
     7
 72
     6
 73
     5
  0
VERTEX
  5
1FF
  8
0
 62
     9
 10
0.0
 20
0.0
 30
0.0
 70
   128
 71
     7
 72
     8
 73
     6
  0
VERTEX
  5
200
  8
0
 62
     9
 10
0.0
 20
0.0
 30
0.0
 70
   128
 71
    10
 72
     4
 73
     9
  0
VERTEX
  5
201
  8
0
 62
     9
 10
0.0
 20
0.0
 30
0.0
 70
   128
 71
    10
 72
    12
 73
    11
  0
VERTEX
  5
202
  8
0
 62
     9
 10
0.0
 20
0.0
 30
0.0
 70
   128
 71
    11
 72
     4
 73
    10
  0
VERTEX
  5
203
  8
0
 62
     9
 10
0.0
 20
0.0
 30
0.0
 70
   128
 71
    12
 72
    14
 73
    13
  0
VERTEX
  5
204
  8
0
 62
     9
 10
0.0
 20
0.0
 30
0.0
 70
   128
 71
    15
 72
    11
 73
    12
  0
VERTEX
  5
205
  8
0
 62
     9
 10
0.0
 20
0.0
 30
0.0
 70
   128
 71
    13
 72
    15
 73
    12
  0
VERTEX
  5
206
  8
0
 62
     9
 10
0.0
 20
0.0
 30
0.0
 70
   128
 71
    17
 72
    16
 73
    13
  0
VERTEX
  5
207
  8
0
 62
     9
 10
0.0
 20
0.0
 30
0.0
 70
   128
 71
    13
 72
    14
 73
    17
  0
VERTEX
  5
208
  8
0
 62
     9
 10
0.0
 20
0.0
 30
0.0
 70
   128
 71
    18
 72
     6
 73
     8
  0
VERTEX
  5
209
  8
0
 62
     9
 10
0.0
 20
0.0
 30
0.0
 70
   128
 71
    18
 72
    19
 73
     9
  0
VERTEX
  5
20A
  8
0
 62
     9
 10
0.0
 20
0.0
 30
0.0
 70
   128
 71
     9
 72
     6
 73
    18
  0
VERTEX
  5
20B
  8
0
 62
     9
 10
0.0
 20
0.0
 30
0.0
 70
   128
 71
     8
 72
    17
 73
    18
  0
VERTEX
  5
20C
  8
0
 62
     9
 10
0.0
 20
0.0
 30
0.0
 70
   128
 71
    20
 72
     1
 73
     2
  0
VERTEX
  5
20D
  8
0
 62
     9
 10
0.0
 20
0.0
 30
0.0
 70
   128
 71
    22
 72
    20
 73
    21
  0
VERTEX
  5
20E
  8
0
 62
     9
 10
0.0
 20
0.0
 30
0.0
 70
   128
 71
    21
 72
    23
 73
    22
  0
VERTEX
  5
20F
  8
0
 62
     9
 10
0.0
 20
0.0
 30
0.0
 70
   128
 71
    26
 72
    25
 73
    24
  0
VERTEX
  5
210
  8
0
 62
     9
 10
0.0
 20
0.0
 30
0.0
 70
   128
 71
    24
 72
    27
 73
    26
  0
VERTEX
  5
211
  8
0
 62
     9
 10
0.0
 20
0.0
 30
0.0
 70
   128
 71
    25
 72
    22
 73
    23
  0
VERTEX
  5
212
  8
0
 62
     9
 10
0.0
 20
0.0
 30
0.0
 70
   128
 71
    30
 72
    29
 73
    28
  0
VERTEX
  5
213
  8
0
 62
     9
 10
0.0
 20
0.0
 30
0.0
 70
   128
 71
    31
 72
    26
 73
    27
  0
VERTEX
  5
214
  8
0
 62
     9
 10
0.0
 20
0.0
 30
0.0
 70
   128
 71
    27
 72
    29
 73
    31
  0
VERTEX
  5
215
  8
0
 62
     9
 10
0.0
 20
0.0
 30
0.0
 70
   128
 71
    29
 72
    30
 73
    31
  0
VERTEX
  5
216
  8
0
 62
     9
 10
0.0
 20
0.0
 30
0.0
 70
   128
 71
    34
 72
    33
 73
    32
  0
VERTEX
  5
217
  8
0
 62
     9
 10
0.0
 20
0.0
 30
0.0
 70
   128
 71
    34
 72
    35
 73
    33
  0
VERTEX
  5
218
  8
0
 62
     9
 10
0.0
 20
0.0
 30
0.0
 70
   128
 71
    32
 72
    28
 73
    34
  0
VERTEX
  5
219
  8
0
 62
     9
 10
0.0
 20
0.0
 30
0.0
 70
   128
 71
    37
 72
    35
 73
    36
  0
VERTEX
  5
21A
  8
0
 62
     9
 10
0.0
 20
0.0
 30
0.0
 70
   128
 71
    36
 72
    39
 73
    38
  0
VERTEX
  5
21B
  8
0
 62
     9
 10
0.0
 20
0.0
 30
0.0
 70
   128
 71
    36
 72
    38
 73
    37
  0
VERTEX
  5
21C
  8
0
 62
     9
 10
0.0
 20
0.0
 30
0.0
 70
   128
 71
    42
 72
    41
 73
    40
  0
VERTEX
  5
21D
  8
0
 62
     9
 10
0.0
 20
0.0
 30
0.0
 70
   128
 71
    44
 72
    39
 73
    43
  0
VERTEX
  5
21E
  8
0
 62
     9
 10
0.0
 20
0.0
 30
0.0
 70
   128
 71
    43
 72
    40
 73
    41
  0
VERTEX
  5
21F
  8
0
 62
     9
 10
0.0
 20
0.0
 30
0.0
 70
   128
 71
    43
 72
    41
 73
    44
  0
VERTEX
  5
220
  8
0
 62
     9
 10
0.0
 20
0.0
 30
0.0
 70
   128
 71
    40
 72
     5
 73
    42
  0
VERTEX
  5
221
  8
0
 62
     9
 10
0.0
 20
0.0
 30
0.0
 70
   128
 71
    39
 72
    44
 73
    38
  0
VERTEX
  5
222
  8
0
 62
     9
 10
0.0
 20
0.0
 30
0.0
 70
   128
 71
    35
 72
    37
 73
    33
  0
VERTEX
  5
223
  8
0
 62
     9
 10
0.0
 20
0.0
 30
0.0
 70
   128
 71
    28
 72
    32
 73
    30
  0
VERTEX
  5
224
  8
0
 62
     9
 10
0.0
 20
0.0
 30
0.0
 70
   128
 71
    25
 72
    23
 73
    24
  0
VERTEX
  5
225
  8
0
 62
     9
 10
0.0
 20
0.0
 30
0.0
 70
   128
 71
     2
 72
    21
 73
    20
  0
VERTEX
  5
226
  8
0
 62
     9
 10
0.0
 20
0.0
 30
0.0
 70
   128
 71
    17
 72
     8
 73
    16
  0
VERTEX
  5
227
  8
0
 62
     9
 10
0.0
 20
0.0
 30
0.0
 70
   128
 71
     9
 72
    19
 73
    10
  0
VERTEX
  5
228
  8
0
 62
     9
 10
0.0
 20
0.0
 30
0.0
 70
   128
 71
     5
 72
    40
 73
     7
  0
VERTEX
  5
229
  8
0
 62
     9
 10
0.0
 20
0.0
 30
0.0
 70
   128
 71
     4
 72
    11
 73
     3
  0
SEQEND
  5
22A
  8
0
 62
     9
  0
ENDBLK
  5
22D
  8
0
  0
BLOCK
  8
0
  2
E3_NODE_13_
 70
     0
 10
0.0
 20
0.0
 30
0.0
  3
E3_NODE_13_
  1

  0
POLYLINE
  5
22F
  8
0
 62
     9
 66
     1
 10
0.0
 20
0.0
 30
0.0
 70
    64
 71
     7
 72
     5
  0
VERTEX
  5
230
  8
0
 10
41.70100021362305
 20
-50.27299880981445
 30
-7.84499979019165
 70
   192
  0
VERTEX
  5
231
  8
0
 10
42.04100036621094
 20
-59.71799850463867
 30
-20.84000015258789
 70
   192
  0
VERTEX
  5
232
  8
0
 10
42.17100143432617
 20
-75.0
 30
-25.80400085449219
 70
   192
  0
VERTEX
  5
233
  8
0
 10
42.04100036621094
 20
-90.28199768066406
 30
-20.84000015258789
 70
   192
  0
VERTEX
  5
234
  8
0
 10
41.70100021362305
 20
-99.72699737548828
 30
-7.84499979019165
 70
   192
  0
VERTEX
  5
235
  8
0
 10
41.4900016784668
 20
-101.0
 30
0.1870000064373016
 70
   192
  0
VERTEX
  5
236
  8
0
 10
41.4900016784668
 20
-49.0
 30
0.1870000064373016
 70
   192
  0
VERTEX
  5
237
  8
0
 62
     9
 10
0.0
 20
0.0
 30
0.0
 70
   128
 71
     3
 72
     2
 73
     1
  0
VERTEX
  5
238
  8
0
 62
     9
 10
0.0
 20
0.0
 30
0.0
 70
   128
 71
     1
 72
     4
 73
     3
  0
VERTEX
  5
239
  8
0
 62
     9
 10
0.0
 20
0.0
 30
0.0
 70
   128
 71
     1
 72
     5
 73
     4
  0
VERTEX
  5
23A
  8
0
 62
     9
 10
0.0
 20
0.0
 30
0.0
 70
   128
 71
     1
 72
     7
 73
     6
  0
VERTEX
  5
23B
  8
0
 62
     9
 10
0.0
 20
0.0
 30
0.0
 70
   128
 71
     1
 72
     6
 73
     5
  0
SEQEND
  5
23C
  8
0
 62
     9
  0
ENDBLK
  5
23F
  8
0
  0
BLOCK
  8
0
  2
E3_NODE_14_
 70
     0
 10
0.0
 20
0.0
 30
0.0
  3
E3_NODE_14_
  1

  0
POLYLINE
  5
241
  8
0
 62
     9
 66
     1
 10
0.0
 20
0.0
 30
0.0
 70
    64
 71
    13
 72
    11
  0
VERTEX
  5
242
  8
0
 10
53.74599838256836
 20
-89.93499755859375
 30
20.99399948120117
 70
   192
  0
VERTEX
  5
243
  8
0
 10
41.4900016784668
 20
-101.0
 30
0.1870000064373016
 70
   192
  0
VERTEX
  5
244
  8
0
 10
46.28300094604492
 20
-99.68299865722656
 30
8.324000358581543
 70
   192
  0
VERTEX
  5
245
  8
0
 10
56.67399978637695
 20
-74.9469985961914
 30
25.9640007019043
 70
   192
  0
VERTEX
  5
246
  8
0
 10
56.86999893188477
 20
-71.04299926757812
 30
26.29599952697754
 70
   192
  0
VERTEX
  5
247
  8
0
 10
46.17100143432617
 20
-99.7959976196289
 30
8.133999824523926
 70
   192
  0
VERTEX
  5
248
  8
0
 10
54.07199859619141
 20
-59.73099899291992
 30
21.54700088500977
 70
   192
  0
VERTEX
  5
249
  8
0
 10
48.57400131225586
 20
-51.85100173950195
 30
12.21399974822998
 70
   192
  0
VERTEX
  5
24A
  8
0
 10
54.10499954223633
 20
-59.77799987792969
 30
21.60300064086914
 70
   192
  0
VERTEX
  5
24B
  8
0
 10
52.41400146484375
 20
-93.51599884033203
 30
18.73200035095215
 70
   192
  0
VERTEX
  5
24C
  8
0
 10
46.20600128173828
 20
-50.89799880981445
 30
8.192999839782715
 70
   192
  0
VERTEX
  5
24D
  8
0
 10
56.26100158691406
 20
-83.1760025024414
 30
25.26300048828125
 70
   192
  0
VERTEX
  5
24E
  8
0
 10
41.4900016784668
 20
-49.0
 30
0.1870000064373016
 70
   192
  0
VERTEX
  5
24F
  8
0
 62
     9
 10
0.0
 20
0.0
 30
0.0
 70
   128
 71
     3
 72
     2
 73
     1
  0
VERTEX
  5
250
  8
0
 62
     9
 10
0.0
 20
0.0
 30
0.0
 70
   128
 71
     5
 72
     4
 73
     2
  0
VERTEX
  5
251
  8
0
 62
     9
 10
0.0
 20
0.0
 30
0.0
 70
   128
 71
     1
 72
     2
 73
     4
  0
VERTEX
  5
252
  8
0
 62
     9
 10
0.0
 20
0.0
 30
0.0
 70
   128
 71
     3
 72
     6
 73
     2
  0
VERTEX
  5
253
  8
0
 62
     9
 10
0.0
 20
0.0
 30
0.0
 70
   128
 71
     8
 72
     7
 73
     2
  0
VERTEX
  5
254
  8
0
 62
     9
 10
0.0
 20
0.0
 30
0.0
 70
   128
 71
     2
 72
     9
 73
     5
  0
VERTEX
  5
255
  8
0
 62
     9
 10
0.0
 20
0.0
 30
0.0
 70
   128
 71
     1
 72
    10
 73
     3
  0
VERTEX
  5
256
  8
0
 62
     9
 10
0.0
 20
0.0
 30
0.0
 70
   128
 71
     2
 72
    11
 73
     8
  0
VERTEX
  5
257
  8
0
 62
     9
 10
0.0
 20
0.0
 30
0.0
 70
   128
 71
     4
 72
    12
 73
     1
  0
VERTEX
  5
258
  8
0
 62
     9
 10
0.0
 20
0.0
 30
0.0
 70
   128
 71
     2
 72
     7
 73
     9
  0
VERTEX
  5
259
  8
0
 62
     9
 10
0.0
 20
0.0
 30
0.0
 70
   128
 71
     2
 72
    13
 73
    11
  0
SEQEND
  5
25A
  8
0
 62
     9
  0
ENDBLK
  5
25D
  8
0
  0
BLOCK
  8
0
  2
E3_NODE_15_
 70
     0
 10
0.0
 20
0.0
 30
0.0
  3
E3_NODE_15_
  1

  0
POLYLINE
  5
25F
  8
0
 62
     9
 66
     1
 10
0.0
 20
0.0
 30
0.0
 70
    64
 71
     4
 72
     2
  0
VERTEX
  5
260
  8
0
 10
72.11000061035156
 20
-84.80000305175781
 30
-23.10199928283691
 70
   192
  0
VERTEX
  5
261
  8
0
 10
64.61299896240234
 20
-84.80000305175781
 30
-23.29800033569336
 70
   192
  0
VERTEX
  5
262
  8
0
 10
66.31199645996094
 20
-84.80000305175781
 30
-88.19300079345703
 70
   192
  0
VERTEX
  5
263
  8
0
 10
73.80999755859375
 20
-84.80000305175781
 30
-87.99700164794922
 70
   192
  0
VERTEX
  5
264
  8
0
 62
     9
 10
0.0
 20
0.0
 30
0.0
 70
   128
 71
     3
 72
     2
 73
     1
  0
VERTEX
  5
265
  8
0
 62
     9
 10
0.0
 20
0.0
 30
0.0
 70
   128
 71
     1
 72
     4
 73
     3
  0
SEQEND
  5
266
  8
0
 62
     9
  0
ENDBLK
  5
269
  8
0
  0
BLOCK
  8
0
  2
E3_NODE_16_
 70
     0
 10
0.0
 20
0.0
 30
0.0
  3
E3_NODE_16_
  1

  0
POLYLINE
  5
26B
  8
0
 62
     9
 66
     1
 10
0.0
 20
0.0
 30
0.0
 70
    64
 71
     4
 72
     2
  0
VERTEX
  5
26C
  8
0
 10
66.31199645996094
 20
-65.19999694824219
 30
-88.19300079345703
 70
   192
  0
VERTEX
  5
26D
  8
0
 10
73.80999755859375
 20
-65.19999694824219
 30
-87.99700164794922
 70
   192
  0
VERTEX
  5
26E
  8
0
 10
73.80999755859375
 20
-84.80000305175781
 30
-87.99700164794922
 70
   192
  0
VERTEX
  5
26F
  8
0
 10
66.31199645996094
 20
-84.80000305175781
 30
-88.19300079345703
 70
   192
  0
VERTEX
  5
270
  8
0
 62
     9
 10
0.0
 20
0.0
 30
0.0
 70
   128
 71
     3
 72
     2
 73
     1
  0
VERTEX
  5
271
  8
0
 62
     9
 10
0.0
 20
0.0
 30
0.0
 70
   128
 71
     1
 72
     4
 73
     3
  0
SEQEND
  5
272
  8
0
 62
     9
  0
ENDBLK
  5
275
  8
0
  0
BLOCK
  8
0
  2
E3_NODE_17_
 70
     0
 10
0.0
 20
0.0
 30
0.0
  3
E3_NODE_17_
  1

  0
POLYLINE
  5
277
  8
0
 62
     9
 66
     1
 10
0.0
 20
0.0
 30
0.0
 70
    64
 71
     4
 72
     2
  0
VERTEX
  5
278
  8
0
 10
72.11000061035156
 20
-65.19999694824219
 30
-23.10199928283691
 70
   192
  0
VERTEX
  5
279
  8
0
 10
73.80999755859375
 20
-65.19999694824219
 30
-87.99700164794922
 70
   192
  0
VERTEX
  5
27A
  8
0
 10
66.31199645996094
 20
-65.19999694824219
 30
-88.19300079345703
 70
   192
  0
VERTEX
  5
27B
  8
0
 10
64.61299896240234
 20
-65.19999694824219
 30
-23.29800033569336
 70
   192
  0
VERTEX
  5
27C
  8
0
 62
     9
 10
0.0
 20
0.0
 30
0.0
 70
   128
 71
     3
 72
     2
 73
     1
  0
VERTEX
  5
27D
  8
0
 62
     9
 10
0.0
 20
0.0
 30
0.0
 70
   128
 71
     1
 72
     4
 73
     3
  0
SEQEND
  5
27E
  8
0
 62
     9
  0
ENDBLK
  5
281
  8
0
  0
BLOCK
  8
0
  2
E3_NODE_18_
 70
     0
 10
0.0
 20
0.0
 30
0.0
  3
E3_NODE_18_
  1

  0
POLYLINE
  5
283
  8
0
 62
     9
 66
     1
 10
0.0
 20
0.0
 30
0.0
 70
    64
 71
     5
 72
     3
  0
VERTEX
  5
284
  8
0
 10
66.31199645996094
 20
-65.19999694824219
 30
-88.19300079345703
 70
   192
  0
VERTEX
  5
285
  8
0
 10
66.31199645996094
 20
-84.80000305175781
 30
-88.19300079345703
 70
   192
  0
VERTEX
  5
286
  8
0
 10
64.66300201416016
 20
-75.0
 30
-25.21500015258789
 70
   192
  0
VERTEX
  5
287
  8
0
 10
64.61299896240234
 20
-84.80000305175781
 30
-23.29800033569336
 70
   192
  0
VERTEX
  5
288
  8
0
 10
64.61299896240234
 20
-65.19999694824219
 30
-23.29800033569336
 70
   192
  0
VERTEX
  5
289
  8
0
 62
     9
 10
0.0
 20
0.0
 30
0.0
 70
   128
 71
     3
 72
     2
 73
     1
  0
VERTEX
  5
28A
  8
0
 62
     9
 10
0.0
 20
0.0
 30
0.0
 70
   128
 71
     3
 72
     4
 73
     2
  0
VERTEX
  5
28B
  8
0
 62
     9
 10
0.0
 20
0.0
 30
0.0
 70
   128
 71
     1
 72
     5
 73
     3
  0
SEQEND
  5
28C
  8
0
 62
     9
  0
ENDBLK
  5
28F
  8
0
  0
BLOCK
  8
0
  2
E3_NODE_19_
 70
     0
 10
0.0
 20
0.0
 30
0.0
  3
E3_NODE_19_
  1

  0
POLYLINE
  5
291
  8
0
 62
     9
 66
     1
 10
0.0
 20
0.0
 30
0.0
 70
    64
 71
     5
 72
     3
  0
VERTEX
  5
292
  8
0
 10
73.80999755859375
 20
-84.80000305175781
 30
-87.99700164794922
 70
   192
  0
VERTEX
  5
293
  8
0
 10
73.80999755859375
 20
-65.19999694824219
 30
-87.99700164794922
 70
   192
  0
VERTEX
  5
294
  8
0
 10
72.16100311279297
 20
-75.0
 30
-25.01899909973145
 70
   192
  0
VERTEX
  5
295
  8
0
 10
72.11000061035156
 20
-65.19999694824219
 30
-23.10199928283691
 70
   192
  0
VERTEX
  5
296
  8
0
 10
72.11000061035156
 20
-84.80000305175781
 30
-23.10199928283691
 70
   192
  0
VERTEX
  5
297
  8
0
 62
     9
 10
0.0
 20
0.0
 30
0.0
 70
   128
 71
     3
 72
     2
 73
     1
  0
VERTEX
  5
298
  8
0
 62
     9
 10
0.0
 20
0.0
 30
0.0
 70
   128
 71
     3
 72
     4
 73
     2
  0
VERTEX
  5
299
  8
0
 62
     9
 10
0.0
 20
0.0
 30
0.0
 70
   128
 71
     1
 72
     5
 73
     3
  0
SEQEND
  5
29A
  8
0
 62
     9
  0
ENDBLK
  5
29D
  8
0
  0
BLOCK
  8
0
  2
E3_NODE_20_
 70
     0
 10
0.0
 20
0.0
 30
0.0
  3
E3_NODE_20_
  1

  0
POLYLINE
  5
29F
  8
0
 62
     9
 66
     1
 10
0.0
 20
0.0
 30
0.0
 70
    64
 71
    14
 72
    14
  0
VERTEX
  5
2A0
  8
0
 10
12.30000019073486
 20
75.0
 30
-15.85000038146973
 70
   192
  0
VERTEX
  5
2A1
  8
0
 10
12.30000019073486
 20
75.0
 30
-7.349999904632568
 70
   192
  0
VERTEX
  5
2A2
  8
0
 10
16.81800079345703
 20
84.38200378417969
 30
-7.349999904632568
 70
   192
  0
VERTEX
  5
2A3
  8
0
 10
26.96999931335449
 20
86.6989974975586
 30
-7.349999904632568
 70
   192
  0
VERTEX
  5
2A4
  8
0
 10
26.96999931335449
 20
86.6989974975586
 30
-15.85000038146973
 70
   192
  0
VERTEX
  5
2A5
  8
0
 10
16.81800079345703
 20
84.38200378417969
 30
-15.85000038146973
 70
   192
  0
VERTEX
  5
2A6
  8
0
 10
35.11199951171875
 20
80.20700073242188
 30
-7.349999904632568
 70
   192
  0
VERTEX
  5
2A7
  8
0
 10
35.11199951171875
 20
80.20700073242188
 30
-15.85000038146973
 70
   192
  0
VERTEX
  5
2A8
  8
0
 10
35.11199951171875
 20
69.79299926757812
 30
-7.349999904632568
 70
   192
  0
VERTEX
  5
2A9
  8
0
 10
35.11199951171875
 20
69.79299926757812
 30
-15.85000038146973
 70
   192
  0
VERTEX
  5
2AA
  8
0
 10
26.96999931335449
 20
63.30099868774414
 30
-7.349999904632568
 70
   192
  0
VERTEX
  5
2AB
  8
0
 10
26.96999931335449
 20
63.30099868774414
 30
-15.85000038146973
 70
   192
  0
VERTEX
  5
2AC
  8
0
 10
16.81800079345703
 20
65.61799621582031
 30
-15.85000038146973
 70
   192
  0
VERTEX
  5
2AD
  8
0
 10
16.81800079345703
 20
65.61799621582031
 30
-7.349999904632568
 70
   192
  0
VERTEX
  5
2AE
  8
0
 62
     9
 10
0.0
 20
0.0
 30
0.0
 70
   128
 71
     3
 72
     2
 73
     1
  0
VERTEX
  5
2AF
  8
0
 62
     9
 10
0.0
 20
0.0
 30
0.0
 70
   128
 71
     6
 72
     5
 73
     4
  0
VERTEX
  5
2B0
  8
0
 62
     9
 10
0.0
 20
0.0
 30
0.0
 70
   128
 71
     5
 72
     8
 73
     7
  0
VERTEX
  5
2B1
  8
0
 62
     9
 10
0.0
 20
0.0
 30
0.0
 70
   128
 71
     8
 72
    10
 73
     9
  0
VERTEX
  5
2B2
  8
0
 62
     9
 10
0.0
 20
0.0
 30
0.0
 70
   128
 71
    12
 72
    11
 73
     9
  0
VERTEX
  5
2B3
  8
0
 62
     9
 10
0.0
 20
0.0
 30
0.0
 70
   128
 71
    11
 72
    12
 73
    13
  0
VERTEX
  5
2B4
  8
0
 62
     9
 10
0.0
 20
0.0
 30
0.0
 70
   128
 71
     1
 72
     2
 73
    14
  0
VERTEX
  5
2B5
  8
0
 62
     9
 10
0.0
 20
0.0
 30
0.0
 70
   128
 71
    14
 72
    13
 73
     1
  0
VERTEX
  5
2B6
  8
0
 62
     9
 10
0.0
 20
0.0
 30
0.0
 70
   128
 71
    13
 72
    14
 73
    11
  0
VERTEX
  5
2B7
  8
0
 62
     9
 10
0.0
 20
0.0
 30
0.0
 70
   128
 71
     9
 72
    10
 73
    12
  0
VERTEX
  5
2B8
  8
0
 62
     9
 10
0.0
 20
0.0
 30
0.0
 70
   128
 71
     9
 72
     7
 73
     8
  0
VERTEX
  5
2B9
  8
0
 62
     9
 10
0.0
 20
0.0
 30
0.0
 70
   128
 71
     7
 72
     4
 73
     5
  0
VERTEX
  5
2BA
  8
0
 62
     9
 10
0.0
 20
0.0
 30
0.0
 70
   128
 71
     4
 72
     3
 73
     6
  0
VERTEX
  5
2BB
  8
0
 62
     9
 10
0.0
 20
0.0
 30
0.0
 70
   128
 71
     1
 72
     6
 73
     3
  0
SEQEND
  5
2BC
  8
0
 62
     9
  0
ENDBLK
  5
2BF
  8
0
  0
BLOCK
  8
0
  2
E3_NODE_21_
 70
     0
 10
0.0
 20
0.0
 30
0.0
  3
E3_NODE_21_
  1

  0
POLYLINE
  5
2C1
  8
0
 62
     9
 66
     1
 10
0.0
 20
0.0
 30
0.0
 70
    64
 71
    13
 72
    13
  0
VERTEX
  5
2C2
  8
0
 10
35.11199951171875
 20
80.20700073242188
 30
-15.85000038146973
 70
   192
  0
VERTEX
  5
2C3
  8
0
 10
33.59999847412109
 20
75.0
 30
-15.85000038146973
 70
   192
  0
VERTEX
  5
2C4
  8
0
 10
28.95000076293945
 20
83.05400085449219
 30
-15.85000038146973
 70
   192
  0
VERTEX
  5
2C5
  8
0
 10
35.11199951171875
 20
69.79299926757812
 30
-15.85000038146973
 70
   192
  0
VERTEX
  5
2C6
  8
0
 10
26.96999931335449
 20
63.30099868774414
 30
-15.85000038146973
 70
   192
  0
VERTEX
  5
2C7
  8
0
 10
28.95000076293945
 20
66.94599914550781
 30
-15.85000038146973
 70
   192
  0
VERTEX
  5
2C8
  8
0
 10
16.81800079345703
 20
65.61799621582031
 30
-15.85000038146973
 70
   192
  0
VERTEX
  5
2C9
  8
0
 10
19.64999961853027
 20
66.94599914550781
 30
-15.85000038146973
 70
   192
  0
VERTEX
  5
2CA
  8
0
 10
16.81800079345703
 20
84.38200378417969
 30
-15.85000038146973
 70
   192
  0
VERTEX
  5
2CB
  8
0
 10
19.64999961853027
 20
83.05400085449219
 30
-15.85000038146973
 70
   192
  0
VERTEX
  5
2CC
  8
0
 10
15.0
 20
75.0
 30
-15.85000038146973
 70
   192
  0
VERTEX
  5
2CD
  8
0
 10
26.96999931335449
 20
86.6989974975586
 30
-15.85000038146973
 70
   192
  0
VERTEX
  5
2CE
  8
0
 10
12.30000019073486
 20
75.0
 30
-15.85000038146973
 70
   192
  0
VERTEX
  5
2CF
  8
0
 62
     9
 10
0.0
 20
0.0
 30
0.0
 70
   128
 71
     3
 72
     2
 73
     1
  0
VERTEX
  5
2D0
  8
0
 62
     9
 10
0.0
 20
0.0
 30
0.0
 70
   128
 71
     6
 72
     5
 73
     4
  0
VERTEX
  5
2D1
  8
0
 62
     9
 10
0.0
 20
0.0
 30
0.0
 70
   128
 71
     8
 72
     7
 73
     5
  0
VERTEX
  5
2D2
  8
0
 62
     9
 10
0.0
 20
0.0
 30
0.0
 70
   128
 71
    11
 72
    10
 73
     9
  0
VERTEX
  5
2D3
  8
0
 62
     9
 10
0.0
 20
0.0
 30
0.0
 70
   128
 71
    10
 72
     3
 73
    12
  0
VERTEX
  5
2D4
  8
0
 62
     9
 10
0.0
 20
0.0
 30
0.0
 70
   128
 71
     2
 72
     4
 73
     1
  0
VERTEX
  5
2D5
  8
0
 62
     9
 10
0.0
 20
0.0
 30
0.0
 70
   128
 71
     5
 72
     6
 73
     8
  0
VERTEX
  5
2D6
  8
0
 62
     9
 10
0.0
 20
0.0
 30
0.0
 70
   128
 71
    12
 72
     9
 73
    10
  0
VERTEX
  5
2D7
  8
0
 62
     9
 10
0.0
 20
0.0
 30
0.0
 70
   128
 71
     4
 72
     2
 73
     6
  0
VERTEX
  5
2D8
  8
0
 62
     9
 10
0.0
 20
0.0
 30
0.0
 70
   128
 71
     1
 72
    12
 73
     3
  0
VERTEX
  5
2D9
  8
0
 62
     9
 10
0.0
 20
0.0
 30
0.0
 70
   128
 71
    11
 72
    13
 73
     7
  0
VERTEX
  5
2DA
  8
0
 62
     9
 10
0.0
 20
0.0
 30
0.0
 70
   128
 71
     7
 72
     8
 73
    11
  0
VERTEX
  5
2DB
  8
0
 62
     9
 10
0.0
 20
0.0
 30
0.0
 70
   128
 71
     9
 72
    13
 73
    11
  0
SEQEND
  5
2DC
  8
0
 62
     9
  0
ENDBLK
  5
2DF
  8
0
  0
BLOCK
  8
0
  2
E3_NODE_22_
 70
     0
 10
0.0
 20
0.0
 30
0.0
  3
E3_NODE_22_
  1

  0
POLYLINE
  5
2E1
  8
0
 62
     9
 66
     1
 10
0.0
 20
0.0
 30
0.0
 70
    64
 71
    18
 72
    18
  0
VERTEX
  5
2E2
  8
0
 10
15.0
 20
75.0
 30
-15.85000038146973
 70
   192
  0
VERTEX
  5
2E3
  8
0
 10
19.64999961853027
 20
83.05400085449219
 30
-15.85000038146973
 70
   192
  0
VERTEX
  5
2E4
  8
0
 10
18.50200080871582
 20
82.27100372314453
 30
-17.95000076293945
 70
   192
  0
VERTEX
  5
2E5
  8
0
 10
19.76300048828125
 20
82.55899810791016
 30
-17.95000076293945
 70
   192
  0
VERTEX
  5
2E6
  8
0
 10
28.95000076293945
 20
83.05400085449219
 30
-15.85000038146973
 70
   192
  0
VERTEX
  5
2E7
  8
0
 10
26.36899948120117
 20
84.06700134277344
 30
-17.95000076293945
 70
   192
  0
VERTEX
  5
2E8
  8
0
 10
28.44099998474121
 20
82.41500091552734
 30
-17.95000076293945
 70
   192
  0
VERTEX
  5
2E9
  8
0
 10
33.59999847412109
 20
75.0
 30
-15.85000038146973
 70
   192
  0
VERTEX
  5
2EA
  8
0
 10
32.67900085449219
 20
79.03500366210938
 30
-17.95000076293945
 70
   192
  0
VERTEX
  5
2EB
  8
0
 10
32.67900085449219
 20
75.0
 30
-17.95000076293945
 70
   192
  0
VERTEX
  5
2EC
  8
0
 10
28.95000076293945
 20
66.94599914550781
 30
-15.85000038146973
 70
   192
  0
VERTEX
  5
2ED
  8
0
 10
28.44099998474121
 20
67.58499908447266
 30
-17.95000076293945
 70
   192
  0
VERTEX
  5
2EE
  8
0
 10
32.67900085449219
 20
70.96499633789062
 30
-17.95000076293945
 70
   192
  0
VERTEX
  5
2EF
  8
0
 10
19.64999961853027
 20
66.94599914550781
 30
-15.85000038146973
 70
   192
  0
VERTEX
  5
2F0
  8
0
 10
19.76300048828125
 20
67.44100189208984
 30
-17.95000076293945
 70
   192
  0
VERTEX
  5
2F1
  8
0
 10
26.36899948120117
 20
65.93299865722656
 30
-17.95000076293945
 70
   192
  0
VERTEX
  5
2F2
  8
0
 10
15.0
 20
75.0
 30
-17.95000076293945
 70
   192
  0
VERTEX
  5
2F3
  8
0
 10
18.50200080871582
 20
67.72899627685547
 30
-17.95000076293945
 70
   192
  0
VERTEX
  5
2F4
  8
0
 62
     9
 10
0.0
 20
0.0
 30
0.0
 70
   128
 71
     3
 72
     2
 73
     1
  0
VERTEX
  5
2F5
  8
0
 62
     9
 10
0.0
 20
0.0
 30
0.0
 70
   128
 71
     3
 72
     4
 73
     2
  0
VERTEX
  5
2F6
  8
0
 62
     9
 10
0.0
 20
0.0
 30
0.0
 70
   128
 71
     6
 72
     5
 73
     2
  0
VERTEX
  5
2F7
  8
0
 62
     9
 10
0.0
 20
0.0
 30
0.0
 70
   128
 71
     6
 72
     7
 73
     5
  0
VERTEX
  5
2F8
  8
0
 62
     9
 10
0.0
 20
0.0
 30
0.0
 70
   128
 71
     9
 72
     8
 73
     5
  0
VERTEX
  5
2F9
  8
0
 62
     9
 10
0.0
 20
0.0
 30
0.0
 70
   128
 71
     9
 72
    10
 73
     8
  0
VERTEX
  5
2FA
  8
0
 62
     9
 10
0.0
 20
0.0
 30
0.0
 70
   128
 71
    13
 72
    12
 73
    11
  0
VERTEX
  5
2FB
  8
0
 62
     9
 10
0.0
 20
0.0
 30
0.0
 70
   128
 71
    11
 72
     8
 73
    13
  0
VERTEX
  5
2FC
  8
0
 62
     9
 10
0.0
 20
0.0
 30
0.0
 70
   128
 71
    16
 72
    15
 73
    14
  0
VERTEX
  5
2FD
  8
0
 62
     9
 10
0.0
 20
0.0
 30
0.0
 70
   128
 71
    14
 72
    11
 73
    16
  0
VERTEX
  5
2FE
  8
0
 62
     9
 10
0.0
 20
0.0
 30
0.0
 70
   128
 71
    18
 72
    17
 73
     1
  0
VERTEX
  5
2FF
  8
0
 62
     9
 10
0.0
 20
0.0
 30
0.0
 70
   128
 71
     1
 72
    14
 73
    18
  0
VERTEX
  5
300
  8
0
 62
     9
 10
0.0
 20
0.0
 30
0.0
 70
   128
 71
    14
 72
    15
 73
    18
  0
VERTEX
  5
301
  8
0
 62
     9
 10
0.0
 20
0.0
 30
0.0
 70
   128
 71
    11
 72
    12
 73
    16
  0
VERTEX
  5
302
  8
0
 62
     9
 10
0.0
 20
0.0
 30
0.0
 70
   128
 71
     8
 72
    10
 73
    13
  0
VERTEX
  5
303
  8
0
 62
     9
 10
0.0
 20
0.0
 30
0.0
 70
   128
 71
     5
 72
     7
 73
     9
  0
VERTEX
  5
304
  8
0
 62
     9
 10
0.0
 20
0.0
 30
0.0
 70
   128
 71
     2
 72
     4
 73
     6
  0
VERTEX
  5
305
  8
0
 62
     9
 10
0.0
 20
0.0
 30
0.0
 70
   128
 71
     1
 72
    17
 73
     3
  0
SEQEND
  5
306
  8
0
 62
     9
  0
ENDBLK
  5
309
  8
0
  0
BLOCK
  8
0
  2
E3_NODE_23_
 70
     0
 10
0.0
 20
0.0
 30
0.0
  3
E3_NODE_23_
  1

  0
POLYLINE
  5
30B
  8
0
 62
     9
 66
     1
 10
0.0
 20
0.0
 30
0.0
 70
    64
 71
    19
 72
    19
  0
VERTEX
  5
30C
  8
0
 10
13.81999969482422
 20
75.0
 30
-19.1299991607666
 70
   192
  0
VERTEX
  5
30D
  8
0
 10
15.0
 20
75.0
 30
-17.95000076293945
 70
   192
  0
VERTEX
  5
30E
  8
0
 10
18.50200080871582
 20
82.27100372314453
 30
-17.95000076293945
 70
   192
  0
VERTEX
  5
30F
  8
0
 10
26.63199996948242
 20
85.21700286865234
 30
-19.1299991607666
 70
   192
  0
VERTEX
  5
310
  8
0
 10
17.76600074768066
 20
83.19400024414062
 30
-19.1299991607666
 70
   192
  0
VERTEX
  5
311
  8
0
 10
19.76300048828125
 20
82.55899810791016
 30
-17.95000076293945
 70
   192
  0
VERTEX
  5
312
  8
0
 10
33.74200057983398
 20
79.5469970703125
 30
-19.1299991607666
 70
   192
  0
VERTEX
  5
313
  8
0
 10
28.44099998474121
 20
82.41500091552734
 30
-17.95000076293945
 70
   192
  0
VERTEX
  5
314
  8
0
 10
26.36899948120117
 20
84.06700134277344
 30
-17.95000076293945
 70
   192
  0
VERTEX
  5
315
  8
0
 10
33.74200057983398
 20
70.4530029296875
 30
-19.1299991607666
 70
   192
  0
VERTEX
  5
316
  8
0
 10
32.67900085449219
 20
75.0
 30
-17.95000076293945
 70
   192
  0
VERTEX
  5
317
  8
0
 10
32.67900085449219
 20
79.03500366210938
 30
-17.95000076293945
 70
   192
  0
VERTEX
  5
318
  8
0
 10
32.67900085449219
 20
70.96499633789062
 30
-17.95000076293945
 70
   192
  0
VERTEX
  5
319
  8
0
 10
28.44099998474121
 20
67.58499908447266
 30
-17.95000076293945
 70
   192
  0
VERTEX
  5
31A
  8
0
 10
26.63199996948242
 20
64.78299713134766
 30
-19.1299991607666
 70
   192
  0
VERTEX
  5
31B
  8
0
 10
26.36899948120117
 20
65.93299865722656
 30
-17.95000076293945
 70
   192
  0
VERTEX
  5
31C
  8
0
 10
19.76300048828125
 20
67.44100189208984
 30
-17.95000076293945
 70
   192
  0
VERTEX
  5
31D
  8
0
 10
17.76600074768066
 20
66.80599975585938
 30
-19.1299991607666
 70
   192
  0
VERTEX
  5
31E
  8
0
 10
18.50200080871582
 20
67.72899627685547
 30
-17.95000076293945
 70
   192
  0
VERTEX
  5
31F
  8
0
 62
     9
 10
0.0
 20
0.0
 30
0.0
 70
   128
 71
     3
 72
     2
 73
     1
  0
VERTEX
  5
320
  8
0
 62
     9
 10
0.0
 20
0.0
 30
0.0
 70
   128
 71
     6
 72
     5
 73
     4
  0
VERTEX
  5
321
  8
0
 62
     9
 10
0.0
 20
0.0
 30
0.0
 70
   128
 71
     6
 72
     3
 73
     5
  0
VERTEX
  5
322
  8
0
 62
     9
 10
0.0
 20
0.0
 30
0.0
 70
   128
 71
     8
 72
     4
 73
     7
  0
VERTEX
  5
323
  8
0
 62
     9
 10
0.0
 20
0.0
 30
0.0
 70
   128
 71
     8
 72
     9
 73
     4
  0
VERTEX
  5
324
  8
0
 62
     9
 10
0.0
 20
0.0
 30
0.0
 70
   128
 71
    11
 72
     7
 73
    10
  0
VERTEX
  5
325
  8
0
 62
     9
 10
0.0
 20
0.0
 30
0.0
 70
   128
 71
    11
 72
    12
 73
     7
  0
VERTEX
  5
326
  8
0
 62
     9
 10
0.0
 20
0.0
 30
0.0
 70
   128
 71
    14
 72
    13
 73
    10
  0
VERTEX
  5
327
  8
0
 62
     9
 10
0.0
 20
0.0
 30
0.0
 70
   128
 71
    10
 72
    15
 73
    14
  0
VERTEX
  5
328
  8
0
 62
     9
 10
0.0
 20
0.0
 30
0.0
 70
   128
 71
    17
 72
    16
 73
    15
  0
VERTEX
  5
329
  8
0
 62
     9
 10
0.0
 20
0.0
 30
0.0
 70
   128
 71
    15
 72
    18
 73
    17
  0
VERTEX
  5
32A
  8
0
 62
     9
 10
0.0
 20
0.0
 30
0.0
 70
   128
 71
     2
 72
    19
 73
    18
  0
VERTEX
  5
32B
  8
0
 62
     9
 10
0.0
 20
0.0
 30
0.0
 70
   128
 71
    18
 72
     1
 73
     2
  0
VERTEX
  5
32C
  8
0
 62
     9
 10
0.0
 20
0.0
 30
0.0
 70
   128
 71
    18
 72
    19
 73
    17
  0
VERTEX
  5
32D
  8
0
 62
     9
 10
0.0
 20
0.0
 30
0.0
 70
   128
 71
    15
 72
    16
 73
    14
  0
VERTEX
  5
32E
  8
0
 62
     9
 10
0.0
 20
0.0
 30
0.0
 70
   128
 71
    10
 72
    13
 73
    11
  0
VERTEX
  5
32F
  8
0
 62
     9
 10
0.0
 20
0.0
 30
0.0
 70
   128
 71
     7
 72
    12
 73
     8
  0
VERTEX
  5
330
  8
0
 62
     9
 10
0.0
 20
0.0
 30
0.0
 70
   128
 71
     4
 72
     9
 73
     6
  0
VERTEX
  5
331
  8
0
 62
     9
 10
0.0
 20
0.0
 30
0.0
 70
   128
 71
     1
 72
     5
 73
     3
  0
SEQEND
  5
332
  8
0
 62
     9
  0
ENDBLK
  5
335
  8
0
  0
BLOCK
  8
0
  2
E3_NODE_24_
 70
     0
 10
0.0
 20
0.0
 30
0.0
  3
E3_NODE_24_
  1

  0
POLYLINE
  5
337
  8
0
 62
     9
 66
     1
 10
0.0
 20
0.0
 30
0.0
 70
    64
 71
    21
 72
    21
  0
VERTEX
  5
338
  8
0
 10
13.81999969482422
 20
75.0
 30
-19.1299991607666
 70
   192
  0
VERTEX
  5
339
  8
0
 10
17.76600074768066
 20
83.19400024414062
 30
-19.1299991607666
 70
   192
  0
VERTEX
  5
33A
  8
0
 10
14.85799980163574
 20
79.5469970703125
 30
-24.67000007629395
 70
   192
  0
VERTEX
  5
33B
  8
0
 10
18.41300010681152
 20
82.38200378417969
 30
-24.67000007629395
 70
   192
  0
VERTEX
  5
33C
  8
0
 10
26.63199996948242
 20
85.21700286865234
 30
-19.1299991607666
 70
   192
  0
VERTEX
  5
33D
  8
0
 10
26.40099906921387
 20
84.20500183105469
 30
-24.67000007629395
 70
   192
  0
VERTEX
  5
33E
  8
0
 10
21.9680004119873
 20
85.21700286865234
 30
-24.67000007629395
 70
   192
  0
VERTEX
  5
33F
  8
0
 10
33.74200057983398
 20
79.5469970703125
 30
-19.1299991607666
 70
   192
  0
VERTEX
  5
340
  8
0
 10
32.80699920654297
 20
79.09700012207031
 30
-24.67000007629395
 70
   192
  0
VERTEX
  5
341
  8
0
 10
30.83399963378906
 20
83.19400024414062
 30
-24.67000007629395
 70
   192
  0
VERTEX
  5
342
  8
0
 10
33.74200057983398
 20
70.4530029296875
 30
-19.1299991607666
 70
   192
  0
VERTEX
  5
343
  8
0
 10
34.77999877929688
 20
75.0
 30
-24.67000007629395
 70
   192
  0
VERTEX
  5
344
  8
0
 10
32.80699920654297
 20
70.90299987792969
 30
-24.67000007629395
 70
   192
  0
VERTEX
  5
345
  8
0
 10
26.63199996948242
 20
64.78299713134766
 30
-19.1299991607666
 70
   192
  0
VERTEX
  5
346
  8
0
 10
30.83399963378906
 20
66.80599975585938
 30
-24.67000007629395
 70
   192
  0
VERTEX
  5
347
  8
0
 10
26.40099906921387
 20
65.79499816894531
 30
-24.67000007629395
 70
   192
  0
VERTEX
  5
348
  8
0
 10
17.76600074768066
 20
66.80599975585938
 30
-19.1299991607666
 70
   192
  0
VERTEX
  5
349
  8
0
 10
21.9680004119873
 20
64.78299713134766
 30
-24.67000007629395
 70
   192
  0
VERTEX
  5
34A
  8
0
 10
18.41300010681152
 20
67.61799621582031
 30
-24.67000007629395
 70
   192
  0
VERTEX
  5
34B
  8
0
 10
14.85799980163574
 20
70.4530029296875
 30
-24.67000007629395
 70
   192
  0
VERTEX
  5
34C
  8
0
 10
13.81999969482422
 20
75.0
 30
-24.67000007629395
 70
   192
  0
VERTEX
  5
34D
  8
0
 62
     9
 10
0.0
 20
0.0
 30
0.0
 70
   128
 71
     3
 72
     2
 73
     1
  0
VERTEX
  5
34E
  8
0
 62
     9
 10
0.0
 20
0.0
 30
0.0
 70
   128
 71
     3
 72
     4
 73
     2
  0
VERTEX
  5
34F
  8
0
 62
     9
 10
0.0
 20
0.0
 30
0.0
 70
   128
 71
     7
 72
     6
 73
     5
  0
VERTEX
  5
350
  8
0
 62
     9
 10
0.0
 20
0.0
 30
0.0
 70
   128
 71
     5
 72
     2
 73
     7
  0
VERTEX
  5
351
  8
0
 62
     9
 10
0.0
 20
0.0
 30
0.0
 70
   128
 71
    10
 72
     9
 73
     8
  0
VERTEX
  5
352
  8
0
 62
     9
 10
0.0
 20
0.0
 30
0.0
 70
   128
 71
     8
 72
     5
 73
    10
  0
VERTEX
  5
353
  8
0
 62
     9
 10
0.0
 20
0.0
 30
0.0
 70
   128
 71
    12
 72
    11
 73
     8
  0
VERTEX
  5
354
  8
0
 62
     9
 10
0.0
 20
0.0
 30
0.0
 70
   128
 71
    12
 72
    13
 73
    11
  0
VERTEX
  5
355
  8
0
 62
     9
 10
0.0
 20
0.0
 30
0.0
 70
   128
 71
    15
 72
    14
 73
    11
  0
VERTEX
  5
356
  8
0
 62
     9
 10
0.0
 20
0.0
 30
0.0
 70
   128
 71
    15
 72
    16
 73
    14
  0
VERTEX
  5
357
  8
0
 62
     9
 10
0.0
 20
0.0
 30
0.0
 70
   128
 71
    18
 72
    17
 73
    14
  0
VERTEX
  5
358
  8
0
 62
     9
 10
0.0
 20
0.0
 30
0.0
 70
   128
 71
    18
 72
    19
 73
    17
  0
VERTEX
  5
359
  8
0
 62
     9
 10
0.0
 20
0.0
 30
0.0
 70
   128
 71
    20
 72
     1
 73
    17
  0
VERTEX
  5
35A
  8
0
 62
     9
 10
0.0
 20
0.0
 30
0.0
 70
   128
 71
    20
 72
    21
 73
     1
  0
VERTEX
  5
35B
  8
0
 62
     9
 10
0.0
 20
0.0
 30
0.0
 70
   128
 71
    17
 72
    19
 73
    20
  0
VERTEX
  5
35C
  8
0
 62
     9
 10
0.0
 20
0.0
 30
0.0
 70
   128
 71
    14
 72
    16
 73
    18
  0
VERTEX
  5
35D
  8
0
 62
     9
 10
0.0
 20
0.0
 30
0.0
 70
   128
 71
    11
 72
    13
 73
    15
  0
VERTEX
  5
35E
  8
0
 62
     9
 10
0.0
 20
0.0
 30
0.0
 70
   128
 71
     8
 72
     9
 73
    12
  0
VERTEX
  5
35F
  8
0
 62
     9
 10
0.0
 20
0.0
 30
0.0
 70
   128
 71
     5
 72
     6
 73
    10
  0
VERTEX
  5
360
  8
0
 62
     9
 10
0.0
 20
0.0
 30
0.0
 70
   128
 71
     2
 72
     4
 73
     7
  0
VERTEX
  5
361
  8
0
 62
     9
 10
0.0
 20
0.0
 30
0.0
 70
   128
 71
     1
 72
    21
 73
     3
  0
SEQEND
  5
362
  8
0
 62
     9
  0
ENDBLK
  5
365
  8
0
  0
BLOCK
  8
0
  2
E3_NODE_25_
 70
     0
 10
0.0
 20
0.0
 30
0.0
  3
E3_NODE_25_
  1

  0
POLYLINE
  5
367
  8
0
 62
     9
 66
     1
 10
0.0
 20
0.0
 30
0.0
 70
    64
 71
    22
 72
    22
  0
VERTEX
  5
368
  8
0
 10
30.09799957275391
 20
82.27100372314453
 30
-25.85000038146973
 70
   192
  0
VERTEX
  5
369
  8
0
 10
30.83399963378906
 20
83.19400024414062
 30
-24.67000007629395
 70
   192
  0
VERTEX
  5
36A
  8
0
 10
32.80699920654297
 20
79.09700012207031
 30
-24.67000007629395
 70
   192
  0
VERTEX
  5
36B
  8
0
 10
33.59999847412109
 20
75.0
 30
-25.85000038146973
 70
   192
  0
VERTEX
  5
36C
  8
0
 10
22.23100090026855
 20
84.06700134277344
 30
-25.85000038146973
 70
   192
  0
VERTEX
  5
36D
  8
0
 10
21.9680004119873
 20
85.21700286865234
 30
-24.67000007629395
 70
   192
  0
VERTEX
  5
36E
  8
0
 10
26.40099906921387
 20
84.20500183105469
 30
-24.67000007629395
 70
   192
  0
VERTEX
  5
36F
  8
0
 10
15.92099952697754
 20
79.03500366210938
 30
-25.85000038146973
 70
   192
  0
VERTEX
  5
370
  8
0
 10
14.85799980163574
 20
79.5469970703125
 30
-24.67000007629395
 70
   192
  0
VERTEX
  5
371
  8
0
 10
18.41300010681152
 20
82.38200378417969
 30
-24.67000007629395
 70
   192
  0
VERTEX
  5
372
  8
0
 10
14.85799980163574
 20
70.4530029296875
 30
-24.67000007629395
 70
   192
  0
VERTEX
  5
373
  8
0
 10
13.81999969482422
 20
75.0
 30
-24.67000007629395
 70
   192
  0
VERTEX
  5
374
  8
0
 10
15.0
 20
75.0
 30
-25.85000038146973
 70
   192
  0
VERTEX
  5
375
  8
0
 10
15.92099952697754
 20
70.96499633789062
 30
-25.85000038146973
 70
   192
  0
VERTEX
  5
376
  8
0
 10
22.23100090026855
 20
65.93299865722656
 30
-25.85000038146973
 70
   192
  0
VERTEX
  5
377
  8
0
 10
18.41300010681152
 20
67.61799621582031
 30
-24.67000007629395
 70
   192
  0
VERTEX
  5
378
  8
0
 10
21.9680004119873
 20
64.78299713134766
 30
-24.67000007629395
 70
   192
  0
VERTEX
  5
379
  8
0
 10
30.09799957275391
 20
67.72899627685547
 30
-25.85000038146973
 70
   192
  0
VERTEX
  5
37A
  8
0
 10
26.40099906921387
 20
65.79499816894531
 30
-24.67000007629395
 70
   192
  0
VERTEX
  5
37B
  8
0
 10
30.83399963378906
 20
66.80599975585938
 30
-24.67000007629395
 70
   192
  0
VERTEX
  5
37C
  8
0
 10
32.80699920654297
 20
70.90299987792969
 30
-24.67000007629395
 70
   192
  0
VERTEX
  5
37D
  8
0
 10
34.77999877929688
 20
75.0
 30
-24.67000007629395
 70
   192
  0
VERTEX
  5
37E
  8
0
 62
     9
 10
0.0
 20
0.0
 30
0.0
 70
   128
 71
     3
 72
     2
 73
     1
  0
VERTEX
  5
37F
  8
0
 62
     9
 10
0.0
 20
0.0
 30
0.0
 70
   128
 71
     1
 72
     4
 73
     3
  0
VERTEX
  5
380
  8
0
 62
     9
 10
0.0
 20
0.0
 30
0.0
 70
   128
 71
     7
 72
     6
 73
     5
  0
VERTEX
  5
381
  8
0
 62
     9
 10
0.0
 20
0.0
 30
0.0
 70
   128
 71
     5
 72
     1
 73
     7
  0
VERTEX
  5
382
  8
0
 62
     9
 10
0.0
 20
0.0
 30
0.0
 70
   128
 71
    10
 72
     9
 73
     8
  0
VERTEX
  5
383
  8
0
 62
     9
 10
0.0
 20
0.0
 30
0.0
 70
   128
 71
     8
 72
     5
 73
    10
  0
VERTEX
  5
384
  8
0
 62
     9
 10
0.0
 20
0.0
 30
0.0
 70
   128
 71
    13
 72
    12
 73
    11
  0
VERTEX
  5
385
  8
0
 62
     9
 10
0.0
 20
0.0
 30
0.0
 70
   128
 71
    13
 72
     8
 73
     9
  0
VERTEX
  5
386
  8
0
 62
     9
 10
0.0
 20
0.0
 30
0.0
 70
   128
 71
     9
 72
    12
 73
    13
  0
VERTEX
  5
387
  8
0
 62
     9
 10
0.0
 20
0.0
 30
0.0
 70
   128
 71
    16
 72
    15
 73
    14
  0
VERTEX
  5
388
  8
0
 62
     9
 10
0.0
 20
0.0
 30
0.0
 70
   128
 71
    16
 72
    17
 73
    15
  0
VERTEX
  5
389
  8
0
 62
     9
 10
0.0
 20
0.0
 30
0.0
 70
   128
 71
    19
 72
    18
 73
    15
  0
VERTEX
  5
38A
  8
0
 62
     9
 10
0.0
 20
0.0
 30
0.0
 70
   128
 71
    19
 72
    20
 73
    18
  0
VERTEX
  5
38B
  8
0
 62
     9
 10
0.0
 20
0.0
 30
0.0
 70
   128
 71
    21
 72
     4
 73
    18
  0
VERTEX
  5
38C
  8
0
 62
     9
 10
0.0
 20
0.0
 30
0.0
 70
   128
 71
    21
 72
    22
 73
     4
  0
VERTEX
  5
38D
  8
0
 62
     9
 10
0.0
 20
0.0
 30
0.0
 70
   128
 71
    18
 72
    20
 73
    21
  0
VERTEX
  5
38E
  8
0
 62
     9
 10
0.0
 20
0.0
 30
0.0
 70
   128
 71
    15
 72
    17
 73
    19
  0
VERTEX
  5
38F
  8
0
 62
     9
 10
0.0
 20
0.0
 30
0.0
 70
   128
 71
    14
 72
    11
 73
    16
  0
VERTEX
  5
390
  8
0
 62
     9
 10
0.0
 20
0.0
 30
0.0
 70
   128
 71
    11
 72
    14
 73
    13
  0
VERTEX
  5
391
  8
0
 62
     9
 10
0.0
 20
0.0
 30
0.0
 70
   128
 71
     5
 72
     6
 73
    10
  0
VERTEX
  5
392
  8
0
 62
     9
 10
0.0
 20
0.0
 30
0.0
 70
   128
 71
     1
 72
     2
 73
     7
  0
VERTEX
  5
393
  8
0
 62
     9
 10
0.0
 20
0.0
 30
0.0
 70
   128
 71
     4
 72
    22
 73
     3
  0
SEQEND
  5
394
  8
0
 62
     9
  0
ENDBLK
  5
397
  8
0
  0
BLOCK
  8
0
  2
E3_NODE_26_
 70
     0
 10
0.0
 20
0.0
 30
0.0
  3
E3_NODE_26_
  1

  0
POLYLINE
  5
399
  8
0
 62
     9
 66
     1
 10
0.0
 20
0.0
 30
0.0
 70
    64
 71
     8
 72
     6
  0
VERTEX
  5
39A
  8
0
 10
33.59999847412109
 20
75.0
 30
-25.85000038146973
 70
   192
  0
VERTEX
  5
39B
  8
0
 10
15.92099952697754
 20
79.03500366210938
 30
-25.85000038146973
 70
   192
  0
VERTEX
  5
39C
  8
0
 10
22.23100090026855
 20
84.06700134277344
 30
-25.85000038146973
 70
   192
  0
VERTEX
  5
39D
  8
0
 10
30.09799957275391
 20
67.72899627685547
 30
-25.85000038146973
 70
   192
  0
VERTEX
  5
39E
  8
0
 10
22.23100090026855
 20
65.93299865722656
 30
-25.85000038146973
 70
   192
  0
VERTEX
  5
39F
  8
0
 10
15.0
 20
75.0
 30
-25.85000038146973
 70
   192
  0
VERTEX
  5
3A0
  8
0
 10
15.92099952697754
 20
70.96499633789062
 30
-25.85000038146973
 70
   192
  0
VERTEX
  5
3A1
  8
0
 10
30.09799957275391
 20
82.27100372314453
 30
-25.85000038146973
 70
   192
  0
VERTEX
  5
3A2
  8
0
 62
     9
 10
0.0
 20
0.0
 30
0.0
 70
   128
 71
     3
 72
     2
 73
     1
  0
VERTEX
  5
3A3
  8
0
 62
     9
 10
0.0
 20
0.0
 30
0.0
 70
   128
 71
     5
 72
     4
 73
     1
  0
VERTEX
  5
3A4
  8
0
 62
     9
 10
0.0
 20
0.0
 30
0.0
 70
   128
 71
     2
 72
     6
 73
     1
  0
VERTEX
  5
3A5
  8
0
 62
     9
 10
0.0
 20
0.0
 30
0.0
 70
   128
 71
     1
 72
     7
 73
     5
  0
VERTEX
  5
3A6
  8
0
 62
     9
 10
0.0
 20
0.0
 30
0.0
 70
   128
 71
     1
 72
     6
 73
     7
  0
VERTEX
  5
3A7
  8
0
 62
     9
 10
0.0
 20
0.0
 30
0.0
 70
   128
 71
     1
 72
     8
 73
     3
  0
SEQEND
  5
3A8
  8
0
 62
     9
  0
ENDBLK
  5
3AB
  8
0
  0
ENDSEC
  0
SECTION
  2
ENTITIES
  0
INSERT
  5
44
  8
LAYER_1
  2
E3_NODE
 10
0.0
 20
0.0
 30
0.0
  0
INSERT
  5
51
  8
LAYER_1
  2
E3_NODE_1_
 10
0.0
 20
0.0
 30
0.0
  0
INSERT
  5
5D
  8
LAYER_1
  2
E3_NODE_2_
 10
0.0
 20
0.0
 30
0.0
  0
INSERT
  5
69
  8
LAYER_1
  2
E3_NODE_3_
 10
0.0
 20
0.0
 30
0.0
  0
INSERT
  5
75
  8
LAYER_1
  2
E3_NODE_4_
 10
0.0
 20
0.0
 30
0.0
  0
INSERT
  5
81
  8
LAYER_1
  2
E3_NODE_5_
 10
0.0
 20
0.0
 30
0.0
  0
INSERT
  5
B3
  8
LAYER_1
  2
E3_NODE_6_
 10
0.0
 20
0.0
 30
0.0
  0
INSERT
  5
EB
  8
LAYER_1
  2
E3_NODE_7_
 10
0.0
 20
0.0
 30
0.0
  0
INSERT
  5
162
  8
LAYER_1
  2
E3_NODE_8_
 10
0.0
 20
0.0
 30
0.0
  0
INSERT
  5
188
  8
LAYER_1
  2
E3_NODE_9_
 10
0.0
 20
0.0
 30
0.0
  0
INSERT
  5
19C
  8
LAYER_1
  2
E3_NODE_10_
 10
0.0
 20
0.0
 30
0.0
  0
INSERT
  5
1CB
  8
LAYER_1
  2
E3_NODE_11_
 10
0.0
 20
0.0
 30
0.0
  0
INSERT
  5
22B
  8
LAYER_1
  2
E3_NODE_12_
 10
0.0
 20
0.0
 30
0.0
  0
INSERT
  5
23D
  8
LAYER_1
  2
E3_NODE_13_
 10
0.0
 20
0.0
 30
0.0
  0
INSERT
  5
25B
  8
LAYER_1
  2
E3_NODE_14_
 10
0.0
 20
0.0
 30
0.0
  0
INSERT
  5
267
  8
LAYER_1
  2
E3_NODE_15_
 10
0.0
 20
0.0
 30
0.0
  0
INSERT
  5
273
  8
LAYER_1
  2
E3_NODE_16_
 10
0.0
 20
0.0
 30
0.0
  0
INSERT
  5
27F
  8
LAYER_1
  2
E3_NODE_17_
 10
0.0
 20
0.0
 30
0.0
  0
INSERT
  5
28D
  8
LAYER_1
  2
E3_NODE_18_
 10
0.0
 20
0.0
 30
0.0
  0
INSERT
  5
29B
  8
LAYER_1
  2
E3_NODE_19_
 10
0.0
 20
0.0
 30
0.0
  0
INSERT
  5
2BD
  8
LAYER_1
  2
E3_NODE_20_
 10
0.0
 20
0.0
 30
0.0
  0
INSERT
  5
2DD
  8
LAYER_1
  2
E3_NODE_21_
 10
0.0
 20
0.0
 30
0.0
  0
INSERT
  5
307
  8
LAYER_1
  2
E3_NODE_22_
 10
0.0
 20
0.0
 30
0.0
  0
INSERT
  5
333
  8
LAYER_1
  2
E3_NODE_23_
 10
0.0
 20
0.0
 30
0.0
  0
INSERT
  5
363
  8
LAYER_1
  2
E3_NODE_24_
 10
0.0
 20
0.0
 30
0.0
  0
INSERT
  5
395
  8
LAYER_1
  2
E3_NODE_25_
 10
0.0
 20
0.0
 30
0.0
  0
INSERT
  5
3A9
  8
LAYER_1
  2
E3_NODE_26_
 10
0.0
 20
0.0
 30
0.0
  0
ENDSEC
  0
EOF
