  0
SECTION
  2
HEADER
  9
$ACADVER
  1
AC1015
  9
$ACADMAINTVER
 70
     6
  9
$DWGCODEPAGE
  3
ANSI_1252
  9
$INSBASE
 10
0.0
 20
0.0
 30
0.0
  9
$EXTMIN
 10
0.0
 20
0.0
 30
0.0
  9
$EXTMAX
 10
1682.0
 20
2378.0
 30
0.0
  9
$LIMMIN
 10
0.0
 20
0.0
  9
$LIMMAX
 10
1682.0
 20
2378.0
  9
$ORTHOMODE
 70
     0
  9
$REGENMODE
 70
     1
  9
$FILLMODE
 70
     1
  9
$QTEXTMODE
 70
     0
  9
$MIRRTEXT
 70
     1
  9
$LTSCALE
 40
1.0
  9
$ATTMODE
 70
     1
  9
$TEXTSIZE
 40
2.5
  9
$TRACEWID
 40
1.0
  9
$TEXTSTYLE
  7
Standard
  9
$CLAYER
  8
0
  9
$CELTYPE
  6
ByLayer
  9
$CECOLOR
 62
   256
  9
$CELTSCALE
 40
1.0
  9
$DISPSILH
 70
     0
  9
$DIMSCALE
 40
1.0
  9
$DIMASZ
 40
2.5
  9
$DIMEXO
 40
0.625
  9
$DIMDLI
 40
3.75
  9
$DIMRND
 40
0.0
  9
$DIMDLE
 40
0.0
  9
$DIMEXE
 40
1.25
  9
$DIMTP
 40
0.0
  9
$DIMTM
 40
0.0
  9
$DIMTXT
 40
2.5
  9
$DIMCEN
 40
2.5
  9
$DIMTSZ
 40
0.0
  9
$DIMTOL
 70
     0
  9
$DIMLIM
 70
     0
  9
$DIMTIH
 70
     0
  9
$DIMTOH
 70
     0
  9
$DIMSE1
 70
     0
  9
$DIMSE2
 70
     0
  9
$DIMTAD
 70
     1
  9
$DIMZIN
 70
     8
  9
$DIMBLK
  1

  9
$DIMASO
 70
     1
  9
$DIMSHO
 70
     1
  9
$DIMPOST
  1

  9
$DIMAPOST
  1

  9
$DIMALT
 70
     0
  9
$DIMALTD
 70
     3
  9
$DIMALTF
 40
0.0393700787
  9
$DIMLFAC
 40
1.0
  9
$DIMTOFL
 70
     1
  9
$DIMTVP
 40
0.0
  9
$DIMTIX
 70
     0
  9
$DIMSOXD
 70
     0
  9
$DIMSAH
 70
     0
  9
$DIMBLK1
  1

  9
$DIMBLK2
  1

  9
$DIMSTYLE
  2
ISO-25
  9
$DIMCLRD
 70
     0
  9
$DIMCLRE
 70
     0
  9
$DIMCLRT
 70
     0
  9
$DIMTFAC
 40
1.0
  9
$DIMGAP
 40
0.625
  9
$DIMJUST
 70
     0
  9
$DIMSD1
 70
     0
  9
$DIMSD2
 70
     0
  9
$DIMTOLJ
 70
     0
  9
$DIMTZIN
 70
     8
  9
$DIMALTZ
 70
     0
  9
$DIMALTTZ
 70
     0
  9
$DIMUPT
 70
     0
  9
$DIMDEC
 70
     2
  9
$DIMTDEC
 70
     2
  9
$DIMALTU
 70
     2
  9
$DIMALTTD
 70
     3
  9
$DIMTXSTY
  7
Standard
  9
$DIMAUNIT
 70
     0
  9
$DIMADEC
 70
     0
  9
$DIMALTRND
 40
0.0
  9
$DIMAZIN
 70
     0
  9
$DIMDSEP
 70
    44
  9
$DIMATFIT
 70
     3
  9
$DIMFRAC
 70
     0
  9
$DIMLDRBLK
  1

  9
$DIMLUNIT
 70
     2
  9
$DIMLWD
 70
    -2
  9
$DIMLWE
 70
    -2
  9
$DIMTMOVE
 70
     0
  9
$LUNITS
 70
     2
  9
$LUPREC
 70
     4
  9
$SKETCHINC
 40
1.0
  9
$FILLETRAD
 40
10.0
  9
$AUNITS
 70
     0
  9
$AUPREC
 70
     0
  9
$MENU
  1
.
  9
$ELEVATION
 40
0.0
  9
$PELEVATION
 40
0.0
  9
$THICKNESS
 40
0.0
  9
$LIMCHECK
 70
     0
  9
$CHAMFERA
 40
10.0
  9
$CHAMFERB
 40
10.0
  9
$CHAMFERC
 40
20.0
  9
$CHAMFERD
 40
0.0
  9
$SKPOLY
 70
     0
  9
$TDCREATE
 40
2455478.323126794
  9
$TDUCREATE
 40
2455478.239793461
  9
$TDUPDATE
 40
2455478.323126805
  9
$TDUUPDATE
 40
2455478.239793472
  9
$TDINDWG
 40
0.0000000116
  9
$TDUSRTIMER
 40
0.0000000116
  9
$USRTIMER
 70
     1
  9
$ANGBASE
 50
0.0
  9
$ANGDIR
 70
     0
  9
$PDMODE
 70
     0
  9
$PDSIZE
 40
0.0
  9
$PLINEWID
 40
0.0
  9
$SPLFRAME
 70
     0
  9
$SPLINETYPE
 70
     6
  9
$SPLINESEGS
 70
     8
  9
$HANDSEED
  5
3E6
  9
$SURFTAB1
 70
     6
  9
$SURFTAB2
 70
     6
  9
$SURFTYPE
 70
     6
  9
$SURFU
 70
     6
  9
$SURFV
 70
     6
  9
$UCSBASE
  2

  9
$UCSNAME
  2

  9
$UCSORG
 10
0.0
 20
0.0
 30
0.0
  9
$UCSXDIR
 10
1.0
 20
0.0
 30
0.0
  9
$UCSYDIR
 10
0.0
 20
1.0
 30
0.0
  9
$UCSORTHOREF
  2

  9
$UCSORTHOVIEW
 70
     0
  9
$UCSORGTOP
 10
0.0
 20
0.0
 30
0.0
  9
$UCSORGBOTTOM
 10
0.0
 20
0.0
 30
0.0
  9
$UCSORGLEFT
 10
0.0
 20
0.0
 30
0.0
  9
$UCSORGRIGHT
 10
0.0
 20
0.0
 30
0.0
  9
$UCSORGFRONT
 10
0.0
 20
0.0
 30
0.0
  9
$UCSORGBACK
 10
0.0
 20
0.0
 30
0.0
  9
$PUCSBASE
  2

  9
$PUCSNAME
  2

  9
$PUCSORG
 10
0.0
 20
0.0
 30
0.0
  9
$PUCSXDIR
 10
1.0
 20
0.0
 30
0.0
  9
$PUCSYDIR
 10
0.0
 20
1.0
 30
0.0
  9
$PUCSORTHOREF
  2

  9
$PUCSORTHOVIEW
 70
     0
  9
$PUCSORGTOP
 10
0.0
 20
0.0
 30
0.0
  9
$PUCSORGBOTTOM
 10
0.0
 20
0.0
 30
0.0
  9
$PUCSORGLEFT
 10
0.0
 20
0.0
 30
0.0
  9
$PUCSORGRIGHT
 10
0.0
 20
0.0
 30
0.0
  9
$PUCSORGFRONT
 10
0.0
 20
0.0
 30
0.0
  9
$PUCSORGBACK
 10
0.0
 20
0.0
 30
0.0
  9
$USERI1
 70
     0
  9
$USERI2
 70
     0
  9
$USERI3
 70
     0
  9
$USERI4
 70
     0
  9
$USERI5
 70
     0
  9
$USERR1
 40
0.0
  9
$USERR2
 40
0.0
  9
$USERR3
 40
0.0
  9
$USERR4
 40
0.0
  9
$USERR5
 40
0.0
  9
$WORLDVIEW
 70
     1
  9
$SHADEDGE
 70
     3
  9
$SHADEDIF
 70
    70
  9
$TILEMODE
 70
     1
  9
$MAXACTVP
 70
    64
  9
$PINSBASE
 10
0.0
 20
0.0
 30
0.0
  9
$PLIMCHECK
 70
     0
  9
$PEXTMIN
 10
0.0
 20
0.0
 30
0.0
  9
$PEXTMAX
 10
1682.0
 20
2378.0
 30
0.0
  9
$PLIMMIN
 10
0.0
 20
0.0
  9
$PLIMMAX
 10
1682.0
 20
2378.0
  9
$UNITMODE
 70
     0
  9
$VISRETAIN
 70
     1
  9
$PLINEGEN
 70
     0
  9
$PSLTSCALE
 70
     1
  9
$TREEDEPTH
 70
  3020
  9
$CMLSTYLE
  2
Standard
  9
$CMLJUST
 70
     0
  9
$CMLSCALE
 40
20.0
  9
$PROXYGRAPHICS
 70
     1
  9
$MEASUREMENT
 70
     1
  9
$CELWEIGHT
370
    -1
  9
$ENDCAPS
280
     0
  9
$JOINSTYLE
280
     0
  9
$LWDISPLAY
290
     0
  9
$INSUNITS
 70
     4
  9
$HYPERLINKBASE
  1

  9
$STYLESHEET
  1

  9
$XEDIT
290
     1
  9
$CEPSNTYPE
380
     0
  9
$PSTYLEMODE
290
     1
  9
$FINGERPRINTGUID
  2
{6A127637-3295-4FAE-998D-D10E8EF9A6B7}
  9
$VERSIONGUID
  2
{FAEB1C32-E019-11D5-929B-00C0DF256EC4}
  9
$EXTNAMES
290
     1
  9
$PSVPSCALE
 40
0.0
  9
$OLESTARTUP
290
     0
  0
ENDSEC
  0
SECTION
  2
CLASSES
  0
CLASS
  1
ACDBDICTIONARYWDFLT
  2
AcDbDictionaryWithDefault
  3
ObjectDBX Classes
 90
        0
280
     0
281
     0
  0
CLASS
  1
VISUALSTYLE
  2
AcDbVisualStyle
  3
ObjectDBX Classes
 90
     4095
280
     0
281
     0
  0
CLASS
  1
SCALE
  2
AcDbScale
  3
ObjectDBX Classes
 90
     1153
280
     0
281
     0
  0
CLASS
  1
DICTIONARYVAR
  2
AcDbDictionaryVar
  3
ObjectDBX Classes
 90
        0
280
     0
281
     0
  0
CLASS
  1
ACDBPLACEHOLDER
  2
AcDbPlaceHolder
  3
ObjectDBX Classes
 90
        0
280
     0
281
     0
  0
CLASS
  1
LAYOUT
  2
AcDbLayout
  3
ObjectDBX Classes
 90
        0
280
     0
281
     0
  0
ENDSEC
  0
SECTION
  2
TABLES
  0
TABLE
  2
VPORT
  5
8
330
0
100
AcDbSymbolTable
 70
     1
  0
VPORT
  5
29
330
8
100
AcDbSymbolTableRecord
100
AcDbViewportTableRecord
  2
*Active
 70
     0
 10
0.0
 20
0.0
 11
1.0
 21
1.0
 12
344.1869158879
 22
148.5
 13
0.0
 23
0.0
 14
10.0
 24
10.0
 15
10.0
 25
10.0
 16
0.0
 26
0.0
 36
1.0
 17
0.0
 27
0.0
 37
0.0
 40
297.0
 41
1.9729729729
 42
50.0
 43
0.0
 44
0.0
 50
0.0
 51
0.0
 71
     0
 72
   100
 73
     1
 74
     3
 75
     0
 76
     0
 77
     0
 78
     0
281
     0
 65
     1
110
0.0
120
0.0
130
0.0
111
1.0
121
0.0
131
0.0
112
0.0
122
1.0
132
0.0
 79
     0
146
0.0
  0
ENDTAB
  0
TABLE
  2
LTYPE
  5
5
330
0
100
AcDbSymbolTable
 70
     2
  0
LTYPE
  5
14
330
5
100
AcDbSymbolTableRecord
100
AcDbLinetypeTableRecord
  2
ByBlock
 70
     0
  3

 72
    65
 73
     0
 40
0.0
  0
LTYPE
  5
15
330
5
100
AcDbSymbolTableRecord
100
AcDbLinetypeTableRecord
  2
ByLayer
 70
     0
  3

 72
    65
 73
     0
 40
0.0
  0
LTYPE
  5
16
330
5
100
AcDbSymbolTableRecord
100
AcDbLinetypeTableRecord
  2
Continuous
 70
     0
  3
Solid line
 72
    65
 73
     0
 40
0.0
  0
LTYPE
  5
60
330
5
100
AcDbSymbolTableRecord
100
AcDbLinetypeTableRecord
  2
CENTER2
 70
     0
  3
Center (.5x) ___ _ ___ _ ___ _ ___ _ ___ _ ___
 72
    65
 73
     4
 40
28.575
 49
19.05
 74
     4
 75
     0
340
0
 46
0.0
 50
0.0
 44
0.0
 45
0.0
 49
-3.175
 74
     4
 75
     0
340
0
 46
0.0
 50
0.0
 44
0.0
 45
0.0
 49
3.175
 74
     4
 75
     0
340
0
 46
0.0
 50
0.0
 44
0.0
 45
0.0
 49
-3.175
 74
     4
 75
     0
340
0
 46
0.0
 50
0.0
 44
0.0
 45
0.0
  0
ENDTAB
  0
TABLE
  2
LAYER
  5
2
330
0
100
AcDbSymbolTable
 70
    11
  0
LAYER
  5
10
330
2
100
AcDbSymbolTableRecord
100
AcDbLayerTableRecord
  2
0
 70
     0
 62
     7
  6
Continuous
370
    -3
390
F
  0
LAYER
  5
5D
330
2
100
AcDbSymbolTableRecord
100
AcDbLayerTableRecord
  2
Default
 70
     0
 62
     7
  6
Continuous
370
    -3
390
F
  0
LAYER
  5
77
330
2
100
AcDbSymbolTableRecord
100
AcDbLayerTableRecord
  2
$DDT_AUDIT_GENERATED_(77)
 70
     0
 62
     7
  6
Continuous
370
    -3
390
F
  0
LAYER
  5
99
330
2
100
AcDbSymbolTableRecord
100
AcDbLayerTableRecord
  2
02636038_GEHÄUSE
 70
     0
 62
     7
  6
Continuous
370
    -3
390
F
  0
LAYER
  5
AD
330
2
100
AcDbSymbolTableRecord
100
AcDbLayerTableRecord
  2
$DDT_AUDIT_GENERATED_(AD)
 70
     0
 62
     7
  6
Continuous
370
    -3
390
F
  0
LAYER
  5
332
330
2
100
AcDbSymbolTableRecord
100
AcDbLayerTableRecord
  2
$DDT_AUDIT_GENERATED_(332)
 70
     0
 62
     7
  6
Continuous
370
    -3
390
F
  0
LAYER
  5
335
330
2
100
AcDbSymbolTableRecord
100
AcDbLayerTableRecord
  2
$DDT_AUDIT_GENERATED_(335)
 70
     0
 62
     7
  6
Continuous
370
    -3
390
F
  0
LAYER
  5
35F
330
2
100
AcDbSymbolTableRecord
100
AcDbLayerTableRecord
  2
$DDT_AUDIT_GENERATED_(35F)
 70
     0
 62
     7
  6
Continuous
370
    -3
390
F
  0
LAYER
  5
361
330
2
100
AcDbSymbolTableRecord
100
AcDbLayerTableRecord
  2
DV1_Default
 70
     0
 62
     7
  6
Continuous
370
    -3
390
F
  0
LAYER
  5
3A5
330
2
100
AcDbSymbolTableRecord
100
AcDbLayerTableRecord
  2
$DDT_AUDIT_GENERATED_(3A5)
 70
     0
 62
     7
  6
Continuous
370
    -3
390
F
  0
LAYER
  5
3A8
330
2
100
AcDbSymbolTableRecord
100
AcDbLayerTableRecord
  2
$DDT_AUDIT_GENERATED_(3A8)
 70
     0
 62
     7
  6
Continuous
370
    -3
390
F
  0
ENDTAB
  0
TABLE
  2
STYLE
  5
3
330
0
100
AcDbSymbolTable
 70
     2
  0
STYLE
  5
11
330
3
100
AcDbSymbolTableRecord
100
AcDbTextStyleTableRecord
  2
Standard
 70
     0
 40
0.0
 41
1.0
 50
0.0
 71
     0
 42
2.5
  3
txt
  4

  0
STYLE
  5
3D5
330
3
100
AcDbSymbolTableRecord
100
AcDbTextStyleTableRecord
  2
SEACAD_seiso_ttf
 70
     0
 40
0.0
 41
1.0
 50
0.0
 71
     0
 42
0.2
  3
seiso.ttf
  4

  0
ENDTAB
  0
TABLE
  2
VIEW
  5
6
330
0
100
AcDbSymbolTable
 70
     0
  0
ENDTAB
  0
TABLE
  2
UCS
  5
7
330
0
100
AcDbSymbolTable
 70
     0
  0
ENDTAB
  0
TABLE
  2
APPID
  5
9
330
0
100
AcDbSymbolTable
 70
     1
  0
APPID
  5
12
330
9
100
AcDbSymbolTableRecord
100
AcDbRegAppTableRecord
  2
ACAD
 70
     0
  0
ENDTAB
  0
TABLE
  2
DIMSTYLE
  5
A
330
0
100
AcDbSymbolTable
 70
     1
100
AcDbDimStyleTable
  0
DIMSTYLE
105
27
330
A
100
AcDbSymbolTableRecord
100
AcDbDimStyleTableRecord
  2
ISO-25
 70
     0
 41
2.5
 42
0.625
 43
3.75
 44
1.25
 73
     0
 74
     0
 77
     1
 78
     8
140
2.5
141
2.5
143
0.0393700787
147
0.625
171
     3
172
     1
271
     2
272
     2
274
     3
278
    44
283
     0
284
     8
340
11
  0
ENDTAB
  0
TABLE
  2
BLOCK_RECORD
  5
1
330
0
100
AcDbSymbolTable
 70
     7
  0
BLOCK_RECORD
  5
1F
330
1
100
AcDbSymbolTableRecord
100
AcDbBlockTableRecord
  2
*Model_Space
340
22
  0
BLOCK_RECORD
  5
1B
330
1
100
AcDbSymbolTableRecord
100
AcDbBlockTableRecord
  2
*Paper_Space
340
1E
  0
BLOCK_RECORD
  5
5E
330
1
100
AcDbSymbolTableRecord
100
AcDbBlockTableRecord
  2
SEANNOT_GROUP
340
0
102
{BLKREFS
331
5F
102
}
  0
BLOCK_RECORD
  5
65
330
1
100
AcDbSymbolTableRecord
100
AcDbBlockTableRecord
  2
SEANNOT_GROUP1
340
0
102
{BLKREFS
331
66
102
}
  0
BLOCK_RECORD
  5
6B
330
1
100
AcDbSymbolTableRecord
100
AcDbBlockTableRecord
  2
SEANNOT_GROUP2
340
0
102
{BLKREFS
331
6C
102
}
  0
BLOCK_RECORD
  5
75
330
1
100
AcDbSymbolTableRecord
100
AcDbBlockTableRecord
  2
SE
340
0
102
{BLKREFS
331
76
102
}
  0
BLOCK_RECORD
  5
365
330
1
100
AcDbSymbolTableRecord
100
AcDbBlockTableRecord
  2
SE1
340
0
102
{BLKREFS
331
366
102
}
  0
BLOCK_RECORD
  5
3B1
330
1
100
AcDbSymbolTableRecord
100
AcDbBlockTableRecord
  2
SE2
340
0
102
{BLKREFS
331
3B2
102
}
  0
ENDTAB
  0
ENDSEC
  0
SECTION
  2
BLOCKS
  0
BLOCK
  5
20
330
1F
100
AcDbEntity
  8
0
100
AcDbBlockBegin
  2
*Model_Space
 70
     0
 10
0.0
 20
0.0
 30
0.0
  3
*Model_Space
  1

  0
ENDBLK
  5
21
330
1F
100
AcDbEntity
  8
0
100
AcDbBlockEnd
  0
BLOCK
  5
1C
330
1B
100
AcDbEntity
 67
     1
  8
0
100
AcDbBlockBegin
  2
*Paper_Space
 70
     0
 10
0.0
 20
0.0
 30
0.0
  3
*Paper_Space
  1

  0
ENDBLK
  5
1D
330
1B
100
AcDbEntity
 67
     1
  8
0
100
AcDbBlockEnd
  0
BLOCK
  5
63
330
5E
100
AcDbEntity
  8
0
100
AcDbBlockBegin
  2
SEANNOT_GROUP
 70
     0
 10
0.0
 20
0.0
 30
0.0
  3
SEANNOT_GROUP
  1

  0
LINE
  5
61
330
5E
100
AcDbEntity
  8
Default
  6
CENTER2
 62
     7
100
AcDbLine
 10
89.942963492
 20
383.5841276076
 30
0.0
 11
49.9429643861
 21
383.5841276076
 31
0.0
  0
LINE
  5
62
330
5E
100
AcDbEntity
  8
Default
  6
CENTER2
 62
     7
100
AcDbLine
 10
69.9429639391
 20
403.5841271606
 30
0.0
 11
69.9429639391
 21
363.5841280547
 31
0.0
  0
ENDBLK
  5
64
330
5E
100
AcDbEntity
  8
0
100
AcDbBlockEnd
  0
BLOCK
  5
69
330
65
100
AcDbEntity
  8
0
100
AcDbBlockBegin
  2
SEANNOT_GROUP1
 70
     0
 10
0.0
 20
0.0
 30
0.0
  3
SEANNOT_GROUP1
  1

  0
LINE
  5
67
330
65
100
AcDbEntity
  8
Default
  6
CENTER2
 62
     7
100
AcDbLine
 10
274.6819665898
 20
383.5841276076
 30
0.0
 11
234.6819674839
 21
383.5841276076
 31
0.0
  0
LINE
  5
68
330
65
100
AcDbEntity
  8
Default
  6
CENTER2
 62
     7
100
AcDbLine
 10
254.6819670369
 20
403.5841271606
 30
0.0
 11
254.6819670369
 21
363.5841280547
 31
0.0
  0
ENDBLK
  5
6A
330
65
100
AcDbEntity
  8
0
100
AcDbBlockEnd
  0
BLOCK
  5
73
330
6B
100
AcDbEntity
  8
0
100
AcDbBlockBegin
  2
SEANNOT_GROUP2
 70
     0
 10
0.0
 20
0.0
 30
0.0
  3
SEANNOT_GROUP2
  1

  0
LINE
  5
6D
330
6B
100
AcDbEntity
  8
Default
  6
CENTER2
 62
     7
100
AcDbLine
 10
89.942963492
 20
226.868457121
 30
0.0
 11
49.9429643861
 21
226.868457121
 31
0.0
  0
LINE
  5
6E
330
6B
100
AcDbEntity
  8
Default
  6
CENTER2
 62
     7
100
AcDbLine
 10
69.9429639391
 20
246.868456674
 30
0.0
 11
69.9429639391
 21
206.8684575681
 31
0.0
  0
LINE
  5
6F
330
6B
100
AcDbEntity
  8
Default
  6
CENTER2
 62
     7
100
AcDbLine
 10
94.9429633803
 20
226.868457121
 30
0.0
 11
96.6406900367
 21
226.868457121
 31
0.0
  0
LINE
  5
70
330
6B
100
AcDbEntity
  8
Default
  6
CENTER2
 62
     7
100
AcDbLine
 10
69.9429639391
 20
251.8684565622
 30
0.0
 11
69.9429639391
 21
253.5661832186
 31
0.0
  0
LINE
  5
71
330
6B
100
AcDbEntity
  8
Default
  6
CENTER2
 62
     7
100
AcDbLine
 10
44.9429644979
 20
226.868457121
 30
0.0
 11
43.2452378415
 21
226.868457121
 31
0.0
  0
LINE
  5
72
330
6B
100
AcDbEntity
  8
Default
  6
CENTER2
 62
     7
100
AcDbLine
 10
69.9429639391
 20
201.8684576798
 30
0.0
 11
69.9429639391
 21
200.1707310234
 31
0.0
  0
ENDBLK
  5
74
330
6B
100
AcDbEntity
  8
0
100
AcDbBlockEnd
  0
BLOCK
  5
363
330
75
100
AcDbEntity
  8
0
100
AcDbBlockBegin
  2
SE
 70
     0
 10
0.0
 20
0.0
 30
0.0
  3
SE
  1

  0
LINE
  5
78
330
75
100
AcDbEntity
  8
$DDT_AUDIT_GENERATED_(77)
  6
Continuous
 62
     7
100
AcDbLine
 10
69.9429639391
 20
383.5841276076
 30
0.0
 11
95.9439156875
 21
383.5841276076
 31
0.0
  0
SPLINE
  5
79
330
75
100
AcDbEntity
  8
$DDT_AUDIT_GENERATED_(77)
  6
Continuous
 62
     7
100
AcDbSpline
210
0.0
220
0.0
230
1.0
 70
     8
 71
     3
 72
    12
 73
     8
 74
     0
 42
0.0000000006561678
 43
0.0000000001
 40
0.0
 40
0.0
 40
0.0
 40
0.0
 40
0.2500000000000001
 40
0.2500000000000001
 40
0.5000000000000002
 40
0.5000000000000002
 40
1.0
 40
1.0
 40
1.0
 40
1.0
 10
85.75769534083524
 20
449.0686505253354
 30
0.0
 10
86.236702899819
 20
450.9351228205725
 30
0.0
 10
86.73359829985026
 20
452.6204223151196
 30
0.0
 10
87.83510316111884
 20
455.591920719066
 30
0.0
 10
88.44031376079039
 20
456.8776615374944
 30
0.0
 10
90.36542551500521
 20
460.1171906597075
 30
0.0
 10
91.759627228054
 20
461.4399090051818
 30
0.0
 10
92.90122917693111
 20
462.0092284464146
 30
0.0
  0
ELLIPSE
  5
7A
330
75
100
AcDbEntity
  8
$DDT_AUDIT_GENERATED_(77)
  6
Continuous
 62
     7
100
AcDbEllipse
 10
85.3061753747
 20
447.2083010423
 30
0.0
 11
-1.939978433598865
 21
0.4862958741047446
 31
0.0
210
0.0
220
0.0
230
1.0
 40
0.9571772525
 41
3.297591596689249
 42
4.719574362544205
  0
ARC
  5
7B
330
75
100
AcDbEntity
  8
$DDT_AUDIT_GENERATED_(77)
  6
Continuous
 62
     7
100
AcDbCircle
 10
68.94565514
 20
446.9153952633
 30
0.0
 40
18.34953810137793
100
AcDbArc
 50
352.4917282041
 51
0.3154221645
  0
ARC
  5
7C
330
75
100
AcDbEntity
  8
$DDT_AUDIT_GENERATED_(77)
  6
Continuous
 62
     7
100
AcDbCircle
 10
68.94565514
 20
446.9153952633
 30
0.0
 40
18.34953810137793
100
AcDbArc
 50
342.3792077197
 51
352.4917282041
  0
SPLINE
  5
7D
330
75
100
AcDbEntity
  8
$DDT_AUDIT_GENERATED_(77)
  6
Continuous
 62
     7
100
AcDbSpline
210
0.0
220
0.0
230
1.0
 70
     8
 71
     3
 72
    14
 73
    10
 74
     0
 42
0.0000000006088644
 43
0.0000000001
 40
0.0
 40
0.0
 40
0.0
 40
0.0
 40
0.2499999999999999
 40
0.2499999999999999
 40
0.4999999999999998
 40
0.4999999999999998
 40
0.7499999999999999
 40
0.7499999999999999
 40
1.0
 40
1.0
 40
1.0
 40
1.0
 10
95.43499536569459
 20
460.4424423231889
 30
0.0
 10
94.88794036139525
 20
460.4143298714489
 30
0.0
 10
94.23746293094248
 20
460.121155488862
 30
0.0
 10
92.80310788519283
 20
458.9806576580553
 30
0.0
 10
92.0208479180681
 20
458.1333403071078
 30
0.0
 10
90.49024537173126
 20
455.8824767112803
 30
0.0
 10
89.74942137926047
 20
454.4774780766307
 30
0.0
 10
88.42757123471051
 20
451.1324186421546
 30
0.0
 10
87.8473043091606
 20
449.1925140305325
 30
0.0
 10
87.29491518480958
 20
447.0164118100514
 30
0.0
  0
SPLINE
  5
7E
330
75
100
AcDbEntity
  8
$DDT_AUDIT_GENERATED_(77)
  6
Continuous
 62
     7
100
AcDbSpline
210
0.0
220
0.0
230
1.0
 70
     8
 71
     3
 72
    21
 73
    17
 74
     0
 42
0.0000000032580555
 43
0.0000000001
 40
0.0
 40
0.0
 40
0.0
 40
0.0
 40
0.0234032418686364
 40
0.0652167655100647
 40
0.1033602719009461
 40
0.1827890259639638
 40
0.323773261935812
 40
0.4430440730830866
 40
0.5412808297592828
 40
0.6235527114624799
 40
0.6615975028784326
 40
0.7006794766625977
 40
0.7444358453392957
 40
0.7981865960387635
 40
0.8740911665337511
 40
1.0
 40
1.0
 40
1.0
 40
1.0
 10
95.43499536569459
 20
460.4424423231889
 30
0.0
 10
95.42653103025609
 20
460.4604120696641
 30
0.0
 10
95.40294384594246
 20
460.5104875570145
 30
0.0
 10
95.36349509190904
 20
460.5458932599159
 30
0.0
 10
95.3017965499305
 20
460.6004500936371
 30
0.0
 10
95.19831842440706
 20
460.6709722760837
 30
0.0
 10
95.05388163534977
 20
460.7602128319697
 30
0.0
 10
94.88257940894792
 20
460.876887958555
 30
0.0
 10
94.70976179267933
 20
461.0239289680605
 30
0.0
 10
94.53706094101427
 20
461.2007950336332
 30
0.0
 10
94.35948009471537
 20
461.3778521812091
 30
0.0
 10
94.19612458086044
 20
461.5247228632115
 30
0.0
 10
93.98525665678937
 20
461.6822252998888
 30
0.0
 10
93.70415742955812
 20
461.8389539086494
 30
0.0
 10
93.3223875121395
 20
461.9711346324315
 30
0.0
 10
93.06303557465048
 20
461.9945930413882
 30
0.0
 10
92.90122917693111
 20
462.0092284464146
 30
0.0
  0
ARC
  5
7F
330
75
100
AcDbEntity
  8
$DDT_AUDIT_GENERATED_(77)
  6
Continuous
 62
     7
100
AcDbCircle
 10
69.7920360229
 20
366.6005117783
 30
0.0
 40
98.16749983823405
100
AcDbArc
 50
76.3844589162
 51
89.9119103978
  0
SPLINE
  5
80
330
75
100
AcDbEntity
  8
$DDT_AUDIT_GENERATED_(77)
  6
Continuous
 62
     7
100
AcDbSpline
210
0.0
220
0.0
230
1.0
 70
     8
 71
     3
 72
     8
 73
     4
 74
     0
 42
0.0000000013992336
 43
0.0000000001
 40
0.0
 40
0.0
 40
0.0
 40
0.0
 40
0.0007245915420216
 40
0.0007245915420216
 40
0.0007245915420216
 40
0.0007245915420216
 10
95.94389830295647
 20
482.4510606624927
 30
0.0
 10
95.94390988917581
 20
482.449334510023
 30
0.0
 10
95.9439156446721
 20
482.4476083626845
 30
0.0
 10
95.9439155721166
 20
482.4458822221462
 30
0.0
  0
SPLINE
  5
81
330
75
100
AcDbEntity
  8
$DDT_AUDIT_GENERATED_(77)
  6
Continuous
 62
     7
100
AcDbSpline
210
0.0
220
0.0
230
1.0
 70
     8
 71
     3
 72
    28
 73
    24
 74
     0
 42
0.0000000001636276
 43
0.0000000001
 40
0.0
 40
0.0
 40
0.0
 40
0.0
 40
0.0151278398972448
 40
0.0302557197081495
 40
0.0454539381008306
 40
0.0607895824048108
 40
0.0885387601428846
 40
0.1200266224710087
 40
0.178287771775545
 40
0.2366761509100997
 40
0.2959908367017406
 40
0.3562735174384409
 40
0.4809219785094998
 40
0.6096307324399287
 40
0.7405052320757514
 40
0.8062839072688023
 40
0.8391301720626241
 40
0.8716991633155318
 40
0.9038416857123083
 40
0.9357767772904874
 40
0.967742513876913
 40
0.9833279074126194
 40
1.0
 40
1.0
 40
1.0
 40
1.0
 10
69.94296394043498
 20
410.5492810462512
 30
0.0
 10
70.26769213225303
 20
410.5561066840513
 30
0.0
 10
70.91714937543892
 20
410.5697578983652
 30
0.0
 10
71.88694534354373
 20
410.6797257540201
 30
0.0
 10
72.84964163590845
 20
410.8543785854319
 30
0.0
 10
74.0569458947082
 20
411.1645217191586
 30
0.0
 10
75.55408467358842
 20
411.706317647689
 30
0.0
 10
77.78379777934269
 20
412.8163753798356
 30
0.0
 10
80.3318777024667
 20
414.6050461332794
 30
0.0
 10
82.94916785447988
 20
417.1163076679148
 30
0.0
 10
85.23122643915373
 20
419.912101171652
 30
0.0
 10
87.91625209744514
 20
423.9862849946393
 30
0.0
 10
90.59783867611532
 20
429.5712632280188
 30
0.0
 10
92.90248714218619
 20
436.7498709180578
 30
0.0
 10
94.19738336995961
 20
443.0398181319207
 30
0.0
 10
94.8209649935529
 20
447.6114807628533
 30
0.0
 10
95.09681398383387
 20
450.2825307868449
 30
0.0
 10
95.26066802709099
 20
452.3066767769678
 30
0.0
 10
95.37957478275217
 20
454.3539363134248
 30
0.0
 10
95.44957582953941
 20
456.4216836202447
 30
0.0
 10
95.46429866728975
 20
458.1188050963021
 30
0.0
 10
95.4546012147613
 20
459.4527048432884
 30
0.0
 10
95.44167579376098
 20
460.105202654731
 30
0.0
 10
95.43499536569459
 20
460.4424423231889
 30
0.0
  0
ARC
  5
82
330
75
100
AcDbEntity
  8
$DDT_AUDIT_GENERATED_(77)
  6
Continuous
 62
     7
100
AcDbCircle
 10
69.9130335149
 20
-104.6957808525
 30
0.0
 40
553.9910637975829
100
AcDbArc
 50
88.3610636973
 51
89.9969044862
  0
LINE
  5
83
330
75
100
AcDbEntity
  8
$DDT_AUDIT_GENERATED_(77)
  6
Continuous
 62
     7
100
AcDbLine
 10
43.9420121906
 20
383.5841276076
 30
0.0
 11
69.9429639391
 21
383.5841276076
 31
0.0
  0
SPLINE
  5
84
330
75
100
AcDbEntity
  8
$DDT_AUDIT_GENERATED_(77)
  6
Continuous
 62
     7
100
AcDbSpline
210
0.0
220
0.0
230
1.0
 70
     8
 71
     3
 72
    12
 73
     8
 74
     0
 42
0.0000000006561678
 43
0.0000000001
 40
0.0
 40
0.0
 40
0.0
 40
0.0
 40
0.2500000000000001
 40
0.2500000000000001
 40
0.5000000000000002
 40
0.5000000000000002
 40
1.0
 40
1.0
 40
1.0
 40
1.0
 10
54.12823253730438
 20
449.0686505253354
 30
0.0
 10
53.64922497832062
 20
450.9351228205725
 30
0.0
 10
53.15232957828939
 20
452.6204223151196
 30
0.0
 10
52.05082471702079
 20
455.591920719066
 30
0.0
 10
51.44561411734923
 20
456.8776615374944
 30
0.0
 10
49.52050236313441
 20
460.1171906597075
 30
0.0
 10
48.12630065008562
 20
461.4399090051818
 30
0.0
 10
46.98469870120852
 20
462.0092284464146
 30
0.0
  0
ARC
  5
85
330
75
100
AcDbEntity
  8
$DDT_AUDIT_GENERATED_(77)
  6
Continuous
 62
     7
100
AcDbCircle
 10
70.9402727381
 20
446.9153952633
 30
0.0
 40
18.34953810138295
100
AcDbArc
 50
179.6845778355
 51
187.5893155254
  0
ARC
  5
86
330
75
100
AcDbEntity
  8
$DDT_AUDIT_GENERATED_(77)
  6
Continuous
 62
     7
100
AcDbCircle
 10
70.9402727381
 20
446.9153952633
 30
0.0
 40
18.34953810138295
100
AcDbArc
 50
187.5893155254
 51
197.6246244219
  0
ELLIPSE
  5
87
330
75
100
AcDbEntity
  8
$DDT_AUDIT_GENERATED_(77)
  6
Continuous
 62
     7
100
AcDbEllipse
 10
54.5797525035
 20
447.2083010423
 30
0.0
 11
1.939978433598865
 21
0.4862958741047446
 31
0.0
210
0.0
220
0.0
230
1.0
 40
0.9571772525
 41
1.563610944635371
 42
2.985593710490337
  0
ARC
  5
88
330
75
100
AcDbEntity
  8
$DDT_AUDIT_GENERATED_(77)
  6
Continuous
 62
     7
100
AcDbCircle
 10
69.9728943633
 20
-104.6957808525
 30
0.0
 40
553.9910637975537
100
AcDbArc
 50
90.0030955138
 51
91.6389363027
  0
ARC
  5
89
330
75
100
AcDbEntity
  8
$DDT_AUDIT_GENERATED_(77)
  6
Continuous
 62
     7
100
AcDbCircle
 10
70.117212502
 20
366.4064319683
 30
0.0
 40
98.3616179674873
100
AcDbArc
 50
90.1015000838
 51
103.6021306022
  0
SPLINE
  5
8A
330
75
100
AcDbEntity
  8
$DDT_AUDIT_GENERATED_(77)
  6
Continuous
 62
     7
100
AcDbSpline
210
0.0
220
0.0
230
1.0
 70
    12
 71
     3
 72
    46
 73
    42
 74
     0
 42
0.0000000032642369
 43
0.0000000001
 40
0.0
 40
0.0
 40
0.0
 40
0.0
 40
0.0078125
 40
0.0078125
 40
0.015625
 40
0.015625
 40
0.03125
 40
0.03125
 40
0.046875
 40
0.046875
 40
0.0625
 40
0.0625
 40
0.09375
 40
0.09375
 40
0.125
 40
0.125
 40
0.1875
 40
0.1875
 40
0.25
 40
0.25
 40
0.375
 40
0.375
 40
0.5
 40
0.5
 40
0.625
 40
0.625
 40
0.6875
 40
0.6875
 40
0.75
 40
0.75
 40
0.8125
 40
0.8125
 40
0.8750000000000001
 40
0.8750000000000001
 40
0.90625
 40
0.90625
 40
0.9375
 40
0.9375
 40
0.9687500000000001
 40
0.9687500000000001
 40
1.0
 40
1.0
 40
1.0
 40
1.0
 10
44.45093251244504
 20
460.4424423231889
 30
0.0
 41
1.0
 10
44.45571381941048
 20
460.457863001408
 30
0.0
 41
1.0
 10
44.46185339290147
 20
460.4696353956404
 30
0.0
 41
1.0
 10
44.47393359822462
 20
460.4898957150929
 30
0.0
 41
1.0
 10
44.47978809860017
 20
460.4979768837449
 30
0.0
 41
1.0
 10
44.49649054208296
 20
460.5194175373605
 30
0.0
 41
1.0
 10
44.50655827190501
 20
460.5299997891008
 30
0.0
 41
1.0
 10
44.52542706253588
 20
460.5487890710414
 30
0.0
 41
1.0
 10
44.53431044234154
 20
460.5568794657618
 30
0.0
 41
1.0
 10
44.55161856478793
 20
460.5719396326315
 30
0.0
 41
1.0
 10
44.56003415060434
 20
460.5788720175993
 30
0.0
 41
1.0
 10
44.58486769274462
 20
460.5986294920571
 30
0.0
 41
1.0
 10
44.60087655747859
 20
460.610434277094
 30
0.0
 41
1.0
 10
44.63255027511449
 20
460.6329327907421
 30
0.0
 41
1.0
 10
44.6481808439959
 20
460.6435727964434
 30
0.0
 41
1.0
 10
44.69470672805794
 20
460.674540953929
 30
0.0
 41
1.0
 10
44.72528632830587
 20
460.6939633520263
 30
0.0
 41
1.0
 10
44.78575074111593
 20
460.7323828643493
 30
0.0
 41
1.0
 10
44.81568243284179
 20
460.7513721163101
 30
0.0
 41
1.0
 10
44.90453114871107
 20
460.809383723194
 30
0.0
 41
1.0
 10
44.96215740224395
 20
460.8493701365589
 30
0.0
 41
1.0
 10
45.07754416213777
 20
460.9396848570765
 30
0.0
 41
1.0
 10
45.1351455188832
 20
460.9899663201757
 30
0.0
 41
1.0
 10
45.25844534274026
 20
461.1076365987775
 30
0.0
 41
1.0
 10
45.32426426391368
 20
461.1752914461523
 30
0.0
 41
1.0
 10
45.44092039741787
 20
461.2926778024592
 30
0.0
 41
1.0
 10
45.48290951900369
 20
461.3344390151993
 30
0.0
 41
1.0
 10
45.57658106054957
 20
461.422872090509
 30
0.0
 41
1.0
 10
45.62826012624078
 20
461.4695676307915
 30
0.0
 41
1.0
 10
45.745810313733
 20
461.5662379595236
 30
0.0
 41
1.0
 10
45.81174457331609
 20
461.6162465284161
 30
0.0
 41
1.0
 10
45.96176998248004
 20
461.7153637988869
 30
0.0
 41
1.0
 10
46.04588781921571
 20
461.7645227024701
 30
0.0
 41
1.0
 10
46.19159460602944
 20
461.8332142377449
 30
0.0
 41
1.0
 10
46.24341950711348
 20
461.855251407436
 30
0.0
 41
1.0
 10
46.35573787110218
 20
461.8967414974963
 30
0.0
 41
1.0
 10
46.41615100488458
 20
461.9161951523695
 30
0.0
 41
1.0
 10
46.54961618004269
 20
461.9514540382089
 30
0.0
 41
1.0
 10
46.62220328526423
 20
461.9672093266601
 30
0.0
 41
1.0
 10
46.78567285737403
 20
461.9931786729096
 30
0.0
 41
1.0
 10
46.87649954493212
 20
462.0035344925385
 30
0.0
 41
1.0
 10
46.98469870120852
 20
462.0092284464146
 30
0.0
 41
1.0
  0
SPLINE
  5
8B
330
75
100
AcDbEntity
  8
$DDT_AUDIT_GENERATED_(77)
  6
Continuous
 62
     7
100
AcDbSpline
210
0.0
220
0.0
230
1.0
 70
    12
 71
     3
 72
    58
 73
    54
 74
     0
 42
0.000000000163817
 43
0.0000000001
 40
0.0
 40
0.0
 40
0.0
 40
0.0
 40
0.0073722954451876
 40
0.0073722954451876
 40
0.0151882616227847
 40
0.0151882616227847
 40
0.0308201939779788
 40
0.0308201939779788
 40
0.0464521263331726
 40
0.0464521263331726
 40
0.0542680925107692
 40
0.0542680925107692
 40
0.0620840586883663
 40
0.0620840586883663
 40
0.0933479233987546
 40
0.0933479233987546
 40
0.124611788109142
 40
0.124611788109142
 40
0.1402437204643362
 40
0.1402437204643362
 40
0.1558756528195303
 40
0.1558756528195303
 40
0.1871395175299178
 40
0.1871395175299178
 40
0.2184033822403054
 40
0.2184033822403054
 40
0.2496672469506933
 40
0.2496672469506933
 40
0.3121949763714689
 40
0.3121949763714689
 40
0.3747227057922444
 40
0.3747227057922444
 40
0.4372504352130199
 40
0.4372504352130199
 40
0.4997781646337955
 40
0.4997781646337955
 40
0.562305894054571
 40
0.562305894054571
 40
0.6248336234753465
 40
0.6248336234753465
 40
0.6873613528961223
 40
0.6873613528961223
 40
0.7498890823168979
 40
0.7498890823168979
 40
0.8124168117376735
 40
0.8124168117376735
 40
0.8749445411584493
 40
0.8749445411584493
 40
0.9374722705792251
 40
0.9374722705792251
 40
0.9687361352896126
 40
0.9687361352896126
 40
1.0
 40
1.0
 40
1.0
 40
1.0
 10
69.94296394043498
 20
410.5492810462512
 30
0.0
 41
1.0
 10
69.7858482961684
 20
410.5492881782561
 30
0.0
 41
1.0
 10
69.62765419473303
 20
410.5520406225344
 30
0.0
 41
1.0
 10
69.30416353031801
 20
410.5633413050264
 30
0.0
 41
1.0
 10
69.13855765564858
 20
410.5722129151269
 30
0.0
 41
1.0
 10
68.64435838742985
 20
410.6078152192619
 30
0.0
 41
1.0
 10
68.31826524775916
 20
410.6435032214555
 30
0.0
 41
1.0
 10
67.67193539492331
 20
410.7380242833927
 30
0.0
 41
1.0
 10
67.35193437314518
 20
410.796774710155
 30
0.0
 41
1.0
 10
66.87547073721171
 20
410.901577621004
 30
0.0
 41
1.0
 10
66.71726461480803
 20
410.9392943949271
 30
0.0
 41
1.0
 10
66.40204574866436
 20
411.0202309313842
 30
0.0
 41
1.0
 10
66.24480717474242
 20
411.0635361514558
 30
0.0
 41
1.0
 10
65.46880233355542
 20
411.2912393797898
 30
0.0
 41
1.0
 10
64.87506064693727
 20
411.5099362537073
 30
0.0
 41
1.0
 10
63.72524467856326
 20
412.0081104765803
 30
0.0
 41
1.0
 10
63.17017440822095
 20
412.287154723892
 30
0.0
 41
1.0
 10
62.35963233554718
 20
412.7451082144528
 30
0.0
 41
1.0
 10
62.09352428114082
 20
412.9042523877382
 30
0.0
 41
1.0
 10
61.57352806662384
 20
413.2316262116613
 30
0.0
 41
1.0
 10
61.31896391493549
 20
413.4002234169232
 30
0.0
 41
1.0
 10
60.56923239145139
 20
413.9203442816008
 30
0.0
 41
1.0
 10
60.08859973012581
 20
414.2857408015456
 30
0.0
 41
1.0
 10
59.15929156087111
 20
415.0491408333518
 30
0.0
 41
1.0
 10
58.71088796787378
 20
415.4470635817869
 30
0.0
 41
1.0
 10
57.84106321313033
 20
416.2733282684044
 30
0.0
 41
1.0
 10
57.41945389671384
 20
416.7019219314498
 30
0.0
 41
1.0
 10
56.19104663964714
 20
418.030244789125
 30
0.0
 41
1.0
 10
55.43198710074012
 20
418.9593955411077
 30
0.0
 41
1.0
 10
54.00981451283721
 20
420.8916251242227
 30
0.0
 41
1.0
 10
53.34666465445975
 20
421.8954735267943
 30
0.0
 41
1.0
 10
52.1038714618316
 20
423.974033053772
 30
0.0
 41
1.0
 10
51.52474088538879
 20
425.0481390451276
 30
0.0
 41
1.0
 10
50.44497429572341
 20
427.2562379374281
 30
0.0
 41
1.0
 10
49.94428975407196
 20
428.3903242890768
 30
0.0
 41
1.0
 10
49.01430172481278
 20
430.7150462184187
 30
0.0
 41
1.0
 10
48.58837004293639
 20
431.8972718576424
 30
0.0
 41
1.0
 10
47.80614305998779
 20
434.2978284274627
 30
0.0
 41
1.0
 10
47.44985078276655
 20
435.5161258658249
 30
0.0
 41
1.0
 10
46.80060474279496
 20
437.9855432955762
 30
0.0
 41
1.0
 10
46.50755700086464
 20
439.2370871751453
 30
0.0
 41
1.0
 10
45.98024363070434
 20
441.7706185223362
 30
0.0
 41
1.0
 10
45.74596180586387
 20
443.0526891815526
 30
0.0
 41
1.0
 10
45.33294445906334
 20
445.6462583372418
 30
0.0
 41
1.0
 10
45.15412917545623
 20
446.9575527845357
 30
0.0
 41
1.0
 10
44.85075389529447
 20
449.6160006906529
 30
0.0
 41
1.0
 10
44.7259904898943
 20
450.9664287803217
 30
0.0
 41
1.0
 10
44.5378241670048
 20
453.6788749078262
 30
0.0
 41
1.0
 10
44.47441300889187
 20
455.0446234247344
 30
0.0
 41
1.0
 10
44.43036932523697
 20
457.1049586581008
 30
0.0
 41
1.0
 10
44.42434499911152
 20
457.7855794113004
 30
0.0
 41
1.0
 10
44.42729517940154
 20
459.126521875269
 30
0.0
 41
1.0
 10
44.43618465016793
 20
459.7881010144156
 30
0.0
 41
1.0
 10
44.45093251244504
 20
460.4424423231889
 30
0.0
 41
1.0
  0
SPLINE
  5
8C
330
75
100
AcDbEntity
  8
$DDT_AUDIT_GENERATED_(77)
  6
Continuous
 62
     7
100
AcDbSpline
210
0.0
220
0.0
230
1.0
 70
     8
 71
     3
 72
     8
 73
     4
 74
     0
 42
0.0000000013992325
 43
0.0000000001
 40
0.0
 40
0.0
 40
0.0
 40
0.0
 40
0.0007245915727371
 40
0.0007245915727371
 40
0.0007245915727371
 40
0.0007245915727371
 10
43.94202957518316
 20
482.4510606624927
 30
0.0
 10
43.94201800059773
 20
482.4493345085231
 30
0.0
 10
43.94201225660098
 20
482.4476083597011
 30
0.0
 10
43.94201234052279
 20
482.4458822176958
 30
0.0
  0
SPLINE
  5
8D
330
75
100
AcDbEntity
  8
$DDT_AUDIT_GENERATED_(77)
  6
Continuous
 62
     7
100
AcDbSpline
210
0.0
220
0.0
230
1.0
 70
     8
 71
     3
 72
    18
 73
    14
 74
     0
 42
0.0000000003596652
 43
0.0000000001
 40
0.4156429888099027
 40
0.4156429888099027
 40
0.4156429888099027
 40
0.4156429888099027
 40
0.4999999999999985
 40
0.4999999999999985
 40
0.5624999999999987
 40
0.5624999999999987
 40
0.624999999999999
 40
0.624999999999999
 40
0.7499999999999993
 40
0.7499999999999993
 40
0.8749999999999997
 40
0.8749999999999997
 40
1.0
 40
1.0
 40
1.0
 40
1.0
 10
58.12745980984138
 20
436.0319359673721
 30
0.0
 10
57.84291521776002
 20
436.610230083876
 30
0.0
 10
57.6944174855718
 20
437.1881912978185
 30
0.0
 10
57.69190598849349
 20
438.1420970813912
 30
0.0
 10
57.77132819347974
 20
438.5400942729878
 30
0.0
 10
58.08369705386411
 20
439.2817729444375
 30
0.0
 10
58.31510792430132
 20
439.6287798653541
 30
0.0
 10
59.23715508132111
 20
440.6046142648448
 30
0.0
 10
60.13693780205562
 20
441.1450792349114
 30
0.0
 10
62.4124862232221
 20
442.0075609742934
 30
0.0
 10
63.76116192195709
 20
442.3202892496134
 30
0.0
 10
66.72117621957626
 20
442.7367492386053
 30
0.0
 10
68.31990872334428
 20
442.8394299164307
 30
0.0
 10
69.94296393906981
 20
442.8394299164307
 30
0.0
  0
SPLINE
  5
8E
330
75
100
AcDbEntity
  8
$DDT_AUDIT_GENERATED_(77)
  6
Continuous
 62
     7
100
AcDbSpline
210
0.0
220
0.0
230
1.0
 70
     8
 71
     3
 72
    18
 73
    14
 74
     0
 42
0.0000000003591282
 43
0.0000000001
 40
0.0
 40
0.0
 40
0.0
 40
0.0
 40
0.125
 40
0.125
 40
0.25
 40
0.25
 40
0.375
 40
0.375
 40
0.5
 40
0.5
 40
0.5625
 40
0.5625
 40
0.5845785404385931
 40
0.5845785404385931
 40
0.5845785404385931
 40
0.5845785404385931
 10
69.94296393906981
 20
442.8394299164307
 30
0.0
 10
71.5660212921952
 20
442.8394299164307
 30
0.0
 10
73.15832658164081
 20
442.7374352645112
 30
0.0
 10
76.12340209467233
 20
442.320698518603
 30
0.0
 10
77.47984235956564
 20
442.0046149077509
 30
0.0
 10
79.73360220468064
 20
441.1514295604304
 30
0.0
 10
80.64581085516262
 20
440.6050428468487
 30
0.0
 10
81.86895694831097
 20
439.3159304714163
 30
0.0
 10
82.1924682131497
 20
438.557859390936
 30
0.0
 10
82.19321092482156
 20
437.3405608211074
 30
0.0
 10
82.11294978991005
 20
436.9137515589691
 30
0.0
 10
81.90068010431574
 20
436.3375483185355
 30
0.0
 10
81.83589841467607
 20
436.1869104824194
 30
0.0
 10
81.7617178159162
 20
436.0361441845392
 30
0.0
  0
ELLIPSE
  5
8F
330
75
100
AcDbEntity
  8
$DDT_AUDIT_GENERATED_(77)
  6
Continuous
 62
     7
100
AcDbEllipse
 10
69.9429639391
 20
439.0841276076
 30
0.0
 11
-12.25
 21
0.0
 31
0.0
210
0.0
220
0.0
230
1.0
 40
0.5
 41
2.869703602814838
 42
3.0405011437407
  0
ELLIPSE
  5
90
330
75
100
AcDbEntity
  8
$DDT_AUDIT_GENERATED_(77)
  6
Continuous
 62
     7
100
AcDbEllipse
 10
69.9429639391
 20
439.0841276076
 30
0.0
 11
-12.25
 21
0.0
 31
0.0
210
0.0
220
0.0
230
1.0
 40
0.5
 41
0.1048748653740844
 42
0.2718890634506865
  0
SPLINE
  5
91
330
75
100
AcDbEntity
  8
$DDT_AUDIT_GENERATED_(77)
  6
Continuous
 62
     7
100
AcDbSpline
210
0.0
220
0.0
230
1.0
 70
     8
 71
     3
 72
    17
 73
    13
 74
     0
 42
0.0000000016770963
 43
0.0000000001
 40
0.0
 40
0.0
 40
0.0
 40
0.0
 40
0.0029369462921221
 40
0.0067249991264019
 40
0.0127609891308075
 40
0.0198924055093357
 40
0.0281100721339872
 40
0.0371734690847435
 40
0.049622514122486
 40
0.0612537324845405
 40
0.0720806846713043
 40
0.0745421110338852
 40
0.0745421110338852
 40
0.0745421110338852
 40
0.0745421110338852
 10
86.7727834369485
 20
443.0347934897466
 30
0.0
 10
86.77578119274227
 20
443.0478672192736
 30
0.0
 10
86.78156884239148
 20
443.0731014312843
 30
0.0
 10
86.7918692505095
 20
443.1175268811635
 30
0.0
 10
86.80415592642136
 20
443.1700931335904
 30
0.0
 10
86.81824035465952
 20
443.2296028663146
 30
0.0
 10
86.8327804977817
 20
443.2901880757228
 30
0.0
 10
86.8488473042614
 20
443.3559908868385
 30
0.0
 10
86.86318429062318
 20
443.4133777770957
 30
0.0
 10
86.87333103872693
 20
443.4530286199352
 30
0.0
 10
86.87671616998101
 20
443.466048602856
 30
0.0
 10
86.87686354637958
 20
443.466792652654
 30
0.0
 10
86.87682889565167
 20
443.4667030949496
 30
0.0
  0
SPLINE
  5
92
330
75
100
AcDbEntity
  8
$DDT_AUDIT_GENERATED_(77)
  6
Continuous
 62
     7
100
AcDbSpline
210
0.0
220
0.0
230
1.0
 70
     8
 71
     3
 72
    17
 73
    13
 74
     0
 42
0.0000000015970905
 43
0.0000000001
 40
0.9267338806747732
 40
0.9267338806747732
 40
0.9267338806747732
 40
0.9267338806747732
 40
0.9364491230028439
 40
0.9483025148712091
 40
0.9589337315558939
 40
0.9647192778678266
 40
0.9700562735430525
 40
0.9751660807462377
 40
0.9816605517474034
 40
0.98987128383147
 40
0.9998156660812513
 40
1.0
 40
1.0
 40
1.0
 40
1.0
 10
53.01228193007275
 20
443.4549651291627
 30
0.0
 10
53.01226933334322
 20
443.4547553974529
 30
0.0
 10
53.01408300915315
 20
443.4475060736554
 30
0.0
 10
53.02131715131374
 20
443.4190381365639
 30
0.0
 10
53.03056410178637
 20
443.3820882484714
 30
0.0
 10
53.03994142154462
 20
443.3441345962175
 30
0.0
 10
53.04818878234628
 20
443.3104325831129
 30
0.0
 10
53.05833136313504
 20
443.268584580238
 30
0.0
 10
53.07313847370546
 20
443.2068135098537
 30
0.0
 10
53.09332083972049
 20
443.1209420713762
 30
0.0
 10
53.10989979348299
 20
443.0497806619092
 30
0.0
 10
53.11894484815149
 20
443.009703204383
 30
0.0
 10
53.11913563478468
 20
443.0088578435935
 30
0.0
  0
LINE
  5
93
330
75
100
AcDbEntity
  8
$DDT_AUDIT_GENERATED_(77)
  6
Continuous
 62
     7
100
AcDbLine
 10
95.9439157073
 20
383.5841240704
 30
0.0
 11
95.9439157073
 21
482.4458748027
 31
0.0
  0
ARC
  5
94
330
75
100
AcDbEntity
  8
$DDT_AUDIT_GENERATED_(77)
  6
Continuous
 62
     7
100
AcDbCircle
 10
69.3268814093
 20
446.2503315406
 30
0.0
 40
17.67267766364904
100
AcDbArc
 50
314.3249296458
 51
343.9167879537
  0
SPLINE
  5
95
330
75
100
AcDbEntity
  8
$DDT_AUDIT_GENERATED_(77)
  6
Continuous
 62
     7
100
AcDbSpline
210
0.0
220
0.0
230
1.0
 70
     8
 71
     3
 72
    10
 73
     6
 74
     0
 42
0.0000000006657901
 43
0.0000000001
 40
0.0
 40
0.0
 40
0.0
 40
0.0
 40
0.0148234047945438
 40
0.0343355775449488
 40
0.0456149675186321
 40
0.0456149675186321
 40
0.0456149675186321
 40
0.0456149675186321
 10
95.93832745360987
 20
482.4561965352347
 30
0.0
 10
95.93722508724372
 20
482.538862050323
 30
0.0
 10
95.93378137590206
 20
482.7002251760803
 30
0.0
 10
95.88067901129062
 20
482.9288828520515
 30
0.0
 10
95.8300092419132
 20
483.0715844341458
 30
0.0
 10
95.80950463630748
 20
483.1224893564609
 30
0.0
  0
LINE
  5
96
330
75
100
AcDbEntity
  8
$DDT_AUDIT_GENERATED_(77)
  6
Continuous
 62
     7
100
AcDbLine
 10
43.9420121708
 20
482.4458748027
 30
0.0
 11
43.9420121708
 21
383.5841240704
 31
0.0
  0
ARC
  5
97
330
75
100
AcDbEntity
  8
$DDT_AUDIT_GENERATED_(77)
  6
Continuous
 62
     7
100
AcDbCircle
 10
70.5597907194
 20
446.2523285536
 30
0.0
 40
17.67403164077642
100
AcDbArc
 50
196.0926856503
 51
225.7410713796
  0
SPLINE
  5
98
330
75
100
AcDbEntity
  8
$DDT_AUDIT_GENERATED_(77)
  6
Continuous
 62
     7
100
AcDbSpline
210
0.0
220
0.0
230
1.0
 70
     8
 71
     3
 72
    11
 73
     7
 74
     0
 42
0.0000000006656308
 43
0.0000000001
 40
0.9540218605086666
 40
0.9540218605086666
 40
0.9540218605086666
 40
0.9540218605086666
 40
0.9598786855271028
 40
0.9788393268019026
 40
0.998959736447769
 40
1.0
 40
1.0
 40
1.0
 40
1.0
 10
44.07590342989086
 20
483.1219063632113
 30
0.0
 10
44.06523074816717
 20
483.0954169194899
 30
0.0
 10
44.02254140988349
 20
482.9818997303683
 30
0.0
 10
43.96698758223551
 20
482.7678211515753
 30
0.0
 10
43.93593126402776
 20
482.5571666023878
 30
0.0
 10
43.94368450736705
 20
482.4564237368918
 30
0.0
 10
43.9441302506284
 20
482.4506746498831
 30
0.0
  0
ELLIPSE
  5
9A
330
75
100
AcDbEntity
  8
02636038_GEHÄUSE
  6
Continuous
 62
     7
100
AcDbEllipse
 10
69.9429639599
 20
431.7229116755
 30
0.0
 11
10.02278736572428
 21
-6.938893903907229E-15
 31
0.0
210
0.0
220
0.0
230
1.0
 40
0.5
 41
0.0
 42
6.283185307179586
  0
ELLIPSE
  5
9B
330
75
100
AcDbEntity
  8
02636038_GEHÄUSE
  6
Continuous
 62
     7
100
AcDbEllipse
 10
69.9429639599
 20
431.7229116755
 30
0.0
 11
10.75000000000001
 21
0.0
 31
0.0
210
0.0
220
0.0
230
1.0
 40
0.5
 41
0.0
 42
6.283185307179586
  0
ELLIPSE
  5
9C
330
75
100
AcDbEntity
  8
02636038_GEHÄUSE
  6
Continuous
 62
     7
100
AcDbEllipse
 10
69.9429639599
 20
439.0841276076
 30
0.0
 11
11.80000000000001
 21
0.0
 31
0.0
210
0.0
220
0.0
230
1.0
 40
0.5
 41
3.096832347388229
 42
3.141592653589793
  0
ELLIPSE
  5
9D
330
75
100
AcDbEntity
  8
02636038_GEHÄUSE
  6
Continuous
 62
     7
100
AcDbEllipse
 10
69.9429639599
 20
439.0841276076
 30
0.0
 11
11.80000000000001
 21
0.0
 31
0.0
210
0.0
220
0.0
230
1.0
 40
0.5
 41
0.0
 42
0.0441092027108567
  0
LINE
  5
9E
330
75
100
AcDbEntity
  8
02636038_GEHÄUSE
  6
Continuous
 62
     7
100
AcDbLine
 10
58.9429639599
 20
433.2911633911
 30
0.0
 11
58.9429639599
 21
430.7046599598
 31
0.0
  0
ELLIPSE
  5
9F
330
75
100
AcDbEntity
  8
02636038_GEHÄUSE
  6
Continuous
 62
     7
100
AcDbEllipse
 10
69.9429639599
 20
434.3209878868
 30
0.0
 11
11.80000000000016
 21
6.938893903907228E-15
 31
0.0
210
0.0
220
0.0
230
1.0
 40
0.5
 41
2.77125002149808
 42
3.511935285681503
  0
LINE
  5
A0
330
75
100
AcDbEntity
  8
02636038_GEHÄUSE
  6
Continuous
 62
     7
100
AcDbLine
 10
58.9429639599
 20
436.4564035372
 30
0.0
 11
58.9429639599
 21
434.8833273259
 31
0.0
  0
LINE
  5
A1
330
75
100
AcDbEntity
  8
02636038_GEHÄUSE
  6
Continuous
 62
     7
100
AcDbLine
 10
58.9429639599
 20
434.8833273259
 30
0.0
 11
58.9429639599
 21
433.2911633911
 31
0.0
  0
LINE
  5
A2
330
75
100
AcDbEntity
  8
02636038_GEHÄUSE
  6
Continuous
 62
     7
100
AcDbLine
 10
58.9429639599
 20
430.7046599598
 30
0.0
 11
58.9429639599
 21
430.3721946481
 31
0.0
  0
ELLIPSE
  5
A3
330
75
100
AcDbEntity
  8
02636038_GEHÄUSE
  6
Continuous
 62
     7
100
AcDbEllipse
 10
69.9429639599
 20
431.9979116755
 30
0.0
 11
11.30000000000001
 21
-6.938893903907228E-15
 31
0.0
210
0.0
220
0.0
230
1.0
 40
0.5
 41
4.223549648451814
 42
5.211788205451346
  0
LINE
  5
A4
330
75
100
AcDbEntity
  8
02636038_GEHÄUSE
  6
Continuous
 62
     7
100
AcDbLine
 10
80.9429639599
 20
430.7046599598
 30
0.0
 11
80.9429639599
 21
433.2911633911
 31
0.0
  0
ELLIPSE
  5
A5
330
75
100
AcDbEntity
  8
02636038_GEHÄUSE
  6
Continuous
 62
     7
100
AcDbEllipse
 10
69.9429639599
 20
434.3209878868
 30
0.0
 11
-11.79999999999974
 21
-2.775557561562891E-14
 31
0.0
210
0.0
220
0.0
230
1.0
 40
0.5
 41
2.771250021498075
 42
3.511935285681509
  0
LINE
  5
A6
330
75
100
AcDbEntity
  8
02636038_GEHÄUSE
  6
Continuous
 62
     7
100
AcDbLine
 10
80.9429639599
 20
430.3718922105
 30
0.0
 11
80.9429639599
 21
430.7046599598
 31
0.0
  0
LINE
  5
A7
330
75
100
AcDbEntity
  8
02636038_GEHÄUSE
  6
Continuous
 62
     7
100
AcDbLine
 10
80.9429639599
 20
433.2911633911
 30
0.0
 11
80.9429639599
 21
434.8833273259
 31
0.0
  0
LINE
  5
A8
330
75
100
AcDbEntity
  8
02636038_GEHÄUSE
  6
Continuous
 62
     7
100
AcDbLine
 10
80.9429639599
 20
434.8833273259
 30
0.0
 11
80.9429639599
 21
436.4564035372
 31
0.0
  0
ARC
  5
A9
330
75
100
AcDbEntity
  8
02636038_GEHÄUSE
  6
Continuous
 62
     7
100
AcDbCircle
 10
73.4063698844
 20
436.6669848518
 30
0.0
 40
9.818876905373699
100
AcDbArc
 50
281.8492227627
 51
320.1525853194
  0
ARC
  5
AA
330
75
100
AcDbEntity
  8
02636038_GEHÄUSE
  6
Continuous
 62
     7
100
AcDbCircle
 10
66.5484852642
 20
436.7423338602
 30
0.0
 40
9.915196033535226
100
AcDbArc
 50
219.9460723894
 51
258.7537615586
  0
LINE
  5
AB
330
75
100
AcDbEntity
  8
02636038_GEHÄUSE
  6
Continuous
 62
     7
100
AcDbLine
 10
58.1429639599
 20
439.0841276076
 30
0.0
 11
58.1429639599
 21
434.3209878868
 31
0.0
  0
LINE
  5
AC
330
75
100
AcDbEntity
  8
02636038_GEHÄUSE
  6
Continuous
 62
     7
100
AcDbLine
 10
81.7429639599
 20
434.3209878868
 30
0.0
 11
81.7429639599
 21
439.0841276076
 31
0.0
  0
ELLIPSE
  5
AE
330
75
100
AcDbEntity
  8
$DDT_AUDIT_GENERATED_(AD)
  6
Continuous
 62
     7
100
AcDbEllipse
 10
69.9429639599
 20
431.8095142159
 30
0.0
 11
8.250000000000004
 21
6.938893903907228E-15
 31
0.0
210
0.0
220
0.0
230
1.0
 40
0.5
 41
0.0
 42
6.283185307179586
  0
ELLIPSE
  5
AF
330
75
100
AcDbEntity
  8
$DDT_AUDIT_GENERATED_(AD)
  6
Continuous
 62
     7
100
AcDbEllipse
 10
69.9429639599
 20
431.8095142159
 30
0.0
 11
9.400000000000002
 21
0.0
 31
0.0
210
0.0
220
0.0
230
1.0
 40
0.5
 41
0.0
 42
6.283185307179586
  0
ELLIPSE
  5
B0
330
75
100
AcDbEntity
  8
$DDT_AUDIT_GENERATED_(AD)
  6
Continuous
 62
     7
100
AcDbEllipse
 10
69.9429639599
 20
432.8270940653
 30
0.0
 11
-9.40000000000712
 21
1.387778780781446E-14
 31
0.0
210
0.0
220
0.0
230
1.0
 40
0.5
 41
3.141592653589784
 42
3.31637005119686
  0
ELLIPSE
  5
B1
330
75
100
AcDbEntity
  8
$DDT_AUDIT_GENERATED_(AD)
  6
Continuous
 62
     7
100
AcDbEllipse
 10
69.9429639599
 20
433.3683599427
 30
0.0
 11
-10.02500000000001
 21
-9.714451465470121E-14
 31
0.0
210
0.0
220
0.0
230
1.0
 40
0.5
 41
-3.361282931559378
 42
-3.307154749049763
  0
LINE
  5
B2
330
75
100
AcDbEntity
  8
$DDT_AUDIT_GENERATED_(AD)
  6
Continuous
 62
     7
100
AcDbLine
 10
79.3429639599
 20
432.0216171492
 30
0.0
 11
79.7270130152
 21
432.2759990723
 31
0.0
  0
LINE
  5
B3
330
75
100
AcDbEntity
  8
$DDT_AUDIT_GENERATED_(AD)
  6
Continuous
 62
     7
100
AcDbLine
 10
60.1589149047
 20
432.2759990723
 30
0.0
 11
60.5429639599
 21
432.0216171492
 31
0.0
  0
ELLIPSE
  5
B4
330
75
100
AcDbEntity
  8
$DDT_AUDIT_GENERATED_(AD)
  6
Continuous
 62
     7
100
AcDbEllipse
 10
69.9429639599
 20
432.8270940653
 30
0.0
 11
9.400000000001517
 21
-1.387778780781446E-14
 31
0.0
210
0.0
220
0.0
230
1.0
 40
0.5
 41
2.96681525598267
 42
3.141592653589793
  0
ELLIPSE
  5
B5
330
75
100
AcDbEntity
  8
$DDT_AUDIT_GENERATED_(AD)
  6
Continuous
 62
     7
100
AcDbEllipse
 10
69.9429639599
 20
433.3683599427
 30
0.0
 11
10.02499999999856
 21
8.326672684688674E-14
 31
0.0
210
0.0
220
0.0
230
1.0
 40
0.5
 41
3.307154749049756
 42
3.361282931559382
  0
LINE
  5
B6
330
75
100
AcDbEntity
  8
$DDT_AUDIT_GENERATED_(AD)
  6
Continuous
 62
     7
100
AcDbLine
 10
69.4429639599
 20
431.9925269177
 30
0.0
 11
69.4429639599
 21
432.4925269177
 31
0.0
  0
LINE
  5
B7
330
75
100
AcDbEntity
  8
$DDT_AUDIT_GENERATED_(AD)
  6
Continuous
 62
     7
100
AcDbLine
 10
69.4429639599
 20
432.4925269177
 30
0.0
 11
70.4429639599
 21
432.4925269177
 31
0.0
  0
LINE
  5
B8
330
75
100
AcDbEntity
  8
$DDT_AUDIT_GENERATED_(AD)
  6
Continuous
 62
     7
100
AcDbLine
 10
69.4429639599
 20
432.5925269177
 30
0.0
 11
69.4429639599
 21
433.0925269177
 31
0.0
  0
LINE
  5
B9
330
75
100
AcDbEntity
  8
$DDT_AUDIT_GENERATED_(AD)
  6
Continuous
 62
     7
100
AcDbLine
 10
69.4429639599
 20
433.0925269177
 30
0.0
 11
70.4429639599
 21
433.0925269177
 31
0.0
  0
LINE
  5
BA
330
75
100
AcDbEntity
  8
$DDT_AUDIT_GENERATED_(AD)
  6
Continuous
 62
     7
100
AcDbLine
 10
70.4429639599
 20
432.5925269177
 30
0.0
 11
69.4429639599
 21
432.5925269177
 31
0.0
  0
LINE
  5
BB
330
75
100
AcDbEntity
  8
$DDT_AUDIT_GENERATED_(AD)
  6
Continuous
 62
     7
100
AcDbLine
 10
69.4429639599
 20
433.1925269177
 30
0.0
 11
69.4429639599
 21
433.6925269177
 31
0.0
  0
LINE
  5
BC
330
75
100
AcDbEntity
  8
$DDT_AUDIT_GENERATED_(AD)
  6
Continuous
 62
     7
100
AcDbLine
 10
69.4429639599
 20
433.6925269177
 30
0.0
 11
70.4429639599
 21
433.6925269177
 31
0.0
  0
LINE
  5
BD
330
75
100
AcDbEntity
  8
$DDT_AUDIT_GENERATED_(AD)
  6
Continuous
 62
     7
100
AcDbLine
 10
70.4429639599
 20
433.1925269177
 30
0.0
 11
69.4429639599
 21
433.1925269177
 31
0.0
  0
LINE
  5
BE
330
75
100
AcDbEntity
  8
$DDT_AUDIT_GENERATED_(AD)
  6
Continuous
 62
     7
100
AcDbLine
 10
69.4429639599
 20
433.7925269177
 30
0.0
 11
69.4429639599
 21
434.2925269177
 31
0.0
  0
LINE
  5
BF
330
75
100
AcDbEntity
  8
$DDT_AUDIT_GENERATED_(AD)
  6
Continuous
 62
     7
100
AcDbLine
 10
69.4429639599
 20
434.2925269177
 30
0.0
 11
70.4429639599
 21
434.2925269177
 31
0.0
  0
LINE
  5
C0
330
75
100
AcDbEntity
  8
$DDT_AUDIT_GENERATED_(AD)
  6
Continuous
 62
     7
100
AcDbLine
 10
70.4429639599
 20
433.7925269177
 30
0.0
 11
69.4429639599
 21
433.7925269177
 31
0.0
  0
LINE
  5
C1
330
75
100
AcDbEntity
  8
$DDT_AUDIT_GENERATED_(AD)
  6
Continuous
 62
     7
100
AcDbLine
 10
69.4429639599
 20
434.3925269177
 30
0.0
 11
69.4429639599
 21
434.8925269177
 31
0.0
  0
LINE
  5
C2
330
75
100
AcDbEntity
  8
$DDT_AUDIT_GENERATED_(AD)
  6
Continuous
 62
     7
100
AcDbLine
 10
69.4429639599
 20
434.8925269177
 30
0.0
 11
70.4429639599
 21
434.8925269177
 31
0.0
  0
LINE
  5
C3
330
75
100
AcDbEntity
  8
$DDT_AUDIT_GENERATED_(AD)
  6
Continuous
 62
     7
100
AcDbLine
 10
70.4429639599
 20
434.3925269177
 30
0.0
 11
69.4429639599
 21
434.3925269177
 31
0.0
  0
LINE
  5
C4
330
75
100
AcDbEntity
  8
$DDT_AUDIT_GENERATED_(AD)
  6
Continuous
 62
     7
100
AcDbLine
 10
69.4429639599
 20
434.9925269177
 30
0.0
 11
69.4429639599
 21
435.4925269177
 31
0.0
  0
LINE
  5
C5
330
75
100
AcDbEntity
  8
$DDT_AUDIT_GENERATED_(AD)
  6
Continuous
 62
     7
100
AcDbLine
 10
69.4429639599
 20
435.4925269177
 30
0.0
 11
70.4429639599
 21
435.4925269177
 31
0.0
  0
LINE
  5
C6
330
75
100
AcDbEntity
  8
$DDT_AUDIT_GENERATED_(AD)
  6
Continuous
 62
     7
100
AcDbLine
 10
70.4429639599
 20
434.9925269177
 30
0.0
 11
69.4429639599
 21
434.9925269177
 31
0.0
  0
LINE
  5
C7
330
75
100
AcDbEntity
  8
$DDT_AUDIT_GENERATED_(AD)
  6
Continuous
 62
     7
100
AcDbLine
 10
69.4429639599
 20
435.5925269177
 30
0.0
 11
69.4429639599
 21
435.9269314889
 31
0.0
  0
LINE
  5
C8
330
75
100
AcDbEntity
  8
$DDT_AUDIT_GENERATED_(AD)
  6
Continuous
 62
     7
100
AcDbLine
 10
70.4429639599
 20
435.5925269177
 30
0.0
 11
69.4429639599
 21
435.5925269177
 31
0.0
  0
LINE
  5
C9
330
75
100
AcDbEntity
  8
$DDT_AUDIT_GENERATED_(AD)
  6
Continuous
 62
     7
100
AcDbLine
 10
68.2429639599
 20
431.9925269177
 30
0.0
 11
68.2429639599
 21
432.4925269177
 31
0.0
  0
LINE
  5
CA
330
75
100
AcDbEntity
  8
$DDT_AUDIT_GENERATED_(AD)
  6
Continuous
 62
     7
100
AcDbLine
 10
68.2429639599
 20
432.4925269177
 30
0.0
 11
69.2429639599
 21
432.4925269177
 31
0.0
  0
LINE
  5
CB
330
75
100
AcDbEntity
  8
$DDT_AUDIT_GENERATED_(AD)
  6
Continuous
 62
     7
100
AcDbLine
 10
69.2429639599
 20
432.4925269177
 30
0.0
 11
69.2429639599
 21
431.9925269177
 31
0.0
  0
LINE
  5
CC
330
75
100
AcDbEntity
  8
$DDT_AUDIT_GENERATED_(AD)
  6
Continuous
 62
     7
100
AcDbLine
 10
68.2429639599
 20
432.5925269177
 30
0.0
 11
68.2429639599
 21
433.0925269177
 31
0.0
  0
LINE
  5
CD
330
75
100
AcDbEntity
  8
$DDT_AUDIT_GENERATED_(AD)
  6
Continuous
 62
     7
100
AcDbLine
 10
68.2429639599
 20
433.0925269177
 30
0.0
 11
69.2429639599
 21
433.0925269177
 31
0.0
  0
LINE
  5
CE
330
75
100
AcDbEntity
  8
$DDT_AUDIT_GENERATED_(AD)
  6
Continuous
 62
     7
100
AcDbLine
 10
69.2429639599
 20
433.0925269177
 30
0.0
 11
69.2429639599
 21
432.5925269177
 31
0.0
  0
LINE
  5
CF
330
75
100
AcDbEntity
  8
$DDT_AUDIT_GENERATED_(AD)
  6
Continuous
 62
     7
100
AcDbLine
 10
69.2429639599
 20
432.5925269177
 30
0.0
 11
68.2429639599
 21
432.5925269177
 31
0.0
  0
LINE
  5
D0
330
75
100
AcDbEntity
  8
$DDT_AUDIT_GENERATED_(AD)
  6
Continuous
 62
     7
100
AcDbLine
 10
68.2429639599
 20
433.1925269177
 30
0.0
 11
68.2429639599
 21
433.6925269177
 31
0.0
  0
LINE
  5
D1
330
75
100
AcDbEntity
  8
$DDT_AUDIT_GENERATED_(AD)
  6
Continuous
 62
     7
100
AcDbLine
 10
68.2429639599
 20
433.6925269177
 30
0.0
 11
69.2429639599
 21
433.6925269177
 31
0.0
  0
LINE
  5
D2
330
75
100
AcDbEntity
  8
$DDT_AUDIT_GENERATED_(AD)
  6
Continuous
 62
     7
100
AcDbLine
 10
69.2429639599
 20
433.6925269177
 30
0.0
 11
69.2429639599
 21
433.1925269177
 31
0.0
  0
LINE
  5
D3
330
75
100
AcDbEntity
  8
$DDT_AUDIT_GENERATED_(AD)
  6
Continuous
 62
     7
100
AcDbLine
 10
69.2429639599
 20
433.1925269177
 30
0.0
 11
68.2429639599
 21
433.1925269177
 31
0.0
  0
LINE
  5
D4
330
75
100
AcDbEntity
  8
$DDT_AUDIT_GENERATED_(AD)
  6
Continuous
 62
     7
100
AcDbLine
 10
68.2429639599
 20
433.7925269177
 30
0.0
 11
68.2429639599
 21
434.2925269177
 31
0.0
  0
LINE
  5
D5
330
75
100
AcDbEntity
  8
$DDT_AUDIT_GENERATED_(AD)
  6
Continuous
 62
     7
100
AcDbLine
 10
68.2429639599
 20
434.2925269177
 30
0.0
 11
69.2429639599
 21
434.2925269177
 31
0.0
  0
LINE
  5
D6
330
75
100
AcDbEntity
  8
$DDT_AUDIT_GENERATED_(AD)
  6
Continuous
 62
     7
100
AcDbLine
 10
69.2429639599
 20
434.2925269177
 30
0.0
 11
69.2429639599
 21
433.7925269177
 31
0.0
  0
LINE
  5
D7
330
75
100
AcDbEntity
  8
$DDT_AUDIT_GENERATED_(AD)
  6
Continuous
 62
     7
100
AcDbLine
 10
69.2429639599
 20
433.7925269177
 30
0.0
 11
68.2429639599
 21
433.7925269177
 31
0.0
  0
LINE
  5
D8
330
75
100
AcDbEntity
  8
$DDT_AUDIT_GENERATED_(AD)
  6
Continuous
 62
     7
100
AcDbLine
 10
68.2429639599
 20
434.3925269177
 30
0.0
 11
68.2429639599
 21
434.8925269177
 31
0.0
  0
LINE
  5
D9
330
75
100
AcDbEntity
  8
$DDT_AUDIT_GENERATED_(AD)
  6
Continuous
 62
     7
100
AcDbLine
 10
68.2429639599
 20
434.8925269177
 30
0.0
 11
69.2429639599
 21
434.8925269177
 31
0.0
  0
LINE
  5
DA
330
75
100
AcDbEntity
  8
$DDT_AUDIT_GENERATED_(AD)
  6
Continuous
 62
     7
100
AcDbLine
 10
69.2429639599
 20
434.8925269177
 30
0.0
 11
69.2429639599
 21
434.3925269177
 31
0.0
  0
LINE
  5
DB
330
75
100
AcDbEntity
  8
$DDT_AUDIT_GENERATED_(AD)
  6
Continuous
 62
     7
100
AcDbLine
 10
69.2429639599
 20
434.3925269177
 30
0.0
 11
68.2429639599
 21
434.3925269177
 31
0.0
  0
LINE
  5
DC
330
75
100
AcDbEntity
  8
$DDT_AUDIT_GENERATED_(AD)
  6
Continuous
 62
     7
100
AcDbLine
 10
68.2429639599
 20
434.9925269177
 30
0.0
 11
68.2429639599
 21
435.4925269177
 31
0.0
  0
LINE
  5
DD
330
75
100
AcDbEntity
  8
$DDT_AUDIT_GENERATED_(AD)
  6
Continuous
 62
     7
100
AcDbLine
 10
68.2429639599
 20
435.4925269177
 30
0.0
 11
69.2429639599
 21
435.4925269177
 31
0.0
  0
LINE
  5
DE
330
75
100
AcDbEntity
  8
$DDT_AUDIT_GENERATED_(AD)
  6
Continuous
 62
     7
100
AcDbLine
 10
69.2429639599
 20
435.4925269177
 30
0.0
 11
69.2429639599
 21
434.9925269177
 31
0.0
  0
LINE
  5
DF
330
75
100
AcDbEntity
  8
$DDT_AUDIT_GENERATED_(AD)
  6
Continuous
 62
     7
100
AcDbLine
 10
69.2429639599
 20
434.9925269177
 30
0.0
 11
68.2429639599
 21
434.9925269177
 31
0.0
  0
LINE
  5
E0
330
75
100
AcDbEntity
  8
$DDT_AUDIT_GENERATED_(AD)
  6
Continuous
 62
     7
100
AcDbLine
 10
68.2429639599
 20
435.5925269177
 30
0.0
 11
68.2429639599
 21
435.8459885438
 31
0.0
  0
LINE
  5
E1
330
75
100
AcDbEntity
  8
$DDT_AUDIT_GENERATED_(AD)
  6
Continuous
 62
     7
100
AcDbLine
 10
69.2429639599
 20
435.9196389098
 30
0.0
 11
69.2429639599
 21
435.5925269177
 31
0.0
  0
LINE
  5
E2
330
75
100
AcDbEntity
  8
$DDT_AUDIT_GENERATED_(AD)
  6
Continuous
 62
     7
100
AcDbLine
 10
69.2429639599
 20
435.5925269177
 30
0.0
 11
68.2429639599
 21
435.5925269177
 31
0.0
  0
LINE
  5
E3
330
75
100
AcDbEntity
  8
$DDT_AUDIT_GENERATED_(AD)
  6
Continuous
 62
     7
100
AcDbLine
 10
67.0429639599
 20
431.9925269177
 30
0.0
 11
67.0429639599
 21
432.4925269177
 31
0.0
  0
LINE
  5
E4
330
75
100
AcDbEntity
  8
$DDT_AUDIT_GENERATED_(AD)
  6
Continuous
 62
     7
100
AcDbLine
 10
67.0429639599
 20
432.4925269177
 30
0.0
 11
68.0429639599
 21
432.4925269177
 31
0.0
  0
LINE
  5
E5
330
75
100
AcDbEntity
  8
$DDT_AUDIT_GENERATED_(AD)
  6
Continuous
 62
     7
100
AcDbLine
 10
68.0429639599
 20
432.4925269177
 30
0.0
 11
68.0429639599
 21
431.9925269177
 31
0.0
  0
LINE
  5
E6
330
75
100
AcDbEntity
  8
$DDT_AUDIT_GENERATED_(AD)
  6
Continuous
 62
     7
100
AcDbLine
 10
67.0429639599
 20
432.5925269177
 30
0.0
 11
67.0429639599
 21
433.0925269177
 31
0.0
  0
LINE
  5
E7
330
75
100
AcDbEntity
  8
$DDT_AUDIT_GENERATED_(AD)
  6
Continuous
 62
     7
100
AcDbLine
 10
67.0429639599
 20
433.0925269177
 30
0.0
 11
68.0429639599
 21
433.0925269177
 31
0.0
  0
LINE
  5
E8
330
75
100
AcDbEntity
  8
$DDT_AUDIT_GENERATED_(AD)
  6
Continuous
 62
     7
100
AcDbLine
 10
68.0429639599
 20
433.0925269177
 30
0.0
 11
68.0429639599
 21
432.5925269177
 31
0.0
  0
LINE
  5
E9
330
75
100
AcDbEntity
  8
$DDT_AUDIT_GENERATED_(AD)
  6
Continuous
 62
     7
100
AcDbLine
 10
68.0429639599
 20
432.5925269177
 30
0.0
 11
67.0429639599
 21
432.5925269177
 31
0.0
  0
LINE
  5
EA
330
75
100
AcDbEntity
  8
$DDT_AUDIT_GENERATED_(AD)
  6
Continuous
 62
     7
100
AcDbLine
 10
67.0429639599
 20
433.1925269177
 30
0.0
 11
67.0429639599
 21
433.6925269177
 31
0.0
  0
LINE
  5
EB
330
75
100
AcDbEntity
  8
$DDT_AUDIT_GENERATED_(AD)
  6
Continuous
 62
     7
100
AcDbLine
 10
67.0429639599
 20
433.6925269177
 30
0.0
 11
68.0429639599
 21
433.6925269177
 31
0.0
  0
LINE
  5
EC
330
75
100
AcDbEntity
  8
$DDT_AUDIT_GENERATED_(AD)
  6
Continuous
 62
     7
100
AcDbLine
 10
68.0429639599
 20
433.6925269177
 30
0.0
 11
68.0429639599
 21
433.1925269177
 31
0.0
  0
LINE
  5
ED
330
75
100
AcDbEntity
  8
$DDT_AUDIT_GENERATED_(AD)
  6
Continuous
 62
     7
100
AcDbLine
 10
68.0429639599
 20
433.1925269177
 30
0.0
 11
67.0429639599
 21
433.1925269177
 31
0.0
  0
LINE
  5
EE
330
75
100
AcDbEntity
  8
$DDT_AUDIT_GENERATED_(AD)
  6
Continuous
 62
     7
100
AcDbLine
 10
67.0429639599
 20
433.7925269177
 30
0.0
 11
67.0429639599
 21
434.2925269177
 31
0.0
  0
LINE
  5
EF
330
75
100
AcDbEntity
  8
$DDT_AUDIT_GENERATED_(AD)
  6
Continuous
 62
     7
100
AcDbLine
 10
67.0429639599
 20
434.2925269177
 30
0.0
 11
68.0429639599
 21
434.2925269177
 31
0.0
  0
LINE
  5
F0
330
75
100
AcDbEntity
  8
$DDT_AUDIT_GENERATED_(AD)
  6
Continuous
 62
     7
100
AcDbLine
 10
68.0429639599
 20
434.2925269177
 30
0.0
 11
68.0429639599
 21
433.7925269177
 31
0.0
  0
LINE
  5
F1
330
75
100
AcDbEntity
  8
$DDT_AUDIT_GENERATED_(AD)
  6
Continuous
 62
     7
100
AcDbLine
 10
68.0429639599
 20
433.7925269177
 30
0.0
 11
67.0429639599
 21
433.7925269177
 31
0.0
  0
LINE
  5
F2
330
75
100
AcDbEntity
  8
$DDT_AUDIT_GENERATED_(AD)
  6
Continuous
 62
     7
100
AcDbLine
 10
67.0429639599
 20
434.3925269177
 30
0.0
 11
67.0429639599
 21
434.8925269177
 31
0.0
  0
LINE
  5
F3
330
75
100
AcDbEntity
  8
$DDT_AUDIT_GENERATED_(AD)
  6
Continuous
 62
     7
100
AcDbLine
 10
67.0429639599
 20
434.8925269177
 30
0.0
 11
68.0429639599
 21
434.8925269177
 31
0.0
  0
LINE
  5
F4
330
75
100
AcDbEntity
  8
$DDT_AUDIT_GENERATED_(AD)
  6
Continuous
 62
     7
100
AcDbLine
 10
68.0429639599
 20
434.8925269177
 30
0.0
 11
68.0429639599
 21
434.3925269177
 31
0.0
  0
LINE
  5
F5
330
75
100
AcDbEntity
  8
$DDT_AUDIT_GENERATED_(AD)
  6
Continuous
 62
     7
100
AcDbLine
 10
68.0429639599
 20
434.3925269177
 30
0.0
 11
67.0429639599
 21
434.3925269177
 31
0.0
  0
LINE
  5
F6
330
75
100
AcDbEntity
  8
$DDT_AUDIT_GENERATED_(AD)
  6
Continuous
 62
     7
100
AcDbLine
 10
67.0429639599
 20
434.9925269177
 30
0.0
 11
67.0429639599
 21
435.4925269177
 31
0.0
  0
LINE
  5
F7
330
75
100
AcDbEntity
  8
$DDT_AUDIT_GENERATED_(AD)
  6
Continuous
 62
     7
100
AcDbLine
 10
67.0429639599
 20
435.4925269177
 30
0.0
 11
68.0429639599
 21
435.4925269177
 31
0.0
  0
LINE
  5
F8
330
75
100
AcDbEntity
  8
$DDT_AUDIT_GENERATED_(AD)
  6
Continuous
 62
     7
100
AcDbLine
 10
68.0429639599
 20
435.4925269177
 30
0.0
 11
68.0429639599
 21
434.9925269177
 31
0.0
  0
LINE
  5
F9
330
75
100
AcDbEntity
  8
$DDT_AUDIT_GENERATED_(AD)
  6
Continuous
 62
     7
100
AcDbLine
 10
68.0429639599
 20
434.9925269177
 30
0.0
 11
67.0429639599
 21
434.9925269177
 31
0.0
  0
LINE
  5
FA
330
75
100
AcDbEntity
  8
$DDT_AUDIT_GENERATED_(AD)
  6
Continuous
 62
     7
100
AcDbLine
 10
65.8429639599
 20
431.9925269177
 30
0.0
 11
65.8429639599
 21
432.4925269177
 31
0.0
  0
LINE
  5
FB
330
75
100
AcDbEntity
  8
$DDT_AUDIT_GENERATED_(AD)
  6
Continuous
 62
     7
100
AcDbLine
 10
65.8429639599
 20
432.4925269177
 30
0.0
 11
66.8429639599
 21
432.4925269177
 31
0.0
  0
LINE
  5
FC
330
75
100
AcDbEntity
  8
$DDT_AUDIT_GENERATED_(AD)
  6
Continuous
 62
     7
100
AcDbLine
 10
66.8429639599
 20
432.4925269177
 30
0.0
 11
66.8429639599
 21
431.9925269177
 31
0.0
  0
LINE
  5
FD
330
75
100
AcDbEntity
  8
$DDT_AUDIT_GENERATED_(AD)
  6
Continuous
 62
     7
100
AcDbLine
 10
65.8429639599
 20
432.5925269177
 30
0.0
 11
65.8429639599
 21
433.0925269177
 31
0.0
  0
LINE
  5
FE
330
75
100
AcDbEntity
  8
$DDT_AUDIT_GENERATED_(AD)
  6
Continuous
 62
     7
100
AcDbLine
 10
65.8429639599
 20
433.0925269177
 30
0.0
 11
66.8429639599
 21
433.0925269177
 31
0.0
  0
LINE
  5
FF
330
75
100
AcDbEntity
  8
$DDT_AUDIT_GENERATED_(AD)
  6
Continuous
 62
     7
100
AcDbLine
 10
66.8429639599
 20
433.0925269177
 30
0.0
 11
66.8429639599
 21
432.5925269177
 31
0.0
  0
LINE
  5
100
330
75
100
AcDbEntity
  8
$DDT_AUDIT_GENERATED_(AD)
  6
Continuous
 62
     7
100
AcDbLine
 10
66.8429639599
 20
432.5925269177
 30
0.0
 11
65.8429639599
 21
432.5925269177
 31
0.0
  0
LINE
  5
101
330
75
100
AcDbEntity
  8
$DDT_AUDIT_GENERATED_(AD)
  6
Continuous
 62
     7
100
AcDbLine
 10
65.8429639599
 20
433.1925269177
 30
0.0
 11
65.8429639599
 21
433.6925269177
 31
0.0
  0
LINE
  5
102
330
75
100
AcDbEntity
  8
$DDT_AUDIT_GENERATED_(AD)
  6
Continuous
 62
     7
100
AcDbLine
 10
65.8429639599
 20
433.6925269177
 30
0.0
 11
66.8429639599
 21
433.6925269177
 31
0.0
  0
LINE
  5
103
330
75
100
AcDbEntity
  8
$DDT_AUDIT_GENERATED_(AD)
  6
Continuous
 62
     7
100
AcDbLine
 10
66.8429639599
 20
433.6925269177
 30
0.0
 11
66.8429639599
 21
433.1925269177
 31
0.0
  0
LINE
  5
104
330
75
100
AcDbEntity
  8
$DDT_AUDIT_GENERATED_(AD)
  6
Continuous
 62
     7
100
AcDbLine
 10
66.8429639599
 20
433.1925269177
 30
0.0
 11
65.8429639599
 21
433.1925269177
 31
0.0
  0
LINE
  5
105
330
75
100
AcDbEntity
  8
$DDT_AUDIT_GENERATED_(AD)
  6
Continuous
 62
     7
100
AcDbLine
 10
65.8429639599
 20
433.7925269177
 30
0.0
 11
65.8429639599
 21
434.2925269177
 31
0.0
  0
LINE
  5
106
330
75
100
AcDbEntity
  8
$DDT_AUDIT_GENERATED_(AD)
  6
Continuous
 62
     7
100
AcDbLine
 10
65.8429639599
 20
434.2925269177
 30
0.0
 11
66.8429639599
 21
434.2925269177
 31
0.0
  0
LINE
  5
107
330
75
100
AcDbEntity
  8
$DDT_AUDIT_GENERATED_(AD)
  6
Continuous
 62
     7
100
AcDbLine
 10
66.8429639599
 20
434.2925269177
 30
0.0
 11
66.8429639599
 21
433.7925269177
 31
0.0
  0
LINE
  5
108
330
75
100
AcDbEntity
  8
$DDT_AUDIT_GENERATED_(AD)
  6
Continuous
 62
     7
100
AcDbLine
 10
66.8429639599
 20
433.7925269177
 30
0.0
 11
65.8429639599
 21
433.7925269177
 31
0.0
  0
LINE
  5
109
330
75
100
AcDbEntity
  8
$DDT_AUDIT_GENERATED_(AD)
  6
Continuous
 62
     7
100
AcDbLine
 10
65.8429639599
 20
434.3925269177
 30
0.0
 11
65.8429639599
 21
434.8925269177
 31
0.0
  0
LINE
  5
10A
330
75
100
AcDbEntity
  8
$DDT_AUDIT_GENERATED_(AD)
  6
Continuous
 62
     7
100
AcDbLine
 10
65.8429639599
 20
434.8925269177
 30
0.0
 11
66.8429639599
 21
434.8925269177
 31
0.0
  0
LINE
  5
10B
330
75
100
AcDbEntity
  8
$DDT_AUDIT_GENERATED_(AD)
  6
Continuous
 62
     7
100
AcDbLine
 10
66.8429639599
 20
434.8925269177
 30
0.0
 11
66.8429639599
 21
434.3925269177
 31
0.0
  0
LINE
  5
10C
330
75
100
AcDbEntity
  8
$DDT_AUDIT_GENERATED_(AD)
  6
Continuous
 62
     7
100
AcDbLine
 10
66.8429639599
 20
434.3925269177
 30
0.0
 11
65.8429639599
 21
434.3925269177
 31
0.0
  0
LINE
  5
10D
330
75
100
AcDbEntity
  8
$DDT_AUDIT_GENERATED_(AD)
  6
Continuous
 62
     7
100
AcDbLine
 10
66.2275676485
 20
435.4925269177
 30
0.0
 11
66.8429639599
 21
435.4925269177
 31
0.0
  0
LINE
  5
10E
330
75
100
AcDbEntity
  8
$DDT_AUDIT_GENERATED_(AD)
  6
Continuous
 62
     7
100
AcDbLine
 10
65.8429639599
 20
434.9925269177
 30
0.0
 11
65.8429639599
 21
435.3890567844
 31
0.0
  0
LINE
  5
10F
330
75
100
AcDbEntity
  8
$DDT_AUDIT_GENERATED_(AD)
  6
Continuous
 62
     7
100
AcDbLine
 10
66.8429639599
 20
435.4925269177
 30
0.0
 11
66.8429639599
 21
434.9925269177
 31
0.0
  0
LINE
  5
110
330
75
100
AcDbEntity
  8
$DDT_AUDIT_GENERATED_(AD)
  6
Continuous
 62
     7
100
AcDbLine
 10
66.8429639599
 20
434.9925269177
 30
0.0
 11
65.8429639599
 21
434.9925269177
 31
0.0
  0
LINE
  5
111
330
75
100
AcDbEntity
  8
$DDT_AUDIT_GENERATED_(AD)
  6
Continuous
 62
     7
100
AcDbLine
 10
64.6429639599
 20
431.9925269177
 30
0.0
 11
64.6429639599
 21
432.4925269177
 31
0.0
  0
LINE
  5
112
330
75
100
AcDbEntity
  8
$DDT_AUDIT_GENERATED_(AD)
  6
Continuous
 62
     7
100
AcDbLine
 10
64.6429639599
 20
432.4925269177
 30
0.0
 11
65.6429639599
 21
432.4925269177
 31
0.0
  0
LINE
  5
113
330
75
100
AcDbEntity
  8
$DDT_AUDIT_GENERATED_(AD)
  6
Continuous
 62
     7
100
AcDbLine
 10
65.6429639599
 20
432.4925269177
 30
0.0
 11
65.6429639599
 21
431.9925269177
 31
0.0
  0
LINE
  5
114
330
75
100
AcDbEntity
  8
$DDT_AUDIT_GENERATED_(AD)
  6
Continuous
 62
     7
100
AcDbLine
 10
64.6429639599
 20
432.5925269177
 30
0.0
 11
64.6429639599
 21
433.0925269177
 31
0.0
  0
LINE
  5
115
330
75
100
AcDbEntity
  8
$DDT_AUDIT_GENERATED_(AD)
  6
Continuous
 62
     7
100
AcDbLine
 10
64.6429639599
 20
433.0925269177
 30
0.0
 11
65.6429639599
 21
433.0925269177
 31
0.0
  0
LINE
  5
116
330
75
100
AcDbEntity
  8
$DDT_AUDIT_GENERATED_(AD)
  6
Continuous
 62
     7
100
AcDbLine
 10
65.6429639599
 20
433.0925269177
 30
0.0
 11
65.6429639599
 21
432.5925269177
 31
0.0
  0
LINE
  5
117
330
75
100
AcDbEntity
  8
$DDT_AUDIT_GENERATED_(AD)
  6
Continuous
 62
     7
100
AcDbLine
 10
65.6429639599
 20
432.5925269177
 30
0.0
 11
64.6429639599
 21
432.5925269177
 31
0.0
  0
LINE
  5
118
330
75
100
AcDbEntity
  8
$DDT_AUDIT_GENERATED_(AD)
  6
Continuous
 62
     7
100
AcDbLine
 10
64.6429639599
 20
433.1925269177
 30
0.0
 11
64.6429639599
 21
433.6925269177
 31
0.0
  0
LINE
  5
119
330
75
100
AcDbEntity
  8
$DDT_AUDIT_GENERATED_(AD)
  6
Continuous
 62
     7
100
AcDbLine
 10
64.6429639599
 20
433.6925269177
 30
0.0
 11
65.6429639599
 21
433.6925269177
 31
0.0
  0
LINE
  5
11A
330
75
100
AcDbEntity
  8
$DDT_AUDIT_GENERATED_(AD)
  6
Continuous
 62
     7
100
AcDbLine
 10
65.6429639599
 20
433.6925269177
 30
0.0
 11
65.6429639599
 21
433.1925269177
 31
0.0
  0
LINE
  5
11B
330
75
100
AcDbEntity
  8
$DDT_AUDIT_GENERATED_(AD)
  6
Continuous
 62
     7
100
AcDbLine
 10
65.6429639599
 20
433.1925269177
 30
0.0
 11
64.6429639599
 21
433.1925269177
 31
0.0
  0
LINE
  5
11C
330
75
100
AcDbEntity
  8
$DDT_AUDIT_GENERATED_(AD)
  6
Continuous
 62
     7
100
AcDbLine
 10
64.6429639599
 20
433.7925269177
 30
0.0
 11
64.6429639599
 21
434.2925269177
 31
0.0
  0
LINE
  5
11D
330
75
100
AcDbEntity
  8
$DDT_AUDIT_GENERATED_(AD)
  6
Continuous
 62
     7
100
AcDbLine
 10
64.6429639599
 20
434.2925269177
 30
0.0
 11
65.6429639599
 21
434.2925269177
 31
0.0
  0
LINE
  5
11E
330
75
100
AcDbEntity
  8
$DDT_AUDIT_GENERATED_(AD)
  6
Continuous
 62
     7
100
AcDbLine
 10
65.6429639599
 20
434.2925269177
 30
0.0
 11
65.6429639599
 21
433.7925269177
 31
0.0
  0
LINE
  5
11F
330
75
100
AcDbEntity
  8
$DDT_AUDIT_GENERATED_(AD)
  6
Continuous
 62
     7
100
AcDbLine
 10
65.6429639599
 20
433.7925269177
 30
0.0
 11
64.6429639599
 21
433.7925269177
 31
0.0
  0
LINE
  5
120
330
75
100
AcDbEntity
  8
$DDT_AUDIT_GENERATED_(AD)
  6
Continuous
 62
     7
100
AcDbLine
 10
64.6429639599
 20
434.3925269177
 30
0.0
 11
64.6429639599
 21
434.8925269177
 31
0.0
  0
LINE
  5
121
330
75
100
AcDbEntity
  8
$DDT_AUDIT_GENERATED_(AD)
  6
Continuous
 62
     7
100
AcDbLine
 10
64.6429639599
 20
434.8925269177
 30
0.0
 11
65.6429639599
 21
434.8925269177
 31
0.0
  0
LINE
  5
122
330
75
100
AcDbEntity
  8
$DDT_AUDIT_GENERATED_(AD)
  6
Continuous
 62
     7
100
AcDbLine
 10
65.6429639599
 20
434.8925269177
 30
0.0
 11
65.6429639599
 21
434.3925269177
 31
0.0
  0
LINE
  5
123
330
75
100
AcDbEntity
  8
$DDT_AUDIT_GENERATED_(AD)
  6
Continuous
 62
     7
100
AcDbLine
 10
65.6429639599
 20
434.3925269177
 30
0.0
 11
64.6429639599
 21
434.3925269177
 31
0.0
  0
LINE
  5
124
330
75
100
AcDbEntity
  8
$DDT_AUDIT_GENERATED_(AD)
  6
Continuous
 62
     7
100
AcDbLine
 10
63.4429639599
 20
431.9925269177
 30
0.0
 11
63.4429639599
 21
432.4925269177
 31
0.0
  0
LINE
  5
125
330
75
100
AcDbEntity
  8
$DDT_AUDIT_GENERATED_(AD)
  6
Continuous
 62
     7
100
AcDbLine
 10
63.4429639599
 20
432.4925269177
 30
0.0
 11
64.4429639599
 21
432.4925269177
 31
0.0
  0
LINE
  5
126
330
75
100
AcDbEntity
  8
$DDT_AUDIT_GENERATED_(AD)
  6
Continuous
 62
     7
100
AcDbLine
 10
64.4429639599
 20
432.4925269177
 30
0.0
 11
64.4429639599
 21
431.9925269177
 31
0.0
  0
LINE
  5
127
330
75
100
AcDbEntity
  8
$DDT_AUDIT_GENERATED_(AD)
  6
Continuous
 62
     7
100
AcDbLine
 10
63.4429639599
 20
432.5925269177
 30
0.0
 11
63.4429639599
 21
433.0925269177
 31
0.0
  0
LINE
  5
128
330
75
100
AcDbEntity
  8
$DDT_AUDIT_GENERATED_(AD)
  6
Continuous
 62
     7
100
AcDbLine
 10
63.4429639599
 20
433.0925269177
 30
0.0
 11
64.4429639599
 21
433.0925269177
 31
0.0
  0
LINE
  5
129
330
75
100
AcDbEntity
  8
$DDT_AUDIT_GENERATED_(AD)
  6
Continuous
 62
     7
100
AcDbLine
 10
64.4429639599
 20
433.0925269177
 30
0.0
 11
64.4429639599
 21
432.5925269177
 31
0.0
  0
LINE
  5
12A
330
75
100
AcDbEntity
  8
$DDT_AUDIT_GENERATED_(AD)
  6
Continuous
 62
     7
100
AcDbLine
 10
64.4429639599
 20
432.5925269177
 30
0.0
 11
63.4429639599
 21
432.5925269177
 31
0.0
  0
LINE
  5
12B
330
75
100
AcDbEntity
  8
$DDT_AUDIT_GENERATED_(AD)
  6
Continuous
 62
     7
100
AcDbLine
 10
63.4429639599
 20
433.1925269177
 30
0.0
 11
63.4429639599
 21
433.6925269177
 31
0.0
  0
LINE
  5
12C
330
75
100
AcDbEntity
  8
$DDT_AUDIT_GENERATED_(AD)
  6
Continuous
 62
     7
100
AcDbLine
 10
63.4429639599
 20
433.6925269177
 30
0.0
 11
64.4429639599
 21
433.6925269177
 31
0.0
  0
LINE
  5
12D
330
75
100
AcDbEntity
  8
$DDT_AUDIT_GENERATED_(AD)
  6
Continuous
 62
     7
100
AcDbLine
 10
64.4429639599
 20
433.6925269177
 30
0.0
 11
64.4429639599
 21
433.1925269177
 31
0.0
  0
LINE
  5
12E
330
75
100
AcDbEntity
  8
$DDT_AUDIT_GENERATED_(AD)
  6
Continuous
 62
     7
100
AcDbLine
 10
64.4429639599
 20
433.1925269177
 30
0.0
 11
63.4429639599
 21
433.1925269177
 31
0.0
  0
LINE
  5
12F
330
75
100
AcDbEntity
  8
$DDT_AUDIT_GENERATED_(AD)
  6
Continuous
 62
     7
100
AcDbLine
 10
63.4429639599
 20
433.7925269177
 30
0.0
 11
63.4429639599
 21
434.2925269177
 31
0.0
  0
LINE
  5
130
330
75
100
AcDbEntity
  8
$DDT_AUDIT_GENERATED_(AD)
  6
Continuous
 62
     7
100
AcDbLine
 10
63.4429639599
 20
434.2925269177
 30
0.0
 11
64.4429639599
 21
434.2925269177
 31
0.0
  0
LINE
  5
131
330
75
100
AcDbEntity
  8
$DDT_AUDIT_GENERATED_(AD)
  6
Continuous
 62
     7
100
AcDbLine
 10
64.4429639599
 20
434.2925269177
 30
0.0
 11
64.4429639599
 21
433.7925269177
 31
0.0
  0
LINE
  5
132
330
75
100
AcDbEntity
  8
$DDT_AUDIT_GENERATED_(AD)
  6
Continuous
 62
     7
100
AcDbLine
 10
64.4429639599
 20
433.7925269177
 30
0.0
 11
63.4429639599
 21
433.7925269177
 31
0.0
  0
LINE
  5
133
330
75
100
AcDbEntity
  8
$DDT_AUDIT_GENERATED_(AD)
  6
Continuous
 62
     7
100
AcDbLine
 10
62.2429639599
 20
431.9925269177
 30
0.0
 11
62.2429639599
 21
432.4925269177
 31
0.0
  0
LINE
  5
134
330
75
100
AcDbEntity
  8
$DDT_AUDIT_GENERATED_(AD)
  6
Continuous
 62
     7
100
AcDbLine
 10
62.2429639599
 20
432.4925269177
 30
0.0
 11
63.2429639599
 21
432.4925269177
 31
0.0
  0
LINE
  5
135
330
75
100
AcDbEntity
  8
$DDT_AUDIT_GENERATED_(AD)
  6
Continuous
 62
     7
100
AcDbLine
 10
63.2429639599
 20
432.4925269177
 30
0.0
 11
63.2429639599
 21
431.9925269177
 31
0.0
  0
LINE
  5
136
330
75
100
AcDbEntity
  8
$DDT_AUDIT_GENERATED_(AD)
  6
Continuous
 62
     7
100
AcDbLine
 10
62.2429639599
 20
432.5925269177
 30
0.0
 11
62.2429639599
 21
433.0925269177
 31
0.0
  0
LINE
  5
137
330
75
100
AcDbEntity
  8
$DDT_AUDIT_GENERATED_(AD)
  6
Continuous
 62
     7
100
AcDbLine
 10
62.2429639599
 20
433.0925269177
 30
0.0
 11
63.2429639599
 21
433.0925269177
 31
0.0
  0
LINE
  5
138
330
75
100
AcDbEntity
  8
$DDT_AUDIT_GENERATED_(AD)
  6
Continuous
 62
     7
100
AcDbLine
 10
63.2429639599
 20
433.0925269177
 30
0.0
 11
63.2429639599
 21
432.5925269177
 31
0.0
  0
LINE
  5
139
330
75
100
AcDbEntity
  8
$DDT_AUDIT_GENERATED_(AD)
  6
Continuous
 62
     7
100
AcDbLine
 10
63.2429639599
 20
432.5925269177
 30
0.0
 11
62.2429639599
 21
432.5925269177
 31
0.0
  0
LINE
  5
13A
330
75
100
AcDbEntity
  8
$DDT_AUDIT_GENERATED_(AD)
  6
Continuous
 62
     7
100
AcDbLine
 10
62.2429639599
 20
433.1925269177
 30
0.0
 11
62.2429639599
 21
433.2904345378
 31
0.0
  0
LINE
  5
13B
330
75
100
AcDbEntity
  8
$DDT_AUDIT_GENERATED_(AD)
  6
Continuous
 62
     7
100
AcDbLine
 10
62.6026947102
 20
433.6925269177
 30
0.0
 11
63.2429639599
 21
433.6925269177
 31
0.0
  0
LINE
  5
13C
330
75
100
AcDbEntity
  8
$DDT_AUDIT_GENERATED_(AD)
  6
Continuous
 62
     7
100
AcDbLine
 10
63.2429639599
 20
433.6925269177
 30
0.0
 11
63.2429639599
 21
433.1925269177
 31
0.0
  0
LINE
  5
13D
330
75
100
AcDbEntity
  8
$DDT_AUDIT_GENERATED_(AD)
  6
Continuous
 62
     7
100
AcDbLine
 10
63.2429639599
 20
433.1925269177
 30
0.0
 11
62.2429639599
 21
433.1925269177
 31
0.0
  0
LINE
  5
13E
330
75
100
AcDbEntity
  8
$DDT_AUDIT_GENERATED_(AD)
  6
Continuous
 62
     7
100
AcDbLine
 10
61.8068423657
 20
432.4925269177
 30
0.0
 11
62.0429639599
 21
432.4925269177
 31
0.0
  0
LINE
  5
13F
330
75
100
AcDbEntity
  8
$DDT_AUDIT_GENERATED_(AD)
  6
Continuous
 62
     7
100
AcDbLine
 10
62.0429639599
 20
432.4925269177
 30
0.0
 11
62.0429639599
 21
431.9925269177
 31
0.0
  0
LINE
  5
140
330
75
100
AcDbEntity
  8
$DDT_AUDIT_GENERATED_(AD)
  6
Continuous
 62
     7
100
AcDbLine
 10
62.0429639599
 20
432.9982635587
 30
0.0
 11
62.0429639599
 21
432.5925269177
 31
0.0
  0
LINE
  5
141
330
75
100
AcDbEntity
  8
$DDT_AUDIT_GENERATED_(AD)
  6
Continuous
 62
     7
100
AcDbLine
 10
62.0429639599
 20
432.5925269177
 30
0.0
 11
61.8429599825
 21
432.5925269177
 31
0.0
  0
LINE
  5
142
330
75
100
AcDbEntity
  8
$DDT_AUDIT_GENERATED_(AD)
  6
Continuous
 62
     7
100
AcDbLine
 10
63.2429639599
 20
434.2164053642
 30
0.0
 11
63.2429639599
 21
433.7925269177
 31
0.0
  0
LINE
  5
143
330
75
100
AcDbEntity
  8
$DDT_AUDIT_GENERATED_(AD)
  6
Continuous
 62
     7
100
AcDbLine
 10
63.2429639599
 20
433.7925269177
 30
0.0
 11
62.7087990118
 21
433.7925269177
 31
0.0
  0
LINE
  5
144
330
75
100
AcDbEntity
  8
$DDT_AUDIT_GENERATED_(AD)
  6
Continuous
 62
     7
100
AcDbLine
 10
64.4429639599
 20
434.8841076849
 30
0.0
 11
64.4429639599
 21
434.3925269177
 31
0.0
  0
LINE
  5
145
330
75
100
AcDbEntity
  8
$DDT_AUDIT_GENERATED_(AD)
  6
Continuous
 62
     7
100
AcDbLine
 10
64.4429639599
 20
434.3925269177
 30
0.0
 11
63.5106485504
 21
434.3925269177
 31
0.0
  0
LINE
  5
146
330
75
100
AcDbEntity
  8
$DDT_AUDIT_GENERATED_(AD)
  6
Continuous
 62
     7
100
AcDbLine
 10
65.6429639599
 20
435.3299012684
 30
0.0
 11
65.6429639599
 21
434.9925269177
 31
0.0
  0
LINE
  5
147
330
75
100
AcDbEntity
  8
$DDT_AUDIT_GENERATED_(AD)
  6
Continuous
 62
     7
100
AcDbLine
 10
65.6429639599
 20
434.9925269177
 30
0.0
 11
64.6954673607
 21
434.9925269177
 31
0.0
  0
LINE
  5
148
330
75
100
AcDbEntity
  8
$DDT_AUDIT_GENERATED_(AD)
  6
Continuous
 62
     7
100
AcDbLine
 10
67.0429639599
 20
435.5925269177
 30
0.0
 11
67.0429639599
 21
435.6712657615
 31
0.0
  0
LINE
  5
149
330
75
100
AcDbEntity
  8
$DDT_AUDIT_GENERATED_(AD)
  6
Continuous
 62
     7
100
AcDbLine
 10
68.0429639599
 20
435.8236299342
 30
0.0
 11
68.0429639599
 21
435.5925269177
 31
0.0
  0
LINE
  5
14A
330
75
100
AcDbEntity
  8
$DDT_AUDIT_GENERATED_(AD)
  6
Continuous
 62
     7
100
AcDbLine
 10
68.0429639599
 20
435.5925269177
 30
0.0
 11
67.0429639599
 21
435.5925269177
 31
0.0
  0
LINE
  5
14B
330
75
100
AcDbEntity
  8
$DDT_AUDIT_GENERATED_(AD)
  6
Continuous
 62
     7
100
AcDbLine
 10
66.8429639599
 20
435.6322259497
 30
0.0
 11
66.8429639599
 21
435.5925269177
 31
0.0
  0
LINE
  5
14C
330
75
100
AcDbEntity
  8
$DDT_AUDIT_GENERATED_(AD)
  6
Continuous
 62
     7
100
AcDbLine
 10
66.8429639599
 20
435.5925269177
 30
0.0
 11
66.6539276893
 21
435.5925269177
 31
0.0
  0
LINE
  5
14D
330
75
100
AcDbEntity
  8
$DDT_AUDIT_GENERATED_(AD)
  6
Continuous
 62
     7
100
AcDbLine
 10
70.4429639599
 20
432.4925269177
 30
0.0
 11
70.4429639599
 21
431.9925269177
 31
0.0
  0
LINE
  5
14E
330
75
100
AcDbEntity
  8
$DDT_AUDIT_GENERATED_(AD)
  6
Continuous
 62
     7
100
AcDbLine
 10
70.6429639599
 20
432.4925269177
 30
0.0
 11
71.6429639599
 21
432.4925269177
 31
0.0
  0
LINE
  5
14F
330
75
100
AcDbEntity
  8
$DDT_AUDIT_GENERATED_(AD)
  6
Continuous
 62
     7
100
AcDbLine
 10
71.6429639599
 20
432.4925269177
 30
0.0
 11
71.6429639599
 21
431.9925269177
 31
0.0
  0
LINE
  5
150
330
75
100
AcDbEntity
  8
$DDT_AUDIT_GENERATED_(AD)
  6
Continuous
 62
     7
100
AcDbLine
 10
70.6429639599
 20
431.9925269177
 30
0.0
 11
70.6429639599
 21
432.4925269177
 31
0.0
  0
LINE
  5
151
330
75
100
AcDbEntity
  8
$DDT_AUDIT_GENERATED_(AD)
  6
Continuous
 62
     7
100
AcDbLine
 10
71.8429639599
 20
432.4925269177
 30
0.0
 11
72.8429639599
 21
432.4925269177
 31
0.0
  0
LINE
  5
152
330
75
100
AcDbEntity
  8
$DDT_AUDIT_GENERATED_(AD)
  6
Continuous
 62
     7
100
AcDbLine
 10
72.8429639599
 20
432.4925269177
 30
0.0
 11
72.8429639599
 21
431.9925269177
 31
0.0
  0
LINE
  5
153
330
75
100
AcDbEntity
  8
$DDT_AUDIT_GENERATED_(AD)
  6
Continuous
 62
     7
100
AcDbLine
 10
71.8429639599
 20
431.9925269177
 30
0.0
 11
71.8429639599
 21
432.4925269177
 31
0.0
  0
LINE
  5
154
330
75
100
AcDbEntity
  8
$DDT_AUDIT_GENERATED_(AD)
  6
Continuous
 62
     7
100
AcDbLine
 10
73.0429639599
 20
432.4925269177
 30
0.0
 11
74.0429639599
 21
432.4925269177
 31
0.0
  0
LINE
  5
155
330
75
100
AcDbEntity
  8
$DDT_AUDIT_GENERATED_(AD)
  6
Continuous
 62
     7
100
AcDbLine
 10
74.0429639599
 20
432.4925269177
 30
0.0
 11
74.0429639599
 21
431.9925269177
 31
0.0
  0
LINE
  5
156
330
75
100
AcDbEntity
  8
$DDT_AUDIT_GENERATED_(AD)
  6
Continuous
 62
     7
100
AcDbLine
 10
73.0429639599
 20
431.9925269177
 30
0.0
 11
73.0429639599
 21
432.4925269177
 31
0.0
  0
LINE
  5
157
330
75
100
AcDbEntity
  8
$DDT_AUDIT_GENERATED_(AD)
  6
Continuous
 62
     7
100
AcDbLine
 10
74.2429639599
 20
432.4925269177
 30
0.0
 11
75.2429639599
 21
432.4925269177
 31
0.0
  0
LINE
  5
158
330
75
100
AcDbEntity
  8
$DDT_AUDIT_GENERATED_(AD)
  6
Continuous
 62
     7
100
AcDbLine
 10
75.2429639599
 20
432.4925269177
 30
0.0
 11
75.2429639599
 21
431.9925269177
 31
0.0
  0
LINE
  5
159
330
75
100
AcDbEntity
  8
$DDT_AUDIT_GENERATED_(AD)
  6
Continuous
 62
     7
100
AcDbLine
 10
74.2429639599
 20
431.9925269177
 30
0.0
 11
74.2429639599
 21
432.4925269177
 31
0.0
  0
LINE
  5
15A
330
75
100
AcDbEntity
  8
$DDT_AUDIT_GENERATED_(AD)
  6
Continuous
 62
     7
100
AcDbLine
 10
75.4429639599
 20
432.4925269177
 30
0.0
 11
76.4429639599
 21
432.4925269177
 31
0.0
  0
LINE
  5
15B
330
75
100
AcDbEntity
  8
$DDT_AUDIT_GENERATED_(AD)
  6
Continuous
 62
     7
100
AcDbLine
 10
76.4429639599
 20
432.4925269177
 30
0.0
 11
76.4429639599
 21
431.9925269177
 31
0.0
  0
LINE
  5
15C
330
75
100
AcDbEntity
  8
$DDT_AUDIT_GENERATED_(AD)
  6
Continuous
 62
     7
100
AcDbLine
 10
75.4429639599
 20
431.9925269177
 30
0.0
 11
75.4429639599
 21
432.4925269177
 31
0.0
  0
LINE
  5
15D
330
75
100
AcDbEntity
  8
$DDT_AUDIT_GENERATED_(AD)
  6
Continuous
 62
     7
100
AcDbLine
 10
77.6429639599
 20
432.4925269177
 30
0.0
 11
77.6429639599
 21
431.9925269177
 31
0.0
  0
LINE
  5
15E
330
75
100
AcDbEntity
  8
$DDT_AUDIT_GENERATED_(AD)
  6
Continuous
 62
     7
100
AcDbLine
 10
76.6429639599
 20
432.4925269177
 30
0.0
 11
77.6429639599
 21
432.4925269177
 31
0.0
  0
LINE
  5
15F
330
75
100
AcDbEntity
  8
$DDT_AUDIT_GENERATED_(AD)
  6
Continuous
 62
     7
100
AcDbLine
 10
76.6429639599
 20
431.9925269177
 30
0.0
 11
76.6429639599
 21
432.4925269177
 31
0.0
  0
LINE
  5
160
330
75
100
AcDbEntity
  8
$DDT_AUDIT_GENERATED_(AD)
  6
Continuous
 62
     7
100
AcDbLine
 10
70.4429639599
 20
433.0925269177
 30
0.0
 11
70.4429639599
 21
432.5925269177
 31
0.0
  0
LINE
  5
161
330
75
100
AcDbEntity
  8
$DDT_AUDIT_GENERATED_(AD)
  6
Continuous
 62
     7
100
AcDbLine
 10
70.6429639599
 20
433.0925269177
 30
0.0
 11
71.6429639599
 21
433.0925269177
 31
0.0
  0
LINE
  5
162
330
75
100
AcDbEntity
  8
$DDT_AUDIT_GENERATED_(AD)
  6
Continuous
 62
     7
100
AcDbLine
 10
71.6429639599
 20
433.0925269177
 30
0.0
 11
71.6429639599
 21
432.5925269177
 31
0.0
  0
LINE
  5
163
330
75
100
AcDbEntity
  8
$DDT_AUDIT_GENERATED_(AD)
  6
Continuous
 62
     7
100
AcDbLine
 10
71.6429639599
 20
432.5925269177
 30
0.0
 11
70.6429639599
 21
432.5925269177
 31
0.0
  0
LINE
  5
164
330
75
100
AcDbEntity
  8
$DDT_AUDIT_GENERATED_(AD)
  6
Continuous
 62
     7
100
AcDbLine
 10
70.6429639599
 20
432.5925269177
 30
0.0
 11
70.6429639599
 21
433.0925269177
 31
0.0
  0
LINE
  5
165
330
75
100
AcDbEntity
  8
$DDT_AUDIT_GENERATED_(AD)
  6
Continuous
 62
     7
100
AcDbLine
 10
71.8429639599
 20
433.0925269177
 30
0.0
 11
72.8429639599
 21
433.0925269177
 31
0.0
  0
LINE
  5
166
330
75
100
AcDbEntity
  8
$DDT_AUDIT_GENERATED_(AD)
  6
Continuous
 62
     7
100
AcDbLine
 10
72.8429639599
 20
433.0925269177
 30
0.0
 11
72.8429639599
 21
432.5925269177
 31
0.0
  0
LINE
  5
167
330
75
100
AcDbEntity
  8
$DDT_AUDIT_GENERATED_(AD)
  6
Continuous
 62
     7
100
AcDbLine
 10
72.8429639599
 20
432.5925269177
 30
0.0
 11
71.8429639599
 21
432.5925269177
 31
0.0
  0
LINE
  5
168
330
75
100
AcDbEntity
  8
$DDT_AUDIT_GENERATED_(AD)
  6
Continuous
 62
     7
100
AcDbLine
 10
71.8429639599
 20
432.5925269177
 30
0.0
 11
71.8429639599
 21
433.0925269177
 31
0.0
  0
LINE
  5
169
330
75
100
AcDbEntity
  8
$DDT_AUDIT_GENERATED_(AD)
  6
Continuous
 62
     7
100
AcDbLine
 10
73.0429639599
 20
433.0925269177
 30
0.0
 11
74.0429639599
 21
433.0925269177
 31
0.0
  0
LINE
  5
16A
330
75
100
AcDbEntity
  8
$DDT_AUDIT_GENERATED_(AD)
  6
Continuous
 62
     7
100
AcDbLine
 10
74.0429639599
 20
433.0925269177
 30
0.0
 11
74.0429639599
 21
432.5925269177
 31
0.0
  0
LINE
  5
16B
330
75
100
AcDbEntity
  8
$DDT_AUDIT_GENERATED_(AD)
  6
Continuous
 62
     7
100
AcDbLine
 10
74.0429639599
 20
432.5925269177
 30
0.0
 11
73.0429639599
 21
432.5925269177
 31
0.0
  0
LINE
  5
16C
330
75
100
AcDbEntity
  8
$DDT_AUDIT_GENERATED_(AD)
  6
Continuous
 62
     7
100
AcDbLine
 10
73.0429639599
 20
432.5925269177
 30
0.0
 11
73.0429639599
 21
433.0925269177
 31
0.0
  0
LINE
  5
16D
330
75
100
AcDbEntity
  8
$DDT_AUDIT_GENERATED_(AD)
  6
Continuous
 62
     7
100
AcDbLine
 10
74.2429639599
 20
433.0925269177
 30
0.0
 11
75.2429639599
 21
433.0925269177
 31
0.0
  0
LINE
  5
16E
330
75
100
AcDbEntity
  8
$DDT_AUDIT_GENERATED_(AD)
  6
Continuous
 62
     7
100
AcDbLine
 10
75.2429639599
 20
433.0925269177
 30
0.0
 11
75.2429639599
 21
432.5925269177
 31
0.0
  0
LINE
  5
16F
330
75
100
AcDbEntity
  8
$DDT_AUDIT_GENERATED_(AD)
  6
Continuous
 62
     7
100
AcDbLine
 10
75.2429639599
 20
432.5925269177
 30
0.0
 11
74.2429639599
 21
432.5925269177
 31
0.0
  0
LINE
  5
170
330
75
100
AcDbEntity
  8
$DDT_AUDIT_GENERATED_(AD)
  6
Continuous
 62
     7
100
AcDbLine
 10
74.2429639599
 20
432.5925269177
 30
0.0
 11
74.2429639599
 21
433.0925269177
 31
0.0
  0
LINE
  5
171
330
75
100
AcDbEntity
  8
$DDT_AUDIT_GENERATED_(AD)
  6
Continuous
 62
     7
100
AcDbLine
 10
75.4429639599
 20
433.0925269177
 30
0.0
 11
76.4429639599
 21
433.0925269177
 31
0.0
  0
LINE
  5
172
330
75
100
AcDbEntity
  8
$DDT_AUDIT_GENERATED_(AD)
  6
Continuous
 62
     7
100
AcDbLine
 10
76.4429639599
 20
433.0925269177
 30
0.0
 11
76.4429639599
 21
432.5925269177
 31
0.0
  0
LINE
  5
173
330
75
100
AcDbEntity
  8
$DDT_AUDIT_GENERATED_(AD)
  6
Continuous
 62
     7
100
AcDbLine
 10
76.4429639599
 20
432.5925269177
 30
0.0
 11
75.4429639599
 21
432.5925269177
 31
0.0
  0
LINE
  5
174
330
75
100
AcDbEntity
  8
$DDT_AUDIT_GENERATED_(AD)
  6
Continuous
 62
     7
100
AcDbLine
 10
75.4429639599
 20
432.5925269177
 30
0.0
 11
75.4429639599
 21
433.0925269177
 31
0.0
  0
LINE
  5
175
330
75
100
AcDbEntity
  8
$DDT_AUDIT_GENERATED_(AD)
  6
Continuous
 62
     7
100
AcDbLine
 10
76.6429639599
 20
433.0925269177
 30
0.0
 11
77.6429639599
 21
433.0925269177
 31
0.0
  0
LINE
  5
176
330
75
100
AcDbEntity
  8
$DDT_AUDIT_GENERATED_(AD)
  6
Continuous
 62
     7
100
AcDbLine
 10
77.6429639599
 20
433.0925269177
 30
0.0
 11
77.6429639599
 21
432.5925269177
 31
0.0
  0
LINE
  5
177
330
75
100
AcDbEntity
  8
$DDT_AUDIT_GENERATED_(AD)
  6
Continuous
 62
     7
100
AcDbLine
 10
77.6429639599
 20
432.5925269177
 30
0.0
 11
76.6429639599
 21
432.5925269177
 31
0.0
  0
LINE
  5
178
330
75
100
AcDbEntity
  8
$DDT_AUDIT_GENERATED_(AD)
  6
Continuous
 62
     7
100
AcDbLine
 10
76.6429639599
 20
432.5925269177
 30
0.0
 11
76.6429639599
 21
433.0925269177
 31
0.0
  0
LINE
  5
179
330
75
100
AcDbEntity
  8
$DDT_AUDIT_GENERATED_(AD)
  6
Continuous
 62
     7
100
AcDbLine
 10
70.4429639599
 20
433.6925269177
 30
0.0
 11
70.4429639599
 21
433.1925269177
 31
0.0
  0
LINE
  5
17A
330
75
100
AcDbEntity
  8
$DDT_AUDIT_GENERATED_(AD)
  6
Continuous
 62
     7
100
AcDbLine
 10
70.6429639599
 20
433.6925269177
 30
0.0
 11
71.6429639599
 21
433.6925269177
 31
0.0
  0
LINE
  5
17B
330
75
100
AcDbEntity
  8
$DDT_AUDIT_GENERATED_(AD)
  6
Continuous
 62
     7
100
AcDbLine
 10
71.6429639599
 20
433.6925269177
 30
0.0
 11
71.6429639599
 21
433.1925269177
 31
0.0
  0
LINE
  5
17C
330
75
100
AcDbEntity
  8
$DDT_AUDIT_GENERATED_(AD)
  6
Continuous
 62
     7
100
AcDbLine
 10
71.6429639599
 20
433.1925269177
 30
0.0
 11
70.6429639599
 21
433.1925269177
 31
0.0
  0
LINE
  5
17D
330
75
100
AcDbEntity
  8
$DDT_AUDIT_GENERATED_(AD)
  6
Continuous
 62
     7
100
AcDbLine
 10
70.6429639599
 20
433.1925269177
 30
0.0
 11
70.6429639599
 21
433.6925269177
 31
0.0
  0
LINE
  5
17E
330
75
100
AcDbEntity
  8
$DDT_AUDIT_GENERATED_(AD)
  6
Continuous
 62
     7
100
AcDbLine
 10
71.8429639599
 20
433.6925269177
 30
0.0
 11
72.8429639599
 21
433.6925269177
 31
0.0
  0
LINE
  5
17F
330
75
100
AcDbEntity
  8
$DDT_AUDIT_GENERATED_(AD)
  6
Continuous
 62
     7
100
AcDbLine
 10
72.8429639599
 20
433.6925269177
 30
0.0
 11
72.8429639599
 21
433.1925269177
 31
0.0
  0
LINE
  5
180
330
75
100
AcDbEntity
  8
$DDT_AUDIT_GENERATED_(AD)
  6
Continuous
 62
     7
100
AcDbLine
 10
72.8429639599
 20
433.1925269177
 30
0.0
 11
71.8429639599
 21
433.1925269177
 31
0.0
  0
LINE
  5
181
330
75
100
AcDbEntity
  8
$DDT_AUDIT_GENERATED_(AD)
  6
Continuous
 62
     7
100
AcDbLine
 10
71.8429639599
 20
433.1925269177
 30
0.0
 11
71.8429639599
 21
433.6925269177
 31
0.0
  0
LINE
  5
182
330
75
100
AcDbEntity
  8
$DDT_AUDIT_GENERATED_(AD)
  6
Continuous
 62
     7
100
AcDbLine
 10
73.0429639599
 20
433.6925269177
 30
0.0
 11
74.0429639599
 21
433.6925269177
 31
0.0
  0
LINE
  5
183
330
75
100
AcDbEntity
  8
$DDT_AUDIT_GENERATED_(AD)
  6
Continuous
 62
     7
100
AcDbLine
 10
74.0429639599
 20
433.6925269177
 30
0.0
 11
74.0429639599
 21
433.1925269177
 31
0.0
  0
LINE
  5
184
330
75
100
AcDbEntity
  8
$DDT_AUDIT_GENERATED_(AD)
  6
Continuous
 62
     7
100
AcDbLine
 10
74.0429639599
 20
433.1925269177
 30
0.0
 11
73.0429639599
 21
433.1925269177
 31
0.0
  0
LINE
  5
185
330
75
100
AcDbEntity
  8
$DDT_AUDIT_GENERATED_(AD)
  6
Continuous
 62
     7
100
AcDbLine
 10
73.0429639599
 20
433.1925269177
 30
0.0
 11
73.0429639599
 21
433.6925269177
 31
0.0
  0
LINE
  5
186
330
75
100
AcDbEntity
  8
$DDT_AUDIT_GENERATED_(AD)
  6
Continuous
 62
     7
100
AcDbLine
 10
74.2429639599
 20
433.6925269177
 30
0.0
 11
75.2429639599
 21
433.6925269177
 31
0.0
  0
LINE
  5
187
330
75
100
AcDbEntity
  8
$DDT_AUDIT_GENERATED_(AD)
  6
Continuous
 62
     7
100
AcDbLine
 10
75.2429639599
 20
433.6925269177
 30
0.0
 11
75.2429639599
 21
433.1925269177
 31
0.0
  0
LINE
  5
188
330
75
100
AcDbEntity
  8
$DDT_AUDIT_GENERATED_(AD)
  6
Continuous
 62
     7
100
AcDbLine
 10
75.2429639599
 20
433.1925269177
 30
0.0
 11
74.2429639599
 21
433.1925269177
 31
0.0
  0
LINE
  5
189
330
75
100
AcDbEntity
  8
$DDT_AUDIT_GENERATED_(AD)
  6
Continuous
 62
     7
100
AcDbLine
 10
74.2429639599
 20
433.1925269177
 30
0.0
 11
74.2429639599
 21
433.6925269177
 31
0.0
  0
LINE
  5
18A
330
75
100
AcDbEntity
  8
$DDT_AUDIT_GENERATED_(AD)
  6
Continuous
 62
     7
100
AcDbLine
 10
75.4429639599
 20
433.6925269177
 30
0.0
 11
76.4429639599
 21
433.6925269177
 31
0.0
  0
LINE
  5
18B
330
75
100
AcDbEntity
  8
$DDT_AUDIT_GENERATED_(AD)
  6
Continuous
 62
     7
100
AcDbLine
 10
76.4429639599
 20
433.6925269177
 30
0.0
 11
76.4429639599
 21
433.1925269177
 31
0.0
  0
LINE
  5
18C
330
75
100
AcDbEntity
  8
$DDT_AUDIT_GENERATED_(AD)
  6
Continuous
 62
     7
100
AcDbLine
 10
76.4429639599
 20
433.1925269177
 30
0.0
 11
75.4429639599
 21
433.1925269177
 31
0.0
  0
LINE
  5
18D
330
75
100
AcDbEntity
  8
$DDT_AUDIT_GENERATED_(AD)
  6
Continuous
 62
     7
100
AcDbLine
 10
75.4429639599
 20
433.1925269177
 30
0.0
 11
75.4429639599
 21
433.6925269177
 31
0.0
  0
LINE
  5
18E
330
75
100
AcDbEntity
  8
$DDT_AUDIT_GENERATED_(AD)
  6
Continuous
 62
     7
100
AcDbLine
 10
70.4429639599
 20
434.2925269177
 30
0.0
 11
70.4429639599
 21
433.7925269177
 31
0.0
  0
LINE
  5
18F
330
75
100
AcDbEntity
  8
$DDT_AUDIT_GENERATED_(AD)
  6
Continuous
 62
     7
100
AcDbLine
 10
70.6429639599
 20
434.2925269177
 30
0.0
 11
71.6429639599
 21
434.2925269177
 31
0.0
  0
LINE
  5
190
330
75
100
AcDbEntity
  8
$DDT_AUDIT_GENERATED_(AD)
  6
Continuous
 62
     7
100
AcDbLine
 10
71.6429639599
 20
434.2925269177
 30
0.0
 11
71.6429639599
 21
433.7925269177
 31
0.0
  0
LINE
  5
191
330
75
100
AcDbEntity
  8
$DDT_AUDIT_GENERATED_(AD)
  6
Continuous
 62
     7
100
AcDbLine
 10
71.6429639599
 20
433.7925269177
 30
0.0
 11
70.6429639599
 21
433.7925269177
 31
0.0
  0
LINE
  5
192
330
75
100
AcDbEntity
  8
$DDT_AUDIT_GENERATED_(AD)
  6
Continuous
 62
     7
100
AcDbLine
 10
70.6429639599
 20
433.7925269177
 30
0.0
 11
70.6429639599
 21
434.2925269177
 31
0.0
  0
LINE
  5
193
330
75
100
AcDbEntity
  8
$DDT_AUDIT_GENERATED_(AD)
  6
Continuous
 62
     7
100
AcDbLine
 10
71.8429639599
 20
434.2925269177
 30
0.0
 11
72.8429639599
 21
434.2925269177
 31
0.0
  0
LINE
  5
194
330
75
100
AcDbEntity
  8
$DDT_AUDIT_GENERATED_(AD)
  6
Continuous
 62
     7
100
AcDbLine
 10
72.8429639599
 20
434.2925269177
 30
0.0
 11
72.8429639599
 21
433.7925269177
 31
0.0
  0
LINE
  5
195
330
75
100
AcDbEntity
  8
$DDT_AUDIT_GENERATED_(AD)
  6
Continuous
 62
     7
100
AcDbLine
 10
72.8429639599
 20
433.7925269177
 30
0.0
 11
71.8429639599
 21
433.7925269177
 31
0.0
  0
LINE
  5
196
330
75
100
AcDbEntity
  8
$DDT_AUDIT_GENERATED_(AD)
  6
Continuous
 62
     7
100
AcDbLine
 10
71.8429639599
 20
433.7925269177
 30
0.0
 11
71.8429639599
 21
434.2925269177
 31
0.0
  0
LINE
  5
197
330
75
100
AcDbEntity
  8
$DDT_AUDIT_GENERATED_(AD)
  6
Continuous
 62
     7
100
AcDbLine
 10
73.0429639599
 20
434.2925269177
 30
0.0
 11
74.0429639599
 21
434.2925269177
 31
0.0
  0
LINE
  5
198
330
75
100
AcDbEntity
  8
$DDT_AUDIT_GENERATED_(AD)
  6
Continuous
 62
     7
100
AcDbLine
 10
74.0429639599
 20
434.2925269177
 30
0.0
 11
74.0429639599
 21
433.7925269177
 31
0.0
  0
LINE
  5
199
330
75
100
AcDbEntity
  8
$DDT_AUDIT_GENERATED_(AD)
  6
Continuous
 62
     7
100
AcDbLine
 10
74.0429639599
 20
433.7925269177
 30
0.0
 11
73.0429639599
 21
433.7925269177
 31
0.0
  0
LINE
  5
19A
330
75
100
AcDbEntity
  8
$DDT_AUDIT_GENERATED_(AD)
  6
Continuous
 62
     7
100
AcDbLine
 10
73.0429639599
 20
433.7925269177
 30
0.0
 11
73.0429639599
 21
434.2925269177
 31
0.0
  0
LINE
  5
19B
330
75
100
AcDbEntity
  8
$DDT_AUDIT_GENERATED_(AD)
  6
Continuous
 62
     7
100
AcDbLine
 10
74.2429639599
 20
434.2925269177
 30
0.0
 11
75.2429639599
 21
434.2925269177
 31
0.0
  0
LINE
  5
19C
330
75
100
AcDbEntity
  8
$DDT_AUDIT_GENERATED_(AD)
  6
Continuous
 62
     7
100
AcDbLine
 10
75.2429639599
 20
434.2925269177
 30
0.0
 11
75.2429639599
 21
433.7925269177
 31
0.0
  0
LINE
  5
19D
330
75
100
AcDbEntity
  8
$DDT_AUDIT_GENERATED_(AD)
  6
Continuous
 62
     7
100
AcDbLine
 10
75.2429639599
 20
433.7925269177
 30
0.0
 11
74.2429639599
 21
433.7925269177
 31
0.0
  0
LINE
  5
19E
330
75
100
AcDbEntity
  8
$DDT_AUDIT_GENERATED_(AD)
  6
Continuous
 62
     7
100
AcDbLine
 10
74.2429639599
 20
433.7925269177
 30
0.0
 11
74.2429639599
 21
434.2925269177
 31
0.0
  0
LINE
  5
19F
330
75
100
AcDbEntity
  8
$DDT_AUDIT_GENERATED_(AD)
  6
Continuous
 62
     7
100
AcDbLine
 10
76.4429639599
 20
434.2925269177
 30
0.0
 11
76.4429639599
 21
433.7925269177
 31
0.0
  0
LINE
  5
1A0
330
75
100
AcDbEntity
  8
$DDT_AUDIT_GENERATED_(AD)
  6
Continuous
 62
     7
100
AcDbLine
 10
75.4429639599
 20
434.2925269177
 30
0.0
 11
76.4429639599
 21
434.2925269177
 31
0.0
  0
LINE
  5
1A1
330
75
100
AcDbEntity
  8
$DDT_AUDIT_GENERATED_(AD)
  6
Continuous
 62
     7
100
AcDbLine
 10
76.4429639599
 20
433.7925269177
 30
0.0
 11
75.4429639599
 21
433.7925269177
 31
0.0
  0
LINE
  5
1A2
330
75
100
AcDbEntity
  8
$DDT_AUDIT_GENERATED_(AD)
  6
Continuous
 62
     7
100
AcDbLine
 10
75.4429639599
 20
433.7925269177
 30
0.0
 11
75.4429639599
 21
434.2925269177
 31
0.0
  0
LINE
  5
1A3
330
75
100
AcDbEntity
  8
$DDT_AUDIT_GENERATED_(AD)
  6
Continuous
 62
     7
100
AcDbLine
 10
70.4429639599
 20
434.8925269177
 30
0.0
 11
70.4429639599
 21
434.3925269177
 31
0.0
  0
LINE
  5
1A4
330
75
100
AcDbEntity
  8
$DDT_AUDIT_GENERATED_(AD)
  6
Continuous
 62
     7
100
AcDbLine
 10
70.6429639599
 20
434.8925269177
 30
0.0
 11
71.6429639599
 21
434.8925269177
 31
0.0
  0
LINE
  5
1A5
330
75
100
AcDbEntity
  8
$DDT_AUDIT_GENERATED_(AD)
  6
Continuous
 62
     7
100
AcDbLine
 10
71.6429639599
 20
434.8925269177
 30
0.0
 11
71.6429639599
 21
434.3925269177
 31
0.0
  0
LINE
  5
1A6
330
75
100
AcDbEntity
  8
$DDT_AUDIT_GENERATED_(AD)
  6
Continuous
 62
     7
100
AcDbLine
 10
71.6429639599
 20
434.3925269177
 30
0.0
 11
70.6429639599
 21
434.3925269177
 31
0.0
  0
LINE
  5
1A7
330
75
100
AcDbEntity
  8
$DDT_AUDIT_GENERATED_(AD)
  6
Continuous
 62
     7
100
AcDbLine
 10
70.6429639599
 20
434.3925269177
 30
0.0
 11
70.6429639599
 21
434.8925269177
 31
0.0
  0
LINE
  5
1A8
330
75
100
AcDbEntity
  8
$DDT_AUDIT_GENERATED_(AD)
  6
Continuous
 62
     7
100
AcDbLine
 10
71.8429639599
 20
434.8925269177
 30
0.0
 11
72.8429639599
 21
434.8925269177
 31
0.0
  0
LINE
  5
1A9
330
75
100
AcDbEntity
  8
$DDT_AUDIT_GENERATED_(AD)
  6
Continuous
 62
     7
100
AcDbLine
 10
72.8429639599
 20
434.8925269177
 30
0.0
 11
72.8429639599
 21
434.3925269177
 31
0.0
  0
LINE
  5
1AA
330
75
100
AcDbEntity
  8
$DDT_AUDIT_GENERATED_(AD)
  6
Continuous
 62
     7
100
AcDbLine
 10
72.8429639599
 20
434.3925269177
 30
0.0
 11
71.8429639599
 21
434.3925269177
 31
0.0
  0
LINE
  5
1AB
330
75
100
AcDbEntity
  8
$DDT_AUDIT_GENERATED_(AD)
  6
Continuous
 62
     7
100
AcDbLine
 10
71.8429639599
 20
434.3925269177
 30
0.0
 11
71.8429639599
 21
434.8925269177
 31
0.0
  0
LINE
  5
1AC
330
75
100
AcDbEntity
  8
$DDT_AUDIT_GENERATED_(AD)
  6
Continuous
 62
     7
100
AcDbLine
 10
73.0429639599
 20
434.8925269177
 30
0.0
 11
74.0429639599
 21
434.8925269177
 31
0.0
  0
LINE
  5
1AD
330
75
100
AcDbEntity
  8
$DDT_AUDIT_GENERATED_(AD)
  6
Continuous
 62
     7
100
AcDbLine
 10
74.0429639599
 20
434.8925269177
 30
0.0
 11
74.0429639599
 21
434.3925269177
 31
0.0
  0
LINE
  5
1AE
330
75
100
AcDbEntity
  8
$DDT_AUDIT_GENERATED_(AD)
  6
Continuous
 62
     7
100
AcDbLine
 10
74.0429639599
 20
434.3925269177
 30
0.0
 11
73.0429639599
 21
434.3925269177
 31
0.0
  0
LINE
  5
1AF
330
75
100
AcDbEntity
  8
$DDT_AUDIT_GENERATED_(AD)
  6
Continuous
 62
     7
100
AcDbLine
 10
73.0429639599
 20
434.3925269177
 30
0.0
 11
73.0429639599
 21
434.8925269177
 31
0.0
  0
LINE
  5
1B0
330
75
100
AcDbEntity
  8
$DDT_AUDIT_GENERATED_(AD)
  6
Continuous
 62
     7
100
AcDbLine
 10
74.2429639599
 20
434.8925269177
 30
0.0
 11
75.2429639599
 21
434.8925269177
 31
0.0
  0
LINE
  5
1B1
330
75
100
AcDbEntity
  8
$DDT_AUDIT_GENERATED_(AD)
  6
Continuous
 62
     7
100
AcDbLine
 10
75.2429639599
 20
434.8925269177
 30
0.0
 11
75.2429639599
 21
434.3925269177
 31
0.0
  0
LINE
  5
1B2
330
75
100
AcDbEntity
  8
$DDT_AUDIT_GENERATED_(AD)
  6
Continuous
 62
     7
100
AcDbLine
 10
75.2429639599
 20
434.3925269177
 30
0.0
 11
74.2429639599
 21
434.3925269177
 31
0.0
  0
LINE
  5
1B3
330
75
100
AcDbEntity
  8
$DDT_AUDIT_GENERATED_(AD)
  6
Continuous
 62
     7
100
AcDbLine
 10
74.2429639599
 20
434.3925269177
 30
0.0
 11
74.2429639599
 21
434.8925269177
 31
0.0
  0
LINE
  5
1B4
330
75
100
AcDbEntity
  8
$DDT_AUDIT_GENERATED_(AD)
  6
Continuous
 62
     7
100
AcDbLine
 10
70.4429639599
 20
435.4925269177
 30
0.0
 11
70.4429639599
 21
434.9925269177
 31
0.0
  0
LINE
  5
1B5
330
75
100
AcDbEntity
  8
$DDT_AUDIT_GENERATED_(AD)
  6
Continuous
 62
     7
100
AcDbLine
 10
70.6429639599
 20
435.4925269177
 30
0.0
 11
71.6429639599
 21
435.4925269177
 31
0.0
  0
LINE
  5
1B6
330
75
100
AcDbEntity
  8
$DDT_AUDIT_GENERATED_(AD)
  6
Continuous
 62
     7
100
AcDbLine
 10
71.6429639599
 20
435.4925269177
 30
0.0
 11
71.6429639599
 21
434.9925269177
 31
0.0
  0
LINE
  5
1B7
330
75
100
AcDbEntity
  8
$DDT_AUDIT_GENERATED_(AD)
  6
Continuous
 62
     7
100
AcDbLine
 10
71.6429639599
 20
434.9925269177
 30
0.0
 11
70.6429639599
 21
434.9925269177
 31
0.0
  0
LINE
  5
1B8
330
75
100
AcDbEntity
  8
$DDT_AUDIT_GENERATED_(AD)
  6
Continuous
 62
     7
100
AcDbLine
 10
70.6429639599
 20
434.9925269177
 30
0.0
 11
70.6429639599
 21
435.4925269177
 31
0.0
  0
LINE
  5
1B9
330
75
100
AcDbEntity
  8
$DDT_AUDIT_GENERATED_(AD)
  6
Continuous
 62
     7
100
AcDbLine
 10
71.8429639599
 20
435.4925269177
 30
0.0
 11
72.8429639599
 21
435.4925269177
 31
0.0
  0
LINE
  5
1BA
330
75
100
AcDbEntity
  8
$DDT_AUDIT_GENERATED_(AD)
  6
Continuous
 62
     7
100
AcDbLine
 10
72.8429639599
 20
435.4925269177
 30
0.0
 11
72.8429639599
 21
434.9925269177
 31
0.0
  0
LINE
  5
1BB
330
75
100
AcDbEntity
  8
$DDT_AUDIT_GENERATED_(AD)
  6
Continuous
 62
     7
100
AcDbLine
 10
72.8429639599
 20
434.9925269177
 30
0.0
 11
71.8429639599
 21
434.9925269177
 31
0.0
  0
LINE
  5
1BC
330
75
100
AcDbEntity
  8
$DDT_AUDIT_GENERATED_(AD)
  6
Continuous
 62
     7
100
AcDbLine
 10
71.8429639599
 20
434.9925269177
 30
0.0
 11
71.8429639599
 21
435.4925269177
 31
0.0
  0
LINE
  5
1BD
330
75
100
AcDbEntity
  8
$DDT_AUDIT_GENERATED_(AD)
  6
Continuous
 62
     7
100
AcDbLine
 10
73.0429639599
 20
435.4925269177
 30
0.0
 11
73.6583602713
 21
435.4925269177
 31
0.0
  0
LINE
  5
1BE
330
75
100
AcDbEntity
  8
$DDT_AUDIT_GENERATED_(AD)
  6
Continuous
 62
     7
100
AcDbLine
 10
74.0429639599
 20
435.3890567844
 30
0.0
 11
74.0429639599
 21
434.9925269177
 31
0.0
  0
LINE
  5
1BF
330
75
100
AcDbEntity
  8
$DDT_AUDIT_GENERATED_(AD)
  6
Continuous
 62
     7
100
AcDbLine
 10
74.0429639599
 20
434.9925269177
 30
0.0
 11
73.0429639599
 21
434.9925269177
 31
0.0
  0
LINE
  5
1C0
330
75
100
AcDbEntity
  8
$DDT_AUDIT_GENERATED_(AD)
  6
Continuous
 62
     7
100
AcDbLine
 10
73.0429639599
 20
434.9925269177
 30
0.0
 11
73.0429639599
 21
435.4925269177
 31
0.0
  0
LINE
  5
1C1
330
75
100
AcDbEntity
  8
$DDT_AUDIT_GENERATED_(AD)
  6
Continuous
 62
     7
100
AcDbLine
 10
70.4429639599
 20
435.9269314889
 30
0.0
 11
70.4429639599
 21
435.5925269177
 31
0.0
  0
LINE
  5
1C2
330
75
100
AcDbEntity
  8
$DDT_AUDIT_GENERATED_(AD)
  6
Continuous
 62
     7
100
AcDbLine
 10
71.6429639599
 20
435.8459885438
 30
0.0
 11
71.6429639599
 21
435.5925269177
 31
0.0
  0
LINE
  5
1C3
330
75
100
AcDbEntity
  8
$DDT_AUDIT_GENERATED_(AD)
  6
Continuous
 62
     7
100
AcDbLine
 10
71.6429639599
 20
435.5925269177
 30
0.0
 11
70.6429639599
 21
435.5925269177
 31
0.0
  0
LINE
  5
1C4
330
75
100
AcDbEntity
  8
$DDT_AUDIT_GENERATED_(AD)
  6
Continuous
 62
     7
100
AcDbLine
 10
70.6429639599
 20
435.5925269177
 30
0.0
 11
70.6429639599
 21
435.9196389098
 31
0.0
  0
LINE
  5
1C5
330
75
100
AcDbEntity
  8
$DDT_AUDIT_GENERATED_(AD)
  6
Continuous
 62
     7
100
AcDbLine
 10
72.8429639599
 20
435.6712657615
 30
0.0
 11
72.8429639599
 21
435.5925269177
 31
0.0
  0
LINE
  5
1C6
330
75
100
AcDbEntity
  8
$DDT_AUDIT_GENERATED_(AD)
  6
Continuous
 62
     7
100
AcDbLine
 10
72.8429639599
 20
435.5925269177
 30
0.0
 11
71.8429639599
 21
435.5925269177
 31
0.0
  0
LINE
  5
1C7
330
75
100
AcDbEntity
  8
$DDT_AUDIT_GENERATED_(AD)
  6
Continuous
 62
     7
100
AcDbLine
 10
71.8429639599
 20
435.5925269177
 30
0.0
 11
71.8429639599
 21
435.8236299342
 31
0.0
  0
LINE
  5
1C8
330
75
100
AcDbEntity
  8
$DDT_AUDIT_GENERATED_(AD)
  6
Continuous
 62
     7
100
AcDbLine
 10
73.2320002305
 20
435.5925269177
 30
0.0
 11
73.0429639599
 21
435.5925269177
 31
0.0
  0
LINE
  5
1C9
330
75
100
AcDbEntity
  8
$DDT_AUDIT_GENERATED_(AD)
  6
Continuous
 62
     7
100
AcDbLine
 10
73.0429639599
 20
435.5925269177
 30
0.0
 11
73.0429639599
 21
435.6322259497
 31
0.0
  0
LINE
  5
1CA
330
75
100
AcDbEntity
  8
$DDT_AUDIT_GENERATED_(AD)
  6
Continuous
 62
     7
100
AcDbLine
 10
75.1904605591
 20
434.9925269177
 30
0.0
 11
74.2429639599
 21
434.9925269177
 31
0.0
  0
LINE
  5
1CB
330
75
100
AcDbEntity
  8
$DDT_AUDIT_GENERATED_(AD)
  6
Continuous
 62
     7
100
AcDbLine
 10
74.2429639599
 20
434.9925269177
 30
0.0
 11
74.2429639599
 21
435.3299012684
 31
0.0
  0
LINE
  5
1CC
330
75
100
AcDbEntity
  8
$DDT_AUDIT_GENERATED_(AD)
  6
Continuous
 62
     7
100
AcDbLine
 10
76.3752793694
 20
434.3925269177
 30
0.0
 11
75.4429639599
 21
434.3925269177
 31
0.0
  0
LINE
  5
1CD
330
75
100
AcDbEntity
  8
$DDT_AUDIT_GENERATED_(AD)
  6
Continuous
 62
     7
100
AcDbLine
 10
75.4429639599
 20
434.3925269177
 30
0.0
 11
75.4429639599
 21
434.8841076849
 31
0.0
  0
LINE
  5
1CE
330
75
100
AcDbEntity
  8
$DDT_AUDIT_GENERATED_(AD)
  6
Continuous
 62
     7
100
AcDbLine
 10
76.6429639599
 20
433.6925269177
 30
0.0
 11
77.2832332096
 21
433.6925269177
 31
0.0
  0
LINE
  5
1CF
330
75
100
AcDbEntity
  8
$DDT_AUDIT_GENERATED_(AD)
  6
Continuous
 62
     7
100
AcDbLine
 10
77.6429639599
 20
433.2904345378
 30
0.0
 11
77.6429639599
 21
433.1925269177
 31
0.0
  0
LINE
  5
1D0
330
75
100
AcDbEntity
  8
$DDT_AUDIT_GENERATED_(AD)
  6
Continuous
 62
     7
100
AcDbLine
 10
77.6429639599
 20
433.1925269177
 30
0.0
 11
76.6429639599
 21
433.1925269177
 31
0.0
  0
LINE
  5
1D1
330
75
100
AcDbEntity
  8
$DDT_AUDIT_GENERATED_(AD)
  6
Continuous
 62
     7
100
AcDbLine
 10
76.6429639599
 20
433.1925269177
 30
0.0
 11
76.6429639599
 21
433.6925269177
 31
0.0
  0
LINE
  5
1D2
330
75
100
AcDbEntity
  8
$DDT_AUDIT_GENERATED_(AD)
  6
Continuous
 62
     7
100
AcDbLine
 10
77.177128908
 20
433.7925269177
 30
0.0
 11
76.6429639599
 21
433.7925269177
 31
0.0
  0
LINE
  5
1D3
330
75
100
AcDbEntity
  8
$DDT_AUDIT_GENERATED_(AD)
  6
Continuous
 62
     7
100
AcDbLine
 10
76.6429639599
 20
433.7925269177
 30
0.0
 11
76.6429639599
 21
434.2164053642
 31
0.0
  0
LINE
  5
1D4
330
75
100
AcDbEntity
  8
$DDT_AUDIT_GENERATED_(AD)
  6
Continuous
 62
     7
100
AcDbLine
 10
77.8429639599
 20
431.9925269177
 30
0.0
 11
77.8429639599
 21
432.4925269177
 31
0.0
  0
LINE
  5
1D5
330
75
100
AcDbEntity
  8
$DDT_AUDIT_GENERATED_(AD)
  6
Continuous
 62
     7
100
AcDbLine
 10
77.8429639599
 20
432.4925269177
 30
0.0
 11
78.0790855542
 21
432.4925269177
 31
0.0
  0
LINE
  5
1D6
330
75
100
AcDbEntity
  8
$DDT_AUDIT_GENERATED_(AD)
  6
Continuous
 62
     7
100
AcDbLine
 10
78.0429679374
 20
432.5925269177
 30
0.0
 11
77.8429639599
 21
432.5925269177
 31
0.0
  0
LINE
  5
1D7
330
75
100
AcDbEntity
  8
$DDT_AUDIT_GENERATED_(AD)
  6
Continuous
 62
     7
100
AcDbLine
 10
77.8429639599
 20
432.5925269177
 30
0.0
 11
77.8429639599
 21
432.9982635587
 31
0.0
  0
LINE
  5
1D8
330
75
100
AcDbEntity
  8
$DDT_AUDIT_GENERATED_(AD)
  6
Continuous
 62
     7
100
AcDbLine
 10
70.4429639599
 20
431.9925269177
 30
0.0
 11
69.4429639599
 21
431.9925269177
 31
0.0
  0
LINE
  5
1D9
330
75
100
AcDbEntity
  8
$DDT_AUDIT_GENERATED_(AD)
  6
Continuous
 62
     7
100
AcDbLine
 10
70.4429639599
 20
431.8925269177
 30
0.0
 11
70.4429639599
 21
431.3925269177
 31
0.0
  0
LINE
  5
1DA
330
75
100
AcDbEntity
  8
$DDT_AUDIT_GENERATED_(AD)
  6
Continuous
 62
     7
100
AcDbLine
 10
70.4429639599
 20
431.3925269177
 30
0.0
 11
69.4429639599
 21
431.3925269177
 31
0.0
  0
LINE
  5
1DB
330
75
100
AcDbEntity
  8
$DDT_AUDIT_GENERATED_(AD)
  6
Continuous
 62
     7
100
AcDbLine
 10
69.4429639599
 20
431.8925269177
 30
0.0
 11
70.4429639599
 21
431.8925269177
 31
0.0
  0
LINE
  5
1DC
330
75
100
AcDbEntity
  8
$DDT_AUDIT_GENERATED_(AD)
  6
Continuous
 62
     7
100
AcDbLine
 10
70.4429639599
 20
431.2925269177
 30
0.0
 11
70.4429639599
 21
430.7925269177
 31
0.0
  0
LINE
  5
1DD
330
75
100
AcDbEntity
  8
$DDT_AUDIT_GENERATED_(AD)
  6
Continuous
 62
     7
100
AcDbLine
 10
70.4429639599
 20
430.7925269177
 30
0.0
 11
69.4429639599
 21
430.7925269177
 31
0.0
  0
LINE
  5
1DE
330
75
100
AcDbEntity
  8
$DDT_AUDIT_GENERATED_(AD)
  6
Continuous
 62
     7
100
AcDbLine
 10
69.4429639599
 20
431.2925269177
 30
0.0
 11
70.4429639599
 21
431.2925269177
 31
0.0
  0
LINE
  5
1DF
330
75
100
AcDbEntity
  8
$DDT_AUDIT_GENERATED_(AD)
  6
Continuous
 62
     7
100
AcDbLine
 10
70.4429639599
 20
430.6925269177
 30
0.0
 11
70.4429639599
 21
430.1925269177
 31
0.0
  0
LINE
  5
1E0
330
75
100
AcDbEntity
  8
$DDT_AUDIT_GENERATED_(AD)
  6
Continuous
 62
     7
100
AcDbLine
 10
70.4429639599
 20
430.1925269177
 30
0.0
 11
69.4429639599
 21
430.1925269177
 31
0.0
  0
LINE
  5
1E1
330
75
100
AcDbEntity
  8
$DDT_AUDIT_GENERATED_(AD)
  6
Continuous
 62
     7
100
AcDbLine
 10
69.4429639599
 20
430.6925269177
 30
0.0
 11
70.4429639599
 21
430.6925269177
 31
0.0
  0
LINE
  5
1E2
330
75
100
AcDbEntity
  8
$DDT_AUDIT_GENERATED_(AD)
  6
Continuous
 62
     7
100
AcDbLine
 10
70.4429639599
 20
430.0925269177
 30
0.0
 11
70.4429639599
 21
429.5925269177
 31
0.0
  0
LINE
  5
1E3
330
75
100
AcDbEntity
  8
$DDT_AUDIT_GENERATED_(AD)
  6
Continuous
 62
     7
100
AcDbLine
 10
70.4429639599
 20
429.5925269177
 30
0.0
 11
69.4429639599
 21
429.5925269177
 31
0.0
  0
LINE
  5
1E4
330
75
100
AcDbEntity
  8
$DDT_AUDIT_GENERATED_(AD)
  6
Continuous
 62
     7
100
AcDbLine
 10
69.4429639599
 20
430.0925269177
 30
0.0
 11
70.4429639599
 21
430.0925269177
 31
0.0
  0
LINE
  5
1E5
330
75
100
AcDbEntity
  8
$DDT_AUDIT_GENERATED_(AD)
  6
Continuous
 62
     7
100
AcDbLine
 10
70.4429639599
 20
429.4925269177
 30
0.0
 11
70.4429639599
 21
428.9925269177
 31
0.0
  0
LINE
  5
1E6
330
75
100
AcDbEntity
  8
$DDT_AUDIT_GENERATED_(AD)
  6
Continuous
 62
     7
100
AcDbLine
 10
70.4429639599
 20
428.9925269177
 30
0.0
 11
69.4429639599
 21
428.9925269177
 31
0.0
  0
LINE
  5
1E7
330
75
100
AcDbEntity
  8
$DDT_AUDIT_GENERATED_(AD)
  6
Continuous
 62
     7
100
AcDbLine
 10
69.4429639599
 20
429.4925269177
 30
0.0
 11
70.4429639599
 21
429.4925269177
 31
0.0
  0
LINE
  5
1E8
330
75
100
AcDbEntity
  8
$DDT_AUDIT_GENERATED_(AD)
  6
Continuous
 62
     7
100
AcDbLine
 10
70.4429639599
 20
428.3925269177
 30
0.0
 11
69.4429639599
 21
428.3925269177
 31
0.0
  0
LINE
  5
1E9
330
75
100
AcDbEntity
  8
$DDT_AUDIT_GENERATED_(AD)
  6
Continuous
 62
     7
100
AcDbLine
 10
70.4429639599
 20
428.8925269177
 30
0.0
 11
70.4429639599
 21
428.3925269177
 31
0.0
  0
LINE
  5
1EA
330
75
100
AcDbEntity
  8
$DDT_AUDIT_GENERATED_(AD)
  6
Continuous
 62
     7
100
AcDbLine
 10
69.4429639599
 20
428.8925269177
 30
0.0
 11
70.4429639599
 21
428.8925269177
 31
0.0
  0
LINE
  5
1EB
330
75
100
AcDbEntity
  8
$DDT_AUDIT_GENERATED_(AD)
  6
Continuous
 62
     7
100
AcDbLine
 10
71.6429639599
 20
431.9925269177
 30
0.0
 11
70.6429639599
 21
431.9925269177
 31
0.0
  0
LINE
  5
1EC
330
75
100
AcDbEntity
  8
$DDT_AUDIT_GENERATED_(AD)
  6
Continuous
 62
     7
100
AcDbLine
 10
71.6429639599
 20
431.8925269177
 30
0.0
 11
71.6429639599
 21
431.3925269177
 31
0.0
  0
LINE
  5
1ED
330
75
100
AcDbEntity
  8
$DDT_AUDIT_GENERATED_(AD)
  6
Continuous
 62
     7
100
AcDbLine
 10
71.6429639599
 20
431.3925269177
 30
0.0
 11
70.6429639599
 21
431.3925269177
 31
0.0
  0
LINE
  5
1EE
330
75
100
AcDbEntity
  8
$DDT_AUDIT_GENERATED_(AD)
  6
Continuous
 62
     7
100
AcDbLine
 10
70.6429639599
 20
431.3925269177
 30
0.0
 11
70.6429639599
 21
431.8925269177
 31
0.0
  0
LINE
  5
1EF
330
75
100
AcDbEntity
  8
$DDT_AUDIT_GENERATED_(AD)
  6
Continuous
 62
     7
100
AcDbLine
 10
70.6429639599
 20
431.8925269177
 30
0.0
 11
71.6429639599
 21
431.8925269177
 31
0.0
  0
LINE
  5
1F0
330
75
100
AcDbEntity
  8
$DDT_AUDIT_GENERATED_(AD)
  6
Continuous
 62
     7
100
AcDbLine
 10
71.6429639599
 20
431.2925269177
 30
0.0
 11
71.6429639599
 21
430.7925269177
 31
0.0
  0
LINE
  5
1F1
330
75
100
AcDbEntity
  8
$DDT_AUDIT_GENERATED_(AD)
  6
Continuous
 62
     7
100
AcDbLine
 10
71.6429639599
 20
430.7925269177
 30
0.0
 11
70.6429639599
 21
430.7925269177
 31
0.0
  0
LINE
  5
1F2
330
75
100
AcDbEntity
  8
$DDT_AUDIT_GENERATED_(AD)
  6
Continuous
 62
     7
100
AcDbLine
 10
70.6429639599
 20
430.7925269177
 30
0.0
 11
70.6429639599
 21
431.2925269177
 31
0.0
  0
LINE
  5
1F3
330
75
100
AcDbEntity
  8
$DDT_AUDIT_GENERATED_(AD)
  6
Continuous
 62
     7
100
AcDbLine
 10
70.6429639599
 20
431.2925269177
 30
0.0
 11
71.6429639599
 21
431.2925269177
 31
0.0
  0
LINE
  5
1F4
330
75
100
AcDbEntity
  8
$DDT_AUDIT_GENERATED_(AD)
  6
Continuous
 62
     7
100
AcDbLine
 10
71.6429639599
 20
430.6925269177
 30
0.0
 11
71.6429639599
 21
430.1925269177
 31
0.0
  0
LINE
  5
1F5
330
75
100
AcDbEntity
  8
$DDT_AUDIT_GENERATED_(AD)
  6
Continuous
 62
     7
100
AcDbLine
 10
71.6429639599
 20
430.1925269177
 30
0.0
 11
70.6429639599
 21
430.1925269177
 31
0.0
  0
LINE
  5
1F6
330
75
100
AcDbEntity
  8
$DDT_AUDIT_GENERATED_(AD)
  6
Continuous
 62
     7
100
AcDbLine
 10
70.6429639599
 20
430.1925269177
 30
0.0
 11
70.6429639599
 21
430.6925269177
 31
0.0
  0
LINE
  5
1F7
330
75
100
AcDbEntity
  8
$DDT_AUDIT_GENERATED_(AD)
  6
Continuous
 62
     7
100
AcDbLine
 10
70.6429639599
 20
430.6925269177
 30
0.0
 11
71.6429639599
 21
430.6925269177
 31
0.0
  0
LINE
  5
1F8
330
75
100
AcDbEntity
  8
$DDT_AUDIT_GENERATED_(AD)
  6
Continuous
 62
     7
100
AcDbLine
 10
71.6429639599
 20
430.0925269177
 30
0.0
 11
71.6429639599
 21
429.5925269177
 31
0.0
  0
LINE
  5
1F9
330
75
100
AcDbEntity
  8
$DDT_AUDIT_GENERATED_(AD)
  6
Continuous
 62
     7
100
AcDbLine
 10
71.6429639599
 20
429.5925269177
 30
0.0
 11
70.6429639599
 21
429.5925269177
 31
0.0
  0
LINE
  5
1FA
330
75
100
AcDbEntity
  8
$DDT_AUDIT_GENERATED_(AD)
  6
Continuous
 62
     7
100
AcDbLine
 10
70.6429639599
 20
429.5925269177
 30
0.0
 11
70.6429639599
 21
430.0925269177
 31
0.0
  0
LINE
  5
1FB
330
75
100
AcDbEntity
  8
$DDT_AUDIT_GENERATED_(AD)
  6
Continuous
 62
     7
100
AcDbLine
 10
70.6429639599
 20
430.0925269177
 30
0.0
 11
71.6429639599
 21
430.0925269177
 31
0.0
  0
LINE
  5
1FC
330
75
100
AcDbEntity
  8
$DDT_AUDIT_GENERATED_(AD)
  6
Continuous
 62
     7
100
AcDbLine
 10
71.6429639599
 20
429.4925269177
 30
0.0
 11
71.6429639599
 21
428.9925269177
 31
0.0
  0
LINE
  5
1FD
330
75
100
AcDbEntity
  8
$DDT_AUDIT_GENERATED_(AD)
  6
Continuous
 62
     7
100
AcDbLine
 10
71.6429639599
 20
428.9925269177
 30
0.0
 11
70.6429639599
 21
428.9925269177
 31
0.0
  0
LINE
  5
1FE
330
75
100
AcDbEntity
  8
$DDT_AUDIT_GENERATED_(AD)
  6
Continuous
 62
     7
100
AcDbLine
 10
70.6429639599
 20
428.9925269177
 30
0.0
 11
70.6429639599
 21
429.4925269177
 31
0.0
  0
LINE
  5
1FF
330
75
100
AcDbEntity
  8
$DDT_AUDIT_GENERATED_(AD)
  6
Continuous
 62
     7
100
AcDbLine
 10
70.6429639599
 20
429.4925269177
 30
0.0
 11
71.6429639599
 21
429.4925269177
 31
0.0
  0
LINE
  5
200
330
75
100
AcDbEntity
  8
$DDT_AUDIT_GENERATED_(AD)
  6
Continuous
 62
     7
100
AcDbLine
 10
71.6429639599
 20
428.8925269177
 30
0.0
 11
71.6429639599
 21
428.3925269177
 31
0.0
  0
LINE
  5
201
330
75
100
AcDbEntity
  8
$DDT_AUDIT_GENERATED_(AD)
  6
Continuous
 62
     7
100
AcDbLine
 10
71.6429639599
 20
428.3925269177
 30
0.0
 11
70.6429639599
 21
428.3925269177
 31
0.0
  0
LINE
  5
202
330
75
100
AcDbEntity
  8
$DDT_AUDIT_GENERATED_(AD)
  6
Continuous
 62
     7
100
AcDbLine
 10
70.6429639599
 20
428.3925269177
 30
0.0
 11
70.6429639599
 21
428.8925269177
 31
0.0
  0
LINE
  5
203
330
75
100
AcDbEntity
  8
$DDT_AUDIT_GENERATED_(AD)
  6
Continuous
 62
     7
100
AcDbLine
 10
70.6429639599
 20
428.8925269177
 30
0.0
 11
71.6429639599
 21
428.8925269177
 31
0.0
  0
LINE
  5
204
330
75
100
AcDbEntity
  8
$DDT_AUDIT_GENERATED_(AD)
  6
Continuous
 62
     7
100
AcDbLine
 10
72.8429639599
 20
431.9925269177
 30
0.0
 11
71.8429639599
 21
431.9925269177
 31
0.0
  0
LINE
  5
205
330
75
100
AcDbEntity
  8
$DDT_AUDIT_GENERATED_(AD)
  6
Continuous
 62
     7
100
AcDbLine
 10
72.8429639599
 20
431.8925269177
 30
0.0
 11
72.8429639599
 21
431.3925269177
 31
0.0
  0
LINE
  5
206
330
75
100
AcDbEntity
  8
$DDT_AUDIT_GENERATED_(AD)
  6
Continuous
 62
     7
100
AcDbLine
 10
72.8429639599
 20
431.3925269177
 30
0.0
 11
71.8429639599
 21
431.3925269177
 31
0.0
  0
LINE
  5
207
330
75
100
AcDbEntity
  8
$DDT_AUDIT_GENERATED_(AD)
  6
Continuous
 62
     7
100
AcDbLine
 10
71.8429639599
 20
431.3925269177
 30
0.0
 11
71.8429639599
 21
431.8925269177
 31
0.0
  0
LINE
  5
208
330
75
100
AcDbEntity
  8
$DDT_AUDIT_GENERATED_(AD)
  6
Continuous
 62
     7
100
AcDbLine
 10
71.8429639599
 20
431.8925269177
 30
0.0
 11
72.8429639599
 21
431.8925269177
 31
0.0
  0
LINE
  5
209
330
75
100
AcDbEntity
  8
$DDT_AUDIT_GENERATED_(AD)
  6
Continuous
 62
     7
100
AcDbLine
 10
72.8429639599
 20
431.2925269177
 30
0.0
 11
72.8429639599
 21
430.7925269177
 31
0.0
  0
LINE
  5
20A
330
75
100
AcDbEntity
  8
$DDT_AUDIT_GENERATED_(AD)
  6
Continuous
 62
     7
100
AcDbLine
 10
72.8429639599
 20
430.7925269177
 30
0.0
 11
71.8429639599
 21
430.7925269177
 31
0.0
  0
LINE
  5
20B
330
75
100
AcDbEntity
  8
$DDT_AUDIT_GENERATED_(AD)
  6
Continuous
 62
     7
100
AcDbLine
 10
71.8429639599
 20
430.7925269177
 30
0.0
 11
71.8429639599
 21
431.2925269177
 31
0.0
  0
LINE
  5
20C
330
75
100
AcDbEntity
  8
$DDT_AUDIT_GENERATED_(AD)
  6
Continuous
 62
     7
100
AcDbLine
 10
71.8429639599
 20
431.2925269177
 30
0.0
 11
72.8429639599
 21
431.2925269177
 31
0.0
  0
LINE
  5
20D
330
75
100
AcDbEntity
  8
$DDT_AUDIT_GENERATED_(AD)
  6
Continuous
 62
     7
100
AcDbLine
 10
72.8429639599
 20
430.6925269177
 30
0.0
 11
72.8429639599
 21
430.1925269177
 31
0.0
  0
LINE
  5
20E
330
75
100
AcDbEntity
  8
$DDT_AUDIT_GENERATED_(AD)
  6
Continuous
 62
     7
100
AcDbLine
 10
72.8429639599
 20
430.1925269177
 30
0.0
 11
71.8429639599
 21
430.1925269177
 31
0.0
  0
LINE
  5
20F
330
75
100
AcDbEntity
  8
$DDT_AUDIT_GENERATED_(AD)
  6
Continuous
 62
     7
100
AcDbLine
 10
71.8429639599
 20
430.1925269177
 30
0.0
 11
71.8429639599
 21
430.6925269177
 31
0.0
  0
LINE
  5
210
330
75
100
AcDbEntity
  8
$DDT_AUDIT_GENERATED_(AD)
  6
Continuous
 62
     7
100
AcDbLine
 10
71.8429639599
 20
430.6925269177
 30
0.0
 11
72.8429639599
 21
430.6925269177
 31
0.0
  0
LINE
  5
211
330
75
100
AcDbEntity
  8
$DDT_AUDIT_GENERATED_(AD)
  6
Continuous
 62
     7
100
AcDbLine
 10
72.8429639599
 20
430.0925269177
 30
0.0
 11
72.8429639599
 21
429.5925269177
 31
0.0
  0
LINE
  5
212
330
75
100
AcDbEntity
  8
$DDT_AUDIT_GENERATED_(AD)
  6
Continuous
 62
     7
100
AcDbLine
 10
72.8429639599
 20
429.5925269177
 30
0.0
 11
71.8429639599
 21
429.5925269177
 31
0.0
  0
LINE
  5
213
330
75
100
AcDbEntity
  8
$DDT_AUDIT_GENERATED_(AD)
  6
Continuous
 62
     7
100
AcDbLine
 10
71.8429639599
 20
429.5925269177
 30
0.0
 11
71.8429639599
 21
430.0925269177
 31
0.0
  0
LINE
  5
214
330
75
100
AcDbEntity
  8
$DDT_AUDIT_GENERATED_(AD)
  6
Continuous
 62
     7
100
AcDbLine
 10
71.8429639599
 20
430.0925269177
 30
0.0
 11
72.8429639599
 21
430.0925269177
 31
0.0
  0
LINE
  5
215
330
75
100
AcDbEntity
  8
$DDT_AUDIT_GENERATED_(AD)
  6
Continuous
 62
     7
100
AcDbLine
 10
72.8429639599
 20
429.4925269177
 30
0.0
 11
72.8429639599
 21
428.9925269177
 31
0.0
  0
LINE
  5
216
330
75
100
AcDbEntity
  8
$DDT_AUDIT_GENERATED_(AD)
  6
Continuous
 62
     7
100
AcDbLine
 10
72.8429639599
 20
428.9925269177
 30
0.0
 11
71.8429639599
 21
428.9925269177
 31
0.0
  0
LINE
  5
217
330
75
100
AcDbEntity
  8
$DDT_AUDIT_GENERATED_(AD)
  6
Continuous
 62
     7
100
AcDbLine
 10
71.8429639599
 20
428.9925269177
 30
0.0
 11
71.8429639599
 21
429.4925269177
 31
0.0
  0
LINE
  5
218
330
75
100
AcDbEntity
  8
$DDT_AUDIT_GENERATED_(AD)
  6
Continuous
 62
     7
100
AcDbLine
 10
71.8429639599
 20
429.4925269177
 30
0.0
 11
72.8429639599
 21
429.4925269177
 31
0.0
  0
LINE
  5
219
330
75
100
AcDbEntity
  8
$DDT_AUDIT_GENERATED_(AD)
  6
Continuous
 62
     7
100
AcDbLine
 10
74.0429639599
 20
431.9925269177
 30
0.0
 11
73.0429639599
 21
431.9925269177
 31
0.0
  0
LINE
  5
21A
330
75
100
AcDbEntity
  8
$DDT_AUDIT_GENERATED_(AD)
  6
Continuous
 62
     7
100
AcDbLine
 10
74.0429639599
 20
431.8925269177
 30
0.0
 11
74.0429639599
 21
431.3925269177
 31
0.0
  0
LINE
  5
21B
330
75
100
AcDbEntity
  8
$DDT_AUDIT_GENERATED_(AD)
  6
Continuous
 62
     7
100
AcDbLine
 10
74.0429639599
 20
431.3925269177
 30
0.0
 11
73.0429639599
 21
431.3925269177
 31
0.0
  0
LINE
  5
21C
330
75
100
AcDbEntity
  8
$DDT_AUDIT_GENERATED_(AD)
  6
Continuous
 62
     7
100
AcDbLine
 10
73.0429639599
 20
431.3925269177
 30
0.0
 11
73.0429639599
 21
431.8925269177
 31
0.0
  0
LINE
  5
21D
330
75
100
AcDbEntity
  8
$DDT_AUDIT_GENERATED_(AD)
  6
Continuous
 62
     7
100
AcDbLine
 10
73.0429639599
 20
431.8925269177
 30
0.0
 11
74.0429639599
 21
431.8925269177
 31
0.0
  0
LINE
  5
21E
330
75
100
AcDbEntity
  8
$DDT_AUDIT_GENERATED_(AD)
  6
Continuous
 62
     7
100
AcDbLine
 10
74.0429639599
 20
431.2925269177
 30
0.0
 11
74.0429639599
 21
430.7925269177
 31
0.0
  0
LINE
  5
21F
330
75
100
AcDbEntity
  8
$DDT_AUDIT_GENERATED_(AD)
  6
Continuous
 62
     7
100
AcDbLine
 10
74.0429639599
 20
430.7925269177
 30
0.0
 11
73.0429639599
 21
430.7925269177
 31
0.0
  0
LINE
  5
220
330
75
100
AcDbEntity
  8
$DDT_AUDIT_GENERATED_(AD)
  6
Continuous
 62
     7
100
AcDbLine
 10
73.0429639599
 20
430.7925269177
 30
0.0
 11
73.0429639599
 21
431.2925269177
 31
0.0
  0
LINE
  5
221
330
75
100
AcDbEntity
  8
$DDT_AUDIT_GENERATED_(AD)
  6
Continuous
 62
     7
100
AcDbLine
 10
73.0429639599
 20
431.2925269177
 30
0.0
 11
74.0429639599
 21
431.2925269177
 31
0.0
  0
LINE
  5
222
330
75
100
AcDbEntity
  8
$DDT_AUDIT_GENERATED_(AD)
  6
Continuous
 62
     7
100
AcDbLine
 10
74.0429639599
 20
430.6925269177
 30
0.0
 11
74.0429639599
 21
430.1925269177
 31
0.0
  0
LINE
  5
223
330
75
100
AcDbEntity
  8
$DDT_AUDIT_GENERATED_(AD)
  6
Continuous
 62
     7
100
AcDbLine
 10
74.0429639599
 20
430.1925269177
 30
0.0
 11
73.0429639599
 21
430.1925269177
 31
0.0
  0
LINE
  5
224
330
75
100
AcDbEntity
  8
$DDT_AUDIT_GENERATED_(AD)
  6
Continuous
 62
     7
100
AcDbLine
 10
73.0429639599
 20
430.1925269177
 30
0.0
 11
73.0429639599
 21
430.6925269177
 31
0.0
  0
LINE
  5
225
330
75
100
AcDbEntity
  8
$DDT_AUDIT_GENERATED_(AD)
  6
Continuous
 62
     7
100
AcDbLine
 10
73.0429639599
 20
430.6925269177
 30
0.0
 11
74.0429639599
 21
430.6925269177
 31
0.0
  0
LINE
  5
226
330
75
100
AcDbEntity
  8
$DDT_AUDIT_GENERATED_(AD)
  6
Continuous
 62
     7
100
AcDbLine
 10
74.0429639599
 20
430.0925269177
 30
0.0
 11
74.0429639599
 21
429.5925269177
 31
0.0
  0
LINE
  5
227
330
75
100
AcDbEntity
  8
$DDT_AUDIT_GENERATED_(AD)
  6
Continuous
 62
     7
100
AcDbLine
 10
74.0429639599
 20
429.5925269177
 30
0.0
 11
73.0429639599
 21
429.5925269177
 31
0.0
  0
LINE
  5
228
330
75
100
AcDbEntity
  8
$DDT_AUDIT_GENERATED_(AD)
  6
Continuous
 62
     7
100
AcDbLine
 10
73.0429639599
 20
429.5925269177
 30
0.0
 11
73.0429639599
 21
430.0925269177
 31
0.0
  0
LINE
  5
229
330
75
100
AcDbEntity
  8
$DDT_AUDIT_GENERATED_(AD)
  6
Continuous
 62
     7
100
AcDbLine
 10
73.0429639599
 20
430.0925269177
 30
0.0
 11
74.0429639599
 21
430.0925269177
 31
0.0
  0
LINE
  5
22A
330
75
100
AcDbEntity
  8
$DDT_AUDIT_GENERATED_(AD)
  6
Continuous
 62
     7
100
AcDbLine
 10
74.0429639599
 20
428.9925269177
 30
0.0
 11
73.0429639599
 21
428.9925269177
 31
0.0
  0
LINE
  5
22B
330
75
100
AcDbEntity
  8
$DDT_AUDIT_GENERATED_(AD)
  6
Continuous
 62
     7
100
AcDbLine
 10
74.0429639599
 20
429.4925269177
 30
0.0
 11
74.0429639599
 21
428.9925269177
 31
0.0
  0
LINE
  5
22C
330
75
100
AcDbEntity
  8
$DDT_AUDIT_GENERATED_(AD)
  6
Continuous
 62
     7
100
AcDbLine
 10
73.0429639599
 20
428.9925269177
 30
0.0
 11
73.0429639599
 21
429.4925269177
 31
0.0
  0
LINE
  5
22D
330
75
100
AcDbEntity
  8
$DDT_AUDIT_GENERATED_(AD)
  6
Continuous
 62
     7
100
AcDbLine
 10
73.0429639599
 20
429.4925269177
 30
0.0
 11
74.0429639599
 21
429.4925269177
 31
0.0
  0
LINE
  5
22E
330
75
100
AcDbEntity
  8
$DDT_AUDIT_GENERATED_(AD)
  6
Continuous
 62
     7
100
AcDbLine
 10
75.2429639599
 20
431.9925269177
 30
0.0
 11
74.2429639599
 21
431.9925269177
 31
0.0
  0
LINE
  5
22F
330
75
100
AcDbEntity
  8
$DDT_AUDIT_GENERATED_(AD)
  6
Continuous
 62
     7
100
AcDbLine
 10
75.2429639599
 20
431.8925269177
 30
0.0
 11
75.2429639599
 21
431.3925269177
 31
0.0
  0
LINE
  5
230
330
75
100
AcDbEntity
  8
$DDT_AUDIT_GENERATED_(AD)
  6
Continuous
 62
     7
100
AcDbLine
 10
75.2429639599
 20
431.3925269177
 30
0.0
 11
74.2429639599
 21
431.3925269177
 31
0.0
  0
LINE
  5
231
330
75
100
AcDbEntity
  8
$DDT_AUDIT_GENERATED_(AD)
  6
Continuous
 62
     7
100
AcDbLine
 10
74.2429639599
 20
431.3925269177
 30
0.0
 11
74.2429639599
 21
431.8925269177
 31
0.0
  0
LINE
  5
232
330
75
100
AcDbEntity
  8
$DDT_AUDIT_GENERATED_(AD)
  6
Continuous
 62
     7
100
AcDbLine
 10
74.2429639599
 20
431.8925269177
 30
0.0
 11
75.2429639599
 21
431.8925269177
 31
0.0
  0
LINE
  5
233
330
75
100
AcDbEntity
  8
$DDT_AUDIT_GENERATED_(AD)
  6
Continuous
 62
     7
100
AcDbLine
 10
75.2429639599
 20
431.2925269177
 30
0.0
 11
75.2429639599
 21
430.7925269177
 31
0.0
  0
LINE
  5
234
330
75
100
AcDbEntity
  8
$DDT_AUDIT_GENERATED_(AD)
  6
Continuous
 62
     7
100
AcDbLine
 10
75.2429639599
 20
430.7925269177
 30
0.0
 11
74.2429639599
 21
430.7925269177
 31
0.0
  0
LINE
  5
235
330
75
100
AcDbEntity
  8
$DDT_AUDIT_GENERATED_(AD)
  6
Continuous
 62
     7
100
AcDbLine
 10
74.2429639599
 20
430.7925269177
 30
0.0
 11
74.2429639599
 21
431.2925269177
 31
0.0
  0
LINE
  5
236
330
75
100
AcDbEntity
  8
$DDT_AUDIT_GENERATED_(AD)
  6
Continuous
 62
     7
100
AcDbLine
 10
74.2429639599
 20
431.2925269177
 30
0.0
 11
75.2429639599
 21
431.2925269177
 31
0.0
  0
LINE
  5
237
330
75
100
AcDbEntity
  8
$DDT_AUDIT_GENERATED_(AD)
  6
Continuous
 62
     7
100
AcDbLine
 10
75.2429639599
 20
430.6925269177
 30
0.0
 11
75.2429639599
 21
430.1925269177
 31
0.0
  0
LINE
  5
238
330
75
100
AcDbEntity
  8
$DDT_AUDIT_GENERATED_(AD)
  6
Continuous
 62
     7
100
AcDbLine
 10
75.2429639599
 20
430.1925269177
 30
0.0
 11
74.2429639599
 21
430.1925269177
 31
0.0
  0
LINE
  5
239
330
75
100
AcDbEntity
  8
$DDT_AUDIT_GENERATED_(AD)
  6
Continuous
 62
     7
100
AcDbLine
 10
74.2429639599
 20
430.1925269177
 30
0.0
 11
74.2429639599
 21
430.6925269177
 31
0.0
  0
LINE
  5
23A
330
75
100
AcDbEntity
  8
$DDT_AUDIT_GENERATED_(AD)
  6
Continuous
 62
     7
100
AcDbLine
 10
74.2429639599
 20
430.6925269177
 30
0.0
 11
75.2429639599
 21
430.6925269177
 31
0.0
  0
LINE
  5
23B
330
75
100
AcDbEntity
  8
$DDT_AUDIT_GENERATED_(AD)
  6
Continuous
 62
     7
100
AcDbLine
 10
75.2429639599
 20
430.0925269177
 30
0.0
 11
75.2429639599
 21
429.5925269177
 31
0.0
  0
LINE
  5
23C
330
75
100
AcDbEntity
  8
$DDT_AUDIT_GENERATED_(AD)
  6
Continuous
 62
     7
100
AcDbLine
 10
75.2429639599
 20
429.5925269177
 30
0.0
 11
74.2429639599
 21
429.5925269177
 31
0.0
  0
LINE
  5
23D
330
75
100
AcDbEntity
  8
$DDT_AUDIT_GENERATED_(AD)
  6
Continuous
 62
     7
100
AcDbLine
 10
74.2429639599
 20
429.5925269177
 30
0.0
 11
74.2429639599
 21
430.0925269177
 31
0.0
  0
LINE
  5
23E
330
75
100
AcDbEntity
  8
$DDT_AUDIT_GENERATED_(AD)
  6
Continuous
 62
     7
100
AcDbLine
 10
74.2429639599
 20
430.0925269177
 30
0.0
 11
75.2429639599
 21
430.0925269177
 31
0.0
  0
LINE
  5
23F
330
75
100
AcDbEntity
  8
$DDT_AUDIT_GENERATED_(AD)
  6
Continuous
 62
     7
100
AcDbLine
 10
76.4429639599
 20
431.9925269177
 30
0.0
 11
75.4429639599
 21
431.9925269177
 31
0.0
  0
LINE
  5
240
330
75
100
AcDbEntity
  8
$DDT_AUDIT_GENERATED_(AD)
  6
Continuous
 62
     7
100
AcDbLine
 10
76.4429639599
 20
431.8925269177
 30
0.0
 11
76.4429639599
 21
431.3925269177
 31
0.0
  0
LINE
  5
241
330
75
100
AcDbEntity
  8
$DDT_AUDIT_GENERATED_(AD)
  6
Continuous
 62
     7
100
AcDbLine
 10
76.4429639599
 20
431.3925269177
 30
0.0
 11
75.4429639599
 21
431.3925269177
 31
0.0
  0
LINE
  5
242
330
75
100
AcDbEntity
  8
$DDT_AUDIT_GENERATED_(AD)
  6
Continuous
 62
     7
100
AcDbLine
 10
75.4429639599
 20
431.3925269177
 30
0.0
 11
75.4429639599
 21
431.8925269177
 31
0.0
  0
LINE
  5
243
330
75
100
AcDbEntity
  8
$DDT_AUDIT_GENERATED_(AD)
  6
Continuous
 62
     7
100
AcDbLine
 10
75.4429639599
 20
431.8925269177
 30
0.0
 11
76.4429639599
 21
431.8925269177
 31
0.0
  0
LINE
  5
244
330
75
100
AcDbEntity
  8
$DDT_AUDIT_GENERATED_(AD)
  6
Continuous
 62
     7
100
AcDbLine
 10
76.4429639599
 20
431.2925269177
 30
0.0
 11
76.4429639599
 21
430.7925269177
 31
0.0
  0
LINE
  5
245
330
75
100
AcDbEntity
  8
$DDT_AUDIT_GENERATED_(AD)
  6
Continuous
 62
     7
100
AcDbLine
 10
76.4429639599
 20
430.7925269177
 30
0.0
 11
75.4429639599
 21
430.7925269177
 31
0.0
  0
LINE
  5
246
330
75
100
AcDbEntity
  8
$DDT_AUDIT_GENERATED_(AD)
  6
Continuous
 62
     7
100
AcDbLine
 10
75.4429639599
 20
430.7925269177
 30
0.0
 11
75.4429639599
 21
431.2925269177
 31
0.0
  0
LINE
  5
247
330
75
100
AcDbEntity
  8
$DDT_AUDIT_GENERATED_(AD)
  6
Continuous
 62
     7
100
AcDbLine
 10
75.4429639599
 20
431.2925269177
 30
0.0
 11
76.4429639599
 21
431.2925269177
 31
0.0
  0
LINE
  5
248
330
75
100
AcDbEntity
  8
$DDT_AUDIT_GENERATED_(AD)
  6
Continuous
 62
     7
100
AcDbLine
 10
76.4429639599
 20
430.6925269177
 30
0.0
 11
76.4429639599
 21
430.1925269177
 31
0.0
  0
LINE
  5
249
330
75
100
AcDbEntity
  8
$DDT_AUDIT_GENERATED_(AD)
  6
Continuous
 62
     7
100
AcDbLine
 10
76.4429639599
 20
430.1925269177
 30
0.0
 11
75.4429639599
 21
430.1925269177
 31
0.0
  0
LINE
  5
24A
330
75
100
AcDbEntity
  8
$DDT_AUDIT_GENERATED_(AD)
  6
Continuous
 62
     7
100
AcDbLine
 10
75.4429639599
 20
430.1925269177
 30
0.0
 11
75.4429639599
 21
430.6925269177
 31
0.0
  0
LINE
  5
24B
330
75
100
AcDbEntity
  8
$DDT_AUDIT_GENERATED_(AD)
  6
Continuous
 62
     7
100
AcDbLine
 10
75.4429639599
 20
430.6925269177
 30
0.0
 11
76.4429639599
 21
430.6925269177
 31
0.0
  0
LINE
  5
24C
330
75
100
AcDbEntity
  8
$DDT_AUDIT_GENERATED_(AD)
  6
Continuous
 62
     7
100
AcDbLine
 10
77.6429639599
 20
431.9925269177
 30
0.0
 11
76.6429639599
 21
431.9925269177
 31
0.0
  0
LINE
  5
24D
330
75
100
AcDbEntity
  8
$DDT_AUDIT_GENERATED_(AD)
  6
Continuous
 62
     7
100
AcDbLine
 10
77.6429639599
 20
431.8925269177
 30
0.0
 11
77.6429639599
 21
431.3925269177
 31
0.0
  0
LINE
  5
24E
330
75
100
AcDbEntity
  8
$DDT_AUDIT_GENERATED_(AD)
  6
Continuous
 62
     7
100
AcDbLine
 10
77.6429639599
 20
431.3925269177
 30
0.0
 11
76.6429639599
 21
431.3925269177
 31
0.0
  0
LINE
  5
24F
330
75
100
AcDbEntity
  8
$DDT_AUDIT_GENERATED_(AD)
  6
Continuous
 62
     7
100
AcDbLine
 10
76.6429639599
 20
431.3925269177
 30
0.0
 11
76.6429639599
 21
431.8925269177
 31
0.0
  0
LINE
  5
250
330
75
100
AcDbEntity
  8
$DDT_AUDIT_GENERATED_(AD)
  6
Continuous
 62
     7
100
AcDbLine
 10
76.6429639599
 20
431.8925269177
 30
0.0
 11
77.6429639599
 21
431.8925269177
 31
0.0
  0
LINE
  5
251
330
75
100
AcDbEntity
  8
$DDT_AUDIT_GENERATED_(AD)
  6
Continuous
 62
     7
100
AcDbLine
 10
77.6429639599
 20
431.2925269177
 30
0.0
 11
77.6429639599
 21
430.7925269177
 31
0.0
  0
LINE
  5
252
330
75
100
AcDbEntity
  8
$DDT_AUDIT_GENERATED_(AD)
  6
Continuous
 62
     7
100
AcDbLine
 10
77.6429639599
 20
430.7925269177
 30
0.0
 11
76.6429639599
 21
430.7925269177
 31
0.0
  0
LINE
  5
253
330
75
100
AcDbEntity
  8
$DDT_AUDIT_GENERATED_(AD)
  6
Continuous
 62
     7
100
AcDbLine
 10
76.6429639599
 20
430.7925269177
 30
0.0
 11
76.6429639599
 21
431.2925269177
 31
0.0
  0
LINE
  5
254
330
75
100
AcDbEntity
  8
$DDT_AUDIT_GENERATED_(AD)
  6
Continuous
 62
     7
100
AcDbLine
 10
76.6429639599
 20
431.2925269177
 30
0.0
 11
77.6429639599
 21
431.2925269177
 31
0.0
  0
LINE
  5
255
330
75
100
AcDbEntity
  8
$DDT_AUDIT_GENERATED_(AD)
  6
Continuous
 62
     7
100
AcDbLine
 10
78.1777985059
 20
431.9925269177
 30
0.0
 11
77.8429639599
 21
431.9925269177
 31
0.0
  0
LINE
  5
256
330
75
100
AcDbEntity
  8
$DDT_AUDIT_GENERATED_(AD)
  6
Continuous
 62
     7
100
AcDbLine
 10
78.1777985059
 20
431.9925269177
 30
0.0
 11
78.1777985059
 21
432.0595142159
 31
0.0
  0
ELLIPSE
  5
257
330
75
100
AcDbEntity
  8
$DDT_AUDIT_GENERATED_(AD)
  6
Continuous
 62
     7
100
AcDbEllipse
 10
69.9429636415
 20
432.2425269294
 30
0.0
 11
8.250000318443478
 21
-1.546814759612047E-8
 31
0.0
210
0.0
220
0.0
230
1.0
 40
0.4999999904
 41
-0.084950621309253
 42
-0.0606432219253987
  0
LINE
  5
258
330
75
100
AcDbEntity
  8
$DDT_AUDIT_GENERATED_(AD)
  6
Continuous
 62
     7
100
AcDbLine
 10
78.0159126158
 20
431.3925269177
 30
0.0
 11
78.0159126158
 21
431.8925269177
 31
0.0
  0
LINE
  5
259
330
75
100
AcDbEntity
  8
$DDT_AUDIT_GENERATED_(AD)
  6
Continuous
 62
     7
100
AcDbLine
 10
78.0159126158
 20
431.3925269177
 30
0.0
 11
77.8429639599
 21
431.3925269177
 31
0.0
  0
LINE
  5
25A
330
75
100
AcDbEntity
  8
$DDT_AUDIT_GENERATED_(AD)
  6
Continuous
 62
     7
100
AcDbLine
 10
77.8429639599
 20
431.3925269177
 30
0.0
 11
77.8429639599
 21
431.8925269177
 31
0.0
  0
LINE
  5
25B
330
75
100
AcDbEntity
  8
$DDT_AUDIT_GENERATED_(AD)
  6
Continuous
 62
     7
100
AcDbLine
 10
77.8429639599
 20
431.8925269177
 30
0.0
 11
78.1632133479
 21
431.8925269177
 31
0.0
  0
ELLIPSE
  5
25C
330
75
100
AcDbEntity
  8
$DDT_AUDIT_GENERATED_(AD)
  6
Continuous
 62
     7
100
AcDbEllipse
 10
69.9429636821
 20
432.2425269488
 30
0.0
 11
8.250000277885912
 21
-4.045966339738527E-8
 31
0.0
210
0.0
220
0.0
230
1.0
 40
0.4999999922
 41
-0.2323890661412982
 42
-0.2075474445716967
  0
LINE
  5
25D
330
75
100
AcDbEntity
  8
$DDT_AUDIT_GENERATED_(AD)
  6
Continuous
 62
     7
100
AcDbLine
 10
77.8429639599
 20
431.053777575
 30
0.0
 11
77.8429639599
 21
431.2925269177
 31
0.0
  0
LINE
  5
25E
330
75
100
AcDbEntity
  8
$DDT_AUDIT_GENERATED_(AD)
  6
Continuous
 62
     7
100
AcDbLine
 10
77.8429639599
 20
431.2925269177
 30
0.0
 11
77.9711953965
 21
431.2925269177
 31
0.0
  0
ELLIPSE
  5
25F
330
75
100
AcDbEntity
  8
$DDT_AUDIT_GENERATED_(AD)
  6
Continuous
 62
     7
100
AcDbEllipse
 10
69.9429639619
 20
432.2425269174
 30
0.0
 11
8.249999998049709
 21
4.355404925604489E-10
 31
0.0
210
0.0
220
0.0
230
1.0
 40
0.5
 41
-0.3852141217336476
 42
-0.2923273932132853
  0
LINE
  5
260
330
75
100
AcDbEntity
  8
$DDT_AUDIT_GENERATED_(AD)
  6
Continuous
 62
     7
100
AcDbLine
 10
77.102049097
 20
430.1925269177
 30
0.0
 11
77.102049097
 21
430.6925269177
 31
0.0
  0
LINE
  5
261
330
75
100
AcDbEntity
  8
$DDT_AUDIT_GENERATED_(AD)
  6
Continuous
 62
     7
100
AcDbLine
 10
77.102049097
 20
430.1925269177
 30
0.0
 11
76.6429639599
 21
430.1925269177
 31
0.0
  0
LINE
  5
262
330
75
100
AcDbEntity
  8
$DDT_AUDIT_GENERATED_(AD)
  6
Continuous
 62
     7
100
AcDbLine
 10
76.6429639599
 20
430.1925269177
 30
0.0
 11
76.6429639599
 21
430.6925269177
 31
0.0
  0
LINE
  5
263
330
75
100
AcDbEntity
  8
$DDT_AUDIT_GENERATED_(AD)
  6
Continuous
 62
     7
100
AcDbLine
 10
76.6429639599
 20
430.6925269177
 30
0.0
 11
77.5883874276
 21
430.6925269177
 31
0.0
  0
ELLIPSE
  5
264
330
75
100
AcDbEntity
  8
$DDT_AUDIT_GENERATED_(AD)
  6
Continuous
 62
     7
100
AcDbEllipse
 10
69.9429639633
 20
432.2425269164
 30
0.0
 11
8.249999996492924
 21
1.390283721480756E-9
 31
0.0
210
0.0
220
0.0
230
1.0
 40
0.5
 41
-0.6634394344505701
 42
-0.6230179600258401
  0
LINE
  5
265
330
75
100
AcDbEntity
  8
$DDT_AUDIT_GENERATED_(AD)
  6
Continuous
 62
     7
100
AcDbLine
 10
76.2653448406
 20
429.5925269177
 30
0.0
 11
76.2653448406
 21
430.0925269177
 31
0.0
  0
LINE
  5
266
330
75
100
AcDbEntity
  8
$DDT_AUDIT_GENERATED_(AD)
  6
Continuous
 62
     7
100
AcDbLine
 10
76.2653448406
 20
429.5925269177
 30
0.0
 11
75.4429639599
 21
429.5925269177
 31
0.0
  0
LINE
  5
267
330
75
100
AcDbEntity
  8
$DDT_AUDIT_GENERATED_(AD)
  6
Continuous
 62
     7
100
AcDbLine
 10
75.4429639599
 20
429.5925269177
 30
0.0
 11
75.4429639599
 21
430.0925269177
 31
0.0
  0
LINE
  5
268
330
75
100
AcDbEntity
  8
$DDT_AUDIT_GENERATED_(AD)
  6
Continuous
 62
     7
100
AcDbLine
 10
75.4429639599
 20
430.0925269177
 30
0.0
 11
76.4429639599
 21
430.0925269177
 31
0.0
  0
LINE
  5
269
330
75
100
AcDbEntity
  8
$DDT_AUDIT_GENERATED_(AD)
  6
Continuous
 62
     7
100
AcDbLine
 10
76.4429639599
 20
430.0925269177
 30
0.0
 11
76.4429639599
 21
429.7022267386
 31
0.0
  0
ELLIPSE
  5
26A
330
75
100
AcDbEntity
  8
$DDT_AUDIT_GENERATED_(AD)
  6
Continuous
 62
     7
100
AcDbEllipse
 10
69.9429638066
 20
432.2425269632
 30
0.0
 11
8.250000155035636
 21
-5.209856157595283E-8
 31
0.0
210
0.0
220
0.0
230
1.0
 40
0.4999999974
 41
-0.5482706260445633
 42
-0.520103195529793
  0
LINE
  5
26B
330
75
100
AcDbEntity
  8
$DDT_AUDIT_GENERATED_(AD)
  6
Continuous
 62
     7
100
AcDbLine
 10
76.6429639599
 20
429.8356357694
 30
0.0
 11
76.6429639599
 21
430.0925269177
 31
0.0
  0
LINE
  5
26C
330
75
100
AcDbEntity
  8
$DDT_AUDIT_GENERATED_(AD)
  6
Continuous
 62
     7
100
AcDbLine
 10
76.6429639599
 20
430.0925269177
 30
0.0
 11
76.9837380651
 21
430.0925269177
 31
0.0
  0
ELLIPSE
  5
26D
330
75
100
AcDbEntity
  8
$DDT_AUDIT_GENERATED_(AD)
  6
Continuous
 62
     7
100
AcDbEllipse
 10
69.9429640266
 20
432.2425268792
 30
0.0
 11
8.249999927213553
 21
3.363383183074831E-8
 31
0.0
210
0.0
220
0.0
230
1.0
 40
0.4999999996
 41
-0.8731388791158006
 42
-0.8410686755590806
  0
LINE
  5
26E
330
75
100
AcDbEntity
  8
$DDT_AUDIT_GENERATED_(AD)
  6
Continuous
 62
     7
100
AcDbLine
 10
75.0235643181
 20
428.9925269177
 30
0.0
 11
75.0235643181
 21
429.4925269177
 31
0.0
  0
LINE
  5
26F
330
75
100
AcDbEntity
  8
$DDT_AUDIT_GENERATED_(AD)
  6
Continuous
 62
     7
100
AcDbLine
 10
75.0235643181
 20
428.9925269177
 30
0.0
 11
74.2429639599
 21
428.9925269177
 31
0.0
  0
LINE
  5
270
330
75
100
AcDbEntity
  8
$DDT_AUDIT_GENERATED_(AD)
  6
Continuous
 62
     7
100
AcDbLine
 10
74.2429639599
 20
428.9925269177
 30
0.0
 11
74.2429639599
 21
429.4925269177
 31
0.0
  0
LINE
  5
271
330
75
100
AcDbEntity
  8
$DDT_AUDIT_GENERATED_(AD)
  6
Continuous
 62
     7
100
AcDbLine
 10
74.2429639599
 20
429.4925269177
 30
0.0
 11
75.2429639599
 21
429.4925269177
 31
0.0
  0
LINE
  5
272
330
75
100
AcDbEntity
  8
$DDT_AUDIT_GENERATED_(AD)
  6
Continuous
 62
     7
100
AcDbLine
 10
75.2429639599
 20
429.4925269177
 30
0.0
 11
75.2429639599
 21
429.0813364774
 31
0.0
  0
ELLIPSE
  5
273
330
75
100
AcDbEntity
  8
$DDT_AUDIT_GENERATED_(AD)
  6
Continuous
 62
     7
100
AcDbEllipse
 10
69.9429638683
 20
432.2425269574
 30
0.0
 11
8.250000095253105
 21
-3.997058239946227E-8
 31
0.0
210
0.0
220
0.0
230
1.0
 40
0.4999999995
 41
-0.7297276500485399
 42
-0.6976574469256125
  0
LINE
  5
274
330
75
100
AcDbEntity
  8
$DDT_AUDIT_GENERATED_(AD)
  6
Continuous
 62
     7
100
AcDbLine
 10
75.4429639599
 20
429.1679334487
 30
0.0
 11
75.4429639599
 21
429.4925269177
 31
0.0
  0
LINE
  5
275
330
75
100
AcDbEntity
  8
$DDT_AUDIT_GENERATED_(AD)
  6
Continuous
 62
     7
100
AcDbLine
 10
75.4429639599
 20
429.4925269177
 30
0.0
 11
76.092150898
 21
429.4925269177
 31
0.0
  0
LINE
  5
276
330
75
100
AcDbEntity
  8
$DDT_AUDIT_GENERATED_(AD)
  6
Continuous
 62
     7
100
AcDbLine
 10
72.8429639599
 20
428.8925269177
 30
0.0
 11
72.8429639599
 21
428.3925269177
 31
0.0
  0
LINE
  5
277
330
75
100
AcDbEntity
  8
$DDT_AUDIT_GENERATED_(AD)
  6
Continuous
 62
     7
100
AcDbLine
 10
72.8429639599
 20
428.3925269177
 30
0.0
 11
71.8429639599
 21
428.3925269177
 31
0.0
  0
LINE
  5
278
330
75
100
AcDbEntity
  8
$DDT_AUDIT_GENERATED_(AD)
  6
Continuous
 62
     7
100
AcDbLine
 10
71.8429639599
 20
428.3925269177
 30
0.0
 11
71.8429639599
 21
428.8925269177
 31
0.0
  0
LINE
  5
279
330
75
100
AcDbEntity
  8
$DDT_AUDIT_GENERATED_(AD)
  6
Continuous
 62
     7
100
AcDbLine
 10
71.8429639599
 20
428.8925269177
 30
0.0
 11
72.8429639599
 21
428.8925269177
 31
0.0
  0
ELLIPSE
  5
27A
330
75
100
AcDbEntity
  8
$DDT_AUDIT_GENERATED_(AD)
  6
Continuous
 62
     7
100
AcDbEllipse
 10
69.9429639438
 20
432.2425269313
 30
0.0
 11
8.250000019932708
 21
-9.246138577001517E-9
 31
0.0
210
0.0
220
0.0
230
1.0
 40
0.5000000005
 41
-1.050693122095669
 42
-1.022525691330676
  0
LINE
  5
27B
330
75
100
AcDbEntity
  8
$DDT_AUDIT_GENERATED_(AD)
  6
Continuous
 62
     7
100
AcDbLine
 10
73.0429639599
 20
428.4198151839
 30
0.0
 11
73.0429639599
 21
428.8925269177
 31
0.0
  0
LINE
  5
27C
330
75
100
AcDbEntity
  8
$DDT_AUDIT_GENERATED_(AD)
  6
Continuous
 62
     7
100
AcDbLine
 10
73.0429639599
 20
428.8925269177
 30
0.0
 11
74.0429639599
 21
428.8925269177
 31
0.0
  0
LINE
  5
27D
330
75
100
AcDbEntity
  8
$DDT_AUDIT_GENERATED_(AD)
  6
Continuous
 62
     7
100
AcDbLine
 10
74.0429639599
 20
428.8925269177
 30
0.0
 11
74.0429639599
 21
428.6629843492
 31
0.0
  0
ELLIPSE
  5
27E
330
75
100
AcDbEntity
  8
$DDT_AUDIT_GENERATED_(AD)
  6
Continuous
 62
     7
100
AcDbEllipse
 10
69.9429639455
 20
432.2425269274
 30
0.0
 11
8.250000016340316
 21
-7.690729997289480E-9
 31
0.0
210
0.0
220
0.0
230
1.0
 40
0.5000000002
 41
-0.9477783657772907
 42
-0.9073568914219656
  0
LINE
  5
27F
330
75
100
AcDbEntity
  8
$DDT_AUDIT_GENERATED_(AD)
  6
Continuous
 62
     7
100
AcDbLine
 10
74.2429639599
 20
428.7221398652
 30
0.0
 11
74.2429639599
 21
428.8925269177
 31
0.0
  0
LINE
  5
280
330
75
100
AcDbEntity
  8
$DDT_AUDIT_GENERATED_(AD)
  6
Continuous
 62
     7
100
AcDbLine
 10
74.2429639599
 20
428.8925269177
 30
0.0
 11
74.7567462566
 21
428.8925269177
 31
0.0
  0
ELLIPSE
  5
281
330
75
100
AcDbEntity
  8
$DDT_AUDIT_GENERATED_(AD)
  6
Continuous
 62
     7
100
AcDbEllipse
 10
69.9429639375
 20
432.242527072
 30
0.0
 11
8.250000155458169
 21
-1.493347806524881E-8
 31
0.0
210
0.0
220
0.0
230
1.0
 40
0.5000000093
 41
-1.510153100274319
 42
-1.485845700875793
  0
LINE
  5
282
330
75
100
AcDbEntity
  8
$DDT_AUDIT_GENERATED_(AD)
  6
Continuous
 62
     7
100
AcDbLine
 10
69.4429639599
 20
428.2925269177
 30
0.0
 11
70.4429639599
 21
428.2925269177
 31
0.0
  0
LINE
  5
283
330
75
100
AcDbEntity
  8
$DDT_AUDIT_GENERATED_(AD)
  6
Continuous
 62
     7
100
AcDbLine
 10
70.4429639599
 20
428.2925269177
 30
0.0
 11
70.4429639599
 21
428.1251096447
 31
0.0
  0
ELLIPSE
  5
284
330
75
100
AcDbEntity
  8
$DDT_AUDIT_GENERATED_(AD)
  6
Continuous
 62
     7
100
AcDbEllipse
 10
69.942963893
 20
432.2425270679
 30
0.0
 11
8.250000161118789
 21
-4.356027344387670E-8
 31
0.0
210
0.0
220
0.0
230
1.0
 40
0.5000000084
 41
-1.363248869491056
 42
-1.338407247956098
  0
LINE
  5
285
330
75
100
AcDbEntity
  8
$DDT_AUDIT_GENERATED_(AD)
  6
Continuous
 62
     7
100
AcDbLine
 10
70.6429639599
 20
428.1324022238
 30
0.0
 11
70.6429639599
 21
428.2925269177
 31
0.0
  0
LINE
  5
286
330
75
100
AcDbEntity
  8
$DDT_AUDIT_GENERATED_(AD)
  6
Continuous
 62
     7
100
AcDbLine
 10
70.6429639599
 20
428.2925269177
 30
0.0
 11
71.6429639599
 21
428.2925269177
 31
0.0
  0
LINE
  5
287
330
75
100
AcDbEntity
  8
$DDT_AUDIT_GENERATED_(AD)
  6
Continuous
 62
     7
100
AcDbLine
 10
71.6429639599
 20
428.2925269177
 30
0.0
 11
71.6429639599
 21
428.2060525898
 31
0.0
  0
ELLIPSE
  5
288
330
75
100
AcDbEntity
  8
$DDT_AUDIT_GENERATED_(AD)
  6
Continuous
 62
     7
100
AcDbEllipse
 10
69.9429639605
 20
432.2425269169
 30
0.0
 11
8.249999998970077
 21
3.883143806504563E-10
 31
0.0
210
0.0
220
0.0
230
1.0
 40
0.5
 41
-1.278468933705448
 42
-1.185582205186258
  0
LINE
  5
289
330
75
100
AcDbEntity
  8
$DDT_AUDIT_GENERATED_(AD)
  6
Continuous
 62
     7
100
AcDbLine
 10
71.8429639599
 20
428.2284111994
 30
0.0
 11
71.8429639599
 21
428.2925269177
 31
0.0
  0
LINE
  5
28A
330
75
100
AcDbEntity
  8
$DDT_AUDIT_GENERATED_(AD)
  6
Continuous
 62
     7
100
AcDbLine
 10
71.8429639599
 20
428.2925269177
 30
0.0
 11
72.3204626455
 21
428.2925269177
 31
0.0
  0
LINE
  5
28B
330
75
100
AcDbEntity
  8
$DDT_AUDIT_GENERATED_(AD)
  6
Continuous
 62
     7
100
AcDbLine
 10
69.2429639599
 20
431.9925269177
 30
0.0
 11
68.2429639599
 21
431.9925269177
 31
0.0
  0
LINE
  5
28C
330
75
100
AcDbEntity
  8
$DDT_AUDIT_GENERATED_(AD)
  6
Continuous
 62
     7
100
AcDbLine
 10
68.0429639599
 20
431.9925269177
 30
0.0
 11
67.0429639599
 21
431.9925269177
 31
0.0
  0
LINE
  5
28D
330
75
100
AcDbEntity
  8
$DDT_AUDIT_GENERATED_(AD)
  6
Continuous
 62
     7
100
AcDbLine
 10
66.8429639599
 20
431.9925269177
 30
0.0
 11
65.8429639599
 21
431.9925269177
 31
0.0
  0
LINE
  5
28E
330
75
100
AcDbEntity
  8
$DDT_AUDIT_GENERATED_(AD)
  6
Continuous
 62
     7
100
AcDbLine
 10
65.6429639599
 20
431.9925269177
 30
0.0
 11
64.6429639599
 21
431.9925269177
 31
0.0
  0
LINE
  5
28F
330
75
100
AcDbEntity
  8
$DDT_AUDIT_GENERATED_(AD)
  6
Continuous
 62
     7
100
AcDbLine
 10
64.4429639599
 20
431.9925269177
 30
0.0
 11
63.4429639599
 21
431.9925269177
 31
0.0
  0
LINE
  5
290
330
75
100
AcDbEntity
  8
$DDT_AUDIT_GENERATED_(AD)
  6
Continuous
 62
     7
100
AcDbLine
 10
63.2429639599
 20
431.9925269177
 30
0.0
 11
62.2429639599
 21
431.9925269177
 31
0.0
  0
LINE
  5
291
330
75
100
AcDbEntity
  8
$DDT_AUDIT_GENERATED_(AD)
  6
Continuous
 62
     7
100
AcDbLine
 10
69.4429639599
 20
431.3925269177
 30
0.0
 11
69.4429639599
 21
431.8925269177
 31
0.0
  0
LINE
  5
292
330
75
100
AcDbEntity
  8
$DDT_AUDIT_GENERATED_(AD)
  6
Continuous
 62
     7
100
AcDbLine
 10
69.2429639599
 20
431.3925269177
 30
0.0
 11
68.2429639599
 21
431.3925269177
 31
0.0
  0
LINE
  5
293
330
75
100
AcDbEntity
  8
$DDT_AUDIT_GENERATED_(AD)
  6
Continuous
 62
     7
100
AcDbLine
 10
68.2429639599
 20
431.3925269177
 30
0.0
 11
68.2429639599
 21
431.8925269177
 31
0.0
  0
LINE
  5
294
330
75
100
AcDbEntity
  8
$DDT_AUDIT_GENERATED_(AD)
  6
Continuous
 62
     7
100
AcDbLine
 10
68.2429639599
 20
431.8925269177
 30
0.0
 11
69.2429639599
 21
431.8925269177
 31
0.0
  0
LINE
  5
295
330
75
100
AcDbEntity
  8
$DDT_AUDIT_GENERATED_(AD)
  6
Continuous
 62
     7
100
AcDbLine
 10
69.2429639599
 20
431.8925269177
 30
0.0
 11
69.2429639599
 21
431.3925269177
 31
0.0
  0
LINE
  5
296
330
75
100
AcDbEntity
  8
$DDT_AUDIT_GENERATED_(AD)
  6
Continuous
 62
     7
100
AcDbLine
 10
68.0429639599
 20
431.3925269177
 30
0.0
 11
67.0429639599
 21
431.3925269177
 31
0.0
  0
LINE
  5
297
330
75
100
AcDbEntity
  8
$DDT_AUDIT_GENERATED_(AD)
  6
Continuous
 62
     7
100
AcDbLine
 10
67.0429639599
 20
431.3925269177
 30
0.0
 11
67.0429639599
 21
431.8925269177
 31
0.0
  0
LINE
  5
298
330
75
100
AcDbEntity
  8
$DDT_AUDIT_GENERATED_(AD)
  6
Continuous
 62
     7
100
AcDbLine
 10
67.0429639599
 20
431.8925269177
 30
0.0
 11
68.0429639599
 21
431.8925269177
 31
0.0
  0
LINE
  5
299
330
75
100
AcDbEntity
  8
$DDT_AUDIT_GENERATED_(AD)
  6
Continuous
 62
     7
100
AcDbLine
 10
68.0429639599
 20
431.8925269177
 30
0.0
 11
68.0429639599
 21
431.3925269177
 31
0.0
  0
LINE
  5
29A
330
75
100
AcDbEntity
  8
$DDT_AUDIT_GENERATED_(AD)
  6
Continuous
 62
     7
100
AcDbLine
 10
66.8429639599
 20
431.3925269177
 30
0.0
 11
65.8429639599
 21
431.3925269177
 31
0.0
  0
LINE
  5
29B
330
75
100
AcDbEntity
  8
$DDT_AUDIT_GENERATED_(AD)
  6
Continuous
 62
     7
100
AcDbLine
 10
65.8429639599
 20
431.3925269177
 30
0.0
 11
65.8429639599
 21
431.8925269177
 31
0.0
  0
LINE
  5
29C
330
75
100
AcDbEntity
  8
$DDT_AUDIT_GENERATED_(AD)
  6
Continuous
 62
     7
100
AcDbLine
 10
65.8429639599
 20
431.8925269177
 30
0.0
 11
66.8429639599
 21
431.8925269177
 31
0.0
  0
LINE
  5
29D
330
75
100
AcDbEntity
  8
$DDT_AUDIT_GENERATED_(AD)
  6
Continuous
 62
     7
100
AcDbLine
 10
66.8429639599
 20
431.8925269177
 30
0.0
 11
66.8429639599
 21
431.3925269177
 31
0.0
  0
LINE
  5
29E
330
75
100
AcDbEntity
  8
$DDT_AUDIT_GENERATED_(AD)
  6
Continuous
 62
     7
100
AcDbLine
 10
65.6429639599
 20
431.3925269177
 30
0.0
 11
64.6429639599
 21
431.3925269177
 31
0.0
  0
LINE
  5
29F
330
75
100
AcDbEntity
  8
$DDT_AUDIT_GENERATED_(AD)
  6
Continuous
 62
     7
100
AcDbLine
 10
64.6429639599
 20
431.3925269177
 30
0.0
 11
64.6429639599
 21
431.8925269177
 31
0.0
  0
LINE
  5
2A0
330
75
100
AcDbEntity
  8
$DDT_AUDIT_GENERATED_(AD)
  6
Continuous
 62
     7
100
AcDbLine
 10
64.6429639599
 20
431.8925269177
 30
0.0
 11
65.6429639599
 21
431.8925269177
 31
0.0
  0
LINE
  5
2A1
330
75
100
AcDbEntity
  8
$DDT_AUDIT_GENERATED_(AD)
  6
Continuous
 62
     7
100
AcDbLine
 10
65.6429639599
 20
431.8925269177
 30
0.0
 11
65.6429639599
 21
431.3925269177
 31
0.0
  0
LINE
  5
2A2
330
75
100
AcDbEntity
  8
$DDT_AUDIT_GENERATED_(AD)
  6
Continuous
 62
     7
100
AcDbLine
 10
64.4429639599
 20
431.3925269177
 30
0.0
 11
63.4429639599
 21
431.3925269177
 31
0.0
  0
LINE
  5
2A3
330
75
100
AcDbEntity
  8
$DDT_AUDIT_GENERATED_(AD)
  6
Continuous
 62
     7
100
AcDbLine
 10
63.4429639599
 20
431.3925269177
 30
0.0
 11
63.4429639599
 21
431.8925269177
 31
0.0
  0
LINE
  5
2A4
330
75
100
AcDbEntity
  8
$DDT_AUDIT_GENERATED_(AD)
  6
Continuous
 62
     7
100
AcDbLine
 10
63.4429639599
 20
431.8925269177
 30
0.0
 11
64.4429639599
 21
431.8925269177
 31
0.0
  0
LINE
  5
2A5
330
75
100
AcDbEntity
  8
$DDT_AUDIT_GENERATED_(AD)
  6
Continuous
 62
     7
100
AcDbLine
 10
64.4429639599
 20
431.8925269177
 30
0.0
 11
64.4429639599
 21
431.3925269177
 31
0.0
  0
LINE
  5
2A6
330
75
100
AcDbEntity
  8
$DDT_AUDIT_GENERATED_(AD)
  6
Continuous
 62
     7
100
AcDbLine
 10
63.2429639599
 20
431.3925269177
 30
0.0
 11
62.2429639599
 21
431.3925269177
 31
0.0
  0
LINE
  5
2A7
330
75
100
AcDbEntity
  8
$DDT_AUDIT_GENERATED_(AD)
  6
Continuous
 62
     7
100
AcDbLine
 10
62.2429639599
 20
431.3925269177
 30
0.0
 11
62.2429639599
 21
431.8925269177
 31
0.0
  0
LINE
  5
2A8
330
75
100
AcDbEntity
  8
$DDT_AUDIT_GENERATED_(AD)
  6
Continuous
 62
     7
100
AcDbLine
 10
62.2429639599
 20
431.8925269177
 30
0.0
 11
63.2429639599
 21
431.8925269177
 31
0.0
  0
LINE
  5
2A9
330
75
100
AcDbEntity
  8
$DDT_AUDIT_GENERATED_(AD)
  6
Continuous
 62
     7
100
AcDbLine
 10
63.2429639599
 20
431.8925269177
 30
0.0
 11
63.2429639599
 21
431.3925269177
 31
0.0
  0
LINE
  5
2AA
330
75
100
AcDbEntity
  8
$DDT_AUDIT_GENERATED_(AD)
  6
Continuous
 62
     7
100
AcDbLine
 10
69.4429639599
 20
430.7925269177
 30
0.0
 11
69.4429639599
 21
431.2925269177
 31
0.0
  0
LINE
  5
2AB
330
75
100
AcDbEntity
  8
$DDT_AUDIT_GENERATED_(AD)
  6
Continuous
 62
     7
100
AcDbLine
 10
69.2429639599
 20
430.7925269177
 30
0.0
 11
68.2429639599
 21
430.7925269177
 31
0.0
  0
LINE
  5
2AC
330
75
100
AcDbEntity
  8
$DDT_AUDIT_GENERATED_(AD)
  6
Continuous
 62
     7
100
AcDbLine
 10
68.2429639599
 20
430.7925269177
 30
0.0
 11
68.2429639599
 21
431.2925269177
 31
0.0
  0
LINE
  5
2AD
330
75
100
AcDbEntity
  8
$DDT_AUDIT_GENERATED_(AD)
  6
Continuous
 62
     7
100
AcDbLine
 10
68.2429639599
 20
431.2925269177
 30
0.0
 11
69.2429639599
 21
431.2925269177
 31
0.0
  0
LINE
  5
2AE
330
75
100
AcDbEntity
  8
$DDT_AUDIT_GENERATED_(AD)
  6
Continuous
 62
     7
100
AcDbLine
 10
69.2429639599
 20
431.2925269177
 30
0.0
 11
69.2429639599
 21
430.7925269177
 31
0.0
  0
LINE
  5
2AF
330
75
100
AcDbEntity
  8
$DDT_AUDIT_GENERATED_(AD)
  6
Continuous
 62
     7
100
AcDbLine
 10
68.0429639599
 20
430.7925269177
 30
0.0
 11
67.0429639599
 21
430.7925269177
 31
0.0
  0
LINE
  5
2B0
330
75
100
AcDbEntity
  8
$DDT_AUDIT_GENERATED_(AD)
  6
Continuous
 62
     7
100
AcDbLine
 10
67.0429639599
 20
430.7925269177
 30
0.0
 11
67.0429639599
 21
431.2925269177
 31
0.0
  0
LINE
  5
2B1
330
75
100
AcDbEntity
  8
$DDT_AUDIT_GENERATED_(AD)
  6
Continuous
 62
     7
100
AcDbLine
 10
67.0429639599
 20
431.2925269177
 30
0.0
 11
68.0429639599
 21
431.2925269177
 31
0.0
  0
LINE
  5
2B2
330
75
100
AcDbEntity
  8
$DDT_AUDIT_GENERATED_(AD)
  6
Continuous
 62
     7
100
AcDbLine
 10
68.0429639599
 20
431.2925269177
 30
0.0
 11
68.0429639599
 21
430.7925269177
 31
0.0
  0
LINE
  5
2B3
330
75
100
AcDbEntity
  8
$DDT_AUDIT_GENERATED_(AD)
  6
Continuous
 62
     7
100
AcDbLine
 10
66.8429639599
 20
430.7925269177
 30
0.0
 11
65.8429639599
 21
430.7925269177
 31
0.0
  0
LINE
  5
2B4
330
75
100
AcDbEntity
  8
$DDT_AUDIT_GENERATED_(AD)
  6
Continuous
 62
     7
100
AcDbLine
 10
65.8429639599
 20
430.7925269177
 30
0.0
 11
65.8429639599
 21
431.2925269177
 31
0.0
  0
LINE
  5
2B5
330
75
100
AcDbEntity
  8
$DDT_AUDIT_GENERATED_(AD)
  6
Continuous
 62
     7
100
AcDbLine
 10
65.8429639599
 20
431.2925269177
 30
0.0
 11
66.8429639599
 21
431.2925269177
 31
0.0
  0
LINE
  5
2B6
330
75
100
AcDbEntity
  8
$DDT_AUDIT_GENERATED_(AD)
  6
Continuous
 62
     7
100
AcDbLine
 10
66.8429639599
 20
431.2925269177
 30
0.0
 11
66.8429639599
 21
430.7925269177
 31
0.0
  0
LINE
  5
2B7
330
75
100
AcDbEntity
  8
$DDT_AUDIT_GENERATED_(AD)
  6
Continuous
 62
     7
100
AcDbLine
 10
65.6429639599
 20
430.7925269177
 30
0.0
 11
64.6429639599
 21
430.7925269177
 31
0.0
  0
LINE
  5
2B8
330
75
100
AcDbEntity
  8
$DDT_AUDIT_GENERATED_(AD)
  6
Continuous
 62
     7
100
AcDbLine
 10
64.6429639599
 20
430.7925269177
 30
0.0
 11
64.6429639599
 21
431.2925269177
 31
0.0
  0
LINE
  5
2B9
330
75
100
AcDbEntity
  8
$DDT_AUDIT_GENERATED_(AD)
  6
Continuous
 62
     7
100
AcDbLine
 10
64.6429639599
 20
431.2925269177
 30
0.0
 11
65.6429639599
 21
431.2925269177
 31
0.0
  0
LINE
  5
2BA
330
75
100
AcDbEntity
  8
$DDT_AUDIT_GENERATED_(AD)
  6
Continuous
 62
     7
100
AcDbLine
 10
65.6429639599
 20
431.2925269177
 30
0.0
 11
65.6429639599
 21
430.7925269177
 31
0.0
  0
LINE
  5
2BB
330
75
100
AcDbEntity
  8
$DDT_AUDIT_GENERATED_(AD)
  6
Continuous
 62
     7
100
AcDbLine
 10
64.4429639599
 20
430.7925269177
 30
0.0
 11
63.4429639599
 21
430.7925269177
 31
0.0
  0
LINE
  5
2BC
330
75
100
AcDbEntity
  8
$DDT_AUDIT_GENERATED_(AD)
  6
Continuous
 62
     7
100
AcDbLine
 10
63.4429639599
 20
430.7925269177
 30
0.0
 11
63.4429639599
 21
431.2925269177
 31
0.0
  0
LINE
  5
2BD
330
75
100
AcDbEntity
  8
$DDT_AUDIT_GENERATED_(AD)
  6
Continuous
 62
     7
100
AcDbLine
 10
63.4429639599
 20
431.2925269177
 30
0.0
 11
64.4429639599
 21
431.2925269177
 31
0.0
  0
LINE
  5
2BE
330
75
100
AcDbEntity
  8
$DDT_AUDIT_GENERATED_(AD)
  6
Continuous
 62
     7
100
AcDbLine
 10
64.4429639599
 20
431.2925269177
 30
0.0
 11
64.4429639599
 21
430.7925269177
 31
0.0
  0
LINE
  5
2BF
330
75
100
AcDbEntity
  8
$DDT_AUDIT_GENERATED_(AD)
  6
Continuous
 62
     7
100
AcDbLine
 10
69.4429639599
 20
430.1925269177
 30
0.0
 11
69.4429639599
 21
430.6925269177
 31
0.0
  0
LINE
  5
2C0
330
75
100
AcDbEntity
  8
$DDT_AUDIT_GENERATED_(AD)
  6
Continuous
 62
     7
100
AcDbLine
 10
69.2429639599
 20
430.1925269177
 30
0.0
 11
68.2429639599
 21
430.1925269177
 31
0.0
  0
LINE
  5
2C1
330
75
100
AcDbEntity
  8
$DDT_AUDIT_GENERATED_(AD)
  6
Continuous
 62
     7
100
AcDbLine
 10
68.2429639599
 20
430.1925269177
 30
0.0
 11
68.2429639599
 21
430.6925269177
 31
0.0
  0
LINE
  5
2C2
330
75
100
AcDbEntity
  8
$DDT_AUDIT_GENERATED_(AD)
  6
Continuous
 62
     7
100
AcDbLine
 10
68.2429639599
 20
430.6925269177
 30
0.0
 11
69.2429639599
 21
430.6925269177
 31
0.0
  0
LINE
  5
2C3
330
75
100
AcDbEntity
  8
$DDT_AUDIT_GENERATED_(AD)
  6
Continuous
 62
     7
100
AcDbLine
 10
69.2429639599
 20
430.6925269177
 30
0.0
 11
69.2429639599
 21
430.1925269177
 31
0.0
  0
LINE
  5
2C4
330
75
100
AcDbEntity
  8
$DDT_AUDIT_GENERATED_(AD)
  6
Continuous
 62
     7
100
AcDbLine
 10
68.0429639599
 20
430.1925269177
 30
0.0
 11
67.0429639599
 21
430.1925269177
 31
0.0
  0
LINE
  5
2C5
330
75
100
AcDbEntity
  8
$DDT_AUDIT_GENERATED_(AD)
  6
Continuous
 62
     7
100
AcDbLine
 10
67.0429639599
 20
430.1925269177
 30
0.0
 11
67.0429639599
 21
430.6925269177
 31
0.0
  0
LINE
  5
2C6
330
75
100
AcDbEntity
  8
$DDT_AUDIT_GENERATED_(AD)
  6
Continuous
 62
     7
100
AcDbLine
 10
67.0429639599
 20
430.6925269177
 30
0.0
 11
68.0429639599
 21
430.6925269177
 31
0.0
  0
LINE
  5
2C7
330
75
100
AcDbEntity
  8
$DDT_AUDIT_GENERATED_(AD)
  6
Continuous
 62
     7
100
AcDbLine
 10
68.0429639599
 20
430.6925269177
 30
0.0
 11
68.0429639599
 21
430.1925269177
 31
0.0
  0
LINE
  5
2C8
330
75
100
AcDbEntity
  8
$DDT_AUDIT_GENERATED_(AD)
  6
Continuous
 62
     7
100
AcDbLine
 10
66.8429639599
 20
430.1925269177
 30
0.0
 11
65.8429639599
 21
430.1925269177
 31
0.0
  0
LINE
  5
2C9
330
75
100
AcDbEntity
  8
$DDT_AUDIT_GENERATED_(AD)
  6
Continuous
 62
     7
100
AcDbLine
 10
65.8429639599
 20
430.1925269177
 30
0.0
 11
65.8429639599
 21
430.6925269177
 31
0.0
  0
LINE
  5
2CA
330
75
100
AcDbEntity
  8
$DDT_AUDIT_GENERATED_(AD)
  6
Continuous
 62
     7
100
AcDbLine
 10
65.8429639599
 20
430.6925269177
 30
0.0
 11
66.8429639599
 21
430.6925269177
 31
0.0
  0
LINE
  5
2CB
330
75
100
AcDbEntity
  8
$DDT_AUDIT_GENERATED_(AD)
  6
Continuous
 62
     7
100
AcDbLine
 10
66.8429639599
 20
430.6925269177
 30
0.0
 11
66.8429639599
 21
430.1925269177
 31
0.0
  0
LINE
  5
2CC
330
75
100
AcDbEntity
  8
$DDT_AUDIT_GENERATED_(AD)
  6
Continuous
 62
     7
100
AcDbLine
 10
65.6429639599
 20
430.1925269177
 30
0.0
 11
64.6429639599
 21
430.1925269177
 31
0.0
  0
LINE
  5
2CD
330
75
100
AcDbEntity
  8
$DDT_AUDIT_GENERATED_(AD)
  6
Continuous
 62
     7
100
AcDbLine
 10
64.6429639599
 20
430.1925269177
 30
0.0
 11
64.6429639599
 21
430.6925269177
 31
0.0
  0
LINE
  5
2CE
330
75
100
AcDbEntity
  8
$DDT_AUDIT_GENERATED_(AD)
  6
Continuous
 62
     7
100
AcDbLine
 10
64.6429639599
 20
430.6925269177
 30
0.0
 11
65.6429639599
 21
430.6925269177
 31
0.0
  0
LINE
  5
2CF
330
75
100
AcDbEntity
  8
$DDT_AUDIT_GENERATED_(AD)
  6
Continuous
 62
     7
100
AcDbLine
 10
65.6429639599
 20
430.6925269177
 30
0.0
 11
65.6429639599
 21
430.1925269177
 31
0.0
  0
LINE
  5
2D0
330
75
100
AcDbEntity
  8
$DDT_AUDIT_GENERATED_(AD)
  6
Continuous
 62
     7
100
AcDbLine
 10
63.4429639599
 20
430.1925269177
 30
0.0
 11
63.4429639599
 21
430.6925269177
 31
0.0
  0
LINE
  5
2D1
330
75
100
AcDbEntity
  8
$DDT_AUDIT_GENERATED_(AD)
  6
Continuous
 62
     7
100
AcDbLine
 10
64.4429639599
 20
430.1925269177
 30
0.0
 11
63.4429639599
 21
430.1925269177
 31
0.0
  0
LINE
  5
2D2
330
75
100
AcDbEntity
  8
$DDT_AUDIT_GENERATED_(AD)
  6
Continuous
 62
     7
100
AcDbLine
 10
63.4429639599
 20
430.6925269177
 30
0.0
 11
64.4429639599
 21
430.6925269177
 31
0.0
  0
LINE
  5
2D3
330
75
100
AcDbEntity
  8
$DDT_AUDIT_GENERATED_(AD)
  6
Continuous
 62
     7
100
AcDbLine
 10
64.4429639599
 20
430.6925269177
 30
0.0
 11
64.4429639599
 21
430.1925269177
 31
0.0
  0
LINE
  5
2D4
330
75
100
AcDbEntity
  8
$DDT_AUDIT_GENERATED_(AD)
  6
Continuous
 62
     7
100
AcDbLine
 10
69.4429639599
 20
429.5925269177
 30
0.0
 11
69.4429639599
 21
430.0925269177
 31
0.0
  0
LINE
  5
2D5
330
75
100
AcDbEntity
  8
$DDT_AUDIT_GENERATED_(AD)
  6
Continuous
 62
     7
100
AcDbLine
 10
69.2429639599
 20
429.5925269177
 30
0.0
 11
68.2429639599
 21
429.5925269177
 31
0.0
  0
LINE
  5
2D6
330
75
100
AcDbEntity
  8
$DDT_AUDIT_GENERATED_(AD)
  6
Continuous
 62
     7
100
AcDbLine
 10
68.2429639599
 20
429.5925269177
 30
0.0
 11
68.2429639599
 21
430.0925269177
 31
0.0
  0
LINE
  5
2D7
330
75
100
AcDbEntity
  8
$DDT_AUDIT_GENERATED_(AD)
  6
Continuous
 62
     7
100
AcDbLine
 10
68.2429639599
 20
430.0925269177
 30
0.0
 11
69.2429639599
 21
430.0925269177
 31
0.0
  0
LINE
  5
2D8
330
75
100
AcDbEntity
  8
$DDT_AUDIT_GENERATED_(AD)
  6
Continuous
 62
     7
100
AcDbLine
 10
69.2429639599
 20
430.0925269177
 30
0.0
 11
69.2429639599
 21
429.5925269177
 31
0.0
  0
LINE
  5
2D9
330
75
100
AcDbEntity
  8
$DDT_AUDIT_GENERATED_(AD)
  6
Continuous
 62
     7
100
AcDbLine
 10
68.0429639599
 20
429.5925269177
 30
0.0
 11
67.0429639599
 21
429.5925269177
 31
0.0
  0
LINE
  5
2DA
330
75
100
AcDbEntity
  8
$DDT_AUDIT_GENERATED_(AD)
  6
Continuous
 62
     7
100
AcDbLine
 10
67.0429639599
 20
429.5925269177
 30
0.0
 11
67.0429639599
 21
430.0925269177
 31
0.0
  0
LINE
  5
2DB
330
75
100
AcDbEntity
  8
$DDT_AUDIT_GENERATED_(AD)
  6
Continuous
 62
     7
100
AcDbLine
 10
67.0429639599
 20
430.0925269177
 30
0.0
 11
68.0429639599
 21
430.0925269177
 31
0.0
  0
LINE
  5
2DC
330
75
100
AcDbEntity
  8
$DDT_AUDIT_GENERATED_(AD)
  6
Continuous
 62
     7
100
AcDbLine
 10
68.0429639599
 20
430.0925269177
 30
0.0
 11
68.0429639599
 21
429.5925269177
 31
0.0
  0
LINE
  5
2DD
330
75
100
AcDbEntity
  8
$DDT_AUDIT_GENERATED_(AD)
  6
Continuous
 62
     7
100
AcDbLine
 10
66.8429639599
 20
429.5925269177
 30
0.0
 11
65.8429639599
 21
429.5925269177
 31
0.0
  0
LINE
  5
2DE
330
75
100
AcDbEntity
  8
$DDT_AUDIT_GENERATED_(AD)
  6
Continuous
 62
     7
100
AcDbLine
 10
65.8429639599
 20
429.5925269177
 30
0.0
 11
65.8429639599
 21
430.0925269177
 31
0.0
  0
LINE
  5
2DF
330
75
100
AcDbEntity
  8
$DDT_AUDIT_GENERATED_(AD)
  6
Continuous
 62
     7
100
AcDbLine
 10
65.8429639599
 20
430.0925269177
 30
0.0
 11
66.8429639599
 21
430.0925269177
 31
0.0
  0
LINE
  5
2E0
330
75
100
AcDbEntity
  8
$DDT_AUDIT_GENERATED_(AD)
  6
Continuous
 62
     7
100
AcDbLine
 10
66.8429639599
 20
430.0925269177
 30
0.0
 11
66.8429639599
 21
429.5925269177
 31
0.0
  0
LINE
  5
2E1
330
75
100
AcDbEntity
  8
$DDT_AUDIT_GENERATED_(AD)
  6
Continuous
 62
     7
100
AcDbLine
 10
65.6429639599
 20
429.5925269177
 30
0.0
 11
64.6429639599
 21
429.5925269177
 31
0.0
  0
LINE
  5
2E2
330
75
100
AcDbEntity
  8
$DDT_AUDIT_GENERATED_(AD)
  6
Continuous
 62
     7
100
AcDbLine
 10
64.6429639599
 20
429.5925269177
 30
0.0
 11
64.6429639599
 21
430.0925269177
 31
0.0
  0
LINE
  5
2E3
330
75
100
AcDbEntity
  8
$DDT_AUDIT_GENERATED_(AD)
  6
Continuous
 62
     7
100
AcDbLine
 10
64.6429639599
 20
430.0925269177
 30
0.0
 11
65.6429639599
 21
430.0925269177
 31
0.0
  0
LINE
  5
2E4
330
75
100
AcDbEntity
  8
$DDT_AUDIT_GENERATED_(AD)
  6
Continuous
 62
     7
100
AcDbLine
 10
65.6429639599
 20
430.0925269177
 30
0.0
 11
65.6429639599
 21
429.5925269177
 31
0.0
  0
LINE
  5
2E5
330
75
100
AcDbEntity
  8
$DDT_AUDIT_GENERATED_(AD)
  6
Continuous
 62
     7
100
AcDbLine
 10
69.4429639599
 20
428.9925269177
 30
0.0
 11
69.4429639599
 21
429.4925269177
 31
0.0
  0
LINE
  5
2E6
330
75
100
AcDbEntity
  8
$DDT_AUDIT_GENERATED_(AD)
  6
Continuous
 62
     7
100
AcDbLine
 10
69.2429639599
 20
428.9925269177
 30
0.0
 11
68.2429639599
 21
428.9925269177
 31
0.0
  0
LINE
  5
2E7
330
75
100
AcDbEntity
  8
$DDT_AUDIT_GENERATED_(AD)
  6
Continuous
 62
     7
100
AcDbLine
 10
68.2429639599
 20
428.9925269177
 30
0.0
 11
68.2429639599
 21
429.4925269177
 31
0.0
  0
LINE
  5
2E8
330
75
100
AcDbEntity
  8
$DDT_AUDIT_GENERATED_(AD)
  6
Continuous
 62
     7
100
AcDbLine
 10
68.2429639599
 20
429.4925269177
 30
0.0
 11
69.2429639599
 21
429.4925269177
 31
0.0
  0
LINE
  5
2E9
330
75
100
AcDbEntity
  8
$DDT_AUDIT_GENERATED_(AD)
  6
Continuous
 62
     7
100
AcDbLine
 10
69.2429639599
 20
429.4925269177
 30
0.0
 11
69.2429639599
 21
428.9925269177
 31
0.0
  0
LINE
  5
2EA
330
75
100
AcDbEntity
  8
$DDT_AUDIT_GENERATED_(AD)
  6
Continuous
 62
     7
100
AcDbLine
 10
68.0429639599
 20
428.9925269177
 30
0.0
 11
67.0429639599
 21
428.9925269177
 31
0.0
  0
LINE
  5
2EB
330
75
100
AcDbEntity
  8
$DDT_AUDIT_GENERATED_(AD)
  6
Continuous
 62
     7
100
AcDbLine
 10
67.0429639599
 20
428.9925269177
 30
0.0
 11
67.0429639599
 21
429.4925269177
 31
0.0
  0
LINE
  5
2EC
330
75
100
AcDbEntity
  8
$DDT_AUDIT_GENERATED_(AD)
  6
Continuous
 62
     7
100
AcDbLine
 10
67.0429639599
 20
429.4925269177
 30
0.0
 11
68.0429639599
 21
429.4925269177
 31
0.0
  0
LINE
  5
2ED
330
75
100
AcDbEntity
  8
$DDT_AUDIT_GENERATED_(AD)
  6
Continuous
 62
     7
100
AcDbLine
 10
68.0429639599
 20
429.4925269177
 30
0.0
 11
68.0429639599
 21
428.9925269177
 31
0.0
  0
LINE
  5
2EE
330
75
100
AcDbEntity
  8
$DDT_AUDIT_GENERATED_(AD)
  6
Continuous
 62
     7
100
AcDbLine
 10
66.8429639599
 20
428.9925269177
 30
0.0
 11
65.8429639599
 21
428.9925269177
 31
0.0
  0
LINE
  5
2EF
330
75
100
AcDbEntity
  8
$DDT_AUDIT_GENERATED_(AD)
  6
Continuous
 62
     7
100
AcDbLine
 10
65.8429639599
 20
428.9925269177
 30
0.0
 11
65.8429639599
 21
429.4925269177
 31
0.0
  0
LINE
  5
2F0
330
75
100
AcDbEntity
  8
$DDT_AUDIT_GENERATED_(AD)
  6
Continuous
 62
     7
100
AcDbLine
 10
65.8429639599
 20
429.4925269177
 30
0.0
 11
66.8429639599
 21
429.4925269177
 31
0.0
  0
LINE
  5
2F1
330
75
100
AcDbEntity
  8
$DDT_AUDIT_GENERATED_(AD)
  6
Continuous
 62
     7
100
AcDbLine
 10
66.8429639599
 20
429.4925269177
 30
0.0
 11
66.8429639599
 21
428.9925269177
 31
0.0
  0
LINE
  5
2F2
330
75
100
AcDbEntity
  8
$DDT_AUDIT_GENERATED_(AD)
  6
Continuous
 62
     7
100
AcDbLine
 10
69.4429639599
 20
428.3925269177
 30
0.0
 11
69.4429639599
 21
428.8925269177
 31
0.0
  0
LINE
  5
2F3
330
75
100
AcDbEntity
  8
$DDT_AUDIT_GENERATED_(AD)
  6
Continuous
 62
     7
100
AcDbLine
 10
69.2429639599
 20
428.3925269177
 30
0.0
 11
68.2429639599
 21
428.3925269177
 31
0.0
  0
LINE
  5
2F4
330
75
100
AcDbEntity
  8
$DDT_AUDIT_GENERATED_(AD)
  6
Continuous
 62
     7
100
AcDbLine
 10
68.2429639599
 20
428.3925269177
 30
0.0
 11
68.2429639599
 21
428.8925269177
 31
0.0
  0
LINE
  5
2F5
330
75
100
AcDbEntity
  8
$DDT_AUDIT_GENERATED_(AD)
  6
Continuous
 62
     7
100
AcDbLine
 10
68.2429639599
 20
428.8925269177
 30
0.0
 11
69.2429639599
 21
428.8925269177
 31
0.0
  0
LINE
  5
2F6
330
75
100
AcDbEntity
  8
$DDT_AUDIT_GENERATED_(AD)
  6
Continuous
 62
     7
100
AcDbLine
 10
69.2429639599
 20
428.8925269177
 30
0.0
 11
69.2429639599
 21
428.3925269177
 31
0.0
  0
LINE
  5
2F7
330
75
100
AcDbEntity
  8
$DDT_AUDIT_GENERATED_(AD)
  6
Continuous
 62
     7
100
AcDbLine
 10
68.0429639599
 20
428.3925269177
 30
0.0
 11
67.0429639599
 21
428.3925269177
 31
0.0
  0
LINE
  5
2F8
330
75
100
AcDbEntity
  8
$DDT_AUDIT_GENERATED_(AD)
  6
Continuous
 62
     7
100
AcDbLine
 10
67.0429639599
 20
428.3925269177
 30
0.0
 11
67.0429639599
 21
428.8925269177
 31
0.0
  0
LINE
  5
2F9
330
75
100
AcDbEntity
  8
$DDT_AUDIT_GENERATED_(AD)
  6
Continuous
 62
     7
100
AcDbLine
 10
67.0429639599
 20
428.8925269177
 30
0.0
 11
68.0429639599
 21
428.8925269177
 31
0.0
  0
LINE
  5
2FA
330
75
100
AcDbEntity
  8
$DDT_AUDIT_GENERATED_(AD)
  6
Continuous
 62
     7
100
AcDbLine
 10
68.0429639599
 20
428.8925269177
 30
0.0
 11
68.0429639599
 21
428.3925269177
 31
0.0
  0
LINE
  5
2FB
330
75
100
AcDbEntity
  8
$DDT_AUDIT_GENERATED_(AD)
  6
Continuous
 62
     7
100
AcDbLine
 10
69.4429639599
 20
428.1251096447
 30
0.0
 11
69.4429639599
 21
428.2925269177
 31
0.0
  0
ELLIPSE
  5
2FC
330
75
100
AcDbEntity
  8
$DDT_AUDIT_GENERATED_(AD)
  6
Continuous
 62
     7
100
AcDbEllipse
 10
69.9429639832
 20
432.2425270771
 30
0.0
 11
-8.250000160617674
 21
-1.557325796097686E-8
 31
0.0
210
0.0
220
0.0
230
1.0
 40
0.5000000096
 41
1.485845700788248
 42
1.510153100171699
  0
LINE
  5
2FD
330
75
100
AcDbEntity
  8
$DDT_AUDIT_GENERATED_(AD)
  6
Continuous
 62
     7
100
AcDbLine
 10
68.2429639599
 20
428.2060525898
 30
0.0
 11
68.2429639599
 21
428.2925269177
 31
0.0
  0
LINE
  5
2FE
330
75
100
AcDbEntity
  8
$DDT_AUDIT_GENERATED_(AD)
  6
Continuous
 62
     7
100
AcDbLine
 10
68.2429639599
 20
428.2925269177
 30
0.0
 11
69.2429639599
 21
428.2925269177
 31
0.0
  0
LINE
  5
2FF
330
75
100
AcDbEntity
  8
$DDT_AUDIT_GENERATED_(AD)
  6
Continuous
 62
     7
100
AcDbLine
 10
69.2429639599
 20
428.2925269177
 30
0.0
 11
69.2429639599
 21
428.1324022238
 31
0.0
  0
ELLIPSE
  5
300
330
75
100
AcDbEntity
  8
$DDT_AUDIT_GENERATED_(AD)
  6
Continuous
 62
     7
100
AcDbEllipse
 10
69.9429640287
 20
432.242527071
 30
0.0
 11
-8.25000016455029
 21
-4.473038606178648E-8
 31
0.0
210
0.0
220
0.0
230
1.0
 40
0.5000000086
 41
1.338407247760986
 42
1.363248869286363
  0
LINE
  5
301
330
75
100
AcDbEntity
  8
$DDT_AUDIT_GENERATED_(AD)
  6
Continuous
 62
     7
100
AcDbLine
 10
67.5654652743
 20
428.2925269177
 30
0.0
 11
68.0429639599
 21
428.2925269177
 31
0.0
  0
LINE
  5
302
330
75
100
AcDbEntity
  8
$DDT_AUDIT_GENERATED_(AD)
  6
Continuous
 62
     7
100
AcDbLine
 10
68.0429639599
 20
428.2925269177
 30
0.0
 11
68.0429639599
 21
428.2284111994
 31
0.0
  0
ELLIPSE
  5
303
330
75
100
AcDbEntity
  8
$DDT_AUDIT_GENERATED_(AD)
  6
Continuous
 62
     7
100
AcDbEllipse
 10
69.9429639592
 20
432.2425269168
 30
0.0
 11
-8.249999998844611
 21
4.365813266460350E-10
 31
0.0
210
0.0
220
0.0
230
1.0
 40
0.5
 41
1.185582205193177
 42
1.278468933713629
  0
LINE
  5
304
330
75
100
AcDbEntity
  8
$DDT_AUDIT_GENERATED_(AD)
  6
Continuous
 62
     7
100
AcDbLine
 10
65.8429639599
 20
428.6629843492
 30
0.0
 11
65.8429639599
 21
428.8925269177
 31
0.0
  0
LINE
  5
305
330
75
100
AcDbEntity
  8
$DDT_AUDIT_GENERATED_(AD)
  6
Continuous
 62
     7
100
AcDbLine
 10
65.8429639599
 20
428.8925269177
 30
0.0
 11
66.8429639599
 21
428.8925269177
 31
0.0
  0
LINE
  5
306
330
75
100
AcDbEntity
  8
$DDT_AUDIT_GENERATED_(AD)
  6
Continuous
 62
     7
100
AcDbLine
 10
66.8429639599
 20
428.8925269177
 30
0.0
 11
66.8429639599
 21
428.4198151839
 31
0.0
  0
ELLIPSE
  5
307
330
75
100
AcDbEntity
  8
$DDT_AUDIT_GENERATED_(AD)
  6
Continuous
 62
     7
100
AcDbEllipse
 10
69.9429639743
 20
432.2425269273
 30
0.0
 11
-8.250000016250141
 21
-7.643705113302701E-9
 31
0.0
210
0.0
220
0.0
230
1.0
 40
0.5000000002
 41
0.9073568914276143
 42
0.9477783657832871
  0
LINE
  5
308
330
75
100
AcDbEntity
  8
$DDT_AUDIT_GENERATED_(AD)
  6
Continuous
 62
     7
100
AcDbLine
 10
64.6429639599
 20
429.0813364774
 30
0.0
 11
64.6429639599
 21
429.4925269177
 31
0.0
  0
LINE
  5
309
330
75
100
AcDbEntity
  8
$DDT_AUDIT_GENERATED_(AD)
  6
Continuous
 62
     7
100
AcDbLine
 10
64.6429639599
 20
429.4925269177
 30
0.0
 11
65.6429639599
 21
429.4925269177
 31
0.0
  0
LINE
  5
30A
330
75
100
AcDbEntity
  8
$DDT_AUDIT_GENERATED_(AD)
  6
Continuous
 62
     7
100
AcDbLine
 10
65.6429639599
 20
429.4925269177
 30
0.0
 11
65.6429639599
 21
428.9925269177
 31
0.0
  0
LINE
  5
30B
330
75
100
AcDbEntity
  8
$DDT_AUDIT_GENERATED_(AD)
  6
Continuous
 62
     7
100
AcDbLine
 10
65.6429639599
 20
428.9925269177
 30
0.0
 11
64.8623636017
 21
428.9925269177
 31
0.0
  0
LINE
  5
30C
330
75
100
AcDbEntity
  8
$DDT_AUDIT_GENERATED_(AD)
  6
Continuous
 62
     7
100
AcDbLine
 10
64.8623636017
 20
428.9925269177
 30
0.0
 11
64.8623636017
 21
429.4925269177
 31
0.0
  0
ELLIPSE
  5
30D
330
75
100
AcDbEntity
  8
$DDT_AUDIT_GENERATED_(AD)
  6
Continuous
 62
     7
100
AcDbEllipse
 10
69.9429640555
 20
432.2425269984
 30
0.0
 11
-8.250000118043991
 21
-5.479571657529547E-8
 31
0.0
210
0.0
220
0.0
230
1.0
 40
0.5000000027
 41
1.022525684560337
 42
1.050693115059387
  0
LINE
  5
30E
330
75
100
AcDbEntity
  8
$DDT_AUDIT_GENERATED_(AD)
  6
Continuous
 62
     7
100
AcDbLine
 10
65.1291816632
 20
428.8925269177
 30
0.0
 11
65.6429639599
 21
428.8925269177
 31
0.0
  0
LINE
  5
30F
330
75
100
AcDbEntity
  8
$DDT_AUDIT_GENERATED_(AD)
  6
Continuous
 62
     7
100
AcDbLine
 10
65.6429639599
 20
428.8925269177
 30
0.0
 11
65.6429639599
 21
428.7221398652
 31
0.0
  0
ELLIPSE
  5
310
330
75
100
AcDbEntity
  8
$DDT_AUDIT_GENERATED_(AD)
  6
Continuous
 62
     7
100
AcDbEllipse
 10
69.9429640515
 20
432.2425269574
 30
0.0
 11
-8.250000095219697
 21
-4.000342418430947E-8
 31
0.0
210
0.0
220
0.0
230
1.0
 40
0.4999999995
 41
0.6976574469281454
 42
0.7297276500510375
  0
LINE
  5
311
330
75
100
AcDbEntity
  8
$DDT_AUDIT_GENERATED_(AD)
  6
Continuous
 62
     7
100
AcDbLine
 10
63.4429639599
 20
429.7022267386
 30
0.0
 11
63.4429639599
 21
430.0925269177
 31
0.0
  0
LINE
  5
312
330
75
100
AcDbEntity
  8
$DDT_AUDIT_GENERATED_(AD)
  6
Continuous
 62
     7
100
AcDbLine
 10
63.4429639599
 20
430.0925269177
 30
0.0
 11
64.4429639599
 21
430.0925269177
 31
0.0
  0
LINE
  5
313
330
75
100
AcDbEntity
  8
$DDT_AUDIT_GENERATED_(AD)
  6
Continuous
 62
     7
100
AcDbLine
 10
64.4429639599
 20
430.0925269177
 30
0.0
 11
64.4429639599
 21
429.5925269177
 31
0.0
  0
LINE
  5
314
330
75
100
AcDbEntity
  8
$DDT_AUDIT_GENERATED_(AD)
  6
Continuous
 62
     7
100
AcDbLine
 10
64.4429639599
 20
429.5925269177
 30
0.0
 11
63.6205830793
 21
429.5925269177
 31
0.0
  0
LINE
  5
315
330
75
100
AcDbEntity
  8
$DDT_AUDIT_GENERATED_(AD)
  6
Continuous
 62
     7
100
AcDbLine
 10
63.6205830793
 20
429.5925269177
 30
0.0
 11
63.6205830793
 21
430.0925269177
 31
0.0
  0
ELLIPSE
  5
316
330
75
100
AcDbEntity
  8
$DDT_AUDIT_GENERATED_(AD)
  6
Continuous
 62
     7
100
AcDbEllipse
 10
69.9429640395
 20
432.2425269638
 30
0.0
 11
-8.250000086887644
 21
-4.014168164534482E-8
 31
0.0
210
0.0
220
0.0
230
1.0
 40
0.5000000005
 41
0.8410686646067824
 42
0.8731388677287806
  0
LINE
  5
317
330
75
100
AcDbEntity
  8
$DDT_AUDIT_GENERATED_(AD)
  6
Continuous
 62
     7
100
AcDbLine
 10
63.7937770218
 20
429.4925269177
 30
0.0
 11
64.4429639599
 21
429.4925269177
 31
0.0
  0
LINE
  5
318
330
75
100
AcDbEntity
  8
$DDT_AUDIT_GENERATED_(AD)
  6
Continuous
 62
     7
100
AcDbLine
 10
64.4429639599
 20
429.4925269177
 30
0.0
 11
64.4429639599
 21
429.1679334487
 31
0.0
  0
LINE
  5
319
330
75
100
AcDbEntity
  8
$DDT_AUDIT_GENERATED_(AD)
  6
Continuous
 62
     7
100
AcDbLine
 10
63.2429639599
 20
430.7925269177
 30
0.0
 11
62.2429639599
 21
430.7925269177
 31
0.0
  0
LINE
  5
31A
330
75
100
AcDbEntity
  8
$DDT_AUDIT_GENERATED_(AD)
  6
Continuous
 62
     7
100
AcDbLine
 10
62.2429639599
 20
430.7925269177
 30
0.0
 11
62.2429639599
 21
431.2925269177
 31
0.0
  0
LINE
  5
31B
330
75
100
AcDbEntity
  8
$DDT_AUDIT_GENERATED_(AD)
  6
Continuous
 62
     7
100
AcDbLine
 10
62.2429639599
 20
431.2925269177
 30
0.0
 11
63.2429639599
 21
431.2925269177
 31
0.0
  0
LINE
  5
31C
330
75
100
AcDbEntity
  8
$DDT_AUDIT_GENERATED_(AD)
  6
Continuous
 62
     7
100
AcDbLine
 10
63.2429639599
 20
431.2925269177
 30
0.0
 11
63.2429639599
 21
430.7925269177
 31
0.0
  0
ELLIPSE
  5
31D
330
75
100
AcDbEntity
  8
$DDT_AUDIT_GENERATED_(AD)
  6
Continuous
 62
     7
100
AcDbEllipse
 10
69.9429640965
 20
432.2425269581
 30
0.0
 11
-8.250000138102131
 21
-4.631829642054441E-8
 31
0.0
210
0.0
220
0.0
230
1.0
 40
0.4999999977
 41
0.5201031963774166
 42
0.5482706269255523
  0
LINE
  5
31E
330
75
100
AcDbEntity
  8
$DDT_AUDIT_GENERATED_(AD)
  6
Continuous
 62
     7
100
AcDbLine
 10
62.2975404922
 20
430.6925269177
 30
0.0
 11
63.2429639599
 21
430.6925269177
 31
0.0
  0
LINE
  5
31F
330
75
100
AcDbEntity
  8
$DDT_AUDIT_GENERATED_(AD)
  6
Continuous
 62
     7
100
AcDbLine
 10
63.2429639599
 20
430.6925269177
 30
0.0
 11
63.2429639599
 21
430.1925269177
 31
0.0
  0
LINE
  5
320
330
75
100
AcDbEntity
  8
$DDT_AUDIT_GENERATED_(AD)
  6
Continuous
 62
     7
100
AcDbLine
 10
63.2429639599
 20
430.1925269177
 30
0.0
 11
62.7838788228
 21
430.1925269177
 31
0.0
  0
LINE
  5
321
330
75
100
AcDbEntity
  8
$DDT_AUDIT_GENERATED_(AD)
  6
Continuous
 62
     7
100
AcDbLine
 10
62.7838788228
 20
430.1925269177
 30
0.0
 11
62.7838788228
 21
430.6925269177
 31
0.0
  0
ELLIPSE
  5
322
330
75
100
AcDbEntity
  8
$DDT_AUDIT_GENERATED_(AD)
  6
Continuous
 62
     7
100
AcDbEllipse
 10
69.942963951
 20
432.2425269145
 30
0.0
 11
-8.249999990871807
 21
3.525679748150878E-9
 31
0.0
210
0.0
220
0.0
230
1.0
 40
0.5000000001
 41
0.6230179603487754
 42
0.6634394347901541
  0
LINE
  5
323
330
75
100
AcDbEntity
  8
$DDT_AUDIT_GENERATED_(AD)
  6
Continuous
 62
     7
100
AcDbLine
 10
62.9021898548
 20
430.0925269177
 30
0.0
 11
63.2429639599
 21
430.0925269177
 31
0.0
  0
LINE
  5
324
330
75
100
AcDbEntity
  8
$DDT_AUDIT_GENERATED_(AD)
  6
Continuous
 62
     7
100
AcDbLine
 10
63.2429639599
 20
430.0925269177
 30
0.0
 11
63.2429639599
 21
429.8356357694
 31
0.0
  0
ELLIPSE
  5
325
330
75
100
AcDbEntity
  8
$DDT_AUDIT_GENERATED_(AD)
  6
Continuous
 62
     7
100
AcDbEllipse
 10
69.9429642476
 20
432.2425269283
 30
0.0
 11
-8.250000287692648
 21
-1.400807247975422E-8
 31
0.0
210
0.0
220
0.0
230
1.0
 40
0.4999999914
 41
0.0606432221267354
 42
0.0849506215559822
  0
LINE
  5
326
330
75
100
AcDbEntity
  8
$DDT_AUDIT_GENERATED_(AD)
  6
Continuous
 62
     7
100
AcDbLine
 10
62.0429639599
 20
431.9925269177
 30
0.0
 11
61.7081294139
 21
431.9925269177
 31
0.0
  0
LINE
  5
327
330
75
100
AcDbEntity
  8
$DDT_AUDIT_GENERATED_(AD)
  6
Continuous
 62
     7
100
AcDbLine
 10
61.7081294139
 20
431.9925269177
 30
0.0
 11
61.7081294139
 21
432.0595142159
 31
0.0
  0
ELLIPSE
  5
328
330
75
100
AcDbEntity
  8
$DDT_AUDIT_GENERATED_(AD)
  6
Continuous
 62
     7
100
AcDbEllipse
 10
69.9429642381
 20
432.2425269488
 30
0.0
 11
-8.250000278235392
 21
-4.039374390529815E-8
 31
0.0
210
0.0
220
0.0
230
1.0
 40
0.4999999922
 41
0.207547444570601
 42
0.2323890661397351
  0
LINE
  5
329
330
75
100
AcDbEntity
  8
$DDT_AUDIT_GENERATED_(AD)
  6
Continuous
 62
     7
100
AcDbLine
 10
61.722714572
 20
431.8925269177
 30
0.0
 11
62.0429639599
 21
431.8925269177
 31
0.0
  0
LINE
  5
32A
330
75
100
AcDbEntity
  8
$DDT_AUDIT_GENERATED_(AD)
  6
Continuous
 62
     7
100
AcDbLine
 10
62.0429639599
 20
431.8925269177
 30
0.0
 11
62.0429639599
 21
431.3925269177
 31
0.0
  0
LINE
  5
32B
330
75
100
AcDbEntity
  8
$DDT_AUDIT_GENERATED_(AD)
  6
Continuous
 62
     7
100
AcDbLine
 10
62.0429639599
 20
431.3925269177
 30
0.0
 11
61.8700153041
 21
431.3925269177
 31
0.0
  0
LINE
  5
32C
330
75
100
AcDbEntity
  8
$DDT_AUDIT_GENERATED_(AD)
  6
Continuous
 62
     7
100
AcDbLine
 10
61.8700153041
 20
431.3925269177
 30
0.0
 11
61.8700153041
 21
431.8925269177
 31
0.0
  0
ELLIPSE
  5
32D
330
75
100
AcDbEntity
  8
$DDT_AUDIT_GENERATED_(AD)
  6
Continuous
 62
     7
100
AcDbEllipse
 10
69.9429639584
 20
432.2425269175
 30
0.0
 11
-8.249999998509443
 21
3.336914078388986E-10
 31
0.0
210
0.0
220
0.0
230
1.0
 40
0.5
 41
0.2923273931992292
 42
0.385214121716843
  0
LINE
  5
32E
330
75
100
AcDbEntity
  8
$DDT_AUDIT_GENERATED_(AD)
  6
Continuous
 62
     7
100
AcDbLine
 10
61.9147325233
 20
431.2925269177
 30
0.0
 11
62.0429639599
 21
431.2925269177
 31
0.0
  0
LINE
  5
32F
330
75
100
AcDbEntity
  8
$DDT_AUDIT_GENERATED_(AD)
  6
Continuous
 62
     7
100
AcDbLine
 10
62.0429639599
 20
431.2925269177
 30
0.0
 11
62.0429639599
 21
431.053777575
 31
0.0
  0
LINE
  5
330
330
75
100
AcDbEntity
  8
$DDT_AUDIT_GENERATED_(AD)
  6
Continuous
 62
     7
100
AcDbLine
 10
79.3429639599
 20
431.8095142159
 30
0.0
 11
79.3429639599
 21
432.8270940653
 31
0.0
  0
LINE
  5
331
330
75
100
AcDbEntity
  8
$DDT_AUDIT_GENERATED_(AD)
  6
Continuous
 62
     7
100
AcDbLine
 10
60.5429639599
 20
432.8270940653
 30
0.0
 11
60.5429639599
 21
431.8095142159
 31
0.0
  0
ELLIPSE
  5
333
330
75
100
AcDbEntity
  8
$DDT_AUDIT_GENERATED_(332)
  6
Continuous
 62
     7
100
AcDbEllipse
 10
69.9429645813
 20
491.7939447864
 30
0.0
 11
3.349999999999998
 21
0.0
 31
0.0
210
0.0
220
0.0
230
1.0
 40
0.9544371686
 41
5.724321578917276
 42
6.283185307179586
  0
ELLIPSE
  5
334
330
75
100
AcDbEntity
  8
$DDT_AUDIT_GENERATED_(332)
  6
Continuous
 62
     7
100
AcDbEllipse
 10
69.9429645813
 20
491.7939447864
 30
0.0
 11
3.349999999999998
 21
0.0
 31
0.0
210
0.0
220
0.0
230
1.0
 40
0.9544371686
 41
0.0
 42
3.778639101700546
  0
ARC
  5
336
330
75
100
AcDbEntity
  8
$DDT_AUDIT_GENERATED_(335)
  6
Continuous
 62
     7
100
AcDbCircle
 10
69.9104898113
 20
886.9409481766
 30
0.0
 40
381.6059715622017
100
AcDbArc
 50
268.2681466731
 51
271.7434739792
  0
SPLINE
  5
337
330
75
100
AcDbEntity
  8
$DDT_AUDIT_GENERATED_(335)
  6
Continuous
 62
     7
100
AcDbSpline
210
0.0
220
0.0
230
1.0
 70
     8
 71
     3
 72
     8
 73
     4
 74
     0
 42
0.0000000011410283
 43
0.0000000001
 40
0.056931520995393
 40
0.056931520995393
 40
0.056931520995393
 40
0.056931520995393
 40
0.0643087428092532
 40
0.0643087428092532
 40
0.0643087428092532
 40
0.0643087428092532
 10
53.69205667063767
 20
518.2485912043862
 30
0.0
 10
53.71284428893741
 20
518.2546804029878
 30
0.0
 10
53.73361354268733
 20
518.2604304133731
 30
0.0
 10
53.75436158701978
 20
518.2658434575403
 30
0.0
  0
SPLINE
  5
338
330
75
100
AcDbEntity
  8
$DDT_AUDIT_GENERATED_(335)
  6
Continuous
 62
     7
100
AcDbSpline
210
0.0
220
0.0
230
1.0
 70
     8
 71
     3
 72
     8
 73
     4
 74
     0
 42
0.0000000011115786
 43
0.0000000001
 40
0.9346632142529886
 40
0.9346632142529886
 40
0.9346632142529886
 40
0.9346632142529886
 40
0.9421055338788656
 40
0.9421055338788656
 40
0.9421055338788656
 40
0.9421055338788656
 10
86.22273906003828
 20
518.2535754061083
 30
0.0
 10
86.24421564622342
 20
518.2479538272341
 30
0.0
 10
86.26571793640248
 20
518.2419802913578
 30
0.0
 10
86.28724297171233
 20
518.2356521970397
 30
0.0
  0
ARC
  5
339
330
75
100
AcDbEntity
  8
$DDT_AUDIT_GENERATED_(335)
  6
Continuous
 62
     7
100
AcDbCircle
 10
69.8945757228
 20
1022.7042306982
 30
0.0
 40
514.5788654509142
100
AcDbArc
 50
268.7332056789
 51
271.2788901169
  0
SPLINE
  5
33A
330
75
100
AcDbEntity
  8
$DDT_AUDIT_GENERATED_(335)
  6
Continuous
 62
     7
100
AcDbSpline
210
0.0
220
0.0
230
1.0
 70
     8
 71
     3
 72
     8
 73
     4
 74
     0
 42
0.0000000011280928
 43
0.0000000001
 40
0.7288537068217806
 40
0.7288537068217806
 40
0.7288537068217806
 40
0.7288537068217806
 40
0.7463381876162548
 40
0.7463381876162548
 40
0.7463381876162548
 40
0.7463381876162548
 10
54.8548337614876
 20
515.2989389869966
 30
0.0
 10
54.8124138946219
 20
515.3289904315197
 30
0.0
 10
54.76937089776391
 20
515.3575446684267
 30
0.0
 10
54.72570699810714
 20
515.3845732036284
 30
0.0
  0
SPLINE
  5
33B
330
75
100
AcDbEntity
  8
$DDT_AUDIT_GENERATED_(335)
  6
Continuous
 62
     7
100
AcDbSpline
210
0.0
220
0.0
230
1.0
 70
     8
 71
     3
 72
    10
 73
     6
 74
     0
 42
0.0000000010948052
 43
0.0000000001
 40
0.7463381876162548
 40
0.7463381876162548
 40
0.7463381876162548
 40
0.7463381876162548
 40
0.75
 40
0.75
 40
1.0
 40
1.0
 40
1.0
 40
1.0
 10
54.72570699810714
 20
515.3845732036284
 30
0.0
 10
54.71656237377627
 20
515.3902338478351
 30
0.0
 10
54.70739051551553
 20
515.3958275719807
 30
0.0
 10
54.07015054713097
 20
515.7786633369324
 30
0.0
 10
53.32642123387404
 20
515.8452280345637
 30
0.0
 10
52.59015966216122
 20
515.5188433304302
 30
0.0
  0
SPLINE
  5
33C
330
75
100
AcDbEntity
  8
$DDT_AUDIT_GENERATED_(335)
  6
Continuous
 62
     7
100
AcDbSpline
210
0.0
220
0.0
230
1.0
 70
     8
 71
     3
 72
    10
 73
     6
 74
     0
 42
0.0000000010811859
 43
0.0000000001
 40
0.0
 40
0.0
 40
0.0
 40
0.0
 40
0.2499999999999999
 40
0.2499999999999999
 40
0.2755050742825794
 40
0.2755050742825794
 40
0.2755050742825794
 40
0.2755050742825794
 10
87.41026357994166
 20
515.4968550655839
 30
0.0
 10
86.66044750080306
 20
515.833610117376
 30
0.0
 10
85.90415194850453
 20
515.7728860090483
 30
0.0
 10
85.2002902930422
 20
515.3626336983608
 30
0.0
 10
85.13643953513036
 20
515.3213468452915
 30
0.0
 10
85.0739104210008
 20
515.276845518071
 30
0.0
  0
ARC
  5
33D
330
75
100
AcDbEntity
  8
$DDT_AUDIT_GENERATED_(335)
  6
Continuous
 62
     7
100
AcDbCircle
 10
56.5074312988
 20
494.4134839765
 30
0.0
 40
21.46581492823072
100
AcDbArc
 50
100.5147613001
 51
112.5313028911
  0
ARC
  5
33E
330
75
100
AcDbEntity
  8
$DDT_AUDIT_GENERATED_(335)
  6
Continuous
 62
     7
100
AcDbCircle
 10
83.4017885237
 20
494.3544520584
 30
0.0
 40
21.5190398762092
100
AcDbArc
 50
67.2867950239
 51
79.2644801484
  0
ARC
  5
33F
330
75
100
AcDbEntity
  8
$DDT_AUDIT_GENERATED_(335)
  6
Continuous
 62
     7
100
AcDbCircle
 10
-115.8536572561
 20
484.3973589916
 30
0.0
 40
213.0466182065534
100
AcDbArc
 50
0.0999740322
 51
6.8288538255
  0
ARC
  5
340
330
75
100
AcDbEntity
  8
$DDT_AUDIT_GENERATED_(335)
  6
Continuous
 62
     7
100
AcDbCircle
 10
88.4973162583
 20
507.3541554877
 30
0.0
 40
7.566726417310049
100
AcDbArc
 50
18.2952518846
 51
64.8701125055
  0
ARC
  5
341
330
75
100
AcDbEntity
  8
$DDT_AUDIT_GENERATED_(335)
  6
Continuous
 62
     7
100
AcDbCircle
 10
255.6971509717
 20
484.5052715453
 30
0.0
 40
213.0041646552519
100
AcDbArc
 50
179.7847995203
 51
179.8868265691
  0
SPLINE
  5
342
330
75
100
AcDbEntity
  8
$DDT_AUDIT_GENERATED_(335)
  6
Continuous
 62
     7
100
AcDbSpline
210
0.0
220
0.0
230
1.0
 70
     8
 71
     3
 72
    12
 73
     8
 74
     0
 42
0.0000000015727614
 43
0.0000000001
 40
0.0
 40
0.0
 40
0.0
 40
0.0
 40
0.4999999999999998
 40
0.4999999999999998
 40
0.7499999999999999
 40
0.7499999999999999
 40
1.0
 40
1.0
 40
1.0
 40
1.0
 10
48.28198589914225
 20
514.2408201190772
 30
0.0
 10
47.06411817311744
 20
513.5512600519447
 30
0.0
 10
46.14964896434913
 20
512.8372343140411
 30
0.0
 10
45.1435149096154
 20
511.6963713786081
 30
0.0
 10
44.86824239396417
 20
511.3039792530528
 30
0.0
 10
44.43443396780794
 20
510.4941996524743
 30
0.0
 10
44.27663936466343
 20
510.0736625632496
 30
0.0
 10
44.18278932343201
 20
509.6538098131207
 30
0.0
  0
ARC
  5
343
330
75
100
AcDbEntity
  8
$DDT_AUDIT_GENERATED_(335)
  6
Continuous
 62
     7
100
AcDbCircle
 10
94.3203811853
 20
509.594751505
 30
0.0
 40
1.367823767653123
100
AcDbArc
 50
10.7765256096
 51
14.2726577773
  0
ARC
  5
344
330
75
100
AcDbEntity
  8
$DDT_AUDIT_GENERATED_(335)
  6
Continuous
 62
     7
100
AcDbCircle
 10
45.5448342807
 20
509.5174324083
 30
0.0
 40
1.368855457037542
100
AcDbArc
 50
166.0961798302
 51
168.6695045694
  0
ELLIPSE
  5
345
330
75
100
AcDbEntity
  8
$DDT_AUDIT_GENERATED_(335)
  6
Continuous
 62
     7
100
AcDbEllipse
 10
81.1322871195
 20
506.8455531005
 30
0.0
 11
-1.461077094686462
 21
0.3394903877617789
 31
0.0
210
0.0
220
0.0
230
0.9999999999999999
 40
0.9528856692
 41
3.142023877147113
 42
4.764353324684531
  0
ELLIPSE
  5
346
330
75
100
AcDbEntity
  8
$DDT_AUDIT_GENERATED_(335)
  6
Continuous
 62
     7
100
AcDbEllipse
 10
58.7659860432
 20
506.8432409742
 30
0.0
 11
1.462111391815717
 21
0.335007877403995
 31
0.0
210
0.0
220
0.0
230
1.0
 40
0.9528946775
 41
1.522104506638324
 42
3.14505670407482
  0
LINE
  5
347
330
75
100
AcDbEntity
  8
$DDT_AUDIT_GENERATED_(335)
  6
Continuous
 62
     7
100
AcDbLine
 10
69.9078023693
 20
494.9074359665
 30
0.0
 11
69.8767158076
 21
494.9068759022
 31
0.0
  0
SPLINE
  5
348
330
75
100
AcDbEntity
  8
$DDT_AUDIT_GENERATED_(335)
  6
Continuous
 62
     7
100
AcDbSpline
210
0.0
220
0.0
230
1.0
 70
     8
 71
     3
 72
    14
 73
    10
 74
     0
 42
0.0000000009636973
 43
0.0000000001
 40
0.0
 40
0.0
 40
0.0
 40
0.0
 40
0.25
 40
0.25
 40
0.5
 40
0.5
 40
0.75
 40
0.75
 40
1.0
 40
1.0
 40
1.0
 40
1.0
 10
69.90869030207848
 20
488.3896323184037
 30
0.0
 10
69.03791804315094
 20
488.3974257052284
 30
0.0
 10
68.20183162178525
 20
488.7954574522349
 30
0.0
 10
67.0408258832558
 20
490.0326884040033
 30
0.0
 10
66.70556934742345
 20
490.8678268080109
 30
0.0
 10
66.68107977709295
 20
492.5189271379745
 30
0.0
 10
66.99465577613007
 20
493.3378942422988
 30
0.0
 10
68.16870431835854
 20
494.5321018546485
 30
0.0
 10
69.00649324558523
 20
494.8872887749839
 30
0.0
 10
69.87671580764044
 20
494.906875902241
 30
0.0
  0
SPLINE
  5
349
330
75
100
AcDbEntity
  8
$DDT_AUDIT_GENERATED_(335)
  6
Continuous
 62
     7
100
AcDbSpline
210
0.0
220
0.0
230
1.0
 70
     8
 71
     3
 72
    14
 73
    10
 74
     0
 42
0.0000000009467715
 43
0.0000000001
 40
0.0
 40
0.0
 40
0.0
 40
0.0
 40
0.25
 40
0.25
 40
0.5
 40
0.5
 40
0.75
 40
0.75
 40
1.0
 40
1.0
 40
1.0
 40
1.0
 10
69.90780236933522
 20
494.907359340277
 30
0.0
 10
70.79284506094744
 20
494.9194114628167
 30
0.0
 10
71.65959455432191
 20
494.5808428216511
 30
0.0
 10
72.87416051081549
 20
493.3926407856058
 30
0.0
 10
73.20318393243903
 20
492.5567197462255
 30
0.0
 10
73.18223365379085
 20
490.8795537808869
 30
0.0
 10
72.8387776217939
 20
490.0286687623183
 30
0.0
 10
71.6478719649431
 20
488.7763775320263
 30
0.0
 10
70.79457435742965
 20
488.3817104300147
 30
0.0
 10
69.90869030207848
 20
488.3896323184037
 30
0.0
  0
SPLINE
  5
34A
330
75
100
AcDbEntity
  8
$DDT_AUDIT_GENERATED_(335)
  6
Continuous
 62
     7
100
AcDbSpline
210
0.0
220
0.0
230
1.0
 70
     8
 71
     3
 72
    12
 73
     8
 74
     0
 42
0.0000000002523145
 43
0.0000000001
 40
0.5904546614369921
 40
0.5904546614369921
 40
0.5904546614369921
 40
0.5904546614369921
 40
0.625
 40
0.625
 40
0.75
 40
0.75
 40
1.0
 40
1.0
 40
1.0
 40
1.0
 10
86.10172643139957
 20
480.7355853568092
 30
0.0
 10
85.71242827636755
 20
480.6849728035797
 30
0.0
 10
85.31434647552092
 20
480.6360804434343
 30
0.0
 10
83.4350112427865
 20
480.4182687520431
 30
0.0
 10
81.86644774967522
 20
480.2732025084283
 30
0.0
 10
77.0044422299274
 20
479.9241145396876
 30
0.0
 10
73.46821605127921
 20
479.8007963026928
 30
0.0
 10
69.91039061565328
 20
479.8014544056772
 30
0.0
  0
SPLINE
  5
34B
330
75
100
AcDbEntity
  8
$DDT_AUDIT_GENERATED_(335)
  6
Continuous
 62
     7
100
AcDbSpline
210
0.0
220
0.0
230
1.0
 70
     8
 71
     3
 72
    14
 73
    10
 74
     0
 42
0.0000000002506399
 43
0.0000000001
 40
0.0
 40
0.0
 40
0.0
 40
0.0
 40
0.125
 40
0.125
 40
0.2500000000000001
 40
0.2500000000000001
 40
0.3749999999999999
 40
0.3749999999999999
 40
0.3782885182589146
 40
0.3782885182589146
 40
0.3782885182589146
 40
0.3782885182589146
 10
69.91039061565328
 20
479.8014544056772
 30
0.0
 10
68.13143350966152
 20
479.8017837033565
 30
0.0
 10
66.3823713416334
 20
479.8323966950252
 30
0.0
 10
62.9415888810405
 20
479.9517102318949
 30
0.0
 10
61.23206596640364
 20
480.0418526159785
 30
0.0
 10
57.97208320031666
 20
480.2769917976987
 30
0.0
 10
56.42605967148984
 20
480.420802343393
 30
0.0
 10
54.92474666294826
 20
480.5950796492854
 30
0.0
 10
54.88631602821369
 20
480.599566299612
 30
0.0
 10
54.84794027715538
 20
480.6040720403378
 30
0.0
  0
ARC
  5
34C
330
75
100
AcDbEntity
  8
$DDT_AUDIT_GENERATED_(335)
  6
Continuous
 62
     7
100
AcDbCircle
 10
253.7966602856
 20
484.7549072582
 30
0.0
 40
211.1033573738259
100
AcDbArc
 50
173.355427757
 51
179.955254452
  0
ARC
  5
34D
330
75
100
AcDbEntity
  8
$DDT_AUDIT_GENERATED_(335)
  6
Continuous
 62
     7
100
AcDbCircle
 10
69.9675611434
 20
459.536841708
 30
0.0
 40
60.92258043655282
100
AcDbArc
 50
74.5239912441
 51
105.4341771076
  0
ARC
  5
34E
330
75
100
AcDbEntity
  8
$DDT_AUDIT_GENERATED_(335)
  6
Continuous
 62
     7
100
AcDbCircle
 10
-112.9978255288
 20
484.7379066901
 30
0.0
 40
210.1888042162535
100
AcDbArc
 50
3.45512516
 51
6.6918589624
  0
LINE
  5
34F
330
75
100
AcDbEntity
  8
$DDT_AUDIT_GENERATED_(335)
  6
Continuous
 62
     7
100
AcDbLine
 10
42.6933883497
 20
484.9313738876
 30
0.0
 11
42.6932400398
 21
484.7784880033
 31
0.0
  0
ARC
  5
350
330
75
100
AcDbEntity
  8
$DDT_AUDIT_GENERATED_(335)
  6
Continuous
 62
     7
100
AcDbCircle
 10
89.7664375262
 20
508.6255115412
 30
0.0
 40
6.021110747335048
100
AcDbArc
 50
5.5880120554
 51
11.7380922902
  0
ARC
  5
351
330
75
100
AcDbEntity
  8
$DDT_AUDIT_GENERATED_(335)
  6
Continuous
 62
     7
100
AcDbCircle
 10
49.119496593
 20
508.7220238641
 30
0.0
 40
5.032713464479241
100
AcDbArc
 50
167.7810392051
 51
174.9011360613
  0
ARC
  5
352
330
75
100
AcDbEntity
  8
$DDT_AUDIT_GENERATED_(335)
  6
Continuous
 62
     7
100
AcDbCircle
 10
86.7849309244
 20
507.4291505274
 30
0.0
 40
9.213023140109522
100
AcDbArc
 50
15.7708969646
 51
61.3386279761
  0
ARC
  5
353
330
75
100
AcDbEntity
  8
$DDT_AUDIT_GENERATED_(335)
  6
Continuous
 62
     7
100
AcDbCircle
 10
53.1848287771
 20
507.3441104041
 30
0.0
 40
9.316609680487792
100
AcDbArc
 50
118.1387824097
 51
164.4121852852
  0
ARC
  5
354
330
75
100
AcDbEntity
  8
$DDT_AUDIT_GENERATED_(335)
  6
Continuous
 62
     7
100
AcDbCircle
 10
65.5993344127
 20
476.1350788084
 30
0.0
 40
46.97222066756481
100
AcDbArc
 50
56.9587141334
 51
62.7988804
  0
ARC
  5
355
330
75
100
AcDbEntity
  8
$DDT_AUDIT_GENERATED_(335)
  6
Continuous
 62
     7
100
AcDbCircle
 10
74.9380215889
 20
474.7900855256
 30
0.0
 40
48.43505759791812
100
AcDbArc
 50
117.0187708228
 51
122.6849214997
  0
SPLINE
  5
356
330
75
100
AcDbEntity
  8
$DDT_AUDIT_GENERATED_(335)
  6
Continuous
 62
     7
100
AcDbSpline
210
0.0
220
0.0
230
1.0
 70
     8
 71
     3
 72
    25
 73
    21
 74
     0
 42
0.0000000010857703
 43
0.0000000001
 40
0.0
 40
0.0
 40
0.0
 40
0.0
 40
0.0001879568122651
 40
0.0745263625987264
 40
0.1501845165075432
 40
0.2234699604379873
 40
0.2952835581809093
 40
0.3647840388034894
 40
0.4314915819828385
 40
0.4952564314246848
 40
0.5561560839472245
 40
0.6144074766616221
 40
0.6568387093744765
 40
0.7002432894571557
 40
0.7444595332881316
 40
0.8005883065735397
 40
0.8557393523393764
 40
0.9100977793105848
 40
0.9641958249377072
 40
1.0
 40
1.0
 40
1.0
 40
1.0
 10
82.59330639148347
 20
506.5060459849837
 30
0.0
 10
82.59354922030818
 20
506.5070447058044
 30
0.0
 10
82.67669241406216
 20
506.8490037708085
 30
0.0
 10
82.83125474083785
 20
507.5687246495433
 30
0.0
 10
83.03696432236895
 20
508.5665031245161
 30
0.0
 10
83.2197581807182
 20
509.516041388026
 30
0.0
 10
83.38510799371737
 20
510.3893369901461
 30
0.0
 10
83.53894127080984
 20
511.1866391335575
 30
0.0
 10
83.68551213917944
 20
511.9021205530778
 30
0.0
 10
83.82812034294038
 20
512.535428158795
 30
0.0
 10
83.96933837904054
 20
513.0897607696402
 30
0.0
 10
84.09905726128238
 20
513.5305576922127
 30
0.0
 10
84.2204734894104
 20
513.8888421536047
 30
0.0
 10
84.32860288942558
 20
514.166840139242
 30
0.0
 10
84.4553309534849
 20
514.4441885860887
 30
0.0
 10
84.5963883502894
 20
514.7022423027639
 30
0.0
 10
84.7468807138901
 20
514.926906555662
 30
0.0
 10
84.88697887426297
 20
515.0963719434778
 30
0.0
 10
85.00384599386486
 20
515.2094795755522
 30
0.0
 10
85.05653057891091
 20
515.2472900421025
 30
0.0
 10
85.08114774369962
 20
515.2644482872308
 30
0.0
  0
ARC
  5
357
330
75
100
AcDbEntity
  8
$DDT_AUDIT_GENERATED_(335)
  6
Continuous
 62
     7
100
AcDbCircle
 10
85.5346920342
 20
515.2614592168
 30
0.0
 40
3.062714293767713
100
AcDbArc
 50
58.8341409323
 51
76.7501841645
  0
ARC
  5
358
330
75
100
AcDbEntity
  8
$DDT_AUDIT_GENERATED_(335)
  6
Continuous
 62
     7
100
AcDbCircle
 10
69.9477551639
 20
523.6920837836
 30
0.0
 40
21.71863298094059
100
AcDbArc
 50
236.5285040466
 51
303.4840724261
  0
ARC
  5
359
330
75
100
AcDbEntity
  8
$DDT_AUDIT_GENERATED_(335)
  6
Continuous
 62
     7
100
AcDbCircle
 10
54.4671004277
 20
515.2526487914
 30
0.0
 40
3.091038801673134
100
AcDbArc
 50
103.5393291446
 51
120.7820885457
  0
SPLINE
  5
35A
330
75
100
AcDbEntity
  8
$DDT_AUDIT_GENERATED_(335)
  6
Continuous
 62
     7
100
AcDbSpline
210
0.0
220
0.0
230
1.0
 70
     8
 71
     3
 72
    25
 73
    21
 74
     0
 42
0.0000000010843503
 43
0.0000000001
 40
0.0
 40
0.0
 40
0.0
 40
0.0
 40
0.0337586842226786
 40
0.0895146263848234
 40
0.1433758527126013
 40
0.1969262827166686
 40
0.2507916528333938
 40
0.305471101501794
 40
0.3502727088432722
 40
0.3948233506166384
 40
0.4491631979923101
 40
0.5052343533569815
 40
0.5635181443032563
 40
0.6242497539179782
 40
0.6876019150687186
 40
0.7536526655169531
 40
0.8223285477477414
 40
0.893322920158386
 40
0.9660181873404333
 40
1.0
 40
1.0
 40
1.0
 40
1.0
 10
54.85099909765594
 20
515.2844352944696
 30
0.0
 10
54.87305081298549
 20
515.2691626099834
 30
0.0
 10
54.92297081881867
 20
515.2335275479246
 30
0.0
 10
55.03621231212044
 20
515.1245715239603
 30
0.0
 10
55.17359847984972
 20
514.9581605876018
 30
0.0
 10
55.31846333262002
 20
514.7420758433548
 30
0.0
 10
55.46452825303675
 20
514.4765485796828
 30
0.0
 10
55.59905005466612
 20
514.1799206795561
 30
0.0
 10
55.71733515748753
 20
513.8662597640938
 30
0.0
 10
55.83641665677663
 20
513.5019555746051
 30
0.0
 10
55.9587021847283
 20
513.0725178112713
 30
0.0
 10
56.08698233728333
 20
512.5576713975331
 30
0.0
 10
56.2157179552328
 20
511.9782144321172
 30
0.0
 10
56.3474530318744
 20
511.3292978966422
 30
0.0
 10
56.4852851021905
 20
510.6075640841421
 30
0.0
 10
56.63327129369683
 20
509.8113391373116
 30
0.0
 10
56.79661233924809
 20
508.9384777123449
 30
0.0
 10
56.9802926865777
 20
508.0016893376626
 30
0.0
 10
57.15428069535787
 20
507.1624162034969
 30
0.0
 10
57.26584370797288
 20
506.6833642792441
 30
0.0
 10
57.30776169137171
 20
506.5036801230538
 30
0.0
  0
ARC
  5
35B
330
75
100
AcDbEntity
  8
$DDT_AUDIT_GENERATED_(335)
  6
Continuous
 62
     7
100
AcDbCircle
 10
81.1322871195
 20
506.8455531005
 30
0.0
 40
1.500000000000004
100
AcDbArc
 50
302.198482183
 51
346.9190815948
  0
ARC
  5
35C
330
75
100
AcDbEntity
  8
$DDT_AUDIT_GENERATED_(335)
  6
Continuous
 62
     7
100
AcDbCircle
 10
58.7659860432
 20
506.8432409742
 30
0.0
 40
1.49999999999999
100
AcDbArc
 50
192.9052001954
 51
237.8222771387
  0
SPLINE
  5
35D
330
75
100
AcDbEntity
  8
$DDT_AUDIT_GENERATED_(335)
  6
Continuous
 62
     7
100
AcDbSpline
210
0.0
220
0.0
230
1.0
 70
     8
 71
     3
 72
    28
 73
    24
 74
     0
 42
0.0000000007927611
 43
0.0000000001
 40
0.0
 40
0.0
 40
0.0
 40
0.0
 40
0.0226694237796339
 40
0.0691796341463995
 40
0.1155519119776542
 40
0.1617644847699782
 40
0.2076948039840544
 40
0.2534899984513214
 40
0.2996768747191777
 40
0.3462138935894232
 40
0.3930570196965972
 40
0.4401586585069798
 40
0.4874700350528647
 40
0.5349440833765986
 40
0.5825387989072651
 40
0.63022069319137
 40
0.6779670308809477
 40
0.7257625713789597
 40
0.7735647905561167
 40
0.8212122686801603
 40
0.8604381132640225
 40
0.9018237956187146
 40
0.9417584292475448
 40
0.9417584292475448
 40
0.9417584292475448
 40
0.9417584292475448
 10
86.16492776811967
 20
480.7390235982328
 30
0.0
 10
86.33273346504542
 20
480.7604963991834
 30
0.0
 10
86.76761938304507
 20
480.816341546417
 30
0.0
 10
87.53212576667788
 20
480.9260252023599
 30
0.0
 10
88.39509578134064
 20
481.0595240688845
 30
0.0
 10
89.2270145249684
 20
481.2003530075109
 30
0.0
 10
90.01754259217898
 20
481.3465599636465
 30
0.0
 10
90.7713963657238
 20
481.4987811891968
 30
0.0
 10
91.49042594502576
 20
481.6572957536457
 30
0.0
 10
92.1755429413777
 20
481.8224367506688
 30
0.0
 10
92.82447041361715
 20
481.9938579756071
 30
0.0
 10
93.43509225083561
 20
482.1712220498281
 30
0.0
 10
94.00541828966185
 20
482.3542036674072
 30
0.0
 10
94.5336499029168
 20
482.5425263477543
 30
0.0
 10
95.01820426300982
 20
482.7360049720398
 30
0.0
 10
95.45778433470815
 20
482.9346297769359
 30
0.0
 10
95.85121899893238
 20
483.1386165021024
 30
0.0
 10
96.19793318450881
 20
483.3487139148208
 30
0.0
 10
96.49548862962939
 20
483.5655665561095
 30
0.0
 10
96.73334605942816
 20
483.7798501535343
 30
0.0
 10
96.9131949799582
 20
484.0011415728699
 30
0.0
 10
97.03648107928457
 20
484.2153817472015
 30
0.0
 10
97.09077897853294
 20
484.3590130564119
 30
0.0
 10
97.11299507588755
 20
484.4303834088054
 30
0.0
  0
SPLINE
  5
35E
330
75
100
AcDbEntity
  8
$DDT_AUDIT_GENERATED_(335)
  6
Continuous
 62
     7
100
AcDbSpline
210
0.0
220
0.0
230
1.0
 70
     8
 71
     3
 72
    30
 73
    26
 74
     0
 42
0.0000000007357749
 43
0.0000000001
 40
0.0345158111139713
 40
0.0345158111139713
 40
0.0345158111139713
 40
0.0345158111139713
 40
0.0642151500385195
 40
0.1039731964236656
 40
0.1417813903861065
 40
0.1817545700060373
 40
0.2203092686844376
 40
0.2651918851581513
 40
0.3103528211333612
 40
0.3556775471541463
 40
0.4009829348545435
 40
0.4462257181255077
 40
0.4913849035774707
 40
0.5364340760062055
 40
0.5813385481943554
 40
0.6260574091647636
 40
0.6705466579503878
 40
0.7147622460236822
 40
0.7586627007308068
 40
0.80221126580309
 40
0.8453982682486287
 40
0.8890258542882944
 40
0.9328161767424382
 40
0.9767667406455559
 40
1.0
 40
1.0
 40
1.0
 40
1.0
 10
42.73730859569693
 20
484.5621832924153
 30
0.0
 10
42.74890363955009
 20
484.5078118790396
 30
0.0
 10
42.78566201192669
 20
484.3746657856083
 30
0.0
 10
42.86897607608103
 20
484.1729874837319
 30
0.0
 10
43.00513300529721
 20
483.953333290878
 30
0.0
 10
43.19133471220006
 20
483.7423138008215
 30
0.0
 10
43.42481122143215
 20
483.5394680640597
 30
0.0
 10
43.71136112607954
 20
483.3334872701347
 30
0.0
 10
44.06018079485424
 20
483.1246089177321
 30
0.0
 10
44.45747901568938
 20
482.9206158211845
 30
0.0
 10
44.90186287686811
 20
482.7216601120439
 30
0.0
 10
45.39184560954418
 20
482.527712896359
 30
0.0
 10
45.92618762380463
 20
482.3388338464277
 30
0.0
 10
46.50355094168219
 20
482.1551749526624
 30
0.0
 10
47.12238323948248
 20
481.9770012234183
 30
0.0
 10
47.78091584192637
 20
481.8046431397179
 30
0.0
 10
48.47717636312986
 20
481.6384665712951
 30
0.0
 10
49.20906244847711
 20
481.47884417353
 30
0.0
 10
49.97424957928089
 20
481.3261452261376
 30
0.0
 10
50.77086081906813
 20
481.1806679021986
 30
0.0
 10
51.60082297923405
 20
481.0418954898619
 30
0.0
 10
52.4674913016456
 20
480.9089292886624
 30
0.0
 10
53.36436773220633
 20
480.7831724130871
 30
0.0
 10
54.16933166756815
 20
480.6786690545788
 30
0.0
 10
54.63021465476712
 20
480.6252210719699
 30
0.0
 10
54.81805208906454
 20
480.6035222535705
 30
0.0
  0
ELLIPSE
  5
360
330
75
100
AcDbEntity
  8
$DDT_AUDIT_GENERATED_(35F)
  6
Continuous
 62
     7
100
AcDbEllipse
 10
69.9429639391
 20
483.412890303
 30
0.0
 11
-25.02159067685346
 21
1.387778780781446E-14
 31
0.0
210
0.0
220
0.0
230
1.0
 40
0.1736481777
 41
0.2125497660628098
 42
2.927064157397436
  0
LINE
  5
362
330
75
100
AcDbEntity
  8
DV1_Default
  6
Continuous
 62
     7
100
AcDbLine
 10
43.9420121906
 20
383.5841276076
 30
0.0
 11
95.9439156875
 21
383.5841276076
 31
0.0
  0
ENDBLK
  5
364
330
75
100
AcDbEntity
  8
0
100
AcDbBlockEnd
  0
BLOCK
  5
3AF
330
365
100
AcDbEntity
  8
0
100
AcDbBlockBegin
  2
SE1
 70
     0
 10
0.0
 20
0.0
 30
0.0
  3
SE1
  1

  0
SPLINE
  5
367
330
365
100
AcDbEntity
  8
$DDT_AUDIT_GENERATED_(77)
  6
Continuous
 62
     7
100
AcDbSpline
210
0.0
220
0.0
230
1.0
 70
     8
 71
     3
 72
     8
 73
     4
 74
     0
 42
0.0000000063401077
 43
0.0000000001
 40
0.0
 40
0.0
 40
0.0
 40
0.0
 40
0.2278413985193624
 40
0.2278413985193624
 40
0.2278413985193624
 40
0.2278413985193624
 10
297.4956409030521
 20
477.9382204622074
 30
0.0
 10
297.51628980367
 20
478.0566376837418
 30
0.0
 10
297.5153814899857
 20
478.176721617313
 30
0.0
 10
297.4934801853159
 20
478.2937638889962
 30
0.0
  0
SPLINE
  5
368
330
365
100
AcDbEntity
  8
$DDT_AUDIT_GENERATED_(77)
  6
Continuous
 62
     7
100
AcDbSpline
210
0.0
220
0.0
230
1.0
 70
     8
 71
     3
 72
     8
 73
     4
 74
     0
 42
0.0000000063232188
 43
0.0000000001
 40
0.7957267563440312
 40
0.7957267563440312
 40
0.7957267563440312
 40
0.7957267563440312
 40
1.0
 40
1.0
 40
1.0
 40
1.0
 10
296.9863120459574
 20
478.9886866575168
 30
0.0
 10
296.8924234743679
 20
479.0397177610272
 30
0.0
 10
296.790286857215
 20
479.0760962070767
 30
0.0
 10
296.6841541031152
 20
479.0948102751613
 30
0.0
  0
SPLINE
  5
369
330
365
100
AcDbEntity
  8
$DDT_AUDIT_GENERATED_(77)
  6
Continuous
 62
     7
100
AcDbSpline
210
0.0
220
0.0
230
1.0
 70
     8
 71
     3
 72
    12
 73
     8
 74
     0
 42
0.000000006258781
 43
0.0000000001
 40
0.0
 40
0.0
 40
0.0
 40
0.0
 40
0.25
 40
0.25
 40
0.5
 40
0.5
 40
1.0
 40
1.0
 40
1.0
 40
1.0
 10
247.504919034182
 20
487.7664363084178
 30
0.0
 10
247.3747135566952
 20
487.7893950471347
 30
0.0
 10
247.242421730627
 20
487.7862737804114
 30
0.0
 10
246.9863223121969
 20
487.729371504261
 30
0.0
 10
246.8641099972693
 20
487.6753873392727
 30
0.0
 10
246.5434147318527
 20
487.4505522097198
 30
0.0
 10
246.3915599021806
 20
487.2139080977049
 30
0.0
 10
246.3461358789282
 20
486.9534106153444
 30
0.0
  0
ARC
  5
36A
330
365
100
AcDbEntity
  8
$DDT_AUDIT_GENERATED_(77)
  6
Continuous
 62
     7
100
AcDbCircle
 10
372.2708032199
 20
447.3936643212
 30
0.0
 40
1.999999999999988
100
AcDbArc
 50
307.4447509093
 51
71.9541466012
  0
SPLINE
  5
36B
330
365
100
AcDbEntity
  8
$DDT_AUDIT_GENERATED_(77)
  6
Continuous
 62
     7
100
AcDbSpline
210
0.0
220
0.0
230
1.0
 70
     8
 71
     3
 72
    26
 73
    22
 74
     0
 42
0.0000000010178653
 43
0.0000000001
 40
0.0
 40
0.0
 40
0.0
 40
0.0
 40
0.1249999999999988
 40
0.1249999999999988
 40
0.1874999999999982
 40
0.1874999999999982
 40
0.2499999999999976
 40
0.2499999999999976
 40
0.3750000000000004
 40
0.3750000000000004
 40
0.4375000000000004
 40
0.4375000000000004
 40
0.5000000000000003
 40
0.5000000000000003
 40
0.6250000000000002
 40
0.6250000000000002
 40
0.7500000000000001
 40
0.7500000000000001
 40
0.8750000000000001
 40
0.8750000000000001
 40
1.0
 40
1.0
 40
1.0
 40
1.0
 10
296.4189140593811
 20
471.7634122465696
 30
0.0
 10
296.3480538003067
 20
471.3570432472758
 30
0.0
 10
296.3198871097121
 20
470.9505054914713
 30
0.0
 10
296.3391044718987
 20
470.3404558259015
 30
0.0
 10
296.3558367597968
 20
470.1370651081136
 30
0.0
 10
296.4105106318314
 20
469.7301998145102
 30
0.0
 10
296.4485753132211
 20
469.5269734948898
 30
0.0
 10
296.5920210513829
 20
468.9311377799915
 30
0.0
 10
296.726863638371
 20
468.5474948934112
 30
0.0
 10
296.9881144916301
 20
467.9924604221977
 30
0.0
 10
297.0857575772355
 20
467.8099054825115
 30
0.0
 10
297.2974835915139
 20
467.4587949725104
 30
0.0
 10
297.4116226585912
 20
467.2898070317106
 30
0.0
 10
297.7782870942769
 20
466.8020841534733
 30
0.0
 10
298.055730544329
 20
466.5015725212242
 30
0.0
 10
298.6739714855588
 20
465.957251158655
 30
0.0
 10
299.0057612068799
 20
465.7210370373361
 30
0.0
 10
299.7131108119745
 20
465.3180150044437
 30
0.0
 10
300.0929670099783
 20
465.1502232389238
 30
0.0
 10
300.8713807652563
 20
464.8982888482154
 30
0.0
 10
301.27089520347
 20
464.8124969840852
 30
0.0
 10
301.6809776518267
 20
464.7678955941532
 30
0.0
  0
SPLINE
  5
36C
330
365
100
AcDbEntity
  8
$DDT_AUDIT_GENERATED_(77)
  6
Continuous
 62
     7
100
AcDbSpline
210
0.0
220
0.0
230
1.0
 70
     8
 71
     3
 72
    18
 73
    14
 74
     0
 42
0.000000000536159
 43
0.0000000001
 40
0.0
 40
0.0
 40
0.0
 40
0.0
 40
0.2500000000000003
 40
0.2500000000000003
 40
0.3750000000000001
 40
0.3750000000000001
 40
0.4999999999999999
 40
0.4999999999999999
 40
0.6249999999999999
 40
0.6249999999999999
 40
0.7499999999999999
 40
0.7499999999999999
 40
1.0
 40
1.0
 40
1.0
 40
1.0
 10
291.4359416719323
 20
410.5492810462512
 30
0.0
 10
290.3232678160815
 20
409.4554843987432
 30
0.0
 10
289.3025981365527
 20
408.2824763423502
 30
0.0
 10
287.9092574082915
 20
406.4044419984889
 30
0.0
 10
287.469473265506
 20
405.760607743266
 30
0.0
 10
286.6428658519094
 20
404.443422038166
 30
0.0
 10
286.2553822119046
 20
403.7691916835714
 30
0.0
 10
285.5323332641201
 20
402.3892874838281
 30
0.0
 10
285.1973908982138
 20
401.684345595485
 30
0.0
 10
284.586863247076
 20
400.2596445035388
 30
0.0
 10
284.3102014123536
 20
399.5379098075532
 30
0.0
 10
283.5650475436496
 20
397.3448729439954
 30
0.0
 10
283.1808648392941
 20
395.8459093663869
 30
0.0
 10
282.9128388695862
 20
394.3088354268551
 30
0.0
  0
LINE
  5
36D
330
365
100
AcDbEntity
  8
$DDT_AUDIT_GENERATED_(77)
  6
Continuous
 62
     7
100
AcDbLine
 10
281.042727543
 20
383.5841276076
 30
0.0
 11
282.9128391711
 21
394.3088352836
 31
0.0
  0
ARC
  5
36E
330
365
100
AcDbEntity
  8
$DDT_AUDIT_GENERATED_(77)
  6
Continuous
 62
     7
100
AcDbCircle
 10
343.8652411222
 20
430.585152517
 30
0.0
 40
2.000000000000004
100
AcDbArc
 50
264.9294121412
 51
293.7549346404
  0
LINE
  5
36F
330
365
100
AcDbEntity
  8
$DDT_AUDIT_GENERATED_(77)
  6
Continuous
 62
     7
100
AcDbLine
 10
344.6708921626
 20
428.7545989393
 30
0.0
 11
348.342045512
 21
430.4333546855
 31
0.0
  0
SPLINE
  5
370
330
365
100
AcDbEntity
  8
$DDT_AUDIT_GENERATED_(77)
  6
Continuous
 62
     7
100
AcDbSpline
210
0.0
220
0.0
230
1.0
 70
     8
 71
     2
 72
     6
 73
     3
 74
     0
 42
0.0000000001364975
 43
0.0000000001
 40
0.0
 40
0.0
 40
0.0
 40
1.0
 40
1.0
 40
1.0
 10
372.8903592578951
 20
449.2952821365762
 30
0.0
 10
337.2856684513454
 20
460.8954580457483
 30
0.0
 10
301.6809776518267
 20
464.7678955941532
 30
0.0
  0
LINE
  5
371
330
365
100
AcDbEntity
  8
$DDT_AUDIT_GENERATED_(77)
  6
Continuous
 62
     7
100
AcDbLine
 10
246.3461358789
 20
486.9534106153
 30
0.0
 11
235.0362593979
 21
422.0935823095
 31
0.0
  0
LINE
  5
372
330
365
100
AcDbEntity
  8
$DDT_AUDIT_GENERATED_(77)
  6
Continuous
 62
     7
100
AcDbLine
 10
296.4189140594
 20
471.7634122466
 30
0.0
 11
297.4956409031
 21
477.9382204622
 31
0.0
  0
LINE
  5
373
330
365
100
AcDbEntity
  8
$DDT_AUDIT_GENERATED_(77)
  6
Continuous
 62
     7
100
AcDbLine
 10
281.042727543
 20
383.5841276076
 30
0.0
 11
228.3212065307
 21
383.5841276076
 31
0.0
  0
ARC
  5
374
330
365
100
AcDbEntity
  8
$DDT_AUDIT_GENERATED_(77)
  6
Continuous
 62
     7
100
AcDbCircle
 10
273.3576393117
 20
126.6656230475
 30
0.0
 40
333.7777419522166
100
AcDbArc
 50
73.6933627155
 51
89.8652794699
  0
ELLIPSE
  5
375
330
365
100
AcDbEntity
  8
$DDT_AUDIT_GENERATED_(77)
  6
Continuous
 62
     7
100
AcDbEllipse
 10
366.9850922422
 20
447.2083010423
 30
0.0
 11
1.178481423086977
 21
-1.6159150768029
 31
0.0
210
0.0
220
0.0
230
1.0
 40
0.0203033906
 41
-1.466585094110213
 42
-0.3717416078546441
  0
ARC
  5
376
330
365
100
AcDbEntity
  8
$DDT_AUDIT_GENERATED_(77)
  6
Continuous
 62
     7
100
AcDbCircle
 10
744.4345207391
 20
-56.0561347571
 30
0.0
 40
628.8737209331352
100
AcDbArc
 50
126.8739108178
 51
129.5866219051
  0
SPLINE
  5
377
330
365
100
AcDbEntity
  8
$DDT_AUDIT_GENERATED_(77)
  6
Continuous
 62
     7
100
AcDbSpline
210
0.0
220
0.0
230
1.0
 70
     8
 71
     3
 72
    16
 73
    12
 74
     0
 42
0.0000000018461122
 43
0.0000000001
 40
0.0
 40
0.0
 40
0.0
 40
0.0
 40
0.25
 40
0.25
 40
0.5
 40
0.5
 40
0.625
 40
0.625
 40
0.75
 40
0.75
 40
1.0
 40
1.0
 40
1.0
 40
1.0
 10
368.0711615001704
 20
445.6940679312035
 30
0.0
 10
368.8932507396835
 20
445.7121914658733
 30
0.0
 10
369.6399214344623
 20
445.7282609344769
 30
0.0
 10
370.9620286968035
 20
445.7560481007654
 30
0.0
 10
371.5375937111581
 20
445.7677714470923
 30
0.0
 10
372.2508859885418
 20
445.7819880427704
 30
0.0
 10
372.4640910369504
 20
445.7861760568214
 30
0.0
 10
372.8331046945446
 20
445.793354625395
 30
0.0
 10
372.9876289692696
 20
445.7963212080386
 30
0.0
 10
373.3599901477614
 20
445.8034250425981
 30
0.0
 10
373.4867954848963
 20
445.8057843473152
 30
0.0
 10
373.4867954848963
 20
445.8057843473153
 30
0.0
  0
ARC
  5
378
330
365
100
AcDbEntity
  8
$DDT_AUDIT_GENERATED_(77)
  6
Continuous
 62
     7
100
AcDbCircle
 10
261.5645667906
 20
559.6895504313
 30
0.0
 40
94.58240480986186
100
AcDbArc
 50
285.001635956
 51
291.6236145136
  0
SPLINE
  5
379
330
365
100
AcDbEntity
  8
$DDT_AUDIT_GENERATED_(77)
  6
Continuous
 62
     7
100
AcDbSpline
210
0.0
220
0.0
230
1.0
 70
    12
 71
     3
 72
    46
 73
    42
 74
     0
 42
0.0000000005580575
 43
0.0000000001
 40
0.0
 40
0.0
 40
0.0
 40
0.0
 40
0.0312499999999999
 40
0.0312499999999999
 40
0.0625
 40
0.0625
 40
0.09375
 40
0.09375
 40
0.1249999999999999
 40
0.1249999999999999
 40
0.1875
 40
0.1875
 40
0.25
 40
0.25
 40
0.3124999999999999
 40
0.3124999999999999
 40
0.375
 40
0.375
 40
0.5
 40
0.5
 40
0.625
 40
0.625
 40
0.75
 40
0.75
 40
0.8125
 40
0.8125
 40
0.8750000000000001
 40
0.8750000000000001
 40
0.90625
 40
0.90625
 40
0.9375
 40
0.9375
 40
0.953125
 40
0.953125
 40
0.9687500000000001
 40
0.9687500000000001
 40
0.984375
 40
0.984375
 40
0.9921875
 40
0.9921875
 40
1.0
 40
1.0
 40
1.0
 40
1.0
 10
286.0469030507782
 20
468.3306619154287
 30
0.0
 41
1.0
 10
285.7009474726294
 20
468.23894496205
 30
0.0
 41
1.0
 10
285.4047516089399
 20
468.1670555648136
 30
0.0
 41
1.0
 10
284.8684994997314
 20
468.0576340156056
 30
0.0
 41
1.0
 10
284.6280995725575
 20
468.0195646763157
 30
0.0
 41
1.0
 10
284.1819549060111
 20
467.969389818945
 30
0.0
 41
1.0
 10
283.9778301283788
 20
467.9578135445716
 30
0.0
 41
1.0
 10
283.592532708012
 20
467.9536826721724
 30
0.0
 41
1.0
 10
283.4115327510408
 20
467.961182629569
 30
0.0
 41
1.0
 10
282.8892520946212
 20
468.0024058877126
 30
0.0
 41
1.0
 10
282.568919953247
 20
468.0543885410231
 30
0.0
 41
1.0
 10
281.9509058579414
 20
468.1696612309134
 30
0.0
 41
1.0
 10
281.6528272911787
 20
468.2325522766305
 30
0.0
 41
1.0
 10
281.0738902342595
 20
468.3486318331672
 30
0.0
 41
1.0
 10
280.7929448324708
 20
468.4019160831224
 30
0.0
 41
1.0
 10
280.2417404523893
 20
468.4835691959627
 30
0.0
 41
1.0
 10
279.9715859251049
 20
468.5120228821052
 30
0.0
 41
1.0
 10
279.1725059580428
 20
468.5454925310445
 30
0.0
 41
1.0
 10
278.6543253139389
 20
468.4966174400201
 30
0.0
 41
1.0
 10
277.6435252227331
 20
468.2308241547789
 30
0.0
 41
1.0
 10
277.1487871470998
 20
468.0133142644856
 30
0.0
 41
1.0
 10
276.1716887154389
 20
467.3958118857504
 30
0.0
 41
1.0
 10
275.6892015711557
 20
466.9973035893905
 30
0.0
 41
1.0
 10
274.9638620174412
 20
466.2554856831159
 30
0.0
 41
1.0
 10
274.7223260360472
 20
465.9846871443244
 30
0.0
 41
1.0
 10
274.2377884921857
 20
465.3931382676894
 30
0.0
 41
1.0
 10
273.9949605532427
 20
465.0722863224432
 30
0.0
 41
1.0
 10
273.6258125822873
 20
464.5407311997333
 30
0.0
 41
1.0
 10
273.5019259587681
 20
464.3549423255524
 30
0.0
 41
1.0
 10
273.2502956791345
 20
463.9586753632868
 30
0.0
 41
1.0
 10
273.1228670701406
 20
463.7490929180038
 30
0.0
 41
1.0
 10
272.9234837705013
 20
463.3991032698935
 30
0.0
 41
1.0
 10
272.8556337957864
 20
463.2764302853087
 30
0.0
 41
1.0
 10
272.7149709266757
 20
463.0111989946693
 30
0.0
 41
1.0
 10
272.6422811229688
 20
462.8692334631298
 30
0.0
 41
1.0
 10
272.4854418242571
 20
462.5426766133191
 30
0.0
 41
1.0
 10
272.4009367286421
 20
462.3597584209401
 30
0.0
 41
1.0
 10
272.254476886829
 20
461.9962388495236
 30
0.0
 41
1.0
 10
272.2022264144214
 20
461.8600906798042
 30
0.0
 41
1.0
 10
272.0885905971231
 20
461.523244347929
 30
0.0
 41
1.0
 10
272.0276389477413
 20
461.3256500511358
 30
0.0
 41
1.0
 10
271.9714604929508
 20
461.0795589181686
 30
0.0
 41
1.0
  0
SPLINE
  5
37A
330
365
100
AcDbEntity
  8
$DDT_AUDIT_GENERATED_(77)
  6
Continuous
 62
     7
100
AcDbSpline
210
0.0
220
0.0
230
1.0
 70
    12
 71
     3
 72
    58
 73
    54
 74
     0
 42
0.0000000001860304
 43
0.0000000001
 40
0.0
 40
0.0
 40
0.0
 40
0.0
 40
0.0073722954451876
 40
0.0073722954451876
 40
0.0151882616227847
 40
0.0151882616227847
 40
0.0308201939779788
 40
0.0308201939779788
 40
0.0464521263331726
 40
0.0464521263331726
 40
0.0542680925107692
 40
0.0542680925107692
 40
0.0620840586883663
 40
0.0620840586883663
 40
0.0933479233987546
 40
0.0933479233987546
 40
0.124611788109142
 40
0.124611788109142
 40
0.1402437204643362
 40
0.1402437204643362
 40
0.1558756528195303
 40
0.1558756528195303
 40
0.1871395175299178
 40
0.1871395175299178
 40
0.2184033822403054
 40
0.2184033822403054
 40
0.2496672469506933
 40
0.2496672469506933
 40
0.3121949763714689
 40
0.3121949763714689
 40
0.3747227057922444
 40
0.3747227057922444
 40
0.4372504352130199
 40
0.4372504352130199
 40
0.4997781646337955
 40
0.4997781646337955
 40
0.562305894054571
 40
0.562305894054571
 40
0.6248336234753465
 40
0.6248336234753465
 40
0.6873613528961223
 40
0.6873613528961223
 40
0.7498890823168979
 40
0.7498890823168979
 40
0.8124168117376735
 40
0.8124168117376735
 40
0.8749445411584493
 40
0.8749445411584493
 40
0.9374722705792251
 40
0.9374722705792251
 40
0.9687361352896126
 40
0.9687361352896126
 40
1.0
 40
1.0
 40
1.0
 40
1.0
 10
291.4359416719323
 20
410.5492810462512
 30
0.0
 41
1.0
 10
291.4359447748125
 20
410.5492881782561
 30
0.0
 41
1.0
 10
291.4348418777524
 20
410.5520406225344
 30
0.0
 41
1.0
 10
291.4303626241319
 20
410.5633413050264
 30
0.0
 41
1.0
 10
291.4268619865495
 20
410.5722129151269
 30
0.0
 41
1.0
 10
291.4129760044578
 20
410.6078152192619
 30
0.0
 41
1.0
 10
291.3991846097639
 20
410.6435032214555
 30
0.0
 41
1.0
 10
291.3633474608816
 20
410.7380242833927
 30
0.0
 41
1.0
 10
291.3412772172148
 20
410.796774710155
 30
0.0
 41
1.0
 10
291.3020705981627
 20
410.901577621004
 30
0.0
 41
1.0
 10
291.2879880040117
 20
410.9392943949271
 30
0.0
 41
1.0
 10
291.2578491162344
 20
411.0202309313842
 30
0.0
 41
1.0
 10
291.2417708138709
 20
411.0635361514558
 30
0.0
 41
1.0
 10
291.1572155598985
 20
411.2912393797898
 30
0.0
 41
1.0
 10
291.0758538601124
 20
411.5099362537073
 30
0.0
 41
1.0
 10
290.887151359356
 20
412.0081104765803
 30
0.0
 41
1.0
 10
290.7797383071495
 20
412.287154723892
 30
0.0
 41
1.0
 10
290.5984329866037
 20
412.7451082144528
 30
0.0
 41
1.0
 10
290.5347185388019
 20
412.9042523877382
 30
0.0
 41
1.0
 10
290.4023079630926
 20
413.2316262116613
 30
0.0
 41
1.0
 10
290.33347063387
 20
413.4002234169232
 30
0.0
 41
1.0
 10
290.1194819799392
 20
413.9203442816008
 30
0.0
 41
1.0
 10
289.9670776778228
 20
414.2857408015456
 30
0.0
 41
1.0
 10
289.6437802843384
 20
415.0491408333518
 30
0.0
 41
1.0
 10
289.4731008351271
 20
415.4470635817869
 30
0.0
 41
1.0
 10
289.1138945918752
 20
416.2733282684044
 30
0.0
 41
1.0
 10
288.9252602903288
 20
416.7019219314498
 30
0.0
 41
1.0
 10
288.3331578262571
 20
418.030244789125
 30
0.0
 41
1.0
 10
287.9092044408608
 20
418.9593955411077
 30
0.0
 41
1.0
 10
287.0090645908455
 20
420.8916251242227
 30
0.0
 41
1.0
 10
286.5328097900618
 20
421.8954735267943
 30
0.0
 41
1.0
 10
285.539875934554
 20
423.974033053772
 30
0.0
 41
1.0
 10
285.0233375758528
 20
425.0481390451276
 30
0.0
 41
1.0
 10
283.9622574337548
 20
427.2562379374281
 30
0.0
 41
1.0
 10
283.4178203634908
 20
428.3903242890768
 30
0.0
 41
1.0
 10
282.3093704697593
 20
430.7150462184187
 30
0.0
 41
1.0
 10
281.749447492951
 20
431.8972718576424
 30
0.0
 41
1.0
 10
280.6259261570962
 20
434.2978284274627
 30
0.0
 41
1.0
 10
280.0620914652781
 20
435.5161258658249
 30
0.0
 41
1.0
 10
278.9394669476575
 20
437.9855432955762
 30
0.0
 41
1.0
 10
278.3803362334871
 20
439.2370871751453
 30
0.0
 41
1.0
 10
277.2814614804244
 20
441.7706185223362
 30
0.0
 41
1.0
 10
276.7415321119033
 20
443.0526891815526
 30
0.0
 41
1.0
 10
275.7057212675776
 20
445.6462583372418
 30
0.0
 41
1.0
 10
275.2087497401496
 20
446.9575527845357
 30
0.0
 41
1.0
 10
274.3104413517114
 20
449.6160006906529
 30
0.0
 41
1.0
 10
273.906210966261
 20
450.9664287803217
 30
0.0
 41
1.0
 10
273.3382427537348
 20
453.6788749078262
 30
0.0
 41
1.0
 10
273.1785702107529
 20
455.0446234247344
 30
0.0
 41
1.0
 10
273.2931719551704
 20
457.1049586581008
 30
0.0
 41
1.0
 10
273.3900852233201
 20
457.7855794113004
 30
0.0
 41
1.0
 10
273.6924560461191
 20
459.126521875269
 30
0.0
 41
1.0
 10
273.8972956982984
 20
459.7881010144156
 30
0.0
 41
1.0
 10
274.1424558076648
 20
460.4424423231889
 30
0.0
 41
1.0
  0
SPLINE
  5
37B
330
365
100
AcDbEntity
  8
$DDT_AUDIT_GENERATED_(77)
  6
Continuous
 62
     7
100
AcDbSpline
210
0.0
220
0.0
230
1.0
 70
    12
 71
     3
 72
    58
 73
    54
 74
     0
 42
0.000000000146569
 43
0.0000000001
 40
0.0
 40
0.0
 40
0.0
 40
0.0
 40
0.0312638006286439
 40
0.0312638006286439
 40
0.0625276012572875
 40
0.0625276012572875
 40
0.1250552025145753
 40
0.1250552025145753
 40
0.1875828037718631
 40
0.1875828037718631
 40
0.2501104050291508
 40
0.2501104050291508
 40
0.3126380062864385
 40
0.3126380062864385
 40
0.3751656075437263
 40
0.3751656075437263
 40
0.437693208801014
 40
0.437693208801014
 40
0.5002208100583015
 40
0.5002208100583015
 40
0.5627484113155893
 40
0.5627484113155893
 40
0.6252760125728769
 40
0.6252760125728769
 40
0.6878036138301645
 40
0.6878036138301645
 40
0.7503312150874522
 40
0.7503312150874522
 40
0.7815950157160961
 40
0.7815950157160961
 40
0.81285881634474
 40
0.81285881634474
 40
0.8441226169733835
 40
0.8441226169733835
 40
0.8597545172877057
 40
0.8597545172877057
 40
0.8753864176020275
 40
0.8753864176020275
 40
0.9066502182306714
 40
0.9066502182306714
 40
0.9379140188593154
 40
0.9379140188593154
 40
0.9457299690164764
 40
0.9457299690164764
 40
0.9535459191736371
 40
0.9535459191736371
 40
0.9691778194879592
 40
0.9691778194879592
 40
0.984809719802281
 40
0.984809719802281
 40
0.9926256699594421
 40
0.9926256699594421
 40
1.0
 40
1.0
 40
1.0
 40
1.0
 10
271.9714604929508
 20
461.0795589181686
 30
0.0
 41
1.0
 10
271.7968152180027
 20
460.3144968250155
 30
0.0
 41
1.0
 10
271.6422529904461
 20
459.5435917846006
 30
0.0
 41
1.0
 10
271.3863957372604
 20
457.9861188826699
 30
0.0
 41
1.0
 10
271.2853046179713
 20
457.1980946366469
 30
0.0
 41
1.0
 10
271.0705366858226
 20
454.8173946799963
 30
0.0
 41
1.0
 10
271.0483969870998
 20
453.2451195285379
 30
0.0
 41
1.0
 10
271.1389256573074
 20
450.1129415533445
 30
0.0
 41
1.0
 10
271.2497517732978
 20
448.5486121483224
 30
0.0
 41
1.0
 10
271.5294185807293
 20
445.4487834462588
 30
0.0
 41
1.0
 10
271.7000381226677
 20
443.9096463308748
 30
0.0
 41
1.0
 10
272.0771113385723
 20
440.8393593512808
 30
0.0
 41
1.0
 10
272.2849362263132
 20
439.3083558459879
 30
0.0
 41
1.0
 10
272.7257874082149
 20
436.2518782380554
 30
0.0
 41
1.0
 10
272.9590302829391
 20
434.7263081325931
 30
0.0
 41
1.0
 10
273.4501850767829
 20
431.6789489826414
 30
0.0
 41
1.0
 10
273.7084566589362
 20
430.1566261851526
 30
0.0
 41
1.0
 10
274.2539650558384
 20
427.1120364346964
 30
0.0
 41
1.0
 10
274.5422426946818
 20
425.589644673234
 30
0.0
 41
1.0
 10
275.1474649111581
 20
422.5424138868502
 30
0.0
 41
1.0
 10
275.4629203342243
 20
421.0284555990129
 30
0.0
 41
1.0
 10
276.1207459030356
 20
418.0178222796702
 30
0.0
 41
1.0
 10
276.4602759938646
 20
416.5214671176358
 30
0.0
 41
1.0
 10
277.1668961837876
 20
413.5521046163994
 30
0.0
 41
1.0
 10
277.529118896382
 20
412.0807212987331
 30
0.0
 41
1.0
 10
278.2760880923224
 20
409.1652539043084
 30
0.0
 41
1.0
 10
278.6628087737508
 20
407.7197569168781
 30
0.0
 41
1.0
 10
279.2663651911033
 20
405.5792563960404
 30
0.0
 41
1.0
 10
279.4697171452318
 20
404.8757023456814
 30
0.0
 41
1.0
 10
279.8783266991028
 20
403.493489098359
 30
0.0
 41
1.0
 10
280.0841861772801
 20
402.8143243117325
 30
0.0
 41
1.0
 10
280.4945265546727
 20
401.4851597846554
 30
0.0
 41
1.0
 10
280.6992912079894
 20
400.8352980609285
 30
0.0
 41
1.0
 10
281.002949185152
 20
399.8908335538357
 30
0.0
 41
1.0
 10
281.1030657688003
 20
399.5813747277566
 30
0.0
 41
1.0
 10
281.3007620156623
 20
398.9743946442411
 30
0.0
 41
1.0
 10
281.3985753603739
 20
398.6761710409542
 30
0.0
 41
1.0
 10
281.6850212955972
 20
397.8095859660144
 30
0.0
 41
1.0
 10
281.8665258636157
 20
397.2700174045627
 30
0.0
 41
1.0
 10
282.2031221552633
 20
396.2896191592003
 30
0.0
 41
1.0
 10
282.3576713866593
 20
395.8495015538151
 30
0.0
 41
1.0
 10
282.5231125443388
 20
395.3843881039761
 30
0.0
 41
1.0
 10
282.5549232092537
 20
395.2955025085948
 30
0.0
 41
1.0
 10
282.6148399730604
 20
395.1286548786066
 30
0.0
 41
1.0
 10
282.6429547817363
 20
395.0505373616906
 30
0.0
 41
1.0
 10
282.7215250709201
 20
394.8326896986188
 30
0.0
 41
1.0
 10
282.7662017699482
 20
394.709469875292
 30
0.0
 41
1.0
 10
282.8389385817212
 20
394.5100966565473
 30
0.0
 41
1.0
 10
282.8668173097335
 20
394.4340935460221
 30
0.0
 41
1.0
 10
282.894745076508
 20
394.3580442008106
 30
0.0
 41
1.0
 10
282.9017394429787
 20
394.3390237966235
 30
0.0
 41
1.0
 10
282.9106617308909
 20
394.3147653215455
 30
0.0
 41
1.0
 10
282.9128398344945
 20
394.3088413958764
 30
0.0
 41
1.0
 10
282.9128388695862
 20
394.3088354268551
 30
0.0
 41
1.0
  0
LINE
  5
37C
330
365
100
AcDbEntity
  8
$DDT_AUDIT_GENERATED_(77)
  6
Continuous
 62
     7
100
AcDbLine
 10
296.6841541031
 20
479.0948102752
 30
0.0
 11
247.5049190342
 21
487.7664363084
 31
0.0
  0
LINE
  5
37D
330
365
100
AcDbEntity
  8
$DDT_AUDIT_GENERATED_(77)
  6
Continuous
 62
     7
100
AcDbLine
 10
233.4746683284
 20
413.1381769326
 30
0.0
 11
228.3212065307
 21
383.5841276076
 31
0.0
  0
ARC
  5
37E
330
365
100
AcDbEntity
  8
$DDT_AUDIT_GENERATED_(77)
  6
Continuous
 62
     7
100
AcDbCircle
 10
156.8233421324
 20
431.1180388976
 30
0.0
 40
78.73183119865746
100
AcDbArc
 50
346.7989686172
 51
353.418135438
  0
LINE
  5
37F
330
365
100
AcDbEntity
  8
$DDT_AUDIT_GENERATED_(77)
  6
Continuous
 62
     7
100
AcDbLine
 10
369.4695578281
 20
442.8394299164
 30
0.0
 11
373.4867954849
 21
445.8057843473
 31
0.0
  0
ARC
  5
380
330
365
100
AcDbEntity
  8
$DDT_AUDIT_GENERATED_(77)
  6
Continuous
 62
     7
100
AcDbCircle
 10
388.2760377342
 20
386.6189603073
 30
0.0
 40
59.28258504427875
100
AcDbArc
 50
108.4957600013
 51
132.3471516661
  0
SPLINE
  5
381
330
365
100
AcDbEntity
  8
$DDT_AUDIT_GENERATED_(77)
  6
Continuous
 62
     7
100
AcDbSpline
210
0.0
220
0.0
230
1.0
 70
     8
 71
     3
 72
    23
 73
    19
 74
     0
 42
0.0000000001745829
 43
0.0000000001
 40
0.0
 40
0.0
 40
0.0
 40
0.0
 40
0.0834673143615028
 40
0.1650708516144948
 40
0.2380573665173703
 40
0.3031578577403464
 40
0.3608846366473982
 40
0.4231467110489187
 40
0.4746858224765581
 40
0.5160676854328992
 40
0.5604285619175752
 40
0.6137975548439882
 40
0.6767205801095053
 40
0.7500141264086627
 40
0.834834924603429
 40
0.8985468283670136
 40
0.9686439963156873
 40
1.0
 40
1.0
 40
1.0
 40
1.0
 10
291.4450303330395
 20
410.5394697037829
 30
0.0
 10
292.7073322419739
 20
411.7544878838745
 30
0.0
 10
294.8215923814893
 20
413.7688254359413
 30
0.0
 10
298.4241185928553
 20
416.6879187872432
 30
0.0
 10
301.8294749440813
 20
419.1016104376433
 30
0.0
 10
305.0159322592355
 20
421.0669671643419
 30
0.0
 10
308.1275884349594
 20
422.7395522903557
 30
0.0
 10
311.1001250668277
 20
424.1158799565171
 30
0.0
 10
313.8554104459438
 20
425.2045117704037
 30
0.0
 10
316.334797666046
 20
426.0526057706672
 30
0.0
 10
318.8817373387886
 20
426.8040282823276
 30
0.0
 10
321.8614272907886
 20
427.5303314172509
 30
0.0
 10
325.4206793888671
 20
428.1925839526968
 30
0.0
 10
329.6075857986763
 20
428.7080380191286
 30
0.0
 10
333.8464588821138
 20
428.9479804562798
 30
0.0
 10
337.992145141384
 20
428.9421592040912
 30
0.0
 10
341.2275258985696
 20
428.811465895694
 30
0.0
 10
343.0311769232481
 20
428.6339105099539
 30
0.0
 10
343.6860875875303
 20
428.5683017134954
 30
0.0
  0
ARC
  5
382
330
365
100
AcDbEntity
  8
$DDT_AUDIT_GENERATED_(77)
  6
Continuous
 62
     7
100
AcDbCircle
 10
296.5103290453
 20
478.1100337467
 30
0.0
 40
0.9999999649766976
100
AcDbArc
 50
350.1378682174
 51
80.0206214808
  0
LINE
  5
383
330
365
100
AcDbEntity
  8
02636038_GEHÄUSE
  6
Continuous
 62
     7
100
AcDbLine
 10
352.4328279411
 20
426.3479116755
 30
0.0
 11
371.0523741225
 21
437.0979116755
 31
0.0
  0
SPLINE
  5
384
330
365
100
AcDbEntity
  8
02636038_GEHÄUSE
  6
Continuous
 62
     7
100
AcDbSpline
210
0.0
220
0.0
230
1.0
 70
     8
 71
     3
 72
    10
 73
     6
 74
     0
 42
0.0000000019260148
 43
0.0000000001
 40
0.0
 40
0.0
 40
0.0
 40
0.0
 40
0.5
 40
0.5
 40
1.0
 40
1.0
 40
1.0
 40
1.0
 10
363.8238073862518
 20
433.2911633911152
 30
0.0
 10
363.1342343762811
 20
432.7614972362348
 30
0.0
 10
362.41727995126
 20
432.2791160771952
 30
0.0
 10
360.9239716348104
 20
431.4169307631468
 30
0.0
 10
360.1476169432464
 20
431.0371279898932
 30
0.0
 10
359.3438520293312
 20
430.7046599598397
 30
0.0
  0
LINE
  5
385
330
365
100
AcDbEntity
  8
02636038_GEHÄUSE
  6
Continuous
 62
     7
100
AcDbLine
 10
363.9412494336
 20
436.4564035372
 30
0.0
 11
356.54395263
 21
432.1855722364
 31
0.0
  0
LINE
  5
386
330
365
100
AcDbEntity
  8
02636038_GEHÄUSE
  6
Continuous
 62
     7
100
AcDbLine
 10
363.9412494336
 20
436.4564035372
 30
0.0
 11
364.8494654077
 21
434.8833273259
 31
0.0
  0
SPLINE
  5
387
330
365
100
AcDbEntity
  8
02636038_GEHÄUSE
  6
Continuous
 62
     7
100
AcDbSpline
210
0.0
220
0.0
230
1.0
 70
     8
 71
     3
 72
    14
 73
    10
 74
     0
 42
0.0000000049321089
 43
0.0000000001
 40
0.0
 40
0.0
 40
0.0
 40
0.0
 40
0.1250000000000004
 40
0.1250000000000004
 40
0.2500000000000009
 40
0.2500000000000009
 40
0.5000000000000008
 40
0.5000000000000008
 40
1.0
 40
1.0
 40
1.0
 40
1.0
 10
364.8494654076807
 20
434.8833273258837
 30
0.0
 10
364.8915860571434
 20
434.8103722209665
 30
0.0
 10
364.9058279965832
 20
434.7214414756987
 30
0.0
 10
364.8924637926535
 20
434.5529937574454
 30
0.0
 10
364.8673020259861
 20
434.4703214871359
 30
0.0
 10
364.7676569235485
 20
434.2382919657215
 30
0.0
 10
364.668268318806
 20
434.0984588583253
 30
0.0
 10
364.3462589882694
 20
433.7146632104571
 30
0.0
 10
364.0892249792521
 20
433.4950326172731
 30
0.0
 10
363.8238073862518
 20
433.2911633911152
 30
0.0
  0
SPLINE
  5
388
330
365
100
AcDbEntity
  8
02636038_GEHÄUSE
  6
Continuous
 62
     7
100
AcDbSpline
210
0.0
220
0.0
230
1.0
 70
     8
 71
     3
 72
    18
 73
    14
 74
     0
 42
0.0000000049401632
 43
0.0000000001
 40
0.0
 40
0.0
 40
0.0
 40
0.0
 40
0.2499999999999998
 40
0.2499999999999998
 40
0.4999999999999997
 40
0.4999999999999997
 40
0.6249999999999992
 40
0.6249999999999992
 40
0.7499999999999989
 40
0.7499999999999989
 40
0.8749999999999994
 40
0.8749999999999994
 40
1.0
 40
1.0
 40
1.0
 40
1.0
 10
359.3438520293312
 20
430.7046599598397
 30
0.0
 10
359.1887570790861
 20
430.6405067333343
 30
0.0
 10
359.0318472309398
 20
430.581177450098
 30
0.0
 10
358.7121147781417
 20
430.478234810084
 30
0.0
 10
358.5494254123767
 20
430.4344810621234
 30
0.0
 10
358.3025358880226
 20
430.391162346623
 30
0.0
 10
358.2196213014214
 20
430.380436739413
 30
0.0
 10
358.051915978194
 20
430.3702591010979
 30
0.0
 10
357.9666339866196
 20
430.3708306575779
 30
0.0
 10
357.8004214109171
 20
430.3906829179474
 30
0.0
 10
357.7173455625937
 20
430.4098177403758
 30
0.0
 10
357.5637089760609
 20
430.4829567681969
 30
0.0
 10
357.4950440957303
 20
430.5382334951988
 30
0.0
 10
357.4521686041178
 20
430.6124960250711
 30
0.0
  0
LINE
  5
389
330
365
100
AcDbEntity
  8
02636038_GEHÄUSE
  6
Continuous
 62
     7
100
AcDbLine
 10
357.4521686041
 20
430.6124960251
 30
0.0
 11
356.54395263
 21
432.1855722364
 31
0.0
  0
LINE
  5
38A
330
365
100
AcDbEntity
  8
02636038_GEHÄUSE
  6
Continuous
 62
     7
100
AcDbLine
 10
351.797742645
 20
426.3479116755
 30
0.0
 11
352.4328279411
 21
426.3479116755
 31
0.0
  0
LINE
  5
38B
330
365
100
AcDbEntity
  8
02636038_GEHÄUSE
  6
Continuous
 62
     7
100
AcDbLine
 10
371.0523741225
 20
437.0979116755
 30
0.0
 11
371.3699167706
 21
437.6479116755
 31
0.0
  0
ARC
  5
38C
330
365
100
AcDbEntity
  8
02636038_GEHÄUSE
  6
Continuous
 62
     7
100
AcDbCircle
 10
351.797742645
 20
427.3479116755
 30
0.0
 40
1.000000000000004
100
AcDbArc
 50
210.0
 51
270.0
  0
ARC
  5
38D
330
365
100
AcDbEntity
  8
02636038_GEHÄUSE
  6
Continuous
 62
     7
100
AcDbCircle
 10
370.5038913668
 20
438.1479116755
 30
0.0
 40
1.000000000000004
100
AcDbArc
 50
330.0
 51
30.0
  0
LINE
  5
38E
330
365
100
AcDbEntity
  8
02636038_GEHÄUSE
  6
Continuous
 62
     7
100
AcDbLine
 10
348.6840676736
 20
430.7409549242
 30
0.0
 11
350.9317172412
 21
426.8479116755
 31
0.0
  0
LINE
  5
38F
330
365
100
AcDbEntity
  8
02636038_GEHÄUSE
  6
Continuous
 62
     7
100
AcDbLine
 10
371.3699167706
 20
438.6479116755
 30
0.0
 11
369.0352164955
 21
442.6917311723
 31
0.0
  0
LINE
  5
390
330
365
100
AcDbEntity
  8
$DDT_AUDIT_GENERATED_(332)
  6
Continuous
 62
     7
100
AcDbLine
 10
303.0168933644
 20
492.7088124947
 30
0.0
 11
303.8930617985
 21
494.9913093011
 31
0.0
  0
LINE
  5
391
330
365
100
AcDbEntity
  8
$DDT_AUDIT_GENERATED_(335)
  6
Continuous
 62
     7
100
AcDbLine
 10
305.5637482664
 20
501.2897205126
 30
0.0
 11
303.8382583068
 21
494.9074359665
 31
0.0
  0
ARC
  5
392
330
365
100
AcDbEntity
  8
$DDT_AUDIT_GENERATED_(335)
  6
Continuous
 62
     7
100
AcDbCircle
 10
322.3569986227
 20
391.8873275263
 30
0.0
 40
125.9514370683099
100
AcDbArc
 50
127.0394122498
 51
127.045745728
  0
LINE
  5
393
330
365
100
AcDbEntity
  8
$DDT_AUDIT_GENERATED_(335)
  6
Continuous
 62
     7
100
AcDbLine
 10
246.4772438416
 20
492.4160789641
 30
0.0
 11
246.2204474833
 21
491.8931223003
 31
0.0
  0
LINE
  5
394
330
365
100
AcDbEntity
  8
$DDT_AUDIT_GENERATED_(335)
  6
Continuous
 62
     7
100
AcDbLine
 10
301.9409668971
 20
488.3896323184
 30
0.0
 11
299.9244612905
 21
481.99475433
 31
0.0
  0
LINE
  5
395
330
365
100
AcDbEntity
  8
$DDT_AUDIT_GENERATED_(335)
  6
Continuous
 62
     7
100
AcDbLine
 10
303.8382583068
 20
494.9074359665
 30
0.0
 11
303.8382301081
 21
494.9068759022
 31
0.0
  0
ARC
  5
396
330
365
100
AcDbEntity
  8
$DDT_AUDIT_GENERATED_(335)
  6
Continuous
 62
     7
100
AcDbCircle
 10
336.6797075648
 20
481.8114680525
 30
0.0
 40
35.35607936817793
100
AcDbArc
 50
158.7971522737
 51
169.2773708704
  0
LINE
  5
397
330
365
100
AcDbEntity
  8
$DDT_AUDIT_GENERATED_(335)
  6
Continuous
 62
     7
100
AcDbLine
 10
272.3994775514
 20
484.4846810563
 30
0.0
 11
245.8577000674
 21
489.1647125409
 31
0.0
  0
LINE
  5
398
330
365
100
AcDbEntity
  8
$DDT_AUDIT_GENERATED_(335)
  6
Continuous
 62
     7
100
AcDbLine
 10
298.9593757121
 20
479.8014544057
 30
0.0
 11
272.3994775514
 21
484.4846810563
 31
0.0
  0
LINE
  5
399
330
365
100
AcDbEntity
  8
$DDT_AUDIT_GENERATED_(335)
  6
Continuous
 62
     7
100
AcDbLine
 10
245.6846069052
 20
489.7911827556
 30
0.0
 11
246.220443387
 21
491.8931205131
 31
0.0
  0
ARC
  5
39A
330
365
100
AcDbEntity
  8
$DDT_AUDIT_GENERATED_(335)
  6
Continuous
 62
     7
100
AcDbCircle
 10
245.9097945299
 20
489.4601548549
 30
0.0
 40
0.2999999898532439
100
AcDbArc
 50
166.3442532186
 51
259.9999978883
  0
ARC
  5
39B
330
365
100
AcDbEntity
  8
$DDT_AUDIT_GENERATED_(335)
  6
Continuous
 62
     7
100
AcDbCircle
 10
299.0114700779
 20
480.0968966294
 30
0.0
 40
0.2999998841848842
100
AcDbArc
 50
260.0000130664
 51
341.7846247624
  0
LINE
  5
39C
330
365
100
AcDbEntity
  8
$DDT_AUDIT_GENERATED_(335)
  6
Continuous
 62
     7
100
AcDbLine
 10
245.6562111611
 20
489.6866222338
 30
0.0
 11
245.6184007511
 21
489.5309664036
 31
0.0
  0
SPLINE
  5
39D
330
365
100
AcDbEntity
  8
$DDT_AUDIT_GENERATED_(335)
  6
Continuous
 62
     7
100
AcDbSpline
210
0.0
220
0.0
230
1.0
 70
     8
 71
     3
 72
    26
 73
    22
 74
     0
 42
0.0000000000726471
 43
0.0000000001
 40
0.0
 40
0.0
 40
0.0
 40
0.0
 40
0.0633734589752615
 40
0.1330972584163961
 40
0.2022776331337977
 40
0.2708133988344692
 40
0.3385070397126762
 40
0.4051195439579974
 40
0.4704203056705234
 40
0.5342319766338881
 40
0.5841532958870307
 40
0.6330778622740166
 40
0.6810757674240001
 40
0.7282781293336229
 40
0.7748754133850649
 40
0.8134222862004545
 40
0.851878557923501
 40
0.8904176781666888
 40
0.9292167092184821
 40
0.9684477940645465
 40
1.0
 40
1.0
 40
1.0
 40
1.0
 10
373.9983990993971
 20
508.1377535063644
 30
0.0
 10
370.9627509270269
 20
509.13855517554
 30
0.0
 10
365.5793683617414
 20
510.8989718556244
 30
0.0
 10
356.4791775823806
 20
513.5089289526635
 30
0.0
 10
347.3004545539389
 20
515.8046307616507
 30
0.0
 10
338.062633668583
 20
517.7237061495745
 30
0.0
 10
328.8786276980882
 20
519.1926511157943
 30
0.0
 10
319.7714572213555
 20
520.1575207529759
 30
0.0
 10
310.800109243359
 20
520.5569153025109
 30
0.0
 10
302.5857741863773
 20
520.3474017448519
 30
0.0
 10
295.1577765553762
 20
519.6208106747214
 30
0.0
 10
288.5135088400023
 20
518.4943411443691
 30
0.0
 10
282.0956447636874
 20
516.8899517252228
 30
0.0
 10
275.9336222583952
 20
514.7912498064381
 30
0.0
 10
270.377863556767
 20
512.3294481353472
 30
0.0
 10
265.4058156276495
 20
509.5967035076563
 30
0.0
 10
260.9774352408454
 20
506.6824621791891
 30
0.0
 10
256.7798593817407
 20
503.4083153308054
 30
0.0
 10
252.8634210840016
 20
499.8093878246275
 30
0.0
 10
249.3466171029652
 20
496.0607548709756
 30
0.0
 10
247.4908867371515
 20
493.6796021959432
 30
0.0
 10
246.5187054404337
 20
492.419674604971
 30
0.0
  0
LINE
  5
39E
330
365
100
AcDbEntity
  8
$DDT_AUDIT_GENERATED_(335)
  6
Continuous
 62
     7
100
AcDbLine
 10
366.2455408221
 20
502.0330602628
 30
0.0
 11
374.1462385559
 21
505.3139954407
 31
0.0
  0
ARC
  5
39F
330
365
100
AcDbEntity
  8
$DDT_AUDIT_GENERATED_(335)
  6
Continuous
 62
     7
100
AcDbCircle
 10
326.3607402327
 20
405.2958952322
 30
0.0
 40
104.2712039315573
100
AcDbArc
 50
68.0557553214
 51
96.9419167969
  0
ARC
  5
3A0
330
365
100
AcDbEntity
  8
$DDT_AUDIT_GENERATED_(335)
  6
Continuous
 62
     7
100
AcDbCircle
 10
315.5160414862
 20
498.7040467437
 30
0.0
 40
10.28106418463074
100
AcDbArc
 50
99.8720948446
 51
165.4286089587
  0
LINE
  5
3A1
330
365
100
AcDbEntity
  8
$DDT_AUDIT_GENERATED_(335)
  6
Continuous
 62
     7
100
AcDbLine
 10
299.7337691182
 20
481.3459067604
 30
0.0
 11
299.9396337878
 21
481.9771277981
 31
0.0
  0
LINE
  5
3A2
330
365
100
AcDbEntity
  8
$DDT_AUDIT_GENERATED_(335)
  6
Continuous
 62
     7
100
AcDbLine
 10
299.295883003
 20
480.0032629322
 30
0.0
 11
299.7337691182
 21
481.3459067604
 31
0.0
  0
ARC
  5
3A3
330
365
100
AcDbEntity
  8
$DDT_AUDIT_GENERATED_(335)
  6
Continuous
 62
     7
100
AcDbCircle
 10
365.8361537304
 20
503.373477398
 30
0.0
 40
1.397803841532713
100
AcDbArc
 50
249.4962843831
 51
292.1710322967
  0
SPLINE
  5
3A4
330
365
100
AcDbEntity
  8
$DDT_AUDIT_GENERATED_(335)
  6
Continuous
 62
     7
100
AcDbSpline
210
0.0
220
0.0
230
1.0
 70
     8
 71
     3
 72
    17
 73
    13
 74
     0
 42
0.000000002554675
 43
0.0000000001
 40
0.0
 40
0.0
 40
0.0
 40
0.0
 40
0.0871490961918381
 40
0.2322789857795832
 40
0.3610965770511159
 40
0.4967632513878034
 40
0.6352905764130297
 40
0.7457103202439976
 40
0.8390628456277983
 40
0.9181038849999839
 40
0.9828735862461782
 40
1.0
 40
1.0
 40
1.0
 40
1.0
 10
374.0203276534086
 20
505.2876997878835
 30
0.0
 10
374.1389660626184
 20
505.3203845549697
 30
0.0
 10
374.4095033958214
 20
505.4000800203782
 30
0.0
 10
374.7756140453925
 20
505.7290416618139
 30
0.0
 10
375.0375809745024
 20
506.1891879608114
 30
0.0
 10
375.1289115233716
 20
506.7109980844463
 30
0.0
 10
375.0376831781859
 20
507.2071256920627
 30
0.0
 10
374.8234610975837
 20
507.5970916584225
 30
0.0
 10
374.5690364899467
 20
507.8626280772782
 30
0.0
 10
374.3152788972867
 20
508.0289147589829
 30
0.0
 10
374.1196529118653
 20
508.1162363412892
 30
0.0
 10
374.0235673901508
 20
508.1399002959191
 30
0.0
 10
374.0000736137665
 20
508.1455878728507
 30
0.0
  0
LINE
  5
3A6
330
365
100
AcDbEntity
  8
$DDT_AUDIT_GENERATED_(3A5)
  6
Continuous
 62
     7
100
AcDbLine
 10
234.8273469995
 20
420.4711700083
 30
0.0
 11
225.7256513655
 21
439.9898192838
 31
0.0
  0
LINE
  5
3A7
330
365
100
AcDbEntity
  8
$DDT_AUDIT_GENERATED_(3A5)
  6
Continuous
 62
     7
100
AcDbLine
 10
222.5988895003
 20
438.5317862808
 30
0.0
 11
233.7901987638
 21
414.5319461155
 31
0.0
  0
LINE
  5
3A9
330
365
100
AcDbEntity
  8
$DDT_AUDIT_GENERATED_(3A8)
  6
Continuous
 62
     7
100
AcDbLine
 10
219.881225085
 20
437.2645185516
 30
0.0
 11
228.4433157808
 21
441.2570870129
 31
0.0
  0
ARC
  5
3AA
330
365
100
AcDbEntity
  8
$DDT_AUDIT_GENERATED_(3A8)
  6
Continuous
 62
     7
100
AcDbCircle
 10
221.8378699933
 20
444.245495611
 30
0.0
 40
7.249999999999996
100
AcDbArc
 50
335.657248638
 51
25.0
  0
ARC
  5
3AB
330
365
100
AcDbEntity
  8
$DDT_AUDIT_GENERATED_(3A8)
  6
Continuous
 62
     7
100
AcDbCircle
 10
221.8378699933
 20
444.245495611
 30
0.0
 40
7.249999999999997
100
AcDbArc
 50
25.0
 51
254.342751362
  0
LINE
  5
3AC
330
365
100
AcDbEntity
  8
$DDT_AUDIT_GENERATED_(35F)
  6
Continuous
 62
     7
100
AcDbLine
 10
247.5536488545
 20
487.7578439263
 30
0.0
 11
296.836561837
 21
479.0679366796
 31
0.0
  0
ARC
  5
3AD
330
365
100
AcDbEntity
  8
$DDT_AUDIT_GENERATED_(35F)
  6
Continuous
 62
     7
100
AcDbCircle
 10
270.7885551066
 20
475.4359475036
 30
0.0
 40
26.29999999999999
100
AcDbArc
 50
7.9378265217
 51
10.5481566207
  0
ARC
  5
3AE
330
365
100
AcDbEntity
  8
$DDT_AUDIT_GENERATED_(35F)
  6
Continuous
 62
     7
100
AcDbCircle
 10
270.7885551066
 20
475.4359475036
 30
0.0
 40
26.29999999999999
100
AcDbArc
 50
149.4508950478
 51
152.0621734783
  0
ENDBLK
  5
3B0
330
365
100
AcDbEntity
  8
0
100
AcDbBlockEnd
  0
BLOCK
  5
3D3
330
3B1
100
AcDbEntity
  8
0
100
AcDbBlockBegin
  2
SE2
 70
     0
 10
0.0
 20
0.0
 30
0.0
  3
SE2
  1

  0
SPLINE
  5
3B3
330
3B1
100
AcDbEntity
  8
$DDT_AUDIT_GENERATED_(77)
  6
Continuous
 62
     7
100
AcDbSpline
210
0.0
220
0.0
230
1.0
 70
     8
 71
     3
 72
    22
 73
    18
 74
     0
 42
0.0000000001214142
 43
0.0000000001
 40
0.4996804362229564
 40
0.4996804362229564
 40
0.4996804362229564
 40
0.4996804362229564
 40
0.4999999999999997
 40
0.4999999999999997
 40
0.5624999999999997
 40
0.5624999999999997
 40
0.6249999999999997
 40
0.6249999999999997
 40
0.6874999999999997
 40
0.6874999999999997
 40
0.7499999999999997
 40
0.7499999999999997
 40
0.8124999999999998
 40
0.8124999999999998
 40
0.8749999999999998
 40
0.8749999999999998
 40
0.9652916351679519
 40
0.9652916351679519
 40
0.9652916351679519
 40
0.9652916351679519
 10
95.94391568748367
 20
226.7794580650653
 30
0.0
 10
95.9439156934454
 20
226.7882969906604
 30
0.0
 10
95.94391125832905
 20
226.7971360512547
 30
0.0
 10
95.94216614064152
 20
228.534736431929
 30
0.0
 10
95.77262117265103
 20
230.2361086822511
 30
0.0
 10
95.11742760486779
 20
233.5835318618387
 30
0.0
 10
94.62437776420221
 20
235.2469375134757
 30
0.0
 10
93.32969915398142
 20
238.4271745108954
 30
0.0
 10
92.5357000869244
 20
239.9358107002775
 30
0.0
 10
90.66228299610918
 20
242.7945079156214
 30
0.0
 10
89.57047732898968
 20
244.1535989966933
 30
0.0
 10
87.17732715006089
 20
246.592037429926
 30
0.0
 10
85.86979777643286
 20
247.685502907851
 30
0.0
 10
83.0319977734541
 20
249.6199826322857
 30
0.0
 10
81.51016807772056
 20
250.4504398925674
 30
0.0
 10
77.6719627138713
 20
252.0713411666671
 30
0.0
 10
75.24455968938693
 20
252.7026790988513
 30
0.0
 10
72.78552252499814
 20
252.979449290615
 30
0.0
  0
SPLINE
  5
3B4
330
3B1
100
AcDbEntity
  8
$DDT_AUDIT_GENERATED_(77)
  6
Continuous
 62
     7
100
AcDbSpline
210
0.0
220
0.0
230
1.0
 70
     8
 71
     3
 72
    22
 73
    18
 74
     0
 42
0.000000000121414
 43
0.0000000001
 40
0.4996804362229315
 40
0.4996804362229315
 40
0.4996804362229315
 40
0.4996804362229315
 40
0.5
 40
0.5
 40
0.5625
 40
0.5625
 40
0.6249999999999999
 40
0.6249999999999999
 40
0.6874999999999999
 40
0.6874999999999999
 40
0.7499999999999999
 40
0.7499999999999999
 40
0.8124999999999999
 40
0.8124999999999999
 40
0.8749999999999998
 40
0.8749999999999998
 40
0.9653631355463479
 40
0.9653631355463479
 40
0.9653631355463479
 40
0.9653631355463479
 10
43.94201219065596
 20
226.7794580650651
 30
0.0
 10
43.94201218469423
 20
226.7882969906608
 30
0.0
 10
43.94201661981059
 20
226.7971360512558
 30
0.0
 10
43.94376173749821
 20
228.534736431931
 30
0.0
 10
44.11330670548885
 20
230.236108682253
 30
0.0
 10
44.76850027327237
 20
233.5835318618407
 30
0.0
 10
45.26155011393812
 20
235.2469375134778
 30
0.0
 10
46.55622872415923
 20
238.4271745108975
 30
0.0
 10
47.3502277912164
 20
239.9358107002796
 30
0.0
 10
49.22364488203198
 20
242.7945079156234
 30
0.0
 10
50.31545054915168
 20
244.1535989966954
 30
0.0
 10
52.70860072808081
 20
246.5920374299279
 30
0.0
 10
54.01613010170903
 20
247.6855029078528
 30
0.0
 10
56.85393010468817
 20
249.6199826322872
 30
0.0
 10
58.37575980042183
 20
250.4504398925688
 30
0.0
 10
62.21576129097418
 20
252.0720996836793
 30
0.0
 10
64.64521272523487
 20
252.7036787851903
 30
0.0
 10
67.10624721911509
 20
252.9801061321065
 30
0.0
  0
SPLINE
  5
3B5
330
3B1
100
AcDbEntity
  8
$DDT_AUDIT_GENERATED_(77)
  6
Continuous
 62
     7
100
AcDbSpline
210
0.0
220
0.0
230
1.0
 70
     8
 71
     3
 72
    16
 73
    12
 74
     0
 42
0.0000000020189331
 43
0.0000000001
 40
0.1843300619518957
 40
0.1843300619518957
 40
0.1843300619518957
 40
0.1843300619518957
 40
0.25
 40
0.25
 40
0.5
 40
0.5
 40
0.75
 40
0.75
 40
0.875
 40
0.875
 40
1.0
 40
1.0
 40
1.0
 40
1.0
 10
68.2120974691896
 20
247.7455712929256
 30
0.0
 10
68.07058278203559
 20
247.7006517071432
 30
0.0
 10
67.95113505536855
 20
247.6533144158495
 30
0.0
 10
67.46553946620004
 20
247.4263571084722
 30
0.0
 10
67.32652702855626
 20
247.2445153587335
 30
0.0
 10
67.36221833072237
 20
246.921707245777
 30
0.0
 10
67.53219995949797
 20
246.7788846900714
 30
0.0
 10
68.1079081966728
 20
246.597117635501
 30
0.0
 10
68.35498200032342
 20
246.5424618882262
 30
0.0
 10
69.01554183599205
 20
246.4566385473593
 30
0.0
 10
69.45823322716271
 20
246.4247940183662
 30
0.0
 10
69.94296393906981
 20
246.4247987549226
 30
0.0
  0
SPLINE
  5
3B6
330
3B1
100
AcDbEntity
  8
$DDT_AUDIT_GENERATED_(77)
  6
Continuous
 62
     7
100
AcDbSpline
210
0.0
220
0.0
230
1.0
 70
     8
 71
     3
 72
    16
 73
    12
 74
     0
 42
0.0000000020185509
 43
0.0000000001
 40
0.0
 40
0.0
 40
0.0
 40
0.0
 40
0.125
 40
0.125
 40
0.25
 40
0.25
 40
0.5
 40
0.5
 40
0.75
 40
0.75
 40
0.8155563767040009
 40
0.8155563767040009
 40
0.8155563767040009
 40
0.8155563767040009
 10
69.94296393906981
 20
246.4247987549226
 30
0.0
 10
70.42832820719669
 20
246.4247940121758
 30
0.0
 10
70.87094083532429
 20
246.4566712777545
 30
0.0
 10
71.53205027595116
 20
246.5426448273951
 30
0.0
 10
71.77836062151421
 20
246.5973500953166
 30
0.0
 10
72.34859389311787
 20
246.7770155616261
 30
0.0
 10
72.52301189442302
 20
246.9211607376908
 30
0.0
 10
72.55989575786434
 20
247.2432602935285
 30
0.0
 10
72.42232768556201
 20
247.4254722273324
 30
0.0
 10
71.93433828469387
 20
247.6535212175917
 30
0.0
 10
71.81466987021217
 20
247.7008613352205
 30
0.0
 10
71.67341106819939
 20
247.7456835919318
 30
0.0
  0
LINE
  5
3B7
330
3B1
100
AcDbEntity
  8
$DDT_AUDIT_GENERATED_(77)
  6
Continuous
 62
     7
100
AcDbLine
 10
95.9439157073
 20
216.9500663178
 30
0.0
 11
95.9439157073
 21
226.77943778
 31
0.0
  0
ARC
  5
3B8
330
3B1
100
AcDbEntity
  8
$DDT_AUDIT_GENERATED_(77)
  6
Continuous
 62
     7
100
AcDbCircle
 10
2012.1013167454
 20
-17.5150046356
 30
0.0
 40
1929.305388338375
100
AcDbArc
 50
173.7691237591
 51
176.0814618595
  0
ARC
  5
3B9
330
3B1
100
AcDbEntity
  8
$DDT_AUDIT_GENERATED_(77)
  6
Continuous
 62
     7
100
AcDbCircle
 10
85.3061753747
 20
114.4759659107
 30
0.0
 40
2.000000000000012
100
AcDbArc
 50
305.0834125494
 51
355.7939726418
  0
ARC
  5
3BA
330
3B1
100
AcDbEntity
  8
$DDT_AUDIT_GENERATED_(77)
  6
Continuous
 62
     7
100
AcDbCircle
 10
69.4018731106
 20
135.7329796223
 30
0.0
 40
28.54147504446234
100
AcDbArc
 50
296.7621408152
 51
306.6833723367
  0
LINE
  5
3BB
330
3B1
100
AcDbEntity
  8
$DDT_AUDIT_GENERATED_(77)
  6
Continuous
 62
     7
100
AcDbLine
 10
43.9420121708
 20
226.77943778
 30
0.0
 11
43.9420121708
 21
216.954999786
 31
0.0
  0
ARC
  5
3BC
330
3B1
100
AcDbEntity
  8
$DDT_AUDIT_GENERATED_(77)
  6
Continuous
 62
     7
100
AcDbCircle
 10
-1991.2005261896
 20
-28.071639431
 30
0.0
 40
2048.73538954217
100
AcDbArc
 50
3.9856529817
 51
6.162342698
  0
ARC
  5
3BD
330
3B1
100
AcDbEntity
  8
$DDT_AUDIT_GENERATED_(77)
  6
Continuous
 62
     7
100
AcDbCircle
 10
54.5797525035
 20
114.4759659107
 30
0.0
 40
2.000000000000001
100
AcDbArc
 50
184.2060273582
 51
234.9165874506
  0
ARC
  5
3BE
330
3B1
100
AcDbEntity
  8
$DDT_AUDIT_GENERATED_(77)
  6
Continuous
 62
     7
100
AcDbCircle
 10
70.4958545173
 20
135.7636555171
 30
0.0
 40
28.57433162983073
100
AcDbArc
 50
233.3340659404
 51
243.3200346835
  0
ARC
  5
3BF
330
3B1
100
AcDbEntity
  8
$DDT_AUDIT_GENERATED_(335)
  6
Continuous
 62
     7
100
AcDbCircle
 10
60.3628514697
 20
202.3881562934
 30
0.0
 40
35.4108887708424
100
AcDbArc
 50
332.2839545443
 51
343.4263428472
  0
ARC
  5
3C0
330
3B1
100
AcDbEntity
  8
$DDT_AUDIT_GENERATED_(335)
  6
Continuous
 62
     7
100
AcDbCircle
 10
79.8234221767
 20
202.5018828092
 30
0.0
 40
35.73349668947414
100
AcDbArc
 50
196.5103402048
 51
208.0316713794
  0
ARC
  5
3C1
330
3B1
100
AcDbEntity
  8
$DDT_AUDIT_GENERATED_(335)
  6
Continuous
 62
     7
100
AcDbCircle
 10
69.7278124149
 20
209.1993212577
 30
0.0
 40
27.03531390970857
100
AcDbArc
 50
180.4020596781
 51
181.2258288019
  0
ARC
  5
3C2
330
3B1
100
AcDbEntity
  8
$DDT_AUDIT_GENERATED_(335)
  6
Continuous
 62
     7
100
AcDbCircle
 10
69.7603478305
 20
208.7754439187
 30
0.0
 40
27.06819658193336
100
AcDbArc
 50
138.7872101382
 51
179.5043323455
  0
ARC
  5
3C3
330
3B1
100
AcDbEntity
  8
$DDT_AUDIT_GENERATED_(335)
  6
Continuous
 62
     7
100
AcDbCircle
 10
70.1560820507
 20
209.2012724454
 30
0.0
 40
27.03776991800231
100
AcDbArc
 50
358.6690102315
 51
359.4567466666
  0
ARC
  5
3C4
330
3B1
100
AcDbEntity
  8
$DDT_AUDIT_GENERATED_(335)
  6
Continuous
 62
     7
100
AcDbCircle
 10
70.1313956358
 20
208.7814961054
 30
0.0
 40
27.06173442802223
100
AcDbArc
 50
0.3459989233
 51
41.4564622034
  0
ARC
  5
3C5
330
3B1
100
AcDbEntity
  8
$DDT_AUDIT_GENERATED_(335)
  6
Continuous
 62
     7
100
AcDbCircle
 10
97.1244662967
 20
209.5526281736
 30
0.0
 40
54.43613554479209
100
AcDbArc
 50
180.9807217753
 51
202.252263507
  0
ARC
  5
3C6
330
3B1
100
AcDbEntity
  8
$DDT_AUDIT_GENERATED_(335)
  6
Continuous
 62
     7
100
AcDbCircle
 10
42.6121774369
 20
209.6056531221
 30
0.0
 40
54.58636913570633
100
AcDbArc
 50
337.6392987706
 51
358.9161208537
  0
ARC
  5
3C7
330
3B1
100
AcDbEntity
  8
$DDT_AUDIT_GENERATED_(335)
  6
Continuous
 62
     7
100
AcDbCircle
 10
121.70849495
 20
169.2352338022
 30
0.0
 40
34.32408349191251
100
AcDbArc
 50
150.8584991365
 51
170.3314527625
  0
ARC
  5
3C8
330
3B1
100
AcDbEntity
  8
$DDT_AUDIT_GENERATED_(335)
  6
Continuous
 62
     7
100
AcDbCircle
 10
19.246727555
 20
169.312742085
 30
0.0
 40
33.34356647258314
100
AcDbArc
 50
9.5478989863
 51
29.4826889255
  0
ARC
  5
3C9
330
3B1
100
AcDbEntity
  8
$DDT_AUDIT_GENERATED_(335)
  6
Continuous
 62
     7
100
AcDbCircle
 10
650.9344537043
 20
96.5449481218
 30
0.0
 40
568.4951785098375
100
AcDbArc
 50
172.0677129227
 51
178.5251221093
  0
ARC
  5
3CA
330
3B1
100
AcDbEntity
  8
$DDT_AUDIT_GENERATED_(335)
  6
Continuous
 62
     7
100
AcDbCircle
 10
-516.4505165962
 20
96.7804431192
 30
0.0
 40
573.905125367216
100
AcDbArc
 50
1.4381363064
 51
7.8175127496
  0
ARC
  5
3CB
330
3B1
100
AcDbEntity
  8
$DDT_AUDIT_GENERATED_(335)
  6
Continuous
 62
     7
100
AcDbCircle
 10
81.1322871195
 20
111.2848454543
 30
0.0
 40
1.499999999999982
100
AcDbArc
 50
302.0104253267
 51
355.8791837858
  0
ARC
  5
3CC
330
3B1
100
AcDbEntity
  8
$DDT_AUDIT_GENERATED_(335)
  6
Continuous
 62
     7
100
AcDbCircle
 10
58.7659860432
 20
111.2888660298
 30
0.0
 40
1.49999999999999
100
AcDbArc
 50
184.0661737352
 51
237.9722102609
  0
ARC
  5
3CD
330
3B1
100
AcDbEntity
  8
$DDT_AUDIT_GENERATED_(335)
  6
Continuous
 62
     7
100
AcDbCircle
 10
69.953262789
 20
127.7534736723
 30
0.0
 40
21.40347367234069
100
AcDbArc
 50
235.9572529531
 51
304.0170312851
  0
ARC
  5
3CE
330
3B1
100
AcDbEntity
  8
$DDT_AUDIT_GENERATED_(335)
  6
Continuous
 62
     7
100
AcDbCircle
 10
69.9888076517
 20
208.4747117397
 30
0.0
 40
27.3767469383131
100
AcDbArc
 50
41.755605639
 51
90.0272359044
  0
ARC
  5
3CF
330
3B1
100
AcDbEntity
  8
$DDT_AUDIT_GENERATED_(335)
  6
Continuous
 62
     7
100
AcDbCircle
 10
69.8943736057
 20
208.4433367506
 30
0.0
 40
27.39424636007591
100
AcDbArc
 50
89.8292473619
 51
138.4337045946
  0
LINE
  5
3D0
330
3B1
100
AcDbEntity
  8
$DDT_AUDIT_GENERATED_(3A5)
  6
Continuous
 62
     7
100
AcDbLine
 10
71.6679639391
 20
246.5827515605
 30
0.0
 11
71.6679639391
 21
252.5813932889
 31
0.0
  0
LINE
  5
3D1
330
3B1
100
AcDbEntity
  8
$DDT_AUDIT_GENERATED_(3A5)
  6
Continuous
 62
     7
100
AcDbLine
 10
68.2179639391
 20
252.5813932889
 30
0.0
 11
68.2179639391
 21
246.5844144612
 31
0.0
  0
CIRCLE
  5
3D2
330
3B1
100
AcDbEntity
  8
$DDT_AUDIT_GENERATED_(3A8)
  6
Continuous
 62
     7
100
AcDbCircle
 10
69.9429639391
 20
259.6231881595
 30
0.0
 40
7.25
  0
ENDBLK
  5
3D4
330
3B1
100
AcDbEntity
  8
0
100
AcDbBlockEnd
  0
ENDSEC
  0
SECTION
  2
ENTITIES
  0
INSERT
  5
5F
330
1F
100
AcDbEntity
  8
Default
100
AcDbBlockReference
  2
SEANNOT_GROUP
 10
0.0
 20
0.0
 30
0.0
  0
INSERT
  5
66
330
1F
100
AcDbEntity
  8
Default
100
AcDbBlockReference
  2
SEANNOT_GROUP1
 10
0.0
 20
0.0
 30
0.0
  0
INSERT
  5
6C
330
1F
100
AcDbEntity
  8
Default
100
AcDbBlockReference
  2
SEANNOT_GROUP2
 10
0.0
 20
0.0
 30
0.0
  0
INSERT
  5
76
330
1F
100
AcDbEntity
  8
Default
100
AcDbBlockReference
  2
SE
 10
0.0
 20
0.0
 30
0.0
  0
INSERT
  5
366
330
1F
100
AcDbEntity
  8
Default
100
AcDbBlockReference
  2
SE1
 10
0.0
 20
0.0
 30
0.0
  0
INSERT
  5
3B2
330
1F
100
AcDbEntity
  8
Default
100
AcDbBlockReference
  2
SE2
 10
0.0
 20
0.0
 30
0.0
  0
TEXT
  5
3D6
330
1F
100
AcDbEntity
  8
Default
  6
Continuous
 62
     7
100
AcDbText
 10
5.9362635081
 20
53.4225120485
 30
0.0
 40
10.0
  1
Grohe AG^J
  7
SEACAD_seiso_ttf
 11
5.9362635081
 21
63.4225120485
 31
0.0
100
AcDbText
 73
     3
  0
TEXT
  5
3D7
330
1F
100
AcDbEntity
  8
Default
  6
Continuous
 62
     7
100
AcDbText
 10
5.9362635081
 20
37.0588756849
 30
0.0
 40
10.0
  1
 
  7
SEACAD_seiso_ttf
 11
5.9362635081
 21
47.0588756849
 31
0.0
100
AcDbText
 73
     3
  0
TEXT
  5
3D8
330
1F
100
AcDbEntity
  8
Default
  6
Continuous
 62
     7
100
AcDbText
 10
5.9362635081
 20
20.6952393213
 30
0.0
 40
10.0
  1
ecn: 
  7
SEACAD_seiso_ttf
 11
5.9362635081
 21
30.6952393213
 31
0.0
100
AcDbText
 73
     3
  0
TEXT
  5
3D9
330
1F
100
AcDbEntity
  8
Default
  6
Continuous
 62
     7
100
AcDbText
 10
5.9362635081
 20
4.3316029576
 30
0.0
 40
10.0
  1
unit: mm
  7
SEACAD_seiso_ttf
 11
5.9362635081
 21
14.3316029576
 31
0.0
100
AcDbText
 73
     3
  0
LINE
  5
3DA
330
1F
100
AcDbEntity
  8
Default
  6
Continuous
 62
     7
100
AcDbLine
 10
0.0
 20
0.0
 30
0.0
 11
100.0
 21
0.0
 31
0.0
  0
LINE
  5
3DB
330
1F
100
AcDbEntity
  8
Default
  6
Continuous
 62
     7
100
AcDbLine
 10
0.0
 20
0.0
 30
0.0
 11
0.0
 21
100.0
 31
0.0
  0
TEXT
  5
3DC
330
1F
100
AcDbEntity
  8
Default
  6
Continuous
 62
     7
100
AcDbText
 10
24.3923665681
 20
-18.2375342018
 30
0.0
 40
10.0
  1
100 mm
  7
SEACAD_seiso_ttf
 11
24.3923665681
 21
-8.2375342018
 31
0.0
100
AcDbText
 73
     3
  0
TEXT
  5
3DD
330
1F
100
AcDbEntity
  8
Default
  6
Continuous
 62
     7
100
AcDbText
 10
-7.6150308803
 20
24.6231930421
 30
0.0
 40
10.0
  1
100 mm
 50
90.0
  7
SEACAD_seiso_ttf
 11
-17.6150308803
 21
24.6231930421
 31
0.0
100
AcDbText
 73
     3
  0
TEXT
  5
3DE
330
1F
100
AcDbEntity
  8
Default
  6
Continuous
 62
     7
100
AcDbText
 10
28.4878128572
 20
20.0907663715
 30
0.0
 40
10.0
  1
208014
  7
SEACAD_seiso_ttf
 11
28.4878128572
 21
30.0907663715
 31
0.0
100
AcDbText
 73
     3
  0
TEXT
  5
3DF
330
1F
100
AcDbEntity
  8
Default
  6
Continuous
 62
     7
100
AcDbText
 10
5.9012241913
 20
36.7242780188
 30
0.0
 40
10.0
  1
33446001
  7
SEACAD_seiso_ttf
 11
5.9012241913
 21
46.7242780188
 31
0.0
100
AcDbText
 73
     3
  0
ENDSEC
  0
SECTION
  2
OBJECTS
  0
DICTIONARY
  5
C
330
0
100
AcDbDictionary
281
     1
  3
ACAD_GROUP
350
D
  3
ACAD_LAYOUT
350
1A
  3
ACAD_MLEADERSTYLE
350
3E3
  3
ACAD_MLINESTYLE
350
17
  3
ACAD_PLOTSETTINGS
350
19
  3
ACAD_PLOTSTYLENAME
350
E
  3
ACAD_SCALELIST
350
3B
  3
ACAD_TABLESTYLE
350
3E2
  3
ACAD_VISUALSTYLE
350
2A
  3
AcDbVariableDictionary
350
3E0
  0
DICTIONARY
  5
D
102
{ACAD_REACTORS
330
C
102
}
330
C
100
AcDbDictionary
281
     1
  0
DICTIONARY
  5
1A
102
{ACAD_REACTORS
330
C
102
}
330
C
100
AcDbDictionary
281
     1
  3
Layout1
350
1E
  3
Model
350
22
  0
DICTIONARY
  5
3E3
102
{ACAD_REACTORS
330
C
102
}
330
C
100
AcDbDictionary
281
     1
  0
DICTIONARY
  5
17
102
{ACAD_REACTORS
330
C
102
}
330
C
100
AcDbDictionary
281
     1
  3
Standard
350
18
  0
DICTIONARY
  5
19
102
{ACAD_REACTORS
330
C
102
}
330
C
100
AcDbDictionary
281
     1
  0
ACDBDICTIONARYWDFLT
  5
E
102
{ACAD_REACTORS
330
C
102
}
330
C
100
AcDbDictionary
281
     1
  3
Normal
350
F
100
AcDbDictionaryWithDefault
340
F
  0
DICTIONARY
  5
3B
102
{ACAD_REACTORS
330
C
102
}
330
C
100
AcDbDictionary
281
     1
  3
A0
350
3C
  3
A1
350
3D
  3
A2
350
3E
  3
A3
350
3F
  3
A4
350
40
  3
A5
350
41
  3
A6
350
42
  3
A7
350
43
  3
A8
350
44
  3
A9
350
45
  3
B0
350
46
  3
B1
350
47
  3
B2
350
48
  3
B3
350
49
  3
B4
350
4A
  3
B5
350
4B
  3
B6
350
4C
  3
B7
350
4D
  3
B8
350
4E
  3
B9
350
4F
  3
C0
350
50
  3
C1
350
51
  3
C2
350
52
  3
C3
350
53
  3
C4
350
54
  3
C5
350
55
  3
C6
350
56
  3
C7
350
57
  3
C8
350
58
  3
C9
350
59
  3
D0
350
5A
  3
D1
350
5B
  3
D2
350
5C
  0
DICTIONARY
  5
3E2
102
{ACAD_REACTORS
330
C
102
}
330
C
100
AcDbDictionary
281
     1
  0
DICTIONARY
  5
2A
102
{ACAD_REACTORS
330
C
102
}
330
C
100
AcDbDictionary
281
     1
  3
2dWireframe
350
2F
  3
3D Hidden
350
31
  3
3dWireframe
350
30
  3
Basic
350
32
  3
Brighten
350
36
  3
ColorChange
350
3A
  3
Conceptual
350
34
  3
Dim
350
35
  3
Facepattern
350
39
  3
Flat
350
2B
  3
FlatWithEdges
350
2C
  3
Gouraud
350
2D
  3
GouraudWithEdges
350
2E
  3
Linepattern
350
38
  3
Realistic
350
33
  3
Thicken
350
37
  0
DICTIONARY
  5
3E0
102
{ACAD_REACTORS
330
C
102
}
330
C
100
AcDbDictionary
281
     1
  3
CANNOSCALE
350
3E1
  3
PSOLHEIGHT
350
3E5
  3
PSOLWIDTH
350
3E4
  0
LAYOUT
  5
1E
102
{ACAD_REACTORS
330
1A
102
}
330
1A
100
AcDbPlotSettings
  1

  2
none_device
  4

  6

 40
0.0
 41
0.0
 42
0.0
 43
0.0
 44
0.0
 45
0.0
 46
0.0
 47
0.0
 48
0.0
 49
0.0
140
0.0
141
0.0
142
1.0
143
1.0
 70
   688
 72
     0
 73
     0
 74
     5
  7

 75
    16
147
1.0
148
0.0
149
0.0
100
AcDbLayout
  1
Layout1
 70
     1
 71
     1
 10
0.0
 20
0.0
 11
1682.0
 21
2378.0
 12
0.0
 22
0.0
 32
0.0
 14
0.0
 24
0.0
 34
0.0
 15
1682.0
 25
2378.0
 35
0.0
146
0.0
 13
0.0
 23
0.0
 33
0.0
 16
1.0
 26
0.0
 36
0.0
 17
0.0
 27
1.0
 37
0.0
 76
     0
330
1B
  0
LAYOUT
  5
22
102
{ACAD_REACTORS
330
1A
102
}
330
1A
100
AcDbPlotSettings
  1

  2
none_device
  4

  6

 40
0.0
 41
0.0
 42
0.0
 43
0.0
 44
0.0
 45
0.0
 46
0.0
 47
0.0
 48
0.0
 49
0.0
140
0.0
141
0.0
142
1.0
143
1.0
 70
  1712
 72
     0
 73
     0
 74
     0
  7

 75
     0
147
1.0
148
0.0
149
0.0
100
AcDbLayout
  1
Model
 70
     1
 71
     0
 10
0.0
 20
0.0
 11
1682.0
 21
2378.0
 12
0.0
 22
0.0
 32
0.0
 14
0.0
 24
0.0
 34
0.0
 15
1682.0
 25
2378.0
 35
0.0
146
0.0
 13
0.0
 23
0.0
 33
0.0
 16
1.0
 26
0.0
 36
0.0
 17
0.0
 27
1.0
 37
0.0
 76
     0
330
1F
331
29
  0
MLINESTYLE
  5
18
102
{ACAD_REACTORS
330
17
102
}
330
17
100
AcDbMlineStyle
  2
Standard
 70
     0
  3

 62
   256
 51
90.0
 52
90.0
 71
     2
 49
0.5
 62
   256
  6
BYLAYER
 49
-0.5
 62
   256
  6
BYLAYER
  0
ACDBPLACEHOLDER
  5
F
102
{ACAD_REACTORS
330
E
102
}
330
E
  0
SCALE
  5
3C
102
{ACAD_REACTORS
330
3B
102
}
330
3B
100
AcDbScale
 70
     0
300
1:1
140
1.0
141
1.0
290
     1
  0
SCALE
  5
3D
102
{ACAD_REACTORS
330
3B
102
}
330
3B
100
AcDbScale
 70
     0
300
1:2
140
1.0
141
2.0
290
     0
  0
SCALE
  5
3E
102
{ACAD_REACTORS
330
3B
102
}
330
3B
100
AcDbScale
 70
     0
300
1:4
140
1.0
141
4.0
290
     0
  0
SCALE
  5
3F
102
{ACAD_REACTORS
330
3B
102
}
330
3B
100
AcDbScale
 70
     0
300
1:5
140
1.0
141
5.0
290
     0
  0
SCALE
  5
40
102
{ACAD_REACTORS
330
3B
102
}
330
3B
100
AcDbScale
 70
     0
300
1:8
140
1.0
141
8.0
290
     0
  0
SCALE
  5
41
102
{ACAD_REACTORS
330
3B
102
}
330
3B
100
AcDbScale
 70
     0
300
1:10
140
1.0
141
10.0
290
     0
  0
SCALE
  5
42
102
{ACAD_REACTORS
330
3B
102
}
330
3B
100
AcDbScale
 70
     0
300
1:16
140
1.0
141
16.0
290
     0
  0
SCALE
  5
43
102
{ACAD_REACTORS
330
3B
102
}
330
3B
100
AcDbScale
 70
     0
300
1:20
140
1.0
141
20.0
290
     0
  0
SCALE
  5
44
102
{ACAD_REACTORS
330
3B
102
}
330
3B
100
AcDbScale
 70
     0
300
1:30
140
1.0
141
30.0
290
     0
  0
SCALE
  5
45
102
{ACAD_REACTORS
330
3B
102
}
330
3B
100
AcDbScale
 70
     0
300
1:40
140
1.0
141
40.0
290
     0
  0
SCALE
  5
46
102
{ACAD_REACTORS
330
3B
102
}
330
3B
100
AcDbScale
 70
     0
300
1:50
140
1.0
141
50.0
290
     0
  0
SCALE
  5
47
102
{ACAD_REACTORS
330
3B
102
}
330
3B
100
AcDbScale
 70
     0
300
1:100
140
1.0
141
100.0
290
     0
  0
SCALE
  5
48
102
{ACAD_REACTORS
330
3B
102
}
330
3B
100
AcDbScale
 70
     0
300
2:1
140
2.0
141
1.0
290
     0
  0
SCALE
  5
49
102
{ACAD_REACTORS
330
3B
102
}
330
3B
100
AcDbScale
 70
     0
300
4:1
140
4.0
141
1.0
290
     0
  0
SCALE
  5
4A
102
{ACAD_REACTORS
330
3B
102
}
330
3B
100
AcDbScale
 70
     0
300
8:1
140
8.0
141
1.0
290
     0
  0
SCALE
  5
4B
102
{ACAD_REACTORS
330
3B
102
}
330
3B
100
AcDbScale
 70
     0
300
10:1
140
10.0
141
1.0
290
     0
  0
SCALE
  5
4C
102
{ACAD_REACTORS
330
3B
102
}
330
3B
100
AcDbScale
 70
     0
300
100:1
140
100.0
141
1.0
290
     0
  0
SCALE
  5
4D
102
{ACAD_REACTORS
330
3B
102
}
330
3B
100
AcDbScale
 70
     0
300
1/128" = 1'-0"
140
0.0078125
141
12.0
290
     0
  0
SCALE
  5
4E
102
{ACAD_REACTORS
330
3B
102
}
330
3B
100
AcDbScale
 70
     0
300
1/64" = 1'-0"
140
0.015625
141
12.0
290
     0
  0
SCALE
  5
4F
102
{ACAD_REACTORS
330
3B
102
}
330
3B
100
AcDbScale
 70
     0
300
1/32" = 1'-0"
140
0.03125
141
12.0
290
     0
  0
SCALE
  5
50
102
{ACAD_REACTORS
330
3B
102
}
330
3B
100
AcDbScale
 70
     0
300
1/16" = 1'-0"
140
0.0625
141
12.0
290
     0
  0
SCALE
  5
51
102
{ACAD_REACTORS
330
3B
102
}
330
3B
100
AcDbScale
 70
     0
300
3/32" = 1'-0"
140
0.09375
141
12.0
290
     0
  0
SCALE
  5
52
102
{ACAD_REACTORS
330
3B
102
}
330
3B
100
AcDbScale
 70
     0
300
1/8" = 1'-0"
140
0.125
141
12.0
290
     0
  0
SCALE
  5
53
102
{ACAD_REACTORS
330
3B
102
}
330
3B
100
AcDbScale
 70
     0
300
3/16" = 1'-0"
140
0.1875
141
12.0
290
     0
  0
SCALE
  5
54
102
{ACAD_REACTORS
330
3B
102
}
330
3B
100
AcDbScale
 70
     0
300
1/4" = 1'-0"
140
0.25
141
12.0
290
     0
  0
SCALE
  5
55
102
{ACAD_REACTORS
330
3B
102
}
330
3B
100
AcDbScale
 70
     0
300
3/8" = 1'-0"
140
0.375
141
12.0
290
     0
  0
SCALE
  5
56
102
{ACAD_REACTORS
330
3B
102
}
330
3B
100
AcDbScale
 70
     0
300
1/2" = 1'-0"
140
0.5
141
12.0
290
     0
  0
SCALE
  5
57
102
{ACAD_REACTORS
330
3B
102
}
330
3B
100
AcDbScale
 70
     0
300
3/4" = 1'-0"
140
0.75
141
12.0
290
     0
  0
SCALE
  5
58
102
{ACAD_REACTORS
330
3B
102
}
330
3B
100
AcDbScale
 70
     0
300
1" = 1'-0"
140
1.0
141
12.0
290
     0
  0
SCALE
  5
59
102
{ACAD_REACTORS
330
3B
102
}
330
3B
100
AcDbScale
 70
     0
300
1-1/2" = 1'-0"
140
1.5
141
12.0
290
     0
  0
SCALE
  5
5A
102
{ACAD_REACTORS
330
3B
102
}
330
3B
100
AcDbScale
 70
     0
300
3" = 1'-0"
140
3.0
141
12.0
290
     0
  0
SCALE
  5
5B
102
{ACAD_REACTORS
330
3B
102
}
330
3B
100
AcDbScale
 70
     0
300
6" = 1'-0"
140
6.0
141
12.0
290
     0
  0
SCALE
  5
5C
102
{ACAD_REACTORS
330
3B
102
}
330
3B
100
AcDbScale
 70
     0
300
1'-0" = 1'-0"
140
12.0
141
12.0
290
     0
  0
VISUALSTYLE
  5
2F
102
{ACAD_REACTORS
330
2A
102
}
330
2A
100
AcDbVisualStyle
  2
2dWireframe
 70
     4
 71
     0
 72
     2
 73
     0
 90
        0
 40
-0.6
 41
-30.0
 62
     5
 63
     7
 74
     1
 91
        4
 64
     7
 65
   257
 75
     1
175
     1
 42
1.0
 92
        0
 66
   257
 43
1.0
 76
     1
 77
     6
 78
     2
 67
     7
 79
     5
170
     0
171
     0
290
     0
174
     0
 93
        1
 44
0.0
173
     0
291
     0
 45
0.0
1001
ACAD
1000
AcDbSavedByObjectVersion
1070
     0
  0
VISUALSTYLE
  5
31
102
{ACAD_REACTORS
330
2A
102
}
330
2A
100
AcDbVisualStyle
  2
3D Hidden
 70
     6
 71
     1
 72
     2
 73
     2
 90
        0
 40
-0.6
 41
-30.0
 62
     5
 63
     7
 74
     2
 91
        2
 64
     7
 65
   257
 75
     2
175
     1
 42
40.0
 92
        0
 66
   257
 43
1.0
 76
     1
 77
     6
 78
     2
 67
     7
 79
     3
170
     0
171
     0
290
     0
174
     0
 93
        1
 44
0.0
173
     0
291
     0
 45
0.0
1001
ACAD
1000
AcDbSavedByObjectVersion
1070
     0
  0
VISUALSTYLE
  5
30
102
{ACAD_REACTORS
330
2A
102
}
330
2A
100
AcDbVisualStyle
  2
3dWireframe
 70
     5
 71
     0
 72
     2
 73
     0
 90
        0
 40
-0.6
 41
-30.0
 62
     5
 63
     7
 74
     1
 91
        4
 64
     7
 65
   257
 75
     1
175
     1
 42
1.0
 92
        0
 66
   257
 43
1.0
 76
     1
 77
     6
 78
     2
 67
     7
 79
     5
170
     0
171
     0
290
     0
174
     0
 93
        1
 44
0.0
173
     0
291
     0
 45
0.0
1001
ACAD
1000
AcDbSavedByObjectVersion
1070
     0
  0
VISUALSTYLE
  5
32
102
{ACAD_REACTORS
330
2A
102
}
330
2A
100
AcDbVisualStyle
  2
Basic
 70
     7
 71
     1
 72
     0
 73
     1
 90
        0
 40
-0.6
 41
-30.0
 62
     5
 63
     7
 74
     0
 91
        4
 64
     7
 65
   257
 75
     1
175
     1
 42
1.0
 92
        8
 66
     7
 43
1.0
 76
     1
 77
     6
 78
     2
 67
     7
 79
     5
170
     0
171
     0
290
     0
174
     0
 93
        1
 44
0.0
173
     0
291
     1
 45
0.0
1001
ACAD
1000
AcDbSavedByObjectVersion
1070
     0
  0
VISUALSTYLE
  5
36
102
{ACAD_REACTORS
330
2A
102
}
330
2A
100
AcDbVisualStyle
  2
Brighten
 70
    12
 71
     2
 72
     2
 73
     0
 90
        0
 40
-0.6
 41
-30.0
 62
     5
 63
     7
 74
     1
 91
        4
 64
     7
 65
   257
 75
     1
175
     1
 42
1.0
 92
        8
 66
     7
 43
1.0
 76
     1
 77
     6
 78
     2
 67
     7
 79
     5
170
     0
171
     0
290
     0
174
     0
 93
        1
 44
50.0
173
     0
291
     1
 45
0.0
1001
ACAD
1000
AcDbSavedByObjectVersion
1070
     0
  0
VISUALSTYLE
  5
3A
102
{ACAD_REACTORS
330
2A
102
}
330
2A
100
AcDbVisualStyle
  2
ColorChange
 70
    16
 71
     2
 72
     2
 73
     3
 90
        0
 40
-0.6
 41
-30.0
 62
     5
 63
     8
 74
     1
 91
        4
 64
     7
 65
   257
 75
     1
175
     1
 42
1.0
 92
        8
 66
     8
 43
1.0
 76
     1
 77
     6
 78
     2
 67
     7
 79
     5
170
     0
171
     0
290
     0
174
     0
 93
        1
 44
0.0
173
     0
291
     1
 45
0.0
1001
ACAD
1000
AcDbSavedByObjectVersion
1070
     0
  0
VISUALSTYLE
  5
34
102
{ACAD_REACTORS
330
2A
102
}
330
2A
100
AcDbVisualStyle
  2
Conceptual
 70
     9
 71
     3
 72
     2
 73
     0
 90
        0
 40
-0.6
 41
-30.0
 62
     5
 63
     7
 74
     2
 91
        2
 64
     7
 65
   257
 75
     1
175
     1
 42
40.0
 92
        8
 66
     7
 43
1.0
 76
     1
 77
     6
 78
     2
 67
     7
 79
     3
170
     0
171
     0
290
     0
174
     0
 93
        1
 44
0.0
173
     0
291
     0
 45
0.0
1001
ACAD
1000
AcDbSavedByObjectVersion
1070
     0
  0
VISUALSTYLE
  5
35
102
{ACAD_REACTORS
330
2A
102
}
330
2A
100
AcDbVisualStyle
  2
Dim
 70
    11
 71
     2
 72
     2
 73
     0
 90
        0
 40
-0.6
 41
-30.0
 62
     5
 63
     7
 74
     1
 91
        4
 64
     7
 65
   257
 75
     1
175
     1
 42
1.0
 92
        8
 66
     7
 43
1.0
 76
     1
 77
     6
 78
     2
 67
     7
 79
     5
170
     0
171
     0
290
     0
174
     0
 93
        1
 44
-50.0
173
     0
291
     1
 45
0.0
1001
ACAD
1000
AcDbSavedByObjectVersion
1070
     0
  0
VISUALSTYLE
  5
39
102
{ACAD_REACTORS
330
2A
102
}
330
2A
100
AcDbVisualStyle
  2
Facepattern
 70
    15
 71
     2
 72
     2
 73
     0
 90
        0
 40
-0.6
 41
-30.0
 62
     5
 63
     7
 74
     1
 91
        4
 64
     7
 65
   257
 75
     1
175
     1
 42
1.0
 92
        8
 66
     7
 43
1.0
 76
     1
 77
     6
 78
     2
 67
     7
 79
     5
170
     0
171
     0
290
     0
174
     0
 93
        1
 44
0.0
173
     0
291
     1
 45
0.0
1001
ACAD
1000
AcDbSavedByObjectVersion
1070
     0
  0
VISUALSTYLE
  5
2B
102
{ACAD_REACTORS
330
2A
102
}
330
2A
100
AcDbVisualStyle
  2
Flat
 70
     0
 71
     2
 72
     1
 73
     1
 90
        2
 40
-0.6
 41
30.0
 62
     5
 63
     7
 74
     0
 91
        4
 64
     7
 65
   257
 75
     1
175
     1
 42
1.0
 92
        8
 66
     7
 43
1.0
 76
     1
 77
     6
 78
     2
 67
     7
 79
     5
170
     0
171
     0
290
     0
174
     0
 93
       13
 44
0.0
173
     0
291
     1
 45
0.0
1001
ACAD
1000
AcDbSavedByObjectVersion
1070
     0
  0
VISUALSTYLE
  5
2C
102
{ACAD_REACTORS
330
2A
102
}
330
2A
100
AcDbVisualStyle
  2
FlatWithEdges
 70
     1
 71
     2
 72
     1
 73
     1
 90
        2
 40
-0.6
 41
30.0
 62
     5
 63
     7
 74
     1
 91
        4
 64
     7
 65
   257
 75
     1
175
     1
 42
1.0
 92
        0
 66
   257
 43
1.0
 76
     1
 77
     6
 78
     2
 67
     7
 79
     5
170
     0
171
     0
290
     0
174
     0
 93
       13
 44
0.0
173
     0
291
     1
 45
0.0
1001
ACAD
1000
AcDbSavedByObjectVersion
1070
     0
  0
VISUALSTYLE
  5
2D
102
{ACAD_REACTORS
330
2A
102
}
330
2A
100
AcDbVisualStyle
  2
Gouraud
 70
     2
 71
     2
 72
     2
 73
     1
 90
        2
 40
-0.6
 41
30.0
 62
     5
 63
     7
 74
     0
 91
        4
 64
     7
 65
   257
 75
     1
175
     1
 42
1.0
 92
        0
 66
     7
 43
1.0
 76
     1
 77
     6
 78
     2
 67
     7
 79
     5
170
     0
171
     0
290
     0
174
     0
 93
       13
 44
0.0
173
     0
291
     1
 45
0.0
1001
ACAD
1000
AcDbSavedByObjectVersion
1070
     0
  0
VISUALSTYLE
  5
2E
102
{ACAD_REACTORS
330
2A
102
}
330
2A
100
AcDbVisualStyle
  2
GouraudWithEdges
 70
     3
 71
     2
 72
     2
 73
     1
 90
        2
 40
-0.6
 41
30.0
 62
     5
 63
     7
 74
     1
 91
        4
 64
     7
 65
   257
 75
     1
175
     1
 42
1.0
 92
        0
 66
   257
 43
1.0
 76
     1
 77
     6
 78
     2
 67
     7
 79
     5
170
     0
171
     0
290
     0
174
     0
 93
       13
 44
0.0
173
     0
291
     1
 45
0.0
1001
ACAD
1000
AcDbSavedByObjectVersion
1070
     0
  0
VISUALSTYLE
  5
38
102
{ACAD_REACTORS
330
2A
102
}
330
2A
100
AcDbVisualStyle
  2
Linepattern
 70
    14
 71
     2
 72
     2
 73
     0
 90
        0
 40
-0.6
 41
-30.0
 62
     5
 63
     7
 74
     1
 91
        4
 64
     7
 65
   257
 75
     7
175
     7
 42
1.0
 92
        8
 66
     7
 43
1.0
 76
     1
 77
     6
 78
     2
 67
     7
 79
     5
170
     0
171
     0
290
     0
174
     0
 93
        1
 44
0.0
173
     0
291
     1
 45
0.0
1001
ACAD
1000
AcDbSavedByObjectVersion
1070
     0
  0
VISUALSTYLE
  5
33
102
{ACAD_REACTORS
330
2A
102
}
330
2A
100
AcDbVisualStyle
  2
Realistic
 70
     8
 71
     2
 72
     2
 73
     0
 90
        0
 40
-0.6
 41
-30.0
 62
     5
 63
     7
 74
     1
 91
        0
 64
     7
 65
   257
 75
     1
175
     1
 42
1.0
 92
        8
 66
     8
 43
1.0
 76
     1
 77
     6
 78
     2
 67
     7
 79
     5
170
     0
171
     0
290
     0
174
     0
 93
       13
 44
0.0
173
     0
291
     0
 45
0.0
1001
ACAD
1000
AcDbSavedByObjectVersion
1070
     0
  0
VISUALSTYLE
  5
37
102
{ACAD_REACTORS
330
2A
102
}
330
2A
100
AcDbVisualStyle
  2
Thicken
 70
    13
 71
     2
 72
     2
 73
     0
 90
        0
 40
-0.6
 41
-30.0
 62
     5
 63
     7
 74
     1
 91
        4
 64
     7
 65
   257
 75
     1
175
     1
 42
1.0
 92
       12
 66
     7
 43
1.0
 76
     1
 77
     6
 78
     2
 67
     7
 79
     5
170
     0
171
     0
290
     0
174
     0
 93
        1
 44
0.0
173
     0
291
     1
 45
0.0
1001
ACAD
1000
AcDbSavedByObjectVersion
1070
     0
  0
DICTIONARYVAR
  5
3E1
102
{ACAD_REACTORS
330
3E0
102
}
330
3E0
100
DictionaryVariables
280
     0
  1
1:1
  0
DICTIONARYVAR
  5
3E5
102
{ACAD_REACTORS
330
3E0
102
}
330
3E0
100
DictionaryVariables
280
     0
  1
80.000000
  0
DICTIONARYVAR
  5
3E4
102
{ACAD_REACTORS
330
3E0
102
}
330
3E0
100
DictionaryVariables
280
     0
  1
5.000000
  0
ENDSEC
  0
EOF
