  0
SECTION
  2
HEADER
  9
$ACADVER
  1
AC1015
  9
$ACADMAINTVER
 70
     6
  9
$DWGCODEPAGE
  3
ANSI_1252
  9
$INSBASE
 10
0.0
 20
0.0
 30
0.0
  9
$EXTMIN
 10
0.0
 20
0.0
 30
0.0
  9
$EXTMAX
 10
1682.0
 20
2378.0
 30
0.0
  9
$LIMMIN
 10
0.0
 20
0.0
  9
$LIMMAX
 10
1682.0
 20
2378.0
  9
$ORTHOMODE
 70
     0
  9
$REGENMODE
 70
     1
  9
$FILLMODE
 70
     1
  9
$QTEXTMODE
 70
     0
  9
$MIRRTEXT
 70
     1
  9
$LTSCALE
 40
1.0
  9
$ATTMODE
 70
     1
  9
$TEXTSIZE
 40
2.5
  9
$TRACEWID
 40
1.0
  9
$TEXTSTYLE
  7
Standard
  9
$CLAYER
  8
0
  9
$CELTYPE
  6
ByLayer
  9
$CECOLOR
 62
   256
  9
$CELTSCALE
 40
1.0
  9
$DISPSILH
 70
     0
  9
$DIMSCALE
 40
1.0
  9
$DIMASZ
 40
2.5
  9
$DIMEXO
 40
0.625
  9
$DIMDLI
 40
3.75
  9
$DIMRND
 40
0.0
  9
$DIMDLE
 40
0.0
  9
$DIMEXE
 40
1.25
  9
$DIMTP
 40
0.0
  9
$DIMTM
 40
0.0
  9
$DIMTXT
 40
2.5
  9
$DIMCEN
 40
2.5
  9
$DIMTSZ
 40
0.0
  9
$DIMTOL
 70
     0
  9
$DIMLIM
 70
     0
  9
$DIMTIH
 70
     0
  9
$DIMTOH
 70
     0
  9
$DIMSE1
 70
     0
  9
$DIMSE2
 70
     0
  9
$DIMTAD
 70
     1
  9
$DIMZIN
 70
     8
  9
$DIMBLK
  1

  9
$DIMASO
 70
     1
  9
$DIMSHO
 70
     1
  9
$DIMPOST
  1

  9
$DIMAPOST
  1

  9
$DIMALT
 70
     0
  9
$DIMALTD
 70
     3
  9
$DIMALTF
 40
0.0393700787
  9
$DIMLFAC
 40
1.0
  9
$DIMTOFL
 70
     1
  9
$DIMTVP
 40
0.0
  9
$DIMTIX
 70
     0
  9
$DIMSOXD
 70
     0
  9
$DIMSAH
 70
     0
  9
$DIMBLK1
  1

  9
$DIMBLK2
  1

  9
$DIMSTYLE
  2
ISO-25
  9
$DIMCLRD
 70
     0
  9
$DIMCLRE
 70
     0
  9
$DIMCLRT
 70
     0
  9
$DIMTFAC
 40
1.0
  9
$DIMGAP
 40
0.625
  9
$DIMJUST
 70
     0
  9
$DIMSD1
 70
     0
  9
$DIMSD2
 70
     0
  9
$DIMTOLJ
 70
     0
  9
$DIMTZIN
 70
     8
  9
$DIMALTZ
 70
     0
  9
$DIMALTTZ
 70
     0
  9
$DIMUPT
 70
     0
  9
$DIMDEC
 70
     2
  9
$DIMTDEC
 70
     2
  9
$DIMALTU
 70
     2
  9
$DIMALTTD
 70
     3
  9
$DIMTXSTY
  7
Standard
  9
$DIMAUNIT
 70
     0
  9
$DIMADEC
 70
     0
  9
$DIMALTRND
 40
0.0
  9
$DIMAZIN
 70
     0
  9
$DIMDSEP
 70
    44
  9
$DIMATFIT
 70
     3
  9
$DIMFRAC
 70
     0
  9
$DIMLDRBLK
  1

  9
$DIMLUNIT
 70
     2
  9
$DIMLWD
 70
    -2
  9
$DIMLWE
 70
    -2
  9
$DIMTMOVE
 70
     0
  9
$LUNITS
 70
     2
  9
$LUPREC
 70
     4
  9
$SKETCHINC
 40
1.0
  9
$FILLETRAD
 40
10.0
  9
$AUNITS
 70
     0
  9
$AUPREC
 70
     0
  9
$MENU
  1
.
  9
$ELEVATION
 40
0.0
  9
$PELEVATION
 40
0.0
  9
$THICKNESS
 40
0.0
  9
$LIMCHECK
 70
     0
  9
$CHAMFERA
 40
10.0
  9
$CHAMFERB
 40
10.0
  9
$CHAMFERC
 40
20.0
  9
$CHAMFERD
 40
0.0
  9
$SKPOLY
 70
     0
  9
$TDCREATE
 40
2455471.639863773
  9
$TDUCREATE
 40
2455471.55653044
  9
$TDUPDATE
 40
2455471.639863785
  9
$TDUUPDATE
 40
2455471.556530451
  9
$TDINDWG
 40
0.0000000116
  9
$TDUSRTIMER
 40
0.0000000116
  9
$USRTIMER
 70
     1
  9
$ANGBASE
 50
0.0
  9
$ANGDIR
 70
     0
  9
$PDMODE
 70
     0
  9
$PDSIZE
 40
0.0
  9
$PLINEWID
 40
0.0
  9
$SPLFRAME
 70
     0
  9
$SPLINETYPE
 70
     6
  9
$SPLINESEGS
 70
     8
  9
$HANDSEED
  5
1AE
  9
$SURFTAB1
 70
     6
  9
$SURFTAB2
 70
     6
  9
$SURFTYPE
 70
     6
  9
$SURFU
 70
     6
  9
$SURFV
 70
     6
  9
$UCSBASE
  2

  9
$UCSNAME
  2

  9
$UCSORG
 10
0.0
 20
0.0
 30
0.0
  9
$UCSXDIR
 10
1.0
 20
0.0
 30
0.0
  9
$UCSYDIR
 10
0.0
 20
1.0
 30
0.0
  9
$UCSORTHOREF
  2

  9
$UCSORTHOVIEW
 70
     0
  9
$UCSORGTOP
 10
0.0
 20
0.0
 30
0.0
  9
$UCSORGBOTTOM
 10
0.0
 20
0.0
 30
0.0
  9
$UCSORGLEFT
 10
0.0
 20
0.0
 30
0.0
  9
$UCSORGRIGHT
 10
0.0
 20
0.0
 30
0.0
  9
$UCSORGFRONT
 10
0.0
 20
0.0
 30
0.0
  9
$UCSORGBACK
 10
0.0
 20
0.0
 30
0.0
  9
$PUCSBASE
  2

  9
$PUCSNAME
  2

  9
$PUCSORG
 10
0.0
 20
0.0
 30
0.0
  9
$PUCSXDIR
 10
1.0
 20
0.0
 30
0.0
  9
$PUCSYDIR
 10
0.0
 20
1.0
 30
0.0
  9
$PUCSORTHOREF
  2

  9
$PUCSORTHOVIEW
 70
     0
  9
$PUCSORGTOP
 10
0.0
 20
0.0
 30
0.0
  9
$PUCSORGBOTTOM
 10
0.0
 20
0.0
 30
0.0
  9
$PUCSORGLEFT
 10
0.0
 20
0.0
 30
0.0
  9
$PUCSORGRIGHT
 10
0.0
 20
0.0
 30
0.0
  9
$PUCSORGFRONT
 10
0.0
 20
0.0
 30
0.0
  9
$PUCSORGBACK
 10
0.0
 20
0.0
 30
0.0
  9
$USERI1
 70
     0
  9
$USERI2
 70
     0
  9
$USERI3
 70
     0
  9
$USERI4
 70
     0
  9
$USERI5
 70
     0
  9
$USERR1
 40
0.0
  9
$USERR2
 40
0.0
  9
$USERR3
 40
0.0
  9
$USERR4
 40
0.0
  9
$USERR5
 40
0.0
  9
$WORLDVIEW
 70
     1
  9
$SHADEDGE
 70
     3
  9
$SHADEDIF
 70
    70
  9
$TILEMODE
 70
     1
  9
$MAXACTVP
 70
    64
  9
$PINSBASE
 10
0.0
 20
0.0
 30
0.0
  9
$PLIMCHECK
 70
     0
  9
$PEXTMIN
 10
0.0
 20
0.0
 30
0.0
  9
$PEXTMAX
 10
1682.0
 20
2378.0
 30
0.0
  9
$PLIMMIN
 10
0.0
 20
0.0
  9
$PLIMMAX
 10
1682.0
 20
2378.0
  9
$UNITMODE
 70
     0
  9
$VISRETAIN
 70
     1
  9
$PLINEGEN
 70
     0
  9
$PSLTSCALE
 70
     1
  9
$TREEDEPTH
 70
  3020
  9
$CMLSTYLE
  2
Standard
  9
$CMLJUST
 70
     0
  9
$CMLSCALE
 40
20.0
  9
$PROXYGRAPHICS
 70
     1
  9
$MEASUREMENT
 70
     1
  9
$CELWEIGHT
370
    -1
  9
$ENDCAPS
280
     0
  9
$JOINSTYLE
280
     0
  9
$LWDISPLAY
290
     0
  9
$INSUNITS
 70
     4
  9
$HYPERLINKBASE
  1

  9
$STYLESHEET
  1

  9
$XEDIT
290
     1
  9
$CEPSNTYPE
380
     0
  9
$PSTYLEMODE
290
     1
  9
$FINGERPRINTGUID
  2
{B1D5D550-9103-4BB0-9414-4DBA326B7E0A}
  9
$VERSIONGUID
  2
{FAEB1C32-E019-11D5-929B-00C0DF256EC4}
  9
$EXTNAMES
290
     1
  9
$PSVPSCALE
 40
0.0
  9
$OLESTARTUP
290
     0
  0
ENDSEC
  0
SECTION
  2
CLASSES
  0
CLASS
  1
ACDBDICTIONARYWDFLT
  2
AcDbDictionaryWithDefault
  3
ObjectDBX Classes
 90
        0
280
     0
281
     0
  0
CLASS
  1
VISUALSTYLE
  2
AcDbVisualStyle
  3
ObjectDBX Classes
 90
     4095
280
     0
281
     0
  0
CLASS
  1
SCALE
  2
AcDbScale
  3
ObjectDBX Classes
 90
     1153
280
     0
281
     0
  0
CLASS
  1
DICTIONARYVAR
  2
AcDbDictionaryVar
  3
ObjectDBX Classes
 90
        0
280
     0
281
     0
  0
CLASS
  1
ACDBPLACEHOLDER
  2
AcDbPlaceHolder
  3
ObjectDBX Classes
 90
        0
280
     0
281
     0
  0
CLASS
  1
LAYOUT
  2
AcDbLayout
  3
ObjectDBX Classes
 90
        0
280
     0
281
     0
  0
ENDSEC
  0
SECTION
  2
TABLES
  0
TABLE
  2
VPORT
  5
8
330
0
100
AcDbSymbolTable
 70
     1
  0
VPORT
  5
29
330
8
100
AcDbSymbolTableRecord
100
AcDbViewportTableRecord
  2
*Active
 70
     0
 10
0.0
 20
0.0
 11
1.0
 21
1.0
 12
344.1869158879
 22
148.5
 13
0.0
 23
0.0
 14
10.0
 24
10.0
 15
10.0
 25
10.0
 16
0.0
 26
0.0
 36
1.0
 17
0.0
 27
0.0
 37
0.0
 40
297.0
 41
1.9729729729
 42
50.0
 43
0.0
 44
0.0
 50
0.0
 51
0.0
 71
     0
 72
   100
 73
     1
 74
     3
 75
     0
 76
     0
 77
     0
 78
     0
281
     0
 65
     1
110
0.0
120
0.0
130
0.0
111
1.0
121
0.0
131
0.0
112
0.0
122
1.0
132
0.0
 79
     0
146
0.0
  0
ENDTAB
  0
TABLE
  2
LTYPE
  5
5
330
0
100
AcDbSymbolTable
 70
     2
  0
LTYPE
  5
14
330
5
100
AcDbSymbolTableRecord
100
AcDbLinetypeTableRecord
  2
ByBlock
 70
     0
  3

 72
    65
 73
     0
 40
0.0
  0
LTYPE
  5
15
330
5
100
AcDbSymbolTableRecord
100
AcDbLinetypeTableRecord
  2
ByLayer
 70
     0
  3

 72
    65
 73
     0
 40
0.0
  0
LTYPE
  5
16
330
5
100
AcDbSymbolTableRecord
100
AcDbLinetypeTableRecord
  2
Continuous
 70
     0
  3
Solid line
 72
    65
 73
     0
 40
0.0
  0
LTYPE
  5
60
330
5
100
AcDbSymbolTableRecord
100
AcDbLinetypeTableRecord
  2
CENTER2
 70
     0
  3
Center (.5x) ___ _ ___ _ ___ _ ___ _ ___ _ ___
 72
    65
 73
     4
 40
28.575
 49
19.05
 74
     4
 75
     0
340
0
 46
0.0
 50
0.0
 44
0.0
 45
0.0
 49
-3.175
 74
     4
 75
     0
340
0
 46
0.0
 50
0.0
 44
0.0
 45
0.0
 49
3.175
 74
     4
 75
     0
340
0
 46
0.0
 50
0.0
 44
0.0
 45
0.0
 49
-3.175
 74
     4
 75
     0
340
0
 46
0.0
 50
0.0
 44
0.0
 45
0.0
  0
ENDTAB
  0
TABLE
  2
LAYER
  5
2
330
0
100
AcDbSymbolTable
 70
    12
  0
LAYER
  5
10
330
2
100
AcDbSymbolTableRecord
100
AcDbLayerTableRecord
  2
0
 70
     0
 62
     7
  6
Continuous
370
    -3
390
F
  0
LAYER
  5
5D
330
2
100
AcDbSymbolTableRecord
100
AcDbLayerTableRecord
  2
Default
 70
     0
 62
     7
  6
Continuous
370
    -3
390
F
  0
LAYER
  5
97
330
2
100
AcDbSymbolTableRecord
100
AcDbLayerTableRecord
  2
$DDT_AUDIT_GENERATED_(97)
 70
     0
 62
     7
  6
Continuous
370
    -3
390
F
  0
LAYER
  5
9D
330
2
100
AcDbSymbolTableRecord
100
AcDbLayerTableRecord
  2
$DDT_AUDIT_GENERATED_(9D)
 70
     0
 62
     7
  6
Continuous
370
    -3
390
F
  0
LAYER
  5
A1
330
2
100
AcDbSymbolTableRecord
100
AcDbLayerTableRecord
  2
$DDT_AUDIT_GENERATED_(A1)
 70
     0
 62
     7
  6
Continuous
370
    -3
390
F
  0
LAYER
  5
B9
330
2
100
AcDbSymbolTableRecord
100
AcDbLayerTableRecord
  2
$DDT_AUDIT_GENERATED_(B9)
 70
     0
 62
     7
  6
Continuous
370
    -3
390
F
  0
LAYER
  5
CA
330
2
100
AcDbSymbolTableRecord
100
AcDbLayerTableRecord
  2
$DDT_AUDIT_GENERATED_(CA)
 70
     0
 62
     7
  6
Continuous
370
    -3
390
F
  0
LAYER
  5
D5
330
2
100
AcDbSymbolTableRecord
100
AcDbLayerTableRecord
  2
$DDT_AUDIT_GENERATED_(D5)
 70
     0
 62
     7
  6
Continuous
370
    -3
390
F
  0
LAYER
  5
DC
330
2
100
AcDbSymbolTableRecord
100
AcDbLayerTableRecord
  2
$DDT_AUDIT_GENERATED_(DC)
 70
     0
 62
     7
  6
Continuous
370
    -3
390
F
  0
LAYER
  5
F1
330
2
100
AcDbSymbolTableRecord
100
AcDbLayerTableRecord
  2
$DDT_AUDIT_GENERATED_(F1)
 70
     0
 62
     7
  6
Continuous
370
    -3
390
F
  0
LAYER
  5
122
330
2
100
AcDbSymbolTableRecord
100
AcDbLayerTableRecord
  2
$DDT_AUDIT_GENERATED_(122)
 70
     0
 62
     7
  6
Continuous
370
    -3
390
F
  0
LAYER
  5
129
330
2
100
AcDbSymbolTableRecord
100
AcDbLayerTableRecord
  2
$DDT_AUDIT_GENERATED_(129)
 70
     0
 62
     7
  6
Continuous
370
    -3
390
F
  0
ENDTAB
  0
TABLE
  2
STYLE
  5
3
330
0
100
AcDbSymbolTable
 70
     2
  0
STYLE
  5
11
330
3
100
AcDbSymbolTableRecord
100
AcDbTextStyleTableRecord
  2
Standard
 70
     0
 40
0.0
 41
1.0
 50
0.0
 71
     0
 42
2.5
  3
txt
  4

  0
STYLE
  5
19D
330
3
100
AcDbSymbolTableRecord
100
AcDbTextStyleTableRecord
  2
SEACAD_seiso_ttf
 70
     0
 40
0.0
 41
1.0
 50
0.0
 71
     0
 42
0.2
  3
seiso.ttf
  4

  0
ENDTAB
  0
TABLE
  2
VIEW
  5
6
330
0
100
AcDbSymbolTable
 70
     0
  0
ENDTAB
  0
TABLE
  2
UCS
  5
7
330
0
100
AcDbSymbolTable
 70
     0
  0
ENDTAB
  0
TABLE
  2
APPID
  5
9
330
0
100
AcDbSymbolTable
 70
     1
  0
APPID
  5
12
330
9
100
AcDbSymbolTableRecord
100
AcDbRegAppTableRecord
  2
ACAD
 70
     0
  0
ENDTAB
  0
TABLE
  2
DIMSTYLE
  5
A
330
0
100
AcDbSymbolTable
 70
     1
100
AcDbDimStyleTable
  0
DIMSTYLE
105
27
330
A
100
AcDbSymbolTableRecord
100
AcDbDimStyleTableRecord
  2
ISO-25
 70
     0
 41
2.5
 42
0.625
 43
3.75
 44
1.25
 73
     0
 74
     0
 77
     1
 78
     8
140
2.5
141
2.5
143
0.0393700787
147
0.625
171
     3
172
     1
271
     2
272
     2
274
     3
278
    44
283
     0
284
     8
340
11
  0
ENDTAB
  0
TABLE
  2
BLOCK_RECORD
  5
1
330
0
100
AcDbSymbolTable
 70
    11
  0
BLOCK_RECORD
  5
1F
330
1
100
AcDbSymbolTableRecord
100
AcDbBlockTableRecord
  2
*Model_Space
340
22
  0
BLOCK_RECORD
  5
1B
330
1
100
AcDbSymbolTableRecord
100
AcDbBlockTableRecord
  2
*Paper_Space
340
1E
  0
BLOCK_RECORD
  5
5E
330
1
100
AcDbSymbolTableRecord
100
AcDbBlockTableRecord
  2
SEANNOT_GROUP
340
0
102
{BLKREFS
331
5F
102
}
  0
BLOCK_RECORD
  5
69
330
1
100
AcDbSymbolTableRecord
100
AcDbBlockTableRecord
  2
SEANNOT_GROUP1
340
0
102
{BLKREFS
331
6A
102
}
  0
BLOCK_RECORD
  5
73
330
1
100
AcDbSymbolTableRecord
100
AcDbBlockTableRecord
  2
SEANNOT_GROUP2
340
0
102
{BLKREFS
331
74
102
}
  0
BLOCK_RECORD
  5
7D
330
1
100
AcDbSymbolTableRecord
100
AcDbBlockTableRecord
  2
SEANNOT_GROUP3
340
0
102
{BLKREFS
331
7E
102
}
  0
BLOCK_RECORD
  5
83
330
1
100
AcDbSymbolTableRecord
100
AcDbBlockTableRecord
  2
SEANNOT_GROUP4
340
0
102
{BLKREFS
331
84
102
}
  0
BLOCK_RECORD
  5
89
330
1
100
AcDbSymbolTableRecord
100
AcDbBlockTableRecord
  2
SEANNOT_GROUP5
340
0
102
{BLKREFS
331
8A
102
}
  0
BLOCK_RECORD
  5
8F
330
1
100
AcDbSymbolTableRecord
100
AcDbBlockTableRecord
  2
SEANNOT_GROUP6
340
0
102
{BLKREFS
331
90
102
}
  0
BLOCK_RECORD
  5
95
330
1
100
AcDbSymbolTableRecord
100
AcDbBlockTableRecord
  2
SE
340
0
102
{BLKREFS
331
96
102
}
  0
BLOCK_RECORD
  5
10B
330
1
100
AcDbSymbolTableRecord
100
AcDbBlockTableRecord
  2
SE1
340
0
102
{BLKREFS
331
10C
102
}
  0
BLOCK_RECORD
  5
160
330
1
100
AcDbSymbolTableRecord
100
AcDbBlockTableRecord
  2
SE2
340
0
102
{BLKREFS
331
161
102
}
  0
ENDTAB
  0
ENDSEC
  0
SECTION
  2
BLOCKS
  0
BLOCK
  5
20
330
1F
100
AcDbEntity
  8
0
100
AcDbBlockBegin
  2
*Model_Space
 70
     0
 10
0.0
 20
0.0
 30
0.0
  3
*Model_Space
  1

  0
ENDBLK
  5
21
330
1F
100
AcDbEntity
  8
0
100
AcDbBlockEnd
  0
BLOCK
  5
1C
330
1B
100
AcDbEntity
 67
     1
  8
0
100
AcDbBlockBegin
  2
*Paper_Space
 70
     0
 10
0.0
 20
0.0
 30
0.0
  3
*Paper_Space
  1

  0
ENDBLK
  5
1D
330
1B
100
AcDbEntity
 67
     1
  8
0
100
AcDbBlockEnd
  0
BLOCK
  5
67
330
5E
100
AcDbEntity
  8
0
100
AcDbBlockBegin
  2
SEANNOT_GROUP
 70
     0
 10
0.0
 20
0.0
 30
0.0
  3
SEANNOT_GROUP
  1

  0
LINE
  5
61
330
5E
100
AcDbEntity
  8
Default
  6
CENTER2
 62
     7
100
AcDbLine
 10
200.756687856
 20
400.9770550791
 30
0.0
 11
160.75668875
 21
400.9770550791
 31
0.0
  0
LINE
  5
62
330
5E
100
AcDbEntity
  8
Default
  6
CENTER2
 62
     7
100
AcDbLine
 10
180.756688303
 20
420.9770546321
 30
0.0
 11
180.756688303
 21
380.9770555262
 31
0.0
  0
LINE
  5
63
330
5E
100
AcDbEntity
  8
Default
  6
CENTER2
 62
     7
100
AcDbLine
 10
205.7566877442
 20
400.9770550791
 30
0.0
 11
210.456688303
 21
400.9770550791
 31
0.0
  0
LINE
  5
64
330
5E
100
AcDbEntity
  8
Default
  6
CENTER2
 62
     7
100
AcDbLine
 10
180.756688303
 20
425.9770545203
 30
0.0
 11
180.756688303
 21
430.6770550791
 31
0.0
  0
LINE
  5
65
330
5E
100
AcDbEntity
  8
Default
  6
CENTER2
 62
     7
100
AcDbLine
 10
155.7566888618
 20
400.9770550791
 30
0.0
 11
151.056688303
 21
400.9770550791
 31
0.0
  0
LINE
  5
66
330
5E
100
AcDbEntity
  8
Default
  6
CENTER2
 62
     7
100
AcDbLine
 10
180.756688303
 20
375.9770556379
 30
0.0
 11
180.756688303
 21
371.2770550791
 31
0.0
  0
ENDBLK
  5
68
330
5E
100
AcDbEntity
  8
0
100
AcDbBlockEnd
  0
BLOCK
  5
71
330
69
100
AcDbEntity
  8
0
100
AcDbBlockBegin
  2
SEANNOT_GROUP1
 70
     0
 10
0.0
 20
0.0
 30
0.0
  3
SEANNOT_GROUP1
  1

  0
LINE
  5
6B
330
69
100
AcDbEntity
  8
Default
  6
CENTER2
 62
     7
100
AcDbLine
 10
300.7566856867
 20
400.9770550791
 30
0.0
 11
260.7566865808
 21
400.9770550791
 31
0.0
  0
LINE
  5
6C
330
69
100
AcDbEntity
  8
Default
  6
CENTER2
 62
     7
100
AcDbLine
 10
280.7566861338
 20
420.9770546321
 30
0.0
 11
280.7566861338
 21
380.9770555262
 31
0.0
  0
LINE
  5
6D
330
69
100
AcDbEntity
  8
Default
  6
CENTER2
 62
     7
100
AcDbLine
 10
305.756685575
 20
400.9770550791
 30
0.0
 11
310.4566861338
 21
400.9770550791
 31
0.0
  0
LINE
  5
6E
330
69
100
AcDbEntity
  8
Default
  6
CENTER2
 62
     7
100
AcDbLine
 10
280.7566861338
 20
425.9770545203
 30
0.0
 11
280.7566861338
 21
430.6770550791
 31
0.0
  0
LINE
  5
6F
330
69
100
AcDbEntity
  8
Default
  6
CENTER2
 62
     7
100
AcDbLine
 10
255.7566866926
 20
400.9770550791
 30
0.0
 11
251.0566861338
 21
400.9770550791
 31
0.0
  0
LINE
  5
70
330
69
100
AcDbEntity
  8
Default
  6
CENTER2
 62
     7
100
AcDbLine
 10
280.7566861338
 20
375.9770556379
 30
0.0
 11
280.7566861338
 21
371.2770550791
 31
0.0
  0
ENDBLK
  5
72
330
69
100
AcDbEntity
  8
0
100
AcDbBlockEnd
  0
BLOCK
  5
7B
330
73
100
AcDbEntity
  8
0
100
AcDbBlockBegin
  2
SEANNOT_GROUP2
 70
     0
 10
0.0
 20
0.0
 30
0.0
  3
SEANNOT_GROUP2
  1

  0
LINE
  5
75
330
73
100
AcDbEntity
  8
Default
  6
CENTER2
 62
     7
100
AcDbLine
 10
400.756687856
 20
400.9770550791
 30
0.0
 11
360.75668875
 21
400.9770550791
 31
0.0
  0
LINE
  5
76
330
73
100
AcDbEntity
  8
Default
  6
CENTER2
 62
     7
100
AcDbLine
 10
380.756688303
 20
420.9770546321
 30
0.0
 11
380.756688303
 21
380.9770555262
 31
0.0
  0
LINE
  5
77
330
73
100
AcDbEntity
  8
Default
  6
CENTER2
 62
     7
100
AcDbLine
 10
405.7566877442
 20
400.9770550791
 30
0.0
 11
410.456688303
 21
400.9770550791
 31
0.0
  0
LINE
  5
78
330
73
100
AcDbEntity
  8
Default
  6
CENTER2
 62
     7
100
AcDbLine
 10
380.756688303
 20
425.9770545203
 30
0.0
 11
380.756688303
 21
430.6770550791
 31
0.0
  0
LINE
  5
79
330
73
100
AcDbEntity
  8
Default
  6
CENTER2
 62
     7
100
AcDbLine
 10
355.7566888618
 20
400.9770550791
 30
0.0
 11
351.056688303
 21
400.9770550791
 31
0.0
  0
LINE
  5
7A
330
73
100
AcDbEntity
  8
Default
  6
CENTER2
 62
     7
100
AcDbLine
 10
380.756688303
 20
375.9770556379
 30
0.0
 11
380.756688303
 21
371.2770550791
 31
0.0
  0
ENDBLK
  5
7C
330
73
100
AcDbEntity
  8
0
100
AcDbBlockEnd
  0
BLOCK
  5
81
330
7D
100
AcDbEntity
  8
0
100
AcDbBlockBegin
  2
SEANNOT_GROUP3
 70
     0
 10
0.0
 20
0.0
 30
0.0
  3
SEANNOT_GROUP3
  1

  0
LINE
  5
7F
330
7D
100
AcDbEntity
  8
Default
  6
CENTER2
 62
     7
100
AcDbLine
 10
200.756687856
 20
737.4836214913
 30
0.0
 11
160.75668875
 21
737.4836214913
 31
0.0
  0
LINE
  5
80
330
7D
100
AcDbEntity
  8
Default
  6
CENTER2
 62
     7
100
AcDbLine
 10
180.756688303
 20
757.4836210443
 30
0.0
 11
180.756688303
 21
717.4836219383
 31
0.0
  0
ENDBLK
  5
82
330
7D
100
AcDbEntity
  8
0
100
AcDbBlockEnd
  0
BLOCK
  5
87
330
83
100
AcDbEntity
  8
0
100
AcDbBlockBegin
  2
SEANNOT_GROUP4
 70
     0
 10
0.0
 20
0.0
 30
0.0
  3
SEANNOT_GROUP4
  1

  0
LINE
  5
85
330
83
100
AcDbEntity
  8
Default
  6
CENTER2
 62
     7
100
AcDbLine
 10
300.7566856867
 20
737.4836214913
 30
0.0
 11
260.7566865808
 21
737.4836214913
 31
0.0
  0
LINE
  5
86
330
83
100
AcDbEntity
  8
Default
  6
CENTER2
 62
     7
100
AcDbLine
 10
280.7566861338
 20
757.4836210443
 30
0.0
 11
280.7566861338
 21
717.4836219383
 31
0.0
  0
ENDBLK
  5
88
330
83
100
AcDbEntity
  8
0
100
AcDbBlockEnd
  0
BLOCK
  5
8D
330
89
100
AcDbEntity
  8
0
100
AcDbBlockBegin
  2
SEANNOT_GROUP5
 70
     0
 10
0.0
 20
0.0
 30
0.0
  3
SEANNOT_GROUP5
  1

  0
LINE
  5
8B
330
89
100
AcDbEntity
  8
Default
  6
CENTER2
 62
     7
100
AcDbLine
 10
400.756687856
 20
737.4836214913
 30
0.0
 11
360.75668875
 21
737.4836214913
 31
0.0
  0
LINE
  5
8C
330
89
100
AcDbEntity
  8
Default
  6
CENTER2
 62
     7
100
AcDbLine
 10
380.756688303
 20
757.4836210443
 30
0.0
 11
380.756688303
 21
717.4836219383
 31
0.0
  0
ENDBLK
  5
8E
330
89
100
AcDbEntity
  8
0
100
AcDbBlockEnd
  0
BLOCK
  5
93
330
8F
100
AcDbEntity
  8
0
100
AcDbBlockBegin
  2
SEANNOT_GROUP6
 70
     0
 10
0.0
 20
0.0
 30
0.0
  3
SEANNOT_GROUP6
  1

  0
LINE
  5
91
330
8F
100
AcDbEntity
  8
Default
  6
CENTER2
 62
     7
100
AcDbLine
 10
737.9215210909
 20
737.4836214913
 30
0.0
 11
697.9215219849
 21
737.4836214913
 31
0.0
  0
LINE
  5
92
330
8F
100
AcDbEntity
  8
Default
  6
CENTER2
 62
     7
100
AcDbLine
 10
717.9215215379
 20
757.4836210443
 30
0.0
 11
717.9215215379
 21
717.4836219383
 31
0.0
  0
ENDBLK
  5
94
330
8F
100
AcDbEntity
  8
0
100
AcDbBlockEnd
  0
BLOCK
  5
109
330
95
100
AcDbEntity
  8
0
100
AcDbBlockBegin
  2
SE
 70
     0
 10
0.0
 20
0.0
 30
0.0
  3
SE
  1

  0
LINE
  5
98
330
95
100
AcDbEntity
  8
$DDT_AUDIT_GENERATED_(97)
  6
Continuous
 62
     7
100
AcDbLine
 10
254.8566861338
 20
747.8836214913
 30
0.0
 11
306.6566861338
 21
747.8836214913
 31
0.0
  0
LINE
  5
99
330
95
100
AcDbEntity
  8
$DDT_AUDIT_GENERATED_(97)
  6
Continuous
 62
     7
100
AcDbLine
 10
254.5566861338
 20
747.5836214913
 30
0.0
 11
254.5566861338
 21
747.4836214913
 31
0.0
  0
LINE
  5
9A
330
95
100
AcDbEntity
  8
$DDT_AUDIT_GENERATED_(97)
  6
Continuous
 62
     7
100
AcDbLine
 10
306.9566861338
 20
747.4836214913
 30
0.0
 11
306.9566861338
 21
747.5836214913
 31
0.0
  0
ARC
  5
9B
330
95
100
AcDbEntity
  8
$DDT_AUDIT_GENERATED_(97)
  6
Continuous
 62
     7
100
AcDbCircle
 10
306.6566861338
 20
747.5836214913
 30
0.0
 40
0.2999999999999947
100
AcDbArc
 50
0.0
 51
90.0
  0
ARC
  5
9C
330
95
100
AcDbEntity
  8
$DDT_AUDIT_GENERATED_(97)
  6
Continuous
 62
     7
100
AcDbCircle
 10
254.8566861338
 20
747.5836214913
 30
0.0
 40
0.3000000000000086
100
AcDbArc
 50
90.0
 51
180.0
  0
LINE
  5
9E
330
95
100
AcDbEntity
  8
$DDT_AUDIT_GENERATED_(9D)
  6
Continuous
 62
     7
100
AcDbLine
 10
354.556688303
 20
747.7836214913
 30
0.0
 11
406.956688303
 21
747.7836214913
 31
0.0
  0
LINE
  5
9F
330
95
100
AcDbEntity
  8
$DDT_AUDIT_GENERATED_(9D)
  6
Continuous
 62
     7
100
AcDbLine
 10
354.556688303
 20
747.7836214913
 30
0.0
 11
354.556688303
 21
747.4836214913
 31
0.0
  0
LINE
  5
A0
330
95
100
AcDbEntity
  8
$DDT_AUDIT_GENERATED_(9D)
  6
Continuous
 62
     7
100
AcDbLine
 10
406.956688303
 20
747.4836214913
 30
0.0
 11
406.956688303
 21
747.7836214913
 31
0.0
  0
LINE
  5
A2
330
95
100
AcDbEntity
  8
$DDT_AUDIT_GENERATED_(A1)
  6
Continuous
 62
     7
100
AcDbLine
 10
265.7566861338
 20
747.8836214913
 30
0.0
 11
265.7566861338
 21
927.1811610393
 31
0.0
  0
LINE
  5
A3
330
95
100
AcDbEntity
  8
$DDT_AUDIT_GENERATED_(A1)
  6
Continuous
 62
     7
100
AcDbLine
 10
295.7566861338
 20
968.8836214913
 30
0.0
 11
295.7566861338
 21
933.2826954584
 31
0.0
  0
LINE
  5
A4
330
95
100
AcDbEntity
  8
$DDT_AUDIT_GENERATED_(A1)
  6
Continuous
 62
     7
100
AcDbLine
 10
295.7566861338
 20
933.2826954584
 30
0.0
 11
295.7566861338
 21
928.4013414378
 31
0.0
  0
LINE
  5
A5
330
95
100
AcDbEntity
  8
$DDT_AUDIT_GENERATED_(A1)
  6
Continuous
 62
     7
100
AcDbLine
 10
295.7566861338
 20
747.8836214913
 30
0.0
 11
295.7566861338
 21
927.1811610393
 31
0.0
  0
ARC
  5
A6
330
95
100
AcDbEntity
  8
$DDT_AUDIT_GENERATED_(A1)
  6
Continuous
 62
     7
100
AcDbCircle
 10
266.2566861338
 20
968.8836214913
 30
0.0
 40
0.5000000000000004
100
AcDbArc
 50
90.0
 51
180.0
  0
LINE
  5
A7
330
95
100
AcDbEntity
  8
$DDT_AUDIT_GENERATED_(A1)
  6
Continuous
 62
     7
100
AcDbLine
 10
266.2566861338
 20
969.3836214913
 30
0.0
 11
295.2566861338
 21
969.3836214913
 31
0.0
  0
ARC
  5
A8
330
95
100
AcDbEntity
  8
$DDT_AUDIT_GENERATED_(A1)
  6
Continuous
 62
     7
100
AcDbCircle
 10
295.2566861338
 20
968.8836214913
 30
0.0
 40
0.4999999999999449
100
AcDbArc
 50
0.0
 51
90.0
  0
LINE
  5
A9
330
95
100
AcDbEntity
  8
$DDT_AUDIT_GENERATED_(A1)
  6
Continuous
 62
     7
100
AcDbLine
 10
265.7566861338
 20
968.8836214913
 30
0.0
 11
265.7566861338
 21
933.2826954584
 31
0.0
  0
LINE
  5
AA
330
95
100
AcDbEntity
  8
$DDT_AUDIT_GENERATED_(A1)
  6
Continuous
 62
     7
100
AcDbLine
 10
265.7566861338
 20
933.2826954584
 30
0.0
 11
265.7566861338
 21
928.4013414378
 31
0.0
  0
LINE
  5
AB
330
95
100
AcDbEntity
  8
$DDT_AUDIT_GENERATED_(A1)
  6
Continuous
 62
     7
100
AcDbLine
 10
295.7566861338
 20
928.4013414378
 30
0.0
 11
295.7566861338
 21
927.1811610393
 31
0.0
  0
LINE
  5
AC
330
95
100
AcDbEntity
  8
$DDT_AUDIT_GENERATED_(A1)
  6
Continuous
 62
     7
100
AcDbLine
 10
265.7566861338
 20
927.1811610393
 30
0.0
 11
265.7566861338
 21
928.4013414378
 31
0.0
  0
ELLIPSE
  5
AD
330
95
100
AcDbEntity
  8
$DDT_AUDIT_GENERATED_(A1)
  6
Continuous
 62
     7
100
AcDbEllipse
 10
271.5066861338
 20
927.4238875036
 30
0.0
 11
-3.599999999999992
 21
0.0
 31
0.0
210
0.0
220
0.0
230
1.0
 40
0.0871557427
 41
4.71238898038469
 42
5.289470613700668
  0
ELLIPSE
  5
AE
330
95
100
AcDbEntity
  8
$DDT_AUDIT_GENERATED_(A1)
  6
Continuous
 62
     7
100
AcDbEllipse
 10
290.0066861338
 20
927.4238875036
 30
0.0
 11
-3.600000000000006
 21
0.0
 31
0.0
210
0.0
220
0.0
230
1.0
 40
0.0871557427
 41
4.062363017071032
 42
4.71238898038469
  0
LINE
  5
AF
330
95
100
AcDbEntity
  8
$DDT_AUDIT_GENERATED_(A1)
  6
Continuous
 62
     7
100
AcDbLine
 10
271.5066861338
 20
927.7353649964
 30
0.0
 11
271.5066861338
 21
927.7376481775
 31
0.0
  0
ARC
  5
B0
330
95
100
AcDbEntity
  8
$DDT_AUDIT_GENERATED_(A1)
  6
Continuous
 62
     7
100
AcDbCircle
 10
295.2566861338
 20
927.1811610393
 30
0.0
 40
0.500000000000056
100
AcDbArc
 50
270.0
 51
0.0
  0
ARC
  5
B1
330
95
100
AcDbEntity
  8
$DDT_AUDIT_GENERATED_(A1)
  6
Continuous
 62
     7
100
AcDbCircle
 10
266.2566861338
 20
927.1811610393
 30
0.0
 40
0.5000000000000004
100
AcDbArc
 50
180.0
 51
270.0
  0
LINE
  5
B2
330
95
100
AcDbEntity
  8
$DDT_AUDIT_GENERATED_(A1)
  6
Continuous
 62
     7
100
AcDbLine
 10
266.2566861338
 20
926.6811610393
 30
0.0
 11
295.2566861338
 21
926.6811610393
 31
0.0
  0
SPLINE
  5
B3
330
95
100
AcDbEntity
  8
$DDT_AUDIT_GENERATED_(A1)
  6
Continuous
 62
     7
100
AcDbSpline
210
0.0
220
0.0
230
1.0
 70
     8
 71
     3
 72
    12
 73
     8
 74
     0
 42
0.0000000051463988
 43
0.0000000001
 40
0.288849835106963
 40
0.288849835106963
 40
0.288849835106963
 40
0.288849835106963
 40
0.3069121919421296
 40
0.414607519642671
 40
0.5836804080377488
 40
0.7920225323635034
 40
1.0
 40
1.0
 40
1.0
 40
1.0
 10
268.2107715594895
 20
927.5307681205434
 30
0.0
 10
268.2107788798087
 20
927.5307885046246
 30
0.0
 10
268.2148485890581
 20
927.5324604426942
 30
0.0
 10
268.2818726521154
 20
927.5522508860682
 30
0.0
 10
268.5194215627967
 20
927.5948642126816
 30
0.0
 10
268.9615729580976
 20
927.6456221077989
 30
0.0
 10
269.3501243342357
 20
927.6704676754515
 30
0.0
 10
269.5814705292489
 20
927.6848547943608
 30
0.0
  0
LINE
  5
B4
330
95
100
AcDbEntity
  8
$DDT_AUDIT_GENERATED_(A1)
  6
Continuous
 62
     7
100
AcDbLine
 10
271.5066861338
 20
927.7353649964
 30
0.0
 11
290.0066861338
 21
927.7353649964
 31
0.0
  0
SPLINE
  5
B5
330
95
100
AcDbEntity
  8
$DDT_AUDIT_GENERATED_(A1)
  6
Continuous
 62
     7
100
AcDbSpline
210
0.0
220
0.0
230
1.0
 70
     8
 71
     3
 72
    11
 73
     7
 74
     0
 42
0.0000000059089911
 43
0.0000000001
 40
0.0
 40
0.0
 40
0.0
 40
0.0
 40
0.2524213961723959
 40
0.4744923996107835
 40
0.6426438376407927
 40
0.6898674365318965
 40
0.6898674365318965
 40
0.6898674365318965
 40
0.6898674365318965
 10
292.1462771391951
 20
927.6724526640792
 30
0.0
 10
292.3883847708919
 20
927.65415603459
 30
0.0
 10
292.7678327736305
 20
927.6248120758435
 30
0.0
 10
293.1476789132129
 20
927.5705687936463
 30
0.0
 10
293.2866059211221
 20
927.5371472129424
 30
0.0
 10
293.3027815988266
 20
927.5305015591646
 30
0.0
 10
293.3028059156439
 20
927.5304825273869
 30
0.0
  0
LINE
  5
B6
330
95
100
AcDbEntity
  8
$DDT_AUDIT_GENERATED_(9D)
  6
Continuous
 62
     7
100
AcDbLine
 10
154.556688303
 20
747.7836214913
 30
0.0
 11
206.956688303
 21
747.7836214913
 31
0.0
  0
LINE
  5
B7
330
95
100
AcDbEntity
  8
$DDT_AUDIT_GENERATED_(9D)
  6
Continuous
 62
     7
100
AcDbLine
 10
154.556688303
 20
747.7836214913
 30
0.0
 11
154.556688303
 21
747.4836214913
 31
0.0
  0
LINE
  5
B8
330
95
100
AcDbEntity
  8
$DDT_AUDIT_GENERATED_(9D)
  6
Continuous
 62
     7
100
AcDbLine
 10
206.956688303
 20
747.4836214913
 30
0.0
 11
206.956688303
 21
747.7836214913
 31
0.0
  0
LINE
  5
BA
330
95
100
AcDbEntity
  8
$DDT_AUDIT_GENERATED_(B9)
  6
Continuous
 62
     7
100
AcDbLine
 10
443.630113303
 20
765.6431214913
 30
0.0
 11
398.1263740802
 21
765.6431214913
 31
0.0
  0
LINE
  5
BB
330
95
100
AcDbEntity
  8
$DDT_AUDIT_GENERATED_(B9)
  6
Continuous
 62
     7
100
AcDbLine
 10
398.1263740802
 20
771.0458714913
 30
0.0
 11
443.630113303
 21
771.0458714913
 31
0.0
  0
LINE
  5
BC
330
95
100
AcDbEntity
  8
$DDT_AUDIT_GENERATED_(B9)
  6
Continuous
 62
     7
100
AcDbLine
 10
444.330113303
 20
770.3458714913
 30
0.0
 11
444.330113303
 21
766.3431214913
 31
0.0
  0
ARC
  5
BD
330
95
100
AcDbEntity
  8
$DDT_AUDIT_GENERATED_(B9)
  6
Continuous
 62
     7
100
AcDbCircle
 10
443.630113303
 20
770.3458714913
 30
0.0
 40
0.7000000000000062
100
AcDbArc
 50
0.0
 51
90.0
  0
ARC
  5
BE
330
95
100
AcDbEntity
  8
$DDT_AUDIT_GENERATED_(B9)
  6
Continuous
 62
     7
100
AcDbCircle
 10
443.630113303
 20
766.3431214913
 30
0.0
 40
0.6999999999999923
100
AcDbArc
 50
270.0
 51
0.0
  0
LINE
  5
BF
330
95
100
AcDbEntity
  8
$DDT_AUDIT_GENERATED_(B9)
  6
Continuous
 62
     7
100
AcDbLine
 10
363.446688303
 20
774.6478714913
 30
0.0
 11
398.066688303
 21
774.6478714913
 31
0.0
  0
LINE
  5
C0
330
95
100
AcDbEntity
  8
$DDT_AUDIT_GENERATED_(B9)
  6
Continuous
 62
     7
100
AcDbLine
 10
398.466688303
 20
748.6336214913
 30
0.0
 11
363.046688303
 21
748.6336214913
 31
0.0
  0
LINE
  5
C1
330
95
100
AcDbEntity
  8
$DDT_AUDIT_GENERATED_(B9)
  6
Continuous
 62
     7
100
AcDbLine
 10
398.766688303
 20
771.7458714913
 30
0.0
 11
398.766688303
 21
773.9478714913
 31
0.0
  0
LINE
  5
C2
330
95
100
AcDbEntity
  8
$DDT_AUDIT_GENERATED_(B9)
  6
Continuous
 62
     7
100
AcDbLine
 10
398.766688303
 20
748.9336214913
 30
0.0
 11
398.766688303
 21
764.9431214913
 31
0.0
  0
LINE
  5
C3
330
95
100
AcDbEntity
  8
$DDT_AUDIT_GENERATED_(B9)
  6
Continuous
 62
     7
100
AcDbLine
 10
362.746688303
 20
773.9478714913
 30
0.0
 11
362.746688303
 21
748.9336214913
 31
0.0
  0
ARC
  5
C4
330
95
100
AcDbEntity
  8
$DDT_AUDIT_GENERATED_(B9)
  6
Continuous
 62
     7
100
AcDbCircle
 10
399.466688303
 20
771.7458714913
 30
0.0
 40
0.7000000000000062
100
AcDbArc
 50
180.0
 51
270.0
  0
ARC
  5
C5
330
95
100
AcDbEntity
  8
$DDT_AUDIT_GENERATED_(B9)
  6
Continuous
 62
     7
100
AcDbCircle
 10
399.466688303
 20
764.9431214913
 30
0.0
 40
0.6999999999999993
100
AcDbArc
 50
90.0
 51
180.0
  0
ARC
  5
C6
330
95
100
AcDbEntity
  8
$DDT_AUDIT_GENERATED_(B9)
  6
Continuous
 62
     7
100
AcDbCircle
 10
398.066688303
 20
773.9478714913
 30
0.0
 40
0.6999999999999993
100
AcDbArc
 50
0.0
 51
90.0
  0
ARC
  5
C7
330
95
100
AcDbEntity
  8
$DDT_AUDIT_GENERATED_(B9)
  6
Continuous
 62
     7
100
AcDbCircle
 10
363.446688303
 20
773.9478714913
 30
0.0
 40
0.6999999999999923
100
AcDbArc
 50
90.0
 51
180.0
  0
ARC
  5
C8
330
95
100
AcDbEntity
  8
$DDT_AUDIT_GENERATED_(B9)
  6
Continuous
 62
     7
100
AcDbCircle
 10
363.046688303
 20
748.9336214913
 30
0.0
 40
0.3000000000000017
100
AcDbArc
 50
180.0
 51
270.0
  0
ARC
  5
C9
330
95
100
AcDbEntity
  8
$DDT_AUDIT_GENERATED_(B9)
  6
Continuous
 62
     7
100
AcDbCircle
 10
398.466688303
 20
748.9336214913
 30
0.0
 40
0.2999999999999947
100
AcDbArc
 50
270.0
 51
0.0
  0
LINE
  5
CB
330
95
100
AcDbEntity
  8
$DDT_AUDIT_GENERATED_(CA)
  6
Continuous
 62
     7
100
AcDbLine
 10
347.356688303
 20
737.4836214913
 30
0.0
 11
414.156688303
 21
737.4836214913
 31
0.0
  0
LINE
  5
CC
330
95
100
AcDbEntity
  8
$DDT_AUDIT_GENERATED_(CA)
  6
Continuous
 62
     7
100
AcDbLine
 10
347.356688303
 20
737.4836214913
 30
0.0
 11
345.756688303
 21
737.4836214913
 31
0.0
  0
LINE
  5
CD
330
95
100
AcDbEntity
  8
$DDT_AUDIT_GENERATED_(CA)
  6
Continuous
 62
     7
100
AcDbLine
 10
345.756688303
 20
737.4836214913
 30
0.0
 11
345.756688303
 21
746.2836214913
 31
0.0
  0
LINE
  5
CE
330
95
100
AcDbEntity
  8
$DDT_AUDIT_GENERATED_(CA)
  6
Continuous
 62
     7
100
AcDbLine
 10
415.756688303
 20
737.4836214913
 30
0.0
 11
414.156688303
 21
737.4836214913
 31
0.0
  0
LINE
  5
CF
330
95
100
AcDbEntity
  8
$DDT_AUDIT_GENERATED_(CA)
  6
Continuous
 62
     7
100
AcDbLine
 10
346.956688303
 20
747.4836214913
 30
0.0
 11
347.356688303
 21
747.4836214913
 31
0.0
  0
LINE
  5
D0
330
95
100
AcDbEntity
  8
$DDT_AUDIT_GENERATED_(CA)
  6
Continuous
 62
     7
100
AcDbLine
 10
347.356688303
 20
747.4836214913
 30
0.0
 11
414.156688303
 21
747.4836214913
 31
0.0
  0
LINE
  5
D1
330
95
100
AcDbEntity
  8
$DDT_AUDIT_GENERATED_(CA)
  6
Continuous
 62
     7
100
AcDbLine
 10
414.156688303
 20
747.4836214913
 30
0.0
 11
414.556688303
 21
747.4836214913
 31
0.0
  0
LINE
  5
D2
330
95
100
AcDbEntity
  8
$DDT_AUDIT_GENERATED_(CA)
  6
Continuous
 62
     7
100
AcDbLine
 10
415.756688303
 20
746.2836214913
 30
0.0
 11
415.756688303
 21
737.4836214913
 31
0.0
  0
ARC
  5
D3
330
95
100
AcDbEntity
  8
$DDT_AUDIT_GENERATED_(CA)
  6
Continuous
 62
     7
100
AcDbCircle
 10
346.956688303
 20
746.2836214913
 30
0.0
 40
1.200000000000007
100
AcDbArc
 50
90.0
 51
180.0
  0
ARC
  5
D4
330
95
100
AcDbEntity
  8
$DDT_AUDIT_GENERATED_(CA)
  6
Continuous
 62
     7
100
AcDbCircle
 10
414.556688303
 20
746.2836214913
 30
0.0
 40
1.200000000000007
100
AcDbArc
 50
0.0
 51
90.0
  0
LINE
  5
D6
330
95
100
AcDbEntity
  8
$DDT_AUDIT_GENERATED_(D5)
  6
Continuous
 62
     7
100
AcDbLine
 10
391.9674833661
 20
747.7836214913
 30
0.0
 11
391.9674833661
 21
748.6336214913
 31
0.0
  0
LINE
  5
D7
330
95
100
AcDbEntity
  8
$DDT_AUDIT_GENERATED_(D5)
  6
Continuous
 62
     7
100
AcDbLine
 10
376.9674833661
 20
747.7836214913
 30
0.0
 11
376.9674833661
 21
748.6336214913
 31
0.0
  0
LINE
  5
D8
330
95
100
AcDbEntity
  8
$DDT_AUDIT_GENERATED_(D5)
  6
Continuous
 62
     7
100
AcDbLine
 10
365.756688303
 20
747.7836214913
 30
0.0
 11
365.756688303
 21
748.6336214913
 31
0.0
  0
LINE
  5
D9
330
95
100
AcDbEntity
  8
$DDT_AUDIT_GENERATED_(D5)
  6
Continuous
 62
     7
100
AcDbLine
 10
395.756688303
 20
748.6336214913
 30
0.0
 11
395.756688303
 21
747.7836214913
 31
0.0
  0
LINE
  5
DA
330
95
100
AcDbEntity
  8
$DDT_AUDIT_GENERATED_(D5)
  6
Continuous
 62
     7
100
AcDbLine
 10
384.5458932399
 20
748.6336214913
 30
0.0
 11
384.5458932399
 21
747.7836214913
 31
0.0
  0
LINE
  5
DB
330
95
100
AcDbEntity
  8
$DDT_AUDIT_GENERATED_(D5)
  6
Continuous
 62
     7
100
AcDbLine
 10
369.5458932399
 20
748.6336214913
 30
0.0
 11
369.5458932399
 21
747.7836214913
 31
0.0
  0
LINE
  5
DD
330
95
100
AcDbEntity
  8
$DDT_AUDIT_GENERATED_(DC)
  6
Continuous
 62
     7
100
AcDbLine
 10
315.7566861338
 20
737.4836214913
 30
0.0
 11
314.1566861338
 21
737.4836214913
 31
0.0
  0
LINE
  5
DE
330
95
100
AcDbEntity
  8
$DDT_AUDIT_GENERATED_(DC)
  6
Continuous
 62
     7
100
AcDbLine
 10
247.3566861338
 20
737.4836214913
 30
0.0
 11
314.1566861338
 21
737.4836214913
 31
0.0
  0
LINE
  5
DF
330
95
100
AcDbEntity
  8
$DDT_AUDIT_GENERATED_(DC)
  6
Continuous
 62
     7
100
AcDbLine
 10
247.3566861338
 20
737.4836214913
 30
0.0
 11
245.7566861338
 21
737.4836214913
 31
0.0
  0
LINE
  5
E0
330
95
100
AcDbEntity
  8
$DDT_AUDIT_GENERATED_(DC)
  6
Continuous
 62
     7
100
AcDbLine
 10
245.7566861338
 20
737.4836214913
 30
0.0
 11
245.7566861338
 21
746.2836214913
 31
0.0
  0
LINE
  5
E1
330
95
100
AcDbEntity
  8
$DDT_AUDIT_GENERATED_(DC)
  6
Continuous
 62
     7
100
AcDbLine
 10
314.1566861338
 20
747.4836214913
 30
0.0
 11
314.5566861338
 21
747.4836214913
 31
0.0
  0
LINE
  5
E2
330
95
100
AcDbEntity
  8
$DDT_AUDIT_GENERATED_(DC)
  6
Continuous
 62
     7
100
AcDbLine
 10
247.3566861338
 20
747.4836214913
 30
0.0
 11
314.1566861338
 21
747.4836214913
 31
0.0
  0
LINE
  5
E3
330
95
100
AcDbEntity
  8
$DDT_AUDIT_GENERATED_(DC)
  6
Continuous
 62
     7
100
AcDbLine
 10
246.9566861338
 20
747.4836214913
 30
0.0
 11
247.3566861338
 21
747.4836214913
 31
0.0
  0
LINE
  5
E4
330
95
100
AcDbEntity
  8
$DDT_AUDIT_GENERATED_(DC)
  6
Continuous
 62
     7
100
AcDbLine
 10
315.7566861338
 20
746.2836214913
 30
0.0
 11
315.7566861338
 21
737.4836214913
 31
0.0
  0
ARC
  5
E5
330
95
100
AcDbEntity
  8
$DDT_AUDIT_GENERATED_(DC)
  6
Continuous
 62
     7
100
AcDbCircle
 10
314.5566861338
 20
746.2836214913
 30
0.0
 40
1.200000000000007
100
AcDbArc
 50
0.0
 51
90.0
  0
ARC
  5
E6
330
95
100
AcDbEntity
  8
$DDT_AUDIT_GENERATED_(DC)
  6
Continuous
 62
     7
100
AcDbCircle
 10
246.9566861338
 20
746.2836214913
 30
0.0
 40
1.200000000000007
100
AcDbArc
 50
90.0
 51
180.0
  0
LINE
  5
E7
330
95
100
AcDbEntity
  8
$DDT_AUDIT_GENERATED_(CA)
  6
Continuous
 62
     7
100
AcDbLine
 10
147.356688303
 20
737.4836214913
 30
0.0
 11
214.156688303
 21
737.4836214913
 31
0.0
  0
LINE
  5
E8
330
95
100
AcDbEntity
  8
$DDT_AUDIT_GENERATED_(CA)
  6
Continuous
 62
     7
100
AcDbLine
 10
147.356688303
 20
737.4836214913
 30
0.0
 11
145.756688303
 21
737.4836214913
 31
0.0
  0
LINE
  5
E9
330
95
100
AcDbEntity
  8
$DDT_AUDIT_GENERATED_(CA)
  6
Continuous
 62
     7
100
AcDbLine
 10
145.756688303
 20
737.4836214913
 30
0.0
 11
145.756688303
 21
746.2836214913
 31
0.0
  0
LINE
  5
EA
330
95
100
AcDbEntity
  8
$DDT_AUDIT_GENERATED_(CA)
  6
Continuous
 62
     7
100
AcDbLine
 10
215.756688303
 20
737.4836214913
 30
0.0
 11
214.156688303
 21
737.4836214913
 31
0.0
  0
LINE
  5
EB
330
95
100
AcDbEntity
  8
$DDT_AUDIT_GENERATED_(CA)
  6
Continuous
 62
     7
100
AcDbLine
 10
146.956688303
 20
747.4836214913
 30
0.0
 11
147.356688303
 21
747.4836214913
 31
0.0
  0
LINE
  5
EC
330
95
100
AcDbEntity
  8
$DDT_AUDIT_GENERATED_(CA)
  6
Continuous
 62
     7
100
AcDbLine
 10
147.356688303
 20
747.4836214913
 30
0.0
 11
214.156688303
 21
747.4836214913
 31
0.0
  0
LINE
  5
ED
330
95
100
AcDbEntity
  8
$DDT_AUDIT_GENERATED_(CA)
  6
Continuous
 62
     7
100
AcDbLine
 10
214.156688303
 20
747.4836214913
 30
0.0
 11
214.556688303
 21
747.4836214913
 31
0.0
  0
LINE
  5
EE
330
95
100
AcDbEntity
  8
$DDT_AUDIT_GENERATED_(CA)
  6
Continuous
 62
     7
100
AcDbLine
 10
215.756688303
 20
746.2836214913
 30
0.0
 11
215.756688303
 21
737.4836214913
 31
0.0
  0
ARC
  5
EF
330
95
100
AcDbEntity
  8
$DDT_AUDIT_GENERATED_(CA)
  6
Continuous
 62
     7
100
AcDbCircle
 10
146.956688303
 20
746.2836214913
 30
0.0
 40
1.199999999999993
100
AcDbArc
 50
90.0
 51
180.0
  0
ARC
  5
F0
330
95
100
AcDbEntity
  8
$DDT_AUDIT_GENERATED_(CA)
  6
Continuous
 62
     7
100
AcDbCircle
 10
214.556688303
 20
746.2836214913
 30
0.0
 40
1.200000000000007
100
AcDbArc
 50
0.0
 51
90.0
  0
LINE
  5
F2
330
95
100
AcDbEntity
  8
$DDT_AUDIT_GENERATED_(F1)
  6
Continuous
 62
     7
100
AcDbLine
 10
165.756688303
 20
736.9836214913
 30
0.0
 11
165.756688303
 21
736.8798225256
 31
0.0
  0
LINE
  5
F3
330
95
100
AcDbEntity
  8
$DDT_AUDIT_GENERATED_(D5)
  6
Continuous
 62
     7
100
AcDbLine
 10
191.9674833661
 20
747.7836214913
 30
0.0
 11
191.9674833661
 21
748.6336214913
 31
0.0
  0
LINE
  5
F4
330
95
100
AcDbEntity
  8
$DDT_AUDIT_GENERATED_(D5)
  6
Continuous
 62
     7
100
AcDbLine
 10
176.9674833661
 20
747.7836214913
 30
0.0
 11
176.9674833661
 21
748.6336214913
 31
0.0
  0
LINE
  5
F5
330
95
100
AcDbEntity
  8
$DDT_AUDIT_GENERATED_(D5)
  6
Continuous
 62
     7
100
AcDbLine
 10
165.756688303
 20
747.7836214913
 30
0.0
 11
165.756688303
 21
748.6336214913
 31
0.0
  0
LINE
  5
F6
330
95
100
AcDbEntity
  8
$DDT_AUDIT_GENERATED_(D5)
  6
Continuous
 62
     7
100
AcDbLine
 10
195.756688303
 20
748.6336214913
 30
0.0
 11
195.756688303
 21
747.7836214913
 31
0.0
  0
LINE
  5
F7
330
95
100
AcDbEntity
  8
$DDT_AUDIT_GENERATED_(D5)
  6
Continuous
 62
     7
100
AcDbLine
 10
184.5458932399
 20
748.6336214913
 30
0.0
 11
184.5458932399
 21
747.7836214913
 31
0.0
  0
LINE
  5
F8
330
95
100
AcDbEntity
  8
$DDT_AUDIT_GENERATED_(D5)
  6
Continuous
 62
     7
100
AcDbLine
 10
169.5458932399
 20
748.6336214913
 30
0.0
 11
169.5458932399
 21
747.7836214913
 31
0.0
  0
LINE
  5
F9
330
95
100
AcDbEntity
  8
$DDT_AUDIT_GENERATED_(B9)
  6
Continuous
 62
     7
100
AcDbLine
 10
163.3870025258
 20
765.6431214913
 30
0.0
 11
117.883263303
 21
765.6431214913
 31
0.0
  0
LINE
  5
FA
330
95
100
AcDbEntity
  8
$DDT_AUDIT_GENERATED_(B9)
  6
Continuous
 62
     7
100
AcDbLine
 10
117.883263303
 20
771.0458714913
 30
0.0
 11
163.3870025258
 21
771.0458714913
 31
0.0
  0
LINE
  5
FB
330
95
100
AcDbEntity
  8
$DDT_AUDIT_GENERATED_(B9)
  6
Continuous
 62
     7
100
AcDbLine
 10
117.183263303
 20
766.3431214913
 30
0.0
 11
117.183263303
 21
770.3458714913
 31
0.0
  0
ARC
  5
FC
330
95
100
AcDbEntity
  8
$DDT_AUDIT_GENERATED_(B9)
  6
Continuous
 62
     7
100
AcDbCircle
 10
117.883263303
 20
770.3458714913
 30
0.0
 40
0.7000000000000062
100
AcDbArc
 50
90.0
 51
180.0
  0
ARC
  5
FD
330
95
100
AcDbEntity
  8
$DDT_AUDIT_GENERATED_(B9)
  6
Continuous
 62
     7
100
AcDbCircle
 10
117.883263303
 20
766.3431214913
 30
0.0
 40
0.6999999999999784
100
AcDbArc
 50
180.0
 51
270.0
  0
LINE
  5
FE
330
95
100
AcDbEntity
  8
$DDT_AUDIT_GENERATED_(B9)
  6
Continuous
 62
     7
100
AcDbLine
 10
163.446688303
 20
774.6478714913
 30
0.0
 11
198.066688303
 21
774.6478714913
 31
0.0
  0
LINE
  5
FF
330
95
100
AcDbEntity
  8
$DDT_AUDIT_GENERATED_(B9)
  6
Continuous
 62
     7
100
AcDbLine
 10
198.466688303
 20
748.6336214913
 30
0.0
 11
163.046688303
 21
748.6336214913
 31
0.0
  0
LINE
  5
100
330
95
100
AcDbEntity
  8
$DDT_AUDIT_GENERATED_(B9)
  6
Continuous
 62
     7
100
AcDbLine
 10
198.766688303
 20
748.9336214913
 30
0.0
 11
198.766688303
 21
773.9478714913
 31
0.0
  0
LINE
  5
101
330
95
100
AcDbEntity
  8
$DDT_AUDIT_GENERATED_(B9)
  6
Continuous
 62
     7
100
AcDbLine
 10
162.746688303
 20
764.9431214913
 30
0.0
 11
162.746688303
 21
748.9336214913
 31
0.0
  0
LINE
  5
102
330
95
100
AcDbEntity
  8
$DDT_AUDIT_GENERATED_(B9)
  6
Continuous
 62
     7
100
AcDbLine
 10
162.746688303
 20
773.9478714913
 30
0.0
 11
162.746688303
 21
771.7458714913
 31
0.0
  0
ARC
  5
103
330
95
100
AcDbEntity
  8
$DDT_AUDIT_GENERATED_(B9)
  6
Continuous
 62
     7
100
AcDbCircle
 10
162.046688303
 20
771.7458714913
 30
0.0
 40
0.7000000000000062
100
AcDbArc
 50
270.0
 51
0.0
  0
ARC
  5
104
330
95
100
AcDbEntity
  8
$DDT_AUDIT_GENERATED_(B9)
  6
Continuous
 62
     7
100
AcDbCircle
 10
162.046688303
 20
764.9431214913
 30
0.0
 40
0.7000000000000062
100
AcDbArc
 50
0.0
 51
90.0
  0
ARC
  5
105
330
95
100
AcDbEntity
  8
$DDT_AUDIT_GENERATED_(B9)
  6
Continuous
 62
     7
100
AcDbCircle
 10
198.066688303
 20
773.9478714913
 30
0.0
 40
0.7000000000000062
100
AcDbArc
 50
0.0
 51
90.0
  0
ARC
  5
106
330
95
100
AcDbEntity
  8
$DDT_AUDIT_GENERATED_(B9)
  6
Continuous
 62
     7
100
AcDbCircle
 10
163.446688303
 20
773.9478714913
 30
0.0
 40
0.6999999999999923
100
AcDbArc
 50
90.0
 51
180.0
  0
ARC
  5
107
330
95
100
AcDbEntity
  8
$DDT_AUDIT_GENERATED_(B9)
  6
Continuous
 62
     7
100
AcDbCircle
 10
163.046688303
 20
748.9336214913
 30
0.0
 40
0.2999999999999947
100
AcDbArc
 50
180.0
 51
270.0
  0
ARC
  5
108
330
95
100
AcDbEntity
  8
$DDT_AUDIT_GENERATED_(B9)
  6
Continuous
 62
     7
100
AcDbCircle
 10
198.466688303
 20
748.9336214913
 30
0.0
 40
0.2999999999999947
100
AcDbArc
 50
270.0
 51
0.0
  0
ENDBLK
  5
10A
330
95
100
AcDbEntity
  8
0
100
AcDbBlockEnd
  0
BLOCK
  5
15E
330
10B
100
AcDbEntity
  8
0
100
AcDbBlockBegin
  2
SE1
 70
     0
 10
0.0
 20
0.0
 30
0.0
  3
SE1
  1

  0
ARC
  5
10D
330
10B
100
AcDbEntity
  8
$DDT_AUDIT_GENERATED_(97)
  6
Continuous
 62
     7
100
AcDbCircle
 10
280.7566861338
 20
400.9770550791
 30
0.0
 40
26.20000000000001
100
AcDbArc
 50
304.9260766138
 51
0.0
  0
ARC
  5
10E
330
10B
100
AcDbEntity
  8
$DDT_AUDIT_GENERATED_(97)
  6
Continuous
 62
     7
100
AcDbCircle
 10
280.7566861338
 20
400.9770550791
 30
0.0
 40
26.20000000000001
100
AcDbArc
 50
0.0
 51
235.0739233862
  0
ARC
  5
10F
330
10B
100
AcDbEntity
  8
$DDT_AUDIT_GENERATED_(97)
  6
Continuous
 62
     7
100
AcDbCircle
 10
280.7566861338
 20
410.9770550791
 30
0.0
 40
2.25
100
AcDbArc
 50
152.7339555493
 51
0.0
  0
ARC
  5
110
330
10B
100
AcDbEntity
  8
$DDT_AUDIT_GENERATED_(97)
  6
Continuous
 62
     7
100
AcDbCircle
 10
280.7566861338
 20
410.9770550791
 30
0.0
 40
2.25
100
AcDbArc
 50
0.0
 51
27.2660444507
  0
ARC
  5
111
330
10B
100
AcDbEntity
  8
$DDT_AUDIT_GENERATED_(9D)
  6
Continuous
 62
     7
100
AcDbCircle
 10
380.756688303
 20
400.9770550791
 30
0.0
 40
26.2
100
AcDbArc
 50
16.9859627314
 51
343.0140372686
  0
ARC
  5
112
330
10B
100
AcDbEntity
  8
$DDT_AUDIT_GENERATED_(A1)
  6
Continuous
 62
     7
100
AcDbCircle
 10
266.2566861338
 20
407.9770550791
 30
0.0
 40
0.5000000000000004
100
AcDbArc
 50
90.0
 51
180.0
  0
LINE
  5
113
330
10B
100
AcDbEntity
  8
$DDT_AUDIT_GENERATED_(A1)
  6
Continuous
 62
     7
100
AcDbLine
 10
266.2566861338
 20
408.4770550791
 30
0.0
 11
295.2566861338
 21
408.4770550791
 31
0.0
  0
ARC
  5
114
330
10B
100
AcDbEntity
  8
$DDT_AUDIT_GENERATED_(A1)
  6
Continuous
 62
     7
100
AcDbCircle
 10
295.2566861338
 20
407.9770550791
 30
0.0
 40
0.4999999999999996
100
AcDbArc
 50
0.0
 51
90.0
  0
LINE
  5
115
330
10B
100
AcDbEntity
  8
$DDT_AUDIT_GENERATED_(A1)
  6
Continuous
 62
     7
100
AcDbLine
 10
295.7566861338
 20
407.9770550791
 30
0.0
 11
295.7566861338
 21
368.9770550791
 31
0.0
  0
LINE
  5
116
330
10B
100
AcDbEntity
  8
$DDT_AUDIT_GENERATED_(A1)
  6
Continuous
 62
     7
100
AcDbLine
 10
295.7566861338
 20
368.9770550791
 30
0.0
 11
295.7566861338
 21
273.3259264289
 31
0.0
  0
LINE
  5
117
330
10B
100
AcDbEntity
  8
$DDT_AUDIT_GENERATED_(A1)
  6
Continuous
 62
     7
100
AcDbLine
 10
295.7566861338
 20
273.3259264289
 30
0.0
 11
295.7566861338
 21
234.4743332033
 31
0.0
  0
LINE
  5
118
330
10B
100
AcDbEntity
  8
$DDT_AUDIT_GENERATED_(A1)
  6
Continuous
 62
     7
100
AcDbLine
 10
295.7566861338
 20
234.4743332033
 30
0.0
 11
295.7566861338
 21
234.0472700639
 31
0.0
  0
LINE
  5
119
330
10B
100
AcDbEntity
  8
$DDT_AUDIT_GENERATED_(A1)
  6
Continuous
 62
     7
100
AcDbLine
 10
265.7566861338
 20
407.9770550791
 30
0.0
 11
265.7566861338
 21
368.9770550791
 31
0.0
  0
LINE
  5
11A
330
10B
100
AcDbEntity
  8
$DDT_AUDIT_GENERATED_(A1)
  6
Continuous
 62
     7
100
AcDbLine
 10
265.7566861338
 20
368.9770550791
 30
0.0
 11
265.7566861338
 21
273.3259264289
 31
0.0
  0
LINE
  5
11B
330
10B
100
AcDbEntity
  8
$DDT_AUDIT_GENERATED_(A1)
  6
Continuous
 62
     7
100
AcDbLine
 10
265.7566861338
 20
273.3259264289
 30
0.0
 11
265.7566861338
 21
234.4743332033
 31
0.0
  0
LINE
  5
11C
330
10B
100
AcDbEntity
  8
$DDT_AUDIT_GENERATED_(A1)
  6
Continuous
 62
     7
100
AcDbLine
 10
265.7566861338
 20
234.4743332033
 30
0.0
 11
265.7566861338
 21
234.0472700639
 31
0.0
  0
LINE
  5
11D
330
10B
100
AcDbEntity
  8
$DDT_AUDIT_GENERATED_(A1)
  6
Continuous
 62
     7
100
AcDbLine
 10
266.2566861338
 20
233.5472700639
 30
0.0
 11
295.2566861338
 21
233.5472700639
 31
0.0
  0
ARC
  5
11E
330
10B
100
AcDbEntity
  8
$DDT_AUDIT_GENERATED_(A1)
  6
Continuous
 62
     7
100
AcDbCircle
 10
295.2566861338
 20
234.0472700639
 30
0.0
 40
0.5000000000000004
100
AcDbArc
 50
270.0
 51
0.0
  0
ARC
  5
11F
330
10B
100
AcDbEntity
  8
$DDT_AUDIT_GENERATED_(A1)
  6
Continuous
 62
     7
100
AcDbCircle
 10
266.2566861338
 20
234.0472700639
 30
0.0
 40
0.5000000000000004
100
AcDbArc
 50
180.0
 51
270.0
  0
ARC
  5
120
330
10B
100
AcDbEntity
  8
$DDT_AUDIT_GENERATED_(9D)
  6
Continuous
 62
     7
100
AcDbCircle
 10
180.756688303
 20
400.9770550791
 30
0.0
 40
26.2
100
AcDbArc
 50
0.0
 51
163.0140372686
  0
ARC
  5
121
330
10B
100
AcDbEntity
  8
$DDT_AUDIT_GENERATED_(9D)
  6
Continuous
 62
     7
100
AcDbCircle
 10
180.756688303
 20
400.9770550791
 30
0.0
 40
26.2
100
AcDbArc
 50
196.9859627314
 51
0.0
  0
ARC
  5
123
330
10B
100
AcDbEntity
  8
$DDT_AUDIT_GENERATED_(122)
  6
Continuous
 62
     7
100
AcDbCircle
 10
280.7566861338
 20
410.9770550791
 30
0.0
 40
2.000000000000002
100
AcDbArc
 50
180.0
 51
0.0
  0
LINE
  5
124
330
10B
100
AcDbEntity
  8
$DDT_AUDIT_GENERATED_(122)
  6
Continuous
 62
     7
100
AcDbLine
 10
282.7566861338
 20
426.9770550791
 30
0.0
 11
278.7566861338
 21
426.9770550791
 31
0.0
  0
LINE
  5
125
330
10B
100
AcDbEntity
  8
$DDT_AUDIT_GENERATED_(122)
  6
Continuous
 62
     7
100
AcDbLine
 10
282.7566861338
 20
410.9770550791
 30
0.0
 11
282.7566861338
 21
414.9770550791
 31
0.0
  0
LINE
  5
126
330
10B
100
AcDbEntity
  8
$DDT_AUDIT_GENERATED_(122)
  6
Continuous
 62
     7
100
AcDbLine
 10
278.7566861338
 20
414.9770550791
 30
0.0
 11
278.7566861338
 21
410.9770550791
 31
0.0
  0
LINE
  5
127
330
10B
100
AcDbEntity
  8
$DDT_AUDIT_GENERATED_(122)
  6
Continuous
 62
     7
100
AcDbLine
 10
278.7566861338
 20
426.9770550791
 30
0.0
 11
278.7566861338
 21
414.9770550791
 31
0.0
  0
LINE
  5
128
330
10B
100
AcDbEntity
  8
$DDT_AUDIT_GENERATED_(122)
  6
Continuous
 62
     7
100
AcDbLine
 10
282.7566861338
 20
414.9770550791
 30
0.0
 11
282.7566861338
 21
426.9770550791
 31
0.0
  0
ARC
  5
12A
330
10B
100
AcDbEntity
  8
$DDT_AUDIT_GENERATED_(129)
  6
Continuous
 62
     7
100
AcDbCircle
 10
280.7566861338
 20
400.9770550791
 30
0.0
 40
9.500000000000009
100
AcDbArc
 50
77.0768860748
 51
78.5976763907
  0
ARC
  5
12B
330
10B
100
AcDbEntity
  8
$DDT_AUDIT_GENERATED_(129)
  6
Continuous
 62
     7
100
AcDbCircle
 10
280.7566861338
 20
400.9770550791
 30
0.0
 40
9.500000000000012
100
AcDbArc
 50
101.4023236093
 51
102.9231139252
  0
LINE
  5
12C
330
10B
100
AcDbEntity
  8
$DDT_AUDIT_GENERATED_(129)
  6
Continuous
 62
     7
100
AcDbLine
 10
278.600025703
 20
410.4770550791
 30
0.0
 11
278.8545242643
 21
410.4770550791
 31
0.0
  0
LINE
  5
12D
330
10B
100
AcDbEntity
  8
$DDT_AUDIT_GENERATED_(129)
  6
Continuous
 62
     7
100
AcDbLine
 10
282.6648747305
 20
410.4770550791
 30
0.0
 11
282.9144700327
 21
410.4770550791
 31
0.0
  0
LINE
  5
12E
330
10B
100
AcDbEntity
  8
$DDT_AUDIT_GENERATED_(B9)
  6
Continuous
 62
     7
100
AcDbLine
 10
397.4980975627
 20
408.6310550791
 30
0.0
 11
443.630113303
 21
408.6310550791
 31
0.0
  0
LINE
  5
12F
330
10B
100
AcDbEntity
  8
$DDT_AUDIT_GENERATED_(B9)
  6
Continuous
 62
     7
100
AcDbLine
 10
443.630113303
 20
393.3230550791
 30
0.0
 11
397.4980975627
 21
393.3230550791
 31
0.0
  0
LINE
  5
130
330
10B
100
AcDbEntity
  8
$DDT_AUDIT_GENERATED_(B9)
  6
Continuous
 62
     7
100
AcDbLine
 10
444.330113303
 20
407.9310550791
 30
0.0
 11
444.330113303
 21
394.0230550791
 31
0.0
  0
ARC
  5
131
330
10B
100
AcDbEntity
  8
$DDT_AUDIT_GENERATED_(B9)
  6
Continuous
 62
     7
100
AcDbCircle
 10
443.630113303
 20
394.0230550791
 30
0.0
 40
0.70000000000002
100
AcDbArc
 50
270.0
 51
0.0
  0
ARC
  5
132
330
10B
100
AcDbEntity
  8
$DDT_AUDIT_GENERATED_(B9)
  6
Continuous
 62
     7
100
AcDbCircle
 10
443.630113303
 20
407.9310550791
 30
0.0
 40
0.7000000000000001
100
AcDbArc
 50
0.0
 51
90.0
  0
ARC
  5
133
330
10B
100
AcDbEntity
  8
$DDT_AUDIT_GENERATED_(B9)
  6
Continuous
 62
     7
100
AcDbCircle
 10
397.4980975627
 20
392.6230550791
 30
0.0
 40
0.7000000000000001
100
AcDbArc
 50
90.0
 51
153.4807029992
  0
ARC
  5
134
330
10B
100
AcDbEntity
  8
$DDT_AUDIT_GENERATED_(B9)
  6
Continuous
 62
     7
100
AcDbCircle
 10
397.4980975627
 20
409.3310550791
 30
0.0
 40
0.6999999999999996
100
AcDbArc
 50
206.5192970008
 51
270.0
  0
CIRCLE
  5
135
330
10B
100
AcDbEntity
  8
$DDT_AUDIT_GENERATED_(B9)
  6
Continuous
 62
     7
100
AcDbCircle
 10
380.756688303
 20
400.9770550791
 30
0.0
 40
18.01
  0
LINE
  5
136
330
10B
100
AcDbEntity
  8
$DDT_AUDIT_GENERATED_(CA)
  6
Continuous
 62
     7
100
AcDbLine
 10
415.756688303
 20
434.3770550791
 30
0.0
 11
415.756688303
 21
408.6310550791
 31
0.0
  0
LINE
  5
137
330
10B
100
AcDbEntity
  8
$DDT_AUDIT_GENERATED_(CA)
  6
Continuous
 62
     7
100
AcDbLine
 10
415.756688303
 20
393.3230550791
 30
0.0
 11
415.756688303
 21
367.5770550791
 31
0.0
  0
ARC
  5
138
330
10B
100
AcDbEntity
  8
$DDT_AUDIT_GENERATED_(CA)
  6
Continuous
 62
     7
100
AcDbCircle
 10
414.156688303
 20
367.5770550791
 30
0.0
 40
1.599999999999997
100
AcDbArc
 50
270.0
 51
0.0
  0
ARC
  5
139
330
10B
100
AcDbEntity
  8
$DDT_AUDIT_GENERATED_(CA)
  6
Continuous
 62
     7
100
AcDbCircle
 10
414.156688303
 20
434.3770550791
 30
0.0
 40
1.599999999999997
100
AcDbArc
 50
0.0
 51
90.0
  0
LINE
  5
13A
330
10B
100
AcDbEntity
  8
$DDT_AUDIT_GENERATED_(CA)
  6
Continuous
 62
     7
100
AcDbLine
 10
414.156688303
 20
365.9770550791
 30
0.0
 11
347.356688303
 21
365.9770550791
 31
0.0
  0
LINE
  5
13B
330
10B
100
AcDbEntity
  8
$DDT_AUDIT_GENERATED_(CA)
  6
Continuous
 62
     7
100
AcDbLine
 10
347.356688303
 20
435.9770550791
 30
0.0
 11
414.156688303
 21
435.9770550791
 31
0.0
  0
ARC
  5
13C
330
10B
100
AcDbEntity
  8
$DDT_AUDIT_GENERATED_(CA)
  6
Continuous
 62
     7
100
AcDbCircle
 10
347.356688303
 20
367.5770550791
 30
0.0
 40
1.599999999999997
100
AcDbArc
 50
180.0
 51
270.0
  0
ARC
  5
13D
330
10B
100
AcDbEntity
  8
$DDT_AUDIT_GENERATED_(CA)
  6
Continuous
 62
     7
100
AcDbCircle
 10
347.356688303
 20
434.3770550791
 30
0.0
 40
1.599999999999997
100
AcDbArc
 50
90.0
 51
180.0
  0
LINE
  5
13E
330
10B
100
AcDbEntity
  8
$DDT_AUDIT_GENERATED_(CA)
  6
Continuous
 62
     7
100
AcDbLine
 10
345.756688303
 20
367.5770550791
 30
0.0
 11
345.756688303
 21
434.3770550791
 31
0.0
  0
ARC
  5
13F
330
10B
100
AcDbEntity
  8
$DDT_AUDIT_GENERATED_(CA)
  6
Continuous
 62
     7
100
AcDbCircle
 10
380.756688303
 20
400.9770550791
 30
0.0
 40
26.25
100
AcDbArc
 50
16.9526290638
 51
343.0473709362
  0
LINE
  5
140
330
10B
100
AcDbEntity
  8
$DDT_AUDIT_GENERATED_(DC)
  6
Continuous
 62
     7
100
AcDbLine
 10
245.7566861338
 20
367.5770550791
 30
0.0
 11
245.7566861338
 21
434.3770550791
 31
0.0
  0
ARC
  5
141
330
10B
100
AcDbEntity
  8
$DDT_AUDIT_GENERATED_(DC)
  6
Continuous
 62
     7
100
AcDbCircle
 10
247.3566861338
 20
434.3770550791
 30
0.0
 40
1.59999999999999
100
AcDbArc
 50
90.0
 51
180.0
  0
ARC
  5
142
330
10B
100
AcDbEntity
  8
$DDT_AUDIT_GENERATED_(DC)
  6
Continuous
 62
     7
100
AcDbCircle
 10
247.3566861338
 20
367.5770550791
 30
0.0
 40
1.599999999999997
100
AcDbArc
 50
180.0
 51
270.0
  0
LINE
  5
143
330
10B
100
AcDbEntity
  8
$DDT_AUDIT_GENERATED_(DC)
  6
Continuous
 62
     7
100
AcDbLine
 10
247.3566861338
 20
435.9770550791
 30
0.0
 11
314.1566861338
 21
435.9770550791
 31
0.0
  0
LINE
  5
144
330
10B
100
AcDbEntity
  8
$DDT_AUDIT_GENERATED_(DC)
  6
Continuous
 62
     7
100
AcDbLine
 10
314.1566861338
 20
365.9770550791
 30
0.0
 11
295.7566861338
 21
365.9770550791
 31
0.0
  0
LINE
  5
145
330
10B
100
AcDbEntity
  8
$DDT_AUDIT_GENERATED_(DC)
  6
Continuous
 62
     7
100
AcDbLine
 10
265.7566861338
 20
365.9770550791
 30
0.0
 11
247.3566861338
 21
365.9770550791
 31
0.0
  0
ARC
  5
146
330
10B
100
AcDbEntity
  8
$DDT_AUDIT_GENERATED_(DC)
  6
Continuous
 62
     7
100
AcDbCircle
 10
314.1566861338
 20
434.3770550791
 30
0.0
 40
1.599999999999997
100
AcDbArc
 50
0.0
 51
90.0
  0
ARC
  5
147
330
10B
100
AcDbEntity
  8
$DDT_AUDIT_GENERATED_(DC)
  6
Continuous
 62
     7
100
AcDbCircle
 10
314.1566861338
 20
367.5770550791
 30
0.0
 40
1.59999999999999
100
AcDbArc
 50
270.0
 51
0.0
  0
LINE
  5
148
330
10B
100
AcDbEntity
  8
$DDT_AUDIT_GENERATED_(DC)
  6
Continuous
 62
     7
100
AcDbLine
 10
315.7566861338
 20
434.3770550791
 30
0.0
 11
315.7566861338
 21
367.5770550791
 31
0.0
  0
ARC
  5
149
330
10B
100
AcDbEntity
  8
$DDT_AUDIT_GENERATED_(DC)
  6
Continuous
 62
     7
100
AcDbCircle
 10
280.7566861338
 20
400.9770550791
 30
0.0
 40
26.25
100
AcDbArc
 50
304.849904579
 51
0.0
  0
ARC
  5
14A
330
10B
100
AcDbEntity
  8
$DDT_AUDIT_GENERATED_(DC)
  6
Continuous
 62
     7
100
AcDbCircle
 10
280.7566861338
 20
400.9770550791
 30
0.0
 40
26.25
100
AcDbArc
 50
0.0
 51
235.150095421
  0
LINE
  5
14B
330
10B
100
AcDbEntity
  8
$DDT_AUDIT_GENERATED_(CA)
  6
Continuous
 62
     7
100
AcDbLine
 10
215.756688303
 20
434.3770550791
 30
0.0
 11
215.756688303
 21
367.5770550791
 31
0.0
  0
ARC
  5
14C
330
10B
100
AcDbEntity
  8
$DDT_AUDIT_GENERATED_(CA)
  6
Continuous
 62
     7
100
AcDbCircle
 10
214.156688303
 20
367.5770550791
 30
0.0
 40
1.600000000000018
100
AcDbArc
 50
270.0
 51
0.0
  0
ARC
  5
14D
330
10B
100
AcDbEntity
  8
$DDT_AUDIT_GENERATED_(CA)
  6
Continuous
 62
     7
100
AcDbCircle
 10
214.156688303
 20
434.3770550791
 30
0.0
 40
1.599999999999997
100
AcDbArc
 50
0.0
 51
90.0
  0
LINE
  5
14E
330
10B
100
AcDbEntity
  8
$DDT_AUDIT_GENERATED_(CA)
  6
Continuous
 62
     7
100
AcDbLine
 10
214.156688303
 20
365.9770550791
 30
0.0
 11
147.356688303
 21
365.9770550791
 31
0.0
  0
LINE
  5
14F
330
10B
100
AcDbEntity
  8
$DDT_AUDIT_GENERATED_(CA)
  6
Continuous
 62
     7
100
AcDbLine
 10
147.356688303
 20
435.9770550791
 30
0.0
 11
214.156688303
 21
435.9770550791
 31
0.0
  0
ARC
  5
150
330
10B
100
AcDbEntity
  8
$DDT_AUDIT_GENERATED_(CA)
  6
Continuous
 62
     7
100
AcDbCircle
 10
147.356688303
 20
367.5770550791
 30
0.0
 40
1.599999999999997
100
AcDbArc
 50
180.0
 51
270.0
  0
ARC
  5
151
330
10B
100
AcDbEntity
  8
$DDT_AUDIT_GENERATED_(CA)
  6
Continuous
 62
     7
100
AcDbCircle
 10
147.356688303
 20
434.3770550791
 30
0.0
 40
1.59999999999999
100
AcDbArc
 50
90.0
 51
180.0
  0
LINE
  5
152
330
10B
100
AcDbEntity
  8
$DDT_AUDIT_GENERATED_(CA)
  6
Continuous
 62
     7
100
AcDbLine
 10
145.756688303
 20
367.5770550791
 30
0.0
 11
145.756688303
 21
393.3230550791
 31
0.0
  0
LINE
  5
153
330
10B
100
AcDbEntity
  8
$DDT_AUDIT_GENERATED_(CA)
  6
Continuous
 62
     7
100
AcDbLine
 10
145.756688303
 20
408.6310550791
 30
0.0
 11
145.756688303
 21
434.3770550791
 31
0.0
  0
ARC
  5
154
330
10B
100
AcDbEntity
  8
$DDT_AUDIT_GENERATED_(CA)
  6
Continuous
 62
     7
100
AcDbCircle
 10
180.756688303
 20
400.9770550791
 30
0.0
 40
26.25
100
AcDbArc
 50
0.0
 51
163.0473709362
  0
ARC
  5
155
330
10B
100
AcDbEntity
  8
$DDT_AUDIT_GENERATED_(CA)
  6
Continuous
 62
     7
100
AcDbCircle
 10
180.756688303
 20
400.9770550791
 30
0.0
 40
26.25
100
AcDbArc
 50
196.9526290638
 51
0.0
  0
LINE
  5
156
330
10B
100
AcDbEntity
  8
$DDT_AUDIT_GENERATED_(B9)
  6
Continuous
 62
     7
100
AcDbLine
 10
164.0152790433
 20
393.3230550791
 30
0.0
 11
117.883263303
 21
393.3230550791
 31
0.0
  0
LINE
  5
157
330
10B
100
AcDbEntity
  8
$DDT_AUDIT_GENERATED_(B9)
  6
Continuous
 62
     7
100
AcDbLine
 10
117.883263303
 20
408.6310550791
 30
0.0
 11
164.0152790433
 21
408.6310550791
 31
0.0
  0
LINE
  5
158
330
10B
100
AcDbEntity
  8
$DDT_AUDIT_GENERATED_(B9)
  6
Continuous
 62
     7
100
AcDbLine
 10
117.183263303
 20
394.0230550791
 30
0.0
 11
117.183263303
 21
407.9310550791
 31
0.0
  0
ARC
  5
159
330
10B
100
AcDbEntity
  8
$DDT_AUDIT_GENERATED_(B9)
  6
Continuous
 62
     7
100
AcDbCircle
 10
117.883263303
 20
407.9310550791
 30
0.0
 40
0.7000000000000339
100
AcDbArc
 50
90.0
 51
180.0
  0
ARC
  5
15A
330
10B
100
AcDbEntity
  8
$DDT_AUDIT_GENERATED_(B9)
  6
Continuous
 62
     7
100
AcDbCircle
 10
117.883263303
 20
394.0230550791
 30
0.0
 40
0.7000000000000001
100
AcDbArc
 50
180.0
 51
270.0
  0
ARC
  5
15B
330
10B
100
AcDbEntity
  8
$DDT_AUDIT_GENERATED_(B9)
  6
Continuous
 62
     7
100
AcDbCircle
 10
164.0152790433
 20
409.3310550791
 30
0.0
 40
0.700000000000001
100
AcDbArc
 50
270.0
 51
333.4807029992
  0
ARC
  5
15C
330
10B
100
AcDbEntity
  8
$DDT_AUDIT_GENERATED_(B9)
  6
Continuous
 62
     7
100
AcDbCircle
 10
164.0152790433
 20
392.6230550791
 30
0.0
 40
0.7000000000000058
100
AcDbArc
 50
26.5192970008
 51
90.0
  0
CIRCLE
  5
15D
330
10B
100
AcDbEntity
  8
$DDT_AUDIT_GENERATED_(B9)
  6
Continuous
 62
     7
100
AcDbCircle
 10
180.756688303
 20
400.9770550791
 30
0.0
 40
18.01
  0
ENDBLK
  5
15F
330
10B
100
AcDbEntity
  8
0
100
AcDbBlockEnd
  0
BLOCK
  5
19B
330
160
100
AcDbEntity
  8
0
100
AcDbBlockBegin
  2
SE2
 70
     0
 10
0.0
 20
0.0
 30
0.0
  3
SE2
  1

  0
LINE
  5
162
330
160
100
AcDbEntity
  8
$DDT_AUDIT_GENERATED_(97)
  6
Continuous
 62
     7
100
AcDbLine
 10
692.0215215379
 20
747.8836214913
 30
0.0
 11
702.3215215379
 21
747.8836214913
 31
0.0
  0
LINE
  5
163
330
160
100
AcDbEntity
  8
$DDT_AUDIT_GENERATED_(97)
  6
Continuous
 62
     7
100
AcDbLine
 10
733.5215215379
 20
747.8836214913
 30
0.0
 11
743.8215215379
 21
747.8836214913
 31
0.0
  0
ARC
  5
164
330
160
100
AcDbEntity
  8
$DDT_AUDIT_GENERATED_(97)
  6
Continuous
 62
     7
100
AcDbCircle
 10
743.8215215379
 20
747.5836214913
 30
0.0
 40
0.3000000000000017
100
AcDbArc
 50
41.8103148958
 51
90.0
  0
ARC
  5
165
330
160
100
AcDbEntity
  8
$DDT_AUDIT_GENERATED_(97)
  6
Continuous
 62
     7
100
AcDbCircle
 10
692.0215215379
 20
747.5836214913
 30
0.0
 40
0.3000000000000086
100
AcDbArc
 50
90.0
 51
138.1896851042
  0
LINE
  5
166
330
160
100
AcDbEntity
  8
$DDT_AUDIT_GENERATED_(A1)
  6
Continuous
 62
     7
100
AcDbLine
 10
725.4215215379
 20
774.6478714913
 30
0.0
 11
725.4215215379
 21
929.8836214913
 31
0.0
  0
LINE
  5
167
330
160
100
AcDbEntity
  8
$DDT_AUDIT_GENERATED_(A1)
  6
Continuous
 62
     7
100
AcDbLine
 10
710.4215215379
 20
774.6478714913
 30
0.0
 11
710.4215215379
 21
929.8836214913
 31
0.0
  0
ARC
  5
168
330
160
100
AcDbEntity
  8
$DDT_AUDIT_GENERATED_(A1)
  6
Continuous
 62
     7
100
AcDbCircle
 10
749.9215215379
 20
929.8836214913
 30
0.0
 40
24.49999999999989
100
AcDbArc
 50
90.0
 51
180.0
  0
ARC
  5
169
330
160
100
AcDbEntity
  8
$DDT_AUDIT_GENERATED_(A1)
  6
Continuous
 62
     7
100
AcDbCircle
 10
749.9215215379
 20
929.8836214913
 30
0.0
 40
39.4999999999999
100
AcDbArc
 50
90.0
 51
180.0
  0
LINE
  5
16A
330
160
100
AcDbEntity
  8
$DDT_AUDIT_GENERATED_(A1)
  6
Continuous
 62
     7
100
AcDbLine
 10
749.9215215379
 20
954.3836214913
 30
0.0
 11
845.5726501881
 21
954.3836214913
 31
0.0
  0
LINE
  5
16B
330
160
100
AcDbEntity
  8
$DDT_AUDIT_GENERATED_(A1)
  6
Continuous
 62
     7
100
AcDbLine
 10
749.9215215379
 20
969.3836214913
 30
0.0
 11
845.5726501881
 21
969.3836214913
 31
0.0
  0
ARC
  5
16C
330
160
100
AcDbEntity
  8
$DDT_AUDIT_GENERATED_(A1)
  6
Continuous
 62
     7
100
AcDbCircle
 10
845.5726501881
 20
929.8836214913
 30
0.0
 40
24.50000000000008
100
AcDbArc
 50
5.0
 51
90.0
  0
ARC
  5
16D
330
160
100
AcDbEntity
  8
$DDT_AUDIT_GENERATED_(A1)
  6
Continuous
 62
     7
100
AcDbCircle
 10
845.5726501881
 20
929.8836214913
 30
0.0
 40
39.50000000000009
100
AcDbArc
 50
5.0
 51
90.0
  0
LINE
  5
16E
330
160
100
AcDbEntity
  8
$DDT_AUDIT_GENERATED_(A1)
  6
Continuous
 62
     7
100
AcDbLine
 10
869.9794202914
 20
932.0189371886
 30
0.0
 11
870.4064834309
 21
927.137583168
 31
0.0
  0
LINE
  5
16F
330
160
100
AcDbEntity
  8
$DDT_AUDIT_GENERATED_(A1)
  6
Continuous
 62
     7
100
AcDbLine
 10
884.9223407628
 20
933.3262733298
 30
0.0
 11
885.3494039022
 21
928.4449193092
 31
0.0
  0
LINE
  5
170
330
160
100
AcDbEntity
  8
$DDT_AUDIT_GENERATED_(A1)
  6
Continuous
 62
     7
100
AcDbLine
 10
884.8948844246
 20
927.9032440887
 30
0.0
 11
870.9481586513
 21
926.6830636903
 31
0.0
  0
ARC
  5
171
330
160
100
AcDbEntity
  8
$DDT_AUDIT_GENERATED_(A1)
  6
Continuous
 62
     7
100
AcDbCircle
 10
884.8513065532
 20
928.4013414378
 30
0.0
 40
0.4999999999999498
100
AcDbArc
 50
275.0
 51
5.0
  0
ARC
  5
172
330
160
100
AcDbEntity
  8
$DDT_AUDIT_GENERATED_(A1)
  6
Continuous
 62
     7
100
AcDbCircle
 10
870.9045807799
 20
927.1811610393
 30
0.0
 40
0.5000000000000604
100
AcDbArc
 50
185.0
 51
275.0
  0
LINE
  5
173
330
160
100
AcDbEntity
  8
$DDT_AUDIT_GENERATED_(9D)
  6
Continuous
 62
     7
100
AcDbLine
 10
744.1215215379
 20
747.7836214913
 30
0.0
 11
691.7215215379
 21
747.7836214913
 31
0.0
  0
LINE
  5
174
330
160
100
AcDbEntity
  8
$DDT_AUDIT_GENERATED_(9D)
  6
Continuous
 62
     7
100
AcDbLine
 10
691.7215215379
 20
747.7836214913
 30
0.0
 11
691.7215215379
 21
747.4836214913
 31
0.0
  0
LINE
  5
175
330
160
100
AcDbEntity
  8
$DDT_AUDIT_GENERATED_(9D)
  6
Continuous
 62
     7
100
AcDbLine
 10
744.1215215379
 20
747.4836214913
 30
0.0
 11
744.1215215379
 21
747.7836214913
 31
0.0
  0
LINE
  5
176
330
160
100
AcDbEntity
  8
$DDT_AUDIT_GENERATED_(122)
  6
Continuous
 62
     7
100
AcDbLine
 10
691.9215215379
 20
765.8836214913
 30
0.0
 11
691.9215215379
 21
769.8836214913
 31
0.0
  0
LINE
  5
177
330
160
100
AcDbEntity
  8
$DDT_AUDIT_GENERATED_(122)
  6
Continuous
 62
     7
100
AcDbLine
 10
691.9215215379
 20
765.8836214913
 30
0.0
 11
699.9115215379
 21
765.8836214913
 31
0.0
  0
LINE
  5
178
330
160
100
AcDbEntity
  8
$DDT_AUDIT_GENERATED_(122)
  6
Continuous
 62
     7
100
AcDbLine
 10
699.9115215379
 20
769.8836214913
 30
0.0
 11
691.9215215379
 21
769.8836214913
 31
0.0
  0
LINE
  5
179
330
160
100
AcDbEntity
  8
$DDT_AUDIT_GENERATED_(CA)
  6
Continuous
 62
     7
100
AcDbLine
 10
752.9215215379
 20
737.4836214913
 30
0.0
 11
751.3215215379
 21
737.4836214913
 31
0.0
  0
LINE
  5
17A
330
160
100
AcDbEntity
  8
$DDT_AUDIT_GENERATED_(CA)
  6
Continuous
 62
     7
100
AcDbLine
 10
684.5215215379
 20
737.4836214913
 30
0.0
 11
751.3215215379
 21
737.4836214913
 31
0.0
  0
LINE
  5
17B
330
160
100
AcDbEntity
  8
$DDT_AUDIT_GENERATED_(CA)
  6
Continuous
 62
     7
100
AcDbLine
 10
684.5215215379
 20
737.4836214913
 30
0.0
 11
682.9215215379
 21
737.4836214913
 31
0.0
  0
LINE
  5
17C
330
160
100
AcDbEntity
  8
$DDT_AUDIT_GENERATED_(CA)
  6
Continuous
 62
     7
100
AcDbLine
 10
682.9215215379
 20
737.4836214913
 30
0.0
 11
682.9215215379
 21
746.2836214913
 31
0.0
  0
LINE
  5
17D
330
160
100
AcDbEntity
  8
$DDT_AUDIT_GENERATED_(CA)
  6
Continuous
 62
     7
100
AcDbLine
 10
684.5215215379
 20
747.4836214913
 30
0.0
 11
751.3215215379
 21
747.4836214913
 31
0.0
  0
LINE
  5
17E
330
160
100
AcDbEntity
  8
$DDT_AUDIT_GENERATED_(CA)
  6
Continuous
 62
     7
100
AcDbLine
 10
684.1215215379
 20
747.4836214913
 30
0.0
 11
684.5215215379
 21
747.4836214913
 31
0.0
  0
LINE
  5
17F
330
160
100
AcDbEntity
  8
$DDT_AUDIT_GENERATED_(CA)
  6
Continuous
 62
     7
100
AcDbLine
 10
751.3215215379
 20
747.4836214913
 30
0.0
 11
751.7215215379
 21
747.4836214913
 31
0.0
  0
LINE
  5
180
330
160
100
AcDbEntity
  8
$DDT_AUDIT_GENERATED_(CA)
  6
Continuous
 62
     7
100
AcDbLine
 10
752.9215215379
 20
746.2836214913
 30
0.0
 11
752.9215215379
 21
737.4836214913
 31
0.0
  0
ARC
  5
181
330
160
100
AcDbEntity
  8
$DDT_AUDIT_GENERATED_(CA)
  6
Continuous
 62
     7
100
AcDbCircle
 10
751.7215215379
 20
746.2836214913
 30
0.0
 40
1.199999999999993
100
AcDbArc
 50
0.0
 51
90.0
  0
ARC
  5
182
330
160
100
AcDbEntity
  8
$DDT_AUDIT_GENERATED_(CA)
  6
Continuous
 62
     7
100
AcDbCircle
 10
684.1215215379
 20
746.2836214913
 30
0.0
 40
1.2
100
AcDbArc
 50
90.0
 51
180.0
  0
LINE
  5
183
330
160
100
AcDbEntity
  8
$DDT_AUDIT_GENERATED_(D5)
  6
Continuous
 62
     7
100
AcDbLine
 10
707.0735690097
 20
747.7836214913
 30
0.0
 11
707.0735690097
 21
748.6336214913
 31
0.0
  0
LINE
  5
184
330
160
100
AcDbEntity
  8
$DDT_AUDIT_GENERATED_(D5)
  6
Continuous
 62
     7
100
AcDbLine
 10
733.0543311232
 20
747.7836214913
 30
0.0
 11
733.0543311232
 21
748.6336214913
 31
0.0
  0
LINE
  5
185
330
160
100
AcDbEntity
  8
$DDT_AUDIT_GENERATED_(D5)
  6
Continuous
 62
     7
100
AcDbLine
 10
722.206378595
 20
747.7836214913
 30
0.0
 11
722.206378595
 21
748.6336214913
 31
0.0
  0
LINE
  5
186
330
160
100
AcDbEntity
  8
$DDT_AUDIT_GENERATED_(D5)
  6
Continuous
 62
     7
100
AcDbLine
 10
728.7694740661
 20
748.6336214913
 30
0.0
 11
728.7694740661
 21
747.7836214913
 31
0.0
  0
LINE
  5
187
330
160
100
AcDbEntity
  8
$DDT_AUDIT_GENERATED_(D5)
  6
Continuous
 62
     7
100
AcDbLine
 10
713.6366644808
 20
748.6336214913
 30
0.0
 11
713.6366644808
 21
747.7836214913
 31
0.0
  0
LINE
  5
188
330
160
100
AcDbEntity
  8
$DDT_AUDIT_GENERATED_(D5)
  6
Continuous
 62
     7
100
AcDbLine
 10
702.7887119526
 20
748.6336214913
 30
0.0
 11
702.7887119526
 21
747.7836214913
 31
0.0
  0
LINE
  5
189
330
160
100
AcDbEntity
  8
$DDT_AUDIT_GENERATED_(D5)
  6
Continuous
 62
     7
100
AcDbLine
 10
733.5215215379
 20
747.7836214913
 30
0.0
 11
733.5215215379
 21
748.6336214913
 31
0.0
  0
LINE
  5
18A
330
160
100
AcDbEntity
  8
$DDT_AUDIT_GENERATED_(D5)
  6
Continuous
 62
     7
100
AcDbLine
 10
702.3215215379
 20
748.6336214913
 30
0.0
 11
702.3215215379
 21
747.7836214913
 31
0.0
  0
LINE
  5
18B
330
160
100
AcDbEntity
  8
$DDT_AUDIT_GENERATED_(B9)
  6
Continuous
 62
     7
100
AcDbLine
 10
724.8755215379
 20
765.6431214913
 30
0.0
 11
710.9675215379
 21
765.6431214913
 31
0.0
  0
LINE
  5
18C
330
160
100
AcDbEntity
  8
$DDT_AUDIT_GENERATED_(B9)
  6
Continuous
 62
     7
100
AcDbLine
 10
725.5755215379
 20
770.3458714913
 30
0.0
 11
725.5755215379
 21
766.3431214913
 31
0.0
  0
LINE
  5
18D
330
160
100
AcDbEntity
  8
$DDT_AUDIT_GENERATED_(B9)
  6
Continuous
 62
     7
100
AcDbLine
 10
710.2675215379
 20
766.3431214913
 30
0.0
 11
710.2675215379
 21
770.3458714913
 31
0.0
  0
LINE
  5
18E
330
160
100
AcDbEntity
  8
$DDT_AUDIT_GENERATED_(B9)
  6
Continuous
 62
     7
100
AcDbLine
 10
710.9675215379
 20
771.0458714913
 30
0.0
 11
724.8755215379
 21
771.0458714913
 31
0.0
  0
ARC
  5
18F
330
160
100
AcDbEntity
  8
$DDT_AUDIT_GENERATED_(B9)
  6
Continuous
 62
     7
100
AcDbCircle
 10
710.9675215379
 20
770.3458714913
 30
0.0
 40
0.7000000000000001
100
AcDbArc
 50
90.0
 51
180.0
  0
ARC
  5
190
330
160
100
AcDbEntity
  8
$DDT_AUDIT_GENERATED_(B9)
  6
Continuous
 62
     7
100
AcDbCircle
 10
724.8755215379
 20
770.3458714913
 30
0.0
 40
0.7000000000000062
100
AcDbArc
 50
0.0
 51
90.0
  0
ARC
  5
191
330
160
100
AcDbEntity
  8
$DDT_AUDIT_GENERATED_(B9)
  6
Continuous
 62
     7
100
AcDbCircle
 10
710.9675215379
 20
766.3431214913
 30
0.0
 40
0.6999999999999923
100
AcDbArc
 50
180.0
 51
270.0
  0
ARC
  5
192
330
160
100
AcDbEntity
  8
$DDT_AUDIT_GENERATED_(B9)
  6
Continuous
 62
     7
100
AcDbCircle
 10
724.8755215379
 20
766.3431214913
 30
0.0
 40
0.7000000000000001
100
AcDbArc
 50
270.0
 51
0.0
  0
LINE
  5
193
330
160
100
AcDbEntity
  8
$DDT_AUDIT_GENERATED_(B9)
  6
Continuous
 62
     7
100
AcDbLine
 10
735.2315215379
 20
774.6478714913
 30
0.0
 11
700.6115215379
 21
774.6478714913
 31
0.0
  0
LINE
  5
194
330
160
100
AcDbEntity
  8
$DDT_AUDIT_GENERATED_(B9)
  6
Continuous
 62
     7
100
AcDbLine
 10
700.2115215379
 20
748.6336214913
 30
0.0
 11
735.6315215379
 21
748.6336214913
 31
0.0
  0
LINE
  5
195
330
160
100
AcDbEntity
  8
$DDT_AUDIT_GENERATED_(B9)
  6
Continuous
 62
     7
100
AcDbLine
 10
735.9315215379
 20
748.9336214913
 30
0.0
 11
735.9315215379
 21
773.9478714913
 31
0.0
  0
LINE
  5
196
330
160
100
AcDbEntity
  8
$DDT_AUDIT_GENERATED_(B9)
  6
Continuous
 62
     7
100
AcDbLine
 10
699.9115215379
 20
773.9478714913
 30
0.0
 11
699.9115215379
 21
748.9336214913
 31
0.0
  0
ARC
  5
197
330
160
100
AcDbEntity
  8
$DDT_AUDIT_GENERATED_(B9)
  6
Continuous
 62
     7
100
AcDbCircle
 10
735.2315215379
 20
773.9478714913
 30
0.0
 40
0.6999999999999993
100
AcDbArc
 50
0.0
 51
90.0
  0
ARC
  5
198
330
160
100
AcDbEntity
  8
$DDT_AUDIT_GENERATED_(B9)
  6
Continuous
 62
     7
100
AcDbCircle
 10
700.6115215379
 20
773.9478714913
 30
0.0
 40
0.6999999999999923
100
AcDbArc
 50
90.0
 51
180.0
  0
ARC
  5
199
330
160
100
AcDbEntity
  8
$DDT_AUDIT_GENERATED_(B9)
  6
Continuous
 62
     7
100
AcDbCircle
 10
700.2115215379
 20
748.9336214913
 30
0.0
 40
0.3000000000000017
100
AcDbArc
 50
180.0
 51
270.0
  0
ARC
  5
19A
330
160
100
AcDbEntity
  8
$DDT_AUDIT_GENERATED_(B9)
  6
Continuous
 62
     7
100
AcDbCircle
 10
735.6315215379
 20
748.9336214913
 30
0.0
 40
0.2999999999999947
100
AcDbArc
 50
270.0
 51
0.0
  0
ENDBLK
  5
19C
330
160
100
AcDbEntity
  8
0
100
AcDbBlockEnd
  0
ENDSEC
  0
SECTION
  2
ENTITIES
  0
INSERT
  5
5F
330
1F
100
AcDbEntity
  8
Default
100
AcDbBlockReference
  2
SEANNOT_GROUP
 10
0.0
 20
0.0
 30
0.0
  0
INSERT
  5
6A
330
1F
100
AcDbEntity
  8
Default
100
AcDbBlockReference
  2
SEANNOT_GROUP1
 10
0.0
 20
0.0
 30
0.0
  0
INSERT
  5
74
330
1F
100
AcDbEntity
  8
Default
100
AcDbBlockReference
  2
SEANNOT_GROUP2
 10
0.0
 20
0.0
 30
0.0
  0
INSERT
  5
7E
330
1F
100
AcDbEntity
  8
Default
100
AcDbBlockReference
  2
SEANNOT_GROUP3
 10
0.0
 20
0.0
 30
0.0
  0
INSERT
  5
84
330
1F
100
AcDbEntity
  8
Default
100
AcDbBlockReference
  2
SEANNOT_GROUP4
 10
0.0
 20
0.0
 30
0.0
  0
INSERT
  5
8A
330
1F
100
AcDbEntity
  8
Default
100
AcDbBlockReference
  2
SEANNOT_GROUP5
 10
0.0
 20
0.0
 30
0.0
  0
INSERT
  5
90
330
1F
100
AcDbEntity
  8
Default
100
AcDbBlockReference
  2
SEANNOT_GROUP6
 10
0.0
 20
0.0
 30
0.0
  0
INSERT
  5
96
330
1F
100
AcDbEntity
  8
Default
100
AcDbBlockReference
  2
SE
 10
0.0
 20
0.0
 30
0.0
  0
INSERT
  5
10C
330
1F
100
AcDbEntity
  8
Default
100
AcDbBlockReference
  2
SE1
 10
0.0
 20
0.0
 30
0.0
  0
INSERT
  5
161
330
1F
100
AcDbEntity
  8
Default
100
AcDbBlockReference
  2
SE2
 10
0.0
 20
0.0
 30
0.0
  0
TEXT
  5
19E
330
1F
100
AcDbEntity
  8
Default
  6
Continuous
 62
     7
100
AcDbText
 10
5.9362635081
 20
53.4225120485
 30
0.0
 40
10.0
  1
Grohe AG^J
  7
SEACAD_seiso_ttf
 11
5.9362635081
 21
63.4225120485
 31
0.0
100
AcDbText
 73
     3
  0
TEXT
  5
19F
330
1F
100
AcDbEntity
  8
Default
  6
Continuous
 62
     7
100
AcDbText
 10
5.9362635081
 20
37.0588756849
 30
0.0
 40
10.0
  1
 
  7
SEACAD_seiso_ttf
 11
5.9362635081
 21
47.0588756849
 31
0.0
100
AcDbText
 73
     3
  0
TEXT
  5
1A0
330
1F
100
AcDbEntity
  8
Default
  6
Continuous
 62
     7
100
AcDbText
 10
5.9362635081
 20
20.6952393213
 30
0.0
 40
10.0
  1
ecn: 
  7
SEACAD_seiso_ttf
 11
5.9362635081
 21
30.6952393213
 31
0.0
100
AcDbText
 73
     3
  0
TEXT
  5
1A1
330
1F
100
AcDbEntity
  8
Default
  6
Continuous
 62
     7
100
AcDbText
 10
5.9362635081
 20
4.3316029576
 30
0.0
 40
10.0
  1
unit: mm
  7
SEACAD_seiso_ttf
 11
5.9362635081
 21
14.3316029576
 31
0.0
100
AcDbText
 73
     3
  0
LINE
  5
1A2
330
1F
100
AcDbEntity
  8
Default
  6
Continuous
 62
     7
100
AcDbLine
 10
0.0
 20
0.0
 30
0.0
 11
100.0
 21
0.0
 31
0.0
  0
LINE
  5
1A3
330
1F
100
AcDbEntity
  8
Default
  6
Continuous
 62
     7
100
AcDbLine
 10
0.0
 20
0.0
 30
0.0
 11
0.0
 21
100.0
 31
0.0
  0
TEXT
  5
1A4
330
1F
100
AcDbEntity
  8
Default
  6
Continuous
 62
     7
100
AcDbText
 10
24.3923665681
 20
-18.2375342018
 30
0.0
 40
10.0
  1
100 mm
  7
SEACAD_seiso_ttf
 11
24.3923665681
 21
-8.2375342018
 31
0.0
100
AcDbText
 73
     3
  0
TEXT
  5
1A5
330
1F
100
AcDbEntity
  8
Default
  6
Continuous
 62
     7
100
AcDbText
 10
-7.6150308803
 20
24.6231930421
 30
0.0
 40
10.0
  1
100 mm
 50
90.0
  7
SEACAD_seiso_ttf
 11
-17.6150308803
 21
24.6231930421
 31
0.0
100
AcDbText
 73
     3
  0
TEXT
  5
1A6
330
1F
100
AcDbEntity
  8
Default
  6
Continuous
 62
     7
100
AcDbText
 10
28.4878128572
 20
20.0907663715
 30
0.0
 40
10.0
  1
218920
  7
SEACAD_seiso_ttf
 11
28.4878128572
 21
30.0907663715
 31
0.0
100
AcDbText
 73
     3
  0
TEXT
  5
1A7
330
1F
100
AcDbEntity
  8
Default
  6
Continuous
 62
     7
100
AcDbText
 10
5.9012241913
 20
36.7242780188
 30
0.0
 40
10.0
  1
20188000
  7
SEACAD_seiso_ttf
 11
5.9012241913
 21
46.7242780188
 31
0.0
100
AcDbText
 73
     3
  0
ENDSEC
  0
SECTION
  2
OBJECTS
  0
DICTIONARY
  5
C
330
0
100
AcDbDictionary
281
     1
  3
ACAD_GROUP
350
D
  3
ACAD_LAYOUT
350
1A
  3
ACAD_MLEADERSTYLE
350
1AB
  3
ACAD_MLINESTYLE
350
17
  3
ACAD_PLOTSETTINGS
350
19
  3
ACAD_PLOTSTYLENAME
350
E
  3
ACAD_SCALELIST
350
3B
  3
ACAD_TABLESTYLE
350
1AA
  3
ACAD_VISUALSTYLE
350
2A
  3
AcDbVariableDictionary
350
1A8
  0
DICTIONARY
  5
D
102
{ACAD_REACTORS
330
C
102
}
330
C
100
AcDbDictionary
281
     1
  0
DICTIONARY
  5
1A
102
{ACAD_REACTORS
330
C
102
}
330
C
100
AcDbDictionary
281
     1
  3
Layout1
350
1E
  3
Model
350
22
  0
DICTIONARY
  5
1AB
102
{ACAD_REACTORS
330
C
102
}
330
C
100
AcDbDictionary
281
     1
  0
DICTIONARY
  5
17
102
{ACAD_REACTORS
330
C
102
}
330
C
100
AcDbDictionary
281
     1
  3
Standard
350
18
  0
DICTIONARY
  5
19
102
{ACAD_REACTORS
330
C
102
}
330
C
100
AcDbDictionary
281
     1
  0
ACDBDICTIONARYWDFLT
  5
E
102
{ACAD_REACTORS
330
C
102
}
330
C
100
AcDbDictionary
281
     1
  3
Normal
350
F
100
AcDbDictionaryWithDefault
340
F
  0
DICTIONARY
  5
3B
102
{ACAD_REACTORS
330
C
102
}
330
C
100
AcDbDictionary
281
     1
  3
A0
350
3C
  3
A1
350
3D
  3
A2
350
3E
  3
A3
350
3F
  3
A4
350
40
  3
A5
350
41
  3
A6
350
42
  3
A7
350
43
  3
A8
350
44
  3
A9
350
45
  3
B0
350
46
  3
B1
350
47
  3
B2
350
48
  3
B3
350
49
  3
B4
350
4A
  3
B5
350
4B
  3
B6
350
4C
  3
B7
350
4D
  3
B8
350
4E
  3
B9
350
4F
  3
C0
350
50
  3
C1
350
51
  3
C2
350
52
  3
C3
350
53
  3
C4
350
54
  3
C5
350
55
  3
C6
350
56
  3
C7
350
57
  3
C8
350
58
  3
C9
350
59
  3
D0
350
5A
  3
D1
350
5B
  3
D2
350
5C
  0
DICTIONARY
  5
1AA
102
{ACAD_REACTORS
330
C
102
}
330
C
100
AcDbDictionary
281
     1
  0
DICTIONARY
  5
2A
102
{ACAD_REACTORS
330
C
102
}
330
C
100
AcDbDictionary
281
     1
  3
2dWireframe
350
2F
  3
3D Hidden
350
31
  3
3dWireframe
350
30
  3
Basic
350
32
  3
Brighten
350
36
  3
ColorChange
350
3A
  3
Conceptual
350
34
  3
Dim
350
35
  3
Facepattern
350
39
  3
Flat
350
2B
  3
FlatWithEdges
350
2C
  3
Gouraud
350
2D
  3
GouraudWithEdges
350
2E
  3
Linepattern
350
38
  3
Realistic
350
33
  3
Thicken
350
37
  0
DICTIONARY
  5
1A8
102
{ACAD_REACTORS
330
C
102
}
330
C
100
AcDbDictionary
281
     1
  3
CANNOSCALE
350
1A9
  3
PSOLHEIGHT
350
1AD
  3
PSOLWIDTH
350
1AC
  0
LAYOUT
  5
1E
102
{ACAD_REACTORS
330
1A
102
}
330
1A
100
AcDbPlotSettings
  1

  2
none_device
  4

  6

 40
0.0
 41
0.0
 42
0.0
 43
0.0
 44
0.0
 45
0.0
 46
0.0
 47
0.0
 48
0.0
 49
0.0
140
0.0
141
0.0
142
1.0
143
1.0
 70
   688
 72
     0
 73
     0
 74
     5
  7

 75
    16
147
1.0
148
0.0
149
0.0
100
AcDbLayout
  1
Layout1
 70
     1
 71
     1
 10
0.0
 20
0.0
 11
1682.0
 21
2378.0
 12
0.0
 22
0.0
 32
0.0
 14
0.0
 24
0.0
 34
0.0
 15
1682.0
 25
2378.0
 35
0.0
146
0.0
 13
0.0
 23
0.0
 33
0.0
 16
1.0
 26
0.0
 36
0.0
 17
0.0
 27
1.0
 37
0.0
 76
     0
330
1B
  0
LAYOUT
  5
22
102
{ACAD_REACTORS
330
1A
102
}
330
1A
100
AcDbPlotSettings
  1

  2
none_device
  4

  6

 40
0.0
 41
0.0
 42
0.0
 43
0.0
 44
0.0
 45
0.0
 46
0.0
 47
0.0
 48
0.0
 49
0.0
140
0.0
141
0.0
142
1.0
143
1.0
 70
  1712
 72
     0
 73
     0
 74
     0
  7

 75
     0
147
1.0
148
0.0
149
0.0
100
AcDbLayout
  1
Model
 70
     1
 71
     0
 10
0.0
 20
0.0
 11
1682.0
 21
2378.0
 12
0.0
 22
0.0
 32
0.0
 14
0.0
 24
0.0
 34
0.0
 15
1682.0
 25
2378.0
 35
0.0
146
0.0
 13
0.0
 23
0.0
 33
0.0
 16
1.0
 26
0.0
 36
0.0
 17
0.0
 27
1.0
 37
0.0
 76
     0
330
1F
331
29
  0
MLINESTYLE
  5
18
102
{ACAD_REACTORS
330
17
102
}
330
17
100
AcDbMlineStyle
  2
Standard
 70
     0
  3

 62
   256
 51
90.0
 52
90.0
 71
     2
 49
0.5
 62
   256
  6
BYLAYER
 49
-0.5
 62
   256
  6
BYLAYER
  0
ACDBPLACEHOLDER
  5
F
102
{ACAD_REACTORS
330
E
102
}
330
E
  0
SCALE
  5
3C
102
{ACAD_REACTORS
330
3B
102
}
330
3B
100
AcDbScale
 70
     0
300
1:1
140
1.0
141
1.0
290
     1
  0
SCALE
  5
3D
102
{ACAD_REACTORS
330
3B
102
}
330
3B
100
AcDbScale
 70
     0
300
1:2
140
1.0
141
2.0
290
     0
  0
SCALE
  5
3E
102
{ACAD_REACTORS
330
3B
102
}
330
3B
100
AcDbScale
 70
     0
300
1:4
140
1.0
141
4.0
290
     0
  0
SCALE
  5
3F
102
{ACAD_REACTORS
330
3B
102
}
330
3B
100
AcDbScale
 70
     0
300
1:5
140
1.0
141
5.0
290
     0
  0
SCALE
  5
40
102
{ACAD_REACTORS
330
3B
102
}
330
3B
100
AcDbScale
 70
     0
300
1:8
140
1.0
141
8.0
290
     0
  0
SCALE
  5
41
102
{ACAD_REACTORS
330
3B
102
}
330
3B
100
AcDbScale
 70
     0
300
1:10
140
1.0
141
10.0
290
     0
  0
SCALE
  5
42
102
{ACAD_REACTORS
330
3B
102
}
330
3B
100
AcDbScale
 70
     0
300
1:16
140
1.0
141
16.0
290
     0
  0
SCALE
  5
43
102
{ACAD_REACTORS
330
3B
102
}
330
3B
100
AcDbScale
 70
     0
300
1:20
140
1.0
141
20.0
290
     0
  0
SCALE
  5
44
102
{ACAD_REACTORS
330
3B
102
}
330
3B
100
AcDbScale
 70
     0
300
1:30
140
1.0
141
30.0
290
     0
  0
SCALE
  5
45
102
{ACAD_REACTORS
330
3B
102
}
330
3B
100
AcDbScale
 70
     0
300
1:40
140
1.0
141
40.0
290
     0
  0
SCALE
  5
46
102
{ACAD_REACTORS
330
3B
102
}
330
3B
100
AcDbScale
 70
     0
300
1:50
140
1.0
141
50.0
290
     0
  0
SCALE
  5
47
102
{ACAD_REACTORS
330
3B
102
}
330
3B
100
AcDbScale
 70
     0
300
1:100
140
1.0
141
100.0
290
     0
  0
SCALE
  5
48
102
{ACAD_REACTORS
330
3B
102
}
330
3B
100
AcDbScale
 70
     0
300
2:1
140
2.0
141
1.0
290
     0
  0
SCALE
  5
49
102
{ACAD_REACTORS
330
3B
102
}
330
3B
100
AcDbScale
 70
     0
300
4:1
140
4.0
141
1.0
290
     0
  0
SCALE
  5
4A
102
{ACAD_REACTORS
330
3B
102
}
330
3B
100
AcDbScale
 70
     0
300
8:1
140
8.0
141
1.0
290
     0
  0
SCALE
  5
4B
102
{ACAD_REACTORS
330
3B
102
}
330
3B
100
AcDbScale
 70
     0
300
10:1
140
10.0
141
1.0
290
     0
  0
SCALE
  5
4C
102
{ACAD_REACTORS
330
3B
102
}
330
3B
100
AcDbScale
 70
     0
300
100:1
140
100.0
141
1.0
290
     0
  0
SCALE
  5
4D
102
{ACAD_REACTORS
330
3B
102
}
330
3B
100
AcDbScale
 70
     0
300
1/128" = 1'-0"
140
0.0078125
141
12.0
290
     0
  0
SCALE
  5
4E
102
{ACAD_REACTORS
330
3B
102
}
330
3B
100
AcDbScale
 70
     0
300
1/64" = 1'-0"
140
0.015625
141
12.0
290
     0
  0
SCALE
  5
4F
102
{ACAD_REACTORS
330
3B
102
}
330
3B
100
AcDbScale
 70
     0
300
1/32" = 1'-0"
140
0.03125
141
12.0
290
     0
  0
SCALE
  5
50
102
{ACAD_REACTORS
330
3B
102
}
330
3B
100
AcDbScale
 70
     0
300
1/16" = 1'-0"
140
0.0625
141
12.0
290
     0
  0
SCALE
  5
51
102
{ACAD_REACTORS
330
3B
102
}
330
3B
100
AcDbScale
 70
     0
300
3/32" = 1'-0"
140
0.09375
141
12.0
290
     0
  0
SCALE
  5
52
102
{ACAD_REACTORS
330
3B
102
}
330
3B
100
AcDbScale
 70
     0
300
1/8" = 1'-0"
140
0.125
141
12.0
290
     0
  0
SCALE
  5
53
102
{ACAD_REACTORS
330
3B
102
}
330
3B
100
AcDbScale
 70
     0
300
3/16" = 1'-0"
140
0.1875
141
12.0
290
     0
  0
SCALE
  5
54
102
{ACAD_REACTORS
330
3B
102
}
330
3B
100
AcDbScale
 70
     0
300
1/4" = 1'-0"
140
0.25
141
12.0
290
     0
  0
SCALE
  5
55
102
{ACAD_REACTORS
330
3B
102
}
330
3B
100
AcDbScale
 70
     0
300
3/8" = 1'-0"
140
0.375
141
12.0
290
     0
  0
SCALE
  5
56
102
{ACAD_REACTORS
330
3B
102
}
330
3B
100
AcDbScale
 70
     0
300
1/2" = 1'-0"
140
0.5
141
12.0
290
     0
  0
SCALE
  5
57
102
{ACAD_REACTORS
330
3B
102
}
330
3B
100
AcDbScale
 70
     0
300
3/4" = 1'-0"
140
0.75
141
12.0
290
     0
  0
SCALE
  5
58
102
{ACAD_REACTORS
330
3B
102
}
330
3B
100
AcDbScale
 70
     0
300
1" = 1'-0"
140
1.0
141
12.0
290
     0
  0
SCALE
  5
59
102
{ACAD_REACTORS
330
3B
102
}
330
3B
100
AcDbScale
 70
     0
300
1-1/2" = 1'-0"
140
1.5
141
12.0
290
     0
  0
SCALE
  5
5A
102
{ACAD_REACTORS
330
3B
102
}
330
3B
100
AcDbScale
 70
     0
300
3" = 1'-0"
140
3.0
141
12.0
290
     0
  0
SCALE
  5
5B
102
{ACAD_REACTORS
330
3B
102
}
330
3B
100
AcDbScale
 70
     0
300
6" = 1'-0"
140
6.0
141
12.0
290
     0
  0
SCALE
  5
5C
102
{ACAD_REACTORS
330
3B
102
}
330
3B
100
AcDbScale
 70
     0
300
1'-0" = 1'-0"
140
12.0
141
12.0
290
     0
  0
VISUALSTYLE
  5
2F
102
{ACAD_REACTORS
330
2A
102
}
330
2A
100
AcDbVisualStyle
  2
2dWireframe
 70
     4
 71
     0
 72
     2
 73
     0
 90
        0
 40
-0.6
 41
-30.0
 62
     5
 63
     7
 74
     1
 91
        4
 64
     7
 65
   257
 75
     1
175
     1
 42
1.0
 92
        0
 66
   257
 43
1.0
 76
     1
 77
     6
 78
     2
 67
     7
 79
     5
170
     0
171
     0
290
     0
174
     0
 93
        1
 44
0.0
173
     0
291
     0
 45
0.0
1001
ACAD
1000
AcDbSavedByObjectVersion
1070
     0
  0
VISUALSTYLE
  5
31
102
{ACAD_REACTORS
330
2A
102
}
330
2A
100
AcDbVisualStyle
  2
3D Hidden
 70
     6
 71
     1
 72
     2
 73
     2
 90
        0
 40
-0.6
 41
-30.0
 62
     5
 63
     7
 74
     2
 91
        2
 64
     7
 65
   257
 75
     2
175
     1
 42
40.0
 92
        0
 66
   257
 43
1.0
 76
     1
 77
     6
 78
     2
 67
     7
 79
     3
170
     0
171
     0
290
     0
174
     0
 93
        1
 44
0.0
173
     0
291
     0
 45
0.0
1001
ACAD
1000
AcDbSavedByObjectVersion
1070
     0
  0
VISUALSTYLE
  5
30
102
{ACAD_REACTORS
330
2A
102
}
330
2A
100
AcDbVisualStyle
  2
3dWireframe
 70
     5
 71
     0
 72
     2
 73
     0
 90
        0
 40
-0.6
 41
-30.0
 62
     5
 63
     7
 74
     1
 91
        4
 64
     7
 65
   257
 75
     1
175
     1
 42
1.0
 92
        0
 66
   257
 43
1.0
 76
     1
 77
     6
 78
     2
 67
     7
 79
     5
170
     0
171
     0
290
     0
174
     0
 93
        1
 44
0.0
173
     0
291
     0
 45
0.0
1001
ACAD
1000
AcDbSavedByObjectVersion
1070
     0
  0
VISUALSTYLE
  5
32
102
{ACAD_REACTORS
330
2A
102
}
330
2A
100
AcDbVisualStyle
  2
Basic
 70
     7
 71
     1
 72
     0
 73
     1
 90
        0
 40
-0.6
 41
-30.0
 62
     5
 63
     7
 74
     0
 91
        4
 64
     7
 65
   257
 75
     1
175
     1
 42
1.0
 92
        8
 66
     7
 43
1.0
 76
     1
 77
     6
 78
     2
 67
     7
 79
     5
170
     0
171
     0
290
     0
174
     0
 93
        1
 44
0.0
173
     0
291
     1
 45
0.0
1001
ACAD
1000
AcDbSavedByObjectVersion
1070
     0
  0
VISUALSTYLE
  5
36
102
{ACAD_REACTORS
330
2A
102
}
330
2A
100
AcDbVisualStyle
  2
Brighten
 70
    12
 71
     2
 72
     2
 73
     0
 90
        0
 40
-0.6
 41
-30.0
 62
     5
 63
     7
 74
     1
 91
        4
 64
     7
 65
   257
 75
     1
175
     1
 42
1.0
 92
        8
 66
     7
 43
1.0
 76
     1
 77
     6
 78
     2
 67
     7
 79
     5
170
     0
171
     0
290
     0
174
     0
 93
        1
 44
50.0
173
     0
291
     1
 45
0.0
1001
ACAD
1000
AcDbSavedByObjectVersion
1070
     0
  0
VISUALSTYLE
  5
3A
102
{ACAD_REACTORS
330
2A
102
}
330
2A
100
AcDbVisualStyle
  2
ColorChange
 70
    16
 71
     2
 72
     2
 73
     3
 90
        0
 40
-0.6
 41
-30.0
 62
     5
 63
     8
 74
     1
 91
        4
 64
     7
 65
   257
 75
     1
175
     1
 42
1.0
 92
        8
 66
     8
 43
1.0
 76
     1
 77
     6
 78
     2
 67
     7
 79
     5
170
     0
171
     0
290
     0
174
     0
 93
        1
 44
0.0
173
     0
291
     1
 45
0.0
1001
ACAD
1000
AcDbSavedByObjectVersion
1070
     0
  0
VISUALSTYLE
  5
34
102
{ACAD_REACTORS
330
2A
102
}
330
2A
100
AcDbVisualStyle
  2
Conceptual
 70
     9
 71
     3
 72
     2
 73
     0
 90
        0
 40
-0.6
 41
-30.0
 62
     5
 63
     7
 74
     2
 91
        2
 64
     7
 65
   257
 75
     1
175
     1
 42
40.0
 92
        8
 66
     7
 43
1.0
 76
     1
 77
     6
 78
     2
 67
     7
 79
     3
170
     0
171
     0
290
     0
174
     0
 93
        1
 44
0.0
173
     0
291
     0
 45
0.0
1001
ACAD
1000
AcDbSavedByObjectVersion
1070
     0
  0
VISUALSTYLE
  5
35
102
{ACAD_REACTORS
330
2A
102
}
330
2A
100
AcDbVisualStyle
  2
Dim
 70
    11
 71
     2
 72
     2
 73
     0
 90
        0
 40
-0.6
 41
-30.0
 62
     5
 63
     7
 74
     1
 91
        4
 64
     7
 65
   257
 75
     1
175
     1
 42
1.0
 92
        8
 66
     7
 43
1.0
 76
     1
 77
     6
 78
     2
 67
     7
 79
     5
170
     0
171
     0
290
     0
174
     0
 93
        1
 44
-50.0
173
     0
291
     1
 45
0.0
1001
ACAD
1000
AcDbSavedByObjectVersion
1070
     0
  0
VISUALSTYLE
  5
39
102
{ACAD_REACTORS
330
2A
102
}
330
2A
100
AcDbVisualStyle
  2
Facepattern
 70
    15
 71
     2
 72
     2
 73
     0
 90
        0
 40
-0.6
 41
-30.0
 62
     5
 63
     7
 74
     1
 91
        4
 64
     7
 65
   257
 75
     1
175
     1
 42
1.0
 92
        8
 66
     7
 43
1.0
 76
     1
 77
     6
 78
     2
 67
     7
 79
     5
170
     0
171
     0
290
     0
174
     0
 93
        1
 44
0.0
173
     0
291
     1
 45
0.0
1001
ACAD
1000
AcDbSavedByObjectVersion
1070
     0
  0
VISUALSTYLE
  5
2B
102
{ACAD_REACTORS
330
2A
102
}
330
2A
100
AcDbVisualStyle
  2
Flat
 70
     0
 71
     2
 72
     1
 73
     1
 90
        2
 40
-0.6
 41
30.0
 62
     5
 63
     7
 74
     0
 91
        4
 64
     7
 65
   257
 75
     1
175
     1
 42
1.0
 92
        8
 66
     7
 43
1.0
 76
     1
 77
     6
 78
     2
 67
     7
 79
     5
170
     0
171
     0
290
     0
174
     0
 93
       13
 44
0.0
173
     0
291
     1
 45
0.0
1001
ACAD
1000
AcDbSavedByObjectVersion
1070
     0
  0
VISUALSTYLE
  5
2C
102
{ACAD_REACTORS
330
2A
102
}
330
2A
100
AcDbVisualStyle
  2
FlatWithEdges
 70
     1
 71
     2
 72
     1
 73
     1
 90
        2
 40
-0.6
 41
30.0
 62
     5
 63
     7
 74
     1
 91
        4
 64
     7
 65
   257
 75
     1
175
     1
 42
1.0
 92
        0
 66
   257
 43
1.0
 76
     1
 77
     6
 78
     2
 67
     7
 79
     5
170
     0
171
     0
290
     0
174
     0
 93
       13
 44
0.0
173
     0
291
     1
 45
0.0
1001
ACAD
1000
AcDbSavedByObjectVersion
1070
     0
  0
VISUALSTYLE
  5
2D
102
{ACAD_REACTORS
330
2A
102
}
330
2A
100
AcDbVisualStyle
  2
Gouraud
 70
     2
 71
     2
 72
     2
 73
     1
 90
        2
 40
-0.6
 41
30.0
 62
     5
 63
     7
 74
     0
 91
        4
 64
     7
 65
   257
 75
     1
175
     1
 42
1.0
 92
        0
 66
     7
 43
1.0
 76
     1
 77
     6
 78
     2
 67
     7
 79
     5
170
     0
171
     0
290
     0
174
     0
 93
       13
 44
0.0
173
     0
291
     1
 45
0.0
1001
ACAD
1000
AcDbSavedByObjectVersion
1070
     0
  0
VISUALSTYLE
  5
2E
102
{ACAD_REACTORS
330
2A
102
}
330
2A
100
AcDbVisualStyle
  2
GouraudWithEdges
 70
     3
 71
     2
 72
     2
 73
     1
 90
        2
 40
-0.6
 41
30.0
 62
     5
 63
     7
 74
     1
 91
        4
 64
     7
 65
   257
 75
     1
175
     1
 42
1.0
 92
        0
 66
   257
 43
1.0
 76
     1
 77
     6
 78
     2
 67
     7
 79
     5
170
     0
171
     0
290
     0
174
     0
 93
       13
 44
0.0
173
     0
291
     1
 45
0.0
1001
ACAD
1000
AcDbSavedByObjectVersion
1070
     0
  0
VISUALSTYLE
  5
38
102
{ACAD_REACTORS
330
2A
102
}
330
2A
100
AcDbVisualStyle
  2
Linepattern
 70
    14
 71
     2
 72
     2
 73
     0
 90
        0
 40
-0.6
 41
-30.0
 62
     5
 63
     7
 74
     1
 91
        4
 64
     7
 65
   257
 75
     7
175
     7
 42
1.0
 92
        8
 66
     7
 43
1.0
 76
     1
 77
     6
 78
     2
 67
     7
 79
     5
170
     0
171
     0
290
     0
174
     0
 93
        1
 44
0.0
173
     0
291
     1
 45
0.0
1001
ACAD
1000
AcDbSavedByObjectVersion
1070
     0
  0
VISUALSTYLE
  5
33
102
{ACAD_REACTORS
330
2A
102
}
330
2A
100
AcDbVisualStyle
  2
Realistic
 70
     8
 71
     2
 72
     2
 73
     0
 90
        0
 40
-0.6
 41
-30.0
 62
     5
 63
     7
 74
     1
 91
        0
 64
     7
 65
   257
 75
     1
175
     1
 42
1.0
 92
        8
 66
     8
 43
1.0
 76
     1
 77
     6
 78
     2
 67
     7
 79
     5
170
     0
171
     0
290
     0
174
     0
 93
       13
 44
0.0
173
     0
291
     0
 45
0.0
1001
ACAD
1000
AcDbSavedByObjectVersion
1070
     0
  0
VISUALSTYLE
  5
37
102
{ACAD_REACTORS
330
2A
102
}
330
2A
100
AcDbVisualStyle
  2
Thicken
 70
    13
 71
     2
 72
     2
 73
     0
 90
        0
 40
-0.6
 41
-30.0
 62
     5
 63
     7
 74
     1
 91
        4
 64
     7
 65
   257
 75
     1
175
     1
 42
1.0
 92
       12
 66
     7
 43
1.0
 76
     1
 77
     6
 78
     2
 67
     7
 79
     5
170
     0
171
     0
290
     0
174
     0
 93
        1
 44
0.0
173
     0
291
     1
 45
0.0
1001
ACAD
1000
AcDbSavedByObjectVersion
1070
     0
  0
DICTIONARYVAR
  5
1A9
102
{ACAD_REACTORS
330
1A8
102
}
330
1A8
100
DictionaryVariables
280
     0
  1
1:1
  0
DICTIONARYVAR
  5
1AD
102
{ACAD_REACTORS
330
1A8
102
}
330
1A8
100
DictionaryVariables
280
     0
  1
80.000000
  0
DICTIONARYVAR
  5
1AC
102
{ACAD_REACTORS
330
1A8
102
}
330
1A8
100
DictionaryVariables
280
     0
  1
5.000000
  0
ENDSEC
  0
EOF
