  0
SECTION
  2
HEADER
  9
$ACADVER
  1
AC1015
  9
$ACADMAINTVER
 70
     6
  9
$DWGCODEPAGE
  3
ANSI_1252
  9
$INSBASE
 10
0.0
 20
0.0
 30
0.0
  9
$EXTMIN
 10
0.0
 20
0.0
 30
0.0
  9
$EXTMAX
 10
1682.0
 20
2378.0
 30
0.0
  9
$LIMMIN
 10
0.0
 20
0.0
  9
$LIMMAX
 10
1682.0
 20
2378.0
  9
$ORTHOMODE
 70
     0
  9
$REGENMODE
 70
     1
  9
$FILLMODE
 70
     1
  9
$QTEXTMODE
 70
     0
  9
$MIRRTEXT
 70
     1
  9
$LTSCALE
 40
1.0
  9
$ATTMODE
 70
     1
  9
$TEXTSIZE
 40
2.5
  9
$TRACEWID
 40
1.0
  9
$TEXTSTYLE
  7
Standard
  9
$CLAYER
  8
0
  9
$CELTYPE
  6
ByLayer
  9
$CECOLOR
 62
   256
  9
$CELTSCALE
 40
1.0
  9
$DISPSILH
 70
     0
  9
$DIMSCALE
 40
1.0
  9
$DIMASZ
 40
2.5
  9
$DIMEXO
 40
0.625
  9
$DIMDLI
 40
3.75
  9
$DIMRND
 40
0.0
  9
$DIMDLE
 40
0.0
  9
$DIMEXE
 40
1.25
  9
$DIMTP
 40
0.0
  9
$DIMTM
 40
0.0
  9
$DIMTXT
 40
2.5
  9
$DIMCEN
 40
2.5
  9
$DIMTSZ
 40
0.0
  9
$DIMTOL
 70
     0
  9
$DIMLIM
 70
     0
  9
$DIMTIH
 70
     0
  9
$DIMTOH
 70
     0
  9
$DIMSE1
 70
     0
  9
$DIMSE2
 70
     0
  9
$DIMTAD
 70
     1
  9
$DIMZIN
 70
     8
  9
$DIMBLK
  1

  9
$DIMASO
 70
     1
  9
$DIMSHO
 70
     1
  9
$DIMPOST
  1

  9
$DIMAPOST
  1

  9
$DIMALT
 70
     0
  9
$DIMALTD
 70
     3
  9
$DIMALTF
 40
0.0393700787
  9
$DIMLFAC
 40
1.0
  9
$DIMTOFL
 70
     1
  9
$DIMTVP
 40
0.0
  9
$DIMTIX
 70
     0
  9
$DIMSOXD
 70
     0
  9
$DIMSAH
 70
     0
  9
$DIMBLK1
  1

  9
$DIMBLK2
  1

  9
$DIMSTYLE
  2
ISO-25
  9
$DIMCLRD
 70
     0
  9
$DIMCLRE
 70
     0
  9
$DIMCLRT
 70
     0
  9
$DIMTFAC
 40
1.0
  9
$DIMGAP
 40
0.625
  9
$DIMJUST
 70
     0
  9
$DIMSD1
 70
     0
  9
$DIMSD2
 70
     0
  9
$DIMTOLJ
 70
     0
  9
$DIMTZIN
 70
     8
  9
$DIMALTZ
 70
     0
  9
$DIMALTTZ
 70
     0
  9
$DIMUPT
 70
     0
  9
$DIMDEC
 70
     2
  9
$DIMTDEC
 70
     2
  9
$DIMALTU
 70
     2
  9
$DIMALTTD
 70
     3
  9
$DIMTXSTY
  7
Standard
  9
$DIMAUNIT
 70
     0
  9
$DIMADEC
 70
     0
  9
$DIMALTRND
 40
0.0
  9
$DIMAZIN
 70
     0
  9
$DIMDSEP
 70
    44
  9
$DIMATFIT
 70
     3
  9
$DIMFRAC
 70
     0
  9
$DIMLDRBLK
  1

  9
$DIMLUNIT
 70
     2
  9
$DIMLWD
 70
    -2
  9
$DIMLWE
 70
    -2
  9
$DIMTMOVE
 70
     0
  9
$LUNITS
 70
     2
  9
$LUPREC
 70
     4
  9
$SKETCHINC
 40
1.0
  9
$FILLETRAD
 40
10.0
  9
$AUNITS
 70
     0
  9
$AUPREC
 70
     0
  9
$MENU
  1
.
  9
$ELEVATION
 40
0.0
  9
$PELEVATION
 40
0.0
  9
$THICKNESS
 40
0.0
  9
$LIMCHECK
 70
     0
  9
$CHAMFERA
 40
10.0
  9
$CHAMFERB
 40
10.0
  9
$CHAMFERC
 40
20.0
  9
$CHAMFERD
 40
0.0
  9
$SKPOLY
 70
     0
  9
$TDCREATE
 40
2455471.628929514
  9
$TDUCREATE
 40
2455471.54559618
  9
$TDUPDATE
 40
2455471.628929526
  9
$TDUUPDATE
 40
2455471.545596192
  9
$TDINDWG
 40
0.0000000116
  9
$TDUSRTIMER
 40
0.0000000116
  9
$USRTIMER
 70
     1
  9
$ANGBASE
 50
0.0
  9
$ANGDIR
 70
     0
  9
$PDMODE
 70
     0
  9
$PDSIZE
 40
0.0
  9
$PLINEWID
 40
0.0
  9
$SPLFRAME
 70
     0
  9
$SPLINETYPE
 70
     6
  9
$SPLINESEGS
 70
     8
  9
$HANDSEED
  5
11A
  9
$SURFTAB1
 70
     6
  9
$SURFTAB2
 70
     6
  9
$SURFTYPE
 70
     6
  9
$SURFU
 70
     6
  9
$SURFV
 70
     6
  9
$UCSBASE
  2

  9
$UCSNAME
  2

  9
$UCSORG
 10
0.0
 20
0.0
 30
0.0
  9
$UCSXDIR
 10
1.0
 20
0.0
 30
0.0
  9
$UCSYDIR
 10
0.0
 20
1.0
 30
0.0
  9
$UCSORTHOREF
  2

  9
$UCSORTHOVIEW
 70
     0
  9
$UCSORGTOP
 10
0.0
 20
0.0
 30
0.0
  9
$UCSORGBOTTOM
 10
0.0
 20
0.0
 30
0.0
  9
$UCSORGLEFT
 10
0.0
 20
0.0
 30
0.0
  9
$UCSORGRIGHT
 10
0.0
 20
0.0
 30
0.0
  9
$UCSORGFRONT
 10
0.0
 20
0.0
 30
0.0
  9
$UCSORGBACK
 10
0.0
 20
0.0
 30
0.0
  9
$PUCSBASE
  2

  9
$PUCSNAME
  2

  9
$PUCSORG
 10
0.0
 20
0.0
 30
0.0
  9
$PUCSXDIR
 10
1.0
 20
0.0
 30
0.0
  9
$PUCSYDIR
 10
0.0
 20
1.0
 30
0.0
  9
$PUCSORTHOREF
  2

  9
$PUCSORTHOVIEW
 70
     0
  9
$PUCSORGTOP
 10
0.0
 20
0.0
 30
0.0
  9
$PUCSORGBOTTOM
 10
0.0
 20
0.0
 30
0.0
  9
$PUCSORGLEFT
 10
0.0
 20
0.0
 30
0.0
  9
$PUCSORGRIGHT
 10
0.0
 20
0.0
 30
0.0
  9
$PUCSORGFRONT
 10
0.0
 20
0.0
 30
0.0
  9
$PUCSORGBACK
 10
0.0
 20
0.0
 30
0.0
  9
$USERI1
 70
     0
  9
$USERI2
 70
     0
  9
$USERI3
 70
     0
  9
$USERI4
 70
     0
  9
$USERI5
 70
     0
  9
$USERR1
 40
0.0
  9
$USERR2
 40
0.0
  9
$USERR3
 40
0.0
  9
$USERR4
 40
0.0
  9
$USERR5
 40
0.0
  9
$WORLDVIEW
 70
     1
  9
$SHADEDGE
 70
     3
  9
$SHADEDIF
 70
    70
  9
$TILEMODE
 70
     1
  9
$MAXACTVP
 70
    64
  9
$PINSBASE
 10
0.0
 20
0.0
 30
0.0
  9
$PLIMCHECK
 70
     0
  9
$PEXTMIN
 10
0.0
 20
0.0
 30
0.0
  9
$PEXTMAX
 10
1682.0
 20
2378.0
 30
0.0
  9
$PLIMMIN
 10
0.0
 20
0.0
  9
$PLIMMAX
 10
1682.0
 20
2378.0
  9
$UNITMODE
 70
     0
  9
$VISRETAIN
 70
     1
  9
$PLINEGEN
 70
     0
  9
$PSLTSCALE
 70
     1
  9
$TREEDEPTH
 70
  3020
  9
$CMLSTYLE
  2
Standard
  9
$CMLJUST
 70
     0
  9
$CMLSCALE
 40
20.0
  9
$PROXYGRAPHICS
 70
     1
  9
$MEASUREMENT
 70
     1
  9
$CELWEIGHT
370
    -1
  9
$ENDCAPS
280
     0
  9
$JOINSTYLE
280
     0
  9
$LWDISPLAY
290
     0
  9
$INSUNITS
 70
     4
  9
$HYPERLINKBASE
  1

  9
$STYLESHEET
  1

  9
$XEDIT
290
     1
  9
$CEPSNTYPE
380
     0
  9
$PSTYLEMODE
290
     1
  9
$FINGERPRINTGUID
  2
{B53C4E12-75C3-4743-8DB5-BCE30F4A1D9D}
  9
$VERSIONGUID
  2
{FAEB1C32-E019-11D5-929B-00C0DF256EC4}
  9
$EXTNAMES
290
     1
  9
$PSVPSCALE
 40
0.0
  9
$OLESTARTUP
290
     0
  0
ENDSEC
  0
SECTION
  2
CLASSES
  0
CLASS
  1
ACDBDICTIONARYWDFLT
  2
AcDbDictionaryWithDefault
  3
ObjectDBX Classes
 90
        0
280
     0
281
     0
  0
CLASS
  1
VISUALSTYLE
  2
AcDbVisualStyle
  3
ObjectDBX Classes
 90
     4095
280
     0
281
     0
  0
CLASS
  1
SCALE
  2
AcDbScale
  3
ObjectDBX Classes
 90
     1153
280
     0
281
     0
  0
CLASS
  1
DICTIONARYVAR
  2
AcDbDictionaryVar
  3
ObjectDBX Classes
 90
        0
280
     0
281
     0
  0
CLASS
  1
ACDBPLACEHOLDER
  2
AcDbPlaceHolder
  3
ObjectDBX Classes
 90
        0
280
     0
281
     0
  0
CLASS
  1
LAYOUT
  2
AcDbLayout
  3
ObjectDBX Classes
 90
        0
280
     0
281
     0
  0
ENDSEC
  0
SECTION
  2
TABLES
  0
TABLE
  2
VPORT
  5
8
330
0
100
AcDbSymbolTable
 70
     1
  0
VPORT
  5
29
330
8
100
AcDbSymbolTableRecord
100
AcDbViewportTableRecord
  2
*Active
 70
     0
 10
0.0
 20
0.0
 11
1.0
 21
1.0
 12
344.1869158879
 22
148.5
 13
0.0
 23
0.0
 14
10.0
 24
10.0
 15
10.0
 25
10.0
 16
0.0
 26
0.0
 36
1.0
 17
0.0
 27
0.0
 37
0.0
 40
297.0
 41
1.9729729729
 42
50.0
 43
0.0
 44
0.0
 50
0.0
 51
0.0
 71
     0
 72
   100
 73
     1
 74
     3
 75
     0
 76
     0
 77
     0
 78
     0
281
     0
 65
     1
110
0.0
120
0.0
130
0.0
111
1.0
121
0.0
131
0.0
112
0.0
122
1.0
132
0.0
 79
     0
146
0.0
  0
ENDTAB
  0
TABLE
  2
LTYPE
  5
5
330
0
100
AcDbSymbolTable
 70
     2
  0
LTYPE
  5
14
330
5
100
AcDbSymbolTableRecord
100
AcDbLinetypeTableRecord
  2
ByBlock
 70
     0
  3

 72
    65
 73
     0
 40
0.0
  0
LTYPE
  5
15
330
5
100
AcDbSymbolTableRecord
100
AcDbLinetypeTableRecord
  2
ByLayer
 70
     0
  3

 72
    65
 73
     0
 40
0.0
  0
LTYPE
  5
16
330
5
100
AcDbSymbolTableRecord
100
AcDbLinetypeTableRecord
  2
Continuous
 70
     0
  3
Solid line
 72
    65
 73
     0
 40
0.0
  0
LTYPE
  5
60
330
5
100
AcDbSymbolTableRecord
100
AcDbLinetypeTableRecord
  2
CENTER2
 70
     0
  3
Center (.5x) ___ _ ___ _ ___ _ ___ _ ___ _ ___
 72
    65
 73
     4
 40
28.575
 49
19.05
 74
     4
 75
     0
340
0
 46
0.0
 50
0.0
 44
0.0
 45
0.0
 49
-3.175
 74
     4
 75
     0
340
0
 46
0.0
 50
0.0
 44
0.0
 45
0.0
 49
3.175
 74
     4
 75
     0
340
0
 46
0.0
 50
0.0
 44
0.0
 45
0.0
 49
-3.175
 74
     4
 75
     0
340
0
 46
0.0
 50
0.0
 44
0.0
 45
0.0
  0
ENDTAB
  0
TABLE
  2
LAYER
  5
2
330
0
100
AcDbSymbolTable
 70
     7
  0
LAYER
  5
10
330
2
100
AcDbSymbolTableRecord
100
AcDbLayerTableRecord
  2
0
 70
     0
 62
     7
  6
Continuous
370
    -3
390
F
  0
LAYER
  5
5D
330
2
100
AcDbSymbolTableRecord
100
AcDbLayerTableRecord
  2
Default
 70
     0
 62
     7
  6
Continuous
370
    -3
390
F
  0
LAYER
  5
77
330
2
100
AcDbSymbolTableRecord
100
AcDbLayerTableRecord
  2
$DDT_AUDIT_GENERATED_(77)
 70
     0
 62
     7
  6
Continuous
370
    -3
390
F
  0
LAYER
  5
80
330
2
100
AcDbSymbolTableRecord
100
AcDbLayerTableRecord
  2
$DDT_AUDIT_GENERATED_(80)
 70
     0
 62
     7
  6
Continuous
370
    -3
390
F
  0
LAYER
  5
91
330
2
100
AcDbSymbolTableRecord
100
AcDbLayerTableRecord
  2
$DDT_AUDIT_GENERATED_(91)
 70
     0
 62
     7
  6
Continuous
370
    -3
390
F
  0
LAYER
  5
96
330
2
100
AcDbSymbolTableRecord
100
AcDbLayerTableRecord
  2
$DDT_AUDIT_GENERATED_(96)
 70
     0
 62
     7
  6
Continuous
370
    -3
390
F
  0
LAYER
  5
9A
330
2
100
AcDbSymbolTableRecord
100
AcDbLayerTableRecord
  2
$DDT_AUDIT_GENERATED_(9A)
 70
     0
 62
     7
  6
Continuous
370
    -3
390
F
  0
ENDTAB
  0
TABLE
  2
STYLE
  5
3
330
0
100
AcDbSymbolTable
 70
     2
  0
STYLE
  5
11
330
3
100
AcDbSymbolTableRecord
100
AcDbTextStyleTableRecord
  2
Standard
 70
     0
 40
0.0
 41
1.0
 50
0.0
 71
     0
 42
2.5
  3
txt
  4

  0
STYLE
  5
109
330
3
100
AcDbSymbolTableRecord
100
AcDbTextStyleTableRecord
  2
SEACAD_seiso_ttf
 70
     0
 40
0.0
 41
1.0
 50
0.0
 71
     0
 42
0.2
  3
seiso.ttf
  4

  0
ENDTAB
  0
TABLE
  2
VIEW
  5
6
330
0
100
AcDbSymbolTable
 70
     0
  0
ENDTAB
  0
TABLE
  2
UCS
  5
7
330
0
100
AcDbSymbolTable
 70
     0
  0
ENDTAB
  0
TABLE
  2
APPID
  5
9
330
0
100
AcDbSymbolTable
 70
     1
  0
APPID
  5
12
330
9
100
AcDbSymbolTableRecord
100
AcDbRegAppTableRecord
  2
ACAD
 70
     0
  0
ENDTAB
  0
TABLE
  2
DIMSTYLE
  5
A
330
0
100
AcDbSymbolTable
 70
     1
100
AcDbDimStyleTable
  0
DIMSTYLE
105
27
330
A
100
AcDbSymbolTableRecord
100
AcDbDimStyleTableRecord
  2
ISO-25
 70
     0
 41
2.5
 42
0.625
 43
3.75
 44
1.25
 73
     0
 74
     0
 77
     1
 78
     8
140
2.5
141
2.5
143
0.0393700787
147
0.625
171
     3
172
     1
271
     2
272
     2
274
     3
278
    44
283
     0
284
     8
340
11
  0
ENDTAB
  0
TABLE
  2
BLOCK_RECORD
  5
1
330
0
100
AcDbSymbolTable
 70
     7
  0
BLOCK_RECORD
  5
1F
330
1
100
AcDbSymbolTableRecord
100
AcDbBlockTableRecord
  2
*Model_Space
340
22
  0
BLOCK_RECORD
  5
1B
330
1
100
AcDbSymbolTableRecord
100
AcDbBlockTableRecord
  2
*Paper_Space
340
1E
  0
BLOCK_RECORD
  5
5E
330
1
100
AcDbSymbolTableRecord
100
AcDbBlockTableRecord
  2
SEANNOT_GROUP
340
0
102
{BLKREFS
331
5F
102
}
  0
BLOCK_RECORD
  5
69
330
1
100
AcDbSymbolTableRecord
100
AcDbBlockTableRecord
  2
SEANNOT_GROUP1
340
0
102
{BLKREFS
331
6A
102
}
  0
BLOCK_RECORD
  5
6F
330
1
100
AcDbSymbolTableRecord
100
AcDbBlockTableRecord
  2
SEANNOT_GROUP2
340
0
102
{BLKREFS
331
70
102
}
  0
BLOCK_RECORD
  5
75
330
1
100
AcDbSymbolTableRecord
100
AcDbBlockTableRecord
  2
SE
340
0
102
{BLKREFS
331
76
102
}
  0
BLOCK_RECORD
  5
A5
330
1
100
AcDbSymbolTableRecord
100
AcDbBlockTableRecord
  2
SE1
340
0
102
{BLKREFS
331
A6
102
}
  0
BLOCK_RECORD
  5
D6
330
1
100
AcDbSymbolTableRecord
100
AcDbBlockTableRecord
  2
SE2
340
0
102
{BLKREFS
331
D7
102
}
  0
ENDTAB
  0
ENDSEC
  0
SECTION
  2
BLOCKS
  0
BLOCK
  5
20
330
1F
100
AcDbEntity
  8
0
100
AcDbBlockBegin
  2
*Model_Space
 70
     0
 10
0.0
 20
0.0
 30
0.0
  3
*Model_Space
  1

  0
ENDBLK
  5
21
330
1F
100
AcDbEntity
  8
0
100
AcDbBlockEnd
  0
BLOCK
  5
1C
330
1B
100
AcDbEntity
 67
     1
  8
0
100
AcDbBlockBegin
  2
*Paper_Space
 70
     0
 10
0.0
 20
0.0
 30
0.0
  3
*Paper_Space
  1

  0
ENDBLK
  5
1D
330
1B
100
AcDbEntity
 67
     1
  8
0
100
AcDbBlockEnd
  0
BLOCK
  5
67
330
5E
100
AcDbEntity
  8
0
100
AcDbBlockBegin
  2
SEANNOT_GROUP
 70
     0
 10
0.0
 20
0.0
 30
0.0
  3
SEANNOT_GROUP
  1

  0
LINE
  5
61
330
5E
100
AcDbEntity
  8
Default
  6
CENTER2
 62
     7
100
AcDbLine
 10
158.076884419
 20
343.9190964877
 30
0.0
 11
118.0768853131
 21
343.9190964877
 31
0.0
  0
LINE
  5
62
330
5E
100
AcDbEntity
  8
Default
  6
CENTER2
 62
     7
100
AcDbLine
 10
138.0768848661
 20
363.9190960407
 30
0.0
 11
138.0768848661
 21
323.9190969348
 31
0.0
  0
LINE
  5
63
330
5E
100
AcDbEntity
  8
Default
  6
CENTER2
 62
     7
100
AcDbLine
 10
163.0768843073
 20
343.9190964877
 30
0.0
 11
169.0768848661
 21
343.9190964877
 31
0.0
  0
LINE
  5
64
330
5E
100
AcDbEntity
  8
Default
  6
CENTER2
 62
     7
100
AcDbLine
 10
138.0768848661
 20
368.919095929
 30
0.0
 11
138.0768848661
 21
374.9190964877
 31
0.0
  0
LINE
  5
65
330
5E
100
AcDbEntity
  8
Default
  6
CENTER2
 62
     7
100
AcDbLine
 10
113.0768854249
 20
343.9190964877
 30
0.0
 11
107.0768848661
 21
343.9190964877
 31
0.0
  0
LINE
  5
66
330
5E
100
AcDbEntity
  8
Default
  6
CENTER2
 62
     7
100
AcDbLine
 10
138.0768848661
 20
318.9190970465
 30
0.0
 11
138.0768848661
 21
312.9190964877
 31
0.0
  0
ENDBLK
  5
68
330
5E
100
AcDbEntity
  8
0
100
AcDbBlockEnd
  0
BLOCK
  5
6D
330
69
100
AcDbEntity
  8
0
100
AcDbBlockBegin
  2
SEANNOT_GROUP1
 70
     0
 10
0.0
 20
0.0
 30
0.0
  3
SEANNOT_GROUP1
  1

  0
LINE
  5
6B
330
69
100
AcDbEntity
  8
Default
  6
CENTER2
 62
     7
100
AcDbLine
 10
158.076884419
 20
182.9443915219
 30
0.0
 11
118.0768853131
 21
182.9443915219
 31
0.0
  0
LINE
  5
6C
330
69
100
AcDbEntity
  8
Default
  6
CENTER2
 62
     7
100
AcDbLine
 10
138.0768848661
 20
202.9443910748
 30
0.0
 11
138.0768848661
 21
162.9443919689
 31
0.0
  0
ENDBLK
  5
6E
330
69
100
AcDbEntity
  8
0
100
AcDbBlockEnd
  0
BLOCK
  5
73
330
6F
100
AcDbEntity
  8
0
100
AcDbBlockBegin
  2
SEANNOT_GROUP2
 70
     0
 10
0.0
 20
0.0
 30
0.0
  3
SEANNOT_GROUP2
  1

  0
LINE
  5
71
330
6F
100
AcDbEntity
  8
Default
  6
CENTER2
 62
     7
100
AcDbLine
 10
342.4061219852
 20
343.9190964877
 30
0.0
 11
302.4061228793
 21
343.9190964877
 31
0.0
  0
LINE
  5
72
330
6F
100
AcDbEntity
  8
Default
  6
CENTER2
 62
     7
100
AcDbLine
 10
322.4061224323
 20
363.9190960407
 30
0.0
 11
322.4061224323
 21
323.9190969348
 31
0.0
  0
ENDBLK
  5
74
330
6F
100
AcDbEntity
  8
0
100
AcDbBlockEnd
  0
BLOCK
  5
A3
330
75
100
AcDbEntity
  8
0
100
AcDbBlockBegin
  2
SE
 70
     0
 10
0.0
 20
0.0
 30
0.0
  3
SE
  1

  0
ARC
  5
78
330
75
100
AcDbEntity
  8
$DDT_AUDIT_GENERATED_(77)
  6
Continuous
 62
     7
100
AcDbCircle
 10
138.0768848661
 20
343.9190964877
 30
0.0
 40
15.0
100
AcDbArc
 50
353.5781784782
 51
0.0
  0
ARC
  5
79
330
75
100
AcDbEntity
  8
$DDT_AUDIT_GENERATED_(77)
  6
Continuous
 62
     7
100
AcDbCircle
 10
138.0768848661
 20
343.9190964877
 30
0.0
 40
15.0
100
AcDbArc
 50
233.5781784782
 51
306.4218215218
  0
ARC
  5
7A
330
75
100
AcDbEntity
  8
$DDT_AUDIT_GENERATED_(77)
  6
Continuous
 62
     7
100
AcDbCircle
 10
138.0768848661
 20
343.9190964877
 30
0.0
 40
15.0
100
AcDbArc
 50
113.5781784782
 51
186.4218215218
  0
ARC
  5
7B
330
75
100
AcDbEntity
  8
$DDT_AUDIT_GENERATED_(77)
  6
Continuous
 62
     7
100
AcDbCircle
 10
138.0768848661
 20
343.9190964877
 30
0.0
 40
15.0
100
AcDbArc
 50
0.0
 51
66.4218215218
  0
ARC
  5
7C
330
75
100
AcDbEntity
  8
$DDT_AUDIT_GENERATED_(77)
  6
Continuous
 62
     7
100
AcDbCircle
 10
138.0768848661
 20
343.9190964877
 30
0.0
 40
18.0
100
AcDbArc
 50
349.4712206345
 51
0.0
  0
ARC
  5
7D
330
75
100
AcDbEntity
  8
$DDT_AUDIT_GENERATED_(77)
  6
Continuous
 62
     7
100
AcDbCircle
 10
138.0768848661
 20
343.9190964877
 30
0.0
 40
18.0
100
AcDbArc
 50
229.4712206345
 51
310.5287793655
  0
ARC
  5
7E
330
75
100
AcDbEntity
  8
$DDT_AUDIT_GENERATED_(77)
  6
Continuous
 62
     7
100
AcDbCircle
 10
138.0768848661
 20
343.9190964877
 30
0.0
 40
18.0
100
AcDbArc
 50
109.4712206345
 51
190.5287793655
  0
ARC
  5
7F
330
75
100
AcDbEntity
  8
$DDT_AUDIT_GENERATED_(77)
  6
Continuous
 62
     7
100
AcDbCircle
 10
138.0768848661
 20
343.9190964877
 30
0.0
 40
18.0
100
AcDbArc
 50
0.0
 51
70.5287793655
  0
CIRCLE
  5
81
330
75
100
AcDbEntity
  8
$DDT_AUDIT_GENERATED_(80)
  6
Continuous
 62
     7
100
AcDbCircle
 10
138.0768848661
 20
343.9190964877
 30
0.0
 40
9.75
  0
LINE
  5
82
330
75
100
AcDbEntity
  8
$DDT_AUDIT_GENERATED_(80)
  6
Continuous
 62
     7
100
AcDbLine
 10
167.802837508
 20
320.4059567669
 30
0.0
 11
173.302837508
 21
329.9322362086
 31
0.0
  0
LINE
  5
83
330
75
100
AcDbEntity
  8
$DDT_AUDIT_GENERATED_(80)
  6
Continuous
 62
     7
100
AcDbLine
 10
143.5768848661
 20
381.4190964877
 30
0.0
 11
132.5768848661
 21
381.4190964877
 31
0.0
  0
LINE
  5
84
330
75
100
AcDbEntity
  8
$DDT_AUDIT_GENERATED_(80)
  6
Continuous
 62
     7
100
AcDbLine
 10
102.8509322241
 20
329.9322362086
 30
0.0
 11
108.3509322241
 21
320.4059567669
 31
0.0
  0
LINE
  5
85
330
75
100
AcDbEntity
  8
$DDT_AUDIT_GENERATED_(80)
  6
Continuous
 62
     7
100
AcDbLine
 10
109.033944926
 20
320.222944065
 30
0.0
 11
134.4212951101
 21
334.8803375278
 31
0.0
  0
LINE
  5
86
330
75
100
AcDbEntity
  8
$DDT_AUDIT_GENERATED_(80)
  6
Continuous
 62
     7
100
AcDbLine
 10
128.417555083
 20
345.2704830676
 30
0.0
 11
103.033944926
 21
330.6152489105
 31
0.0
  0
LINE
  5
87
330
75
100
AcDbEntity
  8
$DDT_AUDIT_GENERATED_(80)
  6
Continuous
 62
     7
100
AcDbLine
 10
132.0768848661
 20
380.9190964877
 30
0.0
 11
132.0768848661
 21
351.6043095622
 31
0.0
  0
LINE
  5
88
330
75
100
AcDbEntity
  8
$DDT_AUDIT_GENERATED_(80)
  6
Continuous
 62
     7
100
AcDbLine
 10
144.0768848661
 20
351.6086281734
 30
0.0
 11
144.0768848661
 21
380.9190964877
 31
0.0
  0
LINE
  5
89
330
75
100
AcDbEntity
  8
$DDT_AUDIT_GENERATED_(80)
  6
Continuous
 62
     7
100
AcDbLine
 10
173.1198248061
 20
330.6152489105
 30
0.0
 11
147.732474622
 21
345.2726423732
 31
0.0
  0
LINE
  5
8A
330
75
100
AcDbEntity
  8
$DDT_AUDIT_GENERATED_(80)
  6
Continuous
 62
     7
100
AcDbLine
 10
141.7362146491
 20
334.8781782222
 30
0.0
 11
167.1198248061
 21
320.222944065
 31
0.0
  0
ARC
  5
8B
330
75
100
AcDbEntity
  8
$DDT_AUDIT_GENERATED_(80)
  6
Continuous
 62
     7
100
AcDbCircle
 10
167.3698248061
 20
320.6559567669
 30
0.0
 40
0.5000000000000007
100
AcDbArc
 50
240.0
 51
330.0
  0
ARC
  5
8C
330
75
100
AcDbEntity
  8
$DDT_AUDIT_GENERATED_(80)
  6
Continuous
 62
     7
100
AcDbCircle
 10
172.8698248061
 20
330.1822362086
 30
0.0
 40
0.5000000000000002
100
AcDbArc
 50
330.0
 51
60.0
  0
ARC
  5
8D
330
75
100
AcDbEntity
  8
$DDT_AUDIT_GENERATED_(80)
  6
Continuous
 62
     7
100
AcDbCircle
 10
143.5768848661
 20
380.9190964877
 30
0.0
 40
0.4999999999999987
100
AcDbArc
 50
0.0
 51
90.0
  0
ARC
  5
8E
330
75
100
AcDbEntity
  8
$DDT_AUDIT_GENERATED_(80)
  6
Continuous
 62
     7
100
AcDbCircle
 10
132.5768848661
 20
380.9190964877
 30
0.0
 40
0.5000000000000004
100
AcDbArc
 50
90.0
 51
180.0
  0
ARC
  5
8F
330
75
100
AcDbEntity
  8
$DDT_AUDIT_GENERATED_(80)
  6
Continuous
 62
     7
100
AcDbCircle
 10
108.783944926
 20
320.6559567669
 30
0.0
 40
0.500000000000002
100
AcDbArc
 50
210.0
 51
300.0
  0
ARC
  5
90
330
75
100
AcDbEntity
  8
$DDT_AUDIT_GENERATED_(80)
  6
Continuous
 62
     7
100
AcDbCircle
 10
103.283944926
 20
330.1822362086
 30
0.0
 40
0.4999999999999989
100
AcDbArc
 50
120.0
 51
210.0
  0
ARC
  5
92
330
75
100
AcDbEntity
  8
$DDT_AUDIT_GENERATED_(91)
  6
Continuous
 62
     7
100
AcDbCircle
 10
138.0768848661
 20
343.9190964877
 30
0.0
 40
14.85
100
AcDbArc
 50
353.8310078895
 51
0.0
  0
ARC
  5
93
330
75
100
AcDbEntity
  8
$DDT_AUDIT_GENERATED_(91)
  6
Continuous
 62
     7
100
AcDbCircle
 10
138.0768848661
 20
343.9190964877
 30
0.0
 40
14.85
100
AcDbArc
 50
233.8310078895
 51
306.1689921105
  0
ARC
  5
94
330
75
100
AcDbEntity
  8
$DDT_AUDIT_GENERATED_(91)
  6
Continuous
 62
     7
100
AcDbCircle
 10
138.0768848661
 20
343.9190964877
 30
0.0
 40
14.85
100
AcDbArc
 50
113.8310078895
 51
186.1689921105
  0
ARC
  5
95
330
75
100
AcDbEntity
  8
$DDT_AUDIT_GENERATED_(91)
  6
Continuous
 62
     7
100
AcDbCircle
 10
138.0768848661
 20
343.9190964877
 30
0.0
 40
14.85
100
AcDbArc
 50
0.0
 51
66.1689921105
  0
LINE
  5
97
330
75
100
AcDbEntity
  8
$DDT_AUDIT_GENERATED_(96)
  6
Continuous
 62
     7
100
AcDbLine
 10
136.5063848661
 20
334.1690964877
 30
0.0
 11
139.6473848661
 21
334.1690964877
 31
0.0
  0
LINE
  5
98
330
75
100
AcDbEntity
  8
$DDT_AUDIT_GENERATED_(96)
  6
Continuous
 62
     7
100
AcDbLine
 10
136.3527268286
 20
334.3227545252
 30
0.0
 11
136.5063848661
 21
334.1690964877
 31
0.0
  0
LINE
  5
99
330
75
100
AcDbEntity
  8
$DDT_AUDIT_GENERATED_(96)
  6
Continuous
 62
     7
100
AcDbLine
 10
139.6473848661
 20
334.1690964877
 30
0.0
 11
139.8010429035
 21
334.3227545252
 31
0.0
  0
ARC
  5
9B
330
75
100
AcDbEntity
  8
$DDT_AUDIT_GENERATED_(9A)
  6
Continuous
 62
     7
100
AcDbCircle
 10
138.0768848661
 20
343.9190964877
 30
0.0
 40
27.5
100
AcDbArc
 50
342.6022648415
 51
0.0
  0
ARC
  5
9C
330
75
100
AcDbEntity
  8
$DDT_AUDIT_GENERATED_(9A)
  6
Continuous
 62
     7
100
AcDbCircle
 10
138.0768848661
 20
343.9190964877
 30
0.0
 40
27.5
100
AcDbArc
 50
222.6022648415
 51
317.3977351585
  0
ARC
  5
9D
330
75
100
AcDbEntity
  8
$DDT_AUDIT_GENERATED_(9A)
  6
Continuous
 62
     7
100
AcDbCircle
 10
138.0768848661
 20
343.9190964877
 30
0.0
 40
27.5
100
AcDbArc
 50
102.6022648415
 51
197.3977351585
  0
ARC
  5
9E
330
75
100
AcDbEntity
  8
$DDT_AUDIT_GENERATED_(9A)
  6
Continuous
 62
     7
100
AcDbCircle
 10
138.0768848661
 20
343.9190964877
 30
0.0
 40
27.5
100
AcDbArc
 50
0.0
 51
77.3977351585
  0
ARC
  5
9F
330
75
100
AcDbEntity
  8
$DDT_AUDIT_GENERATED_(9A)
  6
Continuous
 62
     7
100
AcDbCircle
 10
138.0768848661
 20
343.9190964877
 30
0.0
 40
35.0
100
AcDbArc
 50
339.8708896061
 51
0.0
  0
ARC
  5
A0
330
75
100
AcDbEntity
  8
$DDT_AUDIT_GENERATED_(9A)
  6
Continuous
 62
     7
100
AcDbCircle
 10
138.0768848661
 20
343.9190964877
 30
0.0
 40
35.0
100
AcDbArc
 50
219.8708896061
 51
320.1291103939
  0
ARC
  5
A1
330
75
100
AcDbEntity
  8
$DDT_AUDIT_GENERATED_(9A)
  6
Continuous
 62
     7
100
AcDbCircle
 10
138.0768848661
 20
343.9190964877
 30
0.0
 40
35.0
100
AcDbArc
 50
99.8708896061
 51
200.1291103939
  0
ARC
  5
A2
330
75
100
AcDbEntity
  8
$DDT_AUDIT_GENERATED_(9A)
  6
Continuous
 62
     7
100
AcDbCircle
 10
138.0768848661
 20
343.9190964877
 30
0.0
 40
35.0
100
AcDbArc
 50
0.0
 51
80.1291103939
  0
ENDBLK
  5
A4
330
75
100
AcDbEntity
  8
0
100
AcDbBlockEnd
  0
BLOCK
  5
D4
330
A5
100
AcDbEntity
  8
0
100
AcDbBlockBegin
  2
SE1
 70
     0
 10
0.0
 20
0.0
 30
0.0
  3
SE1
  1

  0
LINE
  5
A7
330
A5
100
AcDbEntity
  8
$DDT_AUDIT_GENERATED_(77)
  6
Continuous
 62
     7
100
AcDbLine
 10
120.5768848661
 20
131.9443915219
 30
0.0
 11
155.5768848661
 21
131.9443915219
 31
0.0
  0
LINE
  5
A8
330
A5
100
AcDbEntity
  8
$DDT_AUDIT_GENERATED_(77)
  6
Continuous
 62
     7
100
AcDbLine
 10
120.0768848661
 20
172.9443915219
 30
0.0
 11
120.0768848661
 21
132.4443915219
 31
0.0
  0
LINE
  5
A9
330
A5
100
AcDbEntity
  8
$DDT_AUDIT_GENERATED_(77)
  6
Continuous
 62
     7
100
AcDbLine
 10
156.0768848661
 20
132.4443915219
 30
0.0
 11
156.0768848661
 21
172.9443915219
 31
0.0
  0
ARC
  5
AA
330
A5
100
AcDbEntity
  8
$DDT_AUDIT_GENERATED_(77)
  6
Continuous
 62
     7
100
AcDbCircle
 10
120.5768848661
 20
132.4443915219
 30
0.0
 40
0.5000000000000004
100
AcDbArc
 50
180.0
 51
270.0
  0
ARC
  5
AB
330
A5
100
AcDbEntity
  8
$DDT_AUDIT_GENERATED_(77)
  6
Continuous
 62
     7
100
AcDbCircle
 10
155.5768848661
 20
132.4443915219
 30
0.0
 40
0.5000000000000004
100
AcDbArc
 50
270.0
 51
0.0
  0
LINE
  5
AC
330
A5
100
AcDbEntity
  8
$DDT_AUDIT_GENERATED_(80)
  6
Continuous
 62
     7
100
AcDbLine
 10
128.3268848661
 20
126.9443915219
 30
0.0
 11
147.8268848661
 21
126.9443915219
 31
0.0
  0
SPLINE
  5
AD
330
A5
100
AcDbEntity
  8
$DDT_AUDIT_GENERATED_(80)
  6
Continuous
 62
     7
100
AcDbSpline
210
0.0
220
0.0
230
1.0
 70
     8
 71
     3
 72
    12
 73
     8
 74
     0
 42
0.0000000002817549
 43
0.0000000001
 40
0.4022822089976152
 40
0.4022822089976152
 40
0.4022822089976152
 40
0.4022822089976152
 40
0.4374999999999999
 40
0.4374999999999999
 40
0.5
 40
0.5
 40
0.5987838826946839
 40
0.5987838826946839
 40
0.5987838826946839
 40
0.5987838826946839
 10
128.3271093931081
 20
107.957568926641
 30
0.0
 10
128.3274018878844
 20
108.3085236502594
 30
0.0
 10
128.3403629327714
 20
108.6879741664121
 30
0.0
 10
128.3853862769832
 20
109.8033784449245
 30
0.0
 10
128.4206939752709
 20
110.6042208423648
 30
0.0
 10
128.4222220477642
 20
112.7084741255032
 30
0.0
 10
128.3249226816941
 20
113.93188561895
 30
0.0
 10
128.3260691001769
 20
114.9260041116722
 30
0.0
  0
SPLINE
  5
AE
330
A5
100
AcDbEntity
  8
$DDT_AUDIT_GENERATED_(80)
  6
Continuous
 62
     7
100
AcDbSpline
210
0.0
220
0.0
230
1.0
 70
     8
 71
     3
 72
     8
 73
     4
 74
     0
 42
0.0000000002822023
 43
0.0000000001
 40
0.0
 40
0.0
 40
0.0
 40
0.0
 40
0.0984565339952388
 40
0.0984565339952388
 40
0.0984565339952388
 40
0.0984565339952388
 10
147.7324746220486
 20
111.4443915218804
 30
0.0
 10
147.7324746220486
 20
112.7297356714085
 30
0.0
 10
147.8285844111217
 20
113.9439106372911
 30
0.0
 10
147.8275326125288
 20
114.9294567275667
 30
0.0
  0
SPLINE
  5
AF
330
A5
100
AcDbEntity
  8
$DDT_AUDIT_GENERATED_(80)
  6
Continuous
 62
     7
100
AcDbSpline
210
0.0
220
0.0
230
1.0
 70
     8
 71
     3
 72
    10
 73
     6
 74
     0
 42
0.0000000002806797
 43
0.0000000001
 40
0.9023151690163179
 40
0.9023151690163179
 40
0.9023151690163179
 40
0.9023151690163179
 40
0.9375000000000001
 40
0.9375000000000001
 40
1.0
 40
1.0
 40
1.0
 40
1.0
 10
147.8267714557913
 20
107.9660084870907
 30
0.0
 10
147.8262704011393
 20
108.3170416565639
 30
0.0
 10
147.8130913104294
 20
108.6969059634861
 30
0.0
 10
147.7674025629134
 20
109.8256439758588
 30
0.0
 10
147.7324746220486
 20
110.6284577683178
 30
0.0
 10
147.7324746220486
 20
111.4443915218804
 30
0.0
  0
LINE
  5
B0
330
A5
100
AcDbEntity
  8
$DDT_AUDIT_GENERATED_(80)
  6
Continuous
 62
     7
100
AcDbLine
 10
128.8268848661
 20
103.9443915219
 30
0.0
 11
147.3268848661
 21
103.9443915219
 31
0.0
  0
ELLIPSE
  5
B1
330
A5
100
AcDbEntity
  8
$DDT_AUDIT_GENERATED_(80)
  6
Continuous
 62
     7
100
AcDbEllipse
 10
170.1198248061
 20
111.4443915219
 30
0.0
 11
-1.285202317339155E-15
 21
-6.000000000000002
 31
0.0
210
0.0
220
0.0
230
1.0
 40
0.5
 41
6.277128741890752
 42
6.283185307179586
  0
CIRCLE
  5
B2
330
A5
100
AcDbEntity
  8
$DDT_AUDIT_GENERATED_(80)
  6
Continuous
 62
     7
100
AcDbCircle
 10
138.0768848661
 20
111.4443915219
 30
0.0
 40
6.0
  0
ELLIPSE
  5
B3
330
A5
100
AcDbEntity
  8
$DDT_AUDIT_GENERATED_(80)
  6
Continuous
 62
     7
100
AcDbEllipse
 10
106.033944926
 20
111.4443915219
 30
0.0
 11
-1.285202317339155E-15
 21
-6.000000000000002
 31
0.0
210
0.0
220
0.0
230
1.0
 40
0.5
 41
3.135536088299786
 42
3.141592653589793
  0
LINE
  5
B4
330
A5
100
AcDbEntity
  8
$DDT_AUDIT_GENERATED_(80)
  6
Continuous
 62
     7
100
AcDbLine
 10
106.033944926
 20
105.4443915219
 30
0.0
 11
128.3268848661
 21
105.4443915219
 31
0.0
  0
LINE
  5
B5
330
A5
100
AcDbEntity
  8
$DDT_AUDIT_GENERATED_(80)
  6
Continuous
 62
     7
100
AcDbLine
 10
128.3268848661
 20
117.4443915219
 30
0.0
 11
106.033944926
 21
117.4443915219
 31
0.0
  0
LINE
  5
B6
330
A5
100
AcDbEntity
  8
$DDT_AUDIT_GENERATED_(80)
  6
Continuous
 62
     7
100
AcDbLine
 10
170.1198248061
 20
117.4443915219
 30
0.0
 11
147.8268848661
 21
117.4443915219
 31
0.0
  0
LINE
  5
B7
330
A5
100
AcDbEntity
  8
$DDT_AUDIT_GENERATED_(80)
  6
Continuous
 62
     7
100
AcDbLine
 10
147.8268848661
 20
105.4443915219
 30
0.0
 11
170.1198248061
 21
105.4443915219
 31
0.0
  0
ARC
  5
B8
330
A5
100
AcDbEntity
  8
$DDT_AUDIT_GENERATED_(80)
  6
Continuous
 62
     7
100
AcDbCircle
 10
128.8268848661
 20
104.4443915219
 30
0.0
 40
0.5000000000000022
100
AcDbArc
 50
180.0
 51
270.0
  0
ARC
  5
B9
330
A5
100
AcDbEntity
  8
$DDT_AUDIT_GENERATED_(80)
  6
Continuous
 62
     7
100
AcDbCircle
 10
147.3268848661
 20
104.4443915219
 30
0.0
 40
0.499999999997499
100
AcDbArc
 50
270.0
 51
0.0
  0
SPLINE
  5
BA
330
A5
100
AcDbEntity
  8
$DDT_AUDIT_GENERATED_(80)
  6
Continuous
 62
     7
100
AcDbSpline
210
0.0
220
0.0
230
1.0
 70
     8
 71
     3
 72
    38
 73
    34
 74
     0
 42
0.0000000006686576
 43
0.0000000001
 40
0.0
 40
0.0
 40
0.0
 40
0.0
 40
0.019760684962099
 40
0.0500001258577265
 40
0.0803786395598421
 40
0.1113762157817116
 40
0.1432667078989121
 40
0.176049027412168
 40
0.2094899245428157
 40
0.2432753045689968
 40
0.2771386508907142
 40
0.3109283156748713
 40
0.344607976227789
 40
0.3781787457560687
 40
0.4116577908183942
 40
0.4450678270601338
 40
0.4784327330946437
 40
0.5117761400156473
 40
0.5451213653763493
 40
0.5784853037054354
 40
0.611890941258846
 40
0.6453636912629696
 40
0.6789305061320733
 40
0.7126191754137946
 40
0.7464552915045639
 40
0.7804540884389853
 40
0.8146020247048337
 40
0.8487988872729454
 40
0.8827801142107123
 40
0.9161775372347967
 40
0.9486335624080241
 40
0.9800365795013906
 40
1.0
 40
1.0
 40
1.0
 40
1.0
 10
170.0971335089159
 20
105.4519050331616
 30
0.0
 10
170.179962888653
 20
105.4501862066983
 30
0.0
 10
170.3576203137613
 20
105.4480613289169
 30
0.0
 10
170.667308234129
 20
105.5154351650034
 30
0.0
 10
170.9970909983687
 20
105.6437620934657
 30
0.0
 10
171.3175274850242
 20
105.8339247490153
 30
0.0
 10
171.6241116063087
 20
106.0827918269606
 30
0.0
 10
171.9154885771551
 20
106.3908452163772
 30
0.0
 10
172.187857108449
 20
106.7556118744868
 30
0.0
 10
172.4374605984467
 20
107.1726332653097
 30
0.0
 10
172.6610448387339
 20
107.6358561863644
 30
0.0
 10
172.8563516890871
 20
108.1389095674921
 30
0.0
 10
173.0218847283543
 20
108.6756938650019
 30
0.0
 10
173.1565895976687
 20
109.2404034622812
 30
0.0
 10
173.259632186331
 20
109.8272004359476
 30
0.0
 10
173.3303657450139
 20
110.4301382406047
 30
0.0
 10
173.3683383259586
 20
111.0431482128506
 30
0.0
 10
173.373310152215
 20
111.6600705087214
 30
0.0
 10
173.3452677031827
 20
112.2746698395579
 30
0.0
 10
173.2844334330622
 20
112.8807385319879
 30
0.0
 10
173.1912537048219
 20
113.4721810772709
 30
0.0
 10
173.0663585151181
 20
114.0431213093209
 30
0.0
 10
172.9105158013592
 20
114.5879232332434
 30
0.0
 10
172.7245708080212
 20
115.1012128949959
 30
0.0
 10
172.5093818774657
 20
115.5778552040126
 30
0.0
 10
172.265769620906
 20
116.0128573896139
 30
0.0
 10
171.9946701018176
 20
116.4010321621564
 30
0.0
 10
171.697486073427
 20
116.7366966347136
 30
0.0
 10
171.37723287934
 20
117.0134125929614
 30
0.0
 10
171.0375079095486
 20
117.2262894215733
 30
0.0
 10
170.6888350717565
 20
117.3679255763622
 30
0.0
 10
170.366054795331
 20
117.4401918013457
 30
0.0
 10
170.183473942253
 20
117.4384540687469
 30
0.0
 10
170.0997896560081
 20
117.4369050645676
 30
0.0
  0
SPLINE
  5
BB
330
A5
100
AcDbEntity
  8
$DDT_AUDIT_GENERATED_(80)
  6
Continuous
 62
     7
100
AcDbSpline
210
0.0
220
0.0
230
1.0
 70
     8
 71
     3
 72
    38
 73
    34
 74
     0
 42
0.0000000006686576
 43
0.0000000001
 40
0.0
 40
0.0
 40
0.0
 40
0.0
 40
0.0197606849621015
 40
0.0500001258577295
 40
0.080378639559844
 40
0.1113762157817139
 40
0.1432667078989153
 40
0.1760490274121706
 40
0.2094899245428178
 40
0.2432753045690003
 40
0.277138650890718
 40
0.3109283156748762
 40
0.3446079762277931
 40
0.3781787457560728
 40
0.4116577908183983
 40
0.445067827060138
 40
0.4784327330946472
 40
0.5117761400156514
 40
0.5451213653763519
 40
0.5784853037054378
 40
0.6118909412588491
 40
0.6453636912629725
 40
0.6789305061320753
 40
0.7126191754137959
 40
0.7464552915045675
 40
0.780454088438988
 40
0.814602024704836
 40
0.8487988872729475
 40
0.8827801142107142
 40
0.9161775372347969
 40
0.9486335624080255
 40
0.9800365795013917
 40
1.0
 40
1.0
 40
1.0
 40
1.0
 10
106.0566362232071
 20
117.4368780105992
 30
0.0
 10
105.97380684347
 20
117.4385968370626
 30
0.0
 10
105.7961494183617
 20
117.4407217148439
 30
0.0
 10
105.486461497994
 20
117.3733478787575
 30
0.0
 10
105.1566787337543
 20
117.2450209502951
 30
0.0
 10
104.8362422470987
 20
117.0548582947457
 30
0.0
 10
104.5296581258143
 20
116.8059912168002
 30
0.0
 10
104.2382811549678
 20
116.4979378273837
 30
0.0
 10
103.965912623674
 20
116.133171169274
 30
0.0
 10
103.7163091336762
 20
115.7161497784512
 30
0.0
 10
103.4927248933891
 20
115.2529268573964
 30
0.0
 10
103.2974180430358
 20
114.7498734762687
 30
0.0
 10
103.1318850037687
 20
114.2130891787589
 30
0.0
 10
102.9971801344543
 20
113.6483795814796
 30
0.0
 10
102.8941375457919
 20
113.0615826078132
 30
0.0
 10
102.8234039871091
 20
112.4586448031561
 30
0.0
 10
102.7854314061644
 20
111.8456348309102
 30
0.0
 10
102.7804595799079
 20
111.2287125350394
 30
0.0
 10
102.8085020289403
 20
110.6141132042029
 30
0.0
 10
102.8693362990608
 20
110.008044511773
 30
0.0
 10
102.9625160273011
 20
109.4166019664899
 30
0.0
 10
103.0874112170048
 20
108.8456617344399
 30
0.0
 10
103.2432539307639
 20
108.3008598105174
 30
0.0
 10
103.4291989241017
 20
107.7875701487649
 30
0.0
 10
103.6443878546572
 20
107.3109278397482
 30
0.0
 10
103.888000111217
 20
106.875925654147
 30
0.0
 10
104.1590996303053
 20
106.4877508816045
 30
0.0
 10
104.456283658696
 20
106.1520864090473
 30
0.0
 10
104.7765368527829
 20
105.8753704507995
 30
0.0
 10
105.1162618225744
 20
105.6624936221876
 30
0.0
 10
105.4649346603665
 20
105.5208574673987
 30
0.0
 10
105.787714936792
 20
105.4485912424151
 30
0.0
 10
105.97029578987
 20
105.450328975014
 30
0.0
 10
106.0539800761149
 20
105.4518779791932
 30
0.0
  0
LINE
  5
BC
330
A5
100
AcDbEntity
  8
$DDT_AUDIT_GENERATED_(80)
  6
Continuous
 62
     7
100
AcDbLine
 10
147.8268848661
 20
114.922459406
 30
0.0
 11
147.8268848661
 21
126.9443915219
 31
0.0
  0
LINE
  5
BD
330
A5
100
AcDbEntity
  8
$DDT_AUDIT_GENERATED_(80)
  6
Continuous
 62
     7
100
AcDbLine
 10
147.8268848661
 20
104.4443915219
 30
0.0
 11
147.8268848661
 21
107.9797745476
 31
0.0
  0
LINE
  5
BE
330
A5
100
AcDbEntity
  8
$DDT_AUDIT_GENERATED_(80)
  6
Continuous
 62
     7
100
AcDbLine
 10
128.3268848661
 20
107.9651059828
 30
0.0
 11
128.3268848661
 21
104.4443915219
 31
0.0
  0
LINE
  5
BF
330
A5
100
AcDbEntity
  8
$DDT_AUDIT_GENERATED_(80)
  6
Continuous
 62
     7
100
AcDbLine
 10
128.3268848661
 20
126.9443915219
 30
0.0
 11
128.3268848661
 21
114.9166895008
 31
0.0
  0
LINE
  5
C0
330
A5
100
AcDbEntity
  8
$DDT_AUDIT_GENERATED_(91)
  6
Continuous
 62
     7
100
AcDbLine
 10
123.7268848661
 20
127.7443915219
 30
0.0
 11
152.4268848661
 21
127.7443915219
 31
0.0
  0
LINE
  5
C1
330
A5
100
AcDbEntity
  8
$DDT_AUDIT_GENERATED_(91)
  6
Continuous
 62
     7
100
AcDbLine
 10
123.2268848661
 20
131.9443915219
 30
0.0
 11
123.2268848661
 21
128.2443915219
 31
0.0
  0
LINE
  5
C2
330
A5
100
AcDbEntity
  8
$DDT_AUDIT_GENERATED_(91)
  6
Continuous
 62
     7
100
AcDbLine
 10
152.9268848661
 20
128.2443915219
 30
0.0
 11
152.9268848661
 21
131.9443915219
 31
0.0
  0
LINE
  5
C3
330
A5
100
AcDbEntity
  8
$DDT_AUDIT_GENERATED_(91)
  6
Continuous
 62
     7
100
AcDbLine
 10
145.5768848661
 20
126.9443915219
 30
0.0
 11
145.5768848661
 21
127.7443915219
 31
0.0
  0
LINE
  5
C4
330
A5
100
AcDbEntity
  8
$DDT_AUDIT_GENERATED_(91)
  6
Continuous
 62
     7
100
AcDbLine
 10
130.5768848661
 20
127.7443915219
 30
0.0
 11
130.5768848661
 21
126.9443915219
 31
0.0
  0
ARC
  5
C5
330
A5
100
AcDbEntity
  8
$DDT_AUDIT_GENERATED_(91)
  6
Continuous
 62
     7
100
AcDbCircle
 10
123.7268848661
 20
128.2443915219
 30
0.0
 40
0.5000000000000004
100
AcDbArc
 50
180.0
 51
270.0
  0
ARC
  5
C6
330
A5
100
AcDbEntity
  8
$DDT_AUDIT_GENERATED_(91)
  6
Continuous
 62
     7
100
AcDbCircle
 10
152.4268848661
 20
128.2443915219
 30
0.0
 40
0.5000000000000004
100
AcDbArc
 50
270.0
 51
0.0
  0
LINE
  5
C7
330
A5
100
AcDbEntity
  8
$DDT_AUDIT_GENERATED_(9A)
  6
Continuous
 62
     7
100
AcDbLine
 10
103.0768848661
 20
182.9443915219
 30
0.0
 11
173.0768848661
 21
182.9443915219
 31
0.0
  0
LINE
  5
C8
330
A5
100
AcDbEntity
  8
$DDT_AUDIT_GENERATED_(9A)
  6
Continuous
 62
     7
100
AcDbLine
 10
111.0768848661
 20
172.9443915219
 30
0.0
 11
165.0768848661
 21
172.9443915219
 31
0.0
  0
LINE
  5
C9
330
A5
100
AcDbEntity
  8
$DDT_AUDIT_GENERATED_(9A)
  6
Continuous
 62
     7
100
AcDbLine
 10
103.5768848661
 20
176.9443915219
 30
0.0
 11
172.5768848661
 21
176.9443915219
 31
0.0
  0
LINE
  5
CA
330
A5
100
AcDbEntity
  8
$DDT_AUDIT_GENERATED_(9A)
  6
Continuous
 62
     7
100
AcDbLine
 10
165.5768848661
 20
173.4443915219
 30
0.0
 11
165.5768848661
 21
176.4443915219
 31
0.0
  0
LINE
  5
CB
330
A5
100
AcDbEntity
  8
$DDT_AUDIT_GENERATED_(9A)
  6
Continuous
 62
     7
100
AcDbLine
 10
110.5768848661
 20
176.4443915219
 30
0.0
 11
110.5768848661
 21
173.4443915219
 31
0.0
  0
LINE
  5
CC
330
A5
100
AcDbEntity
  8
$DDT_AUDIT_GENERATED_(9A)
  6
Continuous
 62
     7
100
AcDbLine
 10
173.0768848661
 20
177.4443915219
 30
0.0
 11
173.0768848661
 21
182.9443915219
 31
0.0
  0
LINE
  5
CD
330
A5
100
AcDbEntity
  8
$DDT_AUDIT_GENERATED_(9A)
  6
Continuous
 62
     7
100
AcDbLine
 10
103.0768848661
 20
182.9443915219
 30
0.0
 11
103.0768848661
 21
177.4443915219
 31
0.0
  0
ARC
  5
CE
330
A5
100
AcDbEntity
  8
$DDT_AUDIT_GENERATED_(9A)
  6
Continuous
 62
     7
100
AcDbCircle
 10
111.0768848661
 20
173.4443915219
 30
0.0
 40
0.5000000000000004
100
AcDbArc
 50
180.0
 51
270.0
  0
ARC
  5
CF
330
A5
100
AcDbEntity
  8
$DDT_AUDIT_GENERATED_(9A)
  6
Continuous
 62
     7
100
AcDbCircle
 10
165.0768848661
 20
173.4443915219
 30
0.0
 40
0.5000000000000004
100
AcDbArc
 50
270.0
 51
0.0
  0
ARC
  5
D0
330
A5
100
AcDbEntity
  8
$DDT_AUDIT_GENERATED_(9A)
  6
Continuous
 62
     7
100
AcDbCircle
 10
103.5768848661
 20
177.4443915219
 30
0.0
 40
0.5000000000000004
100
AcDbArc
 50
180.0
 51
270.0
  0
ARC
  5
D1
330
A5
100
AcDbEntity
  8
$DDT_AUDIT_GENERATED_(9A)
  6
Continuous
 62
     7
100
AcDbCircle
 10
172.5768848661
 20
177.4443915219
 30
0.0
 40
0.5000000000000004
100
AcDbArc
 50
270.0
 51
0.0
  0
ARC
  5
D2
330
A5
100
AcDbEntity
  8
$DDT_AUDIT_GENERATED_(9A)
  6
Continuous
 62
     7
100
AcDbCircle
 10
110.0768848661
 20
176.4443915219
 30
0.0
 40
0.5000000000000004
100
AcDbArc
 50
0.0
 51
90.0
  0
ARC
  5
D3
330
A5
100
AcDbEntity
  8
$DDT_AUDIT_GENERATED_(9A)
  6
Continuous
 62
     7
100
AcDbCircle
 10
166.0768848661
 20
176.4443915219
 30
0.0
 40
0.5000000000000004
100
AcDbArc
 50
90.0
 51
180.0
  0
ENDBLK
  5
D5
330
A5
100
AcDbEntity
  8
0
100
AcDbBlockEnd
  0
BLOCK
  5
107
330
D6
100
AcDbEntity
  8
0
100
AcDbBlockBegin
  2
SE2
 70
     0
 10
0.0
 20
0.0
 30
0.0
  3
SE2
  1

  0
LINE
  5
D8
330
D6
100
AcDbEntity
  8
$DDT_AUDIT_GENERATED_(77)
  6
Continuous
 62
     7
100
AcDbLine
 10
373.4061224323
 20
361.4190964877
 30
0.0
 11
373.4061224323
 21
326.4190964877
 31
0.0
  0
LINE
  5
D9
330
D6
100
AcDbEntity
  8
$DDT_AUDIT_GENERATED_(77)
  6
Continuous
 62
     7
100
AcDbLine
 10
332.4061224323
 20
325.9190964877
 30
0.0
 11
372.9061224323
 21
325.9190964877
 31
0.0
  0
LINE
  5
DA
330
D6
100
AcDbEntity
  8
$DDT_AUDIT_GENERATED_(77)
  6
Continuous
 62
     7
100
AcDbLine
 10
372.9061224323
 20
361.9190964877
 30
0.0
 11
332.4061224323
 21
361.9190964877
 31
0.0
  0
ARC
  5
DB
330
D6
100
AcDbEntity
  8
$DDT_AUDIT_GENERATED_(77)
  6
Continuous
 62
     7
100
AcDbCircle
 10
372.9061224323
 20
326.4190964877
 30
0.0
 40
0.5000000000000004
100
AcDbArc
 50
270.0
 51
0.0
  0
ARC
  5
DC
330
D6
100
AcDbEntity
  8
$DDT_AUDIT_GENERATED_(77)
  6
Continuous
 62
     7
100
AcDbCircle
 10
372.9061224323
 20
361.4190964877
 30
0.0
 40
0.5000000000000004
100
AcDbArc
 50
0.0
 51
90.0
  0
LINE
  5
DD
330
D6
100
AcDbEntity
  8
$DDT_AUDIT_GENERATED_(80)
  6
Continuous
 62
     7
100
AcDbLine
 10
378.4061224323
 20
353.6690964877
 30
0.0
 11
378.4061224323
 21
334.1690964877
 31
0.0
  0
SPLINE
  5
DE
330
D6
100
AcDbEntity
  8
$DDT_AUDIT_GENERATED_(80)
  6
Continuous
 62
     7
100
AcDbSpline
210
0.0
220
0.0
230
1.0
 70
     8
 71
     3
 72
    22
 73
    18
 74
     0
 42
0.0000000002606264
 43
0.0000000001
 40
0.2506472005983317
 40
0.2506472005983317
 40
0.2506472005983317
 40
0.2506472005983317
 40
0.3124999999999999
 40
0.3124999999999999
 40
0.3749999999999999
 40
0.3749999999999999
 40
0.4374999999999999
 40
0.4374999999999999
 40
0.5
 40
0.5
 40
0.625
 40
0.625
 40
0.6875
 40
0.6875
 40
0.75
 40
0.75
 40
0.750564045431132
 40
0.750564045431132
 40
0.750564045431132
 40
0.750564045431132
 10
399.9061210372348
 20
339.0447301770153
 30
0.0
 10
399.9059382388281
 20
339.7388656955389
 30
0.0
 10
399.7412369860096
 20
340.4815546880828
 30
0.0
 10
399.1350235448145
 20
341.9112147834225
 30
0.0
 10
398.6926395397358
 20
342.6002257492833
 30
0.0
 10
397.6163597258687
 20
343.7951882564395
 30
0.0
 10
396.9739538335145
 20
344.3115291104867
 30
0.0
 10
395.5471355091968
 20
345.0476604889348
 30
0.0
 10
394.7462931117565
 20
345.2683539414552
 30
0.0
 10
392.3000009962861
 20
345.2810269885397
 30
0.0
 10
390.773876359664
 20
344.4236262610732
 30
0.0
 10
389.1398687756663
 20
342.6291253640379
 30
0.0
 10
388.7000192536829
 20
341.9521442165643
 30
0.0
 10
388.0775577161164
 20
340.5091790658695
 30
0.0
 10
387.9092134135532
 20
339.7690822355588
 30
0.0
 10
387.9061370491497
 20
339.0572152083789
 30
0.0
 10
387.9061232822216
 20
339.0508532048208
 30
0.0
 10
387.906123241553
 20
339.0444961757819
 30
0.0
  0
ARC
  5
DF
330
D6
100
AcDbEntity
  8
$DDT_AUDIT_GENERATED_(80)
  6
Continuous
 62
     7
100
AcDbCircle
 10
393.9061224195
 20
361.2181105626
 30
0.0
 40
9.643008853318461
100
AcDbArc
 50
231.5221308857
 51
308.4778726016
  0
LINE
  5
E0
330
D6
100
AcDbEntity
  8
$DDT_AUDIT_GENERATED_(80)
  6
Continuous
 62
     7
100
AcDbLine
 10
401.4061224322
 20
353.1690964877
 30
0.0
 11
401.4061224322
 21
334.6690964877
 31
0.0
  0
LINE
  5
E1
330
D6
100
AcDbEntity
  8
$DDT_AUDIT_GENERATED_(80)
  6
Continuous
 62
     7
100
AcDbLine
 10
388.4061224322
 20
381.4190964877
 30
0.0
 11
399.4061224322
 21
381.4190964877
 31
0.0
  0
ELLIPSE
  5
E2
330
D6
100
AcDbEntity
  8
$DDT_AUDIT_GENERATED_(80)
  6
Continuous
 62
     7
100
AcDbEllipse
 10
393.9061224322
 20
325.4190964877
 30
0.0
 11
5.999999999999998
 21
-2.428612866367530E-14
 31
0.0
210
0.0
220
0.0
230
1.0
 40
0.8660254038
 41
6.044243166885626
 42
6.28318530717958
  0
ELLIPSE
  5
E3
330
D6
100
AcDbEntity
  8
$DDT_AUDIT_GENERATED_(80)
  6
Continuous
 62
     7
100
AcDbEllipse
 10
393.9061224322
 20
325.4190964877
 30
0.0
 11
5.999999999999998
 21
-2.428612866367530E-14
 31
0.0
210
0.0
220
0.0
230
1.0
 40
0.8660254038
 41
2.886760850845465
 42
3.40226649162423
  0
ELLIPSE
  5
E4
330
D6
100
AcDbEntity
  8
$DDT_AUDIT_GENERATED_(80)
  6
Continuous
 62
     7
100
AcDbEllipse
 10
393.9061224322
 20
325.4190964877
 30
0.0
 11
5.999999999999998
 21
-2.428612866367530E-14
 31
0.0
210
0.0
220
0.0
230
1.0
 40
0.8660254038
 41
0.0000000000000047
 42
0.2595830651367317
  0
LINE
  5
E5
330
D6
100
AcDbEntity
  8
$DDT_AUDIT_GENERATED_(80)
  6
Continuous
 62
     7
100
AcDbLine
 10
399.9061224322
 20
325.4190964877
 30
0.0
 11
399.9061224322
 21
339.0482227976
 31
0.0
  0
LINE
  5
E6
330
D6
100
AcDbEntity
  8
$DDT_AUDIT_GENERATED_(80)
  6
Continuous
 62
     7
100
AcDbLine
 10
387.9061224322
 20
339.0474133088
 30
0.0
 11
387.9061224322
 21
325.4190964877
 31
0.0
  0
LINE
  5
E7
330
D6
100
AcDbEntity
  8
$DDT_AUDIT_GENERATED_(80)
  6
Continuous
 62
     7
100
AcDbLine
 10
387.9061224322
 20
380.9190964877
 30
0.0
 11
387.9061224322
 21
353.6608438681
 31
0.0
  0
LINE
  5
E8
330
D6
100
AcDbEntity
  8
$DDT_AUDIT_GENERATED_(80)
  6
Continuous
 62
     7
100
AcDbLine
 10
399.9061224322
 20
353.6624628457
 30
0.0
 11
399.9061224322
 21
380.9190964877
 31
0.0
  0
ARC
  5
E9
330
D6
100
AcDbEntity
  8
$DDT_AUDIT_GENERATED_(80)
  6
Continuous
 62
     7
100
AcDbCircle
 10
400.9061224322
 20
334.6690964877
 30
0.0
 40
0.5000000000000022
100
AcDbArc
 50
270.0
 51
0.0
  0
ARC
  5
EA
330
D6
100
AcDbEntity
  8
$DDT_AUDIT_GENERATED_(80)
  6
Continuous
 62
     7
100
AcDbCircle
 10
400.9061224322
 20
353.1690964877
 30
0.0
 40
0.499999999997499
100
AcDbArc
 50
0.0
 51
90.0
  0
ARC
  5
EB
330
D6
100
AcDbEntity
  8
$DDT_AUDIT_GENERATED_(80)
  6
Continuous
 62
     7
100
AcDbCircle
 10
399.4061224322
 20
380.9190964877
 30
0.0
 40
0.5000000000000004
100
AcDbArc
 50
0.0
 51
90.0
  0
ARC
  5
EC
330
D6
100
AcDbEntity
  8
$DDT_AUDIT_GENERATED_(80)
  6
Continuous
 62
     7
100
AcDbCircle
 10
388.4061224322
 20
380.9190964877
 30
0.0
 40
0.5000000000000004
100
AcDbArc
 50
90.0
 51
180.0
  0
ARC
  5
ED
330
D6
100
AcDbEntity
  8
$DDT_AUDIT_GENERATED_(80)
  6
Continuous
 62
     7
100
AcDbCircle
 10
393.6771256831
 20
326.061634953
 30
0.0
 40
5.910116272036031
100
AcDbArc
 50
199.9326406783
 51
272.2205709393
  0
ARC
  5
EE
330
D6
100
AcDbEntity
  8
$DDT_AUDIT_GENERATED_(80)
  6
Continuous
 62
     7
100
AcDbCircle
 10
394.144761223
 20
326.0479421325
 30
0.0
 40
5.896816091790249
100
AcDbArc
 50
267.6806584718
 51
341.2913899205
  0
LINE
  5
EF
330
D6
100
AcDbEntity
  8
$DDT_AUDIT_GENERATED_(80)
  6
Continuous
 62
     7
100
AcDbLine
 10
387.9195911104
 20
353.6690964877
 30
0.0
 11
378.4061224323
 21
353.6690964877
 31
0.0
  0
LINE
  5
F0
330
D6
100
AcDbEntity
  8
$DDT_AUDIT_GENERATED_(80)
  6
Continuous
 62
     7
100
AcDbLine
 10
400.9061224322
 20
353.6690964877
 30
0.0
 11
399.8953122202
 21
353.6690964877
 31
0.0
  0
LINE
  5
F1
330
D6
100
AcDbEntity
  8
$DDT_AUDIT_GENERATED_(80)
  6
Continuous
 62
     7
100
AcDbLine
 10
399.9061224322
 20
334.1690964877
 30
0.0
 11
400.9061224322
 21
334.1690964877
 31
0.0
  0
LINE
  5
F2
330
D6
100
AcDbEntity
  8
$DDT_AUDIT_GENERATED_(80)
  6
Continuous
 62
     7
100
AcDbLine
 10
378.4061224323
 20
334.1690964877
 30
0.0
 11
387.9061224322
 21
334.1690964877
 31
0.0
  0
LINE
  5
F3
330
D6
100
AcDbEntity
  8
$DDT_AUDIT_GENERATED_(91)
  6
Continuous
 62
     7
100
AcDbLine
 10
377.6061224323
 20
358.2690964877
 30
0.0
 11
377.6061224323
 21
329.5690964877
 31
0.0
  0
LINE
  5
F4
330
D6
100
AcDbEntity
  8
$DDT_AUDIT_GENERATED_(91)
  6
Continuous
 62
     7
100
AcDbLine
 10
373.4061224323
 20
329.0690964877
 30
0.0
 11
377.1061224323
 21
329.0690964877
 31
0.0
  0
LINE
  5
F5
330
D6
100
AcDbEntity
  8
$DDT_AUDIT_GENERATED_(91)
  6
Continuous
 62
     7
100
AcDbLine
 10
377.1061224323
 20
358.7690964877
 30
0.0
 11
373.4061224323
 21
358.7690964877
 31
0.0
  0
LINE
  5
F6
330
D6
100
AcDbEntity
  8
$DDT_AUDIT_GENERATED_(91)
  6
Continuous
 62
     7
100
AcDbLine
 10
378.4061224323
 20
351.4190964877
 30
0.0
 11
377.6061224323
 21
351.4190964877
 31
0.0
  0
LINE
  5
F7
330
D6
100
AcDbEntity
  8
$DDT_AUDIT_GENERATED_(91)
  6
Continuous
 62
     7
100
AcDbLine
 10
377.6061224323
 20
336.4190964877
 30
0.0
 11
378.4061224323
 21
336.4190964877
 31
0.0
  0
ARC
  5
F8
330
D6
100
AcDbEntity
  8
$DDT_AUDIT_GENERATED_(91)
  6
Continuous
 62
     7
100
AcDbCircle
 10
377.1061224323
 20
329.5690964877
 30
0.0
 40
0.5000000000000004
100
AcDbArc
 50
270.0
 51
0.0
  0
ARC
  5
F9
330
D6
100
AcDbEntity
  8
$DDT_AUDIT_GENERATED_(91)
  6
Continuous
 62
     7
100
AcDbCircle
 10
377.1061224323
 20
358.2690964877
 30
0.0
 40
0.5000000000000004
100
AcDbArc
 50
0.0
 51
90.0
  0
LINE
  5
FA
330
D6
100
AcDbEntity
  8
$DDT_AUDIT_GENERATED_(9A)
  6
Continuous
 62
     7
100
AcDbLine
 10
322.4061224323
 20
378.9190964877
 30
0.0
 11
322.4061224323
 21
308.9190964877
 31
0.0
  0
LINE
  5
FB
330
D6
100
AcDbEntity
  8
$DDT_AUDIT_GENERATED_(9A)
  6
Continuous
 62
     7
100
AcDbLine
 10
332.4061224323
 20
370.9190964877
 30
0.0
 11
332.4061224323
 21
316.9190964877
 31
0.0
  0
LINE
  5
FC
330
D6
100
AcDbEntity
  8
$DDT_AUDIT_GENERATED_(9A)
  6
Continuous
 62
     7
100
AcDbLine
 10
328.4061224323
 20
378.4190964877
 30
0.0
 11
328.4061224323
 21
309.4190964877
 31
0.0
  0
LINE
  5
FD
330
D6
100
AcDbEntity
  8
$DDT_AUDIT_GENERATED_(9A)
  6
Continuous
 62
     7
100
AcDbLine
 10
331.9061224323
 20
371.4190964877
 30
0.0
 11
328.9061224323
 21
371.4190964877
 31
0.0
  0
LINE
  5
FE
330
D6
100
AcDbEntity
  8
$DDT_AUDIT_GENERATED_(9A)
  6
Continuous
 62
     7
100
AcDbLine
 10
328.9061224323
 20
316.4190964877
 30
0.0
 11
331.9061224323
 21
316.4190964877
 31
0.0
  0
LINE
  5
FF
330
D6
100
AcDbEntity
  8
$DDT_AUDIT_GENERATED_(9A)
  6
Continuous
 62
     7
100
AcDbLine
 10
327.9061224323
 20
378.9190964877
 30
0.0
 11
322.4061224323
 21
378.9190964877
 31
0.0
  0
LINE
  5
100
330
D6
100
AcDbEntity
  8
$DDT_AUDIT_GENERATED_(9A)
  6
Continuous
 62
     7
100
AcDbLine
 10
322.4061224323
 20
308.9190964877
 30
0.0
 11
327.9061224323
 21
308.9190964877
 31
0.0
  0
ARC
  5
101
330
D6
100
AcDbEntity
  8
$DDT_AUDIT_GENERATED_(9A)
  6
Continuous
 62
     7
100
AcDbCircle
 10
331.9061224323
 20
316.9190964877
 30
0.0
 40
0.5000000000000004
100
AcDbArc
 50
270.0
 51
0.0
  0
ARC
  5
102
330
D6
100
AcDbEntity
  8
$DDT_AUDIT_GENERATED_(9A)
  6
Continuous
 62
     7
100
AcDbCircle
 10
331.9061224323
 20
370.9190964877
 30
0.0
 40
0.5000000000000004
100
AcDbArc
 50
0.0
 51
90.0
  0
ARC
  5
103
330
D6
100
AcDbEntity
  8
$DDT_AUDIT_GENERATED_(9A)
  6
Continuous
 62
     7
100
AcDbCircle
 10
327.9061224323
 20
309.4190964877
 30
0.0
 40
0.5000000000000004
100
AcDbArc
 50
270.0
 51
0.0
  0
ARC
  5
104
330
D6
100
AcDbEntity
  8
$DDT_AUDIT_GENERATED_(9A)
  6
Continuous
 62
     7
100
AcDbCircle
 10
327.9061224323
 20
378.4190964877
 30
0.0
 40
0.5000000000000073
100
AcDbArc
 50
0.0
 51
90.0
  0
ARC
  5
105
330
D6
100
AcDbEntity
  8
$DDT_AUDIT_GENERATED_(9A)
  6
Continuous
 62
     7
100
AcDbCircle
 10
328.9061224323
 20
315.9190964877
 30
0.0
 40
0.5000000000000004
100
AcDbArc
 50
90.0
 51
180.0
  0
ARC
  5
106
330
D6
100
AcDbEntity
  8
$DDT_AUDIT_GENERATED_(9A)
  6
Continuous
 62
     7
100
AcDbCircle
 10
328.9061224323
 20
371.9190964877
 30
0.0
 40
0.5000000000000004
100
AcDbArc
 50
180.0
 51
270.0
  0
ENDBLK
  5
108
330
D6
100
AcDbEntity
  8
0
100
AcDbBlockEnd
  0
ENDSEC
  0
SECTION
  2
ENTITIES
  0
INSERT
  5
5F
330
1F
100
AcDbEntity
  8
Default
100
AcDbBlockReference
  2
SEANNOT_GROUP
 10
0.0
 20
0.0
 30
0.0
  0
INSERT
  5
6A
330
1F
100
AcDbEntity
  8
Default
100
AcDbBlockReference
  2
SEANNOT_GROUP1
 10
0.0
 20
0.0
 30
0.0
  0
INSERT
  5
70
330
1F
100
AcDbEntity
  8
Default
100
AcDbBlockReference
  2
SEANNOT_GROUP2
 10
0.0
 20
0.0
 30
0.0
  0
INSERT
  5
76
330
1F
100
AcDbEntity
  8
Default
100
AcDbBlockReference
  2
SE
 10
0.0
 20
0.0
 30
0.0
  0
INSERT
  5
A6
330
1F
100
AcDbEntity
  8
Default
100
AcDbBlockReference
  2
SE1
 10
0.0
 20
0.0
 30
0.0
  0
INSERT
  5
D7
330
1F
100
AcDbEntity
  8
Default
100
AcDbBlockReference
  2
SE2
 10
0.0
 20
0.0
 30
0.0
  0
TEXT
  5
10A
330
1F
100
AcDbEntity
  8
Default
  6
Continuous
 62
     7
100
AcDbText
 10
5.9362635081
 20
53.4225120485
 30
0.0
 40
10.0
  1
Grohe AG^J
  7
SEACAD_seiso_ttf
 11
5.9362635081
 21
63.4225120485
 31
0.0
100
AcDbText
 73
     3
  0
TEXT
  5
10B
330
1F
100
AcDbEntity
  8
Default
  6
Continuous
 62
     7
100
AcDbText
 10
5.9362635081
 20
37.0588756849
 30
0.0
 40
10.0
  1
 
  7
SEACAD_seiso_ttf
 11
5.9362635081
 21
47.0588756849
 31
0.0
100
AcDbText
 73
     3
  0
TEXT
  5
10C
330
1F
100
AcDbEntity
  8
Default
  6
Continuous
 62
     7
100
AcDbText
 10
5.9362635081
 20
20.6952393213
 30
0.0
 40
10.0
  1
ecn: 
  7
SEACAD_seiso_ttf
 11
5.9362635081
 21
30.6952393213
 31
0.0
100
AcDbText
 73
     3
  0
TEXT
  5
10D
330
1F
100
AcDbEntity
  8
Default
  6
Continuous
 62
     7
100
AcDbText
 10
5.9362635081
 20
4.3316029576
 30
0.0
 40
10.0
  1
unit: mm
  7
SEACAD_seiso_ttf
 11
5.9362635081
 21
14.3316029576
 31
0.0
100
AcDbText
 73
     3
  0
LINE
  5
10E
330
1F
100
AcDbEntity
  8
Default
  6
Continuous
 62
     7
100
AcDbLine
 10
0.0
 20
0.0
 30
0.0
 11
100.0
 21
0.0
 31
0.0
  0
LINE
  5
10F
330
1F
100
AcDbEntity
  8
Default
  6
Continuous
 62
     7
100
AcDbLine
 10
0.0
 20
0.0
 30
0.0
 11
0.0
 21
100.0
 31
0.0
  0
TEXT
  5
110
330
1F
100
AcDbEntity
  8
Default
  6
Continuous
 62
     7
100
AcDbText
 10
24.3923665681
 20
-18.2375342018
 30
0.0
 40
10.0
  1
100 mm
  7
SEACAD_seiso_ttf
 11
24.3923665681
 21
-8.2375342018
 31
0.0
100
AcDbText
 73
     3
  0
TEXT
  5
111
330
1F
100
AcDbEntity
  8
Default
  6
Continuous
 62
     7
100
AcDbText
 10
-7.6150308803
 20
24.6231930421
 30
0.0
 40
10.0
  1
100 mm
 50
90.0
  7
SEACAD_seiso_ttf
 11
-17.6150308803
 21
24.6231930421
 31
0.0
100
AcDbText
 73
     3
  0
TEXT
  5
112
330
1F
100
AcDbEntity
  8
Default
  6
Continuous
 62
     7
100
AcDbText
 10
28.4878128572
 20
20.0907663715
 30
0.0
 40
10.0
  1
212723
  7
SEACAD_seiso_ttf
 11
28.4878128572
 21
30.0907663715
 31
0.0
100
AcDbText
 73
     3
  0
TEXT
  5
113
330
1F
100
AcDbEntity
  8
Default
  6
Continuous
 62
     7
100
AcDbText
 10
5.9012241913
 20
36.7242780188
 30
0.0
 40
10.0
  1
19888000
  7
SEACAD_seiso_ttf
 11
5.9012241913
 21
46.7242780188
 31
0.0
100
AcDbText
 73
     3
  0
ENDSEC
  0
SECTION
  2
OBJECTS
  0
DICTIONARY
  5
C
330
0
100
AcDbDictionary
281
     1
  3
ACAD_GROUP
350
D
  3
ACAD_LAYOUT
350
1A
  3
ACAD_MLEADERSTYLE
350
117
  3
ACAD_MLINESTYLE
350
17
  3
ACAD_PLOTSETTINGS
350
19
  3
ACAD_PLOTSTYLENAME
350
E
  3
ACAD_SCALELIST
350
3B
  3
ACAD_TABLESTYLE
350
116
  3
ACAD_VISUALSTYLE
350
2A
  3
AcDbVariableDictionary
350
114
  0
DICTIONARY
  5
D
102
{ACAD_REACTORS
330
C
102
}
330
C
100
AcDbDictionary
281
     1
  0
DICTIONARY
  5
1A
102
{ACAD_REACTORS
330
C
102
}
330
C
100
AcDbDictionary
281
     1
  3
Layout1
350
1E
  3
Model
350
22
  0
DICTIONARY
  5
117
102
{ACAD_REACTORS
330
C
102
}
330
C
100
AcDbDictionary
281
     1
  0
DICTIONARY
  5
17
102
{ACAD_REACTORS
330
C
102
}
330
C
100
AcDbDictionary
281
     1
  3
Standard
350
18
  0
DICTIONARY
  5
19
102
{ACAD_REACTORS
330
C
102
}
330
C
100
AcDbDictionary
281
     1
  0
ACDBDICTIONARYWDFLT
  5
E
102
{ACAD_REACTORS
330
C
102
}
330
C
100
AcDbDictionary
281
     1
  3
Normal
350
F
100
AcDbDictionaryWithDefault
340
F
  0
DICTIONARY
  5
3B
102
{ACAD_REACTORS
330
C
102
}
330
C
100
AcDbDictionary
281
     1
  3
A0
350
3C
  3
A1
350
3D
  3
A2
350
3E
  3
A3
350
3F
  3
A4
350
40
  3
A5
350
41
  3
A6
350
42
  3
A7
350
43
  3
A8
350
44
  3
A9
350
45
  3
B0
350
46
  3
B1
350
47
  3
B2
350
48
  3
B3
350
49
  3
B4
350
4A
  3
B5
350
4B
  3
B6
350
4C
  3
B7
350
4D
  3
B8
350
4E
  3
B9
350
4F
  3
C0
350
50
  3
C1
350
51
  3
C2
350
52
  3
C3
350
53
  3
C4
350
54
  3
C5
350
55
  3
C6
350
56
  3
C7
350
57
  3
C8
350
58
  3
C9
350
59
  3
D0
350
5A
  3
D1
350
5B
  3
D2
350
5C
  0
DICTIONARY
  5
116
102
{ACAD_REACTORS
330
C
102
}
330
C
100
AcDbDictionary
281
     1
  0
DICTIONARY
  5
2A
102
{ACAD_REACTORS
330
C
102
}
330
C
100
AcDbDictionary
281
     1
  3
2dWireframe
350
2F
  3
3D Hidden
350
31
  3
3dWireframe
350
30
  3
Basic
350
32
  3
Brighten
350
36
  3
ColorChange
350
3A
  3
Conceptual
350
34
  3
Dim
350
35
  3
Facepattern
350
39
  3
Flat
350
2B
  3
FlatWithEdges
350
2C
  3
Gouraud
350
2D
  3
GouraudWithEdges
350
2E
  3
Linepattern
350
38
  3
Realistic
350
33
  3
Thicken
350
37
  0
DICTIONARY
  5
114
102
{ACAD_REACTORS
330
C
102
}
330
C
100
AcDbDictionary
281
     1
  3
CANNOSCALE
350
115
  3
PSOLHEIGHT
350
119
  3
PSOLWIDTH
350
118
  0
LAYOUT
  5
1E
102
{ACAD_REACTORS
330
1A
102
}
330
1A
100
AcDbPlotSettings
  1

  2
none_device
  4

  6

 40
0.0
 41
0.0
 42
0.0
 43
0.0
 44
0.0
 45
0.0
 46
0.0
 47
0.0
 48
0.0
 49
0.0
140
0.0
141
0.0
142
1.0
143
1.0
 70
   688
 72
     0
 73
     0
 74
     5
  7

 75
    16
147
1.0
148
0.0
149
0.0
100
AcDbLayout
  1
Layout1
 70
     1
 71
     1
 10
0.0
 20
0.0
 11
1682.0
 21
2378.0
 12
0.0
 22
0.0
 32
0.0
 14
0.0
 24
0.0
 34
0.0
 15
1682.0
 25
2378.0
 35
0.0
146
0.0
 13
0.0
 23
0.0
 33
0.0
 16
1.0
 26
0.0
 36
0.0
 17
0.0
 27
1.0
 37
0.0
 76
     0
330
1B
  0
LAYOUT
  5
22
102
{ACAD_REACTORS
330
1A
102
}
330
1A
100
AcDbPlotSettings
  1

  2
none_device
  4

  6

 40
0.0
 41
0.0
 42
0.0
 43
0.0
 44
0.0
 45
0.0
 46
0.0
 47
0.0
 48
0.0
 49
0.0
140
0.0
141
0.0
142
1.0
143
1.0
 70
  1712
 72
     0
 73
     0
 74
     0
  7

 75
     0
147
1.0
148
0.0
149
0.0
100
AcDbLayout
  1
Model
 70
     1
 71
     0
 10
0.0
 20
0.0
 11
1682.0
 21
2378.0
 12
0.0
 22
0.0
 32
0.0
 14
0.0
 24
0.0
 34
0.0
 15
1682.0
 25
2378.0
 35
0.0
146
0.0
 13
0.0
 23
0.0
 33
0.0
 16
1.0
 26
0.0
 36
0.0
 17
0.0
 27
1.0
 37
0.0
 76
     0
330
1F
331
29
  0
MLINESTYLE
  5
18
102
{ACAD_REACTORS
330
17
102
}
330
17
100
AcDbMlineStyle
  2
Standard
 70
     0
  3

 62
   256
 51
90.0
 52
90.0
 71
     2
 49
0.5
 62
   256
  6
BYLAYER
 49
-0.5
 62
   256
  6
BYLAYER
  0
ACDBPLACEHOLDER
  5
F
102
{ACAD_REACTORS
330
E
102
}
330
E
  0
SCALE
  5
3C
102
{ACAD_REACTORS
330
3B
102
}
330
3B
100
AcDbScale
 70
     0
300
1:1
140
1.0
141
1.0
290
     1
  0
SCALE
  5
3D
102
{ACAD_REACTORS
330
3B
102
}
330
3B
100
AcDbScale
 70
     0
300
1:2
140
1.0
141
2.0
290
     0
  0
SCALE
  5
3E
102
{ACAD_REACTORS
330
3B
102
}
330
3B
100
AcDbScale
 70
     0
300
1:4
140
1.0
141
4.0
290
     0
  0
SCALE
  5
3F
102
{ACAD_REACTORS
330
3B
102
}
330
3B
100
AcDbScale
 70
     0
300
1:5
140
1.0
141
5.0
290
     0
  0
SCALE
  5
40
102
{ACAD_REACTORS
330
3B
102
}
330
3B
100
AcDbScale
 70
     0
300
1:8
140
1.0
141
8.0
290
     0
  0
SCALE
  5
41
102
{ACAD_REACTORS
330
3B
102
}
330
3B
100
AcDbScale
 70
     0
300
1:10
140
1.0
141
10.0
290
     0
  0
SCALE
  5
42
102
{ACAD_REACTORS
330
3B
102
}
330
3B
100
AcDbScale
 70
     0
300
1:16
140
1.0
141
16.0
290
     0
  0
SCALE
  5
43
102
{ACAD_REACTORS
330
3B
102
}
330
3B
100
AcDbScale
 70
     0
300
1:20
140
1.0
141
20.0
290
     0
  0
SCALE
  5
44
102
{ACAD_REACTORS
330
3B
102
}
330
3B
100
AcDbScale
 70
     0
300
1:30
140
1.0
141
30.0
290
     0
  0
SCALE
  5
45
102
{ACAD_REACTORS
330
3B
102
}
330
3B
100
AcDbScale
 70
     0
300
1:40
140
1.0
141
40.0
290
     0
  0
SCALE
  5
46
102
{ACAD_REACTORS
330
3B
102
}
330
3B
100
AcDbScale
 70
     0
300
1:50
140
1.0
141
50.0
290
     0
  0
SCALE
  5
47
102
{ACAD_REACTORS
330
3B
102
}
330
3B
100
AcDbScale
 70
     0
300
1:100
140
1.0
141
100.0
290
     0
  0
SCALE
  5
48
102
{ACAD_REACTORS
330
3B
102
}
330
3B
100
AcDbScale
 70
     0
300
2:1
140
2.0
141
1.0
290
     0
  0
SCALE
  5
49
102
{ACAD_REACTORS
330
3B
102
}
330
3B
100
AcDbScale
 70
     0
300
4:1
140
4.0
141
1.0
290
     0
  0
SCALE
  5
4A
102
{ACAD_REACTORS
330
3B
102
}
330
3B
100
AcDbScale
 70
     0
300
8:1
140
8.0
141
1.0
290
     0
  0
SCALE
  5
4B
102
{ACAD_REACTORS
330
3B
102
}
330
3B
100
AcDbScale
 70
     0
300
10:1
140
10.0
141
1.0
290
     0
  0
SCALE
  5
4C
102
{ACAD_REACTORS
330
3B
102
}
330
3B
100
AcDbScale
 70
     0
300
100:1
140
100.0
141
1.0
290
     0
  0
SCALE
  5
4D
102
{ACAD_REACTORS
330
3B
102
}
330
3B
100
AcDbScale
 70
     0
300
1/128" = 1'-0"
140
0.0078125
141
12.0
290
     0
  0
SCALE
  5
4E
102
{ACAD_REACTORS
330
3B
102
}
330
3B
100
AcDbScale
 70
     0
300
1/64" = 1'-0"
140
0.015625
141
12.0
290
     0
  0
SCALE
  5
4F
102
{ACAD_REACTORS
330
3B
102
}
330
3B
100
AcDbScale
 70
     0
300
1/32" = 1'-0"
140
0.03125
141
12.0
290
     0
  0
SCALE
  5
50
102
{ACAD_REACTORS
330
3B
102
}
330
3B
100
AcDbScale
 70
     0
300
1/16" = 1'-0"
140
0.0625
141
12.0
290
     0
  0
SCALE
  5
51
102
{ACAD_REACTORS
330
3B
102
}
330
3B
100
AcDbScale
 70
     0
300
3/32" = 1'-0"
140
0.09375
141
12.0
290
     0
  0
SCALE
  5
52
102
{ACAD_REACTORS
330
3B
102
}
330
3B
100
AcDbScale
 70
     0
300
1/8" = 1'-0"
140
0.125
141
12.0
290
     0
  0
SCALE
  5
53
102
{ACAD_REACTORS
330
3B
102
}
330
3B
100
AcDbScale
 70
     0
300
3/16" = 1'-0"
140
0.1875
141
12.0
290
     0
  0
SCALE
  5
54
102
{ACAD_REACTORS
330
3B
102
}
330
3B
100
AcDbScale
 70
     0
300
1/4" = 1'-0"
140
0.25
141
12.0
290
     0
  0
SCALE
  5
55
102
{ACAD_REACTORS
330
3B
102
}
330
3B
100
AcDbScale
 70
     0
300
3/8" = 1'-0"
140
0.375
141
12.0
290
     0
  0
SCALE
  5
56
102
{ACAD_REACTORS
330
3B
102
}
330
3B
100
AcDbScale
 70
     0
300
1/2" = 1'-0"
140
0.5
141
12.0
290
     0
  0
SCALE
  5
57
102
{ACAD_REACTORS
330
3B
102
}
330
3B
100
AcDbScale
 70
     0
300
3/4" = 1'-0"
140
0.75
141
12.0
290
     0
  0
SCALE
  5
58
102
{ACAD_REACTORS
330
3B
102
}
330
3B
100
AcDbScale
 70
     0
300
1" = 1'-0"
140
1.0
141
12.0
290
     0
  0
SCALE
  5
59
102
{ACAD_REACTORS
330
3B
102
}
330
3B
100
AcDbScale
 70
     0
300
1-1/2" = 1'-0"
140
1.5
141
12.0
290
     0
  0
SCALE
  5
5A
102
{ACAD_REACTORS
330
3B
102
}
330
3B
100
AcDbScale
 70
     0
300
3" = 1'-0"
140
3.0
141
12.0
290
     0
  0
SCALE
  5
5B
102
{ACAD_REACTORS
330
3B
102
}
330
3B
100
AcDbScale
 70
     0
300
6" = 1'-0"
140
6.0
141
12.0
290
     0
  0
SCALE
  5
5C
102
{ACAD_REACTORS
330
3B
102
}
330
3B
100
AcDbScale
 70
     0
300
1'-0" = 1'-0"
140
12.0
141
12.0
290
     0
  0
VISUALSTYLE
  5
2F
102
{ACAD_REACTORS
330
2A
102
}
330
2A
100
AcDbVisualStyle
  2
2dWireframe
 70
     4
 71
     0
 72
     2
 73
     0
 90
        0
 40
-0.6
 41
-30.0
 62
     5
 63
     7
 74
     1
 91
        4
 64
     7
 65
   257
 75
     1
175
     1
 42
1.0
 92
        0
 66
   257
 43
1.0
 76
     1
 77
     6
 78
     2
 67
     7
 79
     5
170
     0
171
     0
290
     0
174
     0
 93
        1
 44
0.0
173
     0
291
     0
 45
0.0
1001
ACAD
1000
AcDbSavedByObjectVersion
1070
     0
  0
VISUALSTYLE
  5
31
102
{ACAD_REACTORS
330
2A
102
}
330
2A
100
AcDbVisualStyle
  2
3D Hidden
 70
     6
 71
     1
 72
     2
 73
     2
 90
        0
 40
-0.6
 41
-30.0
 62
     5
 63
     7
 74
     2
 91
        2
 64
     7
 65
   257
 75
     2
175
     1
 42
40.0
 92
        0
 66
   257
 43
1.0
 76
     1
 77
     6
 78
     2
 67
     7
 79
     3
170
     0
171
     0
290
     0
174
     0
 93
        1
 44
0.0
173
     0
291
     0
 45
0.0
1001
ACAD
1000
AcDbSavedByObjectVersion
1070
     0
  0
VISUALSTYLE
  5
30
102
{ACAD_REACTORS
330
2A
102
}
330
2A
100
AcDbVisualStyle
  2
3dWireframe
 70
     5
 71
     0
 72
     2
 73
     0
 90
        0
 40
-0.6
 41
-30.0
 62
     5
 63
     7
 74
     1
 91
        4
 64
     7
 65
   257
 75
     1
175
     1
 42
1.0
 92
        0
 66
   257
 43
1.0
 76
     1
 77
     6
 78
     2
 67
     7
 79
     5
170
     0
171
     0
290
     0
174
     0
 93
        1
 44
0.0
173
     0
291
     0
 45
0.0
1001
ACAD
1000
AcDbSavedByObjectVersion
1070
     0
  0
VISUALSTYLE
  5
32
102
{ACAD_REACTORS
330
2A
102
}
330
2A
100
AcDbVisualStyle
  2
Basic
 70
     7
 71
     1
 72
     0
 73
     1
 90
        0
 40
-0.6
 41
-30.0
 62
     5
 63
     7
 74
     0
 91
        4
 64
     7
 65
   257
 75
     1
175
     1
 42
1.0
 92
        8
 66
     7
 43
1.0
 76
     1
 77
     6
 78
     2
 67
     7
 79
     5
170
     0
171
     0
290
     0
174
     0
 93
        1
 44
0.0
173
     0
291
     1
 45
0.0
1001
ACAD
1000
AcDbSavedByObjectVersion
1070
     0
  0
VISUALSTYLE
  5
36
102
{ACAD_REACTORS
330
2A
102
}
330
2A
100
AcDbVisualStyle
  2
Brighten
 70
    12
 71
     2
 72
     2
 73
     0
 90
        0
 40
-0.6
 41
-30.0
 62
     5
 63
     7
 74
     1
 91
        4
 64
     7
 65
   257
 75
     1
175
     1
 42
1.0
 92
        8
 66
     7
 43
1.0
 76
     1
 77
     6
 78
     2
 67
     7
 79
     5
170
     0
171
     0
290
     0
174
     0
 93
        1
 44
50.0
173
     0
291
     1
 45
0.0
1001
ACAD
1000
AcDbSavedByObjectVersion
1070
     0
  0
VISUALSTYLE
  5
3A
102
{ACAD_REACTORS
330
2A
102
}
330
2A
100
AcDbVisualStyle
  2
ColorChange
 70
    16
 71
     2
 72
     2
 73
     3
 90
        0
 40
-0.6
 41
-30.0
 62
     5
 63
     8
 74
     1
 91
        4
 64
     7
 65
   257
 75
     1
175
     1
 42
1.0
 92
        8
 66
     8
 43
1.0
 76
     1
 77
     6
 78
     2
 67
     7
 79
     5
170
     0
171
     0
290
     0
174
     0
 93
        1
 44
0.0
173
     0
291
     1
 45
0.0
1001
ACAD
1000
AcDbSavedByObjectVersion
1070
     0
  0
VISUALSTYLE
  5
34
102
{ACAD_REACTORS
330
2A
102
}
330
2A
100
AcDbVisualStyle
  2
Conceptual
 70
     9
 71
     3
 72
     2
 73
     0
 90
        0
 40
-0.6
 41
-30.0
 62
     5
 63
     7
 74
     2
 91
        2
 64
     7
 65
   257
 75
     1
175
     1
 42
40.0
 92
        8
 66
     7
 43
1.0
 76
     1
 77
     6
 78
     2
 67
     7
 79
     3
170
     0
171
     0
290
     0
174
     0
 93
        1
 44
0.0
173
     0
291
     0
 45
0.0
1001
ACAD
1000
AcDbSavedByObjectVersion
1070
     0
  0
VISUALSTYLE
  5
35
102
{ACAD_REACTORS
330
2A
102
}
330
2A
100
AcDbVisualStyle
  2
Dim
 70
    11
 71
     2
 72
     2
 73
     0
 90
        0
 40
-0.6
 41
-30.0
 62
     5
 63
     7
 74
     1
 91
        4
 64
     7
 65
   257
 75
     1
175
     1
 42
1.0
 92
        8
 66
     7
 43
1.0
 76
     1
 77
     6
 78
     2
 67
     7
 79
     5
170
     0
171
     0
290
     0
174
     0
 93
        1
 44
-50.0
173
     0
291
     1
 45
0.0
1001
ACAD
1000
AcDbSavedByObjectVersion
1070
     0
  0
VISUALSTYLE
  5
39
102
{ACAD_REACTORS
330
2A
102
}
330
2A
100
AcDbVisualStyle
  2
Facepattern
 70
    15
 71
     2
 72
     2
 73
     0
 90
        0
 40
-0.6
 41
-30.0
 62
     5
 63
     7
 74
     1
 91
        4
 64
     7
 65
   257
 75
     1
175
     1
 42
1.0
 92
        8
 66
     7
 43
1.0
 76
     1
 77
     6
 78
     2
 67
     7
 79
     5
170
     0
171
     0
290
     0
174
     0
 93
        1
 44
0.0
173
     0
291
     1
 45
0.0
1001
ACAD
1000
AcDbSavedByObjectVersion
1070
     0
  0
VISUALSTYLE
  5
2B
102
{ACAD_REACTORS
330
2A
102
}
330
2A
100
AcDbVisualStyle
  2
Flat
 70
     0
 71
     2
 72
     1
 73
     1
 90
        2
 40
-0.6
 41
30.0
 62
     5
 63
     7
 74
     0
 91
        4
 64
     7
 65
   257
 75
     1
175
     1
 42
1.0
 92
        8
 66
     7
 43
1.0
 76
     1
 77
     6
 78
     2
 67
     7
 79
     5
170
     0
171
     0
290
     0
174
     0
 93
       13
 44
0.0
173
     0
291
     1
 45
0.0
1001
ACAD
1000
AcDbSavedByObjectVersion
1070
     0
  0
VISUALSTYLE
  5
2C
102
{ACAD_REACTORS
330
2A
102
}
330
2A
100
AcDbVisualStyle
  2
FlatWithEdges
 70
     1
 71
     2
 72
     1
 73
     1
 90
        2
 40
-0.6
 41
30.0
 62
     5
 63
     7
 74
     1
 91
        4
 64
     7
 65
   257
 75
     1
175
     1
 42
1.0
 92
        0
 66
   257
 43
1.0
 76
     1
 77
     6
 78
     2
 67
     7
 79
     5
170
     0
171
     0
290
     0
174
     0
 93
       13
 44
0.0
173
     0
291
     1
 45
0.0
1001
ACAD
1000
AcDbSavedByObjectVersion
1070
     0
  0
VISUALSTYLE
  5
2D
102
{ACAD_REACTORS
330
2A
102
}
330
2A
100
AcDbVisualStyle
  2
Gouraud
 70
     2
 71
     2
 72
     2
 73
     1
 90
        2
 40
-0.6
 41
30.0
 62
     5
 63
     7
 74
     0
 91
        4
 64
     7
 65
   257
 75
     1
175
     1
 42
1.0
 92
        0
 66
     7
 43
1.0
 76
     1
 77
     6
 78
     2
 67
     7
 79
     5
170
     0
171
     0
290
     0
174
     0
 93
       13
 44
0.0
173
     0
291
     1
 45
0.0
1001
ACAD
1000
AcDbSavedByObjectVersion
1070
     0
  0
VISUALSTYLE
  5
2E
102
{ACAD_REACTORS
330
2A
102
}
330
2A
100
AcDbVisualStyle
  2
GouraudWithEdges
 70
     3
 71
     2
 72
     2
 73
     1
 90
        2
 40
-0.6
 41
30.0
 62
     5
 63
     7
 74
     1
 91
        4
 64
     7
 65
   257
 75
     1
175
     1
 42
1.0
 92
        0
 66
   257
 43
1.0
 76
     1
 77
     6
 78
     2
 67
     7
 79
     5
170
     0
171
     0
290
     0
174
     0
 93
       13
 44
0.0
173
     0
291
     1
 45
0.0
1001
ACAD
1000
AcDbSavedByObjectVersion
1070
     0
  0
VISUALSTYLE
  5
38
102
{ACAD_REACTORS
330
2A
102
}
330
2A
100
AcDbVisualStyle
  2
Linepattern
 70
    14
 71
     2
 72
     2
 73
     0
 90
        0
 40
-0.6
 41
-30.0
 62
     5
 63
     7
 74
     1
 91
        4
 64
     7
 65
   257
 75
     7
175
     7
 42
1.0
 92
        8
 66
     7
 43
1.0
 76
     1
 77
     6
 78
     2
 67
     7
 79
     5
170
     0
171
     0
290
     0
174
     0
 93
        1
 44
0.0
173
     0
291
     1
 45
0.0
1001
ACAD
1000
AcDbSavedByObjectVersion
1070
     0
  0
VISUALSTYLE
  5
33
102
{ACAD_REACTORS
330
2A
102
}
330
2A
100
AcDbVisualStyle
  2
Realistic
 70
     8
 71
     2
 72
     2
 73
     0
 90
        0
 40
-0.6
 41
-30.0
 62
     5
 63
     7
 74
     1
 91
        0
 64
     7
 65
   257
 75
     1
175
     1
 42
1.0
 92
        8
 66
     8
 43
1.0
 76
     1
 77
     6
 78
     2
 67
     7
 79
     5
170
     0
171
     0
290
     0
174
     0
 93
       13
 44
0.0
173
     0
291
     0
 45
0.0
1001
ACAD
1000
AcDbSavedByObjectVersion
1070
     0
  0
VISUALSTYLE
  5
37
102
{ACAD_REACTORS
330
2A
102
}
330
2A
100
AcDbVisualStyle
  2
Thicken
 70
    13
 71
     2
 72
     2
 73
     0
 90
        0
 40
-0.6
 41
-30.0
 62
     5
 63
     7
 74
     1
 91
        4
 64
     7
 65
   257
 75
     1
175
     1
 42
1.0
 92
       12
 66
     7
 43
1.0
 76
     1
 77
     6
 78
     2
 67
     7
 79
     5
170
     0
171
     0
290
     0
174
     0
 93
        1
 44
0.0
173
     0
291
     1
 45
0.0
1001
ACAD
1000
AcDbSavedByObjectVersion
1070
     0
  0
DICTIONARYVAR
  5
115
102
{ACAD_REACTORS
330
114
102
}
330
114
100
DictionaryVariables
280
     0
  1
1:1
  0
DICTIONARYVAR
  5
119
102
{ACAD_REACTORS
330
114
102
}
330
114
100
DictionaryVariables
280
     0
  1
80.000000
  0
DICTIONARYVAR
  5
118
102
{ACAD_REACTORS
330
114
102
}
330
114
100
DictionaryVariables
280
     0
  1
5.000000
  0
ENDSEC
  0
EOF
