  0
SECTION
  2
HEADER
  9
$ACADVER
  1
AC1015
  9
$ACADMAINTVER
 70
     6
  9
$DWGCODEPAGE
  3
ANSI_1252
  9
$INSBASE
 10
0.0
 20
0.0
 30
0.0
  9
$EXTMIN
 10
0.0
 20
0.0
 30
0.0
  9
$EXTMAX
 10
1682.0
 20
2378.0
 30
0.0
  9
$LIMMIN
 10
0.0
 20
0.0
  9
$LIMMAX
 10
1682.0
 20
2378.0
  9
$ORTHOMODE
 70
     0
  9
$REGENMODE
 70
     1
  9
$FILLMODE
 70
     1
  9
$QTEXTMODE
 70
     0
  9
$MIRRTEXT
 70
     1
  9
$LTSCALE
 40
1.0
  9
$ATTMODE
 70
     1
  9
$TEXTSIZE
 40
2.5
  9
$TRACEWID
 40
1.0
  9
$TEXTSTYLE
  7
Standard
  9
$CLAYER
  8
0
  9
$CELTYPE
  6
ByLayer
  9
$CECOLOR
 62
   256
  9
$CELTSCALE
 40
1.0
  9
$DISPSILH
 70
     0
  9
$DIMSCALE
 40
1.0
  9
$DIMASZ
 40
2.5
  9
$DIMEXO
 40
0.625
  9
$DIMDLI
 40
3.75
  9
$DIMRND
 40
0.0
  9
$DIMDLE
 40
0.0
  9
$DIMEXE
 40
1.25
  9
$DIMTP
 40
0.0
  9
$DIMTM
 40
0.0
  9
$DIMTXT
 40
2.5
  9
$DIMCEN
 40
2.5
  9
$DIMTSZ
 40
0.0
  9
$DIMTOL
 70
     0
  9
$DIMLIM
 70
     0
  9
$DIMTIH
 70
     0
  9
$DIMTOH
 70
     0
  9
$DIMSE1
 70
     0
  9
$DIMSE2
 70
     0
  9
$DIMTAD
 70
     1
  9
$DIMZIN
 70
     8
  9
$DIMBLK
  1

  9
$DIMASO
 70
     1
  9
$DIMSHO
 70
     1
  9
$DIMPOST
  1

  9
$DIMAPOST
  1

  9
$DIMALT
 70
     0
  9
$DIMALTD
 70
     3
  9
$DIMALTF
 40
0.0393700787
  9
$DIMLFAC
 40
1.0
  9
$DIMTOFL
 70
     1
  9
$DIMTVP
 40
0.0
  9
$DIMTIX
 70
     0
  9
$DIMSOXD
 70
     0
  9
$DIMSAH
 70
     0
  9
$DIMBLK1
  1

  9
$DIMBLK2
  1

  9
$DIMSTYLE
  2
ISO-25
  9
$DIMCLRD
 70
     0
  9
$DIMCLRE
 70
     0
  9
$DIMCLRT
 70
     0
  9
$DIMTFAC
 40
1.0
  9
$DIMGAP
 40
0.625
  9
$DIMJUST
 70
     0
  9
$DIMSD1
 70
     0
  9
$DIMSD2
 70
     0
  9
$DIMTOLJ
 70
     0
  9
$DIMTZIN
 70
     8
  9
$DIMALTZ
 70
     0
  9
$DIMALTTZ
 70
     0
  9
$DIMUPT
 70
     0
  9
$DIMDEC
 70
     2
  9
$DIMTDEC
 70
     2
  9
$DIMALTU
 70
     2
  9
$DIMALTTD
 70
     3
  9
$DIMTXSTY
  7
Standard
  9
$DIMAUNIT
 70
     0
  9
$DIMADEC
 70
     0
  9
$DIMALTRND
 40
0.0
  9
$DIMAZIN
 70
     0
  9
$DIMDSEP
 70
    44
  9
$DIMATFIT
 70
     3
  9
$DIMFRAC
 70
     0
  9
$DIMLDRBLK
  1

  9
$DIMLUNIT
 70
     2
  9
$DIMLWD
 70
    -2
  9
$DIMLWE
 70
    -2
  9
$DIMTMOVE
 70
     0
  9
$LUNITS
 70
     2
  9
$LUPREC
 70
     4
  9
$SKETCHINC
 40
1.0
  9
$FILLETRAD
 40
10.0
  9
$AUNITS
 70
     0
  9
$AUPREC
 70
     0
  9
$MENU
  1
.
  9
$ELEVATION
 40
0.0
  9
$PELEVATION
 40
0.0
  9
$THICKNESS
 40
0.0
  9
$LIMCHECK
 70
     0
  9
$CHAMFERA
 40
10.0
  9
$CHAMFERB
 40
10.0
  9
$CHAMFERC
 40
20.0
  9
$CHAMFERD
 40
0.0
  9
$SKPOLY
 70
     0
  9
$TDCREATE
 40
2455464.641124294
  9
$TDUCREATE
 40
2455464.557790961
  9
$TDUPDATE
 40
2455464.641124306
  9
$TDUUPDATE
 40
2455464.557790972
  9
$TDINDWG
 40
0.0000000116
  9
$TDUSRTIMER
 40
0.0000000116
  9
$USRTIMER
 70
     1
  9
$ANGBASE
 50
0.0
  9
$ANGDIR
 70
     0
  9
$PDMODE
 70
     0
  9
$PDSIZE
 40
0.0
  9
$PLINEWID
 40
0.0
  9
$SPLFRAME
 70
     0
  9
$SPLINETYPE
 70
     6
  9
$SPLINESEGS
 70
     8
  9
$HANDSEED
  5
123
  9
$SURFTAB1
 70
     6
  9
$SURFTAB2
 70
     6
  9
$SURFTYPE
 70
     6
  9
$SURFU
 70
     6
  9
$SURFV
 70
     6
  9
$UCSBASE
  2

  9
$UCSNAME
  2

  9
$UCSORG
 10
0.0
 20
0.0
 30
0.0
  9
$UCSXDIR
 10
1.0
 20
0.0
 30
0.0
  9
$UCSYDIR
 10
0.0
 20
1.0
 30
0.0
  9
$UCSORTHOREF
  2

  9
$UCSORTHOVIEW
 70
     0
  9
$UCSORGTOP
 10
0.0
 20
0.0
 30
0.0
  9
$UCSORGBOTTOM
 10
0.0
 20
0.0
 30
0.0
  9
$UCSORGLEFT
 10
0.0
 20
0.0
 30
0.0
  9
$UCSORGRIGHT
 10
0.0
 20
0.0
 30
0.0
  9
$UCSORGFRONT
 10
0.0
 20
0.0
 30
0.0
  9
$UCSORGBACK
 10
0.0
 20
0.0
 30
0.0
  9
$PUCSBASE
  2

  9
$PUCSNAME
  2

  9
$PUCSORG
 10
0.0
 20
0.0
 30
0.0
  9
$PUCSXDIR
 10
1.0
 20
0.0
 30
0.0
  9
$PUCSYDIR
 10
0.0
 20
1.0
 30
0.0
  9
$PUCSORTHOREF
  2

  9
$PUCSORTHOVIEW
 70
     0
  9
$PUCSORGTOP
 10
0.0
 20
0.0
 30
0.0
  9
$PUCSORGBOTTOM
 10
0.0
 20
0.0
 30
0.0
  9
$PUCSORGLEFT
 10
0.0
 20
0.0
 30
0.0
  9
$PUCSORGRIGHT
 10
0.0
 20
0.0
 30
0.0
  9
$PUCSORGFRONT
 10
0.0
 20
0.0
 30
0.0
  9
$PUCSORGBACK
 10
0.0
 20
0.0
 30
0.0
  9
$USERI1
 70
     0
  9
$USERI2
 70
     0
  9
$USERI3
 70
     0
  9
$USERI4
 70
     0
  9
$USERI5
 70
     0
  9
$USERR1
 40
0.0
  9
$USERR2
 40
0.0
  9
$USERR3
 40
0.0
  9
$USERR4
 40
0.0
  9
$USERR5
 40
0.0
  9
$WORLDVIEW
 70
     1
  9
$SHADEDGE
 70
     3
  9
$SHADEDIF
 70
    70
  9
$TILEMODE
 70
     1
  9
$MAXACTVP
 70
    64
  9
$PINSBASE
 10
0.0
 20
0.0
 30
0.0
  9
$PLIMCHECK
 70
     0
  9
$PEXTMIN
 10
0.0
 20
0.0
 30
0.0
  9
$PEXTMAX
 10
1682.0
 20
2378.0
 30
0.0
  9
$PLIMMIN
 10
0.0
 20
0.0
  9
$PLIMMAX
 10
1682.0
 20
2378.0
  9
$UNITMODE
 70
     0
  9
$VISRETAIN
 70
     1
  9
$PLINEGEN
 70
     0
  9
$PSLTSCALE
 70
     1
  9
$TREEDEPTH
 70
  3020
  9
$CMLSTYLE
  2
Standard
  9
$CMLJUST
 70
     0
  9
$CMLSCALE
 40
20.0
  9
$PROXYGRAPHICS
 70
     1
  9
$MEASUREMENT
 70
     1
  9
$CELWEIGHT
370
    -1
  9
$ENDCAPS
280
     0
  9
$JOINSTYLE
280
     0
  9
$LWDISPLAY
290
     0
  9
$INSUNITS
 70
     4
  9
$HYPERLINKBASE
  1

  9
$STYLESHEET
  1

  9
$XEDIT
290
     1
  9
$CEPSNTYPE
380
     0
  9
$PSTYLEMODE
290
     1
  9
$FINGERPRINTGUID
  2
{1211D072-D778-484B-9CD8-E357819FB1DB}
  9
$VERSIONGUID
  2
{FAEB1C32-E019-11D5-929B-00C0DF256EC4}
  9
$EXTNAMES
290
     1
  9
$PSVPSCALE
 40
0.0
  9
$OLESTARTUP
290
     0
  0
ENDSEC
  0
SECTION
  2
CLASSES
  0
CLASS
  1
ACDBDICTIONARYWDFLT
  2
AcDbDictionaryWithDefault
  3
ObjectDBX Classes
 90
        0
280
     0
281
     0
  0
CLASS
  1
VISUALSTYLE
  2
AcDbVisualStyle
  3
ObjectDBX Classes
 90
     4095
280
     0
281
     0
  0
CLASS
  1
SCALE
  2
AcDbScale
  3
ObjectDBX Classes
 90
     1153
280
     0
281
     0
  0
CLASS
  1
DICTIONARYVAR
  2
AcDbDictionaryVar
  3
ObjectDBX Classes
 90
        0
280
     0
281
     0
  0
CLASS
  1
ACDBPLACEHOLDER
  2
AcDbPlaceHolder
  3
ObjectDBX Classes
 90
        0
280
     0
281
     0
  0
CLASS
  1
LAYOUT
  2
AcDbLayout
  3
ObjectDBX Classes
 90
        0
280
     0
281
     0
  0
ENDSEC
  0
SECTION
  2
TABLES
  0
TABLE
  2
VPORT
  5
8
330
0
100
AcDbSymbolTable
 70
     1
  0
VPORT
  5
29
330
8
100
AcDbSymbolTableRecord
100
AcDbViewportTableRecord
  2
*Active
 70
     0
 10
0.0
 20
0.0
 11
1.0
 21
1.0
 12
344.1869158879
 22
148.5
 13
0.0
 23
0.0
 14
10.0
 24
10.0
 15
10.0
 25
10.0
 16
0.0
 26
0.0
 36
1.0
 17
0.0
 27
0.0
 37
0.0
 40
297.0
 41
1.9729729729
 42
50.0
 43
0.0
 44
0.0
 50
0.0
 51
0.0
 71
     0
 72
   100
 73
     1
 74
     3
 75
     0
 76
     0
 77
     0
 78
     0
281
     0
 65
     1
110
0.0
120
0.0
130
0.0
111
1.0
121
0.0
131
0.0
112
0.0
122
1.0
132
0.0
 79
     0
146
0.0
  0
ENDTAB
  0
TABLE
  2
LTYPE
  5
5
330
0
100
AcDbSymbolTable
 70
     2
  0
LTYPE
  5
14
330
5
100
AcDbSymbolTableRecord
100
AcDbLinetypeTableRecord
  2
ByBlock
 70
     0
  3

 72
    65
 73
     0
 40
0.0
  0
LTYPE
  5
15
330
5
100
AcDbSymbolTableRecord
100
AcDbLinetypeTableRecord
  2
ByLayer
 70
     0
  3

 72
    65
 73
     0
 40
0.0
  0
LTYPE
  5
16
330
5
100
AcDbSymbolTableRecord
100
AcDbLinetypeTableRecord
  2
Continuous
 70
     0
  3
Solid line
 72
    65
 73
     0
 40
0.0
  0
LTYPE
  5
60
330
5
100
AcDbSymbolTableRecord
100
AcDbLinetypeTableRecord
  2
CENTER2
 70
     0
  3
Center (.5x) ___ _ ___ _ ___ _ ___ _ ___ _ ___
 72
    65
 73
     4
 40
28.575
 49
19.05
 74
     4
 75
     0
340
0
 46
0.0
 50
0.0
 44
0.0
 45
0.0
 49
-3.175
 74
     4
 75
     0
340
0
 46
0.0
 50
0.0
 44
0.0
 45
0.0
 49
3.175
 74
     4
 75
     0
340
0
 46
0.0
 50
0.0
 44
0.0
 45
0.0
 49
-3.175
 74
     4
 75
     0
340
0
 46
0.0
 50
0.0
 44
0.0
 45
0.0
  0
ENDTAB
  0
TABLE
  2
LAYER
  5
2
330
0
100
AcDbSymbolTable
 70
     6
  0
LAYER
  5
10
330
2
100
AcDbSymbolTableRecord
100
AcDbLayerTableRecord
  2
0
 70
     0
 62
     7
  6
Continuous
370
    -3
390
F
  0
LAYER
  5
5D
330
2
100
AcDbSymbolTableRecord
100
AcDbLayerTableRecord
  2
Default
 70
     0
 62
     7
  6
Continuous
370
    -3
390
F
  0
LAYER
  5
77
330
2
100
AcDbSymbolTableRecord
100
AcDbLayerTableRecord
  2
$DDT_AUDIT_GENERATED_(77)
 70
     0
 62
     7
  6
Continuous
370
    -3
390
F
  0
LAYER
  5
80
330
2
100
AcDbSymbolTableRecord
100
AcDbLayerTableRecord
  2
$DDT_AUDIT_GENERATED_(80)
 70
     0
 62
     7
  6
Continuous
370
    -3
390
F
  0
LAYER
  5
A5
330
2
100
AcDbSymbolTableRecord
100
AcDbLayerTableRecord
  2
$DDT_AUDIT_GENERATED_(A5)
 70
     0
 62
     7
  6
Continuous
370
    -3
390
F
  0
LAYER
  5
B5
330
2
100
AcDbSymbolTableRecord
100
AcDbLayerTableRecord
  2
$DDT_AUDIT_GENERATED_(B5)
 70
     0
 62
     7
  6
Continuous
370
    -3
390
F
  0
ENDTAB
  0
TABLE
  2
STYLE
  5
3
330
0
100
AcDbSymbolTable
 70
     2
  0
STYLE
  5
11
330
3
100
AcDbSymbolTableRecord
100
AcDbTextStyleTableRecord
  2
Standard
 70
     0
 40
0.0
 41
1.0
 50
0.0
 71
     0
 42
2.5
  3
txt
  4

  0
STYLE
  5
112
330
3
100
AcDbSymbolTableRecord
100
AcDbTextStyleTableRecord
  2
SEACAD_seiso_ttf
 70
     0
 40
0.0
 41
1.0
 50
0.0
 71
     0
 42
0.2
  3
seiso.ttf
  4

  0
ENDTAB
  0
TABLE
  2
VIEW
  5
6
330
0
100
AcDbSymbolTable
 70
     0
  0
ENDTAB
  0
TABLE
  2
UCS
  5
7
330
0
100
AcDbSymbolTable
 70
     0
  0
ENDTAB
  0
TABLE
  2
APPID
  5
9
330
0
100
AcDbSymbolTable
 70
     1
  0
APPID
  5
12
330
9
100
AcDbSymbolTableRecord
100
AcDbRegAppTableRecord
  2
ACAD
 70
     0
  0
ENDTAB
  0
TABLE
  2
DIMSTYLE
  5
A
330
0
100
AcDbSymbolTable
 70
     1
100
AcDbDimStyleTable
  0
DIMSTYLE
105
27
330
A
100
AcDbSymbolTableRecord
100
AcDbDimStyleTableRecord
  2
ISO-25
 70
     0
 41
2.5
 42
0.625
 43
3.75
 44
1.25
 73
     0
 74
     0
 77
     1
 78
     8
140
2.5
141
2.5
143
0.0393700787
147
0.625
171
     3
172
     1
271
     2
272
     2
274
     3
278
    44
283
     0
284
     8
340
11
  0
ENDTAB
  0
TABLE
  2
BLOCK_RECORD
  5
1
330
0
100
AcDbSymbolTable
 70
     7
  0
BLOCK_RECORD
  5
1F
330
1
100
AcDbSymbolTableRecord
100
AcDbBlockTableRecord
  2
*Model_Space
340
22
  0
BLOCK_RECORD
  5
1B
330
1
100
AcDbSymbolTableRecord
100
AcDbBlockTableRecord
  2
*Paper_Space
340
1E
  0
BLOCK_RECORD
  5
5E
330
1
100
AcDbSymbolTableRecord
100
AcDbBlockTableRecord
  2
SEANNOT_GROUP
340
0
102
{BLKREFS
331
5F
102
}
  0
BLOCK_RECORD
  5
69
330
1
100
AcDbSymbolTableRecord
100
AcDbBlockTableRecord
  2
SEANNOT_GROUP1
340
0
102
{BLKREFS
331
6A
102
}
  0
BLOCK_RECORD
  5
6F
330
1
100
AcDbSymbolTableRecord
100
AcDbBlockTableRecord
  2
SEANNOT_GROUP2
340
0
102
{BLKREFS
331
70
102
}
  0
BLOCK_RECORD
  5
75
330
1
100
AcDbSymbolTableRecord
100
AcDbBlockTableRecord
  2
SE
340
0
102
{BLKREFS
331
76
102
}
  0
BLOCK_RECORD
  5
A9
330
1
100
AcDbSymbolTableRecord
100
AcDbBlockTableRecord
  2
SE1
340
0
102
{BLKREFS
331
AA
102
}
  0
BLOCK_RECORD
  5
E0
330
1
100
AcDbSymbolTableRecord
100
AcDbBlockTableRecord
  2
SE2
340
0
102
{BLKREFS
331
E1
102
}
  0
ENDTAB
  0
ENDSEC
  0
SECTION
  2
BLOCKS
  0
BLOCK
  5
20
330
1F
100
AcDbEntity
  8
0
100
AcDbBlockBegin
  2
*Model_Space
 70
     0
 10
0.0
 20
0.0
 30
0.0
  3
*Model_Space
  1

  0
ENDBLK
  5
21
330
1F
100
AcDbEntity
  8
0
100
AcDbBlockEnd
  0
BLOCK
  5
1C
330
1B
100
AcDbEntity
 67
     1
  8
0
100
AcDbBlockBegin
  2
*Paper_Space
 70
     0
 10
0.0
 20
0.0
 30
0.0
  3
*Paper_Space
  1

  0
ENDBLK
  5
1D
330
1B
100
AcDbEntity
 67
     1
  8
0
100
AcDbBlockEnd
  0
BLOCK
  5
67
330
5E
100
AcDbEntity
  8
0
100
AcDbBlockBegin
  2
SEANNOT_GROUP
 70
     0
 10
0.0
 20
0.0
 30
0.0
  3
SEANNOT_GROUP
  1

  0
LINE
  5
61
330
5E
100
AcDbEntity
  8
Default
  6
CENTER2
 62
     7
100
AcDbLine
 10
104.8499990611
 20
385.6397953519
 30
0.0
 11
64.8499999552
 21
385.6397953519
 31
0.0
  0
LINE
  5
62
330
5E
100
AcDbEntity
  8
Default
  6
CENTER2
 62
     7
100
AcDbLine
 10
84.8499995081
 20
405.6397949049
 30
0.0
 11
84.8499995081
 21
365.639795799
 31
0.0
  0
LINE
  5
63
330
5E
100
AcDbEntity
  8
Default
  6
CENTER2
 62
     7
100
AcDbLine
 10
109.8499989494
 20
385.6397953519
 30
0.0
 11
106.3499995081
 21
385.6397953519
 31
0.0
  0
LINE
  5
64
330
5E
100
AcDbEntity
  8
Default
  6
CENTER2
 62
     7
100
AcDbLine
 10
84.8499995081
 20
410.6397947931
 30
0.0
 11
84.8499995081
 21
407.1397953519
 31
0.0
  0
LINE
  5
65
330
5E
100
AcDbEntity
  8
Default
  6
CENTER2
 62
     7
100
AcDbLine
 10
59.8500000669
 20
385.6397953519
 30
0.0
 11
63.3499995081
 21
385.6397953519
 31
0.0
  0
LINE
  5
66
330
5E
100
AcDbEntity
  8
Default
  6
CENTER2
 62
     7
100
AcDbLine
 10
84.8499995081
 20
360.6397959107
 30
0.0
 11
84.8499995081
 21
364.1397953519
 31
0.0
  0
ENDBLK
  5
68
330
5E
100
AcDbEntity
  8
0
100
AcDbBlockEnd
  0
BLOCK
  5
6D
330
69
100
AcDbEntity
  8
0
100
AcDbBlockBegin
  2
SEANNOT_GROUP1
 70
     0
 10
0.0
 20
0.0
 30
0.0
  3
SEANNOT_GROUP1
  1

  0
LINE
  5
6B
330
69
100
AcDbEntity
  8
Default
  6
CENTER2
 62
     7
100
AcDbLine
 10
243.1707187377
 20
385.6397953519
 30
0.0
 11
203.1707196317
 21
385.6397953519
 31
0.0
  0
LINE
  5
6C
330
69
100
AcDbEntity
  8
Default
  6
CENTER2
 62
     7
100
AcDbLine
 10
223.1707191847
 20
405.6397949049
 30
0.0
 11
223.1707191847
 21
365.639795799
 31
0.0
  0
ENDBLK
  5
6E
330
69
100
AcDbEntity
  8
0
100
AcDbBlockEnd
  0
BLOCK
  5
73
330
6F
100
AcDbEntity
  8
0
100
AcDbBlockBegin
  2
SEANNOT_GROUP2
 70
     0
 10
0.0
 20
0.0
 30
0.0
  3
SEANNOT_GROUP2
  1

  0
LINE
  5
71
330
6F
100
AcDbEntity
  8
Default
  6
CENTER2
 62
     7
100
AcDbLine
 10
104.8499990611
 20
196.9019285049
 30
0.0
 11
64.8499999552
 21
196.9019285049
 31
0.0
  0
LINE
  5
72
330
6F
100
AcDbEntity
  8
Default
  6
CENTER2
 62
     7
100
AcDbLine
 10
84.8499995081
 20
216.9019280579
 30
0.0
 11
84.8499995081
 21
176.901928952
 31
0.0
  0
ENDBLK
  5
74
330
6F
100
AcDbEntity
  8
0
100
AcDbBlockEnd
  0
BLOCK
  5
A7
330
75
100
AcDbEntity
  8
0
100
AcDbBlockBegin
  2
SE
 70
     0
 10
0.0
 20
0.0
 30
0.0
  3
SE
  1

  0
LINE
  5
78
330
75
100
AcDbEntity
  8
$DDT_AUDIT_GENERATED_(77)
  6
Continuous
 62
     7
100
AcDbLine
 10
62.8499995081
 20
408.6397953519
 30
0.0
 11
106.8499995081
 21
408.6397953519
 31
0.0
  0
ARC
  5
79
330
75
100
AcDbEntity
  8
$DDT_AUDIT_GENERATED_(77)
  6
Continuous
 62
     7
100
AcDbCircle
 10
62.8499995081
 20
407.6397953519
 30
0.0
 40
1.000000000000001
100
AcDbArc
 50
90.0
 51
180.0
  0
LINE
  5
7A
330
75
100
AcDbEntity
  8
$DDT_AUDIT_GENERATED_(77)
  6
Continuous
 62
     7
100
AcDbLine
 10
106.8499995081
 20
362.6397953519
 30
0.0
 11
93.1499997441
 21
362.6397953519
 31
0.0
  0
ARC
  5
7B
330
75
100
AcDbEntity
  8
$DDT_AUDIT_GENERATED_(77)
  6
Continuous
 62
     7
100
AcDbCircle
 10
106.8499995081
 20
363.6397953519
 30
0.0
 40
1.000000000000001
100
AcDbArc
 50
270.0
 51
0.0
  0
LINE
  5
7C
330
75
100
AcDbEntity
  8
$DDT_AUDIT_GENERATED_(77)
  6
Continuous
 62
     7
100
AcDbLine
 10
61.8499995081
 20
363.6397953519
 30
0.0
 11
61.8499995081
 21
407.6397953519
 31
0.0
  0
ARC
  5
7D
330
75
100
AcDbEntity
  8
$DDT_AUDIT_GENERATED_(77)
  6
Continuous
 62
     7
100
AcDbCircle
 10
62.8499995081
 20
363.6397953519
 30
0.0
 40
1.000000000000001
100
AcDbArc
 50
180.0
 51
209.8745914324
  0
LINE
  5
7E
330
75
100
AcDbEntity
  8
$DDT_AUDIT_GENERATED_(77)
  6
Continuous
 62
     7
100
AcDbLine
 10
107.8499995081
 20
407.6397953519
 30
0.0
 11
107.8499995081
 21
363.6397953519
 31
0.0
  0
ARC
  5
7F
330
75
100
AcDbEntity
  8
$DDT_AUDIT_GENERATED_(77)
  6
Continuous
 62
     7
100
AcDbCircle
 10
106.8499995081
 20
407.6397953519
 30
0.0
 40
1.000000000000001
100
AcDbArc
 50
0.0
 51
90.0
  0
ELLIPSE
  5
81
330
75
100
AcDbEntity
  8
$DDT_AUDIT_GENERATED_(80)
  6
Continuous
 62
     7
100
AcDbEllipse
 10
34.3500005486
 20
284.2273297932
 30
0.0
 11
-12.0
 21
-1.231161700365746E-7
 31
0.0
210
0.0
220
0.0
230
1.0
 40
0.906307787
 41
0.0000000000000023
 42
0.1873660045438539
  0
LINE
  5
82
330
75
100
AcDbEntity
  8
$DDT_AUDIT_GENERATED_(80)
  6
Continuous
 62
     7
100
AcDbLine
 10
22.35
 20
337.6994891052
 30
0.0
 11
22.3500005486
 21
284.2273296701
 31
0.0
  0
LINE
  5
83
330
75
100
AcDbEntity
  8
$DDT_AUDIT_GENERATED_(80)
  6
Continuous
 62
     7
100
AcDbLine
 10
147.3500003024
 20
284.2273309525
 30
0.0
 11
147.3500002522
 21
289.1213930025
 31
0.0
  0
LINE
  5
84
330
75
100
AcDbEntity
  8
$DDT_AUDIT_GENERATED_(80)
  6
Continuous
 62
     7
100
AcDbLine
 10
93.1499998735
 20
350.0252757353
 30
0.0
 11
93.1499998935
 21
348.0812317313
 31
0.0
  0
LINE
  5
85
330
75
100
AcDbEntity
  8
$DDT_AUDIT_GENERATED_(80)
  6
Continuous
 62
     7
100
AcDbLine
 10
93.149999672
 20
369.6676321522
 30
0.0
 11
93.1499997236
 21
364.6397954371
 31
0.0
  0
LINE
  5
86
330
75
100
AcDbEntity
  8
$DDT_AUDIT_GENERATED_(80)
  6
Continuous
 62
     7
100
AcDbLine
 10
93.1499997236
 20
364.6397954371
 30
0.0
 11
93.1499997396
 21
363.0761078686
 31
0.0
  0
LINE
  5
87
330
75
100
AcDbEntity
  8
$DDT_AUDIT_GENERATED_(80)
  6
Continuous
 62
     7
100
AcDbLine
 10
93.1499997396
 20
363.0761078686
 30
0.0
 11
93.1499998735
 21
350.0252757353
 31
0.0
  0
LINE
  5
88
330
75
100
AcDbEntity
  8
$DDT_AUDIT_GENERATED_(80)
  6
Continuous
 62
     7
100
AcDbLine
 10
163.3500003024
 20
284.2273311167
 30
0.0
 11
163.3500003223
 21
282.2832871127
 31
0.0
  0
LINE
  5
89
330
75
100
AcDbEntity
  8
$DDT_AUDIT_GENERATED_(80)
  6
Continuous
 62
     7
100
AcDbLine
 10
163.3500002522
 20
289.1213931667
 30
0.0
 11
163.3500003024
 21
284.2273311167
 31
0.0
  0
ELLIPSE
  5
8A
330
75
100
AcDbEntity
  8
$DDT_AUDIT_GENERATED_(80)
  6
Continuous
 62
     7
100
AcDbEllipse
 10
135.3500003024
 20
284.2273308294
 30
0.0
 11
28.00000000000007
 21
2.872709986556643E-7
 31
0.0
210
0.0
220
0.0
230
1.0
 40
0.906307787
 41
5.886821767614868
 42
6.283185307179586
  0
LINE
  5
8B
330
75
100
AcDbEntity
  8
$DDT_AUDIT_GENERATED_(80)
  6
Continuous
 62
     7
100
AcDbLine
 10
76.5499997297
 20
364.0406089102
 30
0.0
 11
76.5499997236
 21
364.6397952668
 31
0.0
  0
LINE
  5
8C
330
75
100
AcDbEntity
  8
$DDT_AUDIT_GENERATED_(80)
  6
Continuous
 62
     7
100
AcDbLine
 10
76.5499997236
 20
364.6397952668
 30
0.0
 11
76.549999672
 21
369.6676319819
 31
0.0
  0
ELLIPSE
  5
8D
330
75
100
AcDbEntity
  8
$DDT_AUDIT_GENERATED_(80)
  6
Continuous
 62
     7
100
AcDbEllipse
 10
34.3500005486
 20
284.2273297932
 30
0.0
 11
28.00000000000003
 21
2.872710680446033E-7
 31
0.0
210
0.0
220
0.0
230
1.0
 40
0.906307787
 41
3.141592653589795
 42
3.536337317972466
  0
LINE
  5
8E
330
75
100
AcDbEntity
  8
$DDT_AUDIT_GENERATED_(80)
  6
Continuous
 62
     7
100
AcDbLine
 10
6.3500005486
 20
284.2273295059
 30
0.0
 11
6.35
 21
337.6994889411
 31
0.0
  0
ELLIPSE
  5
8F
330
75
100
AcDbEntity
  8
$DDT_AUDIT_GENERATED_(80)
  6
Continuous
 62
     7
100
AcDbEllipse
 10
34.35
 20
337.6994892283
 30
0.0
 11
-27.99999999999998
 21
-2.872710888612851E-7
 31
0.0
210
0.0
220
0.0
230
1.0
 40
0.906307787
 41
5.886821767614866
 42
6.283185307179585
  0
ELLIPSE
  5
90
330
75
100
AcDbEntity
  8
$DDT_AUDIT_GENERATED_(80)
  6
Continuous
 62
     7
100
AcDbEllipse
 10
135.3500003223
 20
282.2832868254
 30
0.0
 11
-28.00000000000004
 21
-2.872709292667253E-7
 31
0.0
210
0.0
220
0.0
230
1.0
 40
0.906307787
 41
2.749226129523505
 42
3.141592653589796
  0
LINE
  5
91
330
75
100
AcDbEntity
  8
$DDT_AUDIT_GENERATED_(80)
  6
Continuous
 62
     7
100
AcDbLine
 10
6.3500005686
 20
282.2832855019
 30
0.0
 11
6.3500005486
 21
284.2273295059
 31
0.0
  0
ELLIPSE
  5
92
330
75
100
AcDbEntity
  8
$DDT_AUDIT_GENERATED_(80)
  6
Continuous
 62
     7
100
AcDbEllipse
 10
34.3500005686
 20
282.2832857892
 30
0.0
 11
-27.99999999999999
 21
-2.872710264112399E-7
 31
0.0
210
0.0
220
0.0
230
1.0
 40
0.906307787
 41
0.0
 42
0.3945085901466502
  0
ELLIPSE
  5
93
330
75
100
AcDbEntity
  8
$DDT_AUDIT_GENERATED_(80)
  6
Continuous
 62
     7
100
AcDbEllipse
 10
34.3500000199
 20
335.7554452243
 30
0.0
 11
-12.00000000000001
 21
-1.231161908532563E-7
 31
0.0
210
0.0
220
0.0
230
1.0
 40
0.906307787
 41
6.10460976182133
 42
6.283185307179586
  0
LINE
  5
94
330
75
100
AcDbEntity
  8
$DDT_AUDIT_GENERATED_(80)
  6
Continuous
 62
     7
100
AcDbLine
 10
75.549999739
 20
363.1416922371
 30
0.0
 11
34.349999739
 21
363.1416918144
 31
0.0
  0
ARC
  5
95
330
75
100
AcDbEntity
  8
$DDT_AUDIT_GENERATED_(80)
  6
Continuous
 62
     7
100
AcDbCircle
 10
33.74493623
 20
334.9743549402
 30
0.0
 40
28.17383481951889
100
AcDbArc
 50
88.7694166917
 51
153.4997418329
  0
ARC
  5
96
330
75
100
AcDbEntity
  8
$DDT_AUDIT_GENERATED_(80)
  6
Continuous
 62
     7
100
AcDbCircle
 10
75.5695619735
 20
364.2064442086
 30
0.0
 40
1.064931660595331
100
AcDbArc
 50
268.9474474608
 51
319.4596008254
  0
SPLINE
  5
97
330
75
100
AcDbEntity
  8
$DDT_AUDIT_GENERATED_(80)
  6
Continuous
 62
     7
100
AcDbSpline
210
0.0
220
0.0
230
1.0
 70
     8
 71
     3
 72
    11
 73
     7
 74
     0
 42
0.0000000175055712
 43
0.0000000001
 40
0.0
 40
0.0
 40
0.0
 40
0.0
 40
0.0634803540071493
 40
0.5242072180134384
 40
0.9883668659194682
 40
1.0
 40
1.0
 40
1.0
 40
1.0
 10
76.54821912739189
 20
364.0408688049926
 30
0.0
 10
76.54876887320003
 20
364.0264376792592
 30
0.0
 10
76.55247092074387
 20
363.9238802550576
 30
0.0
 10
76.50690474065814
 20
363.7302736982195
 30
0.0
 10
76.44058429557947
 20
363.5706973725165
 30
0.0
 10
76.38057792906952
 20
363.5174812064545
 30
0.0
 10
76.37887778289515
 20
363.5159754461467
 30
0.0
  0
ARC
  5
98
330
75
100
AcDbEntity
  8
$DDT_AUDIT_GENERATED_(80)
  6
Continuous
 62
     7
100
AcDbCircle
 10
161.7926123204
 20
289.0797072939
 30
0.0
 40
1.557945724998681
100
AcDbArc
 50
1.5332431817
 51
91.5673184463
  0
LINE
  5
99
330
75
100
AcDbEntity
  8
$DDT_AUDIT_GENERATED_(80)
  6
Continuous
 62
     7
100
AcDbLine
 10
161.7500002366
 20
290.6370701586
 30
0.0
 11
148.9500002366
 21
290.6370700273
 31
0.0
  0
ARC
  5
9A
330
75
100
AcDbEntity
  8
$DDT_AUDIT_GENERATED_(80)
  6
Continuous
 62
     7
100
AcDbCircle
 10
148.9082831701
 20
289.0787623849
 30
0.0
 40
1.558865940989477
100
AcDbArc
 50
88.4665151967
 51
178.4329255266
  0
ARC
  5
9B
330
75
100
AcDbEntity
  8
$DDT_AUDIT_GENERATED_(80)
  6
Continuous
 62
     7
100
AcDbCircle
 10
135.7140397149
 20
285.2687035953
 30
0.0
 40
11.85707139976581
100
AcDbArc
 50
268.2406116035
 51
340.758938912
  0
ARC
  5
9C
330
75
100
AcDbEntity
  8
$DDT_AUDIT_GENERATED_(80)
  6
Continuous
 62
     7
100
AcDbCircle
 10
138.0491085279
 20
284.1921920358
 30
0.0
 40
9.300958151923938
100
AcDbArc
 50
342.2798970498
 51
0.2164633341
  0
LINE
  5
9D
330
75
100
AcDbEntity
  8
$DDT_AUDIT_GENERATED_(80)
  6
Continuous
 62
     7
100
AcDbLine
 10
135.3500004133
 20
273.417221934
 30
0.0
 11
34.3500006595
 21
273.4172208978
 31
0.0
  0
ARC
  5
9E
330
75
100
AcDbEntity
  8
$DDT_AUDIT_GENERATED_(80)
  6
Continuous
 62
     7
100
AcDbCircle
 10
33.9252853368
 20
285.1368059992
 30
0.0
 40
11.72727837364368
100
AcDbArc
 50
194.3616547689
 51
272.0754788411
  0
ARC
  5
9F
330
75
100
AcDbEntity
  8
$DDT_AUDIT_GENERATED_(80)
  6
Continuous
 62
     7
100
AcDbCircle
 10
91.5917169755
 20
348.1238623489
 30
0.0
 40
1.558865940989535
100
AcDbArc
 50
268.4665151967
 51
358.4329255266
  0
LINE
  5
A0
330
75
100
AcDbEntity
  8
$DDT_AUDIT_GENERATED_(80)
  6
Continuous
 62
     7
100
AcDbLine
 10
34.349999909
 20
346.5655541197
 30
0.0
 11
91.549999909
 21
346.5655547066
 31
0.0
  0
ARC
  5
A1
330
75
100
AcDbEntity
  8
$DDT_AUDIT_GENERATED_(80)
  6
Continuous
 62
     7
100
AcDbCircle
 10
33.9216902251
 20
334.8631344736
 30
0.0
 40
11.71025511072912
100
AcDbArc
 50
87.9039045816
 51
166.1751194347
  0
ARC
  5
A2
330
75
100
AcDbEntity
  8
$DDT_AUDIT_GENERATED_(80)
  6
Continuous
 62
     7
100
AcDbCircle
 10
33.7442120748
 20
284.9846031221
 30
0.0
 40
28.15003895999259
100
AcDbArc
 50
206.3632450533
 51
271.2331001944
  0
LINE
  5
A3
330
75
100
AcDbEntity
  8
$DDT_AUDIT_GENERATED_(80)
  6
Continuous
 62
     7
100
AcDbLine
 10
34.3500008296
 20
256.8410832031
 30
0.0
 11
135.3500005833
 21
256.8410842393
 31
0.0
  0
ARC
  5
A4
330
75
100
AcDbEntity
  8
$DDT_AUDIT_GENERATED_(80)
  6
Continuous
 62
     7
100
AcDbCircle
 10
135.9606734679
 20
284.9876581692
 30
0.0
 40
28.15319778217157
100
AcDbArc
 50
268.7570959601
 51
333.7436362851
  0
CIRCLE
  5
A6
330
75
100
AcDbEntity
  8
$DDT_AUDIT_GENERATED_(A5)
  6
Continuous
 62
     7
100
AcDbCircle
 10
84.8499995081
 20
385.6397953519
 30
0.0
 40
18.0
  0
ENDBLK
  5
A8
330
75
100
AcDbEntity
  8
0
100
AcDbBlockEnd
  0
BLOCK
  5
DE
330
A9
100
AcDbEntity
  8
0
100
AcDbBlockBegin
  2
SE1
 70
     0
 10
0.0
 20
0.0
 30
0.0
  3
SE1
  1

  0
ARC
  5
AB
330
A9
100
AcDbEntity
  8
$DDT_AUDIT_GENERATED_(77)
  6
Continuous
 62
     7
100
AcDbCircle
 10
229.6707191847
 20
408.1397953519
 30
0.0
 40
0.5000000000000004
100
AcDbArc
 50
0.0
 51
90.0
  0
LINE
  5
AC
330
A9
100
AcDbEntity
  8
$DDT_AUDIT_GENERATED_(77)
  6
Continuous
 62
     7
100
AcDbLine
 10
230.1707191847
 20
407.6397953519
 30
0.0
 11
230.1707191847
 21
363.6397953519
 31
0.0
  0
LINE
  5
AD
330
A9
100
AcDbEntity
  8
$DDT_AUDIT_GENERATED_(77)
  6
Continuous
 62
     7
100
AcDbLine
 10
230.1707191847
 20
407.6397953519
 30
0.0
 11
230.1707191847
 21
408.1397953519
 31
0.0
  0
LINE
  5
AE
330
A9
100
AcDbEntity
  8
$DDT_AUDIT_GENERATED_(77)
  6
Continuous
 62
     7
100
AcDbLine
 10
223.1707191847
 20
407.6397953519
 30
0.0
 11
223.1707191847
 21
363.6397953519
 31
0.0
  0
LINE
  5
AF
330
A9
100
AcDbEntity
  8
$DDT_AUDIT_GENERATED_(77)
  6
Continuous
 62
     7
100
AcDbLine
 10
223.1707191847
 20
407.6397953519
 30
0.0
 11
223.1707191847
 21
408.6397953519
 31
0.0
  0
LINE
  5
B0
330
A9
100
AcDbEntity
  8
$DDT_AUDIT_GENERATED_(77)
  6
Continuous
 62
     7
100
AcDbLine
 10
223.1707191847
 20
408.6397953519
 30
0.0
 11
229.6707191847
 21
408.6397953519
 31
0.0
  0
LINE
  5
B1
330
A9
100
AcDbEntity
  8
$DDT_AUDIT_GENERATED_(77)
  6
Continuous
 62
     7
100
AcDbLine
 10
230.1707191847
 20
363.1397953519
 30
0.0
 11
230.1707191847
 21
363.6397953519
 31
0.0
  0
LINE
  5
B2
330
A9
100
AcDbEntity
  8
$DDT_AUDIT_GENERATED_(77)
  6
Continuous
 62
     7
100
AcDbLine
 10
229.6707191847
 20
362.6397953519
 30
0.0
 11
223.1707191847
 21
362.6397953519
 31
0.0
  0
LINE
  5
B3
330
A9
100
AcDbEntity
  8
$DDT_AUDIT_GENERATED_(77)
  6
Continuous
 62
     7
100
AcDbLine
 10
223.1707191847
 20
362.6397953519
 30
0.0
 11
223.1707191847
 21
363.6397953519
 31
0.0
  0
ARC
  5
B4
330
A9
100
AcDbEntity
  8
$DDT_AUDIT_GENERATED_(77)
  6
Continuous
 62
     7
100
AcDbCircle
 10
229.6707191847
 20
363.1397953519
 30
0.0
 40
0.5000000000000004
100
AcDbArc
 50
270.0
 51
0.0
  0
LINE
  5
B6
330
A9
100
AcDbEntity
  8
$DDT_AUDIT_GENERATED_(B5)
  6
Continuous
 62
     7
100
AcDbLine
 10
259.0707191847
 20
367.6397953519
 30
0.0
 11
259.0707191847
 21
369.7731636993
 31
0.0
  0
ARC
  5
B7
330
A9
100
AcDbEntity
  8
$DDT_AUDIT_GENERATED_(B5)
  6
Continuous
 62
     7
100
AcDbCircle
 10
235.6707191847
 20
350.8756418452
 30
0.0
 40
17.03046807333854
100
AcDbArc
 50
79.854128217
 51
100.1458717832
  0
LINE
  5
B8
330
A9
100
AcDbEntity
  8
$DDT_AUDIT_GENERATED_(B5)
  6
Continuous
 62
     7
100
AcDbLine
 10
265.1707191847
 20
370.0004219629
 30
0.0
 11
265.1707191847
 21
403.4397953519
 31
0.0
  0
LINE
  5
B9
330
A9
100
AcDbEntity
  8
$DDT_AUDIT_GENERATED_(B5)
  6
Continuous
 62
     7
100
AcDbLine
 10
264.9707191847
 20
369.7731636993
 30
0.0
 11
259.0707191847
 21
369.7731636993
 31
0.0
  0
SPLINE
  5
BA
330
A9
100
AcDbEntity
  8
$DDT_AUDIT_GENERATED_(B5)
  6
Continuous
 62
     7
100
AcDbSpline
210
0.0
220
0.0
230
1.0
 70
     8
 71
     3
 72
    10
 73
     6
 74
     0
 42
0.000000029006017
 43
0.0000000001
 40
0.0
 40
0.0
 40
0.0
 40
0.0
 40
0.5
 40
0.5
 40
1.0
 40
1.0
 40
1.0
 40
1.0
 10
265.1707191847
 20
370.0004219629423
 30
0.0
 10
265.1707191847
 20
369.9439427443961
 30
0.0
 10
265.1526303696565
 20
369.8885866064062
 30
0.0
 10
265.0808222278339
 20
369.8014770310155
 30
0.0
 10
265.0274558034153
 20
369.773163699302
 30
0.0
 10
264.9707191847
 20
369.773163699302
 30
0.0
  0
LINE
  5
BB
330
A9
100
AcDbEntity
  8
$DDT_AUDIT_GENERATED_(B5)
  6
Continuous
 62
     7
100
AcDbLine
 10
238.6707178008
 20
367.6397953519
 30
0.0
 11
259.0707191847
 21
367.6397953519
 31
0.0
  0
LINE
  5
BC
330
A9
100
AcDbEntity
  8
$DDT_AUDIT_GENERATED_(B5)
  6
Continuous
 62
     7
100
AcDbLine
 10
230.1707191847
 20
367.6397953519
 30
0.0
 11
232.6707191847
 21
367.6397953519
 31
0.0
  0
LINE
  5
BD
330
A9
100
AcDbEntity
  8
$DDT_AUDIT_GENERATED_(B5)
  6
Continuous
 62
     7
100
AcDbLine
 10
264.9707191847
 20
403.6397953519
 30
0.0
 11
230.1707191847
 21
403.6397953519
 31
0.0
  0
ARC
  5
BE
330
A9
100
AcDbEntity
  8
$DDT_AUDIT_GENERATED_(B5)
  6
Continuous
 62
     7
100
AcDbCircle
 10
264.9707191847
 20
403.4397953519
 30
0.0
 40
0.1999999999999988
100
AcDbArc
 50
0.0
 51
90.0
  0
LINE
  5
BF
330
A9
100
AcDbEntity
  8
$DDT_AUDIT_GENERATED_(80)
  6
Continuous
 62
     7
100
AcDbLine
 10
265.6476286068
 20
362.7375245977
 30
0.0
 11
277.1851071523
 21
337.9953217315
 31
0.0
  0
LINE
  5
C0
330
A9
100
AcDbEntity
  8
$DDT_AUDIT_GENERATED_(80)
  6
Continuous
 62
     7
100
AcDbLine
 10
265.3517958236
 20
363.3719404854
 30
0.0
 11
265.6476286068
 21
362.7375250204
 31
0.0
  0
LINE
  5
C1
330
A9
100
AcDbEntity
  8
$DDT_AUDIT_GENERATED_(80)
  6
Continuous
 62
     7
100
AcDbLine
 10
277.1851071523
 20
337.9953217315
 30
0.0
 11
302.119584595
 21
284.5231622963
 31
0.0
  0
LINE
  5
C2
330
A9
100
AcDbEntity
  8
$DDT_AUDIT_GENERATED_(80)
  6
Continuous
 62
     7
100
AcDbLine
 10
302.119584595
 20
284.5231622963
 30
0.0
 11
313.6570631406
 21
259.7809599903
 31
0.0
  0
LINE
  5
C3
330
A9
100
AcDbEntity
  8
$DDT_AUDIT_GENERATED_(80)
  6
Continuous
 62
     7
100
AcDbLine
 10
302.119584595
 20
284.5231637429
 30
0.0
 11
307.4868365191
 21
273.0130547173
 31
0.0
  0
ARC
  5
C4
330
A9
100
AcDbEntity
  8
$DDT_AUDIT_GENERATED_(80)
  6
Continuous
 62
     7
100
AcDbCircle
 10
268.0707192366
 20
364.6397952846
 30
0.0
 40
3.00000005290755
100
AcDbArc
 50
189.3196499047
 51
204.9999998227
  0
ARC
  5
C5
330
A9
100
AcDbEntity
  8
$DDT_AUDIT_GENERATED_(80)
  6
Continuous
 62
     7
100
AcDbCircle
 10
268.0707191847
 20
364.639795274
 30
0.0
 40
2.999999999999968
100
AcDbArc
 50
180.0
 51
189.3196498652
  0
LINE
  5
C6
330
A9
100
AcDbEntity
  8
$DDT_AUDIT_GENERATED_(80)
  6
Continuous
 62
     7
100
AcDbLine
 10
265.0707191847
 20
369.8072878758
 30
0.0
 11
265.0707191847
 21
364.639795274
 31
0.0
  0
LINE
  5
C7
330
A9
100
AcDbEntity
  8
$DDT_AUDIT_GENERATED_(80)
  6
Continuous
 62
     7
100
AcDbLine
 10
313.3184804728
 20
258.8507117562
 30
0.0
 11
309.1494646525
 21
256.9066677521
 31
0.0
  0
ARC
  5
C8
330
A9
100
AcDbEntity
  8
$DDT_AUDIT_GENERATED_(80)
  6
Continuous
 62
     7
100
AcDbCircle
 10
265.0132131559
 20
362.4416918144
 30
0.0
 40
0.6999999999999942
100
AcDbArc
 50
25.0
 51
115.0
  0
ARC
  5
C9
330
A9
100
AcDbEntity
  8
$DDT_AUDIT_GENERATED_(80)
  6
Continuous
 62
     7
100
AcDbCircle
 10
265.0132131559
 20
362.4416922371
 30
0.0
 40
0.6999999999999971
100
AcDbArc
 50
25.0
 51
115.0
  0
ARC
  5
CA
330
A9
100
AcDbEntity
  8
$DDT_AUDIT_GENERATED_(80)
  6
Continuous
 62
     7
100
AcDbCircle
 10
313.0226476896
 20
259.4851272071
 30
0.0
 40
0.7000000000000005
100
AcDbArc
 50
295.0
 51
25.0
  0
LINE
  5
CB
330
A9
100
AcDbEntity
  8
$DDT_AUDIT_GENERATED_(80)
  6
Continuous
 62
     7
100
AcDbLine
 10
302.0489897969
 20
270.4773451468
 30
0.0
 11
296.6817378728
 21
281.9874541725
 31
0.0
  0
LINE
  5
CC
330
A9
100
AcDbEntity
  8
$DDT_AUDIT_GENERATED_(80)
  6
Continuous
 62
     7
100
AcDbLine
 10
308.2192164183
 20
257.2452504199
 30
0.0
 11
296.6817378728
 21
281.9874527259
 31
0.0
  0
LINE
  5
CD
330
A9
100
AcDbEntity
  8
$DDT_AUDIT_GENERATED_(80)
  6
Continuous
 62
     7
100
AcDbLine
 10
296.6817378728
 20
281.9874527259
 30
0.0
 11
271.7472604301
 21
335.459612161
 31
0.0
  0
LINE
  5
CE
330
A9
100
AcDbEntity
  8
$DDT_AUDIT_GENERATED_(80)
  6
Continuous
 62
     7
100
AcDbLine
 10
271.7472604301
 20
335.459612161
 30
0.0
 11
260.2097818846
 21
360.2018150272
 31
0.0
  0
LINE
  5
CF
330
A9
100
AcDbEntity
  8
$DDT_AUDIT_GENERATED_(80)
  6
Continuous
 62
     7
100
AcDbLine
 10
260.2097818846
 20
360.2018154499
 30
0.0
 11
259.9139491014
 21
360.8362309149
 31
0.0
  0
LINE
  5
D0
330
A9
100
AcDbEntity
  8
$DDT_AUDIT_GENERATED_(80)
  6
Continuous
 62
     7
100
AcDbLine
 10
260.5483645523
 20
361.1320632614
 30
0.0
 11
264.7173803727
 21
363.0761072654
 31
0.0
  0
ARC
  5
D1
330
A9
100
AcDbEntity
  8
$DDT_AUDIT_GENERATED_(80)
  6
Continuous
 62
     7
100
AcDbCircle
 10
268.0707191847
 20
364.639795274
 30
0.0
 40
8.999999999999972
100
AcDbArc
 50
180.0
 51
198.080083197
  0
ARC
  5
D2
330
A9
100
AcDbEntity
  8
$DDT_AUDIT_GENERATED_(80)
  6
Continuous
 62
     7
100
AcDbCircle
 10
268.0707194068
 20
364.6397953491
 30
0.0
 40
9.000000234462853
100
AcDbArc
 50
198.0800832127
 51
204.999999855
  0
LINE
  5
D3
330
A9
100
AcDbEntity
  8
$DDT_AUDIT_GENERATED_(80)
  6
Continuous
 62
     7
100
AcDbLine
 10
259.0707191847
 20
364.639795274
 30
0.0
 11
259.0707191847
 21
369.7731636993
 31
0.0
  0
ARC
  5
D4
330
A9
100
AcDbEntity
  8
$DDT_AUDIT_GENERATED_(80)
  6
Continuous
 62
     7
100
AcDbCircle
 10
260.8441973355
 20
360.4976478104
 30
0.0
 40
0.6999999999999971
100
AcDbArc
 50
115.0
 51
205.0
  0
ARC
  5
D5
330
A9
100
AcDbEntity
  8
$DDT_AUDIT_GENERATED_(80)
  6
Continuous
 62
     7
100
AcDbCircle
 10
308.8536318693
 20
257.5410832031
 30
0.0
 40
0.7000000000000063
100
AcDbArc
 50
205.0
 51
295.0
  0
LINE
  5
D6
330
A9
100
AcDbEntity
  8
$DDT_AUDIT_GENERATED_(A5)
  6
Continuous
 62
     7
100
AcDbLine
 10
265.1707191847
 20
403.4397953519
 30
0.0
 11
265.1707191847
 21
367.8397953519
 31
0.0
  0
ARC
  5
D7
330
A9
100
AcDbEntity
  8
$DDT_AUDIT_GENERATED_(A5)
  6
Continuous
 62
     7
100
AcDbCircle
 10
-730.8292808153
 20
385.6397953519
 30
0.0
 40
1000.0
100
AcDbArc
 50
358.9967710075
 51
1.0032289925
  0
LINE
  5
D8
330
A9
100
AcDbEntity
  8
$DDT_AUDIT_GENERATED_(A5)
  6
Continuous
 62
     7
100
AcDbLine
 10
265.3707191847
 20
367.6397953519
 30
0.0
 11
268.5175058409
 21
367.6397953519
 31
0.0
  0
LINE
  5
D9
330
A9
100
AcDbEntity
  8
$DDT_AUDIT_GENERATED_(A5)
  6
Continuous
 62
     7
100
AcDbLine
 10
268.5175058409
 20
403.6397953519
 30
0.0
 11
265.3707191847
 21
403.6397953519
 31
0.0
  0
ARC
  5
DA
330
A9
100
AcDbEntity
  8
$DDT_AUDIT_GENERATED_(A5)
  6
Continuous
 62
     7
100
AcDbCircle
 10
268.5175058409
 20
368.1397953519
 30
0.0
 40
0.5000000000000004
100
AcDbArc
 50
270.0
 51
358.9967710079
  0
ARC
  5
DB
330
A9
100
AcDbEntity
  8
$DDT_AUDIT_GENERATED_(A5)
  6
Continuous
 62
     7
100
AcDbCircle
 10
268.5175058409
 20
403.1397953519
 30
0.0
 40
0.5000000000000601
100
AcDbArc
 50
1.0032289921
 51
90.0
  0
ARC
  5
DC
330
A9
100
AcDbEntity
  8
$DDT_AUDIT_GENERATED_(A5)
  6
Continuous
 62
     7
100
AcDbCircle
 10
265.3707191847
 20
367.8397953519
 30
0.0
 40
0.1999999999999988
100
AcDbArc
 50
180.0
 51
270.0
  0
ARC
  5
DD
330
A9
100
AcDbEntity
  8
$DDT_AUDIT_GENERATED_(A5)
  6
Continuous
 62
     7
100
AcDbCircle
 10
265.3707191847
 20
403.4397953519
 30
0.0
 40
0.1999999999999988
100
AcDbArc
 50
90.0
 51
180.0
  0
ENDBLK
  5
DF
330
A9
100
AcDbEntity
  8
0
100
AcDbBlockEnd
  0
BLOCK
  5
110
330
E0
100
AcDbEntity
  8
0
100
AcDbBlockBegin
  2
SE2
 70
     0
 10
0.0
 20
0.0
 30
0.0
  3
SE2
  1

  0
LINE
  5
E2
330
E0
100
AcDbEntity
  8
$DDT_AUDIT_GENERATED_(77)
  6
Continuous
 62
     7
100
AcDbLine
 10
62.3499995081
 20
189.9019285049
 30
0.0
 11
62.8499995081
 21
189.9019285049
 31
0.0
  0
ARC
  5
E3
330
E0
100
AcDbEntity
  8
$DDT_AUDIT_GENERATED_(77)
  6
Continuous
 62
     7
100
AcDbCircle
 10
62.3499995081
 20
190.4019285049
 30
0.0
 40
0.5000000000000004
100
AcDbArc
 50
180.0
 51
270.0
  0
LINE
  5
E4
330
E0
100
AcDbEntity
  8
$DDT_AUDIT_GENERATED_(77)
  6
Continuous
 62
     7
100
AcDbLine
 10
61.8499995081
 20
190.4019285049
 30
0.0
 11
61.8499995081
 21
196.9019285049
 31
0.0
  0
LINE
  5
E5
330
E0
100
AcDbEntity
  8
$DDT_AUDIT_GENERATED_(77)
  6
Continuous
 62
     7
100
AcDbLine
 10
61.8499995081
 20
196.9019285049
 30
0.0
 11
62.8499995081
 21
196.9019285049
 31
0.0
  0
LINE
  5
E6
330
E0
100
AcDbEntity
  8
$DDT_AUDIT_GENERATED_(77)
  6
Continuous
 62
     7
100
AcDbLine
 10
106.8499995081
 20
189.9019285049
 30
0.0
 11
62.8499995081
 21
189.9019285049
 31
0.0
  0
LINE
  5
E7
330
E0
100
AcDbEntity
  8
$DDT_AUDIT_GENERATED_(77)
  6
Continuous
 62
     7
100
AcDbLine
 10
106.8499995081
 20
189.9019285049
 30
0.0
 11
107.3499995081
 21
189.9019285049
 31
0.0
  0
ARC
  5
E8
330
E0
100
AcDbEntity
  8
$DDT_AUDIT_GENERATED_(77)
  6
Continuous
 62
     7
100
AcDbCircle
 10
107.3499995081
 20
190.4019285049
 30
0.0
 40
0.5000000000000004
100
AcDbArc
 50
270.0
 51
0.0
  0
LINE
  5
E9
330
E0
100
AcDbEntity
  8
$DDT_AUDIT_GENERATED_(77)
  6
Continuous
 62
     7
100
AcDbLine
 10
106.8499995081
 20
196.9019285049
 30
0.0
 11
62.8499995081
 21
196.9019285049
 31
0.0
  0
LINE
  5
EA
330
E0
100
AcDbEntity
  8
$DDT_AUDIT_GENERATED_(77)
  6
Continuous
 62
     7
100
AcDbLine
 10
106.8499995081
 20
196.9019285049
 30
0.0
 11
107.8499995081
 21
196.9019285049
 31
0.0
  0
LINE
  5
EB
330
E0
100
AcDbEntity
  8
$DDT_AUDIT_GENERATED_(77)
  6
Continuous
 62
     7
100
AcDbLine
 10
107.8499995081
 20
196.9019285049
 30
0.0
 11
107.8499995081
 21
190.4019285049
 31
0.0
  0
LINE
  5
EC
330
E0
100
AcDbEntity
  8
$DDT_AUDIT_GENERATED_(B5)
  6
Continuous
 62
     7
100
AcDbLine
 10
102.6499995081
 20
154.9019285049
 30
0.0
 11
67.0499995081
 21
154.9019285049
 31
0.0
  0
LINE
  5
ED
330
E0
100
AcDbEntity
  8
$DDT_AUDIT_GENERATED_(B5)
  6
Continuous
 62
     7
100
AcDbLine
 10
66.8499995081
 20
189.9019285049
 30
0.0
 11
66.8499995081
 21
155.1019285049
 31
0.0
  0
LINE
  5
EE
330
E0
100
AcDbEntity
  8
$DDT_AUDIT_GENERATED_(B5)
  6
Continuous
 62
     7
100
AcDbLine
 10
102.8499995081
 20
155.1019285049
 30
0.0
 11
102.8499995081
 21
189.9019285049
 31
0.0
  0
ARC
  5
EF
330
E0
100
AcDbEntity
  8
$DDT_AUDIT_GENERATED_(B5)
  6
Continuous
 62
     7
100
AcDbCircle
 10
102.6499995081
 20
155.1019285049
 30
0.0
 40
0.1999999999999988
100
AcDbArc
 50
270.0
 51
0.0
  0
ARC
  5
F0
330
E0
100
AcDbEntity
  8
$DDT_AUDIT_GENERATED_(B5)
  6
Continuous
 62
     7
100
AcDbCircle
 10
67.0499995081
 20
155.1019285049
 30
0.0
 40
0.1999999999999988
100
AcDbArc
 50
180.0
 51
270.0
  0
LINE
  5
F1
330
E0
100
AcDbEntity
  8
$DDT_AUDIT_GENERATED_(80)
  6
Continuous
 62
     7
100
AcDbLine
 10
147.3500002522
 20
120.8696171589
 30
0.0
 11
147.3500002721
 21
125.0386329793
 31
0.0
  0
LINE
  5
F2
330
E0
100
AcDbEntity
  8
$DDT_AUDIT_GENERATED_(80)
  6
Continuous
 62
     7
100
AcDbLine
 10
147.3500003024
 20
118.5874785455
 30
0.0
 11
147.3500002522
 21
120.8696171589
 31
0.0
  0
LINE
  5
F3
330
E0
100
AcDbEntity
  8
$DDT_AUDIT_GENERATED_(80)
  6
Continuous
 62
     7
100
AcDbLine
 10
93.1499998735
 20
149.2695643479
 30
0.0
 11
93.1499998815
 21
150.9363741013
 31
0.0
  0
LINE
  5
F4
330
E0
100
AcDbEntity
  8
$DDT_AUDIT_GENERATED_(80)
  6
Continuous
 62
     7
100
AcDbLine
 10
163.3500003024
 20
118.5874785455
 30
0.0
 11
163.3500003223
 21
122.7564943659
 31
0.0
  0
LINE
  5
F5
330
E0
100
AcDbEntity
  8
$DDT_AUDIT_GENERATED_(80)
  6
Continuous
 62
     7
100
AcDbLine
 10
6.35
 20
143.5219559882
 30
0.0
 11
6.3500000199
 21
147.6909718086
 31
0.0
  0
LINE
  5
F6
330
E0
100
AcDbEntity
  8
$DDT_AUDIT_GENERATED_(80)
  6
Continuous
 62
     7
100
AcDbLine
 10
6.3500005486
 20
118.5874785455
 30
0.0
 11
6.35
 21
143.5219559882
 31
0.0
  0
LINE
  5
F7
330
E0
100
AcDbEntity
  8
$DDT_AUDIT_GENERATED_(80)
  6
Continuous
 62
     7
100
AcDbLine
 10
163.3500003223
 20
122.7564943659
 30
0.0
 11
163.3500002721
 21
125.0386329793
 31
0.0
  0
LINE
  5
F8
330
E0
100
AcDbEntity
  8
$DDT_AUDIT_GENERATED_(80)
  6
Continuous
 62
     7
100
AcDbLine
 10
147.3500003223
 20
122.7564943659
 30
0.0
 11
147.3500003024
 21
118.5874785455
 31
0.0
  0
LINE
  5
F9
330
E0
100
AcDbEntity
  8
$DDT_AUDIT_GENERATED_(80)
  6
Continuous
 62
     7
100
AcDbLine
 10
22.3500005686
 20
122.7564943659
 30
0.0
 11
22.3500001117
 21
143.5219583254
 31
0.0
  0
SPLINE
  5
FA
330
E0
100
AcDbEntity
  8
$DDT_AUDIT_GENERATED_(80)
  6
Continuous
 62
     7
100
AcDbSpline
210
0.0
220
0.0
230
1.0
 70
     8
 71
     3
 72
    38
 73
    34
 74
     0
 42
0.0000000003041111
 43
0.0000000001
 40
0.0
 40
0.0
 40
0.0
 40
0.0
 40
0.0178329480230061
 40
0.0495269361596793
 40
0.0812737370167659
 40
0.1132075466749235
 40
0.1454293679510446
 40
0.1779884099717207
 40
0.2108808947883488
 40
0.2440615622518371
 40
0.2774626019247176
 40
0.3110123888970953
 40
0.3446483509468532
 40
0.3783225745562641
 40
0.4119976584133163
 40
0.4456524617062493
 40
0.4792776058023758
 40
0.5128690271045212
 40
0.5464259877751436
 40
0.579949712020449
 40
0.6134424974106211
 40
0.6469071584319016
 40
0.680346691258228
 40
0.7137640810944819
 40
0.7471621991875994
 40
0.7805437550423218
 40
0.8139112818793587
 40
0.8472671415830492
 40
0.8806135406720605
 40
0.9139525521877473
 40
0.9472861405123881
 40
0.9806161874522457
 40
1.0
 40
1.0
 40
1.0
 40
1.0
 10
6.350000548607376
 20
118.5874785301198
 30
0.0
 10
6.352204050854432
 20
118.4533982348142
 30
0.0
 10
6.3592404906678
 20
118.1373960071368
 30
0.0
 10
6.430451130459036
 20
117.5697082916003
 30
0.0
 10
6.585249647483138
 20
116.930080048245
 30
0.0
 10
6.815665788565184
 20
116.2908803465646
 30
0.0
 10
7.120429850554805
 20
115.6598587677764
 30
0.0
 10
7.499952441092445
 20
115.0362794223819
 30
0.0
 10
7.953924666531803
 20
114.4222725185716
 30
0.0
 10
8.481587600060985
 20
113.8196984903385
 30
0.0
 10
9.081490861337388
 20
113.2307647852846
 30
0.0
 10
9.751618422880137
 20
112.6575803094487
 30
0.0
 10
10.48955611529195
 20
112.1020662571238
 30
0.0
 10
11.29263738870667
 20
111.5659067016372
 30
0.0
 10
12.15808335794588
 20
111.0505437266034
 30
0.0
 10
13.0830863279599
 20
110.5572113983772
 30
0.0
 10
14.06486883663166
 20
110.0869770930489
 30
0.0
 10
15.10064019818613
 20
109.6408103739163
 30
0.0
 10
16.18754474404887
 20
109.2196254067392
 30
0.0
 10
17.32264516866455
 20
108.8242926577653
 30
0.0
 10
18.50291094858949
 20
108.4556427934908
 30
0.0
 10
19.72521221438636
 20
108.114465831438
 30
0.0
 10
20.98631728613737
 20
107.8015077435878
 30
0.0
 10
22.28289687005825
 20
107.517465764832
 30
0.0
 10
23.61151942068151
 20
107.2629837678633
 30
0.0
 10
24.96869156385871
 20
107.0386462432521
 30
0.0
 10
26.35073946235262
 20
106.8449783764179
 30
0.0
 10
27.75429000953246
 20
106.6824253568955
 30
0.0
 10
29.17451941817531
 20
106.5514116346685
 30
0.0
 10
30.61173396170237
 20
106.4521046112181
 30
0.0
 10
32.04686754619346
 20
106.3852837310638
 30
0.0
 10
33.32571224872304
 20
106.3541355679697
 30
0.0
 10
34.04030955858273
 20
106.3510015220989
 30
0.0
 10
34.3500008024545
 20
106.35
 30
0.0
  0
LINE
  5
FB
330
E0
100
AcDbEntity
  8
$DDT_AUDIT_GENERATED_(80)
  6
Continuous
 62
     7
100
AcDbLine
 10
34.3500008025
 20
106.35
 30
0.0
 11
135.3500005562
 21
106.35
 31
0.0
  0
SPLINE
  5
FC
330
E0
100
AcDbEntity
  8
$DDT_AUDIT_GENERATED_(80)
  6
Continuous
 62
     7
100
AcDbSpline
210
0.0
220
0.0
230
1.0
 70
     8
 71
     3
 72
    38
 73
    34
 74
     0
 42
0.000000000304109
 43
0.0000000001
 40
0.0
 40
0.0
 40
0.0
 40
0.0
 40
0.0175508380083552
 40
0.0508766252010678
 40
0.0842066433371795
 40
0.1175399453135169
 40
0.1508783871708763
 40
0.1842238972700456
 40
0.2175785031468193
 40
0.2509443588808492
 40
0.2843237716024912
 40
0.3177192255420598
 40
0.3511334007315303
 40
0.3845691813921122
 40
0.418029645738609
 40
0.4515180237267217
 40
0.4850376011637147
 40
0.5185915361989487
 40
0.5521825357512176
 40
0.5858123132214028
 40
0.6194807147113435
 40
0.6531843641481087
 40
0.6869146575618188
 40
0.720651839307369
 40
0.7543585339171305
 40
0.7879862708490474
 40
0.8214700412336042
 40
0.8547331946580404
 40
0.8877007557526257
 40
0.920320457144163
 40
0.9525848525323534
 40
0.9845442765443462
 40
1.0
 40
1.0
 40
1.0
 40
1.0
 10
135.3500005562221
 20
106.35
 30
0.0
 10
135.6304078927574
 20
106.3508210607203
 30
0.0
 10
136.3208892123588
 20
106.3535855216462
 30
0.0
 10
137.5735488468456
 20
106.3825020313243
 30
0.0
 10
139.008621233329
 20
106.4475622718469
 30
0.0
 10
140.4463350126993
 20
106.5450800809438
 30
0.0
 10
141.8670821785226
 20
106.674307514887
 30
0.0
 10
143.2713000205775
 20
106.8350652101514
 30
0.0
 10
144.6541263414292
 20
107.0269281470287
 30
0.0
 10
146.0121952628438
 20
107.2494466538106
 30
0.0
 10
147.3418292089024
 20
107.5020912572341
 30
0.0
 10
148.6395364399599
 20
107.784272438747
 30
0.0
 10
149.9018897860553
 20
108.0953412692311
 30
0.0
 10
151.125570209462
 20
108.4345961908434
 30
0.0
 10
152.3073647186118
 20
108.8012892049786
 30
0.0
 10
153.4441745196305
 20
109.1946332348361
 30
0.0
 10
154.5330176659917
 20
109.6138100013828
 30
0.0
 10
155.5710294082958
 20
110.0579781256076
 30
0.0
 10
156.5554580559775
 20
110.526280571639
 30
0.0
 10
157.4836553203016
 20
111.0178498818268
 30
0.0
 10
158.3530596946235
 20
111.5318084542117
 30
0.0
 10
159.1611720505317
 20
112.067259645813
 30
0.0
 10
159.9055010597735
 20
112.6232454664327
 30
0.0
 10
160.5834998551416
 20
113.1986609477776
 30
0.0
 10
161.1926000078572
 20
113.7921828055688
 30
0.0
 10
161.7302613340024
 20
114.4021915242352
 30
0.0
 10
162.1940784012224
 20
115.0266317055514
 30
0.0
 10
162.5819672920697
 20
115.6631676804328
 30
0.0
 10
162.8922635684355
 20
116.3083419795039
 30
0.0
 10
163.1244424121394
 20
116.9610473574658
 30
0.0
 10
163.2773051911167
 20
117.6107795889274
 30
0.0
 10
163.3424252703067
 20
118.168220385064
 30
0.0
 10
163.3483455175133
 20
118.4712731388632
 30
0.0
 10
163.350000302375
 20
118.5874785609225
 30
0.0
  0
SPLINE
  5
FD
330
E0
100
AcDbEntity
  8
$DDT_AUDIT_GENERATED_(80)
  6
Continuous
 62
     7
100
AcDbSpline
210
0.0
220
0.0
230
1.0
 70
     8
 71
     3
 72
    15
 73
    11
 74
     0
 42
0.0000000046346974
 43
0.0000000001
 40
0.0
 40
0.0
 40
0.0
 40
0.0
 40
0.0780741294536401
 40
0.2249454288334465
 40
0.3779976637327313
 40
0.5268381482044956
 40
0.6534781958896062
 40
0.7700125340149875
 40
0.8834449348236546
 40
1.0
 40
1.0
 40
1.0
 40
1.0
 10
91.54999988190994
 20
148.1892079123293
 30
0.0
 10
91.61615958460831
 20
148.190253505176
 30
0.0
 10
91.77830286997028
 20
148.1938026323532
 30
0.0
 10
92.07138191205559
 20
148.2312119588616
 30
0.0
 10
92.3825977046908
 20
148.3160177694829
 30
0.0
 10
92.65034392157624
 20
148.4413074585981
 30
0.0
 10
92.86424816378614
 20
148.6032999055215
 30
0.0
 10
93.02159886197616
 20
148.7944861038344
 30
0.0
 10
93.12870360486113
 20
149.0245106950041
 30
0.0
 10
93.14306151315722
 20
149.1779127863479
 30
0.0
 10
93.14999987354136
 20
149.2695643632972
 30
0.0
  0
LINE
  5
FE
330
E0
100
AcDbEntity
  8
$DDT_AUDIT_GENERATED_(80)
  6
Continuous
 62
     7
100
AcDbLine
 10
34.3499998819
 20
148.1892079123
 30
0.0
 11
91.5499998819
 21
148.1892079123
 31
0.0
  0
SPLINE
  5
FF
330
E0
100
AcDbEntity
  8
$DDT_AUDIT_GENERATED_(80)
  6
Continuous
 62
     7
100
AcDbSpline
210
0.0
220
0.0
230
1.0
 70
     8
 71
     3
 72
    28
 73
    24
 74
     0
 42
0.0000000007304572
 43
0.0000000001
 40
0.0
 40
0.0
 40
0.0
 40
0.0
 40
0.0254597833336931
 40
0.0834280770658287
 40
0.132515345270193
 40
0.1846452484036733
 40
0.2346444196773229
 40
0.2835654870515016
 40
0.3320773512556953
 40
0.3805165750537392
 40
0.4290108787395001
 40
0.4776531511919108
 40
0.5264739907427486
 40
0.5754726666970559
 40
0.6246339146646761
 40
0.6739368065387749
 40
0.7233592309607885
 40
0.7728799750002239
 40
0.8224795272026042
 40
0.8721402232342331
 40
0.9218460706844995
 40
0.9715824293538614
 40
1.0
 40
1.0
 40
1.0
 40
1.0
 10
22.35
 20
143.5219560036238
 30
0.0
 10
22.35128940108459
 20
143.5771334252354
 30
0.0
 10
22.35649992927119
 20
143.7313980081338
 30
0.0
 10
22.4123599176743
 20
144.00369857039
 30
0.0
 10
22.54790570448575
 20
144.3345669119887
 30
0.0
 10
22.74821880199742
 20
144.6642196020391
 30
0.0
 10
23.02424411280529
 20
145.0014020082336
 30
0.0
 10
23.36679552591914
 20
145.3330607123214
 30
0.0
 10
23.77579128982725
 20
145.6580763061682
 30
0.0
 10
24.25058263941508
 20
145.9743748700276
 30
0.0
 10
24.78944325594756
 20
146.2791833650769
 30
0.0
 10
25.38972744309453
 20
146.5696110666489
 30
0.0
 10
26.04818963705486
 20
146.8429168859338
 30
0.0
 10
26.76088101306125
 20
147.0965107554472
 30
0.0
 10
27.5232905140543
 20
147.3280351612016
 30
0.0
 10
28.33048626429533
 20
147.5354004910791
 30
0.0
 10
29.17712540676334
 20
147.7167893108044
 30
0.0
 10
30.05783728562863
 20
147.8706696422871
 30
0.0
 10
30.96611771492249
 20
147.9957284457929
 30
0.0
 10
31.89872846856721
 20
148.0910872397814
 30
0.0
 10
32.83946978286804
 20
148.155461329756
 30
0.0
 10
33.67978990890096
 20
148.1852936380674
 30
0.0
 10
34.1489928413464
 20
148.1882690657451
 30
0.0
 10
34.34999988190994
 20
148.1892079123293
 30
0.0
  0
SPLINE
  5
100
330
E0
100
AcDbEntity
  8
$DDT_AUDIT_GENERATED_(80)
  6
Continuous
 62
     7
100
AcDbSpline
210
0.0
220
0.0
230
1.0
 70
     8
 71
     3
 72
    28
 73
    24
 74
     0
 42
0.0000000007304786
 43
0.0000000001
 40
0.0
 40
0.0
 40
0.0
 40
0.0
 40
0.0261118171579266
 40
0.075858522458769
 40
0.1256001846176871
 40
0.1753139040494037
 40
0.2249856075609089
 40
0.2746000418005588
 40
0.3241403787765593
 40
0.3735878834639403
 40
0.4229217321798751
 40
0.4721191713609913
 40
0.5211563797046767
 40
0.5700107034381433
 40
0.6186654616686273
 40
0.6671193899903879
 40
0.71540415640464
 40
0.7636153686998272
 40
0.8118865300399899
 40
0.8605452295438358
 40
0.9101960478748623
 40
0.9618127469642975
 40
1.0
 40
1.0
 40
1.0
 40
1.0
 10
34.35000068664271
 20
118.0892424417828
 30
0.0
 10
34.165300368789
 20
118.0900351109462
 30
0.0
 10
33.70943966869819
 20
118.0927098465942
 30
0.0
 10
32.88316539172635
 20
118.120739933512
 30
0.0
 10
31.94141292165763
 20
118.1837571192028
 30
0.0
 10
31.00692802539945
 20
118.2778489903131
 30
0.0
 10
30.09627611856628
 20
118.4017999971475
 30
0.0
 10
29.21263154590699
 20
118.5547723608531
 30
0.0
 10
28.36255476461906
 20
118.7355057206909
 30
0.0
 10
27.55147296738149
 20
118.9425172813401
 30
0.0
 10
26.784838825655
 20
119.1740302045834
 30
0.0
 10
26.06776187574064
 20
119.4279689174696
 30
0.0
 10
25.40503385616863
 20
119.7019308232226
 30
0.0
 10
24.80102537175086
 20
119.9931619383435
 30
0.0
 10
24.25958236765383
 20
120.2985348374312
 30
0.0
 10
23.78387015394923
 20
120.6145570223564
 30
0.0
 10
23.37617924982034
 20
120.9374092556435
 30
0.0
 10
23.03782688468966
 20
121.2630339620209
 30
0.0
 10
22.76882793880624
 20
121.5872549101672
 30
0.0
 10
22.56718546694909
 20
121.9077369945827
 30
0.0
 10
22.43080635906081
 20
122.2213393709608
 30
0.0
 10
22.36087750294478
 20
122.5086077932754
 30
0.0
 10
22.35288781774054
 20
122.6737647107268
 30
0.0
 10
22.35000056855264
 20
122.7564943812911
 30
0.0
  0
LINE
  5
101
330
E0
100
AcDbEntity
  8
$DDT_AUDIT_GENERATED_(80)
  6
Continuous
 62
     7
100
AcDbLine
 10
135.3500004404
 20
118.0892424418
 30
0.0
 11
34.3500006866
 21
118.0892424418
 31
0.0
  0
SPLINE
  5
102
330
E0
100
AcDbEntity
  8
$DDT_AUDIT_GENERATED_(80)
  6
Continuous
 62
     7
100
AcDbSpline
210
0.0
220
0.0
230
1.0
 70
     8
 71
     3
 72
    28
 73
    24
 74
     0
 42
0.0000000007304572
 43
0.0000000001
 40
0.0
 40
0.0
 40
0.0
 40
0.0
 40
0.0254597833336932
 40
0.0834280770658292
 40
0.1325153452702027
 40
0.1846452484037008
 40
0.2346444196773417
 40
0.2835654870515205
 40
0.3320773512557158
 40
0.3805165750537549
 40
0.4290108787395211
 40
0.4776531511919286
 40
0.5264739907427692
 40
0.5754726666970774
 40
0.6246339146646974
 40
0.6739368065387992
 40
0.7233592309608134
 40
0.7728799750002466
 40
0.8224795272026237
 40
0.8721402232342601
 40
0.9218460706845227
 40
0.9715824293538862
 40
1.0
 40
1.0
 40
1.0
 40
1.0
 10
147.3500003223203
 20
122.7564943504883
 30
0.0
 10
147.3487109212357
 20
122.7013169288767
 30
0.0
 10
147.3435003930492
 20
122.5470523459782
 30
0.0
 10
147.287640404646
 20
122.2747517837221
 30
0.0
 10
147.1520946178345
 20
121.9438834421232
 30
0.0
 10
146.9517815203228
 20
121.6142307520729
 30
0.0
 10
146.6757562095149
 20
121.2770483458783
 30
0.0
 10
146.3332047964011
 20
120.9453896417907
 30
0.0
 10
145.9242090324928
 20
120.6203740479437
 30
0.0
 10
145.449417682905
 20
120.3040754840844
 30
0.0
 10
144.9105570663725
 20
119.9992669890351
 30
0.0
 10
144.3102728792256
 20
119.708839287463
 30
0.0
 10
143.6518106852652
 20
119.4355334681782
 30
0.0
 10
142.9391193092586
 20
119.1819395986647
 30
0.0
 10
142.1767098082657
 20
118.9504151929105
 30
0.0
 10
141.3695140580245
 20
118.7430498630328
 30
0.0
 10
140.5228749155566
 20
118.5616610433076
 30
0.0
 10
139.6421630366912
 20
118.407780711825
 30
0.0
 10
138.7338826073973
 20
118.2827219083191
 30
0.0
 10
137.8012718537526
 20
118.1873631143307
 30
0.0
 10
136.8605305394518
 20
118.1229890243562
 30
0.0
 10
136.020210413419
 20
118.0931567160447
 30
0.0
 10
135.5510074809737
 20
118.090181288367
 30
0.0
 10
135.3500004404104
 20
118.0892424417828
 30
0.0
  0
LINE
  5
103
330
E0
100
AcDbEntity
  8
$DDT_AUDIT_GENERATED_(80)
  6
Continuous
 62
     7
100
AcDbLine
 10
66.8499995081
 20
159.9284503541
 30
0.0
 11
34.3499997661
 21
159.9284503541
 31
0.0
  0
SPLINE
  5
104
330
E0
100
AcDbEntity
  8
$DDT_AUDIT_GENERATED_(80)
  6
Continuous
 62
     7
100
AcDbSpline
210
0.0
220
0.0
230
1.0
 70
     8
 71
     3
 72
    15
 73
    11
 74
     0
 42
0.0000000046346974
 43
0.0000000001
 40
0.0
 40
0.0
 40
0.0
 40
0.0
 40
0.0780741294536407
 40
0.2249454288334487
 40
0.3779976637327135
 40
0.5268381482044789
 40
0.6534781958895831
 40
0.7700125340149806
 40
0.8834449348236407
 40
1.0
 40
1.0
 40
1.0
 40
1.0
 10
148.9500002637402
 20
126.1189894148561
 30
0.0
 10
148.8838405610418
 20
126.1179438220094
 30
0.0
 10
148.7216972756798
 20
126.1143946948322
 30
0.0
 10
148.4286182335946
 20
126.0769853683237
 30
0.0
 10
148.1174024409594
 20
125.9921795577025
 30
0.0
 10
147.849656224074
 20
125.8668898685872
 30
0.0
 10
147.635751981864
 20
125.7048974216641
 30
0.0
 10
147.478401283674
 20
125.513711223351
 30
0.0
 10
147.371296540789
 20
125.2836866321813
 30
0.0
 10
147.3569386324929
 20
125.1302845408375
 30
0.0
 10
147.3500002721088
 20
125.0386329638881
 30
0.0
  0
SPLINE
  5
105
330
E0
100
AcDbEntity
  8
$DDT_AUDIT_GENERATED_(80)
  6
Continuous
 62
     7
100
AcDbSpline
210
0.0
220
0.0
230
1.0
 70
     8
 71
     3
 72
    38
 73
    34
 74
     0
 42
0.000000000304109
 43
0.0000000001
 40
0.0
 40
0.0
 40
0.0
 40
0.0
 40
0.0175508380083551
 40
0.0508766252010675
 40
0.084206643337179
 40
0.1175399453135166
 40
0.1508783871708756
 40
0.1842238972700421
 40
0.2175785031468184
 40
0.2509443588808455
 40
0.2843237716024904
 40
0.3177192255420589
 40
0.3511334007315295
 40
0.3845691813921115
 40
0.4180296457386084
 40
0.4515180237267232
 40
0.4850376011637128
 40
0.5185915361989492
 40
0.5521825357512162
 40
0.5858123132214085
 40
0.6194807147113384
 40
0.6531843641481088
 40
0.6869146575618175
 40
0.7206518393073654
 40
0.7543585339171256
 40
0.7879862708490344
 40
0.8214700412335908
 40
0.8547331946580261
 40
0.8877007557526048
 40
0.9203204571441477
 40
0.952584852532338
 40
0.984544276544331
 40
1.0
 40
1.0
 40
1.0
 40
1.0
 10
34.34999976609814
 20
159.9284503541121
 30
0.0
 10
34.0695924295629
 20
159.9276292933918
 30
0.0
 10
33.37911110996151
 20
159.9248648324657
 30
0.0
 10
32.12645147547468
 20
159.8959483227879
 30
0.0
 10
30.69137908899132
 20
159.8308880822651
 30
0.0
 10
29.25366530962091
 20
159.7333702731683
 30
0.0
 10
27.83291814379781
 20
159.6041428392251
 30
0.0
 10
26.42870030174287
 20
159.4433851439606
 30
0.0
 10
25.04587398089127
 20
159.2515222070835
 30
0.0
 10
23.68780505947656
 20
159.0290037003014
 30
0.0
 10
22.3581711134179
 20
158.776359096878
 30
0.0
 10
21.06046388236058
 20
158.494177915365
 30
0.0
 10
19.7981105362649
 20
158.183109084881
 30
0.0
 10
18.57443011285837
 20
157.8438541632686
 30
0.0
 10
17.39263560370843
 20
157.4771611491336
 30
0.0
 10
16.25582580268981
 20
157.0838171192759
 30
0.0
 10
15.1669826563286
 20
156.6646403527293
 30
0.0
 10
14.12897091402451
 20
156.2204722285044
 30
0.0
 10
13.14454226634268
 20
155.7521697824731
 30
0.0
 10
12.21634500201874
 20
155.2606004722851
 30
0.0
 10
11.34694062769681
 20
154.7466418999005
 30
0.0
 10
10.53882827178868
 20
154.211190708299
 30
0.0
 10
9.794499262546829
 20
153.6552048876794
 30
0.0
 10
9.116500467178795
 20
153.0797894063345
 30
0.0
 10
8.507400314463231
 20
152.4862675485434
 30
0.0
 10
7.969738988318154
 20
151.8762588298771
 30
0.0
 10
7.50592192109803
 20
151.2518186485609
 30
0.0
 10
7.118033030250742
 20
150.6152826736797
 30
0.0
 10
6.807736753885019
 20
149.9701083746085
 30
0.0
 10
6.57555791018094
 20
149.3174029966465
 30
0.0
 10
6.42269513120361
 20
148.667670765185
 30
0.0
 10
6.357575052013703
 20
148.1102299690484
 30
0.0
 10
6.351654804806955
 20
147.8071772152489
 30
0.0
 10
6.350000019945262
 20
147.6909717931896
 30
0.0
  0
LINE
  5
106
330
E0
100
AcDbEntity
  8
$DDT_AUDIT_GENERATED_(80)
  6
Continuous
 62
     7
100
AcDbLine
 10
161.7500002637
 20
126.1189894149
 30
0.0
 11
148.9500002637
 21
126.1189894149
 31
0.0
  0
SPLINE
  5
107
330
E0
100
AcDbEntity
  8
$DDT_AUDIT_GENERATED_(80)
  6
Continuous
 62
     7
100
AcDbSpline
210
0.0
220
0.0
230
1.0
 70
     8
 71
     3
 72
    15
 73
    11
 74
     0
 42
0.0000000046368904
 43
0.0000000001
 40
0.0
 40
0.0
 40
0.0
 40
0.0
 40
0.1140923930278901
 40
0.2246690327879952
 40
0.3326529161986128
 40
0.4454024530441186
 40
0.5709208832784864
 40
0.7147692819081216
 40
0.8651530776427419
 40
1.0
 40
1.0
 40
1.0
 40
1.0
 10
163.3500002721088
 20
125.0386329946908
 30
0.0
 10
163.3433624123725
 20
125.128360186301
 30
0.0
 10
163.3296492067343
 20
125.2781734095548
 30
0.0
 10
163.2289356048339
 20
125.4999701814213
 30
0.0
 10
163.086434359674
 20
125.6808531831154
 30
0.0
 10
162.9027264946997
 20
125.8312949550667
 30
0.0
 10
162.6723357554012
 20
125.955213655374
 30
0.0
 10
162.3920652648848
 20
126.0495817427107
 30
0.0
 10
162.0691065632745
 20
126.1084319306632
 30
0.0
 10
161.8641667563416
 20
126.1158925723043
 30
0.0
 10
161.7500002637402
 20
126.1189894148561
 30
0.0
  0
LINE
  5
108
330
E0
100
AcDbEntity
  8
$DDT_AUDIT_GENERATED_(A5)
  6
Continuous
 62
     7
100
AcDbLine
 10
102.6499995081
 20
154.9019285049
 30
0.0
 11
67.0499995081
 21
154.9019285049
 31
0.0
  0
ARC
  5
109
330
E0
100
AcDbEntity
  8
$DDT_AUDIT_GENERATED_(A5)
  6
Continuous
 62
     7
100
AcDbCircle
 10
84.8499995081
 20
1150.9019285049
 30
0.0
 40
1000.0
100
AcDbArc
 50
268.9967710075
 51
271.0032289925
  0
LINE
  5
10A
330
E0
100
AcDbEntity
  8
$DDT_AUDIT_GENERATED_(A5)
  6
Continuous
 62
     7
100
AcDbLine
 10
66.8499995081
 20
154.7019285049
 30
0.0
 11
66.8499995081
 21
151.5551418488
 31
0.0
  0
LINE
  5
10B
330
E0
100
AcDbEntity
  8
$DDT_AUDIT_GENERATED_(A5)
  6
Continuous
 62
     7
100
AcDbLine
 10
102.8499995081
 20
151.5551418488
 30
0.0
 11
102.8499995081
 21
154.7019285049
 31
0.0
  0
ARC
  5
10C
330
E0
100
AcDbEntity
  8
$DDT_AUDIT_GENERATED_(A5)
  6
Continuous
 62
     7
100
AcDbCircle
 10
67.3499995081
 20
151.5551418488
 30
0.0
 40
0.5000000000000004
100
AcDbArc
 50
180.0
 51
268.9967710079
  0
ARC
  5
10D
330
E0
100
AcDbEntity
  8
$DDT_AUDIT_GENERATED_(A5)
  6
Continuous
 62
     7
100
AcDbCircle
 10
102.3499995081
 20
151.5551418488
 30
0.0
 40
0.5000000000000601
100
AcDbArc
 50
271.0032289921
 51
0.0
  0
ARC
  5
10E
330
E0
100
AcDbEntity
  8
$DDT_AUDIT_GENERATED_(A5)
  6
Continuous
 62
     7
100
AcDbCircle
 10
67.0499995081
 20
154.7019285049
 30
0.0
 40
0.1999999999999988
100
AcDbArc
 50
90.0
 51
180.0
  0
ARC
  5
10F
330
E0
100
AcDbEntity
  8
$DDT_AUDIT_GENERATED_(A5)
  6
Continuous
 62
     7
100
AcDbCircle
 10
102.6499995081
 20
154.7019285049
 30
0.0
 40
0.1999999999999988
100
AcDbArc
 50
0.0
 51
90.0
  0
ENDBLK
  5
111
330
E0
100
AcDbEntity
  8
0
100
AcDbBlockEnd
  0
ENDSEC
  0
SECTION
  2
ENTITIES
  0
INSERT
  5
5F
330
1F
100
AcDbEntity
  8
Default
100
AcDbBlockReference
  2
SEANNOT_GROUP
 10
0.0
 20
0.0
 30
0.0
  0
INSERT
  5
6A
330
1F
100
AcDbEntity
  8
Default
100
AcDbBlockReference
  2
SEANNOT_GROUP1
 10
0.0
 20
0.0
 30
0.0
  0
INSERT
  5
70
330
1F
100
AcDbEntity
  8
Default
100
AcDbBlockReference
  2
SEANNOT_GROUP2
 10
0.0
 20
0.0
 30
0.0
  0
INSERT
  5
76
330
1F
100
AcDbEntity
  8
Default
100
AcDbBlockReference
  2
SE
 10
0.0
 20
0.0
 30
0.0
  0
INSERT
  5
AA
330
1F
100
AcDbEntity
  8
Default
100
AcDbBlockReference
  2
SE1
 10
0.0
 20
0.0
 30
0.0
  0
INSERT
  5
E1
330
1F
100
AcDbEntity
  8
Default
100
AcDbBlockReference
  2
SE2
 10
0.0
 20
0.0
 30
0.0
  0
TEXT
  5
113
330
1F
100
AcDbEntity
  8
Default
  6
Continuous
 62
     7
100
AcDbText
 10
5.9362635081
 20
53.4225120485
 30
0.0
 40
10.0
  1
Grohe AG^J
  7
SEACAD_seiso_ttf
 11
5.9362635081
 21
63.4225120485
 31
0.0
100
AcDbText
 73
     3
  0
TEXT
  5
114
330
1F
100
AcDbEntity
  8
Default
  6
Continuous
 62
     7
100
AcDbText
 10
5.9362635081
 20
37.0588756849
 30
0.0
 40
10.0
  1
 
  7
SEACAD_seiso_ttf
 11
5.9362635081
 21
47.0588756849
 31
0.0
100
AcDbText
 73
     3
  0
TEXT
  5
115
330
1F
100
AcDbEntity
  8
Default
  6
Continuous
 62
     7
100
AcDbText
 10
5.9362635081
 20
20.6952393213
 30
0.0
 40
10.0
  1
ecn: 
  7
SEACAD_seiso_ttf
 11
5.9362635081
 21
30.6952393213
 31
0.0
100
AcDbText
 73
     3
  0
TEXT
  5
116
330
1F
100
AcDbEntity
  8
Default
  6
Continuous
 62
     7
100
AcDbText
 10
5.9362635081
 20
4.3316029576
 30
0.0
 40
10.0
  1
unit: mm
  7
SEACAD_seiso_ttf
 11
5.9362635081
 21
14.3316029576
 31
0.0
100
AcDbText
 73
     3
  0
LINE
  5
117
330
1F
100
AcDbEntity
  8
Default
  6
Continuous
 62
     7
100
AcDbLine
 10
0.0
 20
0.0
 30
0.0
 11
100.0
 21
0.0
 31
0.0
  0
LINE
  5
118
330
1F
100
AcDbEntity
  8
Default
  6
Continuous
 62
     7
100
AcDbLine
 10
0.0
 20
0.0
 30
0.0
 11
0.0
 21
100.0
 31
0.0
  0
TEXT
  5
119
330
1F
100
AcDbEntity
  8
Default
  6
Continuous
 62
     7
100
AcDbText
 10
24.3923665681
 20
-18.2375342018
 30
0.0
 40
10.0
  1
100 mm
  7
SEACAD_seiso_ttf
 11
24.3923665681
 21
-8.2375342018
 31
0.0
100
AcDbText
 73
     3
  0
TEXT
  5
11A
330
1F
100
AcDbEntity
  8
Default
  6
Continuous
 62
     7
100
AcDbText
 10
-7.6150308803
 20
24.6231930421
 30
0.0
 40
10.0
  1
100 mm
 50
90.0
  7
SEACAD_seiso_ttf
 11
-17.6150308803
 21
24.6231930421
 31
0.0
100
AcDbText
 73
     3
  0
TEXT
  5
11B
330
1F
100
AcDbEntity
  8
Default
  6
Continuous
 62
     7
100
AcDbText
 10
28.4878128572
 20
20.0907663715
 30
0.0
 40
10.0
  1
208536
  7
SEACAD_seiso_ttf
 11
28.4878128572
 21
30.0907663715
 31
0.0
100
AcDbText
 73
     3
  0
TEXT
  5
11C
330
1F
100
AcDbEntity
  8
Default
  6
Continuous
 62
     7
100
AcDbText
 10
5.9012241913
 20
36.7242780188
 30
0.0
 40
10.0
  1
40279000
  7
SEACAD_seiso_ttf
 11
5.9012241913
 21
46.7242780188
 31
0.0
100
AcDbText
 73
     3
  0
ENDSEC
  0
SECTION
  2
OBJECTS
  0
DICTIONARY
  5
C
330
0
100
AcDbDictionary
281
     1
  3
ACAD_GROUP
350
D
  3
ACAD_LAYOUT
350
1A
  3
ACAD_MLEADERSTYLE
350
120
  3
ACAD_MLINESTYLE
350
17
  3
ACAD_PLOTSETTINGS
350
19
  3
ACAD_PLOTSTYLENAME
350
E
  3
ACAD_SCALELIST
350
3B
  3
ACAD_TABLESTYLE
350
11F
  3
ACAD_VISUALSTYLE
350
2A
  3
AcDbVariableDictionary
350
11D
  0
DICTIONARY
  5
D
102
{ACAD_REACTORS
330
C
102
}
330
C
100
AcDbDictionary
281
     1
  0
DICTIONARY
  5
1A
102
{ACAD_REACTORS
330
C
102
}
330
C
100
AcDbDictionary
281
     1
  3
Layout1
350
1E
  3
Model
350
22
  0
DICTIONARY
  5
120
102
{ACAD_REACTORS
330
C
102
}
330
C
100
AcDbDictionary
281
     1
  0
DICTIONARY
  5
17
102
{ACAD_REACTORS
330
C
102
}
330
C
100
AcDbDictionary
281
     1
  3
Standard
350
18
  0
DICTIONARY
  5
19
102
{ACAD_REACTORS
330
C
102
}
330
C
100
AcDbDictionary
281
     1
  0
ACDBDICTIONARYWDFLT
  5
E
102
{ACAD_REACTORS
330
C
102
}
330
C
100
AcDbDictionary
281
     1
  3
Normal
350
F
100
AcDbDictionaryWithDefault
340
F
  0
DICTIONARY
  5
3B
102
{ACAD_REACTORS
330
C
102
}
330
C
100
AcDbDictionary
281
     1
  3
A0
350
3C
  3
A1
350
3D
  3
A2
350
3E
  3
A3
350
3F
  3
A4
350
40
  3
A5
350
41
  3
A6
350
42
  3
A7
350
43
  3
A8
350
44
  3
A9
350
45
  3
B0
350
46
  3
B1
350
47
  3
B2
350
48
  3
B3
350
49
  3
B4
350
4A
  3
B5
350
4B
  3
B6
350
4C
  3
B7
350
4D
  3
B8
350
4E
  3
B9
350
4F
  3
C0
350
50
  3
C1
350
51
  3
C2
350
52
  3
C3
350
53
  3
C4
350
54
  3
C5
350
55
  3
C6
350
56
  3
C7
350
57
  3
C8
350
58
  3
C9
350
59
  3
D0
350
5A
  3
D1
350
5B
  3
D2
350
5C
  0
DICTIONARY
  5
11F
102
{ACAD_REACTORS
330
C
102
}
330
C
100
AcDbDictionary
281
     1
  0
DICTIONARY
  5
2A
102
{ACAD_REACTORS
330
C
102
}
330
C
100
AcDbDictionary
281
     1
  3
2dWireframe
350
2F
  3
3D Hidden
350
31
  3
3dWireframe
350
30
  3
Basic
350
32
  3
Brighten
350
36
  3
ColorChange
350
3A
  3
Conceptual
350
34
  3
Dim
350
35
  3
Facepattern
350
39
  3
Flat
350
2B
  3
FlatWithEdges
350
2C
  3
Gouraud
350
2D
  3
GouraudWithEdges
350
2E
  3
Linepattern
350
38
  3
Realistic
350
33
  3
Thicken
350
37
  0
DICTIONARY
  5
11D
102
{ACAD_REACTORS
330
C
102
}
330
C
100
AcDbDictionary
281
     1
  3
CANNOSCALE
350
11E
  3
PSOLHEIGHT
350
122
  3
PSOLWIDTH
350
121
  0
LAYOUT
  5
1E
102
{ACAD_REACTORS
330
1A
102
}
330
1A
100
AcDbPlotSettings
  1

  2
none_device
  4

  6

 40
0.0
 41
0.0
 42
0.0
 43
0.0
 44
0.0
 45
0.0
 46
0.0
 47
0.0
 48
0.0
 49
0.0
140
0.0
141
0.0
142
1.0
143
1.0
 70
   688
 72
     0
 73
     0
 74
     5
  7

 75
    16
147
1.0
148
0.0
149
0.0
100
AcDbLayout
  1
Layout1
 70
     1
 71
     1
 10
0.0
 20
0.0
 11
1682.0
 21
2378.0
 12
0.0
 22
0.0
 32
0.0
 14
0.0
 24
0.0
 34
0.0
 15
1682.0
 25
2378.0
 35
0.0
146
0.0
 13
0.0
 23
0.0
 33
0.0
 16
1.0
 26
0.0
 36
0.0
 17
0.0
 27
1.0
 37
0.0
 76
     0
330
1B
  0
LAYOUT
  5
22
102
{ACAD_REACTORS
330
1A
102
}
330
1A
100
AcDbPlotSettings
  1

  2
none_device
  4

  6

 40
0.0
 41
0.0
 42
0.0
 43
0.0
 44
0.0
 45
0.0
 46
0.0
 47
0.0
 48
0.0
 49
0.0
140
0.0
141
0.0
142
1.0
143
1.0
 70
  1712
 72
     0
 73
     0
 74
     0
  7

 75
     0
147
1.0
148
0.0
149
0.0
100
AcDbLayout
  1
Model
 70
     1
 71
     0
 10
0.0
 20
0.0
 11
1682.0
 21
2378.0
 12
0.0
 22
0.0
 32
0.0
 14
0.0
 24
0.0
 34
0.0
 15
1682.0
 25
2378.0
 35
0.0
146
0.0
 13
0.0
 23
0.0
 33
0.0
 16
1.0
 26
0.0
 36
0.0
 17
0.0
 27
1.0
 37
0.0
 76
     0
330
1F
331
29
  0
MLINESTYLE
  5
18
102
{ACAD_REACTORS
330
17
102
}
330
17
100
AcDbMlineStyle
  2
Standard
 70
     0
  3

 62
   256
 51
90.0
 52
90.0
 71
     2
 49
0.5
 62
   256
  6
BYLAYER
 49
-0.5
 62
   256
  6
BYLAYER
  0
ACDBPLACEHOLDER
  5
F
102
{ACAD_REACTORS
330
E
102
}
330
E
  0
SCALE
  5
3C
102
{ACAD_REACTORS
330
3B
102
}
330
3B
100
AcDbScale
 70
     0
300
1:1
140
1.0
141
1.0
290
     1
  0
SCALE
  5
3D
102
{ACAD_REACTORS
330
3B
102
}
330
3B
100
AcDbScale
 70
     0
300
1:2
140
1.0
141
2.0
290
     0
  0
SCALE
  5
3E
102
{ACAD_REACTORS
330
3B
102
}
330
3B
100
AcDbScale
 70
     0
300
1:4
140
1.0
141
4.0
290
     0
  0
SCALE
  5
3F
102
{ACAD_REACTORS
330
3B
102
}
330
3B
100
AcDbScale
 70
     0
300
1:5
140
1.0
141
5.0
290
     0
  0
SCALE
  5
40
102
{ACAD_REACTORS
330
3B
102
}
330
3B
100
AcDbScale
 70
     0
300
1:8
140
1.0
141
8.0
290
     0
  0
SCALE
  5
41
102
{ACAD_REACTORS
330
3B
102
}
330
3B
100
AcDbScale
 70
     0
300
1:10
140
1.0
141
10.0
290
     0
  0
SCALE
  5
42
102
{ACAD_REACTORS
330
3B
102
}
330
3B
100
AcDbScale
 70
     0
300
1:16
140
1.0
141
16.0
290
     0
  0
SCALE
  5
43
102
{ACAD_REACTORS
330
3B
102
}
330
3B
100
AcDbScale
 70
     0
300
1:20
140
1.0
141
20.0
290
     0
  0
SCALE
  5
44
102
{ACAD_REACTORS
330
3B
102
}
330
3B
100
AcDbScale
 70
     0
300
1:30
140
1.0
141
30.0
290
     0
  0
SCALE
  5
45
102
{ACAD_REACTORS
330
3B
102
}
330
3B
100
AcDbScale
 70
     0
300
1:40
140
1.0
141
40.0
290
     0
  0
SCALE
  5
46
102
{ACAD_REACTORS
330
3B
102
}
330
3B
100
AcDbScale
 70
     0
300
1:50
140
1.0
141
50.0
290
     0
  0
SCALE
  5
47
102
{ACAD_REACTORS
330
3B
102
}
330
3B
100
AcDbScale
 70
     0
300
1:100
140
1.0
141
100.0
290
     0
  0
SCALE
  5
48
102
{ACAD_REACTORS
330
3B
102
}
330
3B
100
AcDbScale
 70
     0
300
2:1
140
2.0
141
1.0
290
     0
  0
SCALE
  5
49
102
{ACAD_REACTORS
330
3B
102
}
330
3B
100
AcDbScale
 70
     0
300
4:1
140
4.0
141
1.0
290
     0
  0
SCALE
  5
4A
102
{ACAD_REACTORS
330
3B
102
}
330
3B
100
AcDbScale
 70
     0
300
8:1
140
8.0
141
1.0
290
     0
  0
SCALE
  5
4B
102
{ACAD_REACTORS
330
3B
102
}
330
3B
100
AcDbScale
 70
     0
300
10:1
140
10.0
141
1.0
290
     0
  0
SCALE
  5
4C
102
{ACAD_REACTORS
330
3B
102
}
330
3B
100
AcDbScale
 70
     0
300
100:1
140
100.0
141
1.0
290
     0
  0
SCALE
  5
4D
102
{ACAD_REACTORS
330
3B
102
}
330
3B
100
AcDbScale
 70
     0
300
1/128" = 1'-0"
140
0.0078125
141
12.0
290
     0
  0
SCALE
  5
4E
102
{ACAD_REACTORS
330
3B
102
}
330
3B
100
AcDbScale
 70
     0
300
1/64" = 1'-0"
140
0.015625
141
12.0
290
     0
  0
SCALE
  5
4F
102
{ACAD_REACTORS
330
3B
102
}
330
3B
100
AcDbScale
 70
     0
300
1/32" = 1'-0"
140
0.03125
141
12.0
290
     0
  0
SCALE
  5
50
102
{ACAD_REACTORS
330
3B
102
}
330
3B
100
AcDbScale
 70
     0
300
1/16" = 1'-0"
140
0.0625
141
12.0
290
     0
  0
SCALE
  5
51
102
{ACAD_REACTORS
330
3B
102
}
330
3B
100
AcDbScale
 70
     0
300
3/32" = 1'-0"
140
0.09375
141
12.0
290
     0
  0
SCALE
  5
52
102
{ACAD_REACTORS
330
3B
102
}
330
3B
100
AcDbScale
 70
     0
300
1/8" = 1'-0"
140
0.125
141
12.0
290
     0
  0
SCALE
  5
53
102
{ACAD_REACTORS
330
3B
102
}
330
3B
100
AcDbScale
 70
     0
300
3/16" = 1'-0"
140
0.1875
141
12.0
290
     0
  0
SCALE
  5
54
102
{ACAD_REACTORS
330
3B
102
}
330
3B
100
AcDbScale
 70
     0
300
1/4" = 1'-0"
140
0.25
141
12.0
290
     0
  0
SCALE
  5
55
102
{ACAD_REACTORS
330
3B
102
}
330
3B
100
AcDbScale
 70
     0
300
3/8" = 1'-0"
140
0.375
141
12.0
290
     0
  0
SCALE
  5
56
102
{ACAD_REACTORS
330
3B
102
}
330
3B
100
AcDbScale
 70
     0
300
1/2" = 1'-0"
140
0.5
141
12.0
290
     0
  0
SCALE
  5
57
102
{ACAD_REACTORS
330
3B
102
}
330
3B
100
AcDbScale
 70
     0
300
3/4" = 1'-0"
140
0.75
141
12.0
290
     0
  0
SCALE
  5
58
102
{ACAD_REACTORS
330
3B
102
}
330
3B
100
AcDbScale
 70
     0
300
1" = 1'-0"
140
1.0
141
12.0
290
     0
  0
SCALE
  5
59
102
{ACAD_REACTORS
330
3B
102
}
330
3B
100
AcDbScale
 70
     0
300
1-1/2" = 1'-0"
140
1.5
141
12.0
290
     0
  0
SCALE
  5
5A
102
{ACAD_REACTORS
330
3B
102
}
330
3B
100
AcDbScale
 70
     0
300
3" = 1'-0"
140
3.0
141
12.0
290
     0
  0
SCALE
  5
5B
102
{ACAD_REACTORS
330
3B
102
}
330
3B
100
AcDbScale
 70
     0
300
6" = 1'-0"
140
6.0
141
12.0
290
     0
  0
SCALE
  5
5C
102
{ACAD_REACTORS
330
3B
102
}
330
3B
100
AcDbScale
 70
     0
300
1'-0" = 1'-0"
140
12.0
141
12.0
290
     0
  0
VISUALSTYLE
  5
2F
102
{ACAD_REACTORS
330
2A
102
}
330
2A
100
AcDbVisualStyle
  2
2dWireframe
 70
     4
 71
     0
 72
     2
 73
     0
 90
        0
 40
-0.6
 41
-30.0
 62
     5
 63
     7
 74
     1
 91
        4
 64
     7
 65
   257
 75
     1
175
     1
 42
1.0
 92
        0
 66
   257
 43
1.0
 76
     1
 77
     6
 78
     2
 67
     7
 79
     5
170
     0
171
     0
290
     0
174
     0
 93
        1
 44
0.0
173
     0
291
     0
 45
0.0
1001
ACAD
1000
AcDbSavedByObjectVersion
1070
     0
  0
VISUALSTYLE
  5
31
102
{ACAD_REACTORS
330
2A
102
}
330
2A
100
AcDbVisualStyle
  2
3D Hidden
 70
     6
 71
     1
 72
     2
 73
     2
 90
        0
 40
-0.6
 41
-30.0
 62
     5
 63
     7
 74
     2
 91
        2
 64
     7
 65
   257
 75
     2
175
     1
 42
40.0
 92
        0
 66
   257
 43
1.0
 76
     1
 77
     6
 78
     2
 67
     7
 79
     3
170
     0
171
     0
290
     0
174
     0
 93
        1
 44
0.0
173
     0
291
     0
 45
0.0
1001
ACAD
1000
AcDbSavedByObjectVersion
1070
     0
  0
VISUALSTYLE
  5
30
102
{ACAD_REACTORS
330
2A
102
}
330
2A
100
AcDbVisualStyle
  2
3dWireframe
 70
     5
 71
     0
 72
     2
 73
     0
 90
        0
 40
-0.6
 41
-30.0
 62
     5
 63
     7
 74
     1
 91
        4
 64
     7
 65
   257
 75
     1
175
     1
 42
1.0
 92
        0
 66
   257
 43
1.0
 76
     1
 77
     6
 78
     2
 67
     7
 79
     5
170
     0
171
     0
290
     0
174
     0
 93
        1
 44
0.0
173
     0
291
     0
 45
0.0
1001
ACAD
1000
AcDbSavedByObjectVersion
1070
     0
  0
VISUALSTYLE
  5
32
102
{ACAD_REACTORS
330
2A
102
}
330
2A
100
AcDbVisualStyle
  2
Basic
 70
     7
 71
     1
 72
     0
 73
     1
 90
        0
 40
-0.6
 41
-30.0
 62
     5
 63
     7
 74
     0
 91
        4
 64
     7
 65
   257
 75
     1
175
     1
 42
1.0
 92
        8
 66
     7
 43
1.0
 76
     1
 77
     6
 78
     2
 67
     7
 79
     5
170
     0
171
     0
290
     0
174
     0
 93
        1
 44
0.0
173
     0
291
     1
 45
0.0
1001
ACAD
1000
AcDbSavedByObjectVersion
1070
     0
  0
VISUALSTYLE
  5
36
102
{ACAD_REACTORS
330
2A
102
}
330
2A
100
AcDbVisualStyle
  2
Brighten
 70
    12
 71
     2
 72
     2
 73
     0
 90
        0
 40
-0.6
 41
-30.0
 62
     5
 63
     7
 74
     1
 91
        4
 64
     7
 65
   257
 75
     1
175
     1
 42
1.0
 92
        8
 66
     7
 43
1.0
 76
     1
 77
     6
 78
     2
 67
     7
 79
     5
170
     0
171
     0
290
     0
174
     0
 93
        1
 44
50.0
173
     0
291
     1
 45
0.0
1001
ACAD
1000
AcDbSavedByObjectVersion
1070
     0
  0
VISUALSTYLE
  5
3A
102
{ACAD_REACTORS
330
2A
102
}
330
2A
100
AcDbVisualStyle
  2
ColorChange
 70
    16
 71
     2
 72
     2
 73
     3
 90
        0
 40
-0.6
 41
-30.0
 62
     5
 63
     8
 74
     1
 91
        4
 64
     7
 65
   257
 75
     1
175
     1
 42
1.0
 92
        8
 66
     8
 43
1.0
 76
     1
 77
     6
 78
     2
 67
     7
 79
     5
170
     0
171
     0
290
     0
174
     0
 93
        1
 44
0.0
173
     0
291
     1
 45
0.0
1001
ACAD
1000
AcDbSavedByObjectVersion
1070
     0
  0
VISUALSTYLE
  5
34
102
{ACAD_REACTORS
330
2A
102
}
330
2A
100
AcDbVisualStyle
  2
Conceptual
 70
     9
 71
     3
 72
     2
 73
     0
 90
        0
 40
-0.6
 41
-30.0
 62
     5
 63
     7
 74
     2
 91
        2
 64
     7
 65
   257
 75
     1
175
     1
 42
40.0
 92
        8
 66
     7
 43
1.0
 76
     1
 77
     6
 78
     2
 67
     7
 79
     3
170
     0
171
     0
290
     0
174
     0
 93
        1
 44
0.0
173
     0
291
     0
 45
0.0
1001
ACAD
1000
AcDbSavedByObjectVersion
1070
     0
  0
VISUALSTYLE
  5
35
102
{ACAD_REACTORS
330
2A
102
}
330
2A
100
AcDbVisualStyle
  2
Dim
 70
    11
 71
     2
 72
     2
 73
     0
 90
        0
 40
-0.6
 41
-30.0
 62
     5
 63
     7
 74
     1
 91
        4
 64
     7
 65
   257
 75
     1
175
     1
 42
1.0
 92
        8
 66
     7
 43
1.0
 76
     1
 77
     6
 78
     2
 67
     7
 79
     5
170
     0
171
     0
290
     0
174
     0
 93
        1
 44
-50.0
173
     0
291
     1
 45
0.0
1001
ACAD
1000
AcDbSavedByObjectVersion
1070
     0
  0
VISUALSTYLE
  5
39
102
{ACAD_REACTORS
330
2A
102
}
330
2A
100
AcDbVisualStyle
  2
Facepattern
 70
    15
 71
     2
 72
     2
 73
     0
 90
        0
 40
-0.6
 41
-30.0
 62
     5
 63
     7
 74
     1
 91
        4
 64
     7
 65
   257
 75
     1
175
     1
 42
1.0
 92
        8
 66
     7
 43
1.0
 76
     1
 77
     6
 78
     2
 67
     7
 79
     5
170
     0
171
     0
290
     0
174
     0
 93
        1
 44
0.0
173
     0
291
     1
 45
0.0
1001
ACAD
1000
AcDbSavedByObjectVersion
1070
     0
  0
VISUALSTYLE
  5
2B
102
{ACAD_REACTORS
330
2A
102
}
330
2A
100
AcDbVisualStyle
  2
Flat
 70
     0
 71
     2
 72
     1
 73
     1
 90
        2
 40
-0.6
 41
30.0
 62
     5
 63
     7
 74
     0
 91
        4
 64
     7
 65
   257
 75
     1
175
     1
 42
1.0
 92
        8
 66
     7
 43
1.0
 76
     1
 77
     6
 78
     2
 67
     7
 79
     5
170
     0
171
     0
290
     0
174
     0
 93
       13
 44
0.0
173
     0
291
     1
 45
0.0
1001
ACAD
1000
AcDbSavedByObjectVersion
1070
     0
  0
VISUALSTYLE
  5
2C
102
{ACAD_REACTORS
330
2A
102
}
330
2A
100
AcDbVisualStyle
  2
FlatWithEdges
 70
     1
 71
     2
 72
     1
 73
     1
 90
        2
 40
-0.6
 41
30.0
 62
     5
 63
     7
 74
     1
 91
        4
 64
     7
 65
   257
 75
     1
175
     1
 42
1.0
 92
        0
 66
   257
 43
1.0
 76
     1
 77
     6
 78
     2
 67
     7
 79
     5
170
     0
171
     0
290
     0
174
     0
 93
       13
 44
0.0
173
     0
291
     1
 45
0.0
1001
ACAD
1000
AcDbSavedByObjectVersion
1070
     0
  0
VISUALSTYLE
  5
2D
102
{ACAD_REACTORS
330
2A
102
}
330
2A
100
AcDbVisualStyle
  2
Gouraud
 70
     2
 71
     2
 72
     2
 73
     1
 90
        2
 40
-0.6
 41
30.0
 62
     5
 63
     7
 74
     0
 91
        4
 64
     7
 65
   257
 75
     1
175
     1
 42
1.0
 92
        0
 66
     7
 43
1.0
 76
     1
 77
     6
 78
     2
 67
     7
 79
     5
170
     0
171
     0
290
     0
174
     0
 93
       13
 44
0.0
173
     0
291
     1
 45
0.0
1001
ACAD
1000
AcDbSavedByObjectVersion
1070
     0
  0
VISUALSTYLE
  5
2E
102
{ACAD_REACTORS
330
2A
102
}
330
2A
100
AcDbVisualStyle
  2
GouraudWithEdges
 70
     3
 71
     2
 72
     2
 73
     1
 90
        2
 40
-0.6
 41
30.0
 62
     5
 63
     7
 74
     1
 91
        4
 64
     7
 65
   257
 75
     1
175
     1
 42
1.0
 92
        0
 66
   257
 43
1.0
 76
     1
 77
     6
 78
     2
 67
     7
 79
     5
170
     0
171
     0
290
     0
174
     0
 93
       13
 44
0.0
173
     0
291
     1
 45
0.0
1001
ACAD
1000
AcDbSavedByObjectVersion
1070
     0
  0
VISUALSTYLE
  5
38
102
{ACAD_REACTORS
330
2A
102
}
330
2A
100
AcDbVisualStyle
  2
Linepattern
 70
    14
 71
     2
 72
     2
 73
     0
 90
        0
 40
-0.6
 41
-30.0
 62
     5
 63
     7
 74
     1
 91
        4
 64
     7
 65
   257
 75
     7
175
     7
 42
1.0
 92
        8
 66
     7
 43
1.0
 76
     1
 77
     6
 78
     2
 67
     7
 79
     5
170
     0
171
     0
290
     0
174
     0
 93
        1
 44
0.0
173
     0
291
     1
 45
0.0
1001
ACAD
1000
AcDbSavedByObjectVersion
1070
     0
  0
VISUALSTYLE
  5
33
102
{ACAD_REACTORS
330
2A
102
}
330
2A
100
AcDbVisualStyle
  2
Realistic
 70
     8
 71
     2
 72
     2
 73
     0
 90
        0
 40
-0.6
 41
-30.0
 62
     5
 63
     7
 74
     1
 91
        0
 64
     7
 65
   257
 75
     1
175
     1
 42
1.0
 92
        8
 66
     8
 43
1.0
 76
     1
 77
     6
 78
     2
 67
     7
 79
     5
170
     0
171
     0
290
     0
174
     0
 93
       13
 44
0.0
173
     0
291
     0
 45
0.0
1001
ACAD
1000
AcDbSavedByObjectVersion
1070
     0
  0
VISUALSTYLE
  5
37
102
{ACAD_REACTORS
330
2A
102
}
330
2A
100
AcDbVisualStyle
  2
Thicken
 70
    13
 71
     2
 72
     2
 73
     0
 90
        0
 40
-0.6
 41
-30.0
 62
     5
 63
     7
 74
     1
 91
        4
 64
     7
 65
   257
 75
     1
175
     1
 42
1.0
 92
       12
 66
     7
 43
1.0
 76
     1
 77
     6
 78
     2
 67
     7
 79
     5
170
     0
171
     0
290
     0
174
     0
 93
        1
 44
0.0
173
     0
291
     1
 45
0.0
1001
ACAD
1000
AcDbSavedByObjectVersion
1070
     0
  0
DICTIONARYVAR
  5
11E
102
{ACAD_REACTORS
330
11D
102
}
330
11D
100
DictionaryVariables
280
     0
  1
1:1
  0
DICTIONARYVAR
  5
122
102
{ACAD_REACTORS
330
11D
102
}
330
11D
100
DictionaryVariables
280
     0
  1
80.000000
  0
DICTIONARYVAR
  5
121
102
{ACAD_REACTORS
330
11D
102
}
330
11D
100
DictionaryVariables
280
     0
  1
5.000000
  0
ENDSEC
  0
EOF
