  0
SECTION
  2
HEADER
  9
$ACADVER
  1
AC1015
  9
$ACADMAINTVER
 70
     6
  9
$DWGCODEPAGE
  3
ANSI_1252
  9
$INSBASE
 10
0.0
 20
0.0
 30
0.0
  9
$EXTMIN
 10
0.0
 20
0.0
 30
0.0
  9
$EXTMAX
 10
1682.0
 20
2378.0
 30
0.0
  9
$LIMMIN
 10
0.0
 20
0.0
  9
$LIMMAX
 10
1682.0
 20
2378.0
  9
$ORTHOMODE
 70
     0
  9
$REGENMODE
 70
     1
  9
$FILLMODE
 70
     1
  9
$QTEXTMODE
 70
     0
  9
$MIRRTEXT
 70
     1
  9
$LTSCALE
 40
1.0
  9
$ATTMODE
 70
     1
  9
$TEXTSIZE
 40
2.5
  9
$TRACEWID
 40
1.0
  9
$TEXTSTYLE
  7
Standard
  9
$CLAYER
  8
0
  9
$CELTYPE
  6
ByLayer
  9
$CECOLOR
 62
   256
  9
$CELTSCALE
 40
1.0
  9
$DISPSILH
 70
     0
  9
$DIMSCALE
 40
1.0
  9
$DIMASZ
 40
2.5
  9
$DIMEXO
 40
0.625
  9
$DIMDLI
 40
3.75
  9
$DIMRND
 40
0.0
  9
$DIMDLE
 40
0.0
  9
$DIMEXE
 40
1.25
  9
$DIMTP
 40
0.0
  9
$DIMTM
 40
0.0
  9
$DIMTXT
 40
2.5
  9
$DIMCEN
 40
2.5
  9
$DIMTSZ
 40
0.0
  9
$DIMTOL
 70
     0
  9
$DIMLIM
 70
     0
  9
$DIMTIH
 70
     0
  9
$DIMTOH
 70
     0
  9
$DIMSE1
 70
     0
  9
$DIMSE2
 70
     0
  9
$DIMTAD
 70
     1
  9
$DIMZIN
 70
     8
  9
$DIMBLK
  1

  9
$DIMASO
 70
     1
  9
$DIMSHO
 70
     1
  9
$DIMPOST
  1

  9
$DIMAPOST
  1

  9
$DIMALT
 70
     0
  9
$DIMALTD
 70
     3
  9
$DIMALTF
 40
0.0393700787
  9
$DIMLFAC
 40
1.0
  9
$DIMTOFL
 70
     1
  9
$DIMTVP
 40
0.0
  9
$DIMTIX
 70
     0
  9
$DIMSOXD
 70
     0
  9
$DIMSAH
 70
     0
  9
$DIMBLK1
  1

  9
$DIMBLK2
  1

  9
$DIMSTYLE
  2
ISO-25
  9
$DIMCLRD
 70
     0
  9
$DIMCLRE
 70
     0
  9
$DIMCLRT
 70
     0
  9
$DIMTFAC
 40
1.0
  9
$DIMGAP
 40
0.625
  9
$DIMJUST
 70
     0
  9
$DIMSD1
 70
     0
  9
$DIMSD2
 70
     0
  9
$DIMTOLJ
 70
     0
  9
$DIMTZIN
 70
     8
  9
$DIMALTZ
 70
     0
  9
$DIMALTTZ
 70
     0
  9
$DIMUPT
 70
     0
  9
$DIMDEC
 70
     2
  9
$DIMTDEC
 70
     2
  9
$DIMALTU
 70
     2
  9
$DIMALTTD
 70
     3
  9
$DIMTXSTY
  7
Standard
  9
$DIMAUNIT
 70
     0
  9
$DIMADEC
 70
     0
  9
$DIMALTRND
 40
0.0
  9
$DIMAZIN
 70
     0
  9
$DIMDSEP
 70
    44
  9
$DIMATFIT
 70
     3
  9
$DIMFRAC
 70
     0
  9
$DIMLDRBLK
  1

  9
$DIMLUNIT
 70
     2
  9
$DIMLWD
 70
    -2
  9
$DIMLWE
 70
    -2
  9
$DIMTMOVE
 70
     0
  9
$LUNITS
 70
     2
  9
$LUPREC
 70
     4
  9
$SKETCHINC
 40
1.0
  9
$FILLETRAD
 40
10.0
  9
$AUNITS
 70
     0
  9
$AUPREC
 70
     0
  9
$MENU
  1
.
  9
$ELEVATION
 40
0.0
  9
$PELEVATION
 40
0.0
  9
$THICKNESS
 40
0.0
  9
$LIMCHECK
 70
     0
  9
$CHAMFERA
 40
10.0
  9
$CHAMFERB
 40
10.0
  9
$CHAMFERC
 40
20.0
  9
$CHAMFERD
 40
0.0
  9
$SKPOLY
 70
     0
  9
$TDCREATE
 40
2455463.652228553
  9
$TDUCREATE
 40
2455463.56889522
  9
$TDUPDATE
 40
2455463.652228565
  9
$TDUUPDATE
 40
2455463.568895231
  9
$TDINDWG
 40
0.0000000116
  9
$TDUSRTIMER
 40
0.0000000116
  9
$USRTIMER
 70
     1
  9
$ANGBASE
 50
0.0
  9
$ANGDIR
 70
     0
  9
$PDMODE
 70
     0
  9
$PDSIZE
 40
0.0
  9
$PLINEWID
 40
0.0
  9
$SPLFRAME
 70
     0
  9
$SPLINETYPE
 70
     6
  9
$SPLINESEGS
 70
     8
  9
$HANDSEED
  5
13C
  9
$SURFTAB1
 70
     6
  9
$SURFTAB2
 70
     6
  9
$SURFTYPE
 70
     6
  9
$SURFU
 70
     6
  9
$SURFV
 70
     6
  9
$UCSBASE
  2

  9
$UCSNAME
  2

  9
$UCSORG
 10
0.0
 20
0.0
 30
0.0
  9
$UCSXDIR
 10
1.0
 20
0.0
 30
0.0
  9
$UCSYDIR
 10
0.0
 20
1.0
 30
0.0
  9
$UCSORTHOREF
  2

  9
$UCSORTHOVIEW
 70
     0
  9
$UCSORGTOP
 10
0.0
 20
0.0
 30
0.0
  9
$UCSORGBOTTOM
 10
0.0
 20
0.0
 30
0.0
  9
$UCSORGLEFT
 10
0.0
 20
0.0
 30
0.0
  9
$UCSORGRIGHT
 10
0.0
 20
0.0
 30
0.0
  9
$UCSORGFRONT
 10
0.0
 20
0.0
 30
0.0
  9
$UCSORGBACK
 10
0.0
 20
0.0
 30
0.0
  9
$PUCSBASE
  2

  9
$PUCSNAME
  2

  9
$PUCSORG
 10
0.0
 20
0.0
 30
0.0
  9
$PUCSXDIR
 10
1.0
 20
0.0
 30
0.0
  9
$PUCSYDIR
 10
0.0
 20
1.0
 30
0.0
  9
$PUCSORTHOREF
  2

  9
$PUCSORTHOVIEW
 70
     0
  9
$PUCSORGTOP
 10
0.0
 20
0.0
 30
0.0
  9
$PUCSORGBOTTOM
 10
0.0
 20
0.0
 30
0.0
  9
$PUCSORGLEFT
 10
0.0
 20
0.0
 30
0.0
  9
$PUCSORGRIGHT
 10
0.0
 20
0.0
 30
0.0
  9
$PUCSORGFRONT
 10
0.0
 20
0.0
 30
0.0
  9
$PUCSORGBACK
 10
0.0
 20
0.0
 30
0.0
  9
$USERI1
 70
     0
  9
$USERI2
 70
     0
  9
$USERI3
 70
     0
  9
$USERI4
 70
     0
  9
$USERI5
 70
     0
  9
$USERR1
 40
0.0
  9
$USERR2
 40
0.0
  9
$USERR3
 40
0.0
  9
$USERR4
 40
0.0
  9
$USERR5
 40
0.0
  9
$WORLDVIEW
 70
     1
  9
$SHADEDGE
 70
     3
  9
$SHADEDIF
 70
    70
  9
$TILEMODE
 70
     1
  9
$MAXACTVP
 70
    64
  9
$PINSBASE
 10
0.0
 20
0.0
 30
0.0
  9
$PLIMCHECK
 70
     0
  9
$PEXTMIN
 10
0.0
 20
0.0
 30
0.0
  9
$PEXTMAX
 10
1682.0
 20
2378.0
 30
0.0
  9
$PLIMMIN
 10
0.0
 20
0.0
  9
$PLIMMAX
 10
1682.0
 20
2378.0
  9
$UNITMODE
 70
     0
  9
$VISRETAIN
 70
     1
  9
$PLINEGEN
 70
     0
  9
$PSLTSCALE
 70
     1
  9
$TREEDEPTH
 70
  3020
  9
$CMLSTYLE
  2
Standard
  9
$CMLJUST
 70
     0
  9
$CMLSCALE
 40
20.0
  9
$PROXYGRAPHICS
 70
     1
  9
$MEASUREMENT
 70
     1
  9
$CELWEIGHT
370
    -1
  9
$ENDCAPS
280
     0
  9
$JOINSTYLE
280
     0
  9
$LWDISPLAY
290
     0
  9
$INSUNITS
 70
     4
  9
$HYPERLINKBASE
  1

  9
$STYLESHEET
  1

  9
$XEDIT
290
     1
  9
$CEPSNTYPE
380
     0
  9
$PSTYLEMODE
290
     1
  9
$FINGERPRINTGUID
  2
{96CD02C6-79E3-4EB3-B66C-75A44086DCD6}
  9
$VERSIONGUID
  2
{FAEB1C32-E019-11D5-929B-00C0DF256EC4}
  9
$EXTNAMES
290
     1
  9
$PSVPSCALE
 40
0.0
  9
$OLESTARTUP
290
     0
  0
ENDSEC
  0
SECTION
  2
CLASSES
  0
CLASS
  1
ACDBDICTIONARYWDFLT
  2
AcDbDictionaryWithDefault
  3
ObjectDBX Classes
 90
        0
280
     0
281
     0
  0
CLASS
  1
VISUALSTYLE
  2
AcDbVisualStyle
  3
ObjectDBX Classes
 90
     4095
280
     0
281
     0
  0
CLASS
  1
SCALE
  2
AcDbScale
  3
ObjectDBX Classes
 90
     1153
280
     0
281
     0
  0
CLASS
  1
DICTIONARYVAR
  2
AcDbDictionaryVar
  3
ObjectDBX Classes
 90
        0
280
     0
281
     0
  0
CLASS
  1
ACDBPLACEHOLDER
  2
AcDbPlaceHolder
  3
ObjectDBX Classes
 90
        0
280
     0
281
     0
  0
CLASS
  1
LAYOUT
  2
AcDbLayout
  3
ObjectDBX Classes
 90
        0
280
     0
281
     0
  0
ENDSEC
  0
SECTION
  2
TABLES
  0
TABLE
  2
VPORT
  5
8
330
0
100
AcDbSymbolTable
 70
     1
  0
VPORT
  5
29
330
8
100
AcDbSymbolTableRecord
100
AcDbViewportTableRecord
  2
*Active
 70
     0
 10
0.0
 20
0.0
 11
1.0
 21
1.0
 12
344.1869158879
 22
148.5
 13
0.0
 23
0.0
 14
10.0
 24
10.0
 15
10.0
 25
10.0
 16
0.0
 26
0.0
 36
1.0
 17
0.0
 27
0.0
 37
0.0
 40
297.0
 41
1.9729729729
 42
50.0
 43
0.0
 44
0.0
 50
0.0
 51
0.0
 71
     0
 72
   100
 73
     1
 74
     3
 75
     0
 76
     0
 77
     0
 78
     0
281
     0
 65
     1
110
0.0
120
0.0
130
0.0
111
1.0
121
0.0
131
0.0
112
0.0
122
1.0
132
0.0
 79
     0
146
0.0
  0
ENDTAB
  0
TABLE
  2
LTYPE
  5
5
330
0
100
AcDbSymbolTable
 70
     2
  0
LTYPE
  5
14
330
5
100
AcDbSymbolTableRecord
100
AcDbLinetypeTableRecord
  2
ByBlock
 70
     0
  3

 72
    65
 73
     0
 40
0.0
  0
LTYPE
  5
15
330
5
100
AcDbSymbolTableRecord
100
AcDbLinetypeTableRecord
  2
ByLayer
 70
     0
  3

 72
    65
 73
     0
 40
0.0
  0
LTYPE
  5
16
330
5
100
AcDbSymbolTableRecord
100
AcDbLinetypeTableRecord
  2
Continuous
 70
     0
  3
Solid line
 72
    65
 73
     0
 40
0.0
  0
LTYPE
  5
60
330
5
100
AcDbSymbolTableRecord
100
AcDbLinetypeTableRecord
  2
CENTER2
 70
     0
  3
Center (.5x) ___ _ ___ _ ___ _ ___ _ ___ _ ___
 72
    65
 73
     4
 40
28.575
 49
19.05
 74
     4
 75
     0
340
0
 46
0.0
 50
0.0
 44
0.0
 45
0.0
 49
-3.175
 74
     4
 75
     0
340
0
 46
0.0
 50
0.0
 44
0.0
 45
0.0
 49
3.175
 74
     4
 75
     0
340
0
 46
0.0
 50
0.0
 44
0.0
 45
0.0
 49
-3.175
 74
     4
 75
     0
340
0
 46
0.0
 50
0.0
 44
0.0
 45
0.0
  0
ENDTAB
  0
TABLE
  2
LAYER
  5
2
330
0
100
AcDbSymbolTable
 70
     9
  0
LAYER
  5
10
330
2
100
AcDbSymbolTableRecord
100
AcDbLayerTableRecord
  2
0
 70
     0
 62
     7
  6
Continuous
370
    -3
390
F
  0
LAYER
  5
5D
330
2
100
AcDbSymbolTableRecord
100
AcDbLayerTableRecord
  2
Default
 70
     0
 62
     7
  6
Continuous
370
    -3
390
F
  0
LAYER
  5
8B
330
2
100
AcDbSymbolTableRecord
100
AcDbLayerTableRecord
  2
02555038_40437__
 70
     0
 62
     7
  6
Continuous
370
    -3
390
F
  0
LAYER
  5
99
330
2
100
AcDbSymbolTableRecord
100
AcDbLayerTableRecord
  2
$DDT_AUDIT_GENERATED_(99)
 70
     0
 62
     7
  6
Continuous
370
    -3
390
F
  0
LAYER
  5
A5
330
2
100
AcDbSymbolTableRecord
100
AcDbLayerTableRecord
  2
$DDT_AUDIT_GENERATED_(A5)
 70
     0
 62
     7
  6
Continuous
370
    -3
390
F
  0
LAYER
  5
C2
330
2
100
AcDbSymbolTableRecord
100
AcDbLayerTableRecord
  2
09491131_84380__
 70
     0
 62
     7
  6
Continuous
370
    -3
390
F
  0
LAYER
  5
EE
330
2
100
AcDbSymbolTableRecord
100
AcDbLayerTableRecord
  2
A4222584_HEBEL_E
 70
     0
 62
     7
  6
Continuous
370
    -3
390
F
  0
LAYER
  5
105
330
2
100
AcDbSymbolTableRecord
100
AcDbLayerTableRecord
  2
01081038_EURO-EC
 70
     0
 62
     7
  6
Continuous
370
    -3
390
F
  0
LAYER
  5
111
330
2
100
AcDbSymbolTableRecord
100
AcDbLayerTableRecord
  2
00747031_30114__
 70
     0
 62
     7
  6
Continuous
370
    -3
390
F
  0
ENDTAB
  0
TABLE
  2
STYLE
  5
3
330
0
100
AcDbSymbolTable
 70
     2
  0
STYLE
  5
11
330
3
100
AcDbSymbolTableRecord
100
AcDbTextStyleTableRecord
  2
Standard
 70
     0
 40
0.0
 41
1.0
 50
0.0
 71
     0
 42
2.5
  3
txt
  4

  0
STYLE
  5
12B
330
3
100
AcDbSymbolTableRecord
100
AcDbTextStyleTableRecord
  2
SEACAD_seiso_ttf
 70
     0
 40
0.0
 41
1.0
 50
0.0
 71
     0
 42
0.2
  3
seiso.ttf
  4

  0
ENDTAB
  0
TABLE
  2
VIEW
  5
6
330
0
100
AcDbSymbolTable
 70
     0
  0
ENDTAB
  0
TABLE
  2
UCS
  5
7
330
0
100
AcDbSymbolTable
 70
     0
  0
ENDTAB
  0
TABLE
  2
APPID
  5
9
330
0
100
AcDbSymbolTable
 70
     1
  0
APPID
  5
12
330
9
100
AcDbSymbolTableRecord
100
AcDbRegAppTableRecord
  2
ACAD
 70
     0
  0
ENDTAB
  0
TABLE
  2
DIMSTYLE
  5
A
330
0
100
AcDbSymbolTable
 70
     1
100
AcDbDimStyleTable
  0
DIMSTYLE
105
27
330
A
100
AcDbSymbolTableRecord
100
AcDbDimStyleTableRecord
  2
ISO-25
 70
     0
 41
2.5
 42
0.625
 43
3.75
 44
1.25
 73
     0
 74
     0
 77
     1
 78
     8
140
2.5
141
2.5
143
0.0393700787
147
0.625
171
     3
172
     1
271
     2
272
     2
274
     3
278
    44
283
     0
284
     8
340
11
  0
ENDTAB
  0
TABLE
  2
BLOCK_RECORD
  5
1
330
0
100
AcDbSymbolTable
 70
    10
  0
BLOCK_RECORD
  5
1F
330
1
100
AcDbSymbolTableRecord
100
AcDbBlockTableRecord
  2
*Model_Space
340
22
  0
BLOCK_RECORD
  5
1B
330
1
100
AcDbSymbolTableRecord
100
AcDbBlockTableRecord
  2
*Paper_Space
340
1E
  0
BLOCK_RECORD
  5
5E
330
1
100
AcDbSymbolTableRecord
100
AcDbBlockTableRecord
  2
SEANNOT_GROUP
340
0
102
{BLKREFS
331
5F
102
}
  0
BLOCK_RECORD
  5
65
330
1
100
AcDbSymbolTableRecord
100
AcDbBlockTableRecord
  2
SEANNOT_GROUP1
340
0
102
{BLKREFS
331
66
102
}
  0
BLOCK_RECORD
  5
6B
330
1
100
AcDbSymbolTableRecord
100
AcDbBlockTableRecord
  2
SEANNOT_GROUP2
340
0
102
{BLKREFS
331
6C
102
}
  0
BLOCK_RECORD
  5
75
330
1
100
AcDbSymbolTableRecord
100
AcDbBlockTableRecord
  2
SEANNOT_GROUP3
340
0
102
{BLKREFS
331
76
102
}
  0
BLOCK_RECORD
  5
7A
330
1
100
AcDbSymbolTableRecord
100
AcDbBlockTableRecord
  2
SEANNOT_GROUP4
340
0
102
{BLKREFS
331
7B
102
}
  0
BLOCK_RECORD
  5
7F
330
1
100
AcDbSymbolTableRecord
100
AcDbBlockTableRecord
  2
SEANNOT_GROUP5
340
0
102
{BLKREFS
331
80
102
}
  0
BLOCK_RECORD
  5
89
330
1
100
AcDbSymbolTableRecord
100
AcDbBlockTableRecord
  2
SE
340
0
102
{BLKREFS
331
8A
102
}
  0
BLOCK_RECORD
  5
C0
330
1
100
AcDbSymbolTableRecord
100
AcDbBlockTableRecord
  2
SE1
340
0
102
{BLKREFS
331
C1
102
}
  0
BLOCK_RECORD
  5
10F
330
1
100
AcDbSymbolTableRecord
100
AcDbBlockTableRecord
  2
SE2
340
0
102
{BLKREFS
331
110
102
}
  0
ENDTAB
  0
ENDSEC
  0
SECTION
  2
BLOCKS
  0
BLOCK
  5
20
330
1F
100
AcDbEntity
  8
0
100
AcDbBlockBegin
  2
*Model_Space
 70
     0
 10
0.0
 20
0.0
 30
0.0
  3
*Model_Space
  1

  0
ENDBLK
  5
21
330
1F
100
AcDbEntity
  8
0
100
AcDbBlockEnd
  0
BLOCK
  5
1C
330
1B
100
AcDbEntity
 67
     1
  8
0
100
AcDbBlockBegin
  2
*Paper_Space
 70
     0
 10
0.0
 20
0.0
 30
0.0
  3
*Paper_Space
  1

  0
ENDBLK
  5
1D
330
1B
100
AcDbEntity
 67
     1
  8
0
100
AcDbBlockEnd
  0
BLOCK
  5
63
330
5E
100
AcDbEntity
  8
0
100
AcDbBlockBegin
  2
SEANNOT_GROUP
 70
     0
 10
0.0
 20
0.0
 30
0.0
  3
SEANNOT_GROUP
  1

  0
LINE
  5
61
330
5E
100
AcDbEntity
  8
Default
  6
CENTER2
 62
     7
100
AcDbLine
 10
54.3609933402
 20
621.8170537022
 30
0.0
 11
14.3609942343
 21
621.8170537022
 31
0.0
  0
LINE
  5
62
330
5E
100
AcDbEntity
  8
Default
  6
CENTER2
 62
     7
100
AcDbLine
 10
34.3609937872
 20
641.8170532552
 30
0.0
 11
34.3609937872
 21
601.8170541493
 31
0.0
  0
ENDBLK
  5
64
330
5E
100
AcDbEntity
  8
0
100
AcDbBlockEnd
  0
BLOCK
  5
69
330
65
100
AcDbEntity
  8
0
100
AcDbBlockBegin
  2
SEANNOT_GROUP1
 70
     0
 10
0.0
 20
0.0
 30
0.0
  3
SEANNOT_GROUP1
  1

  0
LINE
  5
67
330
65
100
AcDbEntity
  8
Default
  6
CENTER2
 62
     7
100
AcDbLine
 10
217.9706403559
 20
621.8170537022
 30
0.0
 11
177.9706412499
 21
621.8170537022
 31
0.0
  0
LINE
  5
68
330
65
100
AcDbEntity
  8
Default
  6
CENTER2
 62
     7
100
AcDbLine
 10
197.9706408029
 20
641.8170532552
 30
0.0
 11
197.9706408029
 21
601.8170541493
 31
0.0
  0
ENDBLK
  5
6A
330
65
100
AcDbEntity
  8
0
100
AcDbBlockEnd
  0
BLOCK
  5
73
330
6B
100
AcDbEntity
  8
0
100
AcDbBlockBegin
  2
SEANNOT_GROUP2
 70
     0
 10
0.0
 20
0.0
 30
0.0
  3
SEANNOT_GROUP2
  1

  0
LINE
  5
6D
330
6B
100
AcDbEntity
  8
Default
  6
CENTER2
 62
     7
100
AcDbLine
 10
54.3609933414
 20
362.8751954372
 30
0.0
 11
14.3609942355
 21
362.8751954372
 31
0.0
  0
LINE
  5
6E
330
6B
100
AcDbEntity
  8
Default
  6
CENTER2
 62
     7
100
AcDbLine
 10
34.3609937885
 20
382.8751949902
 30
0.0
 11
34.3609937885
 21
342.8751958843
 31
0.0
  0
LINE
  5
6F
330
6B
100
AcDbEntity
  8
Default
  6
CENTER2
 62
     7
100
AcDbLine
 10
59.3609932297
 20
362.8751954372
 30
0.0
 11
49.8609937911
 21
362.8751954372
 31
0.0
  0
LINE
  5
70
330
6B
100
AcDbEntity
  8
Default
  6
CENTER2
 62
     7
100
AcDbLine
 10
34.3609937885
 20
387.8751948784
 30
0.0
 11
34.3609937885
 21
378.3751954398
 31
0.0
  0
LINE
  5
71
330
6B
100
AcDbEntity
  8
Default
  6
CENTER2
 62
     7
100
AcDbLine
 10
9.3609943473
 20
362.8751954372
 30
0.0
 11
18.8609937859
 21
362.8751954372
 31
0.0
  0
LINE
  5
72
330
6B
100
AcDbEntity
  8
Default
  6
CENTER2
 62
     7
100
AcDbLine
 10
34.3609937885
 20
337.875195996
 30
0.0
 11
34.3609937885
 21
347.3751954346
 31
0.0
  0
ENDBLK
  5
74
330
6B
100
AcDbEntity
  8
0
100
AcDbBlockEnd
  0
BLOCK
  5
78
330
75
100
AcDbEntity
  8
0
100
AcDbBlockBegin
  2
SEANNOT_GROUP3
 70
     0
 10
0.0
 20
0.0
 30
0.0
  3
SEANNOT_GROUP3
  1

  0
LINE
  5
77
330
75
100
AcDbEntity
  8
Default
  6
CENTER2
 62
     7
100
AcDbLine
 10
357.9706408029
 20
603.8903147923
 30
0.0
 11
357.9706408029
 21
642.3177130331
 31
0.0
  0
ENDBLK
  5
79
330
75
100
AcDbEntity
  8
0
100
AcDbBlockEnd
  0
BLOCK
  5
7D
330
7A
100
AcDbEntity
  8
0
100
AcDbBlockBegin
  2
SEANNOT_GROUP4
 70
     0
 10
0.0
 20
0.0
 30
0.0
  3
SEANNOT_GROUP4
  1

  0
LINE
  5
7C
330
7A
100
AcDbEntity
  8
Default
  6
CENTER2
 62
     7
100
AcDbLine
 10
334.5195809103
 20
621.8170537711
 30
0.0
 11
374.1986100303
 21
621.8170529905
 31
0.0
  0
ENDBLK
  5
7E
330
7A
100
AcDbEntity
  8
0
100
AcDbBlockEnd
  0
BLOCK
  5
87
330
7F
100
AcDbEntity
  8
0
100
AcDbBlockBegin
  2
SEANNOT_GROUP5
 70
     0
 10
0.0
 20
0.0
 30
0.0
  3
SEANNOT_GROUP5
  1

  0
LINE
  5
81
330
7F
100
AcDbEntity
  8
Default
  6
CENTER2
 62
     7
100
AcDbLine
 10
54.3609933402
 20
522.8751954398
 30
0.0
 11
14.3609942343
 21
522.8751954398
 31
0.0
  0
LINE
  5
82
330
7F
100
AcDbEntity
  8
Default
  6
CENTER2
 62
     7
100
AcDbLine
 10
34.3609937872
 20
542.8751949928
 30
0.0
 11
34.3609937872
 21
502.8751958868
 31
0.0
  0
LINE
  5
83
330
7F
100
AcDbEntity
  8
Default
  6
CENTER2
 62
     7
100
AcDbLine
 10
59.3609932284
 20
522.8751954398
 30
0.0
 11
62.0587198848
 21
522.8751954398
 31
0.0
  0
LINE
  5
84
330
7F
100
AcDbEntity
  8
Default
  6
CENTER2
 62
     7
100
AcDbLine
 10
34.3609937872
 20
547.875194881
 30
0.0
 11
34.3609937872
 21
550.5729215374
 31
0.0
  0
LINE
  5
85
330
7F
100
AcDbEntity
  8
Default
  6
CENTER2
 62
     7
100
AcDbLine
 10
9.360994346
 20
522.8751954398
 30
0.0
 11
6.6632676896
 21
522.8751954398
 31
0.0
  0
LINE
  5
86
330
7F
100
AcDbEntity
  8
Default
  6
CENTER2
 62
     7
100
AcDbLine
 10
34.3609937872
 20
497.8751959986
 30
0.0
 11
34.3609937872
 21
495.1774693422
 31
0.0
  0
ENDBLK
  5
88
330
7F
100
AcDbEntity
  8
0
100
AcDbBlockEnd
  0
BLOCK
  5
BE
330
89
100
AcDbEntity
  8
0
100
AcDbBlockBegin
  2
SE
 70
     0
 10
0.0
 20
0.0
 30
0.0
  3
SE
  1

  0
LINE
  5
8C
330
89
100
AcDbEntity
  8
02555038_40437__
  6
Continuous
 62
     7
100
AcDbLine
 10
21.5109937872
 20
743.1170537022
 30
0.0
 11
47.2109937872
 21
743.1170537022
 31
0.0
  0
LINE
  5
8D
330
89
100
AcDbEntity
  8
02555038_40437__
  6
Continuous
 62
     7
100
AcDbLine
 10
21.3609937872
 20
743.3768613234
 30
0.0
 11
21.3609937872
 21
743.2036563833
 31
0.0
  0
LINE
  5
8E
330
89
100
AcDbEntity
  8
02555038_40437__
  6
Continuous
 62
     7
100
AcDbLine
 10
20.5609937872
 20
748.6170537022
 30
0.0
 11
21.3609937872
 21
747.8170537022
 31
0.0
  0
LINE
  5
8F
330
89
100
AcDbEntity
  8
02555038_40437__
  6
Continuous
 62
     7
100
AcDbLine
 10
21.3609937872
 20
743.3768613234
 30
0.0
 11
21.3609937872
 21
744.2428867271
 31
0.0
  0
LINE
  5
90
330
89
100
AcDbEntity
  8
02555038_40437__
  6
Continuous
 62
     7
100
AcDbLine
 10
21.3609937872
 20
744.2428867271
 30
0.0
 11
21.3609937872
 21
747.8170537022
 31
0.0
  0
LINE
  5
91
330
89
100
AcDbEntity
  8
02555038_40437__
  6
Continuous
 62
     7
100
AcDbLine
 10
47.3609937872
 20
743.2036563833
 30
0.0
 11
47.3609937872
 21
743.3768613234
 31
0.0
  0
LINE
  5
92
330
89
100
AcDbEntity
  8
02555038_40437__
  6
Continuous
 62
     7
100
AcDbLine
 10
47.3609937872
 20
747.8170537022
 30
0.0
 11
48.1609937872
 21
748.6170537022
 31
0.0
  0
LINE
  5
93
330
89
100
AcDbEntity
  8
02555038_40437__
  6
Continuous
 62
     7
100
AcDbLine
 10
47.3609937872
 20
743.3768613234
 30
0.0
 11
47.3609937872
 21
744.2428867271
 31
0.0
  0
LINE
  5
94
330
89
100
AcDbEntity
  8
02555038_40437__
  6
Continuous
 62
     7
100
AcDbLine
 10
47.3609937872
 20
744.2428867271
 30
0.0
 11
47.3609937872
 21
747.8170537022
 31
0.0
  0
LINE
  5
95
330
89
100
AcDbEntity
  8
02555038_40437__
  6
Continuous
 62
     7
100
AcDbLine
 10
21.3609937872
 20
743.2036562426
 30
0.0
 11
21.5109937872
 21
743.1170537022
 31
0.0
  0
LINE
  5
96
330
89
100
AcDbEntity
  8
02555038_40437__
  6
Continuous
 62
     7
100
AcDbLine
 10
47.2109937872
 20
743.1170537022
 30
0.0
 11
47.3609937872
 21
743.2036562426
 31
0.0
  0
LINE
  5
97
330
89
100
AcDbEntity
  8
02555038_40437__
  6
Continuous
 62
     7
100
AcDbLine
 10
48.1609937872
 20
748.6170537022
 30
0.0
 11
48.1609937872
 21
748.8170537022
 31
0.0
  0
LINE
  5
98
330
89
100
AcDbEntity
  8
02555038_40437__
  6
Continuous
 62
     7
100
AcDbLine
 10
20.5609937872
 20
748.8170537022
 30
0.0
 11
20.5609937872
 21
748.6170537022
 31
0.0
  0
ELLIPSE
  5
9A
330
89
100
AcDbEntity
  8
$DDT_AUDIT_GENERATED_(99)
  6
Continuous
 62
     7
100
AcDbEllipse
 10
34.3609937872
 20
639.9271439015
 30
0.0
 11
-5.900000000000021
 21
-1.637578961322106E-12
 31
0.0
210
0.0
220
0.0
230
1.0
 40
0.9961946981
 41
5.659727480781142
 42
6.283185307179586
  0
ELLIPSE
  5
9B
330
89
100
AcDbEntity
  8
$DDT_AUDIT_GENERATED_(99)
  6
Continuous
 62
     7
100
AcDbEllipse
 10
34.3609937872
 20
639.9271439015
 30
0.0
 11
-5.900000000000021
 21
-1.637578961322106E-12
 31
0.0
210
0.0
220
0.0
230
1.0
 40
0.9961946981
 41
3.141592653589786
 42
3.714836376602921
  0
LINE
  5
9C
330
89
100
AcDbEntity
  8
$DDT_AUDIT_GENERATED_(99)
  6
Continuous
 62
     7
100
AcDbLine
 10
39.3609937872
 20
636.0586715446
 30
0.0
 11
39.3609937872
 21
642.3047524163
 31
0.0
  0
ELLIPSE
  5
9D
330
89
100
AcDbEntity
  8
$DDT_AUDIT_GENERATED_(99)
  6
Continuous
 62
     7
100
AcDbEllipse
 10
34.3609937872
 20
639.2996225537
 30
0.0
 11
-5.900000000000063
 21
-1.906808044793706E-11
 31
0.0
210
0.0
220
0.0
230
1.0
 40
0.9961946981
 41
2.581974022161555
 42
3.70121128501155
  0
LINE
  5
9E
330
89
100
AcDbEntity
  8
$DDT_AUDIT_GENERATED_(99)
  6
Continuous
 62
     7
100
AcDbLine
 10
39.3609937872
 20
642.3047524163
 30
0.0
 11
39.3609937872
 21
642.4197959509
 31
0.0
  0
LINE
  5
9F
330
89
100
AcDbEntity
  8
$DDT_AUDIT_GENERATED_(99)
  6
Continuous
 62
     7
100
AcDbLine
 10
29.3609937872
 20
636.058671574
 30
0.0
 11
29.3609937872
 21
642.3047524163
 31
0.0
  0
ELLIPSE
  5
A0
330
89
100
AcDbEntity
  8
$DDT_AUDIT_GENERATED_(99)
  6
Continuous
 62
     7
100
AcDbEllipse
 10
34.3609937872
 20
639.2996225537
 30
0.0
 11
5.900000000000102
 21
1.562638907159908E-11
 31
0.0
210
0.0
220
0.0
230
1.0
 40
0.9961946981
 41
2.581974022162154
 42
3.701211285012137
  0
LINE
  5
A1
330
89
100
AcDbEntity
  8
$DDT_AUDIT_GENERATED_(99)
  6
Continuous
 62
     7
100
AcDbLine
 10
29.3609937872
 20
642.3047524163
 30
0.0
 11
29.3609937872
 21
642.4197959509
 31
0.0
  0
ARC
  5
A2
330
89
100
AcDbEntity
  8
$DDT_AUDIT_GENERATED_(99)
  6
Continuous
 62
     7
100
AcDbCircle
 10
34.3611094924
 20
639.1964201723
 30
0.0
 40
5.897458104253289
100
AcDbArc
 50
212.0617413086
 51
327.9364271938
  0
LINE
  5
A3
330
89
100
AcDbEntity
  8
$DDT_AUDIT_GENERATED_(99)
  6
Continuous
 62
     7
100
AcDbLine
 10
28.4609937872
 20
639.9271439015
 30
0.0
 11
28.4609937872
 21
639.2996225537
 31
0.0
  0
LINE
  5
A4
330
89
100
AcDbEntity
  8
$DDT_AUDIT_GENERATED_(99)
  6
Continuous
 62
     7
100
AcDbLine
 10
40.2609937872
 20
639.2996225537
 30
0.0
 11
40.2609937872
 21
639.9271439015
 31
0.0
  0
LINE
  5
A6
330
89
100
AcDbEntity
  8
$DDT_AUDIT_GENERATED_(A5)
  6
Continuous
 62
     7
100
AcDbLine
 10
6.3609854386
 20
621.8170535655
 30
0.0
 11
6.3609936317
 21
751.7670538882
 31
0.0
  0
LINE
  5
A7
330
89
100
AcDbEntity
  8
$DDT_AUDIT_GENERATED_(A5)
  6
Continuous
 62
     7
100
AcDbLine
 10
6.3609936317
 20
751.7670538882
 30
0.0
 11
6.3609936325
 21
751.7803955732
 31
0.0
  0
LINE
  5
A8
330
89
100
AcDbEntity
  8
$DDT_AUDIT_GENERATED_(A5)
  6
Continuous
 62
     7
100
AcDbLine
 10
62.3610021359
 20
621.8170535655
 30
0.0
 11
62.3609939871
 21
751.7670538872
 31
0.0
  0
LINE
  5
A9
330
89
100
AcDbEntity
  8
$DDT_AUDIT_GENERATED_(A5)
  6
Continuous
 62
     7
100
AcDbLine
 10
62.3609939871
 20
751.7670538872
 30
0.0
 11
62.360993987
 21
751.7679687169
 31
0.0
  0
LINE
  5
AA
330
89
100
AcDbEntity
  8
$DDT_AUDIT_GENERATED_(A5)
  6
Continuous
 62
     7
100
AcDbLine
 10
6.3646124607
 20
621.8170530593
 30
0.0
 11
34.3609937872
 21
621.8170537022
 31
0.0
  0
LINE
  5
AB
330
89
100
AcDbEntity
  8
$DDT_AUDIT_GENERATED_(A5)
  6
Continuous
 62
     7
100
AcDbLine
 10
34.3609937872
 20
621.8170537022
 30
0.0
 11
62.3573751138
 21
621.8170530593
 31
0.0
  0
LINE
  5
AC
330
89
100
AcDbEntity
  8
$DDT_AUDIT_GENERATED_(A5)
  6
Continuous
 62
     7
100
AcDbLine
 10
6.3609854386
 20
621.8170535655
 30
0.0
 11
6.3646124607
 21
621.8170530593
 31
0.0
  0
ARC
  5
AD
330
89
100
AcDbEntity
  8
$DDT_AUDIT_GENERATED_(A5)
  6
Continuous
 62
     7
100
AcDbCircle
 10
34.3669817199
 20
639.2747620334
 30
0.0
 40
6.257395536160365
100
AcDbArc
 50
90.0548284539
 51
269.9451715461
  0
ARC
  5
AE
330
89
100
AcDbEntity
  8
$DDT_AUDIT_GENERATED_(A5)
  6
Continuous
 62
     7
100
AcDbCircle
 10
34.3546192536
 20
639.2747620334
 30
0.0
 40
6.257395918055805
100
AcDbArc
 50
270.0583683602
 51
89.9416316398
  0
ELLIPSE
  5
AF
330
89
100
AcDbEntity
  8
$DDT_AUDIT_GENERATED_(A5)
  6
Continuous
 62
     7
100
AcDbEllipse
 10
34.3609937872
 20
639.9707217728
 30
0.0
 11
-6.250000000000393
 21
1.081079670228746E-11
 31
0.0
210
0.0
220
0.0
230
1.0
 40
0.9961946981
 41
0.0427803170582081
 42
0.5930508551362506
  0
ELLIPSE
  5
B0
330
89
100
AcDbEntity
  8
$DDT_AUDIT_GENERATED_(A5)
  6
Continuous
 62
     7
100
AcDbEllipse
 10
34.3609937872
 20
639.9707217728
 30
0.0
 11
-6.250000000000393
 21
1.081079670228746E-11
 31
0.0
210
0.0
220
0.0
230
1.0
 40
0.9961946981
 41
2.548541798456986
 42
3.092515581404813
  0
LINE
  5
B1
330
89
100
AcDbEntity
  8
$DDT_AUDIT_GENERATED_(A5)
  6
Continuous
 62
     7
100
AcDbLine
 10
34.3706801273
 20
748.8170537022
 30
0.0
 11
9.31099448
 21
748.8170537022
 31
0.0
  0
LINE
  5
B2
330
89
100
AcDbEntity
  8
$DDT_AUDIT_GENERATED_(A5)
  6
Continuous
 62
     7
100
AcDbLine
 10
59.4109930945
 20
748.8170537022
 30
0.0
 11
34.3706801273
 21
748.8170537022
 31
0.0
  0
LINE
  5
B3
330
89
100
AcDbEntity
  8
$DDT_AUDIT_GENERATED_(A5)
  6
Continuous
 62
     7
100
AcDbLine
 10
62.3609930945
 20
767.8755619309
 30
0.0
 11
62.3609930945
 21
701.0696177421
 31
0.0
  0
LINE
  5
B4
330
89
100
AcDbEntity
  8
$DDT_AUDIT_GENERATED_(A5)
  6
Continuous
 62
     7
100
AcDbLine
 10
62.3609930945
 20
679.7435735302
 30
0.0
 11
62.3609930945
 21
621.8170537023
 31
0.0
  0
LINE
  5
B5
330
89
100
AcDbEntity
  8
$DDT_AUDIT_GENERATED_(A5)
  6
Continuous
 62
     7
100
AcDbLine
 10
6.36099448
 20
767.8755633249
 30
0.0
 11
6.36099448
 21
701.0695863968
 31
0.0
  0
ARC
  5
B6
330
89
100
AcDbEntity
  8
$DDT_AUDIT_GENERATED_(A5)
  6
Continuous
 62
     7
100
AcDbCircle
 10
9.31099448
 20
751.7670537022
 30
0.0
 40
2.949999999999828
100
AcDbArc
 50
179.9999887552
 51
270.0
  0
ARC
  5
B7
330
89
100
AcDbEntity
  8
$DDT_AUDIT_GENERATED_(A5)
  6
Continuous
 62
     7
100
AcDbCircle
 10
59.4109930945
 20
751.7670537022
 30
0.0
 40
2.949999999999803
100
AcDbArc
 50
270.0
 51
0.0
  0
ARC
  5
B8
330
89
100
AcDbEntity
  8
$DDT_AUDIT_GENERATED_(A5)
  6
Continuous
 62
     7
100
AcDbCircle
 10
34.3473889035
 20
767.8501278877
 30
0.0
 40
27.9864015886269
100
AcDbArc
 50
89.9943124735
 51
179.959000881
  0
SPLINE
  5
B9
330
89
100
AcDbEntity
  8
$DDT_AUDIT_GENERATED_(A5)
  6
Continuous
 62
     7
100
AcDbSpline
210
0.0
220
0.0
230
1.0
 70
     8
 71
     3
 72
     8
 73
     4
 74
     0
 42
0.0000000007765327
 43
0.0000000001
 40
0.9912331703639691
 40
0.9912331703639691
 40
0.9912331703639691
 40
0.9912331703639691
 40
1.0
 40
1.0
 40
1.0
 40
1.0
 10
6.369262552739126
 20
751.6738252391932
 30
0.0
 10
6.369296866546917
 20
751.6377904802192
 30
0.0
 10
6.369332434725649
 20
751.6004919459933
 30
0.0
 10
6.369370243352559
 20
751.5609281749944
 30
0.0
  0
SPLINE
  5
BA
330
89
100
AcDbEntity
  8
$DDT_AUDIT_GENERATED_(A5)
  6
Continuous
 62
     7
100
AcDbSpline
210
0.0
220
0.0
230
1.0
 70
     8
 71
     3
 72
    50
 73
    46
 74
     0
 42
0.0000000002632
 43
0.0000000001
 40
0.0
 40
0.0
 40
0.0
 40
0.0
 40
0.0136473529181742
 40
0.0274059622486564
 40
0.0433454079985619
 40
0.0609775733636487
 40
0.0866244886197156
 40
0.111256792527444
 40
0.1349881471860373
 40
0.1584803600939087
 40
0.18309703133748
 40
0.2089616227429167
 40
0.2332908586775522
 40
0.2540562340516699
 40
0.2739146198128525
 40
0.2948503104091217
 40
0.3196539305912821
 40
0.3470224193452223
 40
0.373694567085912
 40
0.398233684669311
 40
0.4186353911922908
 40
0.4396110569815303
 40
0.4641949616707627
 40
0.4901714338596578
 40
0.5126964731953554
 40
0.532073277309029
 40
0.5498102530041064
 40
0.5713638739670134
 40
0.5940454493510995
 40
0.6148191447639587
 40
0.6318879478576267
 40
0.6477146164993814
 40
0.6722900076435249
 40
0.7004365917546868
 40
0.7274785934014175
 40
0.7510951127960488
 40
0.7729330947046348
 40
0.7954528701257241
 40
0.8217791943703715
 40
0.8522297290241202
 40
0.8869069317742627
 40
0.9169081993976295
 40
0.9456232740981991
 40
0.977326287910482
 40
1.0
 40
1.0
 40
1.0
 40
1.0
 10
6.361550766393768
 20
668.9793003800465
 30
0.0
 10
6.361564851592703
 20
668.7919254448408
 30
0.0
 10
6.361588199757545
 20
668.474804439164
 30
0.0
 10
6.361632338158399
 20
667.9224333171311
 30
0.0
 10
6.361666593766465
 20
667.3337746895587
 30
0.0
 10
6.361703788170109
 20
666.5916183259018
 30
0.0
 10
6.36174275759175
 20
665.7414619812552
 30
0.0
 10
6.361787843955955
 20
664.8129805122143
 30
0.0
 10
6.361832270847676
 20
663.9107092198747
 30
0.0
 10
6.36187584748079
 20
663.0077903788437
 30
0.0
 10
6.361913305770281
 20
662.0770497512648
 30
0.0
 10
6.361942443632529
 20
661.1349158162003
 30
0.0
 10
6.361970608670029
 20
660.2406557311912
 30
0.0
 10
6.362008453057868
 20
659.42128589599
 30
0.0
 10
6.362050912940769
 20
658.6441558515708
 30
0.0
 10
6.362087640940907
 20
657.815633453731
 30
0.0
 10
6.362106296187918
 20
656.891612990174
 30
0.0
 10
6.362114763839053
 20
655.8945760775747
 30
0.0
 10
6.362122401140088
 20
654.9001585168638
 30
0.0
 10
6.362131666062178
 20
653.9932779369175
 30
0.0
 10
6.362144484808652
 20
653.1582324455298
 30
0.0
 10
6.36215307528578
 20
652.3221655412846
 30
0.0
 10
6.362145209181984
 20
651.4149486469072
 30
0.0
 10
6.362130045673837
 20
650.4878215501071
 30
0.0
 10
6.362120186177628
 20
649.6265549482662
 30
0.0
 10
6.362124018696534
 20
648.8694170740064
 30
0.0
 10
6.362114128605493
 20
648.1242586599243
 30
0.0
 10
6.362091637530668
 20
647.3370118777159
 30
0.0
 10
6.362064418915625
 20
646.5110705709916
 30
0.0
 10
6.362038885493006
 20
645.7419923780452
 30
0.0
 10
6.362024231943622
 20
645.059821624103
 30
0.0
 10
6.362013350273796
 20
644.3290460304519
 30
0.0
 10
6.361988401918858
 20
643.4572259974375
 30
0.0
 10
6.361949290121783
 20
642.4426606156379
 30
0.0
 10
6.361910453672341
 20
641.4400964346349
 30
0.0
 10
6.36188135164071
 20
640.5175134971281
 30
0.0
 10
6.361855959323835
 20
639.6523397121457
 30
0.0
 10
6.361825981405843
 20
638.752577379613
 30
0.0
 10
6.361785909165165
 20
637.7430138797375
 30
0.0
 10
6.361734138370954
 20
636.5783440315118
 30
0.0
 10
6.361678475668684
 20
635.3674529024794
 30
0.0
 10
6.361630204931818
 20
634.1760782702661
 30
0.0
 10
6.361588549252384
 20
633.0308256749518
 30
0.0
 10
6.36154483902817
 20
631.9480124009132
 30
0.0
 10
6.361519085119598
 20
631.303150038152
 30
0.0
 10
6.361506311333851
 20
630.9853777423062
 30
0.0
  0
ARC
  5
BB
330
89
100
AcDbEntity
  8
$DDT_AUDIT_GENERATED_(A5)
  6
Continuous
 62
     7
100
AcDbCircle
 10
34.3746884516
 20
767.8502177416
 30
0.0
 40
27.98631174386197
100
AcDbArc
 50
0.0408152812
 51
90.0058713507
  0
SPLINE
  5
BC
330
89
100
AcDbEntity
  8
$DDT_AUDIT_GENERATED_(A5)
  6
Continuous
 62
     7
100
AcDbSpline
210
0.0
220
0.0
230
1.0
 70
     8
 71
     3
 72
    49
 73
    45
 74
     0
 42
0.0000000002628101
 43
0.0000000001
 40
0.0
 40
0.0
 40
0.0
 40
0.0
 40
0.0360582134830467
 40
0.0601283875990649
 40
0.0824415006989344
 40
0.1054620271832139
 40
0.131545749548281
 40
0.1593548519766092
 40
0.1853174443533526
 40
0.2075781705348342
 40
0.2271975975840478
 40
0.2463408449595682
 40
0.2726407172131519
 40
0.3031018431332798
 40
0.3341406729967079
 40
0.3598948245795119
 40
0.3749390458032346
 40
0.3923833451175082
 40
0.4129313248481337
 40
0.434277666871303
 40
0.453881087902985
 40
0.4738203800568622
 40
0.4923312869063586
 40
0.5147682980749774
 40
0.5394066220832545
 40
0.5621172846069811
 40
0.5817185542395731
 40
0.6009855091402754
 40
0.6231168954520636
 40
0.6470350105806296
 40
0.6719433622223306
 40
0.6955191662023885
 40
0.7157389738785354
 40
0.7338381576220985
 40
0.7556758982259152
 40
0.7812861980924031
 40
0.8100461062237724
 40
0.8379015524641246
 40
0.8729773062807419
 40
0.9091862486830282
 40
0.9472783227205356
 40
0.9680244403602266
 40
0.9854481786139252
 40
1.0
 40
1.0
 40
1.0
 40
1.0
 10
62.36048151951991
 20
630.9806480692026
 30
0.0
 10
62.36046100914059
 20
631.4867585280779
 30
0.0
 10
62.36043252680167
 20
632.1939161340182
 30
0.0
 10
62.36039059095175
 20
633.2626725826887
 30
0.0
 10
62.36035822717275
 20
634.1445011157616
 30
0.0
 10
62.36032209595481
 20
635.0565200776994
 30
0.0
 10
62.36027826031747
 20
636.0372097268137
 30
0.0
 10
62.36023205566162
 20
637.0557291984236
 30
0.0
 10
62.36018996526866
 20
638.025290566221
 30
0.0
 10
62.36015692721947
 20
638.8903236470219
 30
0.0
 10
62.36013124547343
 20
639.6682655908239
 30
0.0
 10
62.36010675329872
 20
640.4976302612115
 30
0.0
 10
62.36007650533563
 20
641.4650447740629
 30
0.0
 10
62.36003277081924
 20
642.5836962790968
 30
0.0
 10
62.3599899692171
 20
643.6951685247395
 30
0.0
 10
62.35996978269759
 20
644.6101650335559
 30
0.0
 10
62.3599581020039
 20
645.3517414665916
 30
0.0
 10
62.3599396409593
 20
646.0267882878245
 30
0.0
 10
62.35991397233176
 20
646.7818936726554
 30
0.0
 10
62.35988910848803
 20
647.5643673989107
 30
0.0
 10
62.35986857480634
 20
648.3389941811471
 30
0.0
 10
62.35986428714816
 20
649.0774096021354
 30
0.0
 10
62.35986653908238
 20
649.8513982014426
 30
0.0
 10
62.35985386301676
 20
650.6847871799047
 30
0.0
 10
62.35984042494994
 20
651.571347421383
 30
0.0
 10
62.35983502949264
 20
652.4216347745795
 30
0.0
 10
62.35984388922736
 20
653.2032867628894
 30
0.0
 10
62.3598555848716
 20
653.9772015681463
 30
0.0
 10
62.35986421310105
 20
654.8056049711455
 30
0.0
 10
62.35987155071578
 20
655.7050224636758
 30
0.0
 10
62.3598786209397
 20
656.622109489969
 30
0.0
 10
62.35989164920556
 20
657.4919178491618
 30
0.0
 10
62.35991872694204
 20
658.2750908556054
 30
0.0
 10
62.35995791719155
 20
659.0358103563645
 30
0.0
 10
62.36000174367122
 20
659.8643141280878
 30
0.0
 10
62.36003638603246
 20
660.8264978507663
 30
0.0
 10
62.36006680658129
 20
661.8637893948709
 30
0.0
 10
62.36011120688018
 20
663.0193667827871
 30
0.0
 10
62.36017303403182
 20
664.2672722432246
 30
0.0
 10
62.36024038793669
 20
665.6412136942054
 30
0.0
 10
62.36029499505867
 20
666.8358081306675
 30
0.0
 10
62.36034494431579
 20
667.7857219437328
 30
0.0
 10
62.36039861801254
 20
668.4595786537824
 30
0.0
 10
62.36042493037694
 20
668.8308957415429
 30
0.0
 10
62.36043944825302
 20
669.0309343880311
 30
0.0
  0
SPLINE
  5
BD
330
89
100
AcDbEntity
  8
$DDT_AUDIT_GENERATED_(A5)
  6
Continuous
 62
     7
100
AcDbSpline
210
0.0
220
0.0
230
1.0
 70
     8
 71
     3
 72
     8
 73
     4
 74
     0
 42
0.0000000007743371
 43
0.0000000001
 40
0.0
 40
0.0
 40
0.0
 40
0.0
 40
0.015391614080145
 40
0.015391614080145
 40
0.015391614080145
 40
0.015391614080145
 10
62.35261300884527
 20
751.5611159621714
 30
0.0
 10
62.35268126333521
 20
751.6306478985937
 30
0.0
 10
62.3527459048909
 20
751.6963673850867
 30
0.0
 10
62.35280794977112
 20
751.7598873565959
 30
0.0
  0
ENDBLK
  5
BF
330
89
100
AcDbEntity
  8
0
100
AcDbBlockEnd
  0
BLOCK
  5
10D
330
C0
100
AcDbEntity
  8
0
100
AcDbBlockBegin
  2
SE1
 70
     0
 10
0.0
 20
0.0
 30
0.0
  3
SE1
  1

  0
LINE
  5
C3
330
C0
100
AcDbEntity
  8
09491131_84380__
  6
Continuous
 62
     7
100
AcDbLine
 10
223.9706408029
 20
636.8170537022
 30
0.0
 11
171.9706408029
 21
636.8170537022
 31
0.0
  0
LINE
  5
C4
330
C0
100
AcDbEntity
  8
09491131_84380__
  6
Continuous
 62
     7
100
AcDbLine
 10
223.9706408029
 20
621.8170537022
 30
0.0
 11
171.9706408029
 21
621.8170537022
 31
0.0
  0
LINE
  5
C5
330
C0
100
AcDbEntity
  8
09491131_84380__
  6
Continuous
 62
     7
100
AcDbLine
 10
223.9706408029
 20
621.8170537022
 30
0.0
 11
223.9706408029
 21
636.8170537022
 31
0.0
  0
LINE
  5
C6
330
C0
100
AcDbEntity
  8
09491131_84380__
  6
Continuous
 62
     7
100
AcDbLine
 10
171.9706408029
 20
636.8170537022
 30
0.0
 11
171.9706408029
 21
621.8170537022
 31
0.0
  0
LINE
  5
C7
330
C0
100
AcDbEntity
  8
02555038_40437__
  6
Continuous
 62
     7
100
AcDbLine
 10
567.6201958029
 20
743.1170537022
 30
0.0
 11
593.3201958029
 21
743.1170537022
 31
0.0
  0
SPLINE
  5
C8
330
C0
100
AcDbEntity
  8
02555038_40437__
  6
Continuous
 62
     7
100
AcDbSpline
210
0.0
220
0.0
230
1.0
 70
     8
 71
     3
 72
    10
 73
     6
 74
     0
 42
0.0000000017744915
 43
0.0000000001
 40
0.0
 40
0.0
 40
0.0
 40
0.0
 40
0.5
 40
0.5
 40
1.0
 40
1.0
 40
1.0
 40
1.0
 10
577.6612814218558
 20
743.3768613233528
 30
0.0
 10
578.5959296639795
 20
743.2628955539694
 30
0.0
 10
579.531374907312
 20
743.2037610729017
 30
0.0
 10
581.4039814512365
 20
743.2035516937898
 30
0.0
 10
582.3411429561937
 20
743.2624908554615
 30
0.0
 10
583.2791101839309
 20
743.3768613233528
 30
0.0
  0
ARC
  5
C9
330
C0
100
AcDbEntity
  8
02555038_40437__
  6
Continuous
 62
     7
100
AcDbCircle
 10
580.4701958029
 20
734.8170537022
 30
0.0
 40
13.79999999999995
100
AcDbArc
 50
70.3951383125
 51
109.6048616875
  0
LINE
  5
CA
330
C0
100
AcDbEntity
  8
02555038_40437__
  6
Continuous
 62
     7
100
AcDbLine
 10
575.8398610418
 20
747.8170537022
 30
0.0
 11
585.100530564
 21
747.8170537022
 31
0.0
  0
LINE
  5
CB
330
C0
100
AcDbEntity
  8
02555038_40437__
  6
Continuous
 62
     7
100
AcDbLine
 10
575.8398610418
 20
747.8170537022
 30
0.0
 11
575.8398610418
 21
744.2428867271
 31
0.0
  0
SPLINE
  5
CC
330
C0
100
AcDbEntity
  8
02555038_40437__
  6
Continuous
 62
     7
100
AcDbSpline
210
0.0
220
0.0
230
1.0
 70
     8
 71
     3
 72
    16
 73
    12
 74
     0
 42
0.0000000046498463
 43
0.0000000001
 40
0.0
 40
0.0
 40
0.0
 40
0.0
 40
0.1250000000000001
 40
0.1250000000000001
 40
0.2500000000000003
 40
0.2500000000000003
 40
0.5000000000000002
 40
0.5000000000000002
 40
0.7500000000000001
 40
0.7500000000000001
 40
1.0
 40
1.0
 40
1.0
 40
1.0
 10
575.8398610417772
 20
744.2428867271373
 30
0.0
 10
575.8398610417772
 20
744.152150007757
 30
0.0
 10
575.8787237074298
 20
744.0655628878119
 30
0.0
 10
575.9900191381422
 20
743.922780031362
 30
0.0
 10
576.059692044091
 20
743.8652511222916
 30
0.0
 10
576.2849161708539
 20
743.7147112971514
 30
0.0
 10
576.4497223072957
 20
743.6471188909044
 30
0.0
 10
576.7882535049862
 20
743.5352123460018
 30
0.0
 10
576.9627893065547
 20
743.492932931859
 30
0.0
 10
577.3109110408279
 20
743.4245085751387
 30
0.0
 10
577.485833190495
 20
743.3982544975684
 30
0.0
 10
577.6612814218558
 20
743.3768613233528
 30
0.0
  0
SPLINE
  5
CD
330
C0
100
AcDbEntity
  8
02555038_40437__
  6
Continuous
 62
     7
100
AcDbSpline
210
0.0
220
0.0
230
1.0
 70
     8
 71
     3
 72
    14
 73
    10
 74
     0
 42
0.0000000046465595
 43
0.0000000001
 40
0.0
 40
0.0
 40
0.0
 40
0.0
 40
0.5000000000000004
 40
0.5000000000000004
 40
0.7500000000000001
 40
0.7500000000000001
 40
0.8750000000000001
 40
0.8750000000000001
 40
1.0
 40
1.0
 40
1.0
 40
1.0
 10
583.2791101839309
 20
743.3768613233528
 30
0.0
 10
583.6298462705727
 20
743.4196281164234
 30
0.0
 10
583.9779483344332
 20
743.4781628395743
 30
0.0
 10
584.4868018456549
 20
743.6455796190029
 30
0.0
 10
584.654675978526
 20
743.7146649990707
 30
0.0
 10
584.8776311347781
 20
743.8629618164648
 30
0.0
 10
584.949105721601
 20
743.9215743559892
 30
0.0
 10
585.060882668157
 20
744.0641436970967
 30
0.0
 10
585.1005305640093
 20
744.152637007067
 30
0.0
 10
585.1005305640093
 20
744.2428867271373
 30
0.0
  0
LINE
  5
CE
330
C0
100
AcDbEntity
  8
02555038_40437__
  6
Continuous
 62
     7
100
AcDbLine
 10
585.100530564
 20
744.2428867271
 30
0.0
 11
585.100530564
 21
747.8170537022
 31
0.0
  0
LINE
  5
CF
330
C0
100
AcDbEntity
  8
02555038_40437__
  6
Continuous
 62
     7
100
AcDbLine
 10
567.1701958029
 20
743.3768613234
 30
0.0
 11
567.6201958029
 21
743.1170537022
 31
0.0
  0
LINE
  5
D0
330
C0
100
AcDbEntity
  8
02555038_40437__
  6
Continuous
 62
     7
100
AcDbLine
 10
593.3201958029
 20
743.1170537022
 30
0.0
 11
593.7701958029
 21
743.3768613234
 31
0.0
  0
ARC
  5
D1
330
C0
100
AcDbEntity
  8
02555038_40437__
  6
Continuous
 62
     7
100
AcDbCircle
 10
567.6701958029
 20
744.2428867271
 30
0.0
 40
1.000000000000001
100
AcDbArc
 50
180.0
 51
240.0
  0
LINE
  5
D2
330
C0
100
AcDbEntity
  8
02555038_40437__
  6
Continuous
 62
     7
100
AcDbLine
 10
594.2701958029
 20
744.2428867271
 30
0.0
 11
594.2701958029
 21
748.8170537022
 31
0.0
  0
LINE
  5
D3
330
C0
100
AcDbEntity
  8
02555038_40437__
  6
Continuous
 62
     7
100
AcDbLine
 10
566.6701958029
 20
748.8170537022
 30
0.0
 11
566.6701958029
 21
744.2428867271
 31
0.0
  0
ARC
  5
D4
330
C0
100
AcDbEntity
  8
02555038_40437__
  6
Continuous
 62
     7
100
AcDbCircle
 10
593.2701958029
 20
744.2428867271
 30
0.0
 40
1.000000000000004
100
AcDbArc
 50
300.0
 51
0.0
  0
SPLINE
  5
D5
330
C0
100
AcDbEntity
  8
$DDT_AUDIT_GENERATED_(99)
  6
Continuous
 62
     7
100
AcDbSpline
210
0.0
220
0.0
230
1.0
 70
     8
 71
     3
 72
    18
 73
    14
 74
     0
 42
0.000000001175973
 43
0.0000000001
 40
0.0
 40
0.0
 40
0.0
 40
0.0
 40
0.1250000000000001
 40
0.1250000000000001
 40
0.2500000000000003
 40
0.2500000000000003
 40
0.5000000000000004
 40
0.5000000000000004
 40
0.7500000000000003
 40
0.7500000000000003
 40
0.8750000000000002
 40
0.8750000000000002
 40
1.0
 40
1.0
 40
1.0
 40
1.0
 10
389.7118535586193
 20
636.0644056219645
 30
0.0
 10
390.0595883447624
 20
636.0339827702635
 30
0.0
 10
390.4192157029075
 20
636.1258743833256
 30
0.0
 10
391.0240833286547
 20
636.4805761777761
 30
0.0
 10
391.2748654266959
 20
636.7370843271066
 30
0.0
 10
391.8665048671427
 20
637.6073515000166
 30
0.0
 10
392.0586623248541
 20
638.301420488011
 30
0.0
 10
392.1801644545383
 20
639.7012667639576
 30
0.0
 10
392.1103635906664
 20
640.4152265118787
 30
0.0
 10
391.6799914856034
 20
641.3710297151321
 30
0.0
 10
391.4783830596036
 20
641.6671789125148
 30
0.0
 10
390.9393326528974
 20
642.1245402370898
 30
0.0
 10
390.6073821681654
 20
642.2741690909727
 30
0.0
 10
390.2578131595972
 20
642.304752416343
 30
0.0
  0
LINE
  5
D6
330
C0
100
AcDbEntity
  8
$DDT_AUDIT_GENERATED_(99)
  6
Continuous
 62
     7
100
AcDbLine
 10
388.942859543
 20
642.4197959509
 30
0.0
 11
388.4806917828
 21
637.1371942788
 31
0.0
  0
LINE
  5
D7
330
C0
100
AcDbEntity
  8
$DDT_AUDIT_GENERATED_(99)
  6
Continuous
 62
     7
100
AcDbLine
 10
388.5165607657
 20
636.1689801909
 30
0.0
 11
389.7118535586
 21
636.064405622
 31
0.0
  0
LINE
  5
D8
330
C0
100
AcDbEntity
  8
$DDT_AUDIT_GENERATED_(99)
  6
Continuous
 62
     7
100
AcDbLine
 10
390.2578131596
 20
642.3047524163
 30
0.0
 11
388.942859543
 21
642.4197959509
 31
0.0
  0
ARC
  5
D9
330
C0
100
AcDbEntity
  8
$DDT_AUDIT_GENERATED_(99)
  6
Continuous
 62
     7
100
AcDbCircle
 10
381.4972779163
 20
639.9271439015
 30
0.0
 40
12.0
100
AcDbArc
 50
336.2026311756
 51
13.7973688244
  0
ARC
  5
DA
330
C0
100
AcDbEntity
  8
$DDT_AUDIT_GENERATED_(99)
  6
Continuous
 62
     7
100
AcDbCircle
 10
389.7320817051
 20
636.2956143947
 30
0.0
 40
3.000000000000001
100
AcDbArc
 50
265.0
 51
336.2026311756
  0
ARC
  5
DB
330
C0
100
AcDbEntity
  8
$DDT_AUDIT_GENERATED_(99)
  6
Continuous
 62
     7
100
AcDbCircle
 10
390.2375850131
 20
642.0735436436
 30
0.0
 40
3.000000000000005
100
AcDbArc
 50
13.7973688244
 51
85.0
  0
LINE
  5
DC
330
C0
100
AcDbEntity
  8
$DDT_AUDIT_GENERATED_(99)
  6
Continuous
 62
     7
100
AcDbLine
 10
388.7322097894
 20
633.3716323397
 30
0.0
 11
389.4706144769
 21
633.3070303004
 31
0.0
  0
LINE
  5
DD
330
C0
100
AcDbEntity
  8
$DDT_AUDIT_GENERATED_(99)
  6
Continuous
 62
     7
100
AcDbLine
 10
390.4990522413
 20
645.0621277379
 30
0.0
 11
389.0852141766
 21
645.1858225406
 31
0.0
  0
ARC
  5
DE
330
C0
100
AcDbEntity
  8
$DDT_AUDIT_GENERATED_(A5)
  6
Continuous
 62
     7
100
AcDbCircle
 10
506.3466289773
 20
642.2800102845
 30
0.0
 40
115.7832671677133
100
AcDbArc
 50
85.7394696879
 51
120.828640924
  0
ARC
  5
DF
330
C0
100
AcDbEntity
  8
$DDT_AUDIT_GENERATED_(A5)
  6
Continuous
 62
     7
100
AcDbCircle
 10
499.506369872
 20
620.4874316236
 30
0.0
 40
175.4934560353336
100
AcDbArc
 50
49.5190872502
 51
179.565895709
  0
LINE
  5
E0
330
C0
100
AcDbEntity
  8
$DDT_AUDIT_GENERATED_(A5)
  6
Continuous
 62
     7
100
AcDbLine
 10
324.0179508343
 20
621.8170537022
 30
0.0
 11
352.0212109863
 21
621.8170537022
 31
0.0
  0
LINE
  5
E1
330
C0
100
AcDbEntity
  8
$DDT_AUDIT_GENERATED_(A5)
  6
Continuous
 62
     7
100
AcDbLine
 10
388.883332592
 20
621.8170537022
 30
0.0
 11
388.7656545144
 21
633.0173693622
 31
0.0
  0
LINE
  5
E2
330
C0
100
AcDbEntity
  8
$DDT_AUDIT_GENERATED_(A5)
  6
Continuous
 62
     7
100
AcDbLine
 10
370.6986100303
 20
621.8170530593
 30
0.0
 11
388.8834044107
 21
621.8170537022
 31
0.0
  0
LINE
  5
E3
330
C0
100
AcDbEntity
  8
$DDT_AUDIT_GENERATED_(A5)
  6
Continuous
 62
     7
100
AcDbLine
 10
352.0212109863
 20
621.8170537022
 30
0.0
 11
370.5520155719
 21
621.8170535655
 31
0.0
  0
LINE
  5
E4
330
C0
100
AcDbEntity
  8
$DDT_AUDIT_GENERATED_(A5)
  6
Continuous
 62
     7
100
AcDbLine
 10
370.5520155719
 20
621.8170535655
 30
0.0
 11
370.6986100303
 21
621.8170530593
 31
0.0
  0
SPLINE
  5
E5
330
C0
100
AcDbEntity
  8
$DDT_AUDIT_GENERATED_(A5)
  6
Continuous
 62
     7
100
AcDbSpline
210
0.0
220
0.0
230
1.0
 70
    12
 71
     3
 72
    12
 73
     8
 74
     0
 42
0.0000000000849399
 43
0.0000000001
 40
0.0
 40
0.0
 40
0.0
 40
0.0
 40
0.2354053895511359
 40
0.3484556025923726
 40
0.7022230073380039
 40
0.924372482962963
 40
1.0
 40
1.0
 40
1.0
 40
1.0
 10
389.1424190655822
 20
645.532154704475
 30
0.0
 41
1.0
 10
389.6849378621399
 20
654.5291949101535
 30
0.0
 41
1.0
 10
391.4647206487471
 20
667.3027237745788
 30
0.0
 41
1.0
 10
400.128556579629
 20
692.822754230549
 30
0.0
 41
1.0
 10
414.8615133686492
 20
716.5552173834192
 30
0.0
 41
1.0
 10
434.4570434340353
 20
733.7717157758941
 30
0.0
 41
1.0
 10
444.4221637698412
 20
740.1763723564667
 30
0.0
 41
1.0
 10
447.0109260613528
 20
741.703545302626
 30
0.0
 41
1.0
  0
ARC
  5
E6
330
C0
100
AcDbEntity
  8
$DDT_AUDIT_GENERATED_(A5)
  6
Continuous
 62
     7
100
AcDbCircle
 10
430.0384327549
 20
638.0378935148
 30
0.0
 40
41.57701151427982
100
AcDbArc
 50
169.6156712527
 51
186.935528013
  0
LINE
  5
E7
330
C0
100
AcDbEntity
  8
$DDT_AUDIT_GENERATED_(A5)
  6
Continuous
 62
     7
100
AcDbLine
 10
566.6590903499
 20
748.8170537022
 30
0.0
 11
556.4426859049
 21
748.8170537022
 31
0.0
  0
LINE
  5
E8
330
C0
100
AcDbEntity
  8
$DDT_AUDIT_GENERATED_(A5)
  6
Continuous
 62
     7
100
AcDbLine
 10
611.5458565757
 20
748.8170537022
 30
0.0
 11
566.6590903499
 21
748.8170537022
 31
0.0
  0
LINE
  5
E9
330
C0
100
AcDbEntity
  8
$DDT_AUDIT_GENERATED_(A5)
  6
Continuous
 62
     7
100
AcDbLine
 10
556.4393863104
 20
748.8170537022
 30
0.0
 11
552.152521721
 21
748.8170537022
 31
0.0
  0
ARC
  5
EA
330
C0
100
AcDbEntity
  8
$DDT_AUDIT_GENERATED_(A5)
  6
Continuous
 62
     7
100
AcDbCircle
 10
611.545856042
 20
751.7670537744
 30
0.0
 40
2.950000072153486
100
AcDbArc
 50
270.0000103667
 51
49.3966293253
  0
ARC
  5
EB
330
C0
100
AcDbEntity
  8
$DDT_AUDIT_GENERATED_(A5)
  6
Continuous
 62
     7
100
AcDbCircle
 10
507.7807354643
 20
649.471400369
 30
0.0
 40
108.5490070008285
100
AcDbArc
 50
66.5126861296
 51
89.6906057816
  0
ARC
  5
EC
330
C0
100
AcDbEntity
  8
$DDT_AUDIT_GENERATED_(A5)
  6
Continuous
 62
     7
100
AcDbCircle
 10
507.8244256446
 20
649.5986797223
 30
0.0
 40
108.4147989844671
100
AcDbArc
 50
89.8466745502
 51
89.9773802417
  0
ARC
  5
ED
330
C0
100
AcDbEntity
  8
$DDT_AUDIT_GENERATED_(A5)
  6
Continuous
 62
     7
100
AcDbCircle
 10
552.1525396633
 20
751.7670339835
 30
0.0
 40
2.949980281344012
100
AcDbArc
 50
247.6630578655
 51
270.0113066572
  0
LINE
  5
EF
330
C0
100
AcDbEntity
  8
A4222584_HEBEL_E
  6
Continuous
 62
     7
100
AcDbLine
 10
227.7280600703
 20
703.7166987263
 30
0.0
 11
227.1370562611
 21
697.1317472363
 31
0.0
  0
LINE
  5
F0
330
C0
100
AcDbEntity
  8
A4222584_HEBEL_E
  6
Continuous
 62
     7
100
AcDbLine
 10
171.0801040985
 20
684.7176039138
 30
0.0
 11
170.9180195256
 21
684.1579999172
 31
0.0
  0
LINE
  5
F1
330
C0
100
AcDbEntity
  8
A4222584_HEBEL_E
  6
Continuous
 62
     7
100
AcDbLine
 10
226.400393697
 20
690.3835024753
 30
0.0
 11
225.6568179933
 21
684.7367771791
 31
0.0
  0
LINE
  5
F2
330
C0
100
AcDbEntity
  8
A4222584_HEBEL_E
  6
Continuous
 62
     7
100
AcDbLine
 10
227.1370562611
 20
697.1317472363
 30
0.0
 11
227.137125745
 21
697.1311907841
 31
0.0
  0
ARC
  5
F3
330
C0
100
AcDbEntity
  8
A4222584_HEBEL_E
  6
Continuous
 62
     7
100
AcDbCircle
 10
261.7536610736
 20
689.9375943171
 30
0.0
 40
35.35607936817771
100
AcDbArc
 50
168.2605558776
 51
179.2773708704
  0
LINE
  5
F4
330
C0
100
AcDbEntity
  8
A4222584_HEBEL_E
  6
Continuous
 62
     7
100
AcDbLine
 10
197.9857936244
 20
681.4080504068
 30
0.0
 11
171.0345664407
 21
681.408050405
 31
0.0
  0
LINE
  5
F5
330
C0
100
AcDbEntity
  8
A4222584_HEBEL_E
  6
Continuous
 62
     7
100
AcDbLine
 10
224.9554210258
 20
681.4080504068
 30
0.0
 11
197.9857936244
 21
681.4080504068
 31
0.0
  0
LINE
  5
F6
330
C0
100
AcDbEntity
  8
A4222584_HEBEL_E
  6
Continuous
 62
     7
100
AcDbLine
 10
170.735176913
 20
681.7271788546
 30
0.0
 11
170.9180158019
 21
684.1579974458
 31
0.0
  0
ARC
  5
F7
330
C0
100
AcDbEntity
  8
A4222584_HEBEL_E
  6
Continuous
 62
     7
100
AcDbCircle
 10
171.0345664518
 20
681.7080503949
 30
0.0
 40
0.2999999898532533
100
AcDbArc
 50
176.3442532186
 51
269.9999978883
  0
ARC
  5
F8
330
C0
100
AcDbEntity
  8
A4222584_HEBEL_E
  6
Continuous
 62
     7
100
AcDbCircle
 10
224.9554209573
 20
681.708050291
 30
0.0
 40
0.2999998841848968
100
AcDbArc
 50
270.0000130664
 51
351.7846247624
  0
SPLINE
  5
F9
330
C0
100
AcDbEntity
  8
A4222584_HEBEL_E
  6
Continuous
 62
     7
100
AcDbSpline
210
0.0
220
0.0
230
1.0
 70
     8
 71
     3
 72
    21
 73
    17
 74
     0
 42
0.0000000000726151
 43
0.0000000001
 40
0.0
 40
0.0
 40
0.0
 40
0.0
 40
0.0866846144739756
 40
0.1793018510462528
 40
0.2708421922313664
 40
0.360878207886273
 40
0.4488491006717404
 40
0.5342674673907244
 40
0.5965143262373626
 40
0.6572249590031112
 40
0.7165809128210748
 40
0.7749112959864287
 40
0.8326769459263046
 40
0.8904328969550372
 40
0.948773005690924
 40
1.0
 40
1.0
 40
1.0
 40
1.0
 10
293.9331957104906
 20
722.3394362105182
 30
0.0
 10
289.6056867522203
 20
722.9577000545145
 30
0.0
 10
282.051659779115
 20
724.0091214942015
 30
0.0
 10
269.4271809865955
 20
725.123943606794
 30
0.0
 10
256.9276333965689
 20
725.59923834012
 30
0.0
 10
244.5465497249208
 20
725.3104320661203
 30
0.0
 10
232.5191075728229
 20
724.1347219344856
 30
0.0
 10
221.884650993067
 20
722.1291673982586
 30
0.0
 10
212.692880358507
 20
719.4877500764616
 30
0.0
 10
204.8885455190171
 20
716.4615268677545
 30
0.0
 10
197.5837150749711
 20
712.7483594101574
 30
0.0
 10
190.8428509781105
 20
708.3344896556822
 30
0.0
 10
184.7049038667137
 20
703.2012972783257
 30
0.0
 10
179.2711578343581
 20
697.4069367140044
 30
0.0
 10
174.5940696242427
 20
691.0970216233992
 30
0.0
 10
172.3573164131029
 20
686.9952018312255
 30
0.0
 10
171.1386288113668
 20
684.7173770650609
 30
0.0
  0
LINE
  5
FA
330
C0
100
AcDbEntity
  8
A4222584_HEBEL_E
  6
Continuous
 62
     7
100
AcDbLine
 10
225.6606722629
 20
684.7362683864
 30
0.0
 11
226.3159553396
 21
690.4031834275
 31
0.0
  0
LINE
  5
FB
330
C0
100
AcDbEntity
  8
A4222584_HEBEL_E
  6
Continuous
 62
     7
100
AcDbLine
 10
225.5446638553
 20
683.7330228986
 30
0.0
 11
225.6606722629
 21
684.7362683864
 31
0.0
  0
LINE
  5
FC
330
C0
100
AcDbEntity
  8
A4222584_HEBEL_E
  6
Continuous
 62
     7
100
AcDbLine
 10
287.3588802528
 20
714.9860281703
 30
0.0
 11
294.7849760651
 21
719.7264029385
 31
0.0
  0
ARC
  5
FD
330
C0
100
AcDbEntity
  8
A4222584_HEBEL_E
  6
Continuous
 62
     7
100
AcDbCircle
 10
264.8782518253
 20
612.7925951048
 30
0.0
 40
104.2712039315553
100
AcDbArc
 50
78.0557553214
 51
106.9419167969
  0
ARC
  5
FE
330
C0
100
AcDbEntity
  8
A4222584_HEBEL_E
  6
Continuous
 62
     7
100
AcDbCircle
 10
237.9775104552
 20
702.8989952018
 30
0.0
 40
10.28038447134362
100
AcDbArc
 50
109.8696554825
 51
175.4310483208
  0
LINE
  5
FF
330
C0
100
AcDbEntity
  8
A4222584_HEBEL_E
  6
Continuous
 62
     7
100
AcDbLine
 10
225.4498583268
 20
683.0635111206
 30
0.0
 11
225.5429850776
 21
683.7208905957
 31
0.0
  0
LINE
  5
100
330
C0
100
AcDbEntity
  8
A4222584_HEBEL_E
  6
Continuous
 62
     7
100
AcDbLine
 10
225.2517723318
 20
681.6652268861
 30
0.0
 11
225.4498583268
 21
683.0635111206
 31
0.0
  0
ARC
  5
101
330
C0
100
AcDbEntity
  8
A4222584_HEBEL_E
  6
Continuous
 62
     7
100
AcDbCircle
 10
171.7480238879
 20
684.2763827929
 30
0.0
 40
0.7962170998444705
100
AcDbArc
 50
144.8967972471
 51
167.5837453541
  0
ARC
  5
102
330
C0
100
AcDbEntity
  8
A4222584_HEBEL_E
  6
Continuous
 62
     7
100
AcDbCircle
 10
286.7301297017
 20
716.2284143598
 30
0.0
 40
1.389727597262234
100
AcDbArc
 50
259.1267574657
 51
308.9188618487
  0
SPLINE
  5
103
330
C0
100
AcDbEntity
  8
A4222584_HEBEL_E
  6
Continuous
 62
     7
100
AcDbSpline
210
0.0
220
0.0
230
1.0
 70
     8
 71
     3
 72
    17
 73
    13
 74
     0
 42
0.0000000026443102
 43
0.0000000001
 40
0.0
 40
0.0
 40
0.0
 40
0.0
 40
0.095181032175543
 40
0.2142224092782673
 40
0.3521959551813598
 40
0.4977219793798157
 40
0.6398476410011952
 40
0.752972305423758
 40
0.8480526517699994
 40
0.9279378213324236
 40
0.9925889473485083
 40
1.0
 40
1.0
 40
1.0
 40
1.0
 10
294.5604846980758
 20
719.6040537374657
 30
0.0
 10
294.6726204985914
 20
719.6697488313235
 30
0.0
 10
294.8871904169604
 20
719.8007342615115
 30
0.0
 10
295.147859137072
 20
720.1759212347713
 30
0.0
 10
295.3056562189701
 20
720.6549600946989
 30
0.0
 10
295.2835698757539
 20
721.1963419054456
 30
0.0
 10
295.0855150231521
 20
721.6641884053741
 30
0.0
 10
294.7958671931319
 20
721.9955790436907
 30
0.0
 10
294.4957071312757
 20
722.198529977075
 30
0.0
 10
294.2198657331697
 20
722.3053715210174
 30
0.0
 10
294.0284142897383
 20
722.3488736151305
 30
0.0
 10
293.9439726778043
 20
722.3531369924599
 30
0.0
 10
293.933873192722
 20
722.3536299498433
 30
0.0
  0
LINE
  5
104
330
C0
100
AcDbEntity
  8
A4222584_HEBEL_E
  6
Continuous
 62
     7
100
AcDbLine
 10
227.1371590727
 20
697.1319102408
 30
0.0
 11
227.1363098861
 21
697.1322706991
 31
0.0
  0
LINE
  5
106
330
C0
100
AcDbEntity
  8
01081038_EURO-EC
  6
Continuous
 62
     7
100
AcDbLine
 10
171.9706408029
 20
637.3170537022
 30
0.0
 11
223.9706408029
 21
637.3170537022
 31
0.0
  0
ARC
  5
107
330
C0
100
AcDbEntity
  8
01081038_EURO-EC
  6
Continuous
 62
     7
100
AcDbCircle
 10
197.9706408029
 20
670.9170537022
 30
0.0
 40
26.0
100
AcDbArc
 50
155.7311904724
 51
180.0
  0
ARC
  5
108
330
C0
100
AcDbEntity
  8
01081038_EURO-EC
  6
Continuous
 62
     7
100
AcDbCircle
 10
197.9706408029
 20
670.9170537022
 30
0.0
 40
26.00000000000001
100
AcDbArc
 50
0.0
 51
24.1926741146
  0
LINE
  5
109
330
C0
100
AcDbEntity
  8
01081038_EURO-EC
  6
Continuous
 62
     7
100
AcDbLine
 10
171.9706408029
 20
670.9170537022
 30
0.0
 11
171.9706408029
 21
637.3170537022
 31
0.0
  0
LINE
  5
10A
330
C0
100
AcDbEntity
  8
01081038_EURO-EC
  6
Continuous
 62
     7
100
AcDbLine
 10
223.9706408029
 20
637.3170537022
 30
0.0
 11
223.9706408029
 21
670.9170537022
 31
0.0
  0
LINE
  5
10B
330
C0
100
AcDbEntity
  8
01081038_EURO-EC
  6
Continuous
 62
     7
100
AcDbLine
 10
171.9706408029
 20
637.3170537022
 30
0.0
 11
172.4706408029
 21
636.8170537022
 31
0.0
  0
LINE
  5
10C
330
C0
100
AcDbEntity
  8
01081038_EURO-EC
  6
Continuous
 62
     7
100
AcDbLine
 10
223.4706408029
 20
636.8170537022
 30
0.0
 11
223.9706408029
 21
637.3170537022
 31
0.0
  0
ENDBLK
  5
10E
330
C0
100
AcDbEntity
  8
0
100
AcDbBlockEnd
  0
BLOCK
  5
129
330
10F
100
AcDbEntity
  8
0
100
AcDbBlockBegin
  2
SE2
 70
     0
 10
0.0
 20
0.0
 30
0.0
  3
SE2
  1

  0
LINE
  5
112
330
10F
100
AcDbEntity
  8
00747031_30114__
  6
Continuous
 62
     7
100
AcDbLine
 10
50.1151572438
 20
477.0176172952
 30
0.0
 11
50.1151572438
 21
477.2138108426
 31
0.0
  0
SPLINE
  5
113
330
10F
100
AcDbEntity
  8
$DDT_AUDIT_GENERATED_(A5)
  6
Continuous
 62
     7
100
AcDbSpline
210
0.0
220
0.0
230
1.0
 70
     8
 71
     3
 72
    20
 73
    16
 74
     0
 42
0.0000000002267144
 43
0.0000000001
 40
0.0
 40
0.0
 40
0.0
 40
0.0
 40
0.1250000000000001
 40
0.1250000000000001
 40
0.2500000000000001
 40
0.2500000000000001
 40
0.3750000000000002
 40
0.3750000000000002
 40
0.5000000000000002
 40
0.5000000000000002
 40
0.6250000000000001
 40
0.6250000000000001
 40
0.7500000000000001
 40
0.7500000000000001
 40
1.0
 40
1.0
 40
1.0
 40
1.0
 10
34.36099378723358
 20
396.8278854083836
 30
0.0
 10
32.5017538228659
 20
396.8271705600206
 30
0.0
 10
30.68427982349762
 20
396.6452112782274
 30
0.0
 10
27.10867818560045
 20
395.9336365343249
 30
0.0
 10
25.33207106328841
 20
395.3954216659977
 30
0.0
 10
21.94384065539977
 20
393.9906089172863
 30
0.0
 10
20.33685681773465
 20
393.1311222809476
 30
0.0
 10
17.29554969722366
 20
391.1008768872958
 30
0.0
 10
15.85542039706996
 20
389.9192101302847
 30
0.0
 10
13.27385820006184
 20
387.3380478583323
 30
0.0
 10
12.11537176904002
 20
385.9297836773721
 30
0.0
 10
10.06918147508326
 20
382.8723800198139
 30
0.0
 10
9.19911756501188
 20
381.2438755622514
 30
0.0
 10
7.103498161596296
 20
376.194932921666
 30
0.0
 10
6.360995702360345
 20
372.5214396002949
 30
0.0
 10
6.360994479953374
 20
368.824625256451
 30
0.0
  0
LINE
  5
114
330
10F
100
AcDbEntity
  8
$DDT_AUDIT_GENERATED_(A5)
  6
Continuous
 62
     7
100
AcDbLine
 10
62.3610016984
 20
337.7392858256
 30
0.0
 11
62.3610016504
 21
336.36190703
 31
0.0
  0
LINE
  5
115
330
10F
100
AcDbEntity
  8
$DDT_AUDIT_GENERATED_(A5)
  6
Continuous
 62
     7
100
AcDbLine
 10
62.3609976846
 20
222.5432914122
 30
0.0
 11
62.3609974982
 21
217.1932107517
 31
0.0
  0
SPLINE
  5
116
330
10F
100
AcDbEntity
  8
$DDT_AUDIT_GENERATED_(A5)
  6
Continuous
 62
     7
100
AcDbSpline
210
0.0
220
0.0
230
1.0
 70
     8
 71
     3
 72
    20
 73
    16
 74
     0
 42
0.0000000002267143
 43
0.0000000001
 40
0.0
 40
0.0
 40
0.0
 40
0.0
 40
0.1249999999999999
 40
0.1249999999999999
 40
0.2499999999999999
 40
0.2499999999999999
 40
0.3749999999999999
 40
0.3749999999999999
 40
0.5
 40
0.5
 40
0.625
 40
0.625
 40
0.7500000000000001
 40
0.7500000000000001
 40
1.0
 40
1.0
 40
1.0
 40
1.0
 10
62.36099309451377
 20
368.8246252564499
 30
0.0
 10
62.36099248330913
 20
370.6730359364813
 30
0.0
 10
62.1798016898575
 20
372.4905904392368
 30
0.0
 10
61.46985348458578
 20
376.0665098294025
 30
0.0
 10
60.93251565035031
 20
377.8433461460652
 30
0.0
 10
59.52941850330112
 20
381.2323328582015
 30
0.0
 10
58.67078780045201
 20
382.8397727291375
 30
0.0
 10
56.64224171728542
 20
385.8821413384042
 30
0.0
 10
55.4613716332525
 20
387.3229520069205
 30
0.0
 10
52.88163047256968
 20
389.9059845703695
 30
0.0
 10
51.47402971007006
 20
391.065240400196
 30
0.0
 10
48.41785781744099
 20
393.1130411076321
 30
0.0
 10
46.78969974229462
 20
393.9840488911058
 30
0.0
 10
41.74183206187663
 20
396.0822469608623
 30
0.0
 10
38.06865443872957
 20
396.8264557087546
 30
0.0
 10
34.36099378723358
 20
396.8278854083836
 30
0.0
  0
LINE
  5
117
330
10F
100
AcDbEntity
  8
$DDT_AUDIT_GENERATED_(A5)
  6
Continuous
 62
     7
100
AcDbLine
 10
62.3609930945
 20
154.1867430215
 30
0.0
 11
62.3609930945
 21
368.8246252564
 31
0.0
  0
LINE
  5
118
330
10F
100
AcDbEntity
  8
$DDT_AUDIT_GENERATED_(A5)
  6
Continuous
 62
     7
100
AcDbLine
 10
6.36099448
 20
154.1867430215
 30
0.0
 11
6.36099448
 21
368.8246252565
 31
0.0
  0
LINE
  5
119
330
10F
100
AcDbEntity
  8
$DDT_AUDIT_GENERATED_(A5)
  6
Continuous
 62
     7
100
AcDbLine
 10
62.3609895646
 20
336.3336347207
 30
0.0
 11
62.3609818078
 21
336.360129596
 31
0.0
  0
SPLINE
  5
11A
330
10F
100
AcDbEntity
  8
$DDT_AUDIT_GENERATED_(A5)
  6
Continuous
 62
     7
100
AcDbSpline
210
0.0
220
0.0
230
1.0
 70
     8
 71
     3
 72
    50
 73
    46
 74
     0
 42
0.0000000001632026
 43
0.0000000001
 40
0.0
 40
0.0
 40
0.0
 40
0.0
 40
0.0280258513593912
 40
0.0675059190384817
 40
0.1028811211891376
 40
0.1353232654806753
 40
0.169951988736829
 40
0.2030667642995889
 40
0.2372928677140838
 40
0.2700776680861766
 40
0.3016495610457973
 40
0.3322226070082201
 40
0.3619682979073136
 40
0.3910282394511415
 40
0.419531468363371
 40
0.4473461231841432
 40
0.4741346900471231
 40
0.5000430538789338
 40
0.5251416810123618
 40
0.5494961015368938
 40
0.5731686928882092
 40
0.5962192587058932
 40
0.6187054336144872
 40
0.6406829846584688
 40
0.6622060470775708
 40
0.6833725889325607
 40
0.7039106693175561
 40
0.723942108147993
 40
0.7435474145781893
 40
0.7627353015972519
 40
0.781521793279073
 40
0.7999293844891193
 40
0.8180047211841782
 40
0.8356301966687953
 40
0.8530355234403457
 40
0.8702622883871561
 40
0.8872994210531855
 40
0.9041419527923115
 40
0.920790920844511
 40
0.937252869557657
 40
0.9516404979557874
 40
0.965757245647058
 40
0.9800513307784563
 40
0.9957190063419369
 40
1.0
 40
1.0
 40
1.0
 40
1.0
 10
6.373606561521489
 20
154.1867153840031
 30
0.0
 10
6.377995839629634
 20
153.5572078584137
 30
0.0
 10
6.388352623181773
 20
152.2740435875293
 30
0.0
 10
6.439651541093938
 20
150.1252756658254
 30
0.0
 10
6.529381194112033
 20
147.948697746751
 30
0.0
 10
6.658398250509994
 20
145.8574699242027
 30
0.0
 10
6.835730117229113
 20
143.8199822734055
 30
0.0
 10
7.06327431726635
 20
141.749822384715
 30
0.0
 10
7.33581895191417
 20
139.7233089814671
 30
0.0
 10
7.656654160981768
 20
137.7357017091173
 30
0.0
 10
8.017493129808106
 20
135.8308517800037
 30
0.0
 10
8.418149507597176
 20
133.9974439192331
 30
0.0
 10
8.858656784058713
 20
132.2260083265569
 30
0.0
 10
9.339323519290843
 20
130.5088964954914
 30
0.0
 10
9.8587096600643
 20
128.8443519001623
 30
0.0
 10
10.41394890084542
 20
127.2404044098287
 30
0.0
 10
11.00140989778639
 20
125.704571448513
 30
0.0
 10
11.61767074559211
 20
124.2400523236159
 30
0.0
 10
12.26246325058826
 20
122.8424200874639
 30
0.0
 10
12.93506909605283
 20
121.5088921413497
 30
0.0
 10
13.63485355166734
 20
120.2369484432721
 30
0.0
 10
14.36126722456154
 20
119.0242777344745
 30
0.0
 10
15.11385046471739
 20
117.8687596215337
 30
0.0
 10
15.89222136846548
 20
116.7684366507951
 30
0.0
 10
16.69667726640941
 20
115.7208163133381
 30
0.0
 10
17.52338918420672
 20
114.728607341732
 30
0.0
 10
18.37046002032526
 20
113.7944322147407
 30
0.0
 10
19.23385311270268
 20
112.919577727277
 30
0.0
 10
20.11398441042323
 20
112.1015364657424
 30
0.0
 10
21.00992657501607
 20
111.3395131921627
 30
0.0
 10
21.91991033759993
 20
110.6335344346771
 30
0.0
 10
22.84274445623239
 20
109.9831111873071
 30
0.0
 10
23.77501429560053
 20
109.3893011241093
 30
0.0
 10
24.71690736877435
 20
108.8510273433897
 30
0.0
 10
25.66798597272753
 20
108.3662123389514
 30
0.0
 10
26.63042255679111
 20
107.9328284262723
 30
0.0
 10
27.60219599239426
 20
107.5511986533932
 30
0.0
 10
28.58051624187881
 20
107.2219479436624
 30
0.0
 10
29.56273385638201
 20
106.945196141289
 30
0.0
 10
30.50911033848011
 20
106.7302523838849
 30
0.0
 10
31.41286454706999
 20
106.5686937348853
 30
0.0
 10
32.28230874334401
 20
106.4606137184454
 30
0.0
 10
33.17325666219541
 20
106.3935808418298
 30
0.0
 10
33.89309385752461
 20
106.3636913940808
 30
0.0
 10
34.2761559254073
 20
106.3600767304011
 30
0.0
 10
34.3723131325572
 20
106.3592666170921
 30
0.0
  0
SPLINE
  5
11B
330
10F
100
AcDbEntity
  8
$DDT_AUDIT_GENERATED_(A5)
  6
Continuous
 62
     7
100
AcDbSpline
210
0.0
220
0.0
230
1.0
 70
     8
 71
     3
 72
    51
 73
    47
 74
     0
 42
0.0000000001632701
 43
0.0000000001
 40
0.0
 40
0.0
 40
0.0
 40
0.0
 40
0.0144761723972768
 40
0.029867863058816
 40
0.043976722376734
 40
0.0591645345302471
 40
0.0738483945040059
 40
0.0899108852928788
 40
0.106187256163892
 40
0.1226867371663982
 40
0.1393991979743256
 40
0.1563076668742165
 40
0.1733880119778769
 40
0.1906090271048275
 40
0.2078475394957906
 40
0.2254789700132723
 40
0.2434896201436235
 40
0.2618524834631966
 40
0.2805828092428247
 40
0.2996885190407811
 40
0.3191695574697873
 40
0.3390378719479389
 40
0.3593585913319555
 40
0.3801836785735832
 40
0.4015579701716688
 40
0.4234629628168447
 40
0.445865949520321
 40
0.4687012840410208
 40
0.4920218473462954
 40
0.5161703673382613
 40
0.5408387783239438
 40
0.5661346825451093
 40
0.592176722649955
 40
0.6191468712924727
 40
0.6468364661879095
 40
0.6752389654515483
 40
0.7044033168337125
 40
0.7343790972223913
 40
0.7652178256124245
 40
0.7969734764796467
 40
0.8297032300891759
 40
0.863613822567078
 40
0.8966709193696121
 40
0.9310832590314132
 40
0.9687827341671266
 40
1.0
 40
1.0
 40
1.0
 40
1.0
 10
34.37264152197722
 20
106.3605170796278
 30
0.0
 10
34.69762958371116
 20
106.3662139956012
 30
0.0
 10
35.26306339113899
 20
106.3780080988746
 30
0.0
 10
36.17745209190367
 20
106.436664081608
 30
0.0
 10
37.08001115304462
 20
106.5348640981987
 30
0.0
 10
37.96731580361988
 20
106.6823695113752
 30
0.0
 10
38.8840281424679
 20
106.8789487687564
 30
0.0
 10
39.812342602222
 20
107.1248688171471
 30
0.0
 10
40.76279553710748
 20
107.4267648685403
 30
0.0
 10
41.71012755881168
 20
107.7785902159124
 30
0.0
 10
42.65153942961538
 20
108.1800581787159
 30
0.0
 10
43.58369171690825
 20
108.6305426550203
 30
0.0
 10
44.50292437314559
 20
109.1289959123155
 30
0.0
 10
45.40369785299691
 20
109.673230515194
 30
0.0
 10
46.28790590619567
 20
110.2644157122782
 30
0.0
 10
47.15838689023531
 20
110.9032498284604
 30
0.0
 10
48.01828696593831
 20
111.5935430432984
 30
0.0
 10
48.86502155279155
 20
112.3344370867811
 30
0.0
 10
49.69644092917172
 20
113.125265051071
 30
0.0
 10
50.51086881769097
 20
113.9656567057266
 30
0.0
 10
51.30662088460389
 20
114.8551651351193
 30
0.0
 10
52.08265182338424
 20
115.7943282428144
 30
0.0
 10
52.83868015186281
 20
116.784402240402
 30
0.0
 10
53.57514300728431
 20
117.8269713088801
 30
0.0
 10
54.29110628337785
 20
118.9225588140145
 30
0.0
 10
54.98459023370845
 20
120.070303741356
 30
0.0
 10
55.65260496676672
 20
121.2673282862645
 30
0.0
 10
56.29264729366668
 20
122.512107367852
 30
0.0
 10
56.9072749825535
 20
123.8091548943706
 30
0.0
 10
57.49498311092334
 20
125.1595357645708
 30
0.0
 10
58.05485663090061
 20
126.5651790278474
 30
0.0
 10
58.58478071136414
 20
128.0235667961995
 30
0.0
 10
59.08638120112886
 20
129.5414902822776
 30
0.0
 10
59.55842296150878
 20
131.1199329653498
 30
0.0
 10
59.99834817125005
 20
132.7575657586699
 30
0.0
 10
60.40372889768042
 20
134.4501718266503
 30
0.0
 10
60.77361664991251
 20
136.1986088546092
 30
0.0
 10
61.10730462621247
 20
138.0048966016166
 30
0.0
 10
61.40404870361278
 20
139.8712081042868
 30
0.0
 10
61.66296662644219
 20
141.7998031089242
 30
0.0
 10
61.88382606103642
 20
143.7964696479951
 30
0.0
 10
62.06088891133194
 20
145.8232005252164
 30
0.0
 10
62.18957916881007
 20
147.8917164390238
 30
0.0
 10
62.27883970425223
 20
150.0249125791277
 30
0.0
 10
62.33209491970211
 20
152.1790800448831
 30
0.0
 10
62.34366963992954
 20
153.485963707986
 30
0.0
 10
62.34904393733341
 20
154.186874059663
 30
0.0
  0
ARC
  5
11C
330
10F
100
AcDbEntity
  8
A4222584_HEBEL_E
  6
Continuous
 62
     7
100
AcDbCircle
 10
34.3552406958
 20
522.8375366685
 30
0.0
 40
27.2440561597892
100
AcDbArc
 50
179.9522749342
 51
181.0359149373
  0
ARC
  5
11D
330
10F
100
AcDbEntity
  8
A4222584_HEBEL_E
  6
Continuous
 62
     7
100
AcDbCircle
 10
34.3827490818
 20
522.8390982937
 30
0.0
 40
27.27156328150933
100
AcDbArc
 50
89.9767490354
 51
179.9556039455
  0
ARC
  5
11E
330
10F
100
AcDbEntity
  8
A4222584_HEBEL_E
  6
Continuous
 62
     7
100
AcDbCircle
 10
34.3665964338
 20
522.8375708602
 30
0.0
 40
27.24410402899323
100
AcDbArc
 50
358.8263172887
 51
359.9095018982
  0
ARC
  5
11F
330
10F
100
AcDbEntity
  8
A4222584_HEBEL_E
  6
Continuous
 62
     7
100
AcDbCircle
 10
34.3429191257
 20
522.8429165631
 30
0.0
 40
27.26779026764999
100
AcDbArc
 50
359.8983479658
 51
89.8930540326
  0
ARC
  5
120
330
10F
100
AcDbEntity
  8
A4222584_HEBEL_E
  6
Continuous
 62
     7
100
AcDbCircle
 10
40.1609917365
 20
522.9635872147
 30
0.0
 40
33.04952692036656
100
AcDbArc
 50
181.0724460478
 51
217.0539998254
  0
ARC
  5
121
330
10F
100
AcDbEntity
  8
A4222584_HEBEL_E
  6
Continuous
 62
     7
100
AcDbCircle
 10
28.6057449008
 20
522.95741981
 30
0.0
 40
33.0045895273835
100
AcDbArc
 50
323.1613406626
 51
358.823037604
  0
ARC
  5
122
330
10F
100
AcDbEntity
  8
A4222584_HEBEL_E
  6
Continuous
 62
     7
100
AcDbCircle
 10
81.4328108897
 20
489.9063125965
 30
0.0
 40
29.56482935938841
100
AcDbArc
 50
149.8896029582
 51
170.3179782985
  0
ARC
  5
123
330
10F
100
AcDbEntity
  8
A4222584_HEBEL_E
  6
Continuous
 62
     7
100
AcDbCircle
 10
-11.7391149725
 20
489.97993193
 30
0.0
 40
28.68247906926023
100
AcDbArc
 50
9.5304467018
 51
30.5029431416
  0
ARC
  5
124
330
10F
100
AcDbEntity
  8
A4222584_HEBEL_E
  6
Continuous
 62
     7
100
AcDbCircle
 10
607.4293175474
 20
417.2360270521
 30
0.0
 40
560.5367225464692
100
AcDbArc
 50
172.0380220465
 51
178.6596330436
  0
ARC
  5
125
330
10F
100
AcDbEntity
  8
A4222584_HEBEL_E
  6
Continuous
 62
     7
100
AcDbCircle
 10
-535.2237234555
 20
418.1768180848
 30
0.0
 40
557.0484014048595
100
AcDbArc
 50
1.2525589135
 51
7.898770612
  0
ARC
  5
126
330
10F
100
AcDbEntity
  8
A4222584_HEBEL_E
  6
Continuous
 62
     7
100
AcDbCircle
 10
45.5503169676
 20
430.4516804628
 30
0.0
 40
1.499999999999964
100
AcDbArc
 50
301.806075378
 51
356.0320288251
  0
ARC
  5
127
330
10F
100
AcDbEntity
  8
A4222584_HEBEL_E
  6
Continuous
 62
     7
100
AcDbCircle
 10
23.1840158914
 20
430.4552384601
 30
0.0
 40
1.49999999999999
100
AcDbArc
 50
183.915220045
 51
238.1782809328
  0
ARC
  5
128
330
10F
100
AcDbEntity
  8
A4222584_HEBEL_E
  6
Continuous
 62
     7
100
AcDbCircle
 10
34.3707447166
 20
447.0837279339
 30
0.0
 40
21.538974202713
100
AcDbArc
 50
236.2173685503
 51
303.7602991224
  0
ENDBLK
  5
12A
330
10F
100
AcDbEntity
  8
0
100
AcDbBlockEnd
  0
ENDSEC
  0
SECTION
  2
ENTITIES
  0
INSERT
  5
5F
330
1F
100
AcDbEntity
  8
Default
100
AcDbBlockReference
  2
SEANNOT_GROUP
 10
0.0
 20
0.0
 30
0.0
  0
INSERT
  5
66
330
1F
100
AcDbEntity
  8
Default
100
AcDbBlockReference
  2
SEANNOT_GROUP1
 10
0.0
 20
0.0
 30
0.0
  0
INSERT
  5
6C
330
1F
100
AcDbEntity
  8
Default
100
AcDbBlockReference
  2
SEANNOT_GROUP2
 10
0.0
 20
0.0
 30
0.0
  0
INSERT
  5
76
330
1F
100
AcDbEntity
  8
Default
100
AcDbBlockReference
  2
SEANNOT_GROUP3
 10
0.0
 20
0.0
 30
0.0
  0
INSERT
  5
7B
330
1F
100
AcDbEntity
  8
Default
100
AcDbBlockReference
  2
SEANNOT_GROUP4
 10
0.0
 20
0.0
 30
0.0
  0
INSERT
  5
80
330
1F
100
AcDbEntity
  8
Default
100
AcDbBlockReference
  2
SEANNOT_GROUP5
 10
0.0
 20
0.0
 30
0.0
  0
INSERT
  5
8A
330
1F
100
AcDbEntity
  8
Default
100
AcDbBlockReference
  2
SE
 10
0.0
 20
0.0
 30
0.0
  0
INSERT
  5
C1
330
1F
100
AcDbEntity
  8
Default
100
AcDbBlockReference
  2
SE1
 10
0.0
 20
0.0
 30
0.0
  0
INSERT
  5
110
330
1F
100
AcDbEntity
  8
Default
100
AcDbBlockReference
  2
SE2
 10
0.0
 20
0.0
 30
0.0
  0
TEXT
  5
12C
330
1F
100
AcDbEntity
  8
Default
  6
Continuous
 62
     7
100
AcDbText
 10
5.9362635081
 20
53.4225120485
 30
0.0
 40
10.0
  1
Grohe AG^J
  7
SEACAD_seiso_ttf
 11
5.9362635081
 21
63.4225120485
 31
0.0
100
AcDbText
 73
     3
  0
TEXT
  5
12D
330
1F
100
AcDbEntity
  8
Default
  6
Continuous
 62
     7
100
AcDbText
 10
5.9362635081
 20
37.0588756849
 30
0.0
 40
10.0
  1
 
  7
SEACAD_seiso_ttf
 11
5.9362635081
 21
47.0588756849
 31
0.0
100
AcDbText
 73
     3
  0
TEXT
  5
12E
330
1F
100
AcDbEntity
  8
Default
  6
Continuous
 62
     7
100
AcDbText
 10
5.9362635081
 20
20.6952393213
 30
0.0
 40
10.0
  1
ecn: 
  7
SEACAD_seiso_ttf
 11
5.9362635081
 21
30.6952393213
 31
0.0
100
AcDbText
 73
     3
  0
TEXT
  5
12F
330
1F
100
AcDbEntity
  8
Default
  6
Continuous
 62
     7
100
AcDbText
 10
5.9362635081
 20
4.3316029576
 30
0.0
 40
10.0
  1
unit: mm
  7
SEACAD_seiso_ttf
 11
5.9362635081
 21
14.3316029576
 31
0.0
100
AcDbText
 73
     3
  0
LINE
  5
130
330
1F
100
AcDbEntity
  8
Default
  6
Continuous
 62
     7
100
AcDbLine
 10
0.0
 20
0.0
 30
0.0
 11
100.0
 21
0.0
 31
0.0
  0
LINE
  5
131
330
1F
100
AcDbEntity
  8
Default
  6
Continuous
 62
     7
100
AcDbLine
 10
0.0
 20
0.0
 30
0.0
 11
0.0
 21
100.0
 31
0.0
  0
TEXT
  5
132
330
1F
100
AcDbEntity
  8
Default
  6
Continuous
 62
     7
100
AcDbText
 10
24.3923665681
 20
-18.2375342018
 30
0.0
 40
10.0
  1
100 mm
  7
SEACAD_seiso_ttf
 11
24.3923665681
 21
-8.2375342018
 31
0.0
100
AcDbText
 73
     3
  0
TEXT
  5
133
330
1F
100
AcDbEntity
  8
Default
  6
Continuous
 62
     7
100
AcDbText
 10
-7.6150308803
 20
24.6231930421
 30
0.0
 40
10.0
  1
100 mm
 50
90.0
  7
SEACAD_seiso_ttf
 11
-17.6150308803
 21
24.6231930421
 31
0.0
100
AcDbText
 73
     3
  0
TEXT
  5
134
330
1F
100
AcDbEntity
  8
Default
  6
Continuous
 62
     7
100
AcDbText
 10
28.4878128572
 20
20.0907663715
 30
0.0
 40
10.0
  1
211331
  7
SEACAD_seiso_ttf
 11
28.4878128572
 21
30.0907663715
 31
0.0
100
AcDbText
 73
     3
  0
TEXT
  5
135
330
1F
100
AcDbEntity
  8
Default
  6
Continuous
 62
     7
100
AcDbText
 10
5.9012241913
 20
36.7242780188
 30
0.0
 40
10.0
  1
32645001
  7
SEACAD_seiso_ttf
 11
5.9012241913
 21
46.7242780188
 31
0.0
100
AcDbText
 73
     3
  0
ENDSEC
  0
SECTION
  2
OBJECTS
  0
DICTIONARY
  5
C
330
0
100
AcDbDictionary
281
     1
  3
ACAD_GROUP
350
D
  3
ACAD_LAYOUT
350
1A
  3
ACAD_MLEADERSTYLE
350
139
  3
ACAD_MLINESTYLE
350
17
  3
ACAD_PLOTSETTINGS
350
19
  3
ACAD_PLOTSTYLENAME
350
E
  3
ACAD_SCALELIST
350
3B
  3
ACAD_TABLESTYLE
350
138
  3
ACAD_VISUALSTYLE
350
2A
  3
AcDbVariableDictionary
350
136
  0
DICTIONARY
  5
D
102
{ACAD_REACTORS
330
C
102
}
330
C
100
AcDbDictionary
281
     1
  0
DICTIONARY
  5
1A
102
{ACAD_REACTORS
330
C
102
}
330
C
100
AcDbDictionary
281
     1
  3
Layout1
350
1E
  3
Model
350
22
  0
DICTIONARY
  5
139
102
{ACAD_REACTORS
330
C
102
}
330
C
100
AcDbDictionary
281
     1
  0
DICTIONARY
  5
17
102
{ACAD_REACTORS
330
C
102
}
330
C
100
AcDbDictionary
281
     1
  3
Standard
350
18
  0
DICTIONARY
  5
19
102
{ACAD_REACTORS
330
C
102
}
330
C
100
AcDbDictionary
281
     1
  0
ACDBDICTIONARYWDFLT
  5
E
102
{ACAD_REACTORS
330
C
102
}
330
C
100
AcDbDictionary
281
     1
  3
Normal
350
F
100
AcDbDictionaryWithDefault
340
F
  0
DICTIONARY
  5
3B
102
{ACAD_REACTORS
330
C
102
}
330
C
100
AcDbDictionary
281
     1
  3
A0
350
3C
  3
A1
350
3D
  3
A2
350
3E
  3
A3
350
3F
  3
A4
350
40
  3
A5
350
41
  3
A6
350
42
  3
A7
350
43
  3
A8
350
44
  3
A9
350
45
  3
B0
350
46
  3
B1
350
47
  3
B2
350
48
  3
B3
350
49
  3
B4
350
4A
  3
B5
350
4B
  3
B6
350
4C
  3
B7
350
4D
  3
B8
350
4E
  3
B9
350
4F
  3
C0
350
50
  3
C1
350
51
  3
C2
350
52
  3
C3
350
53
  3
C4
350
54
  3
C5
350
55
  3
C6
350
56
  3
C7
350
57
  3
C8
350
58
  3
C9
350
59
  3
D0
350
5A
  3
D1
350
5B
  3
D2
350
5C
  0
DICTIONARY
  5
138
102
{ACAD_REACTORS
330
C
102
}
330
C
100
AcDbDictionary
281
     1
  0
DICTIONARY
  5
2A
102
{ACAD_REACTORS
330
C
102
}
330
C
100
AcDbDictionary
281
     1
  3
2dWireframe
350
2F
  3
3D Hidden
350
31
  3
3dWireframe
350
30
  3
Basic
350
32
  3
Brighten
350
36
  3
ColorChange
350
3A
  3
Conceptual
350
34
  3
Dim
350
35
  3
Facepattern
350
39
  3
Flat
350
2B
  3
FlatWithEdges
350
2C
  3
Gouraud
350
2D
  3
GouraudWithEdges
350
2E
  3
Linepattern
350
38
  3
Realistic
350
33
  3
Thicken
350
37
  0
DICTIONARY
  5
136
102
{ACAD_REACTORS
330
C
102
}
330
C
100
AcDbDictionary
281
     1
  3
CANNOSCALE
350
137
  3
PSOLHEIGHT
350
13B
  3
PSOLWIDTH
350
13A
  0
LAYOUT
  5
1E
102
{ACAD_REACTORS
330
1A
102
}
330
1A
100
AcDbPlotSettings
  1

  2
none_device
  4

  6

 40
0.0
 41
0.0
 42
0.0
 43
0.0
 44
0.0
 45
0.0
 46
0.0
 47
0.0
 48
0.0
 49
0.0
140
0.0
141
0.0
142
1.0
143
1.0
 70
   688
 72
     0
 73
     0
 74
     5
  7

 75
    16
147
1.0
148
0.0
149
0.0
100
AcDbLayout
  1
Layout1
 70
     1
 71
     1
 10
0.0
 20
0.0
 11
1682.0
 21
2378.0
 12
0.0
 22
0.0
 32
0.0
 14
0.0
 24
0.0
 34
0.0
 15
1682.0
 25
2378.0
 35
0.0
146
0.0
 13
0.0
 23
0.0
 33
0.0
 16
1.0
 26
0.0
 36
0.0
 17
0.0
 27
1.0
 37
0.0
 76
     0
330
1B
  0
LAYOUT
  5
22
102
{ACAD_REACTORS
330
1A
102
}
330
1A
100
AcDbPlotSettings
  1

  2
none_device
  4

  6

 40
0.0
 41
0.0
 42
0.0
 43
0.0
 44
0.0
 45
0.0
 46
0.0
 47
0.0
 48
0.0
 49
0.0
140
0.0
141
0.0
142
1.0
143
1.0
 70
  1712
 72
     0
 73
     0
 74
     0
  7

 75
     0
147
1.0
148
0.0
149
0.0
100
AcDbLayout
  1
Model
 70
     1
 71
     0
 10
0.0
 20
0.0
 11
1682.0
 21
2378.0
 12
0.0
 22
0.0
 32
0.0
 14
0.0
 24
0.0
 34
0.0
 15
1682.0
 25
2378.0
 35
0.0
146
0.0
 13
0.0
 23
0.0
 33
0.0
 16
1.0
 26
0.0
 36
0.0
 17
0.0
 27
1.0
 37
0.0
 76
     0
330
1F
331
29
  0
MLINESTYLE
  5
18
102
{ACAD_REACTORS
330
17
102
}
330
17
100
AcDbMlineStyle
  2
Standard
 70
     0
  3

 62
   256
 51
90.0
 52
90.0
 71
     2
 49
0.5
 62
   256
  6
BYLAYER
 49
-0.5
 62
   256
  6
BYLAYER
  0
ACDBPLACEHOLDER
  5
F
102
{ACAD_REACTORS
330
E
102
}
330
E
  0
SCALE
  5
3C
102
{ACAD_REACTORS
330
3B
102
}
330
3B
100
AcDbScale
 70
     0
300
1:1
140
1.0
141
1.0
290
     1
  0
SCALE
  5
3D
102
{ACAD_REACTORS
330
3B
102
}
330
3B
100
AcDbScale
 70
     0
300
1:2
140
1.0
141
2.0
290
     0
  0
SCALE
  5
3E
102
{ACAD_REACTORS
330
3B
102
}
330
3B
100
AcDbScale
 70
     0
300
1:4
140
1.0
141
4.0
290
     0
  0
SCALE
  5
3F
102
{ACAD_REACTORS
330
3B
102
}
330
3B
100
AcDbScale
 70
     0
300
1:5
140
1.0
141
5.0
290
     0
  0
SCALE
  5
40
102
{ACAD_REACTORS
330
3B
102
}
330
3B
100
AcDbScale
 70
     0
300
1:8
140
1.0
141
8.0
290
     0
  0
SCALE
  5
41
102
{ACAD_REACTORS
330
3B
102
}
330
3B
100
AcDbScale
 70
     0
300
1:10
140
1.0
141
10.0
290
     0
  0
SCALE
  5
42
102
{ACAD_REACTORS
330
3B
102
}
330
3B
100
AcDbScale
 70
     0
300
1:16
140
1.0
141
16.0
290
     0
  0
SCALE
  5
43
102
{ACAD_REACTORS
330
3B
102
}
330
3B
100
AcDbScale
 70
     0
300
1:20
140
1.0
141
20.0
290
     0
  0
SCALE
  5
44
102
{ACAD_REACTORS
330
3B
102
}
330
3B
100
AcDbScale
 70
     0
300
1:30
140
1.0
141
30.0
290
     0
  0
SCALE
  5
45
102
{ACAD_REACTORS
330
3B
102
}
330
3B
100
AcDbScale
 70
     0
300
1:40
140
1.0
141
40.0
290
     0
  0
SCALE
  5
46
102
{ACAD_REACTORS
330
3B
102
}
330
3B
100
AcDbScale
 70
     0
300
1:50
140
1.0
141
50.0
290
     0
  0
SCALE
  5
47
102
{ACAD_REACTORS
330
3B
102
}
330
3B
100
AcDbScale
 70
     0
300
1:100
140
1.0
141
100.0
290
     0
  0
SCALE
  5
48
102
{ACAD_REACTORS
330
3B
102
}
330
3B
100
AcDbScale
 70
     0
300
2:1
140
2.0
141
1.0
290
     0
  0
SCALE
  5
49
102
{ACAD_REACTORS
330
3B
102
}
330
3B
100
AcDbScale
 70
     0
300
4:1
140
4.0
141
1.0
290
     0
  0
SCALE
  5
4A
102
{ACAD_REACTORS
330
3B
102
}
330
3B
100
AcDbScale
 70
     0
300
8:1
140
8.0
141
1.0
290
     0
  0
SCALE
  5
4B
102
{ACAD_REACTORS
330
3B
102
}
330
3B
100
AcDbScale
 70
     0
300
10:1
140
10.0
141
1.0
290
     0
  0
SCALE
  5
4C
102
{ACAD_REACTORS
330
3B
102
}
330
3B
100
AcDbScale
 70
     0
300
100:1
140
100.0
141
1.0
290
     0
  0
SCALE
  5
4D
102
{ACAD_REACTORS
330
3B
102
}
330
3B
100
AcDbScale
 70
     0
300
1/128" = 1'-0"
140
0.0078125
141
12.0
290
     0
  0
SCALE
  5
4E
102
{ACAD_REACTORS
330
3B
102
}
330
3B
100
AcDbScale
 70
     0
300
1/64" = 1'-0"
140
0.015625
141
12.0
290
     0
  0
SCALE
  5
4F
102
{ACAD_REACTORS
330
3B
102
}
330
3B
100
AcDbScale
 70
     0
300
1/32" = 1'-0"
140
0.03125
141
12.0
290
     0
  0
SCALE
  5
50
102
{ACAD_REACTORS
330
3B
102
}
330
3B
100
AcDbScale
 70
     0
300
1/16" = 1'-0"
140
0.0625
141
12.0
290
     0
  0
SCALE
  5
51
102
{ACAD_REACTORS
330
3B
102
}
330
3B
100
AcDbScale
 70
     0
300
3/32" = 1'-0"
140
0.09375
141
12.0
290
     0
  0
SCALE
  5
52
102
{ACAD_REACTORS
330
3B
102
}
330
3B
100
AcDbScale
 70
     0
300
1/8" = 1'-0"
140
0.125
141
12.0
290
     0
  0
SCALE
  5
53
102
{ACAD_REACTORS
330
3B
102
}
330
3B
100
AcDbScale
 70
     0
300
3/16" = 1'-0"
140
0.1875
141
12.0
290
     0
  0
SCALE
  5
54
102
{ACAD_REACTORS
330
3B
102
}
330
3B
100
AcDbScale
 70
     0
300
1/4" = 1'-0"
140
0.25
141
12.0
290
     0
  0
SCALE
  5
55
102
{ACAD_REACTORS
330
3B
102
}
330
3B
100
AcDbScale
 70
     0
300
3/8" = 1'-0"
140
0.375
141
12.0
290
     0
  0
SCALE
  5
56
102
{ACAD_REACTORS
330
3B
102
}
330
3B
100
AcDbScale
 70
     0
300
1/2" = 1'-0"
140
0.5
141
12.0
290
     0
  0
SCALE
  5
57
102
{ACAD_REACTORS
330
3B
102
}
330
3B
100
AcDbScale
 70
     0
300
3/4" = 1'-0"
140
0.75
141
12.0
290
     0
  0
SCALE
  5
58
102
{ACAD_REACTORS
330
3B
102
}
330
3B
100
AcDbScale
 70
     0
300
1" = 1'-0"
140
1.0
141
12.0
290
     0
  0
SCALE
  5
59
102
{ACAD_REACTORS
330
3B
102
}
330
3B
100
AcDbScale
 70
     0
300
1-1/2" = 1'-0"
140
1.5
141
12.0
290
     0
  0
SCALE
  5
5A
102
{ACAD_REACTORS
330
3B
102
}
330
3B
100
AcDbScale
 70
     0
300
3" = 1'-0"
140
3.0
141
12.0
290
     0
  0
SCALE
  5
5B
102
{ACAD_REACTORS
330
3B
102
}
330
3B
100
AcDbScale
 70
     0
300
6" = 1'-0"
140
6.0
141
12.0
290
     0
  0
SCALE
  5
5C
102
{ACAD_REACTORS
330
3B
102
}
330
3B
100
AcDbScale
 70
     0
300
1'-0" = 1'-0"
140
12.0
141
12.0
290
     0
  0
VISUALSTYLE
  5
2F
102
{ACAD_REACTORS
330
2A
102
}
330
2A
100
AcDbVisualStyle
  2
2dWireframe
 70
     4
 71
     0
 72
     2
 73
     0
 90
        0
 40
-0.6
 41
-30.0
 62
     5
 63
     7
 74
     1
 91
        4
 64
     7
 65
   257
 75
     1
175
     1
 42
1.0
 92
        0
 66
   257
 43
1.0
 76
     1
 77
     6
 78
     2
 67
     7
 79
     5
170
     0
171
     0
290
     0
174
     0
 93
        1
 44
0.0
173
     0
291
     0
 45
0.0
1001
ACAD
1000
AcDbSavedByObjectVersion
1070
     0
  0
VISUALSTYLE
  5
31
102
{ACAD_REACTORS
330
2A
102
}
330
2A
100
AcDbVisualStyle
  2
3D Hidden
 70
     6
 71
     1
 72
     2
 73
     2
 90
        0
 40
-0.6
 41
-30.0
 62
     5
 63
     7
 74
     2
 91
        2
 64
     7
 65
   257
 75
     2
175
     1
 42
40.0
 92
        0
 66
   257
 43
1.0
 76
     1
 77
     6
 78
     2
 67
     7
 79
     3
170
     0
171
     0
290
     0
174
     0
 93
        1
 44
0.0
173
     0
291
     0
 45
0.0
1001
ACAD
1000
AcDbSavedByObjectVersion
1070
     0
  0
VISUALSTYLE
  5
30
102
{ACAD_REACTORS
330
2A
102
}
330
2A
100
AcDbVisualStyle
  2
3dWireframe
 70
     5
 71
     0
 72
     2
 73
     0
 90
        0
 40
-0.6
 41
-30.0
 62
     5
 63
     7
 74
     1
 91
        4
 64
     7
 65
   257
 75
     1
175
     1
 42
1.0
 92
        0
 66
   257
 43
1.0
 76
     1
 77
     6
 78
     2
 67
     7
 79
     5
170
     0
171
     0
290
     0
174
     0
 93
        1
 44
0.0
173
     0
291
     0
 45
0.0
1001
ACAD
1000
AcDbSavedByObjectVersion
1070
     0
  0
VISUALSTYLE
  5
32
102
{ACAD_REACTORS
330
2A
102
}
330
2A
100
AcDbVisualStyle
  2
Basic
 70
     7
 71
     1
 72
     0
 73
     1
 90
        0
 40
-0.6
 41
-30.0
 62
     5
 63
     7
 74
     0
 91
        4
 64
     7
 65
   257
 75
     1
175
     1
 42
1.0
 92
        8
 66
     7
 43
1.0
 76
     1
 77
     6
 78
     2
 67
     7
 79
     5
170
     0
171
     0
290
     0
174
     0
 93
        1
 44
0.0
173
     0
291
     1
 45
0.0
1001
ACAD
1000
AcDbSavedByObjectVersion
1070
     0
  0
VISUALSTYLE
  5
36
102
{ACAD_REACTORS
330
2A
102
}
330
2A
100
AcDbVisualStyle
  2
Brighten
 70
    12
 71
     2
 72
     2
 73
     0
 90
        0
 40
-0.6
 41
-30.0
 62
     5
 63
     7
 74
     1
 91
        4
 64
     7
 65
   257
 75
     1
175
     1
 42
1.0
 92
        8
 66
     7
 43
1.0
 76
     1
 77
     6
 78
     2
 67
     7
 79
     5
170
     0
171
     0
290
     0
174
     0
 93
        1
 44
50.0
173
     0
291
     1
 45
0.0
1001
ACAD
1000
AcDbSavedByObjectVersion
1070
     0
  0
VISUALSTYLE
  5
3A
102
{ACAD_REACTORS
330
2A
102
}
330
2A
100
AcDbVisualStyle
  2
ColorChange
 70
    16
 71
     2
 72
     2
 73
     3
 90
        0
 40
-0.6
 41
-30.0
 62
     5
 63
     8
 74
     1
 91
        4
 64
     7
 65
   257
 75
     1
175
     1
 42
1.0
 92
        8
 66
     8
 43
1.0
 76
     1
 77
     6
 78
     2
 67
     7
 79
     5
170
     0
171
     0
290
     0
174
     0
 93
        1
 44
0.0
173
     0
291
     1
 45
0.0
1001
ACAD
1000
AcDbSavedByObjectVersion
1070
     0
  0
VISUALSTYLE
  5
34
102
{ACAD_REACTORS
330
2A
102
}
330
2A
100
AcDbVisualStyle
  2
Conceptual
 70
     9
 71
     3
 72
     2
 73
     0
 90
        0
 40
-0.6
 41
-30.0
 62
     5
 63
     7
 74
     2
 91
        2
 64
     7
 65
   257
 75
     1
175
     1
 42
40.0
 92
        8
 66
     7
 43
1.0
 76
     1
 77
     6
 78
     2
 67
     7
 79
     3
170
     0
171
     0
290
     0
174
     0
 93
        1
 44
0.0
173
     0
291
     0
 45
0.0
1001
ACAD
1000
AcDbSavedByObjectVersion
1070
     0
  0
VISUALSTYLE
  5
35
102
{ACAD_REACTORS
330
2A
102
}
330
2A
100
AcDbVisualStyle
  2
Dim
 70
    11
 71
     2
 72
     2
 73
     0
 90
        0
 40
-0.6
 41
-30.0
 62
     5
 63
     7
 74
     1
 91
        4
 64
     7
 65
   257
 75
     1
175
     1
 42
1.0
 92
        8
 66
     7
 43
1.0
 76
     1
 77
     6
 78
     2
 67
     7
 79
     5
170
     0
171
     0
290
     0
174
     0
 93
        1
 44
-50.0
173
     0
291
     1
 45
0.0
1001
ACAD
1000
AcDbSavedByObjectVersion
1070
     0
  0
VISUALSTYLE
  5
39
102
{ACAD_REACTORS
330
2A
102
}
330
2A
100
AcDbVisualStyle
  2
Facepattern
 70
    15
 71
     2
 72
     2
 73
     0
 90
        0
 40
-0.6
 41
-30.0
 62
     5
 63
     7
 74
     1
 91
        4
 64
     7
 65
   257
 75
     1
175
     1
 42
1.0
 92
        8
 66
     7
 43
1.0
 76
     1
 77
     6
 78
     2
 67
     7
 79
     5
170
     0
171
     0
290
     0
174
     0
 93
        1
 44
0.0
173
     0
291
     1
 45
0.0
1001
ACAD
1000
AcDbSavedByObjectVersion
1070
     0
  0
VISUALSTYLE
  5
2B
102
{ACAD_REACTORS
330
2A
102
}
330
2A
100
AcDbVisualStyle
  2
Flat
 70
     0
 71
     2
 72
     1
 73
     1
 90
        2
 40
-0.6
 41
30.0
 62
     5
 63
     7
 74
     0
 91
        4
 64
     7
 65
   257
 75
     1
175
     1
 42
1.0
 92
        8
 66
     7
 43
1.0
 76
     1
 77
     6
 78
     2
 67
     7
 79
     5
170
     0
171
     0
290
     0
174
     0
 93
       13
 44
0.0
173
     0
291
     1
 45
0.0
1001
ACAD
1000
AcDbSavedByObjectVersion
1070
     0
  0
VISUALSTYLE
  5
2C
102
{ACAD_REACTORS
330
2A
102
}
330
2A
100
AcDbVisualStyle
  2
FlatWithEdges
 70
     1
 71
     2
 72
     1
 73
     1
 90
        2
 40
-0.6
 41
30.0
 62
     5
 63
     7
 74
     1
 91
        4
 64
     7
 65
   257
 75
     1
175
     1
 42
1.0
 92
        0
 66
   257
 43
1.0
 76
     1
 77
     6
 78
     2
 67
     7
 79
     5
170
     0
171
     0
290
     0
174
     0
 93
       13
 44
0.0
173
     0
291
     1
 45
0.0
1001
ACAD
1000
AcDbSavedByObjectVersion
1070
     0
  0
VISUALSTYLE
  5
2D
102
{ACAD_REACTORS
330
2A
102
}
330
2A
100
AcDbVisualStyle
  2
Gouraud
 70
     2
 71
     2
 72
     2
 73
     1
 90
        2
 40
-0.6
 41
30.0
 62
     5
 63
     7
 74
     0
 91
        4
 64
     7
 65
   257
 75
     1
175
     1
 42
1.0
 92
        0
 66
     7
 43
1.0
 76
     1
 77
     6
 78
     2
 67
     7
 79
     5
170
     0
171
     0
290
     0
174
     0
 93
       13
 44
0.0
173
     0
291
     1
 45
0.0
1001
ACAD
1000
AcDbSavedByObjectVersion
1070
     0
  0
VISUALSTYLE
  5
2E
102
{ACAD_REACTORS
330
2A
102
}
330
2A
100
AcDbVisualStyle
  2
GouraudWithEdges
 70
     3
 71
     2
 72
     2
 73
     1
 90
        2
 40
-0.6
 41
30.0
 62
     5
 63
     7
 74
     1
 91
        4
 64
     7
 65
   257
 75
     1
175
     1
 42
1.0
 92
        0
 66
   257
 43
1.0
 76
     1
 77
     6
 78
     2
 67
     7
 79
     5
170
     0
171
     0
290
     0
174
     0
 93
       13
 44
0.0
173
     0
291
     1
 45
0.0
1001
ACAD
1000
AcDbSavedByObjectVersion
1070
     0
  0
VISUALSTYLE
  5
38
102
{ACAD_REACTORS
330
2A
102
}
330
2A
100
AcDbVisualStyle
  2
Linepattern
 70
    14
 71
     2
 72
     2
 73
     0
 90
        0
 40
-0.6
 41
-30.0
 62
     5
 63
     7
 74
     1
 91
        4
 64
     7
 65
   257
 75
     7
175
     7
 42
1.0
 92
        8
 66
     7
 43
1.0
 76
     1
 77
     6
 78
     2
 67
     7
 79
     5
170
     0
171
     0
290
     0
174
     0
 93
        1
 44
0.0
173
     0
291
     1
 45
0.0
1001
ACAD
1000
AcDbSavedByObjectVersion
1070
     0
  0
VISUALSTYLE
  5
33
102
{ACAD_REACTORS
330
2A
102
}
330
2A
100
AcDbVisualStyle
  2
Realistic
 70
     8
 71
     2
 72
     2
 73
     0
 90
        0
 40
-0.6
 41
-30.0
 62
     5
 63
     7
 74
     1
 91
        0
 64
     7
 65
   257
 75
     1
175
     1
 42
1.0
 92
        8
 66
     8
 43
1.0
 76
     1
 77
     6
 78
     2
 67
     7
 79
     5
170
     0
171
     0
290
     0
174
     0
 93
       13
 44
0.0
173
     0
291
     0
 45
0.0
1001
ACAD
1000
AcDbSavedByObjectVersion
1070
     0
  0
VISUALSTYLE
  5
37
102
{ACAD_REACTORS
330
2A
102
}
330
2A
100
AcDbVisualStyle
  2
Thicken
 70
    13
 71
     2
 72
     2
 73
     0
 90
        0
 40
-0.6
 41
-30.0
 62
     5
 63
     7
 74
     1
 91
        4
 64
     7
 65
   257
 75
     1
175
     1
 42
1.0
 92
       12
 66
     7
 43
1.0
 76
     1
 77
     6
 78
     2
 67
     7
 79
     5
170
     0
171
     0
290
     0
174
     0
 93
        1
 44
0.0
173
     0
291
     1
 45
0.0
1001
ACAD
1000
AcDbSavedByObjectVersion
1070
     0
  0
DICTIONARYVAR
  5
137
102
{ACAD_REACTORS
330
136
102
}
330
136
100
DictionaryVariables
280
     0
  1
1:1
  0
DICTIONARYVAR
  5
13B
102
{ACAD_REACTORS
330
136
102
}
330
136
100
DictionaryVariables
280
     0
  1
80.000000
  0
DICTIONARYVAR
  5
13A
102
{ACAD_REACTORS
330
136
102
}
330
136
100
DictionaryVariables
280
     0
  1
5.000000
  0
ENDSEC
  0
EOF
