  0
SECTION
  2
HEADER
  9
$ACADVER
  1
AC1015
  9
$ACADMAINTVER
 70
     6
  9
$DWGCODEPAGE
  3
ANSI_1252
  9
$INSBASE
 10
0.0
 20
0.0
 30
0.0
  9
$EXTMIN
 10
0.0
 20
0.0
 30
0.0
  9
$EXTMAX
 10
1682.0
 20
2378.0
 30
0.0
  9
$LIMMIN
 10
0.0
 20
0.0
  9
$LIMMAX
 10
1682.0
 20
2378.0
  9
$ORTHOMODE
 70
     0
  9
$REGENMODE
 70
     1
  9
$FILLMODE
 70
     1
  9
$QTEXTMODE
 70
     0
  9
$MIRRTEXT
 70
     1
  9
$LTSCALE
 40
1.0
  9
$ATTMODE
 70
     1
  9
$TEXTSIZE
 40
2.5
  9
$TRACEWID
 40
1.0
  9
$TEXTSTYLE
  7
Standard
  9
$CLAYER
  8
0
  9
$CELTYPE
  6
ByLayer
  9
$CECOLOR
 62
   256
  9
$CELTSCALE
 40
1.0
  9
$DISPSILH
 70
     0
  9
$DIMSCALE
 40
1.0
  9
$DIMASZ
 40
2.5
  9
$DIMEXO
 40
0.625
  9
$DIMDLI
 40
3.75
  9
$DIMRND
 40
0.0
  9
$DIMDLE
 40
0.0
  9
$DIMEXE
 40
1.25
  9
$DIMTP
 40
0.0
  9
$DIMTM
 40
0.0
  9
$DIMTXT
 40
2.5
  9
$DIMCEN
 40
2.5
  9
$DIMTSZ
 40
0.0
  9
$DIMTOL
 70
     0
  9
$DIMLIM
 70
     0
  9
$DIMTIH
 70
     0
  9
$DIMTOH
 70
     0
  9
$DIMSE1
 70
     0
  9
$DIMSE2
 70
     0
  9
$DIMTAD
 70
     1
  9
$DIMZIN
 70
     8
  9
$DIMBLK
  1

  9
$DIMASO
 70
     1
  9
$DIMSHO
 70
     1
  9
$DIMPOST
  1

  9
$DIMAPOST
  1

  9
$DIMALT
 70
     0
  9
$DIMALTD
 70
     3
  9
$DIMALTF
 40
0.0393700787
  9
$DIMLFAC
 40
1.0
  9
$DIMTOFL
 70
     1
  9
$DIMTVP
 40
0.0
  9
$DIMTIX
 70
     0
  9
$DIMSOXD
 70
     0
  9
$DIMSAH
 70
     0
  9
$DIMBLK1
  1

  9
$DIMBLK2
  1

  9
$DIMSTYLE
  2
ISO-25
  9
$DIMCLRD
 70
     0
  9
$DIMCLRE
 70
     0
  9
$DIMCLRT
 70
     0
  9
$DIMTFAC
 40
1.0
  9
$DIMGAP
 40
0.625
  9
$DIMJUST
 70
     0
  9
$DIMSD1
 70
     0
  9
$DIMSD2
 70
     0
  9
$DIMTOLJ
 70
     0
  9
$DIMTZIN
 70
     8
  9
$DIMALTZ
 70
     0
  9
$DIMALTTZ
 70
     0
  9
$DIMUPT
 70
     0
  9
$DIMDEC
 70
     2
  9
$DIMTDEC
 70
     2
  9
$DIMALTU
 70
     2
  9
$DIMALTTD
 70
     3
  9
$DIMTXSTY
  7
Standard
  9
$DIMAUNIT
 70
     0
  9
$DIMADEC
 70
     0
  9
$DIMALTRND
 40
0.0
  9
$DIMAZIN
 70
     0
  9
$DIMDSEP
 70
    44
  9
$DIMATFIT
 70
     3
  9
$DIMFRAC
 70
     0
  9
$DIMLDRBLK
  1

  9
$DIMLUNIT
 70
     2
  9
$DIMLWD
 70
    -2
  9
$DIMLWE
 70
    -2
  9
$DIMTMOVE
 70
     0
  9
$LUNITS
 70
     2
  9
$LUPREC
 70
     4
  9
$SKETCHINC
 40
1.0
  9
$FILLETRAD
 40
10.0
  9
$AUNITS
 70
     0
  9
$AUPREC
 70
     0
  9
$MENU
  1
.
  9
$ELEVATION
 40
0.0
  9
$PELEVATION
 40
0.0
  9
$THICKNESS
 40
0.0
  9
$LIMCHECK
 70
     0
  9
$CHAMFERA
 40
10.0
  9
$CHAMFERB
 40
10.0
  9
$CHAMFERC
 40
20.0
  9
$CHAMFERD
 40
0.0
  9
$SKPOLY
 70
     0
  9
$TDCREATE
 40
2455463.609134931
  9
$TDUCREATE
 40
2455463.525801597
  9
$TDUPDATE
 40
2455463.609134942
  9
$TDUUPDATE
 40
2455463.525801609
  9
$TDINDWG
 40
0.0000000116
  9
$TDUSRTIMER
 40
0.0000000116
  9
$USRTIMER
 70
     1
  9
$ANGBASE
 50
0.0
  9
$ANGDIR
 70
     0
  9
$PDMODE
 70
     0
  9
$PDSIZE
 40
0.0
  9
$PLINEWID
 40
0.0
  9
$SPLFRAME
 70
     0
  9
$SPLINETYPE
 70
     6
  9
$SPLINESEGS
 70
     8
  9
$HANDSEED
  5
15A
  9
$SURFTAB1
 70
     6
  9
$SURFTAB2
 70
     6
  9
$SURFTYPE
 70
     6
  9
$SURFU
 70
     6
  9
$SURFV
 70
     6
  9
$UCSBASE
  2

  9
$UCSNAME
  2

  9
$UCSORG
 10
0.0
 20
0.0
 30
0.0
  9
$UCSXDIR
 10
1.0
 20
0.0
 30
0.0
  9
$UCSYDIR
 10
0.0
 20
1.0
 30
0.0
  9
$UCSORTHOREF
  2

  9
$UCSORTHOVIEW
 70
     0
  9
$UCSORGTOP
 10
0.0
 20
0.0
 30
0.0
  9
$UCSORGBOTTOM
 10
0.0
 20
0.0
 30
0.0
  9
$UCSORGLEFT
 10
0.0
 20
0.0
 30
0.0
  9
$UCSORGRIGHT
 10
0.0
 20
0.0
 30
0.0
  9
$UCSORGFRONT
 10
0.0
 20
0.0
 30
0.0
  9
$UCSORGBACK
 10
0.0
 20
0.0
 30
0.0
  9
$PUCSBASE
  2

  9
$PUCSNAME
  2

  9
$PUCSORG
 10
0.0
 20
0.0
 30
0.0
  9
$PUCSXDIR
 10
1.0
 20
0.0
 30
0.0
  9
$PUCSYDIR
 10
0.0
 20
1.0
 30
0.0
  9
$PUCSORTHOREF
  2

  9
$PUCSORTHOVIEW
 70
     0
  9
$PUCSORGTOP
 10
0.0
 20
0.0
 30
0.0
  9
$PUCSORGBOTTOM
 10
0.0
 20
0.0
 30
0.0
  9
$PUCSORGLEFT
 10
0.0
 20
0.0
 30
0.0
  9
$PUCSORGRIGHT
 10
0.0
 20
0.0
 30
0.0
  9
$PUCSORGFRONT
 10
0.0
 20
0.0
 30
0.0
  9
$PUCSORGBACK
 10
0.0
 20
0.0
 30
0.0
  9
$USERI1
 70
     0
  9
$USERI2
 70
     0
  9
$USERI3
 70
     0
  9
$USERI4
 70
     0
  9
$USERI5
 70
     0
  9
$USERR1
 40
0.0
  9
$USERR2
 40
0.0
  9
$USERR3
 40
0.0
  9
$USERR4
 40
0.0
  9
$USERR5
 40
0.0
  9
$WORLDVIEW
 70
     1
  9
$SHADEDGE
 70
     3
  9
$SHADEDIF
 70
    70
  9
$TILEMODE
 70
     1
  9
$MAXACTVP
 70
    64
  9
$PINSBASE
 10
0.0
 20
0.0
 30
0.0
  9
$PLIMCHECK
 70
     0
  9
$PEXTMIN
 10
0.0
 20
0.0
 30
0.0
  9
$PEXTMAX
 10
1682.0
 20
2378.0
 30
0.0
  9
$PLIMMIN
 10
0.0
 20
0.0
  9
$PLIMMAX
 10
1682.0
 20
2378.0
  9
$UNITMODE
 70
     0
  9
$VISRETAIN
 70
     1
  9
$PLINEGEN
 70
     0
  9
$PSLTSCALE
 70
     1
  9
$TREEDEPTH
 70
  3020
  9
$CMLSTYLE
  2
Standard
  9
$CMLJUST
 70
     0
  9
$CMLSCALE
 40
20.0
  9
$PROXYGRAPHICS
 70
     1
  9
$MEASUREMENT
 70
     1
  9
$CELWEIGHT
370
    -1
  9
$ENDCAPS
280
     0
  9
$JOINSTYLE
280
     0
  9
$LWDISPLAY
290
     0
  9
$INSUNITS
 70
     4
  9
$HYPERLINKBASE
  1

  9
$STYLESHEET
  1

  9
$XEDIT
290
     1
  9
$CEPSNTYPE
380
     0
  9
$PSTYLEMODE
290
     1
  9
$FINGERPRINTGUID
  2
{BCD252EE-3052-4DCF-B748-DCA768599A0F}
  9
$VERSIONGUID
  2
{FAEB1C32-E019-11D5-929B-00C0DF256EC4}
  9
$EXTNAMES
290
     1
  9
$PSVPSCALE
 40
0.0
  9
$OLESTARTUP
290
     0
  0
ENDSEC
  0
SECTION
  2
CLASSES
  0
CLASS
  1
ACDBDICTIONARYWDFLT
  2
AcDbDictionaryWithDefault
  3
ObjectDBX Classes
 90
        0
280
     0
281
     0
  0
CLASS
  1
VISUALSTYLE
  2
AcDbVisualStyle
  3
ObjectDBX Classes
 90
     4095
280
     0
281
     0
  0
CLASS
  1
SCALE
  2
AcDbScale
  3
ObjectDBX Classes
 90
     1153
280
     0
281
     0
  0
CLASS
  1
DICTIONARYVAR
  2
AcDbDictionaryVar
  3
ObjectDBX Classes
 90
        0
280
     0
281
     0
  0
CLASS
  1
ACDBPLACEHOLDER
  2
AcDbPlaceHolder
  3
ObjectDBX Classes
 90
        0
280
     0
281
     0
  0
CLASS
  1
LAYOUT
  2
AcDbLayout
  3
ObjectDBX Classes
 90
        0
280
     0
281
     0
  0
ENDSEC
  0
SECTION
  2
TABLES
  0
TABLE
  2
VPORT
  5
8
330
0
100
AcDbSymbolTable
 70
     1
  0
VPORT
  5
29
330
8
100
AcDbSymbolTableRecord
100
AcDbViewportTableRecord
  2
*Active
 70
     0
 10
0.0
 20
0.0
 11
1.0
 21
1.0
 12
344.1869158879
 22
148.5
 13
0.0
 23
0.0
 14
10.0
 24
10.0
 15
10.0
 25
10.0
 16
0.0
 26
0.0
 36
1.0
 17
0.0
 27
0.0
 37
0.0
 40
297.0
 41
1.9729729729
 42
50.0
 43
0.0
 44
0.0
 50
0.0
 51
0.0
 71
     0
 72
   100
 73
     1
 74
     3
 75
     0
 76
     0
 77
     0
 78
     0
281
     0
 65
     1
110
0.0
120
0.0
130
0.0
111
1.0
121
0.0
131
0.0
112
0.0
122
1.0
132
0.0
 79
     0
146
0.0
  0
ENDTAB
  0
TABLE
  2
LTYPE
  5
5
330
0
100
AcDbSymbolTable
 70
     2
  0
LTYPE
  5
14
330
5
100
AcDbSymbolTableRecord
100
AcDbLinetypeTableRecord
  2
ByBlock
 70
     0
  3

 72
    65
 73
     0
 40
0.0
  0
LTYPE
  5
15
330
5
100
AcDbSymbolTableRecord
100
AcDbLinetypeTableRecord
  2
ByLayer
 70
     0
  3

 72
    65
 73
     0
 40
0.0
  0
LTYPE
  5
16
330
5
100
AcDbSymbolTableRecord
100
AcDbLinetypeTableRecord
  2
Continuous
 70
     0
  3
Solid line
 72
    65
 73
     0
 40
0.0
  0
LTYPE
  5
60
330
5
100
AcDbSymbolTableRecord
100
AcDbLinetypeTableRecord
  2
CENTER2
 70
     0
  3
Center (.5x) ___ _ ___ _ ___ _ ___ _ ___ _ ___
 72
    65
 73
     4
 40
28.575
 49
19.05
 74
     4
 75
     0
340
0
 46
0.0
 50
0.0
 44
0.0
 45
0.0
 49
-3.175
 74
     4
 75
     0
340
0
 46
0.0
 50
0.0
 44
0.0
 45
0.0
 49
3.175
 74
     4
 75
     0
340
0
 46
0.0
 50
0.0
 44
0.0
 45
0.0
 49
-3.175
 74
     4
 75
     0
340
0
 46
0.0
 50
0.0
 44
0.0
 45
0.0
  0
ENDTAB
  0
TABLE
  2
LAYER
  5
2
330
0
100
AcDbSymbolTable
 70
    13
  0
LAYER
  5
10
330
2
100
AcDbSymbolTableRecord
100
AcDbLayerTableRecord
  2
0
 70
     0
 62
     7
  6
Continuous
370
    -3
390
F
  0
LAYER
  5
5D
330
2
100
AcDbSymbolTableRecord
100
AcDbLayerTableRecord
  2
Default
 70
     0
 62
     7
  6
Continuous
370
    -3
390
F
  0
LAYER
  5
6B
330
2
100
AcDbSymbolTableRecord
100
AcDbLayerTableRecord
  2
17.02.78_SOCKEL_
 70
     0
 62
     7
  6
Continuous
370
    -3
390
F
  0
LAYER
  5
72
330
2
100
AcDbSymbolTableRecord
100
AcDbLayerTableRecord
  2
18_27_31XX_ANSCH
 70
     0
 62
     7
  6
Continuous
370
    -3
390
F
  0
LAYER
  5
75
330
2
100
AcDbSymbolTableRecord
100
AcDbLayerTableRecord
  2
490037XXX_HEBEL_
 70
     0
 62
     7
  6
Continuous
370
    -3
390
F
  0
LAYER
  5
87
330
2
100
AcDbSymbolTableRecord
100
AcDbLayerTableRecord
  2
490039_GEHÄUSE_E
 70
     0
 62
     7
  6
Continuous
370
    -3
390
F
  0
LAYER
  5
92
330
2
100
AcDbSymbolTableRecord
100
AcDbLayerTableRecord
  2
250911_01124236
 70
     0
 62
     7
  6
Continuous
370
    -3
390
F
  0
LAYER
  5
97
330
2
100
AcDbSymbolTableRecord
100
AcDbLayerTableRecord
  2
490073031_GEWIND
 70
     0
 62
     7
  6
Continuous
370
    -3
390
F
  0
LAYER
  5
99
330
2
100
AcDbSymbolTableRecord
100
AcDbLayerTableRecord
  2
490047031_ANSCHL
 70
     0
 62
     7
  6
Continuous
370
    -3
390
F
  0
LAYER
  5
A4
330
2
100
AcDbSymbolTableRecord
100
AcDbLayerTableRecord
  2
490048031_AUSLAU
 70
     0
 62
     7
  6
Continuous
370
    -3
390
F
  0
LAYER
  5
AA
330
2
100
AcDbSymbolTableRecord
100
AcDbLayerTableRecord
  2
A4225301_NIPPEL_
 70
     0
 62
     7
  6
Continuous
370
    -3
390
F
  0
LAYER
  5
F4
330
2
100
AcDbSymbolTableRecord
100
AcDbLayerTableRecord
  2
A4222392_MOUSSEU
 70
     0
 62
     7
  6
Continuous
370
    -3
390
F
  0
LAYER
  5
103
330
2
100
AcDbSymbolTableRecord
100
AcDbLayerTableRecord
  2
DV2_Standard
 70
     0
 62
     7
  6
Continuous
370
    -3
390
F
  0
ENDTAB
  0
TABLE
  2
STYLE
  5
3
330
0
100
AcDbSymbolTable
 70
     2
  0
STYLE
  5
11
330
3
100
AcDbSymbolTableRecord
100
AcDbTextStyleTableRecord
  2
Standard
 70
     0
 40
0.0
 41
1.0
 50
0.0
 71
     0
 42
2.5
  3
txt
  4

  0
STYLE
  5
149
330
3
100
AcDbSymbolTableRecord
100
AcDbTextStyleTableRecord
  2
SEACAD_seiso_ttf
 70
     0
 40
0.0
 41
1.0
 50
0.0
 71
     0
 42
0.2
  3
seiso.ttf
  4

  0
ENDTAB
  0
TABLE
  2
VIEW
  5
6
330
0
100
AcDbSymbolTable
 70
     0
  0
ENDTAB
  0
TABLE
  2
UCS
  5
7
330
0
100
AcDbSymbolTable
 70
     0
  0
ENDTAB
  0
TABLE
  2
APPID
  5
9
330
0
100
AcDbSymbolTable
 70
     1
  0
APPID
  5
12
330
9
100
AcDbSymbolTableRecord
100
AcDbRegAppTableRecord
  2
ACAD
 70
     0
  0
ENDTAB
  0
TABLE
  2
DIMSTYLE
  5
A
330
0
100
AcDbSymbolTable
 70
     1
100
AcDbDimStyleTable
  0
DIMSTYLE
105
27
330
A
100
AcDbSymbolTableRecord
100
AcDbDimStyleTableRecord
  2
ISO-25
 70
     0
 41
2.5
 42
0.625
 43
3.75
 44
1.25
 73
     0
 74
     0
 77
     1
 78
     8
140
2.5
141
2.5
143
0.0393700787
147
0.625
171
     3
172
     1
271
     2
272
     2
274
     3
278
    44
283
     0
284
     8
340
11
  0
ENDTAB
  0
TABLE
  2
BLOCK_RECORD
  5
1
330
0
100
AcDbSymbolTable
 70
     6
  0
BLOCK_RECORD
  5
1F
330
1
100
AcDbSymbolTableRecord
100
AcDbBlockTableRecord
  2
*Model_Space
340
22
  0
BLOCK_RECORD
  5
1B
330
1
100
AcDbSymbolTableRecord
100
AcDbBlockTableRecord
  2
*Paper_Space
340
1E
  0
BLOCK_RECORD
  5
5E
330
1
100
AcDbSymbolTableRecord
100
AcDbBlockTableRecord
  2
SEANNOT_GROUP
340
0
102
{BLKREFS
331
5F
102
}
  0
BLOCK_RECORD
  5
64
330
1
100
AcDbSymbolTableRecord
100
AcDbBlockTableRecord
  2
SEANNOT_GROUP1
340
0
102
{BLKREFS
331
65
102
}
  0
BLOCK_RECORD
  5
69
330
1
100
AcDbSymbolTableRecord
100
AcDbBlockTableRecord
  2
SE
340
0
102
{BLKREFS
331
6A
102
}
  0
BLOCK_RECORD
  5
AE
330
1
100
AcDbSymbolTableRecord
100
AcDbBlockTableRecord
  2
SE1
340
0
102
{BLKREFS
331
AF
102
}
  0
BLOCK_RECORD
  5
109
330
1
100
AcDbSymbolTableRecord
100
AcDbBlockTableRecord
  2
SE2
340
0
102
{BLKREFS
331
10A
102
}
  0
ENDTAB
  0
ENDSEC
  0
SECTION
  2
BLOCKS
  0
BLOCK
  5
20
330
1F
100
AcDbEntity
  8
0
100
AcDbBlockBegin
  2
*Model_Space
 70
     0
 10
0.0
 20
0.0
 30
0.0
  3
*Model_Space
  1

  0
ENDBLK
  5
21
330
1F
100
AcDbEntity
  8
0
100
AcDbBlockEnd
  0
BLOCK
  5
1C
330
1B
100
AcDbEntity
 67
     1
  8
0
100
AcDbBlockBegin
  2
*Paper_Space
 70
     0
 10
0.0
 20
0.0
 30
0.0
  3
*Paper_Space
  1

  0
ENDBLK
  5
1D
330
1B
100
AcDbEntity
 67
     1
  8
0
100
AcDbBlockEnd
  0
BLOCK
  5
62
330
5E
100
AcDbEntity
  8
0
100
AcDbBlockBegin
  2
SEANNOT_GROUP
 70
     0
 10
0.0
 20
0.0
 30
0.0
  3
SEANNOT_GROUP
  1

  0
LINE
  5
61
330
5E
100
AcDbEntity
  8
Default
  6
CENTER2
 62
     7
100
AcDbLine
 10
37.4194989881
 20
401.0666374102
 30
0.0
 11
37.4194989881
 21
664.5666374102
 31
0.0
  0
ENDBLK
  5
63
330
5E
100
AcDbEntity
  8
0
100
AcDbBlockEnd
  0
BLOCK
  5
67
330
64
100
AcDbEntity
  8
0
100
AcDbBlockBegin
  2
SEANNOT_GROUP1
 70
     0
 10
0.0
 20
0.0
 30
0.0
  3
SEANNOT_GROUP1
  1

  0
LINE
  5
66
330
64
100
AcDbEntity
  8
Default
  6
CENTER2
 62
     7
100
AcDbLine
 10
37.4193167571
 20
302.712974088
 30
0.0
 11
37.4195022362
 21
102.85
 31
0.0
  0
ENDBLK
  5
68
330
64
100
AcDbEntity
  8
0
100
AcDbBlockEnd
  0
BLOCK
  5
AC
330
69
100
AcDbEntity
  8
0
100
AcDbBlockBegin
  2
SE
 70
     0
 10
0.0
 20
0.0
 30
0.0
  3
SE
  1

  0
LINE
  5
6C
330
69
100
AcDbEntity
  8
17.02.78_SOCKEL_
  6
Continuous
 62
     7
100
AcDbLine
 10
63.4194989881
 20
448.5666374102
 30
0.0
 11
11.4194989881
 21
448.5666374102
 31
0.0
  0
LINE
  5
6D
330
69
100
AcDbEntity
  8
17.02.78_SOCKEL_
  6
Continuous
 62
     7
100
AcDbLine
 10
63.4194989881
 20
404.5666374102
 30
0.0
 11
11.4194989881
 21
404.5666374102
 31
0.0
  0
CIRCLE
  5
6E
330
69
100
AcDbEntity
  8
17.02.78_SOCKEL_
  6
Continuous
 62
     7
100
AcDbCircle
 10
37.4194989881
 20
419.5666374102
 30
0.0
 40
5.250000000000001
  0
CIRCLE
  5
6F
330
69
100
AcDbEntity
  8
17.02.78_SOCKEL_
  6
Continuous
 62
     7
100
AcDbCircle
 10
37.4194989881
 20
436.5666374102
 30
0.0
 40
5.250000000000002
  0
LINE
  5
70
330
69
100
AcDbEntity
  8
17.02.78_SOCKEL_
  6
Continuous
 62
     7
100
AcDbLine
 10
63.4194989881
 20
404.5666374102
 30
0.0
 11
63.4194989881
 21
448.5666374102
 31
0.0
  0
LINE
  5
71
330
69
100
AcDbEntity
  8
17.02.78_SOCKEL_
  6
Continuous
 62
     7
100
AcDbLine
 10
11.4194989881
 20
448.5666374102
 30
0.0
 11
11.4194989881
 21
404.5666374102
 31
0.0
  0
LINE
  5
73
330
69
100
AcDbEntity
  8
18_27_31XX_ANSCH
  6
Continuous
 62
     7
100
AcDbLine
 10
64.4244989881
 20
446.5666374102
 30
0.0
 11
63.4194989881
 21
446.5666374102
 31
0.0
  0
LINE
  5
74
330
69
100
AcDbEntity
  8
18_27_31XX_ANSCH
  6
Continuous
 62
     7
100
AcDbLine
 10
63.4194989881
 20
434.5666374102
 30
0.0
 11
64.4244989881
 21
434.5666374102
 31
0.0
  0
LINE
  5
76
330
69
100
AcDbEntity
  8
490037XXX_HEBEL_
  6
Continuous
 62
     7
100
AcDbLine
 10
82.7744989881
 20
447.9151416226
 30
0.0
 11
82.7744989881
 21
433.0666374102
 31
0.0
  0
LINE
  5
77
330
69
100
AcDbEntity
  8
490037XXX_HEBEL_
  6
Continuous
 62
     7
100
AcDbLine
 10
82.2744989881
 20
468.0666374102
 30
0.0
 11
82.2744989881
 21
468.0667135626
 31
0.0
  0
LINE
  5
78
330
69
100
AcDbEntity
  8
490037XXX_HEBEL_
  6
Continuous
 62
     7
100
AcDbLine
 10
82.7744989881
 20
468.0666374102
 30
0.0
 11
82.7744989881
 21
447.9151416226
 31
0.0
  0
LINE
  5
79
330
69
100
AcDbEntity
  8
490037XXX_HEBEL_
  6
Continuous
 62
     7
100
AcDbLine
 10
71.7657727849
 20
468.383206912
 30
0.0
 11
82.2744989881
 21
468.5666374102
 31
0.0
  0
ARC
  5
7A
330
69
100
AcDbEntity
  8
490037XXX_HEBEL_
  6
Continuous
 62
     7
100
AcDbCircle
 10
71.7744989881
 20
467.8832830644
 30
0.0
 40
0.5000000000000059
100
AcDbArc
 50
91.0
 51
180.0
  0
SPLINE
  5
7B
330
69
100
AcDbEntity
  8
490037XXX_HEBEL_
  6
Continuous
 62
     7
100
AcDbSpline
210
0.0
220
0.0
230
1.0
 70
     8
 71
     3
 72
    10
 73
     6
 74
     0
 42
0.0000000198561363
 43
0.0000000001
 40
0.0
 40
0.0
 40
0.0
 40
0.0
 40
0.5
 40
0.5
 40
1.0
 40
1.0
 40
1.0
 40
1.0
 10
82.2744989880812
 20
468.5666374101729
 30
0.0
 10
82.27075954541557
 20
468.5665721379583
 30
0.0
 10
82.27213502073641
 20
468.512278783518
 30
0.0
 10
82.27315608730429
 20
468.3278471456006
 30
0.0
 10
82.2740379311605
 20
468.198744144531
 30
0.0
 10
82.27449898808119
 20
468.0667135625947
 30
0.0
  0
ARC
  5
7C
330
69
100
AcDbEntity
  8
490037XXX_HEBEL_
  6
Continuous
 62
     7
100
AcDbCircle
 10
82.2744989881
 20
468.0666374102
 30
0.0
 40
0.5000000000000004
100
AcDbArc
 50
0.0
 51
90.0
  0
LINE
  5
7D
330
69
100
AcDbEntity
  8
490037XXX_HEBEL_
  6
Continuous
 62
     7
100
AcDbLine
 10
64.4244989881
 20
433.3694827867
 30
0.0
 11
64.4244989881
 21
447.7637920337
 31
0.0
  0
LINE
  5
7E
330
69
100
AcDbEntity
  8
490037XXX_HEBEL_
  6
Continuous
 62
     7
100
AcDbLine
 10
71.2744989881
 20
448.7609525926
 30
0.0
 11
71.2744989881
 21
467.8832830644
 31
0.0
  0
ARC
  5
7F
330
69
100
AcDbEntity
  8
490037XXX_HEBEL_
  6
Continuous
 62
     7
100
AcDbCircle
 10
74.1402167427
 20
425.0136155775
 30
0.0
 40
7.86272992617991
100
AcDbArc
 50
77.1009647544
 51
100.89882253
  0
LINE
  5
80
330
69
100
AcDbEntity
  8
490037XXX_HEBEL_
  6
Continuous
 62
     7
100
AcDbLine
 10
70.7832251913
 20
448.366132644
 30
0.0
 11
64.9157727849
 21
448.2637158812
 31
0.0
  0
LINE
  5
81
330
69
100
AcDbEntity
  8
490037XXX_HEBEL_
  6
Continuous
 62
     7
100
AcDbLine
 10
75.8824102751
 20
432.6781355697
 30
0.0
 11
82.2657727849
 21
432.5667135626
 31
0.0
  0
LINE
  5
82
330
69
100
AcDbEntity
  8
490037XXX_HEBEL_
  6
Continuous
 62
     7
100
AcDbLine
 10
64.9157727849
 20
432.8695589391
 30
0.0
 11
72.6681860294
 21
432.7342400626
 31
0.0
  0
ARC
  5
83
330
69
100
AcDbEntity
  8
490037XXX_HEBEL_
  6
Continuous
 62
     7
100
AcDbCircle
 10
82.2744989881
 20
433.0666374102
 30
0.0
 40
0.4999999999999987
100
AcDbArc
 50
269.0
 51
0.0
  0
ARC
  5
84
330
69
100
AcDbEntity
  8
490037XXX_HEBEL_
  6
Continuous
 62
     7
100
AcDbCircle
 10
64.9244989881
 20
433.3694827867
 30
0.0
 40
0.5000000000000004
100
AcDbArc
 50
180.0
 51
269.0
  0
ARC
  5
85
330
69
100
AcDbEntity
  8
490037XXX_HEBEL_
  6
Continuous
 62
     7
100
AcDbCircle
 10
64.9244989881
 20
447.7637920337
 30
0.0
 40
0.5000000000000064
100
AcDbArc
 50
91.0
 51
180.0
  0
ARC
  5
86
330
69
100
AcDbEntity
  8
490037XXX_HEBEL_
  6
Continuous
 62
     7
100
AcDbCircle
 10
70.7744989881
 20
448.8660564915
 30
0.0
 40
0.5000000000000004
100
AcDbArc
 50
271.0
 51
0.0
  0
LINE
  5
88
330
69
100
AcDbEntity
  8
490039_GEHÄUSE_E
  6
Continuous
 62
     7
100
AcDbLine
 10
11.6194854035
 20
448.5666374102
 30
0.0
 11
37.4194957016
 21
448.5666374102
 31
0.0
  0
LINE
  5
89
330
69
100
AcDbEntity
  8
490039_GEHÄUSE_E
  6
Continuous
 62
     7
100
AcDbLine
 10
63.2195042302
 20
448.5666374102
 30
0.0
 11
37.4194957016
 21
448.5666374102
 31
0.0
  0
LINE
  5
8A
330
69
100
AcDbEntity
  8
490039_GEHÄUSE_E
  6
Continuous
 62
     7
100
AcDbLine
 10
63.2195060208
 20
549.0666374102
 30
0.0
 11
37.4194957102
 21
549.0666374102
 31
0.0
  0
LINE
  5
8B
330
69
100
AcDbEntity
  8
490039_GEHÄUSE_E
  6
Continuous
 62
     7
100
AcDbLine
 10
11.6194871941
 20
549.0666374102
 30
0.0
 11
37.4194957102
 21
549.0666374102
 31
0.0
  0
ARC
  5
8C
330
69
100
AcDbEntity
  8
490039_GEHÄUSE_E
  6
Continuous
 62
     7
100
AcDbCircle
 10
11.6194853635
 20
448.7666374501
 30
0.0
 40
0.2000000399334535
100
AcDbArc
 50
180.0000114401
 51
270.0000114517
  0
ARC
  5
8D
330
69
100
AcDbEntity
  8
490039_GEHÄUSE_E
  6
Continuous
 62
     7
100
AcDbCircle
 10
63.2195042633
 20
448.7666374433
 30
0.0
 40
0.2000000331026278
100
AcDbArc
 50
269.9999904949
 51
359.9999905168
  0
LINE
  5
8E
330
69
100
AcDbEntity
  8
490039_GEHÄUSE_E
  6
Continuous
 62
     7
100
AcDbLine
 10
63.4194987308
 20
448.7666374102
 30
0.0
 11
63.4194987308
 21
548.8666374102
 31
0.0
  0
LINE
  5
8F
330
69
100
AcDbEntity
  8
490039_GEHÄUSE_E
  6
Continuous
 62
     7
100
AcDbLine
 10
11.4194926935
 20
548.8691374102
 30
0.0
 11
11.4194926935
 21
448.7641374102
 31
0.0
  0
ARC
  5
90
330
69
100
AcDbEntity
  8
490039_GEHÄUSE_E
  6
Continuous
 62
     7
100
AcDbCircle
 10
63.2195060608
 20
548.8666373702
 30
0.0
 40
0.2000000399347951
100
AcDbArc
 50
0.0000114405
 51
90.0000114527
  0
ARC
  5
91
330
69
100
AcDbEntity
  8
490039_GEHÄUSE_E
  6
Continuous
 62
     7
100
AcDbCircle
 10
11.6194871609
 20
548.8666373771
 30
0.0
 40
0.2000000331018932
100
AcDbArc
 50
89.9999904946
 51
179.999990517
  0
CIRCLE
  5
93
330
69
100
AcDbEntity
  8
250911_01124236
  6
Continuous
 62
     7
100
AcDbCircle
 10
37.4194917317
 20
419.5666403054
 30
0.0
 40
5.150011888542254
  0
CIRCLE
  5
94
330
69
100
AcDbEntity
  8
250911_01124236
  6
Continuous
 62
     7
100
AcDbCircle
 10
37.4194958517
 20
436.5666466129
 30
0.0
 40
5.150016930041928
  0
ARC
  5
95
330
69
100
AcDbEntity
  8
250911_01124236
  6
Continuous
 62
     7
100
AcDbCircle
 10
37.4194189077
 20
419.5666206373
 30
0.0
 40
5.125051764656569
100
AcDbArc
 50
352.0830853702
 51
352.8392735497
  0
ARC
  5
96
330
69
100
AcDbEntity
  8
250911_01124236
  6
Continuous
 62
     7
100
AcDbCircle
 10
37.4194189077
 20
436.5666206373
 30
0.0
 40
5.125051764656579
100
AcDbArc
 50
352.0830855337
 51
352.8392735497
  0
LINE
  5
98
330
69
100
AcDbEntity
  8
490073031_GEWIND
  6
Continuous
 62
     7
100
AcDbLine
 10
41.4194989881
 20
404.5666374102
 30
0.0
 11
33.4194989881
 21
404.5666374102
 31
0.0
  0
LINE
  5
9A
330
69
100
AcDbEntity
  8
490047031_ANSCHL
  6
Continuous
 62
     7
100
AcDbLine
 10
48.9194989881
 20
556.9166374102
 30
0.0
 11
25.9194989881
 21
556.9166374102
 31
0.0
  0
LINE
  5
9B
330
69
100
AcDbEntity
  8
490047031_ANSCHL
  6
Continuous
 62
     7
100
AcDbLine
 10
22.9194989881
 20
556.5666374102
 30
0.0
 11
51.9194989881
 21
556.5666374102
 31
0.0
  0
LINE
  5
9C
330
69
100
AcDbEntity
  8
490047031_ANSCHL
  6
Continuous
 62
     7
100
AcDbLine
 10
22.4194989881
 20
556.0666374102
 30
0.0
 11
22.4194989881
 21
549.0666374102
 31
0.0
  0
LINE
  5
9D
330
69
100
AcDbEntity
  8
490047031_ANSCHL
  6
Continuous
 62
     7
100
AcDbLine
 10
52.4194989881
 20
549.0666374102
 30
0.0
 11
52.4194989881
 21
556.0666374102
 31
0.0
  0
LINE
  5
9E
330
69
100
AcDbEntity
  8
490047031_ANSCHL
  6
Continuous
 62
     7
100
AcDbLine
 10
25.9194989881
 20
556.9166374102
 30
0.0
 11
25.9194989881
 21
556.5666374102
 31
0.0
  0
LINE
  5
9F
330
69
100
AcDbEntity
  8
490047031_ANSCHL
  6
Continuous
 62
     7
100
AcDbLine
 10
48.9194989881
 20
556.5666374102
 30
0.0
 11
48.9194989881
 21
556.9166374102
 31
0.0
  0
LINE
  5
A0
330
69
100
AcDbEntity
  8
490047031_ANSCHL
  6
Continuous
 62
     7
100
AcDbLine
 10
48.9194989881
 20
556.9166374102
 30
0.0
 11
48.2694989881
 21
557.5666374102
 31
0.0
  0
LINE
  5
A1
330
69
100
AcDbEntity
  8
490047031_ANSCHL
  6
Continuous
 62
     7
100
AcDbLine
 10
26.5694989881
 20
557.5666374102
 30
0.0
 11
25.9194989881
 21
556.9166374102
 31
0.0
  0
ARC
  5
A2
330
69
100
AcDbEntity
  8
490047031_ANSCHL
  6
Continuous
 62
     7
100
AcDbCircle
 10
22.9194989881
 20
556.0666374102
 30
0.0
 40
0.5000000000000004
100
AcDbArc
 50
90.0
 51
180.0
  0
ARC
  5
A3
330
69
100
AcDbEntity
  8
490047031_ANSCHL
  6
Continuous
 62
     7
100
AcDbCircle
 10
51.9194989881
 20
556.0666374102
 30
0.0
 40
0.5000000000000004
100
AcDbArc
 50
0.0
 51
90.0
  0
LINE
  5
A5
330
69
100
AcDbEntity
  8
490048031_AUSLAU
  6
Continuous
 62
     7
100
AcDbLine
 10
25.9194989881
 20
557.5666374102
 30
0.0
 11
48.9194989881
 21
557.5666374102
 31
0.0
  0
LINE
  5
A6
330
69
100
AcDbEntity
  8
490048031_AUSLAU
  6
Continuous
 62
     7
100
AcDbLine
 10
25.9194989881
 20
607.5666374102
 30
0.0
 11
25.9194989881
 21
557.5666374102
 31
0.0
  0
LINE
  5
A7
330
69
100
AcDbEntity
  8
490048031_AUSLAU
  6
Continuous
 62
     7
100
AcDbLine
 10
48.9194989881
 20
557.5666374102
 30
0.0
 11
48.9194989881
 21
607.5666374102
 31
0.0
  0
LINE
  5
A8
330
69
100
AcDbEntity
  8
490048031_AUSLAU
  6
Continuous
 62
     7
100
AcDbLine
 10
25.9194989881
 20
649.5666374102
 30
0.0
 11
25.9194989881
 21
607.5666374102
 31
0.0
  0
LINE
  5
A9
330
69
100
AcDbEntity
  8
490048031_AUSLAU
  6
Continuous
 62
     7
100
AcDbLine
 10
48.9194989881
 20
607.5666374102
 30
0.0
 11
48.9194989881
 21
649.5666374102
 31
0.0
  0
CIRCLE
  5
AB
330
69
100
AcDbEntity
  8
A4225301_NIPPEL_
  6
Continuous
 62
     7
100
AcDbCircle
 10
37.4194989881
 20
649.5666374102
 30
0.0
 40
11.5
  0
ENDBLK
  5
AD
330
69
100
AcDbEntity
  8
0
100
AcDbBlockEnd
  0
BLOCK
  5
107
330
AE
100
AcDbEntity
  8
0
100
AcDbBlockBegin
  2
SE1
 70
     0
 10
0.0
 20
0.0
 30
0.0
  3
SE1
  1

  0
LINE
  5
B0
330
AE
100
AcDbEntity
  8
17.02.78_SOCKEL_
  6
Continuous
 62
     7
100
AcDbLine
 10
202.6544920873
 20
448.5666374102
 30
0.0
 11
150.6544920873
 21
448.5666374102
 31
0.0
  0
LINE
  5
B1
330
AE
100
AcDbEntity
  8
17.02.78_SOCKEL_
  6
Continuous
 62
     7
100
AcDbLine
 10
202.6544920873
 20
404.5666374102
 30
0.0
 11
150.6544920873
 21
404.5666374102
 31
0.0
  0
ARC
  5
B2
330
AE
100
AcDbEntity
  8
17.02.78_SOCKEL_
  6
Continuous
 62
     7
100
AcDbCircle
 10
228.1378272137
 20
419.5666374145
 30
0.0
 40
26.01851012491474
100
AcDbArc
 50
168.3589657542
 51
191.6410332921
  0
ARC
  5
B3
330
AE
100
AcDbEntity
  8
17.02.78_SOCKEL_
  6
Continuous
 62
     7
100
AcDbCircle
 10
228.1378272137
 20
436.5666374145
 30
0.0
 40
26.01851012491487
100
AcDbArc
 50
168.3589657542
 51
191.6410332921
  0
SPLINE
  5
B4
330
AE
100
AcDbEntity
  8
17.02.78_SOCKEL_
  6
Continuous
 62
     7
100
AcDbSpline
210
0.0
220
0.0
230
1.0
 70
    11
 71
     3
 72
    38
 73
    34
 74
     0
 42
0.0000000003921509
 43
0.0000000001
 40
0.0
 40
0.0
 40
0.0
 40
0.0
 40
0.1249999999999997
 40
0.1249999999999997
 40
0.2499999999999994
 40
0.2499999999999994
 40
0.3124999999999994
 40
0.3124999999999994
 40
0.3437499999999996
 40
0.3437499999999996
 40
0.3749999999999998
 40
0.3749999999999998
 40
0.4062499999999999
 40
0.4062499999999999
 40
0.4375000000000001
 40
0.4375000000000001
 40
0.5
 40
0.5
 40
0.6250000000000001
 40
0.6250000000000001
 40
0.7500000000000003
 40
0.7500000000000003
 40
0.8125000000000002
 40
0.8125000000000002
 40
0.8437500000000001
 40
0.8437500000000001
 40
0.875
 40
0.875
 40
0.90625
 40
0.90625
 40
0.9374999999999999
 40
0.9374999999999999
 40
1.0
 40
1.0
 40
1.0
 40
1.0
 10
159.815912407202
 20
425.1827170340027
 30
0.0
 10
159.3471323728623
 20
426.1202771026819
 30
0.0
 10
159.0640341376323
 20
427.1753005385918
 30
0.0
 10
158.7120774003201
 20
429.3376925446634
 30
0.0
 10
158.6451604338406
 20
430.4453865260112
 30
0.0
 10
158.7657761463011
 20
432.1104745476399
 30
0.0
 10
158.8421804339566
 20
432.6605354610449
 30
0.0
 10
159.0665504587966
 20
433.4433683932702
 30
0.0
 10
159.1606785562428
 20
433.6971521142118
 30
0.0
 10
159.4072271438479
 20
434.144077720852
 30
0.0
 10
159.5646372879544
 20
434.3435031008567
 30
0.0
 10
159.9572778633156
 20
434.5686085651861
 30
0.0
 10
160.1853476048804
 20
434.576919146714
 30
0.0
 10
160.6086017071351
 20
434.4161485166455
 30
0.0
 10
160.7998203171947
 20
434.2631848901526
 30
0.0
 10
161.3152336366523
 20
433.727523021415
 30
0.0
 10
161.5890102277489
 20
433.2686120689951
 30
0.0
 10
162.2949316948071
 20
431.8427042561244
 30
0.0
 10
162.6246481680841
 20
430.7818451032814
 30
0.0
 10
163.0749458325959
 20
428.6429178263087
 30
0.0
 10
163.2036608899442
 20
427.5308167959124
 30
0.0
 10
163.1219717043417
 20
425.8654014293583
 30
0.0
 10
163.0490510439104
 20
425.3071732949582
 30
0.0
 10
162.7927050161132
 20
424.5241998969548
 30
0.0
 10
162.682880173469
 20
424.2745092261761
 30
0.0
 10
162.3810503665401
 20
423.8373466381627
 30
0.0
 10
162.1885101312636
 20
423.658728150981
 30
0.0
 10
161.7471889594811
 20
423.4807610016307
 30
0.0
 10
161.5049742043918
 20
423.4879938132399
 30
0.0
 10
161.0689264353018
 20
423.639417166876
 30
0.0
 10
160.8682843196322
 20
423.7778432343027
 30
0.0
 10
160.3325862509325
 20
424.273904823438
 30
0.0
 10
160.0503024243718
 20
424.7139369996631
 30
0.0
 10
159.815912407202
 20
425.1827170340027
 30
0.0
  0
LINE
  5
B5
330
AE
100
AcDbEntity
  8
17.02.78_SOCKEL_
  6
Continuous
 62
     7
100
AcDbLine
 10
202.6544920873
 20
441.8166374102
 30
0.0
 11
202.6544920873
 21
448.5666374102
 31
0.0
  0
LINE
  5
B6
330
AE
100
AcDbEntity
  8
17.02.78_SOCKEL_
  6
Continuous
 62
     7
100
AcDbLine
 10
202.6544920873
 20
424.8166374102
 30
0.0
 11
202.6544920873
 21
431.3295987507
 31
0.0
  0
LINE
  5
B7
330
AE
100
AcDbEntity
  8
17.02.78_SOCKEL_
  6
Continuous
 62
     7
100
AcDbLine
 10
202.6544920873
 20
404.5666374102
 30
0.0
 11
202.6544920873
 21
414.3295987507
 31
0.0
  0
LINE
  5
B8
330
AE
100
AcDbEntity
  8
17.02.78_SOCKEL_
  6
Continuous
 62
     7
100
AcDbLine
 10
150.6544920873
 20
448.5666374102
 30
0.0
 11
150.6544920873
 21
404.5666374102
 31
0.0
  0
LINE
  5
B9
330
AE
100
AcDbEntity
  8
490039_GEHÄUSE_E
  6
Continuous
 62
     7
100
AcDbLine
 10
202.623161217
 20
448.7666374102
 30
0.0
 11
202.6544973294
 21
448.7666374102
 31
0.0
  0
ARC
  5
BA
330
AE
100
AcDbEntity
  8
490039_GEHÄUSE_E
  6
Continuous
 62
     7
100
AcDbCircle
 10
150.8544868452
 20
448.7666328823
 30
0.0
 40
0.1999955532625496
100
AcDbArc
 50
226.8095244369
 51
270.0
  0
LINE
  5
BB
330
AE
100
AcDbEntity
  8
490039_GEHÄUSE_E
  6
Continuous
 62
     7
100
AcDbLine
 10
154.2252188034
 20
448.5666374102
 30
0.0
 11
199.9328876244
 21
448.5666374102
 31
0.0
  0
SPLINE
  5
BC
330
AE
100
AcDbEntity
  8
490039_GEHÄUSE_E
  6
Continuous
 62
     7
100
AcDbSpline
210
0.0
220
0.0
230
1.0
 70
    12
 71
     2
 72
     6
 73
     3
 74
     0
 42
0.0000000300980511
 43
0.0000000001
 40
0.0
 40
0.0
 40
0.0
 40
0.507688638335912
 40
0.507688638335912
 40
0.507688638335912
 10
202.45449732942
 20
448.5666374101729
 30
0.0
 41
1.0
 10
202.538836451092
 20
448.5666374101729
 30
0.0
 41
0.851301440523338
 10
202.5977086980569
 20
448.6270290154048
 30
0.0
 41
0.8535880194131122
  0
SPLINE
  5
BD
330
AE
100
AcDbEntity
  8
490039_GEHÄUSE_E
  6
Continuous
 62
     7
100
AcDbSpline
210
0.0
220
0.0
230
1.0
 70
    12
 71
     5
 72
    12
 73
     6
 74
     0
 42
0.0000000054500169
 43
0.0000000001
 40
0.0
 40
0.0
 40
0.0
 40
0.0
 40
0.0
 40
0.0
 40
1.0
 40
1.0
 40
1.0
 40
1.0
 40
1.0
 40
1.0
 10
149.6639354035594
 20
472.5526444283224
 30
0.0
 41
1.0
 10
150.0255505507774
 20
472.455053616909
 30
0.0
 41
1.0
 10
150.3979834246029
 20
472.3975470595112
 30
0.0
 41
1.0
 10
150.6544973393781
 20
472.1295660232142
 30
0.0
 41
1.0
 10
150.654497331404
 20
471.7733183690397
 30
0.0
 41
1.0
 10
150.6544943110949
 20
471.4170707182647
 30
0.0
 41
1.0
  0
SPLINE
  5
BE
330
AE
100
AcDbEntity
  8
490039_GEHÄUSE_E
  6
Continuous
 62
     7
100
AcDbSpline
210
0.0
220
0.0
230
1.0
 70
    12
 71
     5
 72
    12
 73
     6
 74
     0
 42
0.0000000054523048
 43
0.0000000001
 40
0.0
 40
0.0
 40
0.0
 40
0.0
 40
0.0
 40
0.0
 40
1.0
 40
1.0
 40
1.0
 40
1.0
 40
1.0
 40
1.0
 10
150.654654925546
 20
544.0666205148478
 30
0.0
 41
1.0
 10
150.6547214992574
 20
543.7104443567154
 30
0.0
 41
1.0
 10
150.65471013103
 20
543.3542682002723
 30
0.0
 41
1.0
 10
150.3975325192605
 20
543.0876283664882
 30
0.0
 41
1.0
 10
150.0251245106373
 20
543.0303277365529
 30
0.0
 41
1.0
 10
149.6636461961378
 20
542.9324750325972
 30
0.0
 41
1.0
  0
LINE
  5
BF
330
AE
100
AcDbEntity
  8
490039_GEHÄUSE_E
  6
Continuous
 62
     7
100
AcDbLine
 10
150.654491292
 20
544.066637367
 30
0.0
 11
150.6544922702
 21
544.0666205148
 31
0.0
  0
LINE
  5
C0
330
AE
100
AcDbEntity
  8
490039_GEHÄUSE_E
  6
Continuous
 62
     7
100
AcDbLine
 10
150.654491292
 20
548.8666374102
 30
0.0
 11
150.654493707
 21
544.066637367
 31
0.0
  0
LINE
  5
C1
330
AE
100
AcDbEntity
  8
490039_GEHÄUSE_E
  6
Continuous
 62
     7
100
AcDbLine
 10
202.6544973294
 20
448.7666374102
 30
0.0
 11
202.6544973294
 21
548.8666374102
 31
0.0
  0
LINE
  5
C2
330
AE
100
AcDbEntity
  8
490039_GEHÄUSE_E
  6
Continuous
 62
     7
100
AcDbLine
 10
150.6544943111
 20
471.4170707183
 30
0.0
 11
150.654491292
 21
448.7666374102
 31
0.0
  0
LINE
  5
C3
330
AE
100
AcDbEntity
  8
490039_GEHÄUSE_E
  6
Continuous
 62
     7
100
AcDbLine
 10
202.4544973294
 20
549.0666374102
 30
0.0
 11
150.8544868452
 21
549.0666374102
 31
0.0
  0
ARC
  5
C4
330
AE
100
AcDbEntity
  8
490039_GEHÄUSE_E
  6
Continuous
 62
     7
100
AcDbCircle
 10
150.8544868452
 20
548.8666419381
 30
0.0
 40
0.1999954720416919
100
AcDbArc
 50
89.9999999997
 51
135.77294054
  0
SPLINE
  5
C5
330
AE
100
AcDbEntity
  8
490039_GEHÄUSE_E
  6
Continuous
 62
     7
100
AcDbSpline
210
0.0
220
0.0
230
1.0
 70
    12
 71
     2
 72
     6
 73
     3
 74
     0
 42
0.0000000303773378
 43
0.0000000001
 40
0.5192816763878573
 40
0.5192816763878573
 40
0.5192816763878573
 40
1.0
 40
1.0
 40
1.0
 10
202.5913297109715
 20
549.0125034423987
 30
0.0
 41
0.8537711760583484
 10
202.5336218278143
 20
549.0666374101728
 30
0.0
 41
0.8592008628546026
 10
202.45449732942
 20
549.0666374101729
 30
0.0
 41
1.0
  0
SPLINE
  5
C6
330
AE
100
AcDbEntity
  8
490039_GEHÄUSE_E
  6
Continuous
 62
     7
100
AcDbSpline
210
0.0
220
0.0
230
1.0
 70
     8
 71
     3
 72
     8
 73
     4
 74
     0
 42
0.0000000687746299
 43
0.0000000001
 40
0.3016859730879137
 40
0.3016859730879137
 40
0.3016859730879137
 40
0.3016859730879137
 40
1.0
 40
1.0
 40
1.0
 40
1.0
 10
150.6747036492492
 20
448.7140602902575
 30
0.0
 10
150.6736513665996
 20
448.6851895315817
 30
0.0
 10
150.6864405504656
 20
448.6555728631214
 30
0.0
 10
150.7130712008473
 20
448.6252102848769
 30
0.0
  0
SPLINE
  5
C7
330
AE
100
AcDbEntity
  8
490039_GEHÄUSE_E
  6
Continuous
 62
     7
100
AcDbSpline
210
0.0
220
0.0
230
1.0
 70
     8
 71
     3
 72
     8
 73
     4
 74
     0
 42
0.0000000592439696
 43
0.0000000001
 40
0.0
 40
0.0
 40
0.0
 40
0.0
 40
0.0846403480812112
 40
0.0846403480812112
 40
0.0846403480812112
 40
0.0846403480812112
 10
202.5957992646247
 20
448.6250967336676
 30
0.0
 10
202.5990342354962
 20
448.6287784407991
 30
0.0
 10
202.602065510408
 20
448.6324493175015
 30
0.0
 10
202.6048930893601
 20
448.6361093637751
 30
0.0
  0
SPLINE
  5
C8
330
AE
100
AcDbEntity
  8
490039_GEHÄUSE_E
  6
Continuous
 62
     7
100
AcDbSpline
210
0.0
220
0.0
230
1.0
 70
     8
 71
     3
 72
    27
 73
    23
 74
     0
 42
0.0000000002686183
 43
0.0000000001
 40
0.0
 40
0.0
 40
0.0
 40
0.0
 40
0.1045288144200616
 40
0.2025884089781912
 40
0.2881576075369265
 40
0.3612696054097904
 40
0.4218113838020232
 40
0.4709321771347378
 40
0.5134225571051038
 40
0.549822993416945
 40
0.5834507991044643
 40
0.626409609852642
 40
0.6780442119312763
 40
0.7284567282209504
 40
0.7605426132227682
 40
0.79203161076932
 40
0.8309180153273164
 40
0.8664092392436007
 40
0.907280389709149
 40
0.9542399711569087
 40
0.9796425544351307
 40
1.0
 40
1.0
 40
1.0
 40
1.0
 10
143.7844581495677
 20
507.5666374186807
 30
0.0
 10
143.7844277063495
 20
506.1415688694784
 30
0.0
 10
143.7843067628778
 20
503.8168536844023
 30
0.0
 10
143.7849125423743
 20
500.1761268173699
 30
0.0
 10
143.7843116574236
 20
497.0095832141521
 30
0.0
 10
143.7827477004823
 20
494.2892853986423
 30
0.0
 10
143.7880606248401
 20
492.0246724712915
 30
0.0
 10
143.7883194540856
 20
490.1387640505126
 30
0.0
 10
143.7768622267577
 20
488.5522701026907
 30
0.0
 10
143.7696442153017
 20
487.1577330471988
 30
0.0
 10
143.7777439537808
 20
485.7573690756234
 30
0.0
 10
143.8185216117674
 20
484.1685575986725
 30
0.0
 10
143.9456268431723
 20
482.374601494245
 30
0.0
 10
144.1963981932427
 20
480.7288193708453
 30
0.0
 10
144.5163316052601
 20
479.3518769079016
 30
0.0
 10
144.8791228610477
 20
478.134261454941
 30
0.0
 10
145.3374025704711
 20
476.9028815902706
 30
0.0
 10
145.9642805230197
 20
475.6170719511728
 30
0.0
 10
146.837302727371
 20
474.3478235761127
 30
0.0
 10
147.8791918312816
 20
473.400558635663
 30
0.0
 10
148.8947674521986
 20
472.7991452743942
 30
0.0
 10
149.4032166943136
 20
472.6472948213282
 30
0.0
 10
149.6698905795271
 20
472.5704015322112
 30
0.0
  0
SPLINE
  5
C9
330
AE
100
AcDbEntity
  8
490039_GEHÄUSE_E
  6
Continuous
 62
     7
100
AcDbSpline
210
0.0
220
0.0
230
1.0
 70
     8
 71
     3
 72
    24
 73
    20
 74
     0
 42
0.0000000002660095
 43
0.0000000001
 40
0.0
 40
0.0
 40
0.0
 40
0.0
 40
0.034076037051657
 40
0.0733154988909788
 40
0.1104930392381387
 40
0.1457541601001672
 40
0.211261728250142
 40
0.2696018982618448
 40
0.3381340515754861
 40
0.4037143198614092
 40
0.4671598347427779
 40
0.513283432168475
 40
0.5581602098636537
 40
0.607986780668177
 40
0.6677324345887384
 40
0.7374439253807247
 40
0.8171287750179385
 40
0.906605141480857
 40
1.0
 40
1.0
 40
1.0
 40
1.0
 10
149.6752914287835
 20
542.9029197186874
 30
0.0
 10
149.2293542928343
 20
542.7579917584089
 30
0.0
 10
148.4131550017495
 20
542.4802949375944
 30
0.0
 10
147.2931276739426
 20
541.5872547710474
 30
0.0
 10
146.3865278558168
 20
540.5275368425628
 30
0.0
 10
145.5056346300092
 20
539.0330714753808
 30
0.0
 10
144.7873424759885
 20
537.1679450671312
 30
0.0
 10
144.1815662158502
 20
534.8347858624494
 30
0.0
 10
143.8678831799092
 20
532.4415569114864
 30
0.0
 10
143.7715431381032
 20
529.9708613122551
 30
0.0
 10
143.7696411029603
 20
527.7797367356522
 30
0.0
 10
143.7860478905087
 20
525.847782553154
 30
0.0
 10
143.7889949239966
 20
524.0861472406415
 30
0.0
 10
143.7847094813727
 20
522.1539509902713
 30
0.0
 10
143.7829524385376
 20
519.9119136262996
 30
0.0
 10
143.7850783748532
 20
517.2924356486925
 30
0.0
 10
143.7844768176164
 20
514.3190721636981
 30
0.0
 10
143.7844688700836
 20
510.9704387249019
 30
0.0
 10
143.7844450791182
 20
508.8517790476208
 30
0.0
 10
143.7844520007146
 20
507.5666374191037
 30
0.0
  0
LINE
  5
CA
330
AE
100
AcDbEntity
  8
490039_GEHÄUSE_E
  6
Continuous
 62
     7
100
AcDbLine
 10
150.6834400529
 20
548.8851540224
 30
0.0
 11
150.6858181735
 21
548.8666374102
 31
0.0
  0
SPLINE
  5
CB
330
AE
100
AcDbEntity
  8
490039_GEHÄUSE_E
  6
Continuous
 62
     7
100
AcDbSpline
210
0.0
220
0.0
230
1.0
 70
     8
 71
     3
 72
     8
 73
     4
 74
     0
 42
0.0000000704169843
 43
0.0000000001
 40
0.0
 40
0.0
 40
0.0
 40
0.0
 40
0.7906880540281931
 40
0.7906880540281931
 40
0.7906880540281931
 40
0.7906880540281931
 10
150.7130712008471
 20
549.0080645354691
 30
0.0
 10
150.6831949673879
 20
548.973650594879
 30
0.0
 10
150.6707665060694
 20
548.9408333031517
 30
0.0
 10
150.6757858168914
 20
548.9096126602875
 30
0.0
  0
SPLINE
  5
CC
330
AE
100
AcDbEntity
  8
490039_GEHÄUSE_E
  6
Continuous
 62
     7
100
AcDbSpline
210
0.0
220
0.0
230
1.0
 70
     8
 71
     3
 72
     8
 73
     4
 74
     0
 42
0.000000070336896
 43
0.0000000001
 40
0.2094186975545903
 40
0.2094186975545903
 40
0.2094186975545903
 40
0.2094186975545903
 40
1.0
 40
1.0
 40
1.0
 40
1.0
 10
202.633194810901
 20
548.9096616744908
 30
0.0
 10
202.6382033558871
 20
548.9409152748882
 30
0.0
 10
202.6257381737949
 20
548.9737540789507
 30
0.0
 10
202.5957992646243
 20
549.0081780866785
 30
0.0
  0
LINE
  5
CD
330
AE
100
AcDbEntity
  8
490039_GEHÄUSE_E
  6
Continuous
 62
     7
100
AcDbLine
 10
202.6231649118
 20
548.8666374102
 30
0.0
 11
202.625536361
 21
548.8851588749
 31
0.0
  0
ARC
  5
CE
330
AE
100
AcDbEntity
  8
250911_01124236
  6
Continuous
 62
     7
100
AcDbCircle
 10
227.7700029444
 20
419.5665139489
 30
0.0
 40
25.59453297170867
100
AcDbArc
 50
168.9074597756
 51
191.0926527883
  0
ARC
  5
CF
330
AE
100
AcDbEntity
  8
250911_01124236
  6
Continuous
 62
     7
100
AcDbCircle
 10
227.7700029444
 20
436.5665139489
 30
0.0
 40
25.59453297170636
100
AcDbArc
 50
168.9074597756
 51
191.0926527883
  0
LINE
  5
D0
330
AE
100
AcDbEntity
  8
250911_01124236
  6
Continuous
 62
     7
100
AcDbLine
 10
202.6544920873
 20
414.6463829481
 30
0.0
 11
202.6544920873
 21
424.4822016789
 31
0.0
  0
LINE
  5
D1
330
AE
100
AcDbEntity
  8
250911_01124236
  6
Continuous
 62
     7
100
AcDbLine
 10
202.6544920873
 20
431.6463829481
 30
0.0
 11
202.6544920873
 21
441.4822016789
 31
0.0
  0
SPLINE
  5
D2
330
AE
100
AcDbEntity
  8
250911_01124236
  6
Continuous
 62
     7
100
AcDbSpline
210
0.0
220
0.0
230
1.0
 70
     8
 71
     3
 72
    10
 73
     6
 74
     0
 42
0.0000000366892496
 43
0.0000000001
 40
0.686239633773168
 40
0.686239633773168
 40
0.686239633773168
 40
0.686239633773168
 40
0.7600766784634705
 40
0.9192584039417503
 40
1.0
 40
1.0
 40
1.0
 40
1.0
 10
202.6145017353053
 20
414.5243758366742
 30
0.0
 10
202.6184973084102
 20
414.5298209513099
 30
0.0
 10
202.6303192917919
 20
414.5477203445495
 30
0.0
 10
202.6428502621667
 20
414.5745812858967
 30
0.0
 10
202.6468880862287
 20
414.594021255304
 30
0.0
 10
202.6484013646955
 20
414.6016919103103
 30
0.0
  0
SPLINE
  5
D3
330
AE
100
AcDbEntity
  8
250911_01124236
  6
Continuous
 62
     7
100
AcDbSpline
210
0.0
220
0.0
230
1.0
 70
     8
 71
     3
 72
    10
 73
     6
 74
     0
 42
0.0000000363072112
 43
0.0000000001
 40
0.0
 40
0.0
 40
0.0
 40
0.0
 40
0.0037590420318989
 40
0.1864730650113132
 40
0.3048954054504538
 40
0.3048954054504538
 40
0.3048954054504538
 40
0.3048954054504538
 10
202.6490560474858
 20
424.5320819914015
 30
0.0
 10
202.6490094693958
 20
424.5324269461284
 30
0.0
 10
202.6470067219814
 20
424.5471974109902
 30
0.0
 10
202.6362283407938
 20
424.575111691934
 30
0.0
 10
202.6217295730684
 20
424.5990307846275
 30
0.0
 10
202.615408948537
 20
424.6078245658456
 30
0.0
  0
SPLINE
  5
D4
330
AE
100
AcDbEntity
  8
250911_01124236
  6
Continuous
 62
     7
100
AcDbSpline
210
0.0
220
0.0
230
1.0
 70
     8
 71
     3
 72
    10
 73
     6
 74
     0
 42
0.0000000366892491
 43
0.0000000001
 40
0.6862396362065718
 40
0.6862396362065718
 40
0.6862396362065718
 40
0.6862396362065718
 40
0.7600765569935702
 40
0.9192583005245185
 40
1.0
 40
1.0
 40
1.0
 40
1.0
 10
202.6145017350315
 20
431.5243758361273
 30
0.0
 10
202.6184973016026
 20
431.5298209417932
 30
0.0
 10
202.6303192814815
 20
431.5477203262644
 30
0.0
 10
202.6428502554081
 20
431.5745812655372
 30
0.0
 10
202.6468880837258
 20
431.5940212451437
 30
0.0
 10
202.648401364928
 20
431.6016919102094
 30
0.0
  0
SPLINE
  5
D5
330
AE
100
AcDbEntity
  8
250911_01124236
  6
Continuous
 62
     7
100
AcDbSpline
210
0.0
220
0.0
230
1.0
 70
     8
 71
     3
 72
    10
 73
     6
 74
     0
 42
0.0000000363072115
 43
0.0000000001
 40
0.0
 40
0.0
 40
0.0
 40
0.0
 40
0.0037590965894876
 40
0.1864731057327009
 40
0.304895408160271
 40
0.304895408160271
 40
0.304895408160271
 40
0.304895408160271
 10
202.6490560464784
 20
441.5320819914088
 30
0.0
 10
202.6490094677044
 20
441.5324269511538
 30
0.0
 10
202.6470067194045
 20
441.5471974196154
 30
0.0
 10
202.6362283370305
 20
441.5751116993599
 30
0.0
 10
202.6217295709831
 20
441.599030787666
 30
0.0
 10
202.6154089483521
 20
441.6078245661718
 30
0.0
  0
LINE
  5
D6
330
AE
100
AcDbEntity
  8
490073031_GEWIND
  6
Continuous
 62
     7
100
AcDbLine
 10
180.6544920873
 20
404.5666374102
 30
0.0
 11
172.6544920873
 21
404.5666374102
 31
0.0
  0
LINE
  5
D7
330
AE
100
AcDbEntity
  8
490047031_ANSCHL
  6
Continuous
 62
     7
100
AcDbLine
 10
188.1544920873
 20
556.9166374102
 30
0.0
 11
165.1544920873
 21
556.9166374102
 31
0.0
  0
LINE
  5
D8
330
AE
100
AcDbEntity
  8
490047031_ANSCHL
  6
Continuous
 62
     7
100
AcDbLine
 10
191.1544920873
 20
556.5666374102
 30
0.0
 11
162.1544920873
 21
556.5666374102
 31
0.0
  0
ARC
  5
D9
330
AE
100
AcDbEntity
  8
490047031_ANSCHL
  6
Continuous
 62
     7
100
AcDbCircle
 10
144.747688167
 20
553.0666365116
 30
0.0
 40
17.03672841960509
100
AcDbArc
 50
352.9195883039
 51
7.0804150046
  0
LINE
  5
DA
330
AE
100
AcDbEntity
  8
490047031_ANSCHL
  6
Continuous
 62
     7
100
AcDbLine
 10
161.6544920873
 20
550.9804233843
 30
0.0
 11
161.6544920873
 21
549.0666374102
 31
0.0
  0
LINE
  5
DB
330
AE
100
AcDbEntity
  8
490047031_ANSCHL
  6
Continuous
 62
     7
100
AcDbLine
 10
161.6544920873
 20
556.0666374102
 30
0.0
 11
161.6544920873
 21
555.1501294059
 31
0.0
  0
LINE
  5
DC
330
AE
100
AcDbEntity
  8
490047031_ANSCHL
  6
Continuous
 62
     7
100
AcDbLine
 10
191.6544920873
 20
549.0666374102
 30
0.0
 11
191.6544920873
 21
556.0666374102
 31
0.0
  0
LINE
  5
DD
330
AE
100
AcDbEntity
  8
490047031_ANSCHL
  6
Continuous
 62
     7
100
AcDbLine
 10
165.1544920873
 20
556.9166374102
 30
0.0
 11
165.1544920873
 21
556.5666374102
 31
0.0
  0
LINE
  5
DE
330
AE
100
AcDbEntity
  8
490047031_ANSCHL
  6
Continuous
 62
     7
100
AcDbLine
 10
188.1544920873
 20
556.5666374102
 30
0.0
 11
188.1544920873
 21
556.9166374102
 31
0.0
  0
LINE
  5
DF
330
AE
100
AcDbEntity
  8
490047031_ANSCHL
  6
Continuous
 62
     7
100
AcDbLine
 10
188.1544920873
 20
556.9166374102
 30
0.0
 11
187.5044920873
 21
557.5666374102
 31
0.0
  0
LINE
  5
E0
330
AE
100
AcDbEntity
  8
490047031_ANSCHL
  6
Continuous
 62
     7
100
AcDbLine
 10
165.8044920873
 20
557.5666374102
 30
0.0
 11
165.1544920873
 21
556.9166374102
 31
0.0
  0
ARC
  5
E1
330
AE
100
AcDbEntity
  8
490047031_ANSCHL
  6
Continuous
 62
     7
100
AcDbCircle
 10
162.1544920873
 20
556.0666374102
 30
0.0
 40
0.5000000000000004
100
AcDbArc
 50
90.0
 51
180.0
  0
ARC
  5
E2
330
AE
100
AcDbEntity
  8
490047031_ANSCHL
  6
Continuous
 62
     7
100
AcDbCircle
 10
191.1544920873
 20
556.0666374102
 30
0.0
 40
0.5000000000000004
100
AcDbArc
 50
0.0
 51
90.0
  0
LINE
  5
E3
330
AE
100
AcDbEntity
  8
490048031_AUSLAU
  6
Continuous
 62
     7
100
AcDbLine
 10
188.1544920873
 20
557.5666374102
 30
0.0
 11
165.1544920873
 21
557.5666374102
 31
0.0
  0
LINE
  5
E4
330
AE
100
AcDbEntity
  8
490048031_AUSLAU
  6
Continuous
 62
     7
100
AcDbLine
 10
165.1544920873
 20
607.5666374102
 30
0.0
 11
165.1544920873
 21
557.5666374102
 31
0.0
  0
LINE
  5
E5
330
AE
100
AcDbEntity
  8
490048031_AUSLAU
  6
Continuous
 62
     7
100
AcDbLine
 10
188.1544920873
 20
557.5666374102
 30
0.0
 11
188.1544920873
 21
607.5666374102
 31
0.0
  0
ARC
  5
E6
330
AE
100
AcDbEntity
  8
490048031_AUSLAU
  6
Continuous
 62
     7
100
AcDbCircle
 10
218.6544920873
 20
607.5666374102
 30
0.0
 40
30.49999999999999
100
AcDbArc
 50
90.0
 51
180.0
  0
ARC
  5
E7
330
AE
100
AcDbEntity
  8
490048031_AUSLAU
  6
Continuous
 62
     7
100
AcDbCircle
 10
218.6544920873
 20
607.5666374102
 30
0.0
 40
53.49999999999994
100
AcDbArc
 50
90.0
 51
180.0
  0
LINE
  5
E8
330
AE
100
AcDbEntity
  8
490048031_AUSLAU
  6
Continuous
 62
     7
100
AcDbLine
 10
270.0744920873
 20
661.0666374102
 30
0.0
 11
218.6544920873
 21
661.0666374102
 31
0.0
  0
LINE
  5
E9
330
AE
100
AcDbEntity
  8
490048031_AUSLAU
  6
Continuous
 62
     7
100
AcDbLine
 10
218.6544920873
 20
638.0666374102
 30
0.0
 11
270.0744920873
 21
638.0666374102
 31
0.0
  0
ARC
  5
EA
330
AE
100
AcDbEntity
  8
490048031_AUSLAU
  6
Continuous
 62
     7
100
AcDbCircle
 10
270.0744920873
 20
638.5666374102
 30
0.0
 40
0.5000000000000004
100
AcDbArc
 50
270.0
 51
0.0
  0
ARC
  5
EB
330
AE
100
AcDbEntity
  8
490048031_AUSLAU
  6
Continuous
 62
     7
100
AcDbCircle
 10
270.0744920873
 20
660.5666374102
 30
0.0
 40
0.5000000000000004
100
AcDbArc
 50
0.0
 51
90.0
  0
LINE
  5
EC
330
AE
100
AcDbEntity
  8
A4225301_NIPPEL_
  6
Continuous
 62
     7
100
AcDbLine
 10
270.5744920873
 20
661.0666374102
 30
0.0
 11
270.5744920873
 21
638.0666374102
 31
0.0
  0
SPLINE
  5
ED
330
AE
100
AcDbEntity
  8
A4225301_NIPPEL_
  6
Continuous
 62
     7
100
AcDbSpline
210
0.0
220
0.0
230
1.0
 70
     8
 71
     3
 72
    24
 73
    20
 74
     0
 42
0.0000000002247822
 43
0.0000000001
 40
0.5004945970939829
 40
0.5004945970939829
 40
0.5004945970939829
 40
0.5004945970939829
 40
0.562499999999999
 40
0.562499999999999
 40
0.624999999999999
 40
0.624999999999999
 40
0.687499999999999
 40
0.687499999999999
 40
0.718749999999999
 40
0.718749999999999
 40
0.749999999999999
 40
0.749999999999999
 40
0.8124999999999992
 40
0.8124999999999992
 40
0.8749999999999994
 40
0.8749999999999994
 40
0.9374999999999997
 40
0.9374999999999997
 40
1.0
 40
1.0
 40
1.0
 40
1.0
 10
301.4579404979539
 20
638.0666392536441
 30
0.0
 10
301.4581204260795
 20
638.0668666313632
 30
0.0
 10
301.7081539280884
 20
638.3078543606811
 30
0.0
 10
302.6144015036369
 20
639.1391934423176
 30
0.0
 10
303.2697499651163
 20
639.7303867829268
 30
0.0
 10
304.8788938408103
 20
641.0125282637567
 30
0.0
 10
305.8228452325145
 20
641.7108152066854
 30
0.0
 10
307.5214211136296
 20
642.5469154126235
 30
0.0
 10
308.1331810783889
 20
642.7828427937876
 30
0.0
 10
309.4313814786559
 20
643.0715820902986
 30
0.0
 10
310.1073036712903
 20
643.117387312354
 30
0.0
 10
312.1129124338194
 20
642.9545477194669
 30
0.0
 10
313.3738641227902
 20
642.4771952726104
 30
0.0
 10
315.6238699681699
 20
641.407861716419
 30
0.0
 10
316.6517686042208
 20
640.7948831105676
 30
0.0
 10
318.4598860173511
 20
639.6549819393214
 30
0.0
 10
319.2444279984497
 20
639.1197975449301
 30
0.0
 10
320.4038901303659
 20
638.3160124354376
 30
0.0
 10
320.7510449002421
 20
638.0666374101729
 30
0.0
 10
320.7510449002421
 20
638.0666374101729
 30
0.0
  0
LINE
  5
EE
330
AE
100
AcDbEntity
  8
A4225301_NIPPEL_
  6
Continuous
 62
     7
100
AcDbLine
 10
320.7510449002
 20
638.0666374102
 30
0.0
 11
336.0814767311
 21
638.0666374102
 31
0.0
  0
LINE
  5
EF
330
AE
100
AcDbEntity
  8
A4225301_NIPPEL_
  6
Continuous
 62
     7
100
AcDbLine
 10
270.5744920873
 20
638.0666374102
 30
0.0
 11
301.470574646
 21
638.0666374102
 31
0.0
  0
LINE
  5
F0
330
AE
100
AcDbEntity
  8
A4225301_NIPPEL_
  6
Continuous
 62
     7
100
AcDbLine
 10
336.0814767311
 20
661.0666374102
 30
0.0
 11
270.5744920873
 21
661.0666374102
 31
0.0
  0
ARC
  5
F1
330
AE
100
AcDbEntity
  8
A4225301_NIPPEL_
  6
Continuous
 62
     7
100
AcDbCircle
 10
-463.3428473922
 20
649.5666374102
 30
0.0
 40
800.0000000000002
100
AcDbArc
 50
359.211665465
 51
0.788334535
  0
ARC
  5
F2
330
AE
100
AcDbEntity
  8
A4225301_NIPPEL_
  6
Continuous
 62
     7
100
AcDbCircle
 10
336.0814767311
 20
638.5666374102
 30
0.0
 40
0.5000000000000004
100
AcDbArc
 50
270.0
 51
359.2116654671
  0
ARC
  5
F3
330
AE
100
AcDbEntity
  8
A4225301_NIPPEL_
  6
Continuous
 62
     7
100
AcDbCircle
 10
336.0814767311
 20
660.5666374102
 30
0.0
 40
0.5000000000002475
100
AcDbArc
 50
0.7883345329
 51
90.0
  0
LINE
  5
F5
330
AE
100
AcDbEntity
  8
A4222392_MOUSSEU
  6
Continuous
 62
     7
100
AcDbLine
 10
306.2275922984
 20
641.6948940197
 30
0.0
 11
308.9346845544
 21
642.1722274237
 31
0.0
  0
LINE
  5
F6
330
AE
100
AcDbEntity
  8
A4222392_MOUSSEU
  6
Continuous
 62
     7
100
AcDbLine
 10
311.7392497297
 20
642.6667479333
 30
0.0
 11
312.3457580768
 21
642.7736917189
 31
0.0
  0
LINE
  5
F7
330
AE
100
AcDbEntity
  8
A4222392_MOUSSEU
  6
Continuous
 62
     7
100
AcDbLine
 10
306.2031334525
 20
641.8336070275
 30
0.0
 11
306.3057339783
 21
641.2517305309
 31
0.0
  0
LINE
  5
F8
330
AE
100
AcDbEntity
  8
A4222392_MOUSSEU
  6
Continuous
 62
     7
100
AcDbLine
 10
311.6967334514
 20
642.9078697291
 30
0.0
 11
311.8173914096
 21
642.2235844444
 31
0.0
  0
ELLIPSE
  5
F9
330
AE
100
AcDbEntity
  8
A4222392_MOUSSEU
  6
Continuous
 62
     7
100
AcDbEllipse
 10
311.7917398989
 20
642.219061391
 30
0.0
 11
-0.02604722665003334
 21
0.147721162951836
 31
0.0
210
0.0
220
0.0
230
1.0
 40
0.1736481777
 41
3.141592653589793
 42
4.712388980384812
  0
ELLIPSE
  5
FA
330
AE
100
AcDbEntity
  8
A4222392_MOUSSEU
  6
Continuous
 62
     7
100
AcDbEllipse
 10
306.2210046001
 20
641.2367904554
 30
0.0
 11
0.02604722665003334
 21
-0.1477211629518083
 31
0.0
210
0.0
220
0.0
230
0.9999999999999999
 40
0.5735764364
 41
0.0000000000003192
 42
1.57079632679481
  0
LINE
  5
FB
330
AE
100
AcDbEntity
  8
A4222392_MOUSSEU
  6
Continuous
 62
     7
100
AcDbLine
 10
305.7133481386
 20
641.5559546511
 30
0.0
 11
305.783236146
 21
641.1596000656
 31
0.0
  0
ELLIPSE
  5
FC
330
AE
100
AcDbEntity
  8
A4222392_MOUSSEU
  6
Continuous
 62
     7
100
AcDbEllipse
 10
305.8679655242
 20
641.1745401411
 30
0.0
 11
-0.0260472266500611
 21
0.1477211629517805
 31
0.0
210
0.0
220
0.0
230
1.0
 40
0.5735764364
 41
1.570796326794007
 42
3.141592653589738
  0
LINE
  5
FD
330
AE
100
AcDbEntity
  8
A4222392_MOUSSEU
  6
Continuous
 62
     7
100
AcDbLine
 10
305.8940127509
 20
641.0268189781
 30
0.0
 11
306.2470518268
 21
641.0890692925
 31
0.0
  0
ELLIPSE
  5
FE
330
AE
100
AcDbEntity
  8
A4222392_MOUSSEU
  6
Continuous
 62
     7
100
AcDbEllipse
 10
309.0384777451
 20
641.7335869883
 30
0.0
 11
0.02604722665003333
 21
-0.1477211629517805
 31
0.0
210
0.0
220
0.0
230
1.0
 40
0.1736481777
 41
4.712388980384055
 42
6.283185307178306
  0
LINE
  5
FF
330
AE
100
AcDbEntity
  8
A4222392_MOUSSEU
  6
Continuous
 62
     7
100
AcDbLine
 10
308.8652252833
 20
642.5661505249
 30
0.0
 11
309.0128262344
 21
641.7290639349
 31
0.0
  0
LINE
  5
100
330
AE
100
AcDbEntity
  8
A4222392_MOUSSEU
  6
Continuous
 62
     7
100
AcDbLine
 10
308.8652252833
 20
642.5661505249
 30
0.0
 11
306.9023771162
 21
642.220047434
 31
0.0
  0
LINE
  5
101
330
AE
100
AcDbEntity
  8
A4222392_MOUSSEU
  6
Continuous
 62
     7
100
AcDbLine
 10
311.8177871255
 20
642.071340228
 30
0.0
 11
309.0645249718
 21
641.5858658253
 31
0.0
  0
LINE
  5
102
330
AE
100
AcDbEntity
  8
A4222392_MOUSSEU
  6
Continuous
 62
     7
100
AcDbLine
 10
305.8940127509
 20
641.0268189781
 30
0.0
 11
304.6066775995
 21
640.7998270577
 31
0.0
  0
LINE
  5
104
330
AE
100
AcDbEntity
  8
DV2_Standard
  6
Continuous
 62
     7
100
AcDbLine
 10
154.0143690958
 20
530.3013424103
 30
0.0
 11
154.0143690958
 21
484.5660587062
 31
0.0
  0
SPLINE
  5
105
330
AE
100
AcDbEntity
  8
DV2_Standard
  6
Continuous
 62
     7
100
AcDbSpline
210
0.0
220
0.0
230
1.0
 70
     8
 71
     3
 72
     8
 73
     4
 74
     0
 42
0.0000000007298087
 43
0.0000000001
 40
0.0
 40
0.0
 40
0.0
 40
0.0
 40
1.0
 40
1.0
 40
1.0
 40
1.0
 10
154.0143690957638
 20
530.301342410288
 30
0.0
 10
153.9660577810734
 20
533.0771552237097
 30
0.0
 10
153.4763761836713
 20
536.8322363691351
 30
0.0
 10
150.461184792993
 20
543.3033687720348
 30
0.0
  0
SPLINE
  5
106
330
AE
100
AcDbEntity
  8
DV2_Standard
  6
Continuous
 62
     7
100
AcDbSpline
210
0.0
220
0.0
230
1.0
 70
     8
 71
     3
 72
     8
 73
     4
 74
     0
 42
0.0000000007556084
 43
0.0000000001
 40
0.0
 40
0.0
 40
0.0
 40
0.0
 40
1.0
 40
1.0
 40
1.0
 40
1.0
 10
154.0143690957639
 20
484.5660587062288
 30
0.0
 10
153.8873340914649
 20
480.3875570365531
 30
0.0
 10
153.2923069975936
 20
476.9407816474526
 30
0.0
 10
150.4925048886796
 20
472.1415930283628
 30
0.0
  0
ENDBLK
  5
108
330
AE
100
AcDbEntity
  8
0
100
AcDbBlockEnd
  0
BLOCK
  5
147
330
109
100
AcDbEntity
  8
0
100
AcDbBlockBegin
  2
SE2
 70
     0
 10
0.0
 20
0.0
 30
0.0
  3
SE2
  1

  0
LINE
  5
10B
330
109
100
AcDbEntity
  8
18_27_31XX_ANSCH
  6
Continuous
 62
     7
100
AcDbLine
 10
64.4244989881
 20
282.8526605205
 30
0.0
 11
57.5130302855
 21
282.8526605205
 31
0.0
  0
LINE
  5
10C
330
109
100
AcDbEntity
  8
18_27_31XX_ANSCH
  6
Continuous
 62
     7
100
AcDbLine
 10
63.0271150427
 20
270.8526605205
 30
0.0
 11
64.4244989881
 21
270.8526605205
 31
0.0
  0
LINE
  5
10D
330
109
100
AcDbEntity
  8
490037XXX_HEBEL_
  6
Continuous
 62
     7
100
AcDbLine
 10
82.7744989881
 20
284.3526605205
 30
0.0
 11
82.7744989881
 21
278.3524891242
 31
0.0
  0
LINE
  5
10E
330
109
100
AcDbEntity
  8
490037XXX_HEBEL_
  6
Continuous
 62
     7
100
AcDbLine
 10
82.7744989881
 20
275.3528319167
 30
0.0
 11
82.7744989881
 21
269.3526605205
 31
0.0
  0
LINE
  5
10F
330
109
100
AcDbEntity
  8
490037XXX_HEBEL_
  6
Continuous
 62
     7
100
AcDbLine
 10
82.2875874622
 20
274.8530032542
 30
0.0
 11
82.2744989881
 21
274.8526605205
 31
0.0
  0
LINE
  5
110
330
109
100
AcDbEntity
  8
490037XXX_HEBEL_
  6
Continuous
 62
     7
100
AcDbLine
 10
82.7744989881
 20
278.3524891242
 30
0.0
 11
82.7744989881
 21
275.3528319167
 31
0.0
  0
LINE
  5
111
330
109
100
AcDbEntity
  8
490037XXX_HEBEL_
  6
Continuous
 62
     7
100
AcDbLine
 10
82.2744989881
 20
274.8526605205
 30
0.0
 11
71.7657727849
 21
275.0360910187
 31
0.0
  0
LINE
  5
112
330
109
100
AcDbEntity
  8
490037XXX_HEBEL_
  6
Continuous
 62
     7
100
AcDbLine
 10
82.2744989881
 20
275.3525843681
 30
0.0
 11
82.2744989881
 21
275.3528319167
 31
0.0
  0
LINE
  5
113
330
109
100
AcDbEntity
  8
490037XXX_HEBEL_
  6
Continuous
 62
     7
100
AcDbLine
 10
82.2744989881
 20
275.3528319167
 30
0.0
 11
82.2744989881
 21
278.3524891242
 31
0.0
  0
LINE
  5
114
330
109
100
AcDbEntity
  8
490037XXX_HEBEL_
  6
Continuous
 62
     7
100
AcDbLine
 10
82.2744989881
 20
278.3524891242
 30
0.0
 11
82.2744989881
 21
278.3527366729
 31
0.0
  0
LINE
  5
115
330
109
100
AcDbEntity
  8
490037XXX_HEBEL_
  6
Continuous
 62
     7
100
AcDbLine
 10
82.2744989881
 20
278.8526605205
 30
0.0
 11
82.2875874622
 21
278.8523177867
 31
0.0
  0
LINE
  5
116
330
109
100
AcDbEntity
  8
490037XXX_HEBEL_
  6
Continuous
 62
     7
100
AcDbLine
 10
71.2744989881
 20
275.5360148662
 30
0.0
 11
71.2744989881
 21
278.1693061747
 31
0.0
  0
LINE
  5
117
330
109
100
AcDbEntity
  8
490037XXX_HEBEL_
  6
Continuous
 62
     7
100
AcDbLine
 10
71.7657727849
 20
278.6692300223
 30
0.0
 11
82.2744989881
 21
278.8526605205
 31
0.0
  0
ARC
  5
118
330
109
100
AcDbEntity
  8
490037XXX_HEBEL_
  6
Continuous
 62
     7
100
AcDbCircle
 10
71.7744989881
 20
278.1693061747
 30
0.0
 40
0.5000000000000007
100
AcDbArc
 50
91.0
 51
180.0
  0
ARC
  5
119
330
109
100
AcDbEntity
  8
490037XXX_HEBEL_
  6
Continuous
 62
     7
100
AcDbCircle
 10
71.7744989881
 20
275.5360148662
 30
0.0
 40
0.5000000000000004
100
AcDbArc
 50
180.0
 51
269.0
  0
SPLINE
  5
11A
330
109
100
AcDbEntity
  8
490037XXX_HEBEL_
  6
Continuous
 62
     7
100
AcDbSpline
210
0.0
220
0.0
230
1.0
 70
     8
 71
     3
 72
    10
 73
     6
 74
     0
 42
0.0000000199821273
 43
0.0000000001
 40
0.0
 40
0.0
 40
0.0
 40
0.0
 40
0.5
 40
0.5
 40
1.0
 40
1.0
 40
1.0
 40
1.0
 10
82.27449898808118
 20
278.8526605204761
 30
0.0
 10
82.27403793275062
 20
278.8526524727253
 30
0.0
 10
82.27315397011431
 20
278.7983186437402
 30
0.0
 10
82.27213435819849
 20
278.6138591560128
 30
0.0
 10
82.27075945279338
 20
278.484723081832
 30
0.0
 10
82.2744989880812
 20
278.3527366728978
 30
0.0
  0
ARC
  5
11B
330
109
100
AcDbEntity
  8
490037XXX_HEBEL_
  6
Continuous
 62
     7
100
AcDbCircle
 10
82.2744989881
 20
278.3524891242
 30
0.0
 40
0.5000000000000004
100
AcDbArc
 50
0.0
 51
88.5
  0
ARC
  5
11C
330
109
100
AcDbEntity
  8
490037XXX_HEBEL_
  6
Continuous
 62
     7
100
AcDbCircle
 10
96.2312867098
 20
275.1026224443
 30
0.0
 40
13.95902591415339
100
AcDbArc
 50
178.9739592963
 51
181.0260407037
  0
ARC
  5
11D
330
109
100
AcDbEntity
  8
490037XXX_HEBEL_
  6
Continuous
 62
     7
100
AcDbCircle
 10
82.2744989881
 20
275.3528319167
 30
0.0
 40
0.5000000000000004
100
AcDbArc
 50
271.5
 51
0.0
  0
LINE
  5
11E
330
109
100
AcDbEntity
  8
490037XXX_HEBEL_
  6
Continuous
 62
     7
100
AcDbLine
 10
64.4244989881
 20
284.049815144
 30
0.0
 11
64.4244989881
 21
269.655505897
 31
0.0
  0
SPLINE
  5
11F
330
109
100
AcDbEntity
  8
490037XXX_HEBEL_
  6
Continuous
 62
     7
100
AcDbSpline
210
0.0
220
0.0
230
1.0
 70
     8
 71
     3
 72
    10
 73
     6
 74
     0
 42
0.000000028316658
 43
0.0000000001
 40
0.0
 40
0.0
 40
0.0
 40
0.0
 40
0.5
 40
0.5
 40
1.0
 40
1.0
 40
1.0
 40
1.0
 10
82.27449898808118
 20
278.8526605204761
 30
0.0
 10
82.27439849525351
 20
278.8526631519734
 30
0.0
 10
82.2744510924389
 20
278.8871543265439
 30
0.0
 10
82.27484109573075
 20
279.0134068649833
 30
0.0
 10
82.27517962573886
 20
279.1049180237587
 30
0.0
 10
82.27559007505153
 20
279.2057095390927
 30
0.0
  0
SPLINE
  5
120
330
109
100
AcDbEntity
  8
490037XXX_HEBEL_
  6
Continuous
 62
     7
100
AcDbSpline
210
0.0
220
0.0
230
1.0
 70
     8
 71
     3
 72
    10
 73
     6
 74
     0
 42
0.000000028316658
 43
0.0000000001
 40
0.0
 40
0.0
 40
0.0
 40
0.0
 40
0.4999999999999983
 40
0.4999999999999983
 40
1.0
 40
1.0
 40
1.0
 40
1.0
 10
82.27449898808118
 20
274.8526605204761
 30
0.0
 10
82.27439849525351
 20
274.8526578889788
 30
0.0
 10
82.2744510924389
 20
274.8181667144082
 30
0.0
 10
82.27484109573072
 20
274.6919141759689
 30
0.0
 10
82.27517962573577
 20
274.6004030171933
 30
0.0
 10
82.27559007505153
 20
274.4996115018595
 30
0.0
  0
LINE
  5
121
330
109
100
AcDbEntity
  8
490037XXX_HEBEL_
  6
Continuous
 62
     7
100
AcDbLine
 10
82.2657727849
 20
284.8525843681
 30
0.0
 11
64.9157727849
 21
284.5497389915
 31
0.0
  0
LINE
  5
122
330
109
100
AcDbEntity
  8
490037XXX_HEBEL_
  6
Continuous
 62
     7
100
AcDbLine
 10
64.9157727849
 20
269.1555820494
 30
0.0
 11
82.2657727849
 21
268.8527366729
 31
0.0
  0
ARC
  5
123
330
109
100
AcDbEntity
  8
490037XXX_HEBEL_
  6
Continuous
 62
     7
100
AcDbCircle
 10
82.2744989881
 20
269.3526605205
 30
0.0
 40
0.4999999999999987
100
AcDbArc
 50
269.0
 51
0.0
  0
ARC
  5
124
330
109
100
AcDbEntity
  8
490037XXX_HEBEL_
  6
Continuous
 62
     7
100
AcDbCircle
 10
82.2744989881
 20
284.3526605205
 30
0.0
 40
0.5000000000000004
100
AcDbArc
 50
0.0
 51
91.0
  0
ARC
  5
125
330
109
100
AcDbEntity
  8
490037XXX_HEBEL_
  6
Continuous
 62
     7
100
AcDbCircle
 10
64.9244989881
 20
269.655505897
 30
0.0
 40
0.5000000000000004
100
AcDbArc
 50
180.0
 51
269.0
  0
ARC
  5
126
330
109
100
AcDbEntity
  8
490037XXX_HEBEL_
  6
Continuous
 62
     7
100
AcDbCircle
 10
64.9244989881
 20
284.049815144
 30
0.0
 40
0.5000000000000029
100
AcDbArc
 50
91.0
 51
180.0
  0
SPLINE
  5
127
330
109
100
AcDbEntity
  8
490039_GEHÄUSE_E
  6
Continuous
 62
     7
100
AcDbSpline
210
0.0
220
0.0
230
1.0
 70
     8
 71
     3
 72
    14
 73
    10
 74
     0
 42
0.0000000051544108
 43
0.0000000001
 40
0.0000216671117603
 40
0.0000216671117603
 40
0.0000216671117603
 40
0.0000216671117603
 40
0.1410530982718608
 40
0.2448305560454471
 40
0.3587444260988574
 40
0.4906749960033647
 40
0.625442388651579
 40
0.7321430768962776
 40
0.790029063309373
 40
0.790029063309373
 40
0.790029063309373
 40
0.790029063309373
 10
24.53345471586156
 20
289.7464165609134
 30
0.0
 10
24.50681804033876
 20
289.6594340793477
 30
0.0
 10
24.46032785259987
 20
289.5085994197898
 30
0.0
 10
24.38965201439095
 20
289.288335470421
 30
0.0
 10
24.30991364701644
 20
289.0773662937401
 30
0.0
 10
24.19275412363918
 20
288.8596758214675
 30
0.0
 10
24.02835318223537
 20
288.6806127005546
 30
0.0
 10
23.87582810904198
 20
288.5619278855661
 30
0.0
 10
23.78871157842984
 20
288.5013175749781
 30
0.0
 10
23.75781960991926
 20
288.4803693256328
 30
0.0
  0
SPLINE
  5
128
330
109
100
AcDbEntity
  8
490039_GEHÄUSE_E
  6
Continuous
 62
     7
100
AcDbSpline
210
0.0
220
0.0
230
1.0
 70
     8
 71
     3
 72
     9
 73
     5
 74
     0
 42
0.0000000051696633
 43
0.0000000001
 40
0.8099254696690662
 40
0.8099254696690662
 40
0.8099254696690662
 40
0.8099254696690662
 40
0.8459094838293859
 40
1.0
 40
1.0
 40
1.0
 40
1.0
 10
23.72588187498885
 20
288.458890837104
 30
0.0
 10
23.70658139309674
 20
288.446011110247
 30
0.0
 10
23.60422227491962
 20
288.3785862294824
 30
0.0
 10
23.50070350806851
 20
288.3129962885556
 30
0.0
 10
23.41678059159579
 20
288.2598223534234
 30
0.0
  0
SPLINE
  5
129
330
109
100
AcDbEntity
  8
490039_GEHÄUSE_E
  6
Continuous
 62
     7
100
AcDbSpline
210
0.0
220
0.0
230
1.0
 70
     8
 71
     3
 72
    15
 73
    11
 74
     0
 42
0.0000000051579782
 43
0.0000000001
 40
0.0
 40
0.0
 40
0.0
 40
0.0
 40
0.1540208620082329
 40
0.2677153180358743
 40
0.3878575111861826
 40
0.5092473669385914
 40
0.6415016020507979
 40
0.7551248922636555
 40
0.8590236595933165
 40
1.0
 40
1.0
 40
1.0
 40
1.0
 10
51.42219018287019
 20
288.2598355524481
 30
0.0
 10
51.33830097053409
 20
288.3129907545801
 30
0.0
 10
51.19248678103096
 20
288.4053838347029
 30
0.0
 10
50.98462015455811
 20
288.5444781361812
 30
0.0
 10
50.80409341912519
 20
288.6863276327009
 30
0.0
 10
50.64221013054334
 20
288.8674763305339
 30
0.0
 10
50.52910354587163
 20
289.0775067512128
 30
0.0
 10
50.44931197509976
 20
289.2885745473609
 30
0.0
 10
50.37865851309765
 20
289.508702560575
 30
0.0
 10
50.33215226264174
 20
289.6595833914384
 30
0.0
 10
50.30553183587479
 20
289.7464948919106
 30
0.0
  0
ARC
  5
12A
330
109
100
AcDbEntity
  8
490039_GEHÄUSE_E
  6
Continuous
 62
     7
100
AcDbCircle
 10
37.419505383
 20
285.7239312825
 30
0.0
 40
13.49928500836111
100
AcDbArc
 50
17.3365250424
 51
19.1125313774
  0
ARC
  5
12B
330
109
100
AcDbEntity
  8
490039_GEHÄUSE_E
  6
Continuous
 62
     7
100
AcDbCircle
 10
37.419505383
 20
285.7239312825
 30
0.0
 40
13.49928500836111
100
AcDbArc
 50
161.1287769628
 51
162.6636449895
  0
ARC
  5
12C
330
109
100
AcDbEntity
  8
490039_GEHÄUSE_E
  6
Continuous
 62
     7
100
AcDbCircle
 10
37.4182405038
 20
266.35595271
 30
0.0
 40
25.99654563644055
100
AcDbArc
 50
122.5815014054
 51
122.5876542532
  0
ARC
  5
12D
330
109
100
AcDbEntity
  8
490039_GEHÄUSE_E
  6
Continuous
 62
     7
100
AcDbCircle
 10
37.0598953846
 20
267.172514606
 30
0.0
 40
26.17368260939211
100
AcDbArc
 50
59.6015248937
 51
59.6036574581
  0
ARC
  5
12E
330
109
100
AcDbEntity
  8
490039_GEHÄUSE_E
  6
Continuous
 62
     7
100
AcDbCircle
 10
37.4282290282
 20
266.3673578355
 30
0.0
 40
25.98290840888932
100
AcDbArc
 50
57.412748509
 51
57.4144170825
  0
SPLINE
  5
12F
330
109
100
AcDbEntity
  8
490039_GEHÄUSE_E
  6
Continuous
 62
     7
100
AcDbSpline
210
0.0
220
0.0
230
1.0
 70
    12
 71
     2
 72
     8
 73
     5
 74
     0
 42
0.0000000001007472
 43
0.0000000001
 40
0.0
 40
0.0
 40
0.0
 40
0.5
 40
0.5
 40
0.8495809826770052
 40
0.8495809826770052
 40
0.8495809826770052
 10
37.41951072036761
 20
292.352661315773
 30
0.0
 41
1.0
 10
63.41950623543899
 20
292.352646307552
 30
0.0
 41
0.7071068832221891
 10
63.41949873082719
 20
266.3526507924774
 30
0.0
 41
1.0
 10
63.41949406526852
 20
250.1886564694685
 30
0.0
 41
0.795220272834964
 10
48.92397198962411
 20
243.0364154060823
 30
0.0
 41
0.8767889386886573
  0
SPLINE
  5
130
330
109
100
AcDbEntity
  8
490039_GEHÄUSE_E
  6
Continuous
 62
     7
100
AcDbSpline
210
0.0
220
0.0
230
1.0
 70
    12
 71
     2
 72
    12
 73
     9
 74
     0
 42
0.0000000001167209
 43
0.0000000001
 40
0.145649339560116
 40
0.145649339560116
 40
0.145649339560116
 40
0.2500000000000002
 40
0.2500000000000002
 40
0.4999999999999995
 40
0.4999999999999995
 40
0.7499999999999997
 40
0.7499999999999997
 40
1.0
 40
1.0
 40
1.0
 10
25.91427232978026
 20
243.0367840502694
 30
0.0
 41
0.962978389748858
 10
22.0677399029001
 20
244.9348563400008
 30
0.0
 41
0.968227104253482
 10
19.03471461312289
 20
247.9678825053444
 30
0.0
 41
1.0
 10
11.41948958494421
 20
255.5831097318678
 30
0.0
 41
0.923879504900637
 10
11.41949269345769
 20
266.3526658017054
 30
0.0
 41
1.0
 10
11.41949580197118
 20
277.1222218715429
 30
0.0
 41
0.923879504900637
 10
19.03472522625129
 20
284.7374447019637
 30
0.0
 41
1.0
 10
26.64995465053139
 20
292.3526675323845
 30
0.0
 41
0.923879504900637
 10
37.41951072036761
 20
292.352661315773
 30
0.0
 41
1.0
  0
SPLINE
  5
131
330
109
100
AcDbEntity
  8
490039_GEHÄUSE_E
  6
Continuous
 62
     7
100
AcDbSpline
210
0.0
220
0.0
230
1.0
 70
     8
 71
     3
 72
     9
 73
     5
 74
     0
 42
0.0000000056721314
 43
0.0000000001
 40
0.7147279841219746
 40
0.7147279841219746
 40
0.7147279841219746
 40
0.7147279841219746
 40
0.7475147913752765
 40
0.9912147447223395
 40
0.9912147447223395
 40
0.9912147447223395
 40
0.9912147447223395
 10
50.45890942707845
 20
289.2654856907209
 30
0.0
 10
50.45283070395628
 20
289.2819143822277
 30
0.0
 10
50.40203880237736
 20
289.4217671503208
 30
0.0
 10
50.35406288469962
 20
289.5710305202545
 30
0.0
 10
50.30605560676292
 20
289.7282188796003
 30
0.0
  0
SPLINE
  5
132
330
109
100
AcDbEntity
  8
490039_GEHÄUSE_E
  6
Continuous
 62
     7
100
AcDbSpline
210
0.0
220
0.0
230
1.0
 70
     8
 71
     3
 72
    13
 73
     9
 74
     0
 42
0.0000000072892904
 43
0.0000000001
 40
0.0
 40
0.0
 40
0.0
 40
0.0
 40
0.1582627652357657
 40
0.3175793079781991
 40
0.4826626115944415
 40
0.6519016839747515
 40
0.8256782370157119
 40
1.0
 40
1.0
 40
1.0
 40
1.0
 10
24.53765307591255
 20
289.7455196745422
 30
0.0
 10
24.50772441088965
 20
289.6417730417401
 30
0.0
 10
24.45704338650507
 20
289.4689635823254
 30
0.0
 10
24.37259880141583
 20
289.1974044005096
 30
0.0
 10
24.28671458242922
 20
288.9852596007074
 30
0.0
 10
24.19169745963153
 20
288.8127777354848
 30
0.0
 10
24.07180676151481
 20
288.6834369101675
 30
0.0
 10
23.97061837781769
 20
288.6118472595517
 30
0.0
 10
23.90992040412737
 20
288.5707177400375
 30
0.0
  0
SPLINE
  5
133
330
109
100
AcDbEntity
  8
490039_GEHÄUSE_E
  6
Continuous
 62
     7
100
AcDbSpline
210
0.0
220
0.0
230
1.0
 70
     8
 71
     3
 72
    12
 73
     8
 74
     0
 42
0.0000000370006047
 43
0.0000000001
 40
0.0
 40
0.0
 40
0.0
 40
0.0
 40
0.0814668971535119
 40
0.1594058939242768
 40
0.2270849375288015
 40
0.2893650491098754
 40
0.3395906773633379
 40
0.3395906773633379
 40
0.3395906773633379
 40
0.3395906773633379
 10
23.98187265603244
 20
288.6188290277244
 30
0.0
 10
23.97039887327483
 20
288.6110246949942
 30
0.0
 10
23.95258708534913
 20
288.5988439382704
 30
0.0
 10
23.92653000000244
 20
288.5809157478808
 30
0.0
 10
23.92148068363201
 20
288.5762065123196
 30
0.0
 10
23.90909894849934
 20
288.5682343816486
 30
0.0
 10
23.90685473943257
 20
288.5666175971076
 30
0.0
 10
23.90665469221001
 20
288.5663951458085
 30
0.0
  0
ARC
  5
134
330
109
100
AcDbEntity
  8
490039_GEHÄUSE_E
  6
Continuous
 62
     7
100
AcDbCircle
 10
37.4317688953
 20
266.3164629063
 30
0.0
 40
26.03065394315615
100
AcDbArc
 50
58.8909505801
 51
58.8947396364
  0
SPLINE
  5
135
330
109
100
AcDbEntity
  8
490039_GEHÄUSE_E
  6
Continuous
 62
     7
100
AcDbSpline
210
0.0
220
0.0
230
1.0
 70
     8
 71
     3
 72
    14
 73
    10
 74
     0
 42
0.0000000072989231
 43
0.0000000001
 40
0.0
 40
0.0
 40
0.0
 40
0.0
 40
0.145898851767029
 40
0.2926334157714749
 40
0.4051157764417808
 40
0.5168223715046981
 40
0.6808487292617692
 40
0.8411506035200449
 40
1.0
 40
1.0
 40
1.0
 40
1.0
 10
50.92852768727331
 20
288.5704176439807
 30
0.0
 10
50.87729729903961
 20
288.6053177919844
 30
0.0
 10
50.79136472974299
 20
288.6656673542557
 30
0.0
 10
50.69221035898117
 20
288.7634014678396
 30
0.0
 10
50.61428133498122
 20
288.8725698018299
 30
0.0
 10
50.54248189770008
 20
289.0071479555133
 30
0.0
 10
50.46568226321548
 20
289.2001060699479
 30
0.0
 10
50.38221279812774
 20
289.4678622946435
 30
0.0
 10
50.33130609366913
 20
289.6415091248649
 30
0.0
 10
50.30133985534424
 20
289.7453541053127
 30
0.0
  0
ARC
  5
136
330
109
100
AcDbEntity
  8
490039_GEHÄUSE_E
  6
Continuous
 62
     7
100
AcDbCircle
 10
37.4190770308
 20
285.7280559181
 30
0.0
 40
13.48491817218246
100
AcDbArc
 50
17.3183665829
 51
162.6795686797
  0
ARC
  5
137
330
109
100
AcDbEntity
  8
490047031_ANSCHL
  6
Continuous
 62
     7
100
AcDbCircle
 10
37.4194989881
 20
266.3526605205
 30
0.0
 40
14.99999999999999
100
AcDbArc
 50
320.0554948102
 51
0.0
  0
ARC
  5
138
330
109
100
AcDbEntity
  8
490047031_ANSCHL
  6
Continuous
 62
     7
100
AcDbCircle
 10
37.4194989881
 20
266.3526605205
 30
0.0
 40
14.99999999999999
100
AcDbArc
 50
0.0
 51
219.9445051898
  0
ARC
  5
139
330
109
100
AcDbEntity
  8
490048031_AUSLAU
  6
Continuous
 62
     7
100
AcDbCircle
 10
37.4194989881
 20
266.3526605205
 30
0.0
 40
11.5
100
AcDbArc
 50
0.0
 51
180.0
  0
LINE
  5
13A
330
109
100
AcDbEntity
  8
490048031_AUSLAU
  6
Continuous
 62
     7
100
AcDbLine
 10
25.9194989881
 20
266.3526605205
 30
0.0
 11
25.9194989881
 21
224.3526605205
 31
0.0
  0
LINE
  5
13B
330
109
100
AcDbEntity
  8
490048031_AUSLAU
  6
Continuous
 62
     7
100
AcDbLine
 10
48.9194989881
 20
224.3526605205
 30
0.0
 11
48.9194989881
 21
266.3526605205
 31
0.0
  0
LINE
  5
13C
330
109
100
AcDbEntity
  8
490048031_AUSLAU
  6
Continuous
 62
     7
100
AcDbLine
 10
48.9194989881
 20
172.9326605205
 30
0.0
 11
48.9194989881
 21
224.3526605205
 31
0.0
  0
LINE
  5
13D
330
109
100
AcDbEntity
  8
490048031_AUSLAU
  6
Continuous
 62
     7
100
AcDbLine
 10
25.9194989881
 20
224.3526605205
 30
0.0
 11
25.9194989881
 21
172.9326605205
 31
0.0
  0
ARC
  5
13E
330
109
100
AcDbEntity
  8
490048031_AUSLAU
  6
Continuous
 62
     7
100
AcDbCircle
 10
26.4194989881
 20
172.9326605205
 30
0.0
 40
0.5000000000000004
100
AcDbArc
 50
180.0
 51
270.0
  0
ARC
  5
13F
330
109
100
AcDbEntity
  8
490048031_AUSLAU
  6
Continuous
 62
     7
100
AcDbCircle
 10
48.4194989881
 20
172.9326605205
 30
0.0
 40
0.5000000000000004
100
AcDbArc
 50
270.0
 51
0.0
  0
LINE
  5
140
330
109
100
AcDbEntity
  8
A4225301_NIPPEL_
  6
Continuous
 62
     7
100
AcDbLine
 10
48.9194989881
 20
172.4326605205
 30
0.0
 11
25.9194989881
 21
172.4326605205
 31
0.0
  0
LINE
  5
141
330
109
100
AcDbEntity
  8
A4225301_NIPPEL_
  6
Continuous
 62
     7
100
AcDbLine
 10
25.9194989881
 20
172.4326605205
 30
0.0
 11
25.9194989881
 21
106.9256758767
 31
0.0
  0
LINE
  5
142
330
109
100
AcDbEntity
  8
A4225301_NIPPEL_
  6
Continuous
 62
     7
100
AcDbLine
 10
48.9194989881
 20
106.9256758767
 30
0.0
 11
48.9194989881
 21
172.4326605205
 31
0.0
  0
ARC
  5
143
330
109
100
AcDbEntity
  8
A4225301_NIPPEL_
  6
Continuous
 62
     7
100
AcDbCircle
 10
37.4194989881
 20
906.35
 30
0.0
 40
800.0000000000002
100
AcDbArc
 50
269.211665465
 51
270.0
  0
ARC
  5
144
330
109
100
AcDbEntity
  8
A4225301_NIPPEL_
  6
Continuous
 62
     7
100
AcDbCircle
 10
37.4194989881
 20
906.35
 30
0.0
 40
800.0
100
AcDbArc
 50
270.0
 51
270.788334535
  0
ARC
  5
145
330
109
100
AcDbEntity
  8
A4225301_NIPPEL_
  6
Continuous
 62
     7
100
AcDbCircle
 10
26.4194989881
 20
106.9256758767
 30
0.0
 40
0.4999999999999987
100
AcDbArc
 50
180.0
 51
269.2116654671
  0
ARC
  5
146
330
109
100
AcDbEntity
  8
A4225301_NIPPEL_
  6
Continuous
 62
     7
100
AcDbCircle
 10
48.4194989881
 20
106.9256758767
 30
0.0
 40
0.5000000000002476
100
AcDbArc
 50
270.7883345329
 51
0.0
  0
ENDBLK
  5
148
330
109
100
AcDbEntity
  8
0
100
AcDbBlockEnd
  0
ENDSEC
  0
SECTION
  2
ENTITIES
  0
INSERT
  5
5F
330
1F
100
AcDbEntity
  8
Default
100
AcDbBlockReference
  2
SEANNOT_GROUP
 10
0.0
 20
0.0
 30
0.0
  0
INSERT
  5
65
330
1F
100
AcDbEntity
  8
Default
100
AcDbBlockReference
  2
SEANNOT_GROUP1
 10
0.0
 20
0.0
 30
0.0
  0
INSERT
  5
6A
330
1F
100
AcDbEntity
  8
Default
100
AcDbBlockReference
  2
SE
 10
0.0
 20
0.0
 30
0.0
  0
INSERT
  5
AF
330
1F
100
AcDbEntity
  8
Default
100
AcDbBlockReference
  2
SE1
 10
0.0
 20
0.0
 30
0.0
  0
INSERT
  5
10A
330
1F
100
AcDbEntity
  8
Default
100
AcDbBlockReference
  2
SE2
 10
0.0
 20
0.0
 30
0.0
  0
TEXT
  5
14A
330
1F
100
AcDbEntity
  8
Default
  6
Continuous
 62
     7
100
AcDbText
 10
5.9362635081
 20
53.4225120485
 30
0.0
 40
10.0
  1
Grohe AG^J
  7
SEACAD_seiso_ttf
 11
5.9362635081
 21
63.4225120485
 31
0.0
100
AcDbText
 73
     3
  0
TEXT
  5
14B
330
1F
100
AcDbEntity
  8
Default
  6
Continuous
 62
     7
100
AcDbText
 10
5.9362635081
 20
37.0588756849
 30
0.0
 40
10.0
  1
 
  7
SEACAD_seiso_ttf
 11
5.9362635081
 21
47.0588756849
 31
0.0
100
AcDbText
 73
     3
  0
TEXT
  5
14C
330
1F
100
AcDbEntity
  8
Default
  6
Continuous
 62
     7
100
AcDbText
 10
5.9362635081
 20
20.6952393213
 30
0.0
 40
10.0
  1
ecn: 
  7
SEACAD_seiso_ttf
 11
5.9362635081
 21
30.6952393213
 31
0.0
100
AcDbText
 73
     3
  0
TEXT
  5
14D
330
1F
100
AcDbEntity
  8
Default
  6
Continuous
 62
     7
100
AcDbText
 10
5.9362635081
 20
4.3316029576
 30
0.0
 40
10.0
  1
unit: mm
  7
SEACAD_seiso_ttf
 11
5.9362635081
 21
14.3316029576
 31
0.0
100
AcDbText
 73
     3
  0
LINE
  5
14E
330
1F
100
AcDbEntity
  8
Default
  6
Continuous
 62
     7
100
AcDbLine
 10
0.0
 20
0.0
 30
0.0
 11
100.0
 21
0.0
 31
0.0
  0
LINE
  5
14F
330
1F
100
AcDbEntity
  8
Default
  6
Continuous
 62
     7
100
AcDbLine
 10
0.0
 20
0.0
 30
0.0
 11
0.0
 21
100.0
 31
0.0
  0
TEXT
  5
150
330
1F
100
AcDbEntity
  8
Default
  6
Continuous
 62
     7
100
AcDbText
 10
24.3923665681
 20
-18.2375342018
 30
0.0
 40
10.0
  1
100 mm
  7
SEACAD_seiso_ttf
 11
24.3923665681
 21
-8.2375342018
 31
0.0
100
AcDbText
 73
     3
  0
TEXT
  5
151
330
1F
100
AcDbEntity
  8
Default
  6
Continuous
 62
     7
100
AcDbText
 10
-7.6150308803
 20
24.6231930421
 30
0.0
 40
10.0
  1
100 mm
 50
90.0
  7
SEACAD_seiso_ttf
 11
-17.6150308803
 21
24.6231930421
 31
0.0
100
AcDbText
 73
     3
  0
TEXT
  5
152
330
1F
100
AcDbEntity
  8
Default
  6
Continuous
 62
     7
100
AcDbText
 10
28.4878128572
 20
20.0907663715
 30
0.0
 40
10.0
  1
215205
  7
SEACAD_seiso_ttf
 11
28.4878128572
 21
30.0907663715
 31
0.0
100
AcDbText
 73
     3
  0
TEXT
  5
153
330
1F
100
AcDbEntity
  8
Default
  6
Continuous
 62
     7
100
AcDbText
 10
5.9012241913
 20
36.7242780188
 30
0.0
 40
10.0
  1
36091000
  7
SEACAD_seiso_ttf
 11
5.9012241913
 21
46.7242780188
 31
0.0
100
AcDbText
 73
     3
  0
ENDSEC
  0
SECTION
  2
OBJECTS
  0
DICTIONARY
  5
C
330
0
100
AcDbDictionary
281
     1
  3
ACAD_GROUP
350
D
  3
ACAD_LAYOUT
350
1A
  3
ACAD_MLEADERSTYLE
350
157
  3
ACAD_MLINESTYLE
350
17
  3
ACAD_PLOTSETTINGS
350
19
  3
ACAD_PLOTSTYLENAME
350
E
  3
ACAD_SCALELIST
350
3B
  3
ACAD_TABLESTYLE
350
156
  3
ACAD_VISUALSTYLE
350
2A
  3
AcDbVariableDictionary
350
154
  0
DICTIONARY
  5
D
102
{ACAD_REACTORS
330
C
102
}
330
C
100
AcDbDictionary
281
     1
  0
DICTIONARY
  5
1A
102
{ACAD_REACTORS
330
C
102
}
330
C
100
AcDbDictionary
281
     1
  3
Layout1
350
1E
  3
Model
350
22
  0
DICTIONARY
  5
157
102
{ACAD_REACTORS
330
C
102
}
330
C
100
AcDbDictionary
281
     1
  0
DICTIONARY
  5
17
102
{ACAD_REACTORS
330
C
102
}
330
C
100
AcDbDictionary
281
     1
  3
Standard
350
18
  0
DICTIONARY
  5
19
102
{ACAD_REACTORS
330
C
102
}
330
C
100
AcDbDictionary
281
     1
  0
ACDBDICTIONARYWDFLT
  5
E
102
{ACAD_REACTORS
330
C
102
}
330
C
100
AcDbDictionary
281
     1
  3
Normal
350
F
100
AcDbDictionaryWithDefault
340
F
  0
DICTIONARY
  5
3B
102
{ACAD_REACTORS
330
C
102
}
330
C
100
AcDbDictionary
281
     1
  3
A0
350
3C
  3
A1
350
3D
  3
A2
350
3E
  3
A3
350
3F
  3
A4
350
40
  3
A5
350
41
  3
A6
350
42
  3
A7
350
43
  3
A8
350
44
  3
A9
350
45
  3
B0
350
46
  3
B1
350
47
  3
B2
350
48
  3
B3
350
49
  3
B4
350
4A
  3
B5
350
4B
  3
B6
350
4C
  3
B7
350
4D
  3
B8
350
4E
  3
B9
350
4F
  3
C0
350
50
  3
C1
350
51
  3
C2
350
52
  3
C3
350
53
  3
C4
350
54
  3
C5
350
55
  3
C6
350
56
  3
C7
350
57
  3
C8
350
58
  3
C9
350
59
  3
D0
350
5A
  3
D1
350
5B
  3
D2
350
5C
  0
DICTIONARY
  5
156
102
{ACAD_REACTORS
330
C
102
}
330
C
100
AcDbDictionary
281
     1
  0
DICTIONARY
  5
2A
102
{ACAD_REACTORS
330
C
102
}
330
C
100
AcDbDictionary
281
     1
  3
2dWireframe
350
2F
  3
3D Hidden
350
31
  3
3dWireframe
350
30
  3
Basic
350
32
  3
Brighten
350
36
  3
ColorChange
350
3A
  3
Conceptual
350
34
  3
Dim
350
35
  3
Facepattern
350
39
  3
Flat
350
2B
  3
FlatWithEdges
350
2C
  3
Gouraud
350
2D
  3
GouraudWithEdges
350
2E
  3
Linepattern
350
38
  3
Realistic
350
33
  3
Thicken
350
37
  0
DICTIONARY
  5
154
102
{ACAD_REACTORS
330
C
102
}
330
C
100
AcDbDictionary
281
     1
  3
CANNOSCALE
350
155
  3
PSOLHEIGHT
350
159
  3
PSOLWIDTH
350
158
  0
LAYOUT
  5
1E
102
{ACAD_REACTORS
330
1A
102
}
330
1A
100
AcDbPlotSettings
  1

  2
none_device
  4

  6

 40
0.0
 41
0.0
 42
0.0
 43
0.0
 44
0.0
 45
0.0
 46
0.0
 47
0.0
 48
0.0
 49
0.0
140
0.0
141
0.0
142
1.0
143
1.0
 70
   688
 72
     0
 73
     0
 74
     5
  7

 75
    16
147
1.0
148
0.0
149
0.0
100
AcDbLayout
  1
Layout1
 70
     1
 71
     1
 10
0.0
 20
0.0
 11
1682.0
 21
2378.0
 12
0.0
 22
0.0
 32
0.0
 14
0.0
 24
0.0
 34
0.0
 15
1682.0
 25
2378.0
 35
0.0
146
0.0
 13
0.0
 23
0.0
 33
0.0
 16
1.0
 26
0.0
 36
0.0
 17
0.0
 27
1.0
 37
0.0
 76
     0
330
1B
  0
LAYOUT
  5
22
102
{ACAD_REACTORS
330
1A
102
}
330
1A
100
AcDbPlotSettings
  1

  2
none_device
  4

  6

 40
0.0
 41
0.0
 42
0.0
 43
0.0
 44
0.0
 45
0.0
 46
0.0
 47
0.0
 48
0.0
 49
0.0
140
0.0
141
0.0
142
1.0
143
1.0
 70
  1712
 72
     0
 73
     0
 74
     0
  7

 75
     0
147
1.0
148
0.0
149
0.0
100
AcDbLayout
  1
Model
 70
     1
 71
     0
 10
0.0
 20
0.0
 11
1682.0
 21
2378.0
 12
0.0
 22
0.0
 32
0.0
 14
0.0
 24
0.0
 34
0.0
 15
1682.0
 25
2378.0
 35
0.0
146
0.0
 13
0.0
 23
0.0
 33
0.0
 16
1.0
 26
0.0
 36
0.0
 17
0.0
 27
1.0
 37
0.0
 76
     0
330
1F
331
29
  0
MLINESTYLE
  5
18
102
{ACAD_REACTORS
330
17
102
}
330
17
100
AcDbMlineStyle
  2
Standard
 70
     0
  3

 62
   256
 51
90.0
 52
90.0
 71
     2
 49
0.5
 62
   256
  6
BYLAYER
 49
-0.5
 62
   256
  6
BYLAYER
  0
ACDBPLACEHOLDER
  5
F
102
{ACAD_REACTORS
330
E
102
}
330
E
  0
SCALE
  5
3C
102
{ACAD_REACTORS
330
3B
102
}
330
3B
100
AcDbScale
 70
     0
300
1:1
140
1.0
141
1.0
290
     1
  0
SCALE
  5
3D
102
{ACAD_REACTORS
330
3B
102
}
330
3B
100
AcDbScale
 70
     0
300
1:2
140
1.0
141
2.0
290
     0
  0
SCALE
  5
3E
102
{ACAD_REACTORS
330
3B
102
}
330
3B
100
AcDbScale
 70
     0
300
1:4
140
1.0
141
4.0
290
     0
  0
SCALE
  5
3F
102
{ACAD_REACTORS
330
3B
102
}
330
3B
100
AcDbScale
 70
     0
300
1:5
140
1.0
141
5.0
290
     0
  0
SCALE
  5
40
102
{ACAD_REACTORS
330
3B
102
}
330
3B
100
AcDbScale
 70
     0
300
1:8
140
1.0
141
8.0
290
     0
  0
SCALE
  5
41
102
{ACAD_REACTORS
330
3B
102
}
330
3B
100
AcDbScale
 70
     0
300
1:10
140
1.0
141
10.0
290
     0
  0
SCALE
  5
42
102
{ACAD_REACTORS
330
3B
102
}
330
3B
100
AcDbScale
 70
     0
300
1:16
140
1.0
141
16.0
290
     0
  0
SCALE
  5
43
102
{ACAD_REACTORS
330
3B
102
}
330
3B
100
AcDbScale
 70
     0
300
1:20
140
1.0
141
20.0
290
     0
  0
SCALE
  5
44
102
{ACAD_REACTORS
330
3B
102
}
330
3B
100
AcDbScale
 70
     0
300
1:30
140
1.0
141
30.0
290
     0
  0
SCALE
  5
45
102
{ACAD_REACTORS
330
3B
102
}
330
3B
100
AcDbScale
 70
     0
300
1:40
140
1.0
141
40.0
290
     0
  0
SCALE
  5
46
102
{ACAD_REACTORS
330
3B
102
}
330
3B
100
AcDbScale
 70
     0
300
1:50
140
1.0
141
50.0
290
     0
  0
SCALE
  5
47
102
{ACAD_REACTORS
330
3B
102
}
330
3B
100
AcDbScale
 70
     0
300
1:100
140
1.0
141
100.0
290
     0
  0
SCALE
  5
48
102
{ACAD_REACTORS
330
3B
102
}
330
3B
100
AcDbScale
 70
     0
300
2:1
140
2.0
141
1.0
290
     0
  0
SCALE
  5
49
102
{ACAD_REACTORS
330
3B
102
}
330
3B
100
AcDbScale
 70
     0
300
4:1
140
4.0
141
1.0
290
     0
  0
SCALE
  5
4A
102
{ACAD_REACTORS
330
3B
102
}
330
3B
100
AcDbScale
 70
     0
300
8:1
140
8.0
141
1.0
290
     0
  0
SCALE
  5
4B
102
{ACAD_REACTORS
330
3B
102
}
330
3B
100
AcDbScale
 70
     0
300
10:1
140
10.0
141
1.0
290
     0
  0
SCALE
  5
4C
102
{ACAD_REACTORS
330
3B
102
}
330
3B
100
AcDbScale
 70
     0
300
100:1
140
100.0
141
1.0
290
     0
  0
SCALE
  5
4D
102
{ACAD_REACTORS
330
3B
102
}
330
3B
100
AcDbScale
 70
     0
300
1/128" = 1'-0"
140
0.0078125
141
12.0
290
     0
  0
SCALE
  5
4E
102
{ACAD_REACTORS
330
3B
102
}
330
3B
100
AcDbScale
 70
     0
300
1/64" = 1'-0"
140
0.015625
141
12.0
290
     0
  0
SCALE
  5
4F
102
{ACAD_REACTORS
330
3B
102
}
330
3B
100
AcDbScale
 70
     0
300
1/32" = 1'-0"
140
0.03125
141
12.0
290
     0
  0
SCALE
  5
50
102
{ACAD_REACTORS
330
3B
102
}
330
3B
100
AcDbScale
 70
     0
300
1/16" = 1'-0"
140
0.0625
141
12.0
290
     0
  0
SCALE
  5
51
102
{ACAD_REACTORS
330
3B
102
}
330
3B
100
AcDbScale
 70
     0
300
3/32" = 1'-0"
140
0.09375
141
12.0
290
     0
  0
SCALE
  5
52
102
{ACAD_REACTORS
330
3B
102
}
330
3B
100
AcDbScale
 70
     0
300
1/8" = 1'-0"
140
0.125
141
12.0
290
     0
  0
SCALE
  5
53
102
{ACAD_REACTORS
330
3B
102
}
330
3B
100
AcDbScale
 70
     0
300
3/16" = 1'-0"
140
0.1875
141
12.0
290
     0
  0
SCALE
  5
54
102
{ACAD_REACTORS
330
3B
102
}
330
3B
100
AcDbScale
 70
     0
300
1/4" = 1'-0"
140
0.25
141
12.0
290
     0
  0
SCALE
  5
55
102
{ACAD_REACTORS
330
3B
102
}
330
3B
100
AcDbScale
 70
     0
300
3/8" = 1'-0"
140
0.375
141
12.0
290
     0
  0
SCALE
  5
56
102
{ACAD_REACTORS
330
3B
102
}
330
3B
100
AcDbScale
 70
     0
300
1/2" = 1'-0"
140
0.5
141
12.0
290
     0
  0
SCALE
  5
57
102
{ACAD_REACTORS
330
3B
102
}
330
3B
100
AcDbScale
 70
     0
300
3/4" = 1'-0"
140
0.75
141
12.0
290
     0
  0
SCALE
  5
58
102
{ACAD_REACTORS
330
3B
102
}
330
3B
100
AcDbScale
 70
     0
300
1" = 1'-0"
140
1.0
141
12.0
290
     0
  0
SCALE
  5
59
102
{ACAD_REACTORS
330
3B
102
}
330
3B
100
AcDbScale
 70
     0
300
1-1/2" = 1'-0"
140
1.5
141
12.0
290
     0
  0
SCALE
  5
5A
102
{ACAD_REACTORS
330
3B
102
}
330
3B
100
AcDbScale
 70
     0
300
3" = 1'-0"
140
3.0
141
12.0
290
     0
  0
SCALE
  5
5B
102
{ACAD_REACTORS
330
3B
102
}
330
3B
100
AcDbScale
 70
     0
300
6" = 1'-0"
140
6.0
141
12.0
290
     0
  0
SCALE
  5
5C
102
{ACAD_REACTORS
330
3B
102
}
330
3B
100
AcDbScale
 70
     0
300
1'-0" = 1'-0"
140
12.0
141
12.0
290
     0
  0
VISUALSTYLE
  5
2F
102
{ACAD_REACTORS
330
2A
102
}
330
2A
100
AcDbVisualStyle
  2
2dWireframe
 70
     4
 71
     0
 72
     2
 73
     0
 90
        0
 40
-0.6
 41
-30.0
 62
     5
 63
     7
 74
     1
 91
        4
 64
     7
 65
   257
 75
     1
175
     1
 42
1.0
 92
        0
 66
   257
 43
1.0
 76
     1
 77
     6
 78
     2
 67
     7
 79
     5
170
     0
171
     0
290
     0
174
     0
 93
        1
 44
0.0
173
     0
291
     0
 45
0.0
1001
ACAD
1000
AcDbSavedByObjectVersion
1070
     0
  0
VISUALSTYLE
  5
31
102
{ACAD_REACTORS
330
2A
102
}
330
2A
100
AcDbVisualStyle
  2
3D Hidden
 70
     6
 71
     1
 72
     2
 73
     2
 90
        0
 40
-0.6
 41
-30.0
 62
     5
 63
     7
 74
     2
 91
        2
 64
     7
 65
   257
 75
     2
175
     1
 42
40.0
 92
        0
 66
   257
 43
1.0
 76
     1
 77
     6
 78
     2
 67
     7
 79
     3
170
     0
171
     0
290
     0
174
     0
 93
        1
 44
0.0
173
     0
291
     0
 45
0.0
1001
ACAD
1000
AcDbSavedByObjectVersion
1070
     0
  0
VISUALSTYLE
  5
30
102
{ACAD_REACTORS
330
2A
102
}
330
2A
100
AcDbVisualStyle
  2
3dWireframe
 70
     5
 71
     0
 72
     2
 73
     0
 90
        0
 40
-0.6
 41
-30.0
 62
     5
 63
     7
 74
     1
 91
        4
 64
     7
 65
   257
 75
     1
175
     1
 42
1.0
 92
        0
 66
   257
 43
1.0
 76
     1
 77
     6
 78
     2
 67
     7
 79
     5
170
     0
171
     0
290
     0
174
     0
 93
        1
 44
0.0
173
     0
291
     0
 45
0.0
1001
ACAD
1000
AcDbSavedByObjectVersion
1070
     0
  0
VISUALSTYLE
  5
32
102
{ACAD_REACTORS
330
2A
102
}
330
2A
100
AcDbVisualStyle
  2
Basic
 70
     7
 71
     1
 72
     0
 73
     1
 90
        0
 40
-0.6
 41
-30.0
 62
     5
 63
     7
 74
     0
 91
        4
 64
     7
 65
   257
 75
     1
175
     1
 42
1.0
 92
        8
 66
     7
 43
1.0
 76
     1
 77
     6
 78
     2
 67
     7
 79
     5
170
     0
171
     0
290
     0
174
     0
 93
        1
 44
0.0
173
     0
291
     1
 45
0.0
1001
ACAD
1000
AcDbSavedByObjectVersion
1070
     0
  0
VISUALSTYLE
  5
36
102
{ACAD_REACTORS
330
2A
102
}
330
2A
100
AcDbVisualStyle
  2
Brighten
 70
    12
 71
     2
 72
     2
 73
     0
 90
        0
 40
-0.6
 41
-30.0
 62
     5
 63
     7
 74
     1
 91
        4
 64
     7
 65
   257
 75
     1
175
     1
 42
1.0
 92
        8
 66
     7
 43
1.0
 76
     1
 77
     6
 78
     2
 67
     7
 79
     5
170
     0
171
     0
290
     0
174
     0
 93
        1
 44
50.0
173
     0
291
     1
 45
0.0
1001
ACAD
1000
AcDbSavedByObjectVersion
1070
     0
  0
VISUALSTYLE
  5
3A
102
{ACAD_REACTORS
330
2A
102
}
330
2A
100
AcDbVisualStyle
  2
ColorChange
 70
    16
 71
     2
 72
     2
 73
     3
 90
        0
 40
-0.6
 41
-30.0
 62
     5
 63
     8
 74
     1
 91
        4
 64
     7
 65
   257
 75
     1
175
     1
 42
1.0
 92
        8
 66
     8
 43
1.0
 76
     1
 77
     6
 78
     2
 67
     7
 79
     5
170
     0
171
     0
290
     0
174
     0
 93
        1
 44
0.0
173
     0
291
     1
 45
0.0
1001
ACAD
1000
AcDbSavedByObjectVersion
1070
     0
  0
VISUALSTYLE
  5
34
102
{ACAD_REACTORS
330
2A
102
}
330
2A
100
AcDbVisualStyle
  2
Conceptual
 70
     9
 71
     3
 72
     2
 73
     0
 90
        0
 40
-0.6
 41
-30.0
 62
     5
 63
     7
 74
     2
 91
        2
 64
     7
 65
   257
 75
     1
175
     1
 42
40.0
 92
        8
 66
     7
 43
1.0
 76
     1
 77
     6
 78
     2
 67
     7
 79
     3
170
     0
171
     0
290
     0
174
     0
 93
        1
 44
0.0
173
     0
291
     0
 45
0.0
1001
ACAD
1000
AcDbSavedByObjectVersion
1070
     0
  0
VISUALSTYLE
  5
35
102
{ACAD_REACTORS
330
2A
102
}
330
2A
100
AcDbVisualStyle
  2
Dim
 70
    11
 71
     2
 72
     2
 73
     0
 90
        0
 40
-0.6
 41
-30.0
 62
     5
 63
     7
 74
     1
 91
        4
 64
     7
 65
   257
 75
     1
175
     1
 42
1.0
 92
        8
 66
     7
 43
1.0
 76
     1
 77
     6
 78
     2
 67
     7
 79
     5
170
     0
171
     0
290
     0
174
     0
 93
        1
 44
-50.0
173
     0
291
     1
 45
0.0
1001
ACAD
1000
AcDbSavedByObjectVersion
1070
     0
  0
VISUALSTYLE
  5
39
102
{ACAD_REACTORS
330
2A
102
}
330
2A
100
AcDbVisualStyle
  2
Facepattern
 70
    15
 71
     2
 72
     2
 73
     0
 90
        0
 40
-0.6
 41
-30.0
 62
     5
 63
     7
 74
     1
 91
        4
 64
     7
 65
   257
 75
     1
175
     1
 42
1.0
 92
        8
 66
     7
 43
1.0
 76
     1
 77
     6
 78
     2
 67
     7
 79
     5
170
     0
171
     0
290
     0
174
     0
 93
        1
 44
0.0
173
     0
291
     1
 45
0.0
1001
ACAD
1000
AcDbSavedByObjectVersion
1070
     0
  0
VISUALSTYLE
  5
2B
102
{ACAD_REACTORS
330
2A
102
}
330
2A
100
AcDbVisualStyle
  2
Flat
 70
     0
 71
     2
 72
     1
 73
     1
 90
        2
 40
-0.6
 41
30.0
 62
     5
 63
     7
 74
     0
 91
        4
 64
     7
 65
   257
 75
     1
175
     1
 42
1.0
 92
        8
 66
     7
 43
1.0
 76
     1
 77
     6
 78
     2
 67
     7
 79
     5
170
     0
171
     0
290
     0
174
     0
 93
       13
 44
0.0
173
     0
291
     1
 45
0.0
1001
ACAD
1000
AcDbSavedByObjectVersion
1070
     0
  0
VISUALSTYLE
  5
2C
102
{ACAD_REACTORS
330
2A
102
}
330
2A
100
AcDbVisualStyle
  2
FlatWithEdges
 70
     1
 71
     2
 72
     1
 73
     1
 90
        2
 40
-0.6
 41
30.0
 62
     5
 63
     7
 74
     1
 91
        4
 64
     7
 65
   257
 75
     1
175
     1
 42
1.0
 92
        0
 66
   257
 43
1.0
 76
     1
 77
     6
 78
     2
 67
     7
 79
     5
170
     0
171
     0
290
     0
174
     0
 93
       13
 44
0.0
173
     0
291
     1
 45
0.0
1001
ACAD
1000
AcDbSavedByObjectVersion
1070
     0
  0
VISUALSTYLE
  5
2D
102
{ACAD_REACTORS
330
2A
102
}
330
2A
100
AcDbVisualStyle
  2
Gouraud
 70
     2
 71
     2
 72
     2
 73
     1
 90
        2
 40
-0.6
 41
30.0
 62
     5
 63
     7
 74
     0
 91
        4
 64
     7
 65
   257
 75
     1
175
     1
 42
1.0
 92
        0
 66
     7
 43
1.0
 76
     1
 77
     6
 78
     2
 67
     7
 79
     5
170
     0
171
     0
290
     0
174
     0
 93
       13
 44
0.0
173
     0
291
     1
 45
0.0
1001
ACAD
1000
AcDbSavedByObjectVersion
1070
     0
  0
VISUALSTYLE
  5
2E
102
{ACAD_REACTORS
330
2A
102
}
330
2A
100
AcDbVisualStyle
  2
GouraudWithEdges
 70
     3
 71
     2
 72
     2
 73
     1
 90
        2
 40
-0.6
 41
30.0
 62
     5
 63
     7
 74
     1
 91
        4
 64
     7
 65
   257
 75
     1
175
     1
 42
1.0
 92
        0
 66
   257
 43
1.0
 76
     1
 77
     6
 78
     2
 67
     7
 79
     5
170
     0
171
     0
290
     0
174
     0
 93
       13
 44
0.0
173
     0
291
     1
 45
0.0
1001
ACAD
1000
AcDbSavedByObjectVersion
1070
     0
  0
VISUALSTYLE
  5
38
102
{ACAD_REACTORS
330
2A
102
}
330
2A
100
AcDbVisualStyle
  2
Linepattern
 70
    14
 71
     2
 72
     2
 73
     0
 90
        0
 40
-0.6
 41
-30.0
 62
     5
 63
     7
 74
     1
 91
        4
 64
     7
 65
   257
 75
     7
175
     7
 42
1.0
 92
        8
 66
     7
 43
1.0
 76
     1
 77
     6
 78
     2
 67
     7
 79
     5
170
     0
171
     0
290
     0
174
     0
 93
        1
 44
0.0
173
     0
291
     1
 45
0.0
1001
ACAD
1000
AcDbSavedByObjectVersion
1070
     0
  0
VISUALSTYLE
  5
33
102
{ACAD_REACTORS
330
2A
102
}
330
2A
100
AcDbVisualStyle
  2
Realistic
 70
     8
 71
     2
 72
     2
 73
     0
 90
        0
 40
-0.6
 41
-30.0
 62
     5
 63
     7
 74
     1
 91
        0
 64
     7
 65
   257
 75
     1
175
     1
 42
1.0
 92
        8
 66
     8
 43
1.0
 76
     1
 77
     6
 78
     2
 67
     7
 79
     5
170
     0
171
     0
290
     0
174
     0
 93
       13
 44
0.0
173
     0
291
     0
 45
0.0
1001
ACAD
1000
AcDbSavedByObjectVersion
1070
     0
  0
VISUALSTYLE
  5
37
102
{ACAD_REACTORS
330
2A
102
}
330
2A
100
AcDbVisualStyle
  2
Thicken
 70
    13
 71
     2
 72
     2
 73
     0
 90
        0
 40
-0.6
 41
-30.0
 62
     5
 63
     7
 74
     1
 91
        4
 64
     7
 65
   257
 75
     1
175
     1
 42
1.0
 92
       12
 66
     7
 43
1.0
 76
     1
 77
     6
 78
     2
 67
     7
 79
     5
170
     0
171
     0
290
     0
174
     0
 93
        1
 44
0.0
173
     0
291
     1
 45
0.0
1001
ACAD
1000
AcDbSavedByObjectVersion
1070
     0
  0
DICTIONARYVAR
  5
155
102
{ACAD_REACTORS
330
154
102
}
330
154
100
DictionaryVariables
280
     0
  1
1:1
  0
DICTIONARYVAR
  5
159
102
{ACAD_REACTORS
330
154
102
}
330
154
100
DictionaryVariables
280
     0
  1
80.000000
  0
DICTIONARYVAR
  5
158
102
{ACAD_REACTORS
330
154
102
}
330
154
100
DictionaryVariables
280
     0
  1
5.000000
  0
ENDSEC
  0
EOF
