  0
SECTION
  2
HEADER
  9
$ACADVER
  1
AC1015
  9
$ACADMAINTVER
 70
     6
  9
$DWGCODEPAGE
  3
ANSI_1252
  9
$INSBASE
 10
0.0
 20
0.0
 30
0.0
  9
$EXTMIN
 10
0.0
 20
0.0
 30
0.0
  9
$EXTMAX
 10
1682.0
 20
2378.0
 30
0.0
  9
$LIMMIN
 10
0.0
 20
0.0
  9
$LIMMAX
 10
1682.0
 20
2378.0
  9
$ORTHOMODE
 70
     0
  9
$REGENMODE
 70
     1
  9
$FILLMODE
 70
     1
  9
$QTEXTMODE
 70
     0
  9
$MIRRTEXT
 70
     1
  9
$LTSCALE
 40
1.0
  9
$ATTMODE
 70
     1
  9
$TEXTSIZE
 40
2.5
  9
$TRACEWID
 40
1.0
  9
$TEXTSTYLE
  7
Standard
  9
$CLAYER
  8
0
  9
$CELTYPE
  6
ByLayer
  9
$CECOLOR
 62
   256
  9
$CELTSCALE
 40
1.0
  9
$DISPSILH
 70
     0
  9
$DIMSCALE
 40
1.0
  9
$DIMASZ
 40
2.5
  9
$DIMEXO
 40
0.625
  9
$DIMDLI
 40
3.75
  9
$DIMRND
 40
0.0
  9
$DIMDLE
 40
0.0
  9
$DIMEXE
 40
1.25
  9
$DIMTP
 40
0.0
  9
$DIMTM
 40
0.0
  9
$DIMTXT
 40
2.5
  9
$DIMCEN
 40
2.5
  9
$DIMTSZ
 40
0.0
  9
$DIMTOL
 70
     0
  9
$DIMLIM
 70
     0
  9
$DIMTIH
 70
     0
  9
$DIMTOH
 70
     0
  9
$DIMSE1
 70
     0
  9
$DIMSE2
 70
     0
  9
$DIMTAD
 70
     1
  9
$DIMZIN
 70
     8
  9
$DIMBLK
  1

  9
$DIMASO
 70
     1
  9
$DIMSHO
 70
     1
  9
$DIMPOST
  1

  9
$DIMAPOST
  1

  9
$DIMALT
 70
     0
  9
$DIMALTD
 70
     3
  9
$DIMALTF
 40
0.0393700787
  9
$DIMLFAC
 40
1.0
  9
$DIMTOFL
 70
     1
  9
$DIMTVP
 40
0.0
  9
$DIMTIX
 70
     0
  9
$DIMSOXD
 70
     0
  9
$DIMSAH
 70
     0
  9
$DIMBLK1
  1

  9
$DIMBLK2
  1

  9
$DIMSTYLE
  2
ISO-25
  9
$DIMCLRD
 70
     0
  9
$DIMCLRE
 70
     0
  9
$DIMCLRT
 70
     0
  9
$DIMTFAC
 40
1.0
  9
$DIMGAP
 40
0.625
  9
$DIMJUST
 70
     0
  9
$DIMSD1
 70
     0
  9
$DIMSD2
 70
     0
  9
$DIMTOLJ
 70
     0
  9
$DIMTZIN
 70
     8
  9
$DIMALTZ
 70
     0
  9
$DIMALTTZ
 70
     0
  9
$DIMUPT
 70
     0
  9
$DIMDEC
 70
     2
  9
$DIMTDEC
 70
     2
  9
$DIMALTU
 70
     2
  9
$DIMALTTD
 70
     3
  9
$DIMTXSTY
  7
Standard
  9
$DIMAUNIT
 70
     0
  9
$DIMADEC
 70
     0
  9
$DIMALTRND
 40
0.0
  9
$DIMAZIN
 70
     0
  9
$DIMDSEP
 70
    44
  9
$DIMATFIT
 70
     3
  9
$DIMFRAC
 70
     0
  9
$DIMLDRBLK
  1

  9
$DIMLUNIT
 70
     2
  9
$DIMLWD
 70
    -2
  9
$DIMLWE
 70
    -2
  9
$DIMTMOVE
 70
     0
  9
$LUNITS
 70
     2
  9
$LUPREC
 70
     4
  9
$SKETCHINC
 40
1.0
  9
$FILLETRAD
 40
10.0
  9
$AUNITS
 70
     0
  9
$AUPREC
 70
     0
  9
$MENU
  1
.
  9
$ELEVATION
 40
0.0
  9
$PELEVATION
 40
0.0
  9
$THICKNESS
 40
0.0
  9
$LIMCHECK
 70
     0
  9
$CHAMFERA
 40
10.0
  9
$CHAMFERB
 40
10.0
  9
$CHAMFERC
 40
20.0
  9
$CHAMFERD
 40
0.0
  9
$SKPOLY
 70
     0
  9
$TDCREATE
 40
2455462.597751632
  9
$TDUCREATE
 40
2455462.514418298
  9
$TDUPDATE
 40
2455462.597751644
  9
$TDUUPDATE
 40
2455462.51441831
  9
$TDINDWG
 40
0.0000000116
  9
$TDUSRTIMER
 40
0.0000000116
  9
$USRTIMER
 70
     1
  9
$ANGBASE
 50
0.0
  9
$ANGDIR
 70
     0
  9
$PDMODE
 70
     0
  9
$PDSIZE
 40
0.0
  9
$PLINEWID
 40
0.0
  9
$SPLFRAME
 70
     0
  9
$SPLINETYPE
 70
     6
  9
$SPLINESEGS
 70
     8
  9
$HANDSEED
  5
3F9
  9
$SURFTAB1
 70
     6
  9
$SURFTAB2
 70
     6
  9
$SURFTYPE
 70
     6
  9
$SURFU
 70
     6
  9
$SURFV
 70
     6
  9
$UCSBASE
  2

  9
$UCSNAME
  2

  9
$UCSORG
 10
0.0
 20
0.0
 30
0.0
  9
$UCSXDIR
 10
1.0
 20
0.0
 30
0.0
  9
$UCSYDIR
 10
0.0
 20
1.0
 30
0.0
  9
$UCSORTHOREF
  2

  9
$UCSORTHOVIEW
 70
     0
  9
$UCSORGTOP
 10
0.0
 20
0.0
 30
0.0
  9
$UCSORGBOTTOM
 10
0.0
 20
0.0
 30
0.0
  9
$UCSORGLEFT
 10
0.0
 20
0.0
 30
0.0
  9
$UCSORGRIGHT
 10
0.0
 20
0.0
 30
0.0
  9
$UCSORGFRONT
 10
0.0
 20
0.0
 30
0.0
  9
$UCSORGBACK
 10
0.0
 20
0.0
 30
0.0
  9
$PUCSBASE
  2

  9
$PUCSNAME
  2

  9
$PUCSORG
 10
0.0
 20
0.0
 30
0.0
  9
$PUCSXDIR
 10
1.0
 20
0.0
 30
0.0
  9
$PUCSYDIR
 10
0.0
 20
1.0
 30
0.0
  9
$PUCSORTHOREF
  2

  9
$PUCSORTHOVIEW
 70
     0
  9
$PUCSORGTOP
 10
0.0
 20
0.0
 30
0.0
  9
$PUCSORGBOTTOM
 10
0.0
 20
0.0
 30
0.0
  9
$PUCSORGLEFT
 10
0.0
 20
0.0
 30
0.0
  9
$PUCSORGRIGHT
 10
0.0
 20
0.0
 30
0.0
  9
$PUCSORGFRONT
 10
0.0
 20
0.0
 30
0.0
  9
$PUCSORGBACK
 10
0.0
 20
0.0
 30
0.0
  9
$USERI1
 70
     0
  9
$USERI2
 70
     0
  9
$USERI3
 70
     0
  9
$USERI4
 70
     0
  9
$USERI5
 70
     0
  9
$USERR1
 40
0.0
  9
$USERR2
 40
0.0
  9
$USERR3
 40
0.0
  9
$USERR4
 40
0.0
  9
$USERR5
 40
0.0
  9
$WORLDVIEW
 70
     1
  9
$SHADEDGE
 70
     3
  9
$SHADEDIF
 70
    70
  9
$TILEMODE
 70
     1
  9
$MAXACTVP
 70
    64
  9
$PINSBASE
 10
0.0
 20
0.0
 30
0.0
  9
$PLIMCHECK
 70
     0
  9
$PEXTMIN
 10
0.0
 20
0.0
 30
0.0
  9
$PEXTMAX
 10
1682.0
 20
2378.0
 30
0.0
  9
$PLIMMIN
 10
0.0
 20
0.0
  9
$PLIMMAX
 10
1682.0
 20
2378.0
  9
$UNITMODE
 70
     0
  9
$VISRETAIN
 70
     1
  9
$PLINEGEN
 70
     0
  9
$PSLTSCALE
 70
     1
  9
$TREEDEPTH
 70
  3020
  9
$CMLSTYLE
  2
Standard
  9
$CMLJUST
 70
     0
  9
$CMLSCALE
 40
20.0
  9
$PROXYGRAPHICS
 70
     1
  9
$MEASUREMENT
 70
     1
  9
$CELWEIGHT
370
    -1
  9
$ENDCAPS
280
     0
  9
$JOINSTYLE
280
     0
  9
$LWDISPLAY
290
     0
  9
$INSUNITS
 70
     4
  9
$HYPERLINKBASE
  1

  9
$STYLESHEET
  1

  9
$XEDIT
290
     1
  9
$CEPSNTYPE
380
     0
  9
$PSTYLEMODE
290
     1
  9
$FINGERPRINTGUID
  2
{0EEF5321-64A5-4FD3-9288-DFAC4771D1C6}
  9
$VERSIONGUID
  2
{FAEB1C32-E019-11D5-929B-00C0DF256EC4}
  9
$EXTNAMES
290
     1
  9
$PSVPSCALE
 40
0.0
  9
$OLESTARTUP
290
     0
  0
ENDSEC
  0
SECTION
  2
CLASSES
  0
CLASS
  1
ACDBDICTIONARYWDFLT
  2
AcDbDictionaryWithDefault
  3
ObjectDBX Classes
 90
        0
280
     0
281
     0
  0
CLASS
  1
VISUALSTYLE
  2
AcDbVisualStyle
  3
ObjectDBX Classes
 90
     4095
280
     0
281
     0
  0
CLASS
  1
SCALE
  2
AcDbScale
  3
ObjectDBX Classes
 90
     1153
280
     0
281
     0
  0
CLASS
  1
DICTIONARYVAR
  2
AcDbDictionaryVar
  3
ObjectDBX Classes
 90
        0
280
     0
281
     0
  0
CLASS
  1
ACDBPLACEHOLDER
  2
AcDbPlaceHolder
  3
ObjectDBX Classes
 90
        0
280
     0
281
     0
  0
CLASS
  1
LAYOUT
  2
AcDbLayout
  3
ObjectDBX Classes
 90
        0
280
     0
281
     0
  0
ENDSEC
  0
SECTION
  2
TABLES
  0
TABLE
  2
VPORT
  5
8
330
0
100
AcDbSymbolTable
 70
     1
  0
VPORT
  5
29
330
8
100
AcDbSymbolTableRecord
100
AcDbViewportTableRecord
  2
*Active
 70
     0
 10
0.0
 20
0.0
 11
1.0
 21
1.0
 12
344.1869158879
 22
148.5
 13
0.0
 23
0.0
 14
10.0
 24
10.0
 15
10.0
 25
10.0
 16
0.0
 26
0.0
 36
1.0
 17
0.0
 27
0.0
 37
0.0
 40
297.0
 41
1.9729729729
 42
50.0
 43
0.0
 44
0.0
 50
0.0
 51
0.0
 71
     0
 72
   100
 73
     1
 74
     3
 75
     0
 76
     0
 77
     0
 78
     0
281
     0
 65
     1
110
0.0
120
0.0
130
0.0
111
1.0
121
0.0
131
0.0
112
0.0
122
1.0
132
0.0
 79
     0
146
0.0
  0
ENDTAB
  0
TABLE
  2
LTYPE
  5
5
330
0
100
AcDbSymbolTable
 70
     2
  0
LTYPE
  5
14
330
5
100
AcDbSymbolTableRecord
100
AcDbLinetypeTableRecord
  2
ByBlock
 70
     0
  3

 72
    65
 73
     0
 40
0.0
  0
LTYPE
  5
15
330
5
100
AcDbSymbolTableRecord
100
AcDbLinetypeTableRecord
  2
ByLayer
 70
     0
  3

 72
    65
 73
     0
 40
0.0
  0
LTYPE
  5
16
330
5
100
AcDbSymbolTableRecord
100
AcDbLinetypeTableRecord
  2
Continuous
 70
     0
  3
Solid line
 72
    65
 73
     0
 40
0.0
  0
LTYPE
  5
60
330
5
100
AcDbSymbolTableRecord
100
AcDbLinetypeTableRecord
  2
CENTER2
 70
     0
  3
Center (.5x) ___ _ ___ _ ___ _ ___ _ ___ _ ___
 72
    65
 73
     4
 40
28.575
 49
19.05
 74
     4
 75
     0
340
0
 46
0.0
 50
0.0
 44
0.0
 45
0.0
 49
-3.175
 74
     4
 75
     0
340
0
 46
0.0
 50
0.0
 44
0.0
 45
0.0
 49
3.175
 74
     4
 75
     0
340
0
 46
0.0
 50
0.0
 44
0.0
 45
0.0
 49
-3.175
 74
     4
 75
     0
340
0
 46
0.0
 50
0.0
 44
0.0
 45
0.0
  0
ENDTAB
  0
TABLE
  2
LAYER
  5
2
330
0
100
AcDbSymbolTable
 70
    10
  0
LAYER
  5
10
330
2
100
AcDbSymbolTableRecord
100
AcDbLayerTableRecord
  2
0
 70
     0
 62
     7
  6
Continuous
370
    -3
390
F
  0
LAYER
  5
5D
330
2
100
AcDbSymbolTableRecord
100
AcDbLayerTableRecord
  2
Default
 70
     0
 62
     7
  6
Continuous
370
    -3
390
F
  0
LAYER
  5
87
330
2
100
AcDbSymbolTableRecord
100
AcDbLayerTableRecord
  2
09491131_84380__
 70
     0
 62
     7
  6
Continuous
370
    -3
390
F
  0
LAYER
  5
8C
330
2
100
AcDbSymbolTableRecord
100
AcDbLayerTableRecord
  2
$DDT_AUDIT_GENERATED_(8C)
 70
     0
 62
     7
  6
Continuous
370
    -3
390
F
  0
LAYER
  5
95
330
2
100
AcDbSymbolTableRecord
100
AcDbLayerTableRecord
  2
$DDT_AUDIT_GENERATED_(95)
 70
     0
 62
     7
  6
Continuous
370
    -3
390
F
  0
LAYER
  5
CD
330
2
100
AcDbSymbolTableRecord
100
AcDbLayerTableRecord
  2
$DDT_AUDIT_GENERATED_(CD)
 70
     0
 62
     7
  6
Continuous
370
    -3
390
F
  0
LAYER
  5
D1
330
2
100
AcDbSymbolTableRecord
100
AcDbLayerTableRecord
  2
$DDT_AUDIT_GENERATED_(D1)
 70
     0
 62
     7
  6
Continuous
370
    -3
390
F
  0
LAYER
  5
DF
330
2
100
AcDbSymbolTableRecord
100
AcDbLayerTableRecord
  2
$DDT_AUDIT_GENERATED_(DF)
 70
     0
 62
     7
  6
Continuous
370
    -3
390
F
  0
LAYER
  5
E5
330
2
100
AcDbSymbolTableRecord
100
AcDbLayerTableRecord
  2
$DDT_AUDIT_GENERATED_(E5)
 70
     0
 62
     7
  6
Continuous
370
    -3
390
F
  0
LAYER
  5
F2
330
2
100
AcDbSymbolTableRecord
100
AcDbLayerTableRecord
  2
$DDT_AUDIT_GENERATED_(F2)
 70
     0
 62
     7
  6
Continuous
370
    -3
390
F
  0
ENDTAB
  0
TABLE
  2
STYLE
  5
3
330
0
100
AcDbSymbolTable
 70
     2
  0
STYLE
  5
11
330
3
100
AcDbSymbolTableRecord
100
AcDbTextStyleTableRecord
  2
Standard
 70
     0
 40
0.0
 41
1.0
 50
0.0
 71
     0
 42
2.5
  3
txt
  4

  0
STYLE
  5
3E8
330
3
100
AcDbSymbolTableRecord
100
AcDbTextStyleTableRecord
  2
SEACAD_seiso_ttf
 70
     0
 40
0.0
 41
1.0
 50
0.0
 71
     0
 42
0.2
  3
seiso.ttf
  4

  0
ENDTAB
  0
TABLE
  2
VIEW
  5
6
330
0
100
AcDbSymbolTable
 70
     0
  0
ENDTAB
  0
TABLE
  2
UCS
  5
7
330
0
100
AcDbSymbolTable
 70
     0
  0
ENDTAB
  0
TABLE
  2
APPID
  5
9
330
0
100
AcDbSymbolTable
 70
     1
  0
APPID
  5
12
330
9
100
AcDbSymbolTableRecord
100
AcDbRegAppTableRecord
  2
ACAD
 70
     0
  0
ENDTAB
  0
TABLE
  2
DIMSTYLE
  5
A
330
0
100
AcDbSymbolTable
 70
     1
100
AcDbDimStyleTable
  0
DIMSTYLE
105
27
330
A
100
AcDbSymbolTableRecord
100
AcDbDimStyleTableRecord
  2
ISO-25
 70
     0
 41
2.5
 42
0.625
 43
3.75
 44
1.25
 73
     0
 74
     0
 77
     1
 78
     8
140
2.5
141
2.5
143
0.0393700787
147
0.625
171
     3
172
     1
271
     2
272
     2
274
     3
278
    44
283
     0
284
     8
340
11
  0
ENDTAB
  0
TABLE
  2
BLOCK_RECORD
  5
1
330
0
100
AcDbSymbolTable
 70
     9
  0
BLOCK_RECORD
  5
1F
330
1
100
AcDbSymbolTableRecord
100
AcDbBlockTableRecord
  2
*Model_Space
340
22
  0
BLOCK_RECORD
  5
1B
330
1
100
AcDbSymbolTableRecord
100
AcDbBlockTableRecord
  2
*Paper_Space
340
1E
  0
BLOCK_RECORD
  5
5E
330
1
100
AcDbSymbolTableRecord
100
AcDbBlockTableRecord
  2
SEANNOT_GROUP
340
0
102
{BLKREFS
331
5F
102
}
  0
BLOCK_RECORD
  5
65
330
1
100
AcDbSymbolTableRecord
100
AcDbBlockTableRecord
  2
SEANNOT_GROUP1
340
0
102
{BLKREFS
331
66
102
}
  0
BLOCK_RECORD
  5
6B
330
1
100
AcDbSymbolTableRecord
100
AcDbBlockTableRecord
  2
SEANNOT_GROUP2
340
0
102
{BLKREFS
331
6C
102
}
  0
BLOCK_RECORD
  5
71
330
1
100
AcDbSymbolTableRecord
100
AcDbBlockTableRecord
  2
SEANNOT_GROUP3
340
0
102
{BLKREFS
331
72
102
}
  0
BLOCK_RECORD
  5
7B
330
1
100
AcDbSymbolTableRecord
100
AcDbBlockTableRecord
  2
SEANNOT_GROUP4
340
0
102
{BLKREFS
331
7C
102
}
  0
BLOCK_RECORD
  5
85
330
1
100
AcDbSymbolTableRecord
100
AcDbBlockTableRecord
  2
SE
340
0
102
{BLKREFS
331
86
102
}
  0
BLOCK_RECORD
  5
326
330
1
100
AcDbSymbolTableRecord
100
AcDbBlockTableRecord
  2
SE1
340
0
102
{BLKREFS
331
327
102
}
  0
BLOCK_RECORD
  5
378
330
1
100
AcDbSymbolTableRecord
100
AcDbBlockTableRecord
  2
SE2
340
0
102
{BLKREFS
331
379
102
}
  0
ENDTAB
  0
ENDSEC
  0
SECTION
  2
BLOCKS
  0
BLOCK
  5
20
330
1F
100
AcDbEntity
  8
0
100
AcDbBlockBegin
  2
*Model_Space
 70
     0
 10
0.0
 20
0.0
 30
0.0
  3
*Model_Space
  1

  0
ENDBLK
  5
21
330
1F
100
AcDbEntity
  8
0
100
AcDbBlockEnd
  0
BLOCK
  5
1C
330
1B
100
AcDbEntity
 67
     1
  8
0
100
AcDbBlockBegin
  2
*Paper_Space
 70
     0
 10
0.0
 20
0.0
 30
0.0
  3
*Paper_Space
  1

  0
ENDBLK
  5
1D
330
1B
100
AcDbEntity
 67
     1
  8
0
100
AcDbBlockEnd
  0
BLOCK
  5
63
330
5E
100
AcDbEntity
  8
0
100
AcDbBlockBegin
  2
SEANNOT_GROUP
 70
     0
 10
0.0
 20
0.0
 30
0.0
  3
SEANNOT_GROUP
  1

  0
LINE
  5
61
330
5E
100
AcDbEntity
  8
Default
  6
CENTER2
 62
     7
100
AcDbLine
 10
175.1925589756
 20
461.2409675971
 30
0.0
 11
135.1925598696
 21
461.2409675971
 31
0.0
  0
LINE
  5
62
330
5E
100
AcDbEntity
  8
Default
  6
CENTER2
 62
     7
100
AcDbLine
 10
155.1925594226
 20
481.2409671501
 30
0.0
 11
155.1925594226
 21
441.2409680442
 31
0.0
  0
ENDBLK
  5
64
330
5E
100
AcDbEntity
  8
0
100
AcDbBlockEnd
  0
BLOCK
  5
69
330
65
100
AcDbEntity
  8
0
100
AcDbBlockBegin
  2
SEANNOT_GROUP1
 70
     0
 10
0.0
 20
0.0
 30
0.0
  3
SEANNOT_GROUP1
  1

  0
LINE
  5
67
330
65
100
AcDbEntity
  8
Default
  6
CENTER2
 62
     7
100
AcDbLine
 10
295.1925589756
 20
461.3409675971
 30
0.0
 11
255.1925598696
 21
461.3409675971
 31
0.0
  0
LINE
  5
68
330
65
100
AcDbEntity
  8
Default
  6
CENTER2
 62
     7
100
AcDbLine
 10
275.1925594226
 20
481.3409671501
 30
0.0
 11
275.1925594226
 21
441.3409680442
 31
0.0
  0
ENDBLK
  5
6A
330
65
100
AcDbEntity
  8
0
100
AcDbBlockEnd
  0
BLOCK
  5
6F
330
6B
100
AcDbEntity
  8
0
100
AcDbBlockBegin
  2
SEANNOT_GROUP2
 70
     0
 10
0.0
 20
0.0
 30
0.0
  3
SEANNOT_GROUP2
  1

  0
LINE
  5
6D
330
6B
100
AcDbEntity
  8
Default
  6
CENTER2
 62
     7
100
AcDbLine
 10
543.0740532512
 20
461.2409675971
 30
0.0
 11
503.0740541453
 21
461.2409675971
 31
0.0
  0
LINE
  5
6E
330
6B
100
AcDbEntity
  8
Default
  6
CENTER2
 62
     7
100
AcDbLine
 10
523.0740536983
 20
481.2409671501
 30
0.0
 11
523.0740536983
 21
441.2409680442
 31
0.0
  0
ENDBLK
  5
70
330
6B
100
AcDbEntity
  8
0
100
AcDbBlockEnd
  0
BLOCK
  5
79
330
71
100
AcDbEntity
  8
0
100
AcDbBlockBegin
  2
SEANNOT_GROUP3
 70
     0
 10
0.0
 20
0.0
 30
0.0
  3
SEANNOT_GROUP3
  1

  0
LINE
  5
73
330
71
100
AcDbEntity
  8
Default
  6
CENTER2
 62
     7
100
AcDbLine
 10
175.1925589756
 20
293.7376177443
 30
0.0
 11
135.1925598696
 21
293.7376177443
 31
0.0
  0
LINE
  5
74
330
71
100
AcDbEntity
  8
Default
  6
CENTER2
 62
     7
100
AcDbLine
 10
155.1925594226
 20
313.7376172973
 30
0.0
 11
155.1925594226
 21
273.7376181914
 31
0.0
  0
LINE
  5
75
330
71
100
AcDbEntity
  8
Default
  6
CENTER2
 62
     7
100
AcDbLine
 10
180.1925588638
 20
293.7376177443
 30
0.0
 11
186.9815279923
 21
293.7376177443
 31
0.0
  0
LINE
  5
76
330
71
100
AcDbEntity
  8
Default
  6
CENTER2
 62
     7
100
AcDbLine
 10
155.1925594226
 20
318.7376171855
 30
0.0
 11
155.1925594226
 21
325.526586314
 31
0.0
  0
LINE
  5
77
330
71
100
AcDbEntity
  8
Default
  6
CENTER2
 62
     7
100
AcDbLine
 10
130.1925599814
 20
293.7376177443
 30
0.0
 11
123.403590853
 21
293.7376177443
 31
0.0
  0
LINE
  5
78
330
71
100
AcDbEntity
  8
Default
  6
CENTER2
 62
     7
100
AcDbLine
 10
155.1925594226
 20
268.7376183031
 30
0.0
 11
155.1925594226
 21
261.9486491747
 31
0.0
  0
ENDBLK
  5
7A
330
71
100
AcDbEntity
  8
0
100
AcDbBlockEnd
  0
BLOCK
  5
83
330
7B
100
AcDbEntity
  8
0
100
AcDbBlockBegin
  2
SEANNOT_GROUP4
 70
     0
 10
0.0
 20
0.0
 30
0.0
  3
SEANNOT_GROUP4
  1

  0
LINE
  5
7D
330
7B
100
AcDbEntity
  8
Default
  6
CENTER2
 62
     7
100
AcDbLine
 10
295.1925589756
 20
293.7669740765
 30
0.0
 11
255.1925598696
 21
293.7669740765
 31
0.0
  0
LINE
  5
7E
330
7B
100
AcDbEntity
  8
Default
  6
CENTER2
 62
     7
100
AcDbLine
 10
275.1925594226
 20
313.7669736294
 30
0.0
 11
275.1925594226
 21
273.7669745235
 31
0.0
  0
LINE
  5
7F
330
7B
100
AcDbEntity
  8
Default
  6
CENTER2
 62
     7
100
AcDbLine
 10
300.1925588638
 20
293.7669740765
 30
0.0
 11
304.6925594226
 21
293.7669740765
 31
0.0
  0
LINE
  5
80
330
7B
100
AcDbEntity
  8
Default
  6
CENTER2
 62
     7
100
AcDbLine
 10
275.1925594226
 20
318.7669735177
 30
0.0
 11
275.1925594226
 21
323.2669740765
 31
0.0
  0
LINE
  5
81
330
7B
100
AcDbEntity
  8
Default
  6
CENTER2
 62
     7
100
AcDbLine
 10
250.1925599814
 20
293.7669740765
 30
0.0
 11
245.6925594226
 21
293.7669740765
 31
0.0
  0
LINE
  5
82
330
7B
100
AcDbEntity
  8
Default
  6
CENTER2
 62
     7
100
AcDbLine
 10
275.1925594226
 20
268.7669746353
 30
0.0
 11
275.1925594226
 21
264.2669740765
 31
0.0
  0
ENDBLK
  5
84
330
7B
100
AcDbEntity
  8
0
100
AcDbBlockEnd
  0
BLOCK
  5
324
330
85
100
AcDbEntity
  8
0
100
AcDbBlockBegin
  2
SE
 70
     0
 10
0.0
 20
0.0
 30
0.0
  3
SE
  1

  0
LINE
  5
88
330
85
100
AcDbEntity
  8
09491131_84380__
  6
Continuous
 62
     7
100
AcDbLine
 10
181.1925594226
 20
476.2409675971
 30
0.0
 11
129.1925594226
 21
476.2409675971
 31
0.0
  0
LINE
  5
89
330
85
100
AcDbEntity
  8
09491131_84380__
  6
Continuous
 62
     7
100
AcDbLine
 10
181.1925594226
 20
461.2409675971
 30
0.0
 11
129.1925594226
 21
461.2409675971
 31
0.0
  0
LINE
  5
8A
330
85
100
AcDbEntity
  8
09491131_84380__
  6
Continuous
 62
     7
100
AcDbLine
 10
181.1925594226
 20
461.2409675971
 30
0.0
 11
181.1925594226
 21
476.2409675971
 31
0.0
  0
LINE
  5
8B
330
85
100
AcDbEntity
  8
09491131_84380__
  6
Continuous
 62
     7
100
AcDbLine
 10
129.1925594226
 20
476.2409675971
 30
0.0
 11
129.1925594226
 21
461.2409675971
 31
0.0
  0
LINE
  5
8D
330
85
100
AcDbEntity
  8
$DDT_AUDIT_GENERATED_(8C)
  6
Continuous
 62
     7
100
AcDbLine
 10
130.067814524
 20
519.7409675971
 30
0.0
 11
180.3173043212
 21
519.7409675971
 31
0.0
  0
LINE
  5
8E
330
85
100
AcDbEntity
  8
$DDT_AUDIT_GENERATED_(8C)
  6
Continuous
 62
     7
100
AcDbLine
 10
129.1969224665
 20
476.7409485606
 30
0.0
 11
181.1881963787
 21
476.7409485606
 31
0.0
  0
LINE
  5
8F
330
85
100
AcDbEntity
  8
$DDT_AUDIT_GENERATED_(8C)
  6
Continuous
 62
     7
100
AcDbLine
 10
181.1881963787
 20
476.7409485606
 30
0.0
 11
180.8172852847
 21
519.245330641
 31
0.0
  0
LINE
  5
90
330
85
100
AcDbEntity
  8
$DDT_AUDIT_GENERATED_(8C)
  6
Continuous
 62
     7
100
AcDbLine
 10
129.5678335605
 20
519.245330641
 30
0.0
 11
129.1969224665
 21
476.7409485606
 31
0.0
  0
ARC
  5
91
330
85
100
AcDbEntity
  8
$DDT_AUDIT_GENERATED_(8C)
  6
Continuous
 62
     7
100
AcDbCircle
 10
130.067814524
 20
519.2409675971
 30
0.0
 40
0.5000000000000004
100
AcDbArc
 50
90.0
 51
179.500025649
  0
ARC
  5
92
330
85
100
AcDbEntity
  8
$DDT_AUDIT_GENERATED_(8C)
  6
Continuous
 62
     7
100
AcDbCircle
 10
180.3173043212
 20
519.2409675971
 30
0.0
 40
0.5000000000000003
100
AcDbArc
 50
0.499974351
 51
90.0
  0
LINE
  5
93
330
85
100
AcDbEntity
  8
$DDT_AUDIT_GENERATED_(8C)
  6
Continuous
 62
     7
100
AcDbLine
 10
129.1969224665
 20
476.7409485606
 30
0.0
 11
129.6925594226
 21
476.2409675971
 31
0.0
  0
LINE
  5
94
330
85
100
AcDbEntity
  8
$DDT_AUDIT_GENERATED_(8C)
  6
Continuous
 62
     7
100
AcDbLine
 10
180.6925594226
 20
476.2409675971
 30
0.0
 11
181.1881963787
 21
476.7409485606
 31
0.0
  0
SPLINE
  5
96
330
85
100
AcDbEntity
  8
$DDT_AUDIT_GENERATED_(95)
  6
Continuous
 62
     7
100
AcDbSpline
210
0.0
220
0.0
230
1.0
 70
     8
 71
     3
 72
    20
 73
    16
 74
     0
 42
0.0000000006517275
 43
0.0000000001
 40
0.0
 40
0.0
 40
0.0
 40
0.0
 40
0.0411462778379074
 40
0.0820532584999428
 40
0.1231650820170469
 40
0.1850637200556677
 40
0.2469690947827086
 40
0.3092722407583464
 40
0.3714701496767151
 40
0.4343012343499129
 40
0.4969027948316688
 40
0.6231207705039298
 40
0.686193207426452
 40
0.7490363682661243
 40
0.8035650393229958
 40
0.8035650393229958
 40
0.8035650393229958
 40
0.8035650393229958
 10
155.192559422601
 20
539.6287297009312
 30
0.0
 10
154.9823769854889
 20
539.6349337613414
 30
0.0
 10
154.5632344809453
 20
539.6473048247478
 30
0.0
 10
153.9411770030636
 20
539.7485687451782
 30
0.0
 10
153.2311688451388
 20
539.936747766054
 30
0.0
 10
152.45172124866
 20
540.2578041748316
 30
0.0
 10
151.6419883793649
 20
540.752045417649
 30
0.0
 10
150.9198424245011
 20
541.367662378486
 30
0.0
 10
150.3010056348353
 20
542.0926624549951
 30
0.0
 10
149.8021665463602
 20
542.9081747387645
 30
0.0
 10
149.3103246150278
 20
544.0932283458585
 30
0.0
 10
149.100301470988
 20
545.3851587461705
 30
0.0
 10
149.1814250896725
 20
546.6735395059414
 30
0.0
 10
149.3726584100551
 20
547.5780972854047
 30
0.0
 10
149.5750200191445
 20
548.1430625604902
 30
0.0
 10
149.6849462713141
 20
548.398516692514
 30
0.0
  0
ARC
  5
97
330
85
100
AcDbEntity
  8
$DDT_AUDIT_GENERATED_(95)
  6
Continuous
 62
     7
100
AcDbCircle
 10
155.0166398988
 20
545.8955659468
 30
0.0
 40
6.269304922542149
100
AcDbArc
 50
271.607956477
 51
23.7679450592
  0
LINE
  5
98
330
85
100
AcDbEntity
  8
$DDT_AUDIT_GENERATED_(95)
  6
Continuous
 62
     7
100
AcDbLine
 10
155.1925593926
 20
540.3302294074
 30
0.0
 11
155.8493855902
 21
540.3685068925
 31
0.0
  0
ARC
  5
99
330
85
100
AcDbEntity
  8
$DDT_AUDIT_GENERATED_(95)
  6
Continuous
 62
     7
100
AcDbCircle
 10
155.220845454
 20
545.8882771883
 30
0.0
 40
5.558051699299611
100
AcDbArc
 50
180.0103233349
 51
269.7084091153
  0
ARC
  5
9A
330
85
100
AcDbEntity
  8
$DDT_AUDIT_GENERATED_(95)
  6
Continuous
 62
     7
100
AcDbCircle
 10
155.2175606407
 20
402.7422061201
 30
0.0
 40
157.144904516525
100
AcDbArc
 50
88.1529395201
 51
88.3384186298
  0
SPLINE
  5
9B
330
85
100
AcDbEntity
  8
$DDT_AUDIT_GENERATED_(95)
  6
Continuous
 62
     7
100
AcDbSpline
210
0.0
220
0.0
230
1.0
 70
     8
 71
     3
 72
    30
 73
    26
 74
     0
 42
0.0000000001743304
 43
0.0000000001
 40
0.5435472515797144
 40
0.5435472515797144
 40
0.5435472515797144
 40
0.5435472515797144
 40
0.5625000000000002
 40
0.5625000000000002
 40
0.6250000000000006
 40
0.6250000000000006
 40
0.6562499999999994
 40
0.6562499999999994
 40
0.6874999999999997
 40
0.6874999999999997
 40
0.7187499999999998
 40
0.7187499999999998
 40
0.75
 40
0.75
 40
0.7812500000000001
 40
0.7812500000000001
 40
0.8125000000000002
 40
0.8125000000000002
 40
0.8437500000000003
 40
0.8437500000000003
 40
0.8750000000000004
 40
0.8750000000000004
 40
0.9375000000000009
 40
0.9375000000000009
 40
0.940165379195867
 40
0.940165379195867
 40
0.940165379195867
 40
0.940165379195867
 10
127.8407492763877
 20
554.674905213361
 30
0.0
 10
127.9144812416861
 20
554.7651756839127
 30
0.0
 10
128.0041388781407
 20
554.8549149603206
 30
0.0
 10
128.4570435903137
 20
555.2369239068562
 30
0.0
 10
128.9772145122489
 20
555.5243780132613
 30
0.0
 10
130.0022078412225
 20
555.938404870074
 30
0.0
 10
130.3859401489384
 20
556.0734651523113
 30
0.0
 10
131.2227342609766
 20
556.3348460718113
 30
0.0
 10
131.6968965256223
 20
556.4670544548892
 30
0.0
 10
132.6958179046022
 20
556.7154561780362
 30
0.0
 10
133.214801176778
 20
556.8315179322177
 30
0.0
 10
134.3662260614398
 20
557.0646880721082
 30
0.0
 10
134.9627084518269
 20
557.1742084154117
 30
0.0
 10
136.2412363964523
 20
557.3861565951267
 30
0.0
 10
136.9034668806406
 20
557.4852882130825
 30
0.0
 10
138.2924296232771
 20
557.674224259152
 30
0.0
 10
139.0415629517169
 20
557.7661641725754
 30
0.0
 10
140.5243274028829
 20
557.9300669443495
 30
0.0
 10
141.3125654159338
 20
558.0081173857116
 30
0.0
 10
142.9101096522971
 20
558.1490667868569
 30
0.0
 10
143.7239584904245
 20
558.2127580764045
 30
0.0
 10
146.2287428526728
 20
558.3830528146219
 30
0.0
 10
148.0008213669445
 20
558.4726144140133
 30
0.0
 10
149.8345353701072
 20
558.5327242252362
 30
0.0
 10
149.9100298705833
 20
558.5351392751411
 30
0.0
 10
149.9859425333024
 20
558.5375091070878
 30
0.0
  0
SPLINE
  5
9C
330
85
100
AcDbEntity
  8
$DDT_AUDIT_GENERATED_(95)
  6
Continuous
 62
     7
100
AcDbSpline
210
0.0
220
0.0
230
1.0
 70
     8
 71
     3
 72
    32
 73
    28
 74
     0
 42
0.000000000174288
 43
0.0000000001
 40
0.5437107827674426
 40
0.5437107827674426
 40
0.5437107827674426
 40
0.5437107827674426
 40
0.5625330390540643
 40
0.5625330390540643
 40
0.6250283191891999
 40
0.6250283191891999
 40
0.6562759592567672
 40
0.6562759592567672
 40
0.6875235993243352
 40
0.6875235993243352
 40
0.7187712393919028
 40
0.7187712393919028
 40
0.7500188794594703
 40
0.7500188794594703
 40
0.781266519527038
 40
0.781266519527038
 40
0.8125141595946056
 40
0.8125141595946056
 40
0.8437617996621622
 40
0.8437617996621622
 40
0.8750094397297296
 40
0.8750094397297296
 40
0.9062570797972971
 40
0.9062570797972971
 40
0.937504719864865
 40
0.937504719864865
 40
0.9402795938661418
 40
0.9402795938661418
 40
0.9402795938661418
 40
0.9402795938661418
 10
182.5443445137034
 20
554.6749162017094
 30
0.0
 10
182.4714287968998
 20
554.7641120136435
 30
0.0
 10
182.3828545723321
 20
554.8528960331485
 30
0.0
 10
181.9328404368026
 20
555.234105636256
 30
0.0
 10
181.4106550105593
 20
555.5231955688615
 30
0.0
 10
180.3859268508983
 20
555.9371701951088
 30
0.0
 10
180.0055841692887
 20
556.0715908382175
 30
0.0
 10
179.1505062767152
 20
556.3380710892824
 30
0.0
 10
178.7142798263311
 20
556.4600707165212
 30
0.0
 10
177.6794154089747
 20
556.7180387304979
 30
0.0
 10
177.1770961353255
 20
556.8297318235516
 30
0.0
 10
176.0386496720447
 20
557.0611357129345
 30
0.0
 10
175.4088490098972
 20
557.1765627226887
 30
0.0
 10
174.1651757308417
 20
557.3827352132606
 30
0.0
 10
173.4760270766445
 20
557.4863425798944
 30
0.0
 10
172.0822823631296
 20
557.6752722490273
 30
0.0
 10
171.3824707405946
 20
557.7617596193983
 30
0.0
 10
169.8178282756593
 20
557.9345644892624
 30
0.0
 10
169.1061228069663
 20
558.0046679690032
 30
0.0
 10
167.4923288918948
 20
558.1478407445355
 30
0.0
 10
166.6541653470105
 20
558.2133262979534
 30
0.0
 10
164.986943461277
 20
558.3264385115476
 30
0.0
 10
164.1417873442104
 20
558.376460077399
 30
0.0
 10
162.3928037474503
 20
558.4644199949289
 30
0.0
 10
161.5271718436235
 20
558.5004818487319
 30
0.0
 10
160.5560792490296
 20
558.5325122707328
 30
0.0
 10
160.476386665277
 20
558.5350715835305
 30
0.0
 10
160.3963064801207
 20
558.5375763387458
 30
0.0
  0
ELLIPSE
  5
9D
330
85
100
AcDbEntity
  8
$DDT_AUDIT_GENERATED_(95)
  6
Continuous
 62
     7
100
AcDbEllipse
 10
155.1925594226
 20
521.7906027076
 30
0.0
 11
-28.08899946141292
 21
6.938893903907228E-15
 31
0.0
210
0.0
220
0.0
230
1.0
 40
0.000123402
 41
2.613565480268446
 42
6.283185307179586
  0
ELLIPSE
  5
9E
330
85
100
AcDbEntity
  8
$DDT_AUDIT_GENERATED_(95)
  6
Continuous
 62
     7
100
AcDbEllipse
 10
155.1925594226
 20
521.7906027076
 30
0.0
 11
-28.08899946141292
 21
6.938893903907228E-15
 31
0.0
210
0.0
220
0.0
230
1.0
 40
0.000123402
 41
0.0
 42
0.5280271733200241
  0
LINE
  5
9F
330
85
100
AcDbEntity
  8
$DDT_AUDIT_GENERATED_(95)
  6
Continuous
 62
     7
100
AcDbLine
 10
176.9244150015
 20
557.9895249127
 30
0.0
 11
175.3948158482
 21
558.3266295793
 31
0.0
  0
LINE
  5
A0
330
85
100
AcDbEntity
  8
$DDT_AUDIT_GENERATED_(95)
  6
Continuous
 62
     7
100
AcDbLine
 10
175.3948158482
 20
558.3266295793
 30
0.0
 11
173.6799509997
 21
558.6359173234
 31
0.0
  0
LINE
  5
A1
330
85
100
AcDbEntity
  8
$DDT_AUDIT_GENERATED_(95)
  6
Continuous
 62
     7
100
AcDbLine
 10
173.6799509997
 20
558.6359173234
 30
0.0
 11
171.7644571104
 21
558.9194994395
 31
0.0
  0
LINE
  5
A2
330
85
100
AcDbEntity
  8
$DDT_AUDIT_GENERATED_(95)
  6
Continuous
 62
     7
100
AcDbLine
 10
171.7644571104
 20
558.9194994395
 30
0.0
 11
169.7202799143
 21
559.1671160433
 31
0.0
  0
LINE
  5
A3
330
85
100
AcDbEntity
  8
$DDT_AUDIT_GENERATED_(95)
  6
Continuous
 62
     7
100
AcDbLine
 10
169.7202799143
 20
559.1671160433
 30
0.0
 11
167.5029346996
 21
559.3841478369
 31
0.0
  0
LINE
  5
A4
330
85
100
AcDbEntity
  8
$DDT_AUDIT_GENERATED_(95)
  6
Continuous
 62
     7
100
AcDbLine
 10
167.5029346996
 20
559.3841478369
 30
0.0
 11
165.1894740856
 21
559.5626732443
 31
0.0
  0
ARC
  5
A5
330
85
100
AcDbEntity
  8
$DDT_AUDIT_GENERATED_(95)
  6
Continuous
 62
     7
100
AcDbCircle
 10
155.8247337257
 20
420.0034806548
 30
0.0
 40
139.8730374240575
100
AcDbArc
 50
86.1610773775
 51
88.1736245931
  0
LINE
  5
A6
330
85
100
AcDbEntity
  8
$DDT_AUDIT_GENERATED_(95)
  6
Continuous
 62
     7
100
AcDbLine
 10
150.6204565951
 20
559.817850213
 30
0.0
 11
150.0768680737
 21
559.8046606887
 31
0.0
  0
ARC
  5
A7
330
85
100
AcDbEntity
  8
$DDT_AUDIT_GENERATED_(95)
  6
Continuous
 62
     7
100
AcDbCircle
 10
154.604160822
 20
419.1388349353
 30
0.0
 40
140.7386617618747
100
AcDbArc
 50
91.8434133238
 51
93.8388100606
  0
LINE
  5
A8
330
85
100
AcDbEntity
  8
$DDT_AUDIT_GENERATED_(95)
  6
Continuous
 62
     7
100
AcDbLine
 10
145.1817412957
 20
559.5617281002
 30
0.0
 11
142.8472403006
 21
559.3810246158
 31
0.0
  0
LINE
  5
A9
330
85
100
AcDbEntity
  8
$DDT_AUDIT_GENERATED_(95)
  6
Continuous
 62
     7
100
AcDbLine
 10
142.8472403006
 20
559.3810246158
 30
0.0
 11
140.6618308929
 21
559.1666766118
 31
0.0
  0
LINE
  5
AA
330
85
100
AcDbEntity
  8
$DDT_AUDIT_GENERATED_(95)
  6
Continuous
 62
     7
100
AcDbLine
 10
140.6618308929
 20
559.1666766118
 30
0.0
 11
138.6000565743
 21
558.9166011543
 31
0.0
  0
LINE
  5
AB
330
85
100
AcDbEntity
  8
$DDT_AUDIT_GENERATED_(95)
  6
Continuous
 62
     7
100
AcDbLine
 10
138.6000565743
 20
558.9166011543
 30
0.0
 11
136.7059326577
 21
558.6358841868
 31
0.0
  0
ARC
  5
AC
330
85
100
AcDbEntity
  8
$DDT_AUDIT_GENERATED_(95)
  6
Continuous
 62
     7
100
AcDbCircle
 10
143.4589341738
 20
516.2696658983
 30
0.0
 40
42.9010428957182
100
AcDbArc
 50
99.0565253527
 51
103.481993267
  0
LINE
  5
AD
330
85
100
AcDbEntity
  8
$DDT_AUDIT_GENERATED_(95)
  6
Continuous
 62
     7
100
AcDbLine
 10
133.4569953703
 20
557.9884950012
 30
0.0
 11
133.269951181
 21
557.9374635319
 31
0.0
  0
ARC
  5
AE
330
85
100
AcDbEntity
  8
$DDT_AUDIT_GENERATED_(95)
  6
Continuous
 62
     7
100
AcDbCircle
 10
129.8846128925
 20
555.3242663415
 30
0.0
 40
1.154907788733961
100
AcDbArc
 50
123.7551984862
 51
137.0649130453
  0
ELLIPSE
  5
AF
330
85
100
AcDbEntity
  8
$DDT_AUDIT_GENERATED_(95)
  6
Continuous
 62
     7
100
AcDbEllipse
 10
155.1925594226
 20
521.7906025506
 30
0.0
 11
26.64902398021441
 21
-6.938893903907229E-15
 31
0.0
210
0.0
220
0.0
230
1.0
 40
0.000123402
 41
5.856813115927233
 42
6.283185307179586
  0
ELLIPSE
  5
B0
330
85
100
AcDbEntity
  8
$DDT_AUDIT_GENERATED_(95)
  6
Continuous
 62
     7
100
AcDbEllipse
 10
155.1925594226
 20
521.7906025506
 30
0.0
 11
26.64902398021441
 21
-6.938893903907229E-15
 31
0.0
210
0.0
220
0.0
230
1.0
 40
0.000123402
 41
0.00000000000211
 42
3.567964844842157
  0
SPLINE
  5
B1
330
85
100
AcDbEntity
  8
$DDT_AUDIT_GENERATED_(95)
  6
Continuous
 62
     7
100
AcDbSpline
210
0.0
220
0.0
230
1.0
 70
     8
 71
     3
 72
    16
 73
    12
 74
     0
 42
0.0000000004538403
 43
0.0000000001
 40
0.2827325904702864
 40
0.2827325904702864
 40
0.2827325904702864
 40
0.2827325904702864
 40
0.375
 40
0.375
 40
0.5
 40
0.5
 40
0.6249999999999999
 40
0.6249999999999999
 40
0.7499999999999999
 40
0.7499999999999999
 40
0.7772166035211393
 40
0.7772166035211393
 40
0.7772166035211393
 40
0.7772166035211393
 10
158.4419529966476
 20
533.1425485953054
 30
0.0
 10
158.4410619851953
 20
533.8048414704151
 30
0.0
 10
158.2757607824438
 20
534.4654419552656
 30
0.0
 10
157.4888474608128
 20
535.8122807453428
 30
0.0
 10
156.7133297068335
 20
536.3993577564202
 30
0.0
 10
154.9653144892772
 20
536.7740613345543
 30
0.0
 10
154.0103613603596
 20
536.5562213147934
 30
0.0
 10
152.5744702468955
 20
535.4546291806186
 30
0.0
 10
152.1179263995571
 20
534.6083667758014
 30
0.0
 10
151.956759521553
 20
533.5303756232775
 30
0.0
 10
151.9427778767746
 20
533.3351223646546
 30
0.0
 10
151.9431555108227
 20
533.1396450028392
 30
0.0
  0
ARC
  5
B2
330
85
100
AcDbEntity
  8
$DDT_AUDIT_GENERATED_(95)
  6
Continuous
 62
     7
100
AcDbCircle
 10
155.1979174638
 20
545.9430569363
 30
0.0
 40
5.612473698860051
100
AcDbArc
 50
276.6656423638
 51
287.7460390579
  0
ARC
  5
B3
330
85
100
AcDbEntity
  8
$DDT_AUDIT_GENERATED_(95)
  6
Continuous
 62
     7
100
AcDbCircle
 10
155.272106039
 20
545.7675549793
 30
0.0
 40
5.422737279614793
100
AcDbArc
 50
287.5646684348
 51
3.6873612978
  0
ARC
  5
B4
330
85
100
AcDbEntity
  8
$DDT_AUDIT_GENERATED_(95)
  6
Continuous
 62
     7
100
AcDbCircle
 10
155.192558875
 20
556.7553426232
 30
0.0
 40
5.529715290605452
100
AcDbArc
 50
126.3167183353
 51
0.0
  0
ARC
  5
B5
330
85
100
AcDbEntity
  8
$DDT_AUDIT_GENERATED_(95)
  6
Continuous
 62
     7
100
AcDbCircle
 10
155.192558875
 20
556.7553426232
 30
0.0
 40
5.529715290605452
100
AcDbArc
 50
0.0
 51
53.6607538431
  0
SPLINE
  5
B6
330
85
100
AcDbEntity
  8
$DDT_AUDIT_GENERATED_(95)
  6
Continuous
 62
     7
100
AcDbSpline
210
0.0
220
0.0
230
1.0
 70
    11
 71
     3
 72
    22
 73
    18
 74
     0
 42
0.0000000003415544
 43
0.0000000001
 40
0.0
 40
0.0
 40
0.0
 40
0.0
 40
0.1250000000000002
 40
0.1250000000000002
 40
0.2500000000000002
 40
0.2500000000000002
 40
0.3750000000000001
 40
0.3750000000000001
 40
0.5
 40
0.5
 40
0.625
 40
0.625
 40
0.75
 40
0.75
 40
0.875
 40
0.875
 40
1.0
 40
1.0
 40
1.0
 40
1.0
 10
155.1925478146211
 20
552.1598711663338
 30
0.0
 10
156.3937100680184
 20
552.1598679967577
 30
0.0
 10
157.5642749963487
 20
552.6716645471138
 30
0.0
 10
159.2141928299843
 20
554.3735047987091
 30
0.0
 10
159.6908138537876
 20
555.5623928497093
 30
0.0
 10
159.6942949222465
 20
557.9352257723831
 30
0.0
 10
159.2287271847278
 20
559.1171452012176
 30
0.0
 10
157.5581156086718
 20
560.8370410989523
 30
0.0
 10
156.3937047261261
 20
561.3366037067651
 30
0.0
 10
153.9914685780458
 20
561.3366184802777
 30
0.0
 10
152.81966128155
 20
560.8285665253424
 30
0.0
 10
151.1671348681723
 20
559.1291194831362
 30
0.0
 10
150.6917323596133
 20
557.9390033943936
 30
0.0
 10
150.6933887647279
 20
555.5658115202634
 30
0.0
 10
151.1603923973343
 20
554.3851669226964
 30
0.0
 10
152.8284445007491
 20
552.6630290885431
 30
0.0
 10
153.9913855612238
 20
552.15987433591
 30
0.0
 10
155.1925478146211
 20
552.1598711663338
 30
0.0
  0
LINE
  5
B7
330
85
100
AcDbEntity
  8
$DDT_AUDIT_GENERATED_(95)
  6
Continuous
 62
     7
100
AcDbLine
 10
183.481528423
 20
521.9940931949
 30
0.0
 11
182.9274535712
 21
553.7370199545
 31
0.0
  0
LINE
  5
B8
330
85
100
AcDbEntity
  8
$DDT_AUDIT_GENERATED_(95)
  6
Continuous
 62
     7
100
AcDbLine
 10
127.457665273
 20
553.7370198952
 30
0.0
 11
126.9035904222
 21
521.9940931949
 31
0.0
  0
LINE
  5
B9
330
85
100
AcDbEntity
  8
$DDT_AUDIT_GENERATED_(95)
  6
Continuous
 62
     7
100
AcDbLine
 10
160.6925594226
 20
545.7975346124
 30
0.0
 11
160.6925594226
 21
556.7562184118
 31
0.0
  0
LINE
  5
BA
330
85
100
AcDbEntity
  8
$DDT_AUDIT_GENERATED_(95)
  6
Continuous
 62
     7
100
AcDbLine
 10
149.6925594226
 20
556.7561964822
 30
0.0
 11
149.6925594226
 21
545.7976427564
 31
0.0
  0
LINE
  5
BB
330
85
100
AcDbEntity
  8
$DDT_AUDIT_GENERATED_(95)
  6
Continuous
 62
     7
100
AcDbLine
 10
160.6726937699
 20
545.9752928006
 30
0.0
 11
160.6925439633
 21
545.798078502
 31
0.0
  0
ARC
  5
BC
330
85
100
AcDbEntity
  8
$DDT_AUDIT_GENERATED_(95)
  6
Continuous
 62
     7
100
AcDbCircle
 10
155.9261392198
 20
545.6810723998
 30
0.0
 40
6.234661778744313
100
AcDbArc
 50
178.1025316114
 51
178.9249424691
  0
ARC
  5
BD
330
85
100
AcDbEntity
  8
$DDT_AUDIT_GENERATED_(95)
  6
Continuous
 62
     7
100
AcDbCircle
 10
174.1010572973
 20
545.083944709
 30
0.0
 40
13.2081175860446
100
AcDbArc
 50
72.253876919
 51
76.8997466924
  0
ARC
  5
BE
330
85
100
AcDbEntity
  8
$DDT_AUDIT_GENERATED_(95)
  6
Continuous
 62
     7
100
AcDbCircle
 10
176.8547773874
 20
551.0244701871
 30
0.0
 40
6.759878236094856
100
AcDbArc
 50
48.7847501887
 51
49.3592238668
  0
ARC
  5
BF
330
85
100
AcDbEntity
  8
$DDT_AUDIT_GENERATED_(95)
  6
Continuous
 62
     7
100
AcDbCircle
 10
176.8547773874
 20
551.0244701871
 30
0.0
 40
6.759878236094856
100
AcDbArc
 50
52.9534267015
 51
79.1530790155
  0
SPLINE
  5
C0
330
85
100
AcDbEntity
  8
$DDT_AUDIT_GENERATED_(95)
  6
Continuous
 62
     7
100
AcDbSpline
210
0.0
220
0.0
230
1.0
 70
     8
 71
     3
 72
     8
 73
     4
 74
     0
 42
0.0000000055311745
 43
0.0000000001
 40
0.0
 40
0.0
 40
0.0
 40
0.0
 40
1.0
 40
1.0
 40
1.0
 40
1.0
 10
129.021856960487
 20
556.0769225508733
 30
0.0
 10
128.6704125054129
 20
555.6597582464279
 30
0.0
 10
128.2820908714204
 20
555.1989035848426
 30
0.0
 10
127.8568920585092
 20
554.6943585661166
 30
0.0
  0
ARC
  5
C1
330
85
100
AcDbEntity
  8
$DDT_AUDIT_GENERATED_(95)
  6
Continuous
 62
     7
100
AcDbCircle
 10
181.5058324264
 20
553.7083651262
 30
0.0
 40
1.420087394725018
100
AcDbArc
 50
1.0661195186
 51
43.7979291505
  0
ARC
  5
C2
330
85
100
AcDbEntity
  8
$DDT_AUDIT_GENERATED_(95)
  6
Continuous
 62
     7
100
AcDbCircle
 10
128.8797593384
 20
553.7082376629
 30
0.0
 40
1.420562608947798
100
AcDbArc
 50
136.1844061234
 51
177.961551093
  0
ARC
  5
C3
330
85
100
AcDbEntity
  8
$DDT_AUDIT_GENERATED_(95)
  6
Continuous
 62
     7
100
AcDbCircle
 10
127.0912701502
 20
521.9816182976
 30
0.0
 40
0.1851015421246962
100
AcDbArc
 50
179.1179805321
 51
240.9495073804
  0
SPLINE
  5
C4
330
85
100
AcDbEntity
  8
$DDT_AUDIT_GENERATED_(95)
  6
Continuous
 62
     7
100
AcDbSpline
210
0.0
220
0.0
230
1.0
 70
     8
 71
     3
 72
    12
 73
     8
 74
     0
 42
0.0000000391978536
 43
0.0000000001
 40
0.0
 40
0.0
 40
0.0
 40
0.0
 40
0.1045918634889173
 40
0.3440835562928984
 40
0.6330215721354338
 40
0.9193073518084662
 40
1.0
 40
1.0
 40
1.0
 40
1.0
 10
183.3516318929168
 20
521.8047396535967
 30
0.0
 10
183.3606057342569
 20
521.8078320967113
 30
0.0
 10
183.3857565078899
 20
521.8168240551805
 30
0.0
 10
183.4298643068951
 20
521.8511306465261
 30
0.0
 10
183.4671564629148
 20
521.9071389940922
 30
0.0
 10
183.4848064332288
 20
521.9637443659755
 30
0.0
 10
183.4797586808814
 20
521.9923441623881
 30
0.0
 10
183.4784185257541
 20
521.9996348021149
 30
0.0
  0
LINE
  5
C5
330
85
100
AcDbEntity
  8
$DDT_AUDIT_GENERATED_(95)
  6
Continuous
 62
     7
100
AcDbLine
 10
129.4615766943
 20
556.4593980361
 30
0.0
 11
129.329321644
 21
556.3410688066
 31
0.0
  0
LINE
  5
C6
330
85
100
AcDbEntity
  8
$DDT_AUDIT_GENERATED_(95)
  6
Continuous
 62
     7
100
AcDbLine
 10
129.1450491598
 20
556.1761993289
 30
0.0
 11
129.0743716648
 21
556.1129638342
 31
0.0
  0
ARC
  5
C7
330
85
100
AcDbEntity
  8
$DDT_AUDIT_GENERATED_(95)
  6
Continuous
 62
     7
100
AcDbCircle
 10
134.369141928
 20
548.9195478277
 30
0.0
 40
8.996306891691106
100
AcDbArc
 50
104.7598890504
 51
123.0594450934
  0
ARC
  5
C8
330
85
100
AcDbEntity
  8
$DDT_AUDIT_GENERATED_(95)
  6
Continuous
 62
     7
100
AcDbCircle
 10
136.2322257754
 20
544.3813683093
 30
0.0
 40
13.8744113539131
100
AcDbArc
 50
103.1945131459
 51
107.4261739779
  0
LINE
  5
C9
330
85
100
AcDbEntity
  8
$DDT_AUDIT_GENERATED_(95)
  6
Continuous
 62
     7
100
AcDbLine
 10
133.30194372
 20
557.945342319
 30
0.0
 11
133.2064508926
 21
557.9218253465
 31
0.0
  0
SPLINE
  5
CA
330
85
100
AcDbEntity
  8
$DDT_AUDIT_GENERATED_(95)
  6
Continuous
 62
     7
100
AcDbSpline
210
0.0
220
0.0
230
1.0
 70
     8
 71
     3
 72
     8
 73
     4
 74
     0
 42
0.0000000055084268
 43
0.0000000001
 40
0.0
 40
0.0
 40
0.0
 40
0.0
 40
1.0
 40
1.0
 40
1.0
 40
1.0
 10
182.5274983641555
 20
554.6953133034232
 30
0.0
 10
182.1747498372283
 20
555.1139182191284
 30
0.0
 10
181.7848504465899
 20
555.5766978179572
 30
0.0
 10
181.3578001922404
 20
556.0836520999096
 30
0.0
  0
ARC
  5
CB
330
85
100
AcDbEntity
  8
$DDT_AUDIT_GENERATED_(95)
  6
Continuous
 62
     7
100
AcDbCircle
 10
155.1853245496
 20
556.9141450109
 30
0.0
 40
5.404785852053267
100
AcDbArc
 50
52.6403647138
 51
109.4496204859
  0
ARC
  5
CC
330
85
100
AcDbEntity
  8
$DDT_AUDIT_GENERATED_(95)
  6
Continuous
 62
     7
100
AcDbCircle
 10
154.8720011756
 20
557.5540335312
 30
0.0
 40
4.697805314122689
100
AcDbArc
 50
108.4449030435
 51
128.8941968781
  0
ELLIPSE
  5
CE
330
85
100
AcDbEntity
  8
$DDT_AUDIT_GENERATED_(CD)
  6
Continuous
 62
     7
100
AcDbEllipse
 10
155.1925594226
 20
533.0001363437
 30
0.0
 11
2.619964497457508E-14
 21
3.837161344544246
 31
0.0
210
0.0
220
0.0
230
1.0
 40
0.8991021461
 41
0.0
 42
6.283185307179586
  0
LINE
  5
CF
330
85
100
AcDbEntity
  8
$DDT_AUDIT_GENERATED_(CD)
  6
Continuous
 62
     7
100
AcDbLine
 10
151.7425594226
 20
533.2308305969
 30
0.0
 11
151.7425594226
 21
533.0001363437
 31
0.0
  0
LINE
  5
D0
330
85
100
AcDbEntity
  8
$DDT_AUDIT_GENERATED_(CD)
  6
Continuous
 62
     7
100
AcDbLine
 10
158.6425594226
 20
533.0001363437
 30
0.0
 11
158.6425594226
 21
533.2308305969
 31
0.0
  0
LINE
  5
D2
330
85
100
AcDbEntity
  8
$DDT_AUDIT_GENERATED_(D1)
  6
Continuous
 62
     7
100
AcDbLine
 10
301.1925594226
 20
461.3409675971
 30
0.0
 11
249.1925594226
 21
461.3409675971
 31
0.0
  0
LINE
  5
D3
330
85
100
AcDbEntity
  8
$DDT_AUDIT_GENERATED_(D1)
  6
Continuous
 62
     7
100
AcDbLine
 10
249.6925594226
 20
566.5409675971
 30
0.0
 11
300.6925594226
 21
566.5409675971
 31
0.0
  0
LINE
  5
D4
330
85
100
AcDbEntity
  8
$DDT_AUDIT_GENERATED_(D1)
  6
Continuous
 62
     7
100
AcDbLine
 10
261.1925594226
 20
583.5409675971
 30
0.0
 11
289.1925594226
 21
583.5409675971
 31
0.0
  0
LINE
  5
D5
330
85
100
AcDbEntity
  8
$DDT_AUDIT_GENERATED_(D1)
  6
Continuous
 62
     7
100
AcDbLine
 10
290.1925594226
 20
567.0409675971
 30
0.0
 11
290.1925594226
 21
582.5409675971
 31
0.0
  0
LINE
  5
D6
330
85
100
AcDbEntity
  8
$DDT_AUDIT_GENERATED_(D1)
  6
Continuous
 62
     7
100
AcDbLine
 10
260.1925594226
 20
582.5409675971
 30
0.0
 11
260.1925594226
 21
567.0409675971
 31
0.0
  0
LINE
  5
D7
330
85
100
AcDbEntity
  8
$DDT_AUDIT_GENERATED_(D1)
  6
Continuous
 62
     7
100
AcDbLine
 10
301.1925594226
 20
461.3409675971
 30
0.0
 11
301.1925594226
 21
566.0409675971
 31
0.0
  0
LINE
  5
D8
330
85
100
AcDbEntity
  8
$DDT_AUDIT_GENERATED_(D1)
  6
Continuous
 62
     7
100
AcDbLine
 10
249.1925594226
 20
566.0409675971
 30
0.0
 11
249.1925594226
 21
461.3409675971
 31
0.0
  0
ARC
  5
D9
330
85
100
AcDbEntity
  8
$DDT_AUDIT_GENERATED_(D1)
  6
Continuous
 62
     7
100
AcDbCircle
 10
249.6925594226
 20
566.0409675971
 30
0.0
 40
0.5000000000000004
100
AcDbArc
 50
90.0
 51
180.0
  0
ARC
  5
DA
330
85
100
AcDbEntity
  8
$DDT_AUDIT_GENERATED_(D1)
  6
Continuous
 62
     7
100
AcDbCircle
 10
300.6925594226
 20
566.0409675971
 30
0.0
 40
0.5000000000000004
100
AcDbArc
 50
0.0
 51
90.0
  0
ARC
  5
DB
330
85
100
AcDbEntity
  8
$DDT_AUDIT_GENERATED_(D1)
  6
Continuous
 62
     7
100
AcDbCircle
 10
259.6925594226
 20
567.0409675971
 30
0.0
 40
0.5000000000000004
100
AcDbArc
 50
270.0
 51
0.0
  0
ARC
  5
DC
330
85
100
AcDbEntity
  8
$DDT_AUDIT_GENERATED_(D1)
  6
Continuous
 62
     7
100
AcDbCircle
 10
290.6925594226
 20
567.0409675971
 30
0.0
 40
0.5000000000000004
100
AcDbArc
 50
180.0
 51
270.0
  0
ARC
  5
DD
330
85
100
AcDbEntity
  8
$DDT_AUDIT_GENERATED_(D1)
  6
Continuous
 62
     7
100
AcDbCircle
 10
261.1925594226
 20
582.5409675971
 30
0.0
 40
1.000000000000001
100
AcDbArc
 50
90.0
 51
180.0
  0
ARC
  5
DE
330
85
100
AcDbEntity
  8
$DDT_AUDIT_GENERATED_(D1)
  6
Continuous
 62
     7
100
AcDbCircle
 10
289.1925594226
 20
582.5409675971
 30
0.0
 40
1.000000000000001
100
AcDbArc
 50
0.0
 51
90.0
  0
LINE
  5
E0
330
85
100
AcDbEntity
  8
$DDT_AUDIT_GENERATED_(DF)
  6
Continuous
 62
     7
100
AcDbLine
 10
287.9425594226
 20
583.5409675971
 30
0.0
 11
287.9425594226
 21
632.4613733251
 31
0.0
  0
LINE
  5
E1
330
85
100
AcDbEntity
  8
$DDT_AUDIT_GENERATED_(DF)
  6
Continuous
 62
     7
100
AcDbLine
 10
287.9425594226
 20
651.4786778938
 30
0.0
 11
287.9425594226
 21
720.1085323173
 31
0.0
  0
LINE
  5
E2
330
85
100
AcDbEntity
  8
$DDT_AUDIT_GENERATED_(DF)
  6
Continuous
 62
     7
100
AcDbLine
 10
262.4425594226
 20
583.5409675971
 30
0.0
 11
262.4425594226
 21
632.4630148536
 31
0.0
  0
LINE
  5
E3
330
85
100
AcDbEntity
  8
$DDT_AUDIT_GENERATED_(DF)
  6
Continuous
 62
     7
100
AcDbLine
 10
262.4425594226
 20
651.4780100151
 30
0.0
 11
262.4425594226
 21
720.1078810169
 31
0.0
  0
ARC
  5
E4
330
85
100
AcDbEntity
  8
$DDT_AUDIT_GENERATED_(DF)
  6
Continuous
 62
     7
100
AcDbCircle
 10
275.1925594226
 20
720.2565979913
 30
0.0
 40
12.75086011909025
100
AcDbArc
 50
359.3344976026
 51
180.6655023974
  0
ELLIPSE
  5
E6
330
85
100
AcDbEntity
  8
$DDT_AUDIT_GENERATED_(E5)
  6
Continuous
 62
     7
100
AcDbEllipse
 10
275.1925594226
 20
633.6161275106
 30
0.0
 11
10.07499999999999
 21
0.0
 31
0.0
210
0.0
220
0.0
230
1.0
 40
0.1851214562
 41
0.0
 42
6.283185307179586
  0
ELLIPSE
  5
E7
330
85
100
AcDbEntity
  8
$DDT_AUDIT_GENERATED_(E5)
  6
Continuous
 62
     7
100
AcDbEllipse
 10
275.1925594226
 20
649.3395778919
 30
0.0
 11
15.00000000000001
 21
2.775557561562891E-14
 31
0.0
210
0.0
220
0.0
230
1.0
 40
0.1851214562
 41
0.0
 42
3.141592653589793
  0
ELLIPSE
  5
E8
330
85
100
AcDbEntity
  8
$DDT_AUDIT_GENERATED_(E5)
  6
Continuous
 62
     7
100
AcDbEllipse
 10
275.1925594226
 20
633.6161275106
 30
0.0
 11
14.0
 21
0.0
 31
0.0
210
0.0
220
0.0
230
1.0
 40
0.1851214562
 41
0.0
 42
1.141105700855944
  0
ELLIPSE
  5
E9
330
85
100
AcDbEntity
  8
$DDT_AUDIT_GENERATED_(E5)
  6
Continuous
 62
     7
100
AcDbEllipse
 10
275.1925594226
 20
633.6161275106
 30
0.0
 11
14.0
 21
0.0
 31
0.0
210
0.0
220
0.0
230
1.0
 40
0.1851214562
 41
1.141105700855944
 42
1.925053245185393
  0
ELLIPSE
  5
EA
330
85
100
AcDbEntity
  8
$DDT_AUDIT_GENERATED_(E5)
  6
Continuous
 62
     7
100
AcDbEllipse
 10
275.1925594226
 20
633.6161275106
 30
0.0
 11
14.0
 21
0.0
 31
0.0
210
0.0
220
0.0
230
1.0
 40
0.1851214562
 41
1.925053245185393
 42
6.283185307179586
  0
ELLIPSE
  5
EB
330
85
100
AcDbEntity
  8
$DDT_AUDIT_GENERATED_(E5)
  6
Continuous
 62
     7
100
AcDbEllipse
 10
275.1925594226
 20
634.5988431594
 30
0.0
 11
-15.0
 21
-2.775557561562892E-14
 31
0.0
210
0.0
220
0.0
230
1.0
 40
0.1851214562
 41
3.143513867924079
 42
6.283185307179576
  0
ELLIPSE
  5
EC
330
85
100
AcDbEntity
  8
$DDT_AUDIT_GENERATED_(E5)
  6
Continuous
 62
     7
100
AcDbEllipse
 10
275.1925594226
 20
634.5988431594
 30
0.0
 11
-15.0
 21
-2.775557561562892E-14
 31
0.0
210
0.0
220
0.0
230
1.0
 40
0.1851214562
 41
0.0
 42
0.0002484903010371
  0
LINE
  5
ED
330
85
100
AcDbEntity
  8
$DDT_AUDIT_GENERATED_(E5)
  6
Continuous
 62
     7
100
AcDbLine
 10
290.1925594226
 20
634.5988431594
 30
0.0
 11
290.1925594226
 21
649.3395778919
 31
0.0
  0
LINE
  5
EE
330
85
100
AcDbEntity
  8
$DDT_AUDIT_GENERATED_(E5)
  6
Continuous
 62
     7
100
AcDbLine
 10
260.1925594226
 20
649.3395778919
 30
0.0
 11
260.1925594226
 21
634.5988431594
 31
0.0
  0
SPLINE
  5
EF
330
85
100
AcDbEntity
  8
$DDT_AUDIT_GENERATED_(E5)
  6
Continuous
 62
     7
100
AcDbSpline
210
0.0
220
0.0
230
1.0
 70
     8
 71
     3
 72
    43
 73
    39
 74
     0
 42
0.0000000003085249
 43
0.0000000001
 40
0.0
 40
0.0
 40
0.0
 40
0.0
 40
0.0149400483361701
 40
0.033704513259245
 40
0.0531360040091847
 40
0.0750096717530652
 40
0.1013636403922459
 40
0.1331896139403151
 40
0.1665970836994187
 40
0.1986548651727938
 40
0.22976795330699
 40
0.2603335630480216
 40
0.2905693619914686
 40
0.3205961196219536
 40
0.3504850730599351
 40
0.3802808278459842
 40
0.4100129115106275
 40
0.4397019757030066
 40
0.4693633408056995
 40
0.4990091618519777
 40
0.5286498658200107
 40
0.5582937461343991
 40
0.5879489540666152
 40
0.6176262905501771
 40
0.6473385622638983
 40
0.6771020729683507
 40
0.7069388691683689
 40
0.7368803812576907
 40
0.766973690877677
 40
0.7972929189838189
 40
0.827960991611161
 40
0.8591926771571268
 40
0.891374386222046
 40
0.9250983068591552
 40
0.9486380438472303
 40
0.9687729028491305
 40
0.9873014056428688
 40
1.0
 40
1.0
 40
1.0
 40
1.0
 10
290.1812502021467
 20
649.3374871148974
 30
0.0
 10
290.178478984026
 20
649.4633494117295
 30
0.0
 10
290.1710031498379
 20
649.7017562348291
 30
0.0
 10
290.0188939377404
 20
650.0745092319673
 30
0.0
 10
289.7879136024182
 20
650.4069182613654
 30
0.0
 10
289.4726197159485
 20
650.7084346631626
 30
0.0
 10
289.048404612946
 20
650.9978696371053
 30
0.0
 10
288.4836356184495
 20
651.2803457079251
 30
0.0
 10
287.7767733570237
 20
651.5473483285026
 30
0.0
 10
286.9627518426007
 20
651.7886038922171
 30
0.0
 10
286.0683101405924
 20
652.0027751943613
 30
0.0
 10
285.0955661885012
 20
652.1937718868732
 30
0.0
 10
284.0475087336259
 20
652.3632939047683
 30
0.0
 10
282.9297353175467
 20
652.5116779406487
 30
0.0
 10
281.7496968558831
 20
652.6386552339476
 30
0.0
 10
280.5161309874492
 20
652.7437263784956
 30
0.0
 10
279.238703203871
 20
652.8263472501178
 30
0.0
 10
277.927755683665
 20
652.8860283363836
 30
0.0
 10
276.5941121466387
 20
652.9223903843648
 30
0.0
 10
275.2489121831738
 20
652.9351961801049
 30
0.0
 10
273.9034836275217
 20
652.9243679169941
 30
0.0
 10
272.5692059125824
 20
652.8899965175543
 30
0.0
 10
271.2573451092608
 20
652.8323419480988
 30
0.0
 10
269.9788937675272
 20
652.751822150105
 30
0.0
 10
268.7444268638558
 20
652.6489915341665
 30
0.0
 10
267.5639740471694
 20
652.5245084591334
 30
0.0
 10
266.4468457944099
 20
652.3790787590455
 30
0.0
 10
265.4014225518844
 20
652.2133590720215
 30
0.0
 10
264.4348733626622
 20
652.0277771349975
 30
0.0
 10
263.5527456841505
 20
651.8221966469215
 30
0.0
 10
262.7582915806515
 20
651.5951516598328
 30
0.0
 10
262.0514162241591
 20
651.3423149160858
 30
0.0
 10
261.4274099971041
 20
651.0519846615312
 30
0.0
 10
260.9438757183317
 20
650.7397586468227
 30
0.0
 10
260.5834738288385
 20
650.3941153639256
 30
0.0
 10
260.3498206979905
 20
650.0435265971716
 30
0.0
 10
260.2083457608497
 20
649.6770708292925
 30
0.0
 10
260.2080080004485
 20
649.4557087272067
 30
0.0
 10
260.2087096872518
 20
649.3488095080206
 30
0.0
  0
SPLINE
  5
F0
330
85
100
AcDbEntity
  8
$DDT_AUDIT_GENERATED_(E5)
  6
Continuous
 62
     7
100
AcDbSpline
210
0.0
220
0.0
230
1.0
 70
     8
 71
     3
 72
    26
 73
    22
 74
     0
 42
0.0000000006169627
 43
0.0000000001
 40
0.0
 40
0.0
 40
0.0
 40
0.0
 40
0.0135315695842635
 40
0.0513457884894578
 40
0.0892315927895493
 40
0.1304460790385987
 40
0.1788694531095665
 40
0.2381443890052654
 40
0.3052745895682077
 40
0.3704751756216329
 40
0.4333535164028186
 40
0.4948590506867955
 40
0.555555109767289
 40
0.6157483415290466
 40
0.6756149631869842
 40
0.7352626635225902
 40
0.7947611154542046
 40
0.8541579325026203
 40
0.913487552062509
 40
0.9727765082276987
 40
1.0
 40
1.0
 40
1.0
 40
1.0
 10
260.2081245379659
 20
634.5958458206342
 30
0.0
 10
260.2033248513015
 20
634.5394703995206
 30
0.0
 10
260.1886831375189
 20
634.3576472595003
 30
0.0
 10
260.2932085101219
 20
634.0209461103364
 30
0.0
 10
260.4889321066557
 20
633.6668691902232
 30
0.0
 10
260.7692518586054
 20
633.3540962808626
 30
0.0
 10
261.1420036491211
 20
633.0619673551347
 30
0.0
 10
261.6465440865828
 20
632.7751989544654
 30
0.0
 10
262.2966696915538
 20
632.5002288358304
 30
0.0
 10
263.072494364953
 20
632.2469394863334
 30
0.0
 10
263.9338901963662
 20
632.0220480901721
 30
0.0
 10
264.8741502821502
 20
631.8217018091274
 30
0.0
 10
265.8913165919515
 20
631.6433133121196
 30
0.0
 10
266.9808206509394
 20
631.4860967227524
 30
0.0
 10
268.1358193763983
 20
631.3501326436402
 30
0.0
 10
269.3483562391032
 20
631.2358476406164
 30
0.0
 10
270.6080161191365
 20
631.1438072161837
 30
0.0
 10
271.9088122064778
 20
631.0744418565688
 30
0.0
 10
273.2248335739263
 20
631.0285187073604
 30
0.0
 10
274.3538673043466
 20
631.0093035293438
 30
0.0
 10
274.966119910862
 20
631.0075990616577
 30
0.0
 10
275.1925594225995
 20
631.0071427727582
 30
0.0
  0
SPLINE
  5
F1
330
85
100
AcDbEntity
  8
$DDT_AUDIT_GENERATED_(E5)
  6
Continuous
 62
     7
100
AcDbSpline
210
0.0
220
0.0
230
1.0
 70
     8
 71
     3
 72
    26
 73
    22
 74
     0
 42
0.0000000006162761
 43
0.0000000001
 40
0.0
 40
0.0
 40
0.0
 40
0.0
 40
0.0311107949396328
 40
0.0902755822655613
 40
0.1494702580470379
 40
0.2086994368710963
 40
0.2679866378808753
 40
0.3273609482857577
 40
0.3868607309692489
 40
0.4465394751263863
 40
0.5064756202547899
 40
0.5667899994512345
 40
0.6276784802574834
 40
0.6894758321818201
 40
0.7527806811342631
 40
0.8186320483281692
 40
0.8721601455922446
 40
0.915230515266165
 40
0.9535560184072424
 40
0.9898360525475103
 40
1.0
 40
1.0
 40
1.0
 40
1.0
 10
275.1925594225995
 20
631.0071427727582
 30
0.0
 10
275.4517234684319
 20
631.007740502667
 30
0.0
 10
276.0906505920157
 20
631.0097551166411
 30
0.0
 10
277.2476807809991
 20
631.0308534088797
 30
0.0
 10
278.5614061045164
 20
631.0782370255587
 30
0.0
 10
279.8580844386865
 20
631.1489806418328
 30
0.0
 10
281.1122045675312
 20
631.2422119619483
 30
0.0
 10
282.3174054229092
 20
631.3574115770945
 30
0.0
 10
283.4629885115154
 20
631.4938585602101
 30
0.0
 10
284.5404246262964
 20
631.6508665081622
 30
0.0
 10
285.5419023636263
 20
631.8278764585074
 30
0.0
 10
286.4611328400858
 20
632.024724069036
 30
0.0
 10
287.2937478464038
 20
632.242159655663
 30
0.0
 10
288.0382756292657
 20
632.4829994458097
 30
0.0
 10
288.6972128019133
 20
632.7548954661086
 30
0.0
 10
289.2313123271155
 20
633.050815448107
 30
0.0
 10
289.6370589032375
 20
633.3705673405117
 30
0.0
 10
289.9290453978423
 20
633.7108722557828
 30
0.0
 10
290.1142284642852
 20
634.0795787442206
 30
0.0
 10
290.2021054964829
 20
634.4064206502304
 30
0.0
 10
290.1846141909655
 20
634.5706931185139
 30
0.0
 10
290.1799643878455
 20
634.6128603343024
 30
0.0
  0
ELLIPSE
  5
F3
330
85
100
AcDbEntity
  8
$DDT_AUDIT_GENERATED_(F2)
  6
Continuous
 62
     7
100
AcDbEllipse
 10
275.1925594226
 20
633.8618064228
 30
0.0
 11
8.250000000000007
 21
0.0
 31
0.0
210
0.0
220
0.0
230
1.0
 40
0.1851214562
 41
0.0
 42
6.283185307179586
  0
ELLIPSE
  5
F4
330
85
100
AcDbEntity
  8
$DDT_AUDIT_GENERATED_(F2)
  6
Continuous
 62
     7
100
AcDbEllipse
 10
275.1925594226
 20
633.8618064228
 30
0.0
 11
9.40000000000002
 21
0.0
 31
0.0
210
0.0
220
0.0
230
1.0
 40
0.1851214562
 41
0.0
 42
0.473820319623283
  0
ELLIPSE
  5
F5
330
85
100
AcDbEntity
  8
$DDT_AUDIT_GENERATED_(F2)
  6
Continuous
 62
     7
100
AcDbEllipse
 10
275.1925594226
 20
633.8618064228
 30
0.0
 11
9.40000000000002
 21
0.0
 31
0.0
210
0.0
220
0.0
230
1.0
 40
0.1851214562
 41
2.667772338446402
 42
6.283185307179586
  0
LINE
  5
F6
330
85
100
AcDbEntity
  8
$DDT_AUDIT_GENERATED_(F2)
  6
Continuous
 62
     7
100
AcDbLine
 10
275.6925594226
 20
634.2606035191
 30
0.0
 11
274.6925594226
 21
634.2606035191
 31
0.0
  0
LINE
  5
F7
330
85
100
AcDbEntity
  8
$DDT_AUDIT_GENERATED_(F2)
  6
Continuous
 62
     7
100
AcDbLine
 10
274.6925594226
 20
634.2606035191
 30
0.0
 11
274.6925594226
 21
634.4457249753
 31
0.0
  0
LINE
  5
F8
330
85
100
AcDbEntity
  8
$DDT_AUDIT_GENERATED_(F2)
  6
Continuous
 62
     7
100
AcDbLine
 10
274.4925594226
 20
634.2606035191
 30
0.0
 11
273.4925594226
 21
634.2606035191
 31
0.0
  0
LINE
  5
F9
330
85
100
AcDbEntity
  8
$DDT_AUDIT_GENERATED_(F2)
  6
Continuous
 62
     7
100
AcDbLine
 10
273.4925594226
 20
634.2606035191
 30
0.0
 11
273.4925594226
 21
634.4457249753
 31
0.0
  0
LINE
  5
FA
330
85
100
AcDbEntity
  8
$DDT_AUDIT_GENERATED_(F2)
  6
Continuous
 62
     7
100
AcDbLine
 10
274.4925594226
 20
634.4457249753
 30
0.0
 11
274.4925594226
 21
634.2606035191
 31
0.0
  0
LINE
  5
FB
330
85
100
AcDbEntity
  8
$DDT_AUDIT_GENERATED_(F2)
  6
Continuous
 62
     7
100
AcDbLine
 10
273.2925594226
 20
634.2606035191
 30
0.0
 11
272.2925594226
 21
634.2606035191
 31
0.0
  0
LINE
  5
FC
330
85
100
AcDbEntity
  8
$DDT_AUDIT_GENERATED_(F2)
  6
Continuous
 62
     7
100
AcDbLine
 10
272.2925594226
 20
634.2606035191
 30
0.0
 11
272.2925594226
 21
634.4457249753
 31
0.0
  0
LINE
  5
FD
330
85
100
AcDbEntity
  8
$DDT_AUDIT_GENERATED_(F2)
  6
Continuous
 62
     7
100
AcDbLine
 10
273.2925594226
 20
634.4457249753
 30
0.0
 11
273.2925594226
 21
634.2606035191
 31
0.0
  0
LINE
  5
FE
330
85
100
AcDbEntity
  8
$DDT_AUDIT_GENERATED_(F2)
  6
Continuous
 62
     7
100
AcDbLine
 10
272.0925594226
 20
634.2606035191
 30
0.0
 11
271.0925594226
 21
634.2606035191
 31
0.0
  0
LINE
  5
FF
330
85
100
AcDbEntity
  8
$DDT_AUDIT_GENERATED_(F2)
  6
Continuous
 62
     7
100
AcDbLine
 10
271.0925594226
 20
634.2606035191
 30
0.0
 11
271.0925594226
 21
634.4457249753
 31
0.0
  0
LINE
  5
100
330
85
100
AcDbEntity
  8
$DDT_AUDIT_GENERATED_(F2)
  6
Continuous
 62
     7
100
AcDbLine
 10
272.0925594226
 20
634.4457249753
 30
0.0
 11
272.0925594226
 21
634.2606035191
 31
0.0
  0
LINE
  5
101
330
85
100
AcDbEntity
  8
$DDT_AUDIT_GENERATED_(F2)
  6
Continuous
 62
     7
100
AcDbLine
 10
270.8925594226
 20
634.2606035191
 30
0.0
 11
269.8925594226
 21
634.2606035191
 31
0.0
  0
LINE
  5
102
330
85
100
AcDbEntity
  8
$DDT_AUDIT_GENERATED_(F2)
  6
Continuous
 62
     7
100
AcDbLine
 10
269.8925594226
 20
634.2606035191
 30
0.0
 11
269.8925594226
 21
634.4457249753
 31
0.0
  0
LINE
  5
103
330
85
100
AcDbEntity
  8
$DDT_AUDIT_GENERATED_(F2)
  6
Continuous
 62
     7
100
AcDbLine
 10
270.8925594226
 20
634.4457249753
 30
0.0
 11
270.8925594226
 21
634.2606035191
 31
0.0
  0
LINE
  5
104
330
85
100
AcDbEntity
  8
$DDT_AUDIT_GENERATED_(F2)
  6
Continuous
 62
     7
100
AcDbLine
 10
269.6925594226
 20
634.2606035191
 30
0.0
 11
268.6925594226
 21
634.2606035191
 31
0.0
  0
LINE
  5
105
330
85
100
AcDbEntity
  8
$DDT_AUDIT_GENERATED_(F2)
  6
Continuous
 62
     7
100
AcDbLine
 10
268.6925594226
 20
634.2606035191
 30
0.0
 11
268.6925594226
 21
634.4457249753
 31
0.0
  0
LINE
  5
106
330
85
100
AcDbEntity
  8
$DDT_AUDIT_GENERATED_(F2)
  6
Continuous
 62
     7
100
AcDbLine
 10
269.6925594226
 20
634.4457249753
 30
0.0
 11
269.6925594226
 21
634.2606035191
 31
0.0
  0
LINE
  5
107
330
85
100
AcDbEntity
  8
$DDT_AUDIT_GENERATED_(F2)
  6
Continuous
 62
     7
100
AcDbLine
 10
267.4925594226
 20
634.2606035191
 30
0.0
 11
267.4925594226
 21
634.4101066758
 31
0.0
  0
LINE
  5
108
330
85
100
AcDbEntity
  8
$DDT_AUDIT_GENERATED_(F2)
  6
Continuous
 62
     7
100
AcDbLine
 10
268.4925594226
 20
634.2606035191
 30
0.0
 11
267.4925594226
 21
634.2606035191
 31
0.0
  0
LINE
  5
109
330
85
100
AcDbEntity
  8
$DDT_AUDIT_GENERATED_(F2)
  6
Continuous
 62
     7
100
AcDbLine
 10
268.4925594226
 20
634.4457249753
 30
0.0
 11
268.4925594226
 21
634.2606035191
 31
0.0
  0
LINE
  5
10A
330
85
100
AcDbEntity
  8
$DDT_AUDIT_GENERATED_(F2)
  6
Continuous
 62
     7
100
AcDbLine
 10
275.6925594226
 20
634.0384577717
 30
0.0
 11
274.6925594226
 21
634.0384577717
 31
0.0
  0
LINE
  5
10B
330
85
100
AcDbEntity
  8
$DDT_AUDIT_GENERATED_(F2)
  6
Continuous
 62
     7
100
AcDbLine
 10
274.6925594226
 20
634.0384577717
 30
0.0
 11
274.6925594226
 21
634.2235792279
 31
0.0
  0
LINE
  5
10C
330
85
100
AcDbEntity
  8
$DDT_AUDIT_GENERATED_(F2)
  6
Continuous
 62
     7
100
AcDbLine
 10
274.6925594226
 20
634.2235792279
 30
0.0
 11
275.6925594226
 21
634.2235792279
 31
0.0
  0
LINE
  5
10D
330
85
100
AcDbEntity
  8
$DDT_AUDIT_GENERATED_(F2)
  6
Continuous
 62
     7
100
AcDbLine
 10
274.4925594226
 20
634.0384577717
 30
0.0
 11
273.4925594226
 21
634.0384577717
 31
0.0
  0
LINE
  5
10E
330
85
100
AcDbEntity
  8
$DDT_AUDIT_GENERATED_(F2)
  6
Continuous
 62
     7
100
AcDbLine
 10
273.4925594226
 20
634.0384577717
 30
0.0
 11
273.4925594226
 21
634.2235792279
 31
0.0
  0
LINE
  5
10F
330
85
100
AcDbEntity
  8
$DDT_AUDIT_GENERATED_(F2)
  6
Continuous
 62
     7
100
AcDbLine
 10
273.4925594226
 20
634.2235792279
 30
0.0
 11
274.4925594226
 21
634.2235792279
 31
0.0
  0
LINE
  5
110
330
85
100
AcDbEntity
  8
$DDT_AUDIT_GENERATED_(F2)
  6
Continuous
 62
     7
100
AcDbLine
 10
274.4925594226
 20
634.2235792279
 30
0.0
 11
274.4925594226
 21
634.0384577717
 31
0.0
  0
LINE
  5
111
330
85
100
AcDbEntity
  8
$DDT_AUDIT_GENERATED_(F2)
  6
Continuous
 62
     7
100
AcDbLine
 10
273.2925594226
 20
634.0384577717
 30
0.0
 11
272.2925594226
 21
634.0384577717
 31
0.0
  0
LINE
  5
112
330
85
100
AcDbEntity
  8
$DDT_AUDIT_GENERATED_(F2)
  6
Continuous
 62
     7
100
AcDbLine
 10
272.2925594226
 20
634.0384577717
 30
0.0
 11
272.2925594226
 21
634.2235792279
 31
0.0
  0
LINE
  5
113
330
85
100
AcDbEntity
  8
$DDT_AUDIT_GENERATED_(F2)
  6
Continuous
 62
     7
100
AcDbLine
 10
272.2925594226
 20
634.2235792279
 30
0.0
 11
273.2925594226
 21
634.2235792279
 31
0.0
  0
LINE
  5
114
330
85
100
AcDbEntity
  8
$DDT_AUDIT_GENERATED_(F2)
  6
Continuous
 62
     7
100
AcDbLine
 10
273.2925594226
 20
634.2235792279
 30
0.0
 11
273.2925594226
 21
634.0384577717
 31
0.0
  0
LINE
  5
115
330
85
100
AcDbEntity
  8
$DDT_AUDIT_GENERATED_(F2)
  6
Continuous
 62
     7
100
AcDbLine
 10
272.0925594226
 20
634.0384577717
 30
0.0
 11
271.0925594226
 21
634.0384577717
 31
0.0
  0
LINE
  5
116
330
85
100
AcDbEntity
  8
$DDT_AUDIT_GENERATED_(F2)
  6
Continuous
 62
     7
100
AcDbLine
 10
271.0925594226
 20
634.0384577717
 30
0.0
 11
271.0925594226
 21
634.2235792279
 31
0.0
  0
LINE
  5
117
330
85
100
AcDbEntity
  8
$DDT_AUDIT_GENERATED_(F2)
  6
Continuous
 62
     7
100
AcDbLine
 10
271.0925594226
 20
634.2235792279
 30
0.0
 11
272.0925594226
 21
634.2235792279
 31
0.0
  0
LINE
  5
118
330
85
100
AcDbEntity
  8
$DDT_AUDIT_GENERATED_(F2)
  6
Continuous
 62
     7
100
AcDbLine
 10
272.0925594226
 20
634.2235792279
 30
0.0
 11
272.0925594226
 21
634.0384577717
 31
0.0
  0
LINE
  5
119
330
85
100
AcDbEntity
  8
$DDT_AUDIT_GENERATED_(F2)
  6
Continuous
 62
     7
100
AcDbLine
 10
270.8925594226
 20
634.0384577717
 30
0.0
 11
269.8925594226
 21
634.0384577717
 31
0.0
  0
LINE
  5
11A
330
85
100
AcDbEntity
  8
$DDT_AUDIT_GENERATED_(F2)
  6
Continuous
 62
     7
100
AcDbLine
 10
269.8925594226
 20
634.0384577717
 30
0.0
 11
269.8925594226
 21
634.2235792279
 31
0.0
  0
LINE
  5
11B
330
85
100
AcDbEntity
  8
$DDT_AUDIT_GENERATED_(F2)
  6
Continuous
 62
     7
100
AcDbLine
 10
269.8925594226
 20
634.2235792279
 30
0.0
 11
270.8925594226
 21
634.2235792279
 31
0.0
  0
LINE
  5
11C
330
85
100
AcDbEntity
  8
$DDT_AUDIT_GENERATED_(F2)
  6
Continuous
 62
     7
100
AcDbLine
 10
270.8925594226
 20
634.2235792279
 30
0.0
 11
270.8925594226
 21
634.0384577717
 31
0.0
  0
LINE
  5
11D
330
85
100
AcDbEntity
  8
$DDT_AUDIT_GENERATED_(F2)
  6
Continuous
 62
     7
100
AcDbLine
 10
269.6925594226
 20
634.0384577717
 30
0.0
 11
268.6925594226
 21
634.0384577717
 31
0.0
  0
LINE
  5
11E
330
85
100
AcDbEntity
  8
$DDT_AUDIT_GENERATED_(F2)
  6
Continuous
 62
     7
100
AcDbLine
 10
268.6925594226
 20
634.0384577717
 30
0.0
 11
268.6925594226
 21
634.2235792279
 31
0.0
  0
LINE
  5
11F
330
85
100
AcDbEntity
  8
$DDT_AUDIT_GENERATED_(F2)
  6
Continuous
 62
     7
100
AcDbLine
 10
268.6925594226
 20
634.2235792279
 30
0.0
 11
269.6925594226
 21
634.2235792279
 31
0.0
  0
LINE
  5
120
330
85
100
AcDbEntity
  8
$DDT_AUDIT_GENERATED_(F2)
  6
Continuous
 62
     7
100
AcDbLine
 10
269.6925594226
 20
634.2235792279
 30
0.0
 11
269.6925594226
 21
634.0384577717
 31
0.0
  0
LINE
  5
121
330
85
100
AcDbEntity
  8
$DDT_AUDIT_GENERATED_(F2)
  6
Continuous
 62
     7
100
AcDbLine
 10
268.4925594226
 20
634.0384577717
 30
0.0
 11
267.4925594226
 21
634.0384577717
 31
0.0
  0
LINE
  5
122
330
85
100
AcDbEntity
  8
$DDT_AUDIT_GENERATED_(F2)
  6
Continuous
 62
     7
100
AcDbLine
 10
267.4925594226
 20
634.0384577717
 30
0.0
 11
267.4925594226
 21
634.2235792279
 31
0.0
  0
LINE
  5
123
330
85
100
AcDbEntity
  8
$DDT_AUDIT_GENERATED_(F2)
  6
Continuous
 62
     7
100
AcDbLine
 10
267.4925594226
 20
634.2235792279
 30
0.0
 11
268.4925594226
 21
634.2235792279
 31
0.0
  0
LINE
  5
124
330
85
100
AcDbEntity
  8
$DDT_AUDIT_GENERATED_(F2)
  6
Continuous
 62
     7
100
AcDbLine
 10
268.4925594226
 20
634.2235792279
 30
0.0
 11
268.4925594226
 21
634.0384577717
 31
0.0
  0
LINE
  5
125
330
85
100
AcDbEntity
  8
$DDT_AUDIT_GENERATED_(F2)
  6
Continuous
 62
     7
100
AcDbLine
 10
275.6925594226
 20
633.8163120243
 30
0.0
 11
274.6925594226
 21
633.8163120243
 31
0.0
  0
LINE
  5
126
330
85
100
AcDbEntity
  8
$DDT_AUDIT_GENERATED_(F2)
  6
Continuous
 62
     7
100
AcDbLine
 10
274.6925594226
 20
633.8163120243
 30
0.0
 11
274.6925594226
 21
634.0014334804
 31
0.0
  0
LINE
  5
127
330
85
100
AcDbEntity
  8
$DDT_AUDIT_GENERATED_(F2)
  6
Continuous
 62
     7
100
AcDbLine
 10
274.6925594226
 20
634.0014334804
 30
0.0
 11
275.6925594226
 21
634.0014334804
 31
0.0
  0
LINE
  5
128
330
85
100
AcDbEntity
  8
$DDT_AUDIT_GENERATED_(F2)
  6
Continuous
 62
     7
100
AcDbLine
 10
274.4925594226
 20
633.8163120243
 30
0.0
 11
273.4925594226
 21
633.8163120243
 31
0.0
  0
LINE
  5
129
330
85
100
AcDbEntity
  8
$DDT_AUDIT_GENERATED_(F2)
  6
Continuous
 62
     7
100
AcDbLine
 10
273.4925594226
 20
633.8163120243
 30
0.0
 11
273.4925594226
 21
634.0014334804
 31
0.0
  0
LINE
  5
12A
330
85
100
AcDbEntity
  8
$DDT_AUDIT_GENERATED_(F2)
  6
Continuous
 62
     7
100
AcDbLine
 10
273.4925594226
 20
634.0014334804
 30
0.0
 11
274.4925594226
 21
634.0014334804
 31
0.0
  0
LINE
  5
12B
330
85
100
AcDbEntity
  8
$DDT_AUDIT_GENERATED_(F2)
  6
Continuous
 62
     7
100
AcDbLine
 10
274.4925594226
 20
634.0014334804
 30
0.0
 11
274.4925594226
 21
633.8163120243
 31
0.0
  0
LINE
  5
12C
330
85
100
AcDbEntity
  8
$DDT_AUDIT_GENERATED_(F2)
  6
Continuous
 62
     7
100
AcDbLine
 10
273.2925594226
 20
633.8163120243
 30
0.0
 11
272.2925594226
 21
633.8163120243
 31
0.0
  0
LINE
  5
12D
330
85
100
AcDbEntity
  8
$DDT_AUDIT_GENERATED_(F2)
  6
Continuous
 62
     7
100
AcDbLine
 10
272.2925594226
 20
633.8163120243
 30
0.0
 11
272.2925594226
 21
634.0014334804
 31
0.0
  0
LINE
  5
12E
330
85
100
AcDbEntity
  8
$DDT_AUDIT_GENERATED_(F2)
  6
Continuous
 62
     7
100
AcDbLine
 10
272.2925594226
 20
634.0014334804
 30
0.0
 11
273.2925594226
 21
634.0014334804
 31
0.0
  0
LINE
  5
12F
330
85
100
AcDbEntity
  8
$DDT_AUDIT_GENERATED_(F2)
  6
Continuous
 62
     7
100
AcDbLine
 10
273.2925594226
 20
634.0014334804
 30
0.0
 11
273.2925594226
 21
633.8163120243
 31
0.0
  0
LINE
  5
130
330
85
100
AcDbEntity
  8
$DDT_AUDIT_GENERATED_(F2)
  6
Continuous
 62
     7
100
AcDbLine
 10
272.0925594226
 20
633.8163120243
 30
0.0
 11
271.0925594226
 21
633.8163120243
 31
0.0
  0
LINE
  5
131
330
85
100
AcDbEntity
  8
$DDT_AUDIT_GENERATED_(F2)
  6
Continuous
 62
     7
100
AcDbLine
 10
271.0925594226
 20
633.8163120243
 30
0.0
 11
271.0925594226
 21
634.0014334804
 31
0.0
  0
LINE
  5
132
330
85
100
AcDbEntity
  8
$DDT_AUDIT_GENERATED_(F2)
  6
Continuous
 62
     7
100
AcDbLine
 10
271.0925594226
 20
634.0014334804
 30
0.0
 11
272.0925594226
 21
634.0014334804
 31
0.0
  0
LINE
  5
133
330
85
100
AcDbEntity
  8
$DDT_AUDIT_GENERATED_(F2)
  6
Continuous
 62
     7
100
AcDbLine
 10
272.0925594226
 20
634.0014334804
 30
0.0
 11
272.0925594226
 21
633.8163120243
 31
0.0
  0
LINE
  5
134
330
85
100
AcDbEntity
  8
$DDT_AUDIT_GENERATED_(F2)
  6
Continuous
 62
     7
100
AcDbLine
 10
270.8925594226
 20
633.8163120243
 30
0.0
 11
269.8925594226
 21
633.8163120243
 31
0.0
  0
LINE
  5
135
330
85
100
AcDbEntity
  8
$DDT_AUDIT_GENERATED_(F2)
  6
Continuous
 62
     7
100
AcDbLine
 10
269.8925594226
 20
633.8163120243
 30
0.0
 11
269.8925594226
 21
634.0014334804
 31
0.0
  0
LINE
  5
136
330
85
100
AcDbEntity
  8
$DDT_AUDIT_GENERATED_(F2)
  6
Continuous
 62
     7
100
AcDbLine
 10
269.8925594226
 20
634.0014334804
 30
0.0
 11
270.8925594226
 21
634.0014334804
 31
0.0
  0
LINE
  5
137
330
85
100
AcDbEntity
  8
$DDT_AUDIT_GENERATED_(F2)
  6
Continuous
 62
     7
100
AcDbLine
 10
270.8925594226
 20
634.0014334804
 30
0.0
 11
270.8925594226
 21
633.8163120243
 31
0.0
  0
LINE
  5
138
330
85
100
AcDbEntity
  8
$DDT_AUDIT_GENERATED_(F2)
  6
Continuous
 62
     7
100
AcDbLine
 10
269.6925594226
 20
633.8163120243
 30
0.0
 11
268.6925594226
 21
633.8163120243
 31
0.0
  0
LINE
  5
139
330
85
100
AcDbEntity
  8
$DDT_AUDIT_GENERATED_(F2)
  6
Continuous
 62
     7
100
AcDbLine
 10
268.6925594226
 20
633.8163120243
 30
0.0
 11
268.6925594226
 21
634.0014334804
 31
0.0
  0
LINE
  5
13A
330
85
100
AcDbEntity
  8
$DDT_AUDIT_GENERATED_(F2)
  6
Continuous
 62
     7
100
AcDbLine
 10
268.6925594226
 20
634.0014334804
 30
0.0
 11
269.6925594226
 21
634.0014334804
 31
0.0
  0
LINE
  5
13B
330
85
100
AcDbEntity
  8
$DDT_AUDIT_GENERATED_(F2)
  6
Continuous
 62
     7
100
AcDbLine
 10
269.6925594226
 20
634.0014334804
 30
0.0
 11
269.6925594226
 21
633.8163120243
 31
0.0
  0
LINE
  5
13C
330
85
100
AcDbEntity
  8
$DDT_AUDIT_GENERATED_(F2)
  6
Continuous
 62
     7
100
AcDbLine
 10
275.6925594226
 20
633.5941662768
 30
0.0
 11
274.6925594226
 21
633.5941662768
 31
0.0
  0
LINE
  5
13D
330
85
100
AcDbEntity
  8
$DDT_AUDIT_GENERATED_(F2)
  6
Continuous
 62
     7
100
AcDbLine
 10
274.6925594226
 20
633.5941662768
 30
0.0
 11
274.6925594226
 21
633.779287733
 31
0.0
  0
LINE
  5
13E
330
85
100
AcDbEntity
  8
$DDT_AUDIT_GENERATED_(F2)
  6
Continuous
 62
     7
100
AcDbLine
 10
274.6925594226
 20
633.779287733
 30
0.0
 11
275.6925594226
 21
633.779287733
 31
0.0
  0
LINE
  5
13F
330
85
100
AcDbEntity
  8
$DDT_AUDIT_GENERATED_(F2)
  6
Continuous
 62
     7
100
AcDbLine
 10
274.4925594226
 20
633.5941662768
 30
0.0
 11
273.4925594226
 21
633.5941662768
 31
0.0
  0
LINE
  5
140
330
85
100
AcDbEntity
  8
$DDT_AUDIT_GENERATED_(F2)
  6
Continuous
 62
     7
100
AcDbLine
 10
273.4925594226
 20
633.5941662768
 30
0.0
 11
273.4925594226
 21
633.779287733
 31
0.0
  0
LINE
  5
141
330
85
100
AcDbEntity
  8
$DDT_AUDIT_GENERATED_(F2)
  6
Continuous
 62
     7
100
AcDbLine
 10
273.4925594226
 20
633.779287733
 30
0.0
 11
274.4925594226
 21
633.779287733
 31
0.0
  0
LINE
  5
142
330
85
100
AcDbEntity
  8
$DDT_AUDIT_GENERATED_(F2)
  6
Continuous
 62
     7
100
AcDbLine
 10
274.4925594226
 20
633.779287733
 30
0.0
 11
274.4925594226
 21
633.5941662768
 31
0.0
  0
LINE
  5
143
330
85
100
AcDbEntity
  8
$DDT_AUDIT_GENERATED_(F2)
  6
Continuous
 62
     7
100
AcDbLine
 10
273.2925594226
 20
633.5941662768
 30
0.0
 11
272.2925594226
 21
633.5941662768
 31
0.0
  0
LINE
  5
144
330
85
100
AcDbEntity
  8
$DDT_AUDIT_GENERATED_(F2)
  6
Continuous
 62
     7
100
AcDbLine
 10
272.2925594226
 20
633.5941662768
 30
0.0
 11
272.2925594226
 21
633.779287733
 31
0.0
  0
LINE
  5
145
330
85
100
AcDbEntity
  8
$DDT_AUDIT_GENERATED_(F2)
  6
Continuous
 62
     7
100
AcDbLine
 10
272.2925594226
 20
633.779287733
 30
0.0
 11
273.2925594226
 21
633.779287733
 31
0.0
  0
LINE
  5
146
330
85
100
AcDbEntity
  8
$DDT_AUDIT_GENERATED_(F2)
  6
Continuous
 62
     7
100
AcDbLine
 10
273.2925594226
 20
633.779287733
 30
0.0
 11
273.2925594226
 21
633.5941662768
 31
0.0
  0
LINE
  5
147
330
85
100
AcDbEntity
  8
$DDT_AUDIT_GENERATED_(F2)
  6
Continuous
 62
     7
100
AcDbLine
 10
272.0925594226
 20
633.5941662768
 30
0.0
 11
271.0925594226
 21
633.5941662768
 31
0.0
  0
LINE
  5
148
330
85
100
AcDbEntity
  8
$DDT_AUDIT_GENERATED_(F2)
  6
Continuous
 62
     7
100
AcDbLine
 10
271.0925594226
 20
633.5941662768
 30
0.0
 11
271.0925594226
 21
633.779287733
 31
0.0
  0
LINE
  5
149
330
85
100
AcDbEntity
  8
$DDT_AUDIT_GENERATED_(F2)
  6
Continuous
 62
     7
100
AcDbLine
 10
271.0925594226
 20
633.779287733
 30
0.0
 11
272.0925594226
 21
633.779287733
 31
0.0
  0
LINE
  5
14A
330
85
100
AcDbEntity
  8
$DDT_AUDIT_GENERATED_(F2)
  6
Continuous
 62
     7
100
AcDbLine
 10
272.0925594226
 20
633.779287733
 30
0.0
 11
272.0925594226
 21
633.5941662768
 31
0.0
  0
LINE
  5
14B
330
85
100
AcDbEntity
  8
$DDT_AUDIT_GENERATED_(F2)
  6
Continuous
 62
     7
100
AcDbLine
 10
270.8925594226
 20
633.5941662768
 30
0.0
 11
269.8925594226
 21
633.5941662768
 31
0.0
  0
LINE
  5
14C
330
85
100
AcDbEntity
  8
$DDT_AUDIT_GENERATED_(F2)
  6
Continuous
 62
     7
100
AcDbLine
 10
269.8925594226
 20
633.5941662768
 30
0.0
 11
269.8925594226
 21
633.779287733
 31
0.0
  0
LINE
  5
14D
330
85
100
AcDbEntity
  8
$DDT_AUDIT_GENERATED_(F2)
  6
Continuous
 62
     7
100
AcDbLine
 10
269.8925594226
 20
633.779287733
 30
0.0
 11
270.8925594226
 21
633.779287733
 31
0.0
  0
LINE
  5
14E
330
85
100
AcDbEntity
  8
$DDT_AUDIT_GENERATED_(F2)
  6
Continuous
 62
     7
100
AcDbLine
 10
270.8925594226
 20
633.779287733
 30
0.0
 11
270.8925594226
 21
633.5941662768
 31
0.0
  0
LINE
  5
14F
330
85
100
AcDbEntity
  8
$DDT_AUDIT_GENERATED_(F2)
  6
Continuous
 62
     7
100
AcDbLine
 10
268.6925594226
 20
633.5941662768
 30
0.0
 11
268.6925594226
 21
633.779287733
 31
0.0
  0
LINE
  5
150
330
85
100
AcDbEntity
  8
$DDT_AUDIT_GENERATED_(F2)
  6
Continuous
 62
     7
100
AcDbLine
 10
269.6925594226
 20
633.5941662768
 30
0.0
 11
268.6925594226
 21
633.5941662768
 31
0.0
  0
LINE
  5
151
330
85
100
AcDbEntity
  8
$DDT_AUDIT_GENERATED_(F2)
  6
Continuous
 62
     7
100
AcDbLine
 10
268.6925594226
 20
633.779287733
 30
0.0
 11
269.6925594226
 21
633.779287733
 31
0.0
  0
LINE
  5
152
330
85
100
AcDbEntity
  8
$DDT_AUDIT_GENERATED_(F2)
  6
Continuous
 62
     7
100
AcDbLine
 10
269.6925594226
 20
633.779287733
 30
0.0
 11
269.6925594226
 21
633.5941662768
 31
0.0
  0
LINE
  5
153
330
85
100
AcDbEntity
  8
$DDT_AUDIT_GENERATED_(F2)
  6
Continuous
 62
     7
100
AcDbLine
 10
275.6925594226
 20
633.3720205294
 30
0.0
 11
274.6925594226
 21
633.3720205294
 31
0.0
  0
LINE
  5
154
330
85
100
AcDbEntity
  8
$DDT_AUDIT_GENERATED_(F2)
  6
Continuous
 62
     7
100
AcDbLine
 10
274.6925594226
 20
633.3720205294
 30
0.0
 11
274.6925594226
 21
633.5571419856
 31
0.0
  0
LINE
  5
155
330
85
100
AcDbEntity
  8
$DDT_AUDIT_GENERATED_(F2)
  6
Continuous
 62
     7
100
AcDbLine
 10
274.6925594226
 20
633.5571419856
 30
0.0
 11
275.6925594226
 21
633.5571419856
 31
0.0
  0
LINE
  5
156
330
85
100
AcDbEntity
  8
$DDT_AUDIT_GENERATED_(F2)
  6
Continuous
 62
     7
100
AcDbLine
 10
274.4925594226
 20
633.3720205294
 30
0.0
 11
273.4925594226
 21
633.3720205294
 31
0.0
  0
LINE
  5
157
330
85
100
AcDbEntity
  8
$DDT_AUDIT_GENERATED_(F2)
  6
Continuous
 62
     7
100
AcDbLine
 10
273.4925594226
 20
633.3720205294
 30
0.0
 11
273.4925594226
 21
633.5571419856
 31
0.0
  0
LINE
  5
158
330
85
100
AcDbEntity
  8
$DDT_AUDIT_GENERATED_(F2)
  6
Continuous
 62
     7
100
AcDbLine
 10
273.4925594226
 20
633.5571419856
 30
0.0
 11
274.4925594226
 21
633.5571419856
 31
0.0
  0
LINE
  5
159
330
85
100
AcDbEntity
  8
$DDT_AUDIT_GENERATED_(F2)
  6
Continuous
 62
     7
100
AcDbLine
 10
274.4925594226
 20
633.5571419856
 30
0.0
 11
274.4925594226
 21
633.3720205294
 31
0.0
  0
LINE
  5
15A
330
85
100
AcDbEntity
  8
$DDT_AUDIT_GENERATED_(F2)
  6
Continuous
 62
     7
100
AcDbLine
 10
273.2925594226
 20
633.3720205294
 30
0.0
 11
272.2925594226
 21
633.3720205294
 31
0.0
  0
LINE
  5
15B
330
85
100
AcDbEntity
  8
$DDT_AUDIT_GENERATED_(F2)
  6
Continuous
 62
     7
100
AcDbLine
 10
272.2925594226
 20
633.3720205294
 30
0.0
 11
272.2925594226
 21
633.5571419856
 31
0.0
  0
LINE
  5
15C
330
85
100
AcDbEntity
  8
$DDT_AUDIT_GENERATED_(F2)
  6
Continuous
 62
     7
100
AcDbLine
 10
272.2925594226
 20
633.5571419856
 30
0.0
 11
273.2925594226
 21
633.5571419856
 31
0.0
  0
LINE
  5
15D
330
85
100
AcDbEntity
  8
$DDT_AUDIT_GENERATED_(F2)
  6
Continuous
 62
     7
100
AcDbLine
 10
273.2925594226
 20
633.5571419856
 30
0.0
 11
273.2925594226
 21
633.3720205294
 31
0.0
  0
LINE
  5
15E
330
85
100
AcDbEntity
  8
$DDT_AUDIT_GENERATED_(F2)
  6
Continuous
 62
     7
100
AcDbLine
 10
272.0925594226
 20
633.3720205294
 30
0.0
 11
271.0925594226
 21
633.3720205294
 31
0.0
  0
LINE
  5
15F
330
85
100
AcDbEntity
  8
$DDT_AUDIT_GENERATED_(F2)
  6
Continuous
 62
     7
100
AcDbLine
 10
271.0925594226
 20
633.3720205294
 30
0.0
 11
271.0925594226
 21
633.5571419856
 31
0.0
  0
LINE
  5
160
330
85
100
AcDbEntity
  8
$DDT_AUDIT_GENERATED_(F2)
  6
Continuous
 62
     7
100
AcDbLine
 10
271.0925594226
 20
633.5571419856
 30
0.0
 11
272.0925594226
 21
633.5571419856
 31
0.0
  0
LINE
  5
161
330
85
100
AcDbEntity
  8
$DDT_AUDIT_GENERATED_(F2)
  6
Continuous
 62
     7
100
AcDbLine
 10
272.0925594226
 20
633.5571419856
 30
0.0
 11
272.0925594226
 21
633.3720205294
 31
0.0
  0
LINE
  5
162
330
85
100
AcDbEntity
  8
$DDT_AUDIT_GENERATED_(F2)
  6
Continuous
 62
     7
100
AcDbLine
 10
270.8925594226
 20
633.3720205294
 30
0.0
 11
269.8925594226
 21
633.3720205294
 31
0.0
  0
LINE
  5
163
330
85
100
AcDbEntity
  8
$DDT_AUDIT_GENERATED_(F2)
  6
Continuous
 62
     7
100
AcDbLine
 10
269.8925594226
 20
633.3720205294
 30
0.0
 11
269.8925594226
 21
633.5571419856
 31
0.0
  0
LINE
  5
164
330
85
100
AcDbEntity
  8
$DDT_AUDIT_GENERATED_(F2)
  6
Continuous
 62
     7
100
AcDbLine
 10
269.8925594226
 20
633.5571419856
 30
0.0
 11
270.8925594226
 21
633.5571419856
 31
0.0
  0
LINE
  5
165
330
85
100
AcDbEntity
  8
$DDT_AUDIT_GENERATED_(F2)
  6
Continuous
 62
     7
100
AcDbLine
 10
270.8925594226
 20
633.5571419856
 30
0.0
 11
270.8925594226
 21
633.3720205294
 31
0.0
  0
LINE
  5
166
330
85
100
AcDbEntity
  8
$DDT_AUDIT_GENERATED_(F2)
  6
Continuous
 62
     7
100
AcDbLine
 10
275.6925594226
 20
633.149874782
 30
0.0
 11
274.6925594226
 21
633.149874782
 31
0.0
  0
LINE
  5
167
330
85
100
AcDbEntity
  8
$DDT_AUDIT_GENERATED_(F2)
  6
Continuous
 62
     7
100
AcDbLine
 10
274.6925594226
 20
633.149874782
 30
0.0
 11
274.6925594226
 21
633.3349962382
 31
0.0
  0
LINE
  5
168
330
85
100
AcDbEntity
  8
$DDT_AUDIT_GENERATED_(F2)
  6
Continuous
 62
     7
100
AcDbLine
 10
274.6925594226
 20
633.3349962382
 30
0.0
 11
275.6925594226
 21
633.3349962382
 31
0.0
  0
LINE
  5
169
330
85
100
AcDbEntity
  8
$DDT_AUDIT_GENERATED_(F2)
  6
Continuous
 62
     7
100
AcDbLine
 10
274.4925594226
 20
633.149874782
 30
0.0
 11
273.4925594226
 21
633.149874782
 31
0.0
  0
LINE
  5
16A
330
85
100
AcDbEntity
  8
$DDT_AUDIT_GENERATED_(F2)
  6
Continuous
 62
     7
100
AcDbLine
 10
273.4925594226
 20
633.149874782
 30
0.0
 11
273.4925594226
 21
633.3349962382
 31
0.0
  0
LINE
  5
16B
330
85
100
AcDbEntity
  8
$DDT_AUDIT_GENERATED_(F2)
  6
Continuous
 62
     7
100
AcDbLine
 10
273.4925594226
 20
633.3349962382
 30
0.0
 11
274.4925594226
 21
633.3349962382
 31
0.0
  0
LINE
  5
16C
330
85
100
AcDbEntity
  8
$DDT_AUDIT_GENERATED_(F2)
  6
Continuous
 62
     7
100
AcDbLine
 10
274.4925594226
 20
633.3349962382
 30
0.0
 11
274.4925594226
 21
633.149874782
 31
0.0
  0
LINE
  5
16D
330
85
100
AcDbEntity
  8
$DDT_AUDIT_GENERATED_(F2)
  6
Continuous
 62
     7
100
AcDbLine
 10
273.2925594226
 20
633.149874782
 30
0.0
 11
272.2925594226
 21
633.149874782
 31
0.0
  0
LINE
  5
16E
330
85
100
AcDbEntity
  8
$DDT_AUDIT_GENERATED_(F2)
  6
Continuous
 62
     7
100
AcDbLine
 10
272.2925594226
 20
633.149874782
 30
0.0
 11
272.2925594226
 21
633.3349962382
 31
0.0
  0
LINE
  5
16F
330
85
100
AcDbEntity
  8
$DDT_AUDIT_GENERATED_(F2)
  6
Continuous
 62
     7
100
AcDbLine
 10
272.2925594226
 20
633.3349962382
 30
0.0
 11
273.2925594226
 21
633.3349962382
 31
0.0
  0
LINE
  5
170
330
85
100
AcDbEntity
  8
$DDT_AUDIT_GENERATED_(F2)
  6
Continuous
 62
     7
100
AcDbLine
 10
273.2925594226
 20
633.3349962382
 30
0.0
 11
273.2925594226
 21
633.149874782
 31
0.0
  0
LINE
  5
171
330
85
100
AcDbEntity
  8
$DDT_AUDIT_GENERATED_(F2)
  6
Continuous
 62
     7
100
AcDbLine
 10
272.0925594226
 20
633.149874782
 30
0.0
 11
271.0925594226
 21
633.149874782
 31
0.0
  0
LINE
  5
172
330
85
100
AcDbEntity
  8
$DDT_AUDIT_GENERATED_(F2)
  6
Continuous
 62
     7
100
AcDbLine
 10
271.0925594226
 20
633.149874782
 30
0.0
 11
271.0925594226
 21
633.3349962382
 31
0.0
  0
LINE
  5
173
330
85
100
AcDbEntity
  8
$DDT_AUDIT_GENERATED_(F2)
  6
Continuous
 62
     7
100
AcDbLine
 10
271.0925594226
 20
633.3349962382
 30
0.0
 11
272.0925594226
 21
633.3349962382
 31
0.0
  0
LINE
  5
174
330
85
100
AcDbEntity
  8
$DDT_AUDIT_GENERATED_(F2)
  6
Continuous
 62
     7
100
AcDbLine
 10
272.0925594226
 20
633.3349962382
 30
0.0
 11
272.0925594226
 21
633.149874782
 31
0.0
  0
LINE
  5
175
330
85
100
AcDbEntity
  8
$DDT_AUDIT_GENERATED_(F2)
  6
Continuous
 62
     7
100
AcDbLine
 10
275.6925594226
 20
632.9277290345
 30
0.0
 11
274.6925594226
 21
632.9277290345
 31
0.0
  0
LINE
  5
176
330
85
100
AcDbEntity
  8
$DDT_AUDIT_GENERATED_(F2)
  6
Continuous
 62
     7
100
AcDbLine
 10
274.6925594226
 20
632.9277290345
 30
0.0
 11
274.6925594226
 21
633.1128504907
 31
0.0
  0
LINE
  5
177
330
85
100
AcDbEntity
  8
$DDT_AUDIT_GENERATED_(F2)
  6
Continuous
 62
     7
100
AcDbLine
 10
274.6925594226
 20
633.1128504907
 30
0.0
 11
275.6925594226
 21
633.1128504907
 31
0.0
  0
LINE
  5
178
330
85
100
AcDbEntity
  8
$DDT_AUDIT_GENERATED_(F2)
  6
Continuous
 62
     7
100
AcDbLine
 10
274.4925594226
 20
632.9277290345
 30
0.0
 11
273.4925594226
 21
632.9277290345
 31
0.0
  0
LINE
  5
179
330
85
100
AcDbEntity
  8
$DDT_AUDIT_GENERATED_(F2)
  6
Continuous
 62
     7
100
AcDbLine
 10
273.4925594226
 20
632.9277290345
 30
0.0
 11
273.4925594226
 21
633.1128504907
 31
0.0
  0
LINE
  5
17A
330
85
100
AcDbEntity
  8
$DDT_AUDIT_GENERATED_(F2)
  6
Continuous
 62
     7
100
AcDbLine
 10
273.4925594226
 20
633.1128504907
 30
0.0
 11
274.4925594226
 21
633.1128504907
 31
0.0
  0
LINE
  5
17B
330
85
100
AcDbEntity
  8
$DDT_AUDIT_GENERATED_(F2)
  6
Continuous
 62
     7
100
AcDbLine
 10
274.4925594226
 20
633.1128504907
 30
0.0
 11
274.4925594226
 21
632.9277290345
 31
0.0
  0
LINE
  5
17C
330
85
100
AcDbEntity
  8
$DDT_AUDIT_GENERATED_(F2)
  6
Continuous
 62
     7
100
AcDbLine
 10
273.2925594226
 20
632.9277290345
 30
0.0
 11
272.2925594226
 21
632.9277290345
 31
0.0
  0
LINE
  5
17D
330
85
100
AcDbEntity
  8
$DDT_AUDIT_GENERATED_(F2)
  6
Continuous
 62
     7
100
AcDbLine
 10
272.2925594226
 20
632.9277290345
 30
0.0
 11
272.2925594226
 21
633.1128504907
 31
0.0
  0
LINE
  5
17E
330
85
100
AcDbEntity
  8
$DDT_AUDIT_GENERATED_(F2)
  6
Continuous
 62
     7
100
AcDbLine
 10
272.2925594226
 20
633.1128504907
 30
0.0
 11
273.2925594226
 21
633.1128504907
 31
0.0
  0
LINE
  5
17F
330
85
100
AcDbEntity
  8
$DDT_AUDIT_GENERATED_(F2)
  6
Continuous
 62
     7
100
AcDbLine
 10
273.2925594226
 20
633.1128504907
 30
0.0
 11
273.2925594226
 21
632.9277290345
 31
0.0
  0
LINE
  5
180
330
85
100
AcDbEntity
  8
$DDT_AUDIT_GENERATED_(F2)
  6
Continuous
 62
     7
100
AcDbLine
 10
274.6925594226
 20
632.8287196846
 30
0.0
 11
274.6925594226
 21
632.8907047433
 31
0.0
  0
LINE
  5
181
330
85
100
AcDbEntity
  8
$DDT_AUDIT_GENERATED_(F2)
  6
Continuous
 62
     7
100
AcDbLine
 10
274.6925594226
 20
632.8907047433
 30
0.0
 11
275.6925594226
 21
632.8907047433
 31
0.0
  0
ELLIPSE
  5
182
330
85
100
AcDbEntity
  8
$DDT_AUDIT_GENERATED_(F2)
  6
Continuous
 62
     7
100
AcDbEllipse
 10
275.1925594459
 20
634.3531643063
 30
0.0
 11
-8.250000160666209
 21
-4.454575597279131E-9
 31
0.0
210
0.0
220
0.0
230
1.0
 40
0.1851214597
 41
1.4858457016346
 42
1.51015310101784
  0
LINE
  5
183
330
85
100
AcDbEntity
  8
$DDT_AUDIT_GENERATED_(F2)
  6
Continuous
 62
     7
100
AcDbLine
 10
273.4925594226
 20
632.8586882363
 30
0.0
 11
273.4925594226
 21
632.8907047433
 31
0.0
  0
LINE
  5
184
330
85
100
AcDbEntity
  8
$DDT_AUDIT_GENERATED_(F2)
  6
Continuous
 62
     7
100
AcDbLine
 10
273.4925594226
 20
632.8907047433
 30
0.0
 11
274.4925594226
 21
632.8907047433
 31
0.0
  0
LINE
  5
185
330
85
100
AcDbEntity
  8
$DDT_AUDIT_GENERATED_(F2)
  6
Continuous
 62
     7
100
AcDbLine
 10
274.4925594226
 20
632.8907047433
 30
0.0
 11
274.4925594226
 21
632.8314197103
 31
0.0
  0
ELLIPSE
  5
186
330
85
100
AcDbEntity
  8
$DDT_AUDIT_GENERATED_(F2)
  6
Continuous
 62
     7
100
AcDbEllipse
 10
275.1925594912
 20
634.3531643038
 30
0.0
 11
-8.250000164135226
 21
-1.283323447509588E-8
 31
0.0
210
0.0
220
0.0
230
1.0
 40
0.1851214594
 41
1.338407250193563
 42
1.363248871720103
  0
LINE
  5
187
330
85
100
AcDbEntity
  8
$DDT_AUDIT_GENERATED_(F2)
  6
Continuous
 62
     7
100
AcDbLine
 10
272.815060737
 20
632.8907047433
 30
0.0
 11
273.2925594226
 21
632.8907047433
 31
0.0
  0
LINE
  5
188
330
85
100
AcDbEntity
  8
$DDT_AUDIT_GENERATED_(F2)
  6
Continuous
 62
     7
100
AcDbLine
 10
273.2925594226
 20
632.8907047433
 30
0.0
 11
273.2925594226
 21
632.866966353
 31
0.0
  0
ELLIPSE
  5
189
330
85
100
AcDbEntity
  8
$DDT_AUDIT_GENERATED_(F2)
  6
Continuous
 62
     7
100
AcDbEllipse
 10
275.1925594227
 20
634.3531642472
 30
0.0
 11
-8.250000000088908
 21
-1.013078509970455E-11
 31
0.0
210
0.0
220
0.0
230
1.0
 40
0.1851214562
 41
1.185582205130082
 42
1.278468933637913
  0
LINE
  5
18A
330
85
100
AcDbEntity
  8
$DDT_AUDIT_GENERATED_(F2)
  6
Continuous
 62
     7
100
AcDbLine
 10
271.0925594226
 20
633.0278639816
 30
0.0
 11
271.0925594226
 21
633.1128504907
 31
0.0
  0
LINE
  5
18B
330
85
100
AcDbEntity
  8
$DDT_AUDIT_GENERATED_(F2)
  6
Continuous
 62
     7
100
AcDbLine
 10
271.0925594226
 20
633.1128504907
 30
0.0
 11
272.0925594226
 21
633.1128504907
 31
0.0
  0
LINE
  5
18C
330
85
100
AcDbEntity
  8
$DDT_AUDIT_GENERATED_(F2)
  6
Continuous
 62
     7
100
AcDbLine
 10
272.0925594226
 20
633.1128504907
 30
0.0
 11
272.0925594226
 21
632.9378323217
 31
0.0
  0
ELLIPSE
  5
18D
330
85
100
AcDbEntity
  8
$DDT_AUDIT_GENERATED_(F2)
  6
Continuous
 62
     7
100
AcDbEllipse
 10
275.1925594351
 20
634.3531642503
 30
0.0
 11
-8.250000014182039
 21
-1.915301250932089E-9
 31
0.0
210
0.0
220
0.0
230
1.0
 40
0.1851214563
 41
0.907356891933713
 42
0.9477783662967753
  0
LINE
  5
18E
330
85
100
AcDbEntity
  8
$DDT_AUDIT_GENERATED_(F2)
  6
Continuous
 62
     7
100
AcDbLine
 10
269.8925594226
 20
633.182755892
 30
0.0
 11
269.8925594226
 21
633.3349962382
 31
0.0
  0
LINE
  5
18F
330
85
100
AcDbEntity
  8
$DDT_AUDIT_GENERATED_(F2)
  6
Continuous
 62
     7
100
AcDbLine
 10
269.8925594226
 20
633.3349962382
 30
0.0
 11
270.8925594226
 21
633.3349962382
 31
0.0
  0
LINE
  5
190
330
85
100
AcDbEntity
  8
$DDT_AUDIT_GENERATED_(F2)
  6
Continuous
 62
     7
100
AcDbLine
 10
270.8925594226
 20
633.3349962382
 30
0.0
 11
270.8925594226
 21
633.149874782
 31
0.0
  0
LINE
  5
191
330
85
100
AcDbEntity
  8
$DDT_AUDIT_GENERATED_(F2)
  6
Continuous
 62
     7
100
AcDbLine
 10
270.8925594226
 20
633.149874782
 30
0.0
 11
270.1119590644
 21
633.149874782
 31
0.0
  0
LINE
  5
192
330
85
100
AcDbEntity
  8
$DDT_AUDIT_GENERATED_(F2)
  6
Continuous
 62
     7
100
AcDbLine
 10
270.1119590644
 20
633.149874782
 30
0.0
 11
270.1119590644
 21
633.3349962382
 31
0.0
  0
ELLIPSE
  5
193
330
85
100
AcDbEntity
  8
$DDT_AUDIT_GENERATED_(F2)
  6
Continuous
 62
     7
100
AcDbEllipse
 10
275.1925594467
 20
634.3531642547
 30
0.0
 11
-8.250000029792147
 21
-3.971711848294035E-9
 31
0.0
210
0.0
220
0.0
230
1.0
 40
0.1851214564
 41
1.022525691408418
 42
1.050693122146527
  0
LINE
  5
194
330
85
100
AcDbEntity
  8
$DDT_AUDIT_GENERATED_(F2)
  6
Continuous
 62
     7
100
AcDbLine
 10
270.3787771259
 20
633.1128504907
 30
0.0
 11
270.8925594226
 21
633.1128504907
 31
0.0
  0
LINE
  5
195
330
85
100
AcDbEntity
  8
$DDT_AUDIT_GENERATED_(F2)
  6
Continuous
 62
     7
100
AcDbLine
 10
270.8925594226
 20
633.1128504907
 30
0.0
 11
270.8925594226
 21
633.0497658922
 31
0.0
  0
ELLIPSE
  5
196
330
85
100
AcDbEntity
  8
$DDT_AUDIT_GENERATED_(F2)
  6
Continuous
 62
     7
100
AcDbEllipse
 10
275.1925593454
 20
634.3531642349
 30
0.0
 11
-8.249999919765258
 21
9.641398790449784E-9
 31
0.0
210
0.0
220
0.0
230
1.0
 40
0.1851214564
 41
0.6976574560528301
 42
0.7297276596096558
  0
LINE
  5
197
330
85
100
AcDbEntity
  8
$DDT_AUDIT_GENERATED_(F2)
  6
Continuous
 62
     7
100
AcDbLine
 10
268.6925594226
 20
633.4126361106
 30
0.0
 11
268.6925594226
 21
633.5571419856
 31
0.0
  0
LINE
  5
198
330
85
100
AcDbEntity
  8
$DDT_AUDIT_GENERATED_(F2)
  6
Continuous
 62
     7
100
AcDbLine
 10
268.6925594226
 20
633.5571419856
 30
0.0
 11
269.6925594226
 21
633.5571419856
 31
0.0
  0
LINE
  5
199
330
85
100
AcDbEntity
  8
$DDT_AUDIT_GENERATED_(F2)
  6
Continuous
 62
     7
100
AcDbLine
 10
269.6925594226
 20
633.5571419856
 30
0.0
 11
269.6925594226
 21
633.3720205294
 31
0.0
  0
LINE
  5
19A
330
85
100
AcDbEntity
  8
$DDT_AUDIT_GENERATED_(F2)
  6
Continuous
 62
     7
100
AcDbLine
 10
269.6925594226
 20
633.3720205294
 30
0.0
 11
268.870178542
 21
633.3720205294
 31
0.0
  0
LINE
  5
19B
330
85
100
AcDbEntity
  8
$DDT_AUDIT_GENERATED_(F2)
  6
Continuous
 62
     7
100
AcDbLine
 10
268.870178542
 20
633.3720205294
 30
0.0
 11
268.870178542
 21
633.5571419856
 31
0.0
  0
ELLIPSE
  5
19C
330
85
100
AcDbEntity
  8
$DDT_AUDIT_GENERATED_(F2)
  6
Continuous
 62
     7
100
AcDbEllipse
 10
275.1925593595
 20
634.3531642338
 30
0.0
 11
-8.249999931226979
 21
9.121842170500827E-9
 31
0.0
210
0.0
220
0.0
230
1.0
 40
0.185121456
 41
0.8410686735713032
 42
0.8731388771168296
  0
LINE
  5
19D
330
85
100
AcDbEntity
  8
$DDT_AUDIT_GENERATED_(F2)
  6
Continuous
 62
     7
100
AcDbLine
 10
269.0433724845
 20
633.3349962382
 30
0.0
 11
269.6925594226
 21
633.3349962382
 31
0.0
  0
LINE
  5
19E
330
85
100
AcDbEntity
  8
$DDT_AUDIT_GENERATED_(F2)
  6
Continuous
 62
     7
100
AcDbLine
 10
269.6925594226
 20
633.3349962382
 30
0.0
 11
269.6925594226
 21
633.2148178068
 31
0.0
  0
LINE
  5
19F
330
85
100
AcDbEntity
  8
$DDT_AUDIT_GENERATED_(F2)
  6
Continuous
 62
     7
100
AcDbLine
 10
268.4925594226
 20
633.8163120243
 30
0.0
 11
267.4925594226
 21
633.8163120243
 31
0.0
  0
LINE
  5
1A0
330
85
100
AcDbEntity
  8
$DDT_AUDIT_GENERATED_(F2)
  6
Continuous
 62
     7
100
AcDbLine
 10
267.4925594226
 20
633.8163120243
 30
0.0
 11
267.4925594226
 21
634.0014334804
 31
0.0
  0
LINE
  5
1A1
330
85
100
AcDbEntity
  8
$DDT_AUDIT_GENERATED_(F2)
  6
Continuous
 62
     7
100
AcDbLine
 10
267.4925594226
 20
634.0014334804
 30
0.0
 11
268.4925594226
 21
634.0014334804
 31
0.0
  0
LINE
  5
1A2
330
85
100
AcDbEntity
  8
$DDT_AUDIT_GENERATED_(F2)
  6
Continuous
 62
     7
100
AcDbLine
 10
268.4925594226
 20
634.0014334804
 30
0.0
 11
268.4925594226
 21
633.8163120243
 31
0.0
  0
ELLIPSE
  5
1A3
330
85
100
AcDbEntity
  8
$DDT_AUDIT_GENERATED_(F2)
  6
Continuous
 62
     7
100
AcDbEllipse
 10
275.1925594572
 20
634.353164251
 30
0.0
 11
-8.250000034980998
 21
-3.354483357753679E-9
 31
0.0
210
0.0
220
0.0
230
1.0
 40
0.185121456
 41
0.5201032021561633
 42
0.5482706329064782
  0
LINE
  5
1A4
330
85
100
AcDbEntity
  8
$DDT_AUDIT_GENERATED_(F2)
  6
Continuous
 62
     7
100
AcDbLine
 10
267.5471359549
 20
633.779287733
 30
0.0
 11
268.4925594226
 21
633.779287733
 31
0.0
  0
LINE
  5
1A5
330
85
100
AcDbEntity
  8
$DDT_AUDIT_GENERATED_(F2)
  6
Continuous
 62
     7
100
AcDbLine
 10
268.4925594226
 20
633.779287733
 30
0.0
 11
268.4925594226
 21
633.5941662768
 31
0.0
  0
LINE
  5
1A6
330
85
100
AcDbEntity
  8
$DDT_AUDIT_GENERATED_(F2)
  6
Continuous
 62
     7
100
AcDbLine
 10
268.4925594226
 20
633.5941662768
 30
0.0
 11
268.0334742855
 21
633.5941662768
 31
0.0
  0
LINE
  5
1A7
330
85
100
AcDbEntity
  8
$DDT_AUDIT_GENERATED_(F2)
  6
Continuous
 62
     7
100
AcDbLine
 10
268.0334742855
 20
633.5941662768
 30
0.0
 11
268.0334742855
 21
633.779287733
 31
0.0
  0
ELLIPSE
  5
1A8
330
85
100
AcDbEntity
  8
$DDT_AUDIT_GENERATED_(F2)
  6
Continuous
 62
     7
100
AcDbEllipse
 10
275.1925594141
 20
634.3531642461
 30
0.0
 11
-8.249999991288323
 21
9.490186414495838E-10
 31
0.0
210
0.0
220
0.0
230
1.0
 40
0.1851214562
 41
0.623017960142316
 42
0.663439434582462
  0
LINE
  5
1A9
330
85
100
AcDbEntity
  8
$DDT_AUDIT_GENERATED_(F2)
  6
Continuous
 62
     7
100
AcDbLine
 10
268.1517853174
 20
633.5571419856
 30
0.0
 11
268.4925594226
 21
633.5571419856
 31
0.0
  0
LINE
  5
1AA
330
85
100
AcDbEntity
  8
$DDT_AUDIT_GENERATED_(F2)
  6
Continuous
 62
     7
100
AcDbLine
 10
268.4925594226
 20
633.5571419856
 30
0.0
 11
268.4925594226
 21
633.4620298587
 31
0.0
  0
LINE
  5
1AB
330
85
100
AcDbEntity
  8
$DDT_AUDIT_GENERATED_(F2)
  6
Continuous
 62
     7
100
AcDbLine
 10
267.2925594226
 20
634.3019324415
 30
0.0
 11
267.2925594226
 21
634.2606035191
 31
0.0
  0
LINE
  5
1AC
330
85
100
AcDbEntity
  8
$DDT_AUDIT_GENERATED_(F2)
  6
Continuous
 62
     7
100
AcDbLine
 10
267.2925594226
 20
634.2606035191
 30
0.0
 11
267.2287835862
 21
634.2606035191
 31
0.0
  0
ELLIPSE
  5
1AD
330
85
100
AcDbEntity
  8
$DDT_AUDIT_GENERATED_(F2)
  6
Continuous
 62
     7
100
AcDbEllipse
 10
275.1925595006
 20
634.3531642504
 30
0.0
 11
-8.250000077985153
 21
-3.281291904855266E-9
 31
0.0
210
0.0
220
0.0
230
1.0
 40
0.1851214554
 41
0.2075474494390753
 42
0.2323890713169277
  0
LINE
  5
1AE
330
85
100
AcDbEntity
  8
$DDT_AUDIT_GENERATED_(F2)
  6
Continuous
 62
     7
100
AcDbLine
 10
267.1773598716
 20
634.2235792279
 30
0.0
 11
267.2925594226
 21
634.2235792279
 31
0.0
  0
LINE
  5
1AF
330
85
100
AcDbEntity
  8
$DDT_AUDIT_GENERATED_(F2)
  6
Continuous
 62
     7
100
AcDbLine
 10
267.2925594226
 20
634.2235792279
 30
0.0
 11
267.2925594226
 21
634.0384577717
 31
0.0
  0
LINE
  5
1B0
330
85
100
AcDbEntity
  8
$DDT_AUDIT_GENERATED_(F2)
  6
Continuous
 62
     7
100
AcDbLine
 10
267.2925594226
 20
634.0384577717
 30
0.0
 11
267.1196107667
 21
634.0384577717
 31
0.0
  0
LINE
  5
1B1
330
85
100
AcDbEntity
  8
$DDT_AUDIT_GENERATED_(F2)
  6
Continuous
 62
     7
100
AcDbLine
 10
267.1196107667
 20
634.0384577717
 30
0.0
 11
267.1196107667
 21
634.1765128983
 31
0.0
  0
ELLIPSE
  5
1B2
330
85
100
AcDbEntity
  8
$DDT_AUDIT_GENERATED_(F2)
  6
Continuous
 62
     7
100
AcDbEllipse
 10
275.1925594208
 20
634.3531642471
 30
0.0
 11
-8.249999998181073
 21
1.195710197521294E-10
 31
0.0
210
0.0
220
0.0
230
1.0
 40
0.1851214562
 41
0.2923273931873885
 42
0.3852141217069386
  0
LINE
  5
1B3
330
85
100
AcDbEntity
  8
$DDT_AUDIT_GENERATED_(F2)
  6
Continuous
 62
     7
100
AcDbLine
 10
267.164327986
 20
634.0014334804
 30
0.0
 11
267.2925594226
 21
634.0014334804
 31
0.0
  0
LINE
  5
1B4
330
85
100
AcDbEntity
  8
$DDT_AUDIT_GENERATED_(F2)
  6
Continuous
 62
     7
100
AcDbLine
 10
267.2925594226
 20
634.0014334804
 30
0.0
 11
267.2925594226
 21
633.9130382284
 31
0.0
  0
LINE
  5
1B5
330
85
100
AcDbEntity
  8
$DDT_AUDIT_GENERATED_(F2)
  6
Continuous
 62
     7
100
AcDbLine
 10
274.6925594226
 20
634.4457249753
 30
0.0
 11
275.6925594226
 21
634.4457249753
 31
0.0
  0
LINE
  5
1B6
330
85
100
AcDbEntity
  8
$DDT_AUDIT_GENERATED_(F2)
  6
Continuous
 62
     7
100
AcDbLine
 10
274.6925594226
 20
634.4827492665
 30
0.0
 11
274.6925594226
 21
634.6678707227
 31
0.0
  0
LINE
  5
1B7
330
85
100
AcDbEntity
  8
$DDT_AUDIT_GENERATED_(F2)
  6
Continuous
 62
     7
100
AcDbLine
 10
274.6925594226
 20
634.6678707227
 30
0.0
 11
275.6925594226
 21
634.6678707227
 31
0.0
  0
LINE
  5
1B8
330
85
100
AcDbEntity
  8
$DDT_AUDIT_GENERATED_(F2)
  6
Continuous
 62
     7
100
AcDbLine
 10
275.6925594226
 20
634.4827492665
 30
0.0
 11
274.6925594226
 21
634.4827492665
 31
0.0
  0
LINE
  5
1B9
330
85
100
AcDbEntity
  8
$DDT_AUDIT_GENERATED_(F2)
  6
Continuous
 62
     7
100
AcDbLine
 10
274.6925594226
 20
634.704895014
 30
0.0
 11
274.6925594226
 21
634.8900164701
 31
0.0
  0
LINE
  5
1BA
330
85
100
AcDbEntity
  8
$DDT_AUDIT_GENERATED_(F2)
  6
Continuous
 62
     7
100
AcDbLine
 10
274.6925594226
 20
634.8900164701
 30
0.0
 11
275.6925594226
 21
634.8900164701
 31
0.0
  0
LINE
  5
1BB
330
85
100
AcDbEntity
  8
$DDT_AUDIT_GENERATED_(F2)
  6
Continuous
 62
     7
100
AcDbLine
 10
275.6925594226
 20
634.704895014
 30
0.0
 11
274.6925594226
 21
634.704895014
 31
0.0
  0
LINE
  5
1BC
330
85
100
AcDbEntity
  8
$DDT_AUDIT_GENERATED_(F2)
  6
Continuous
 62
     7
100
AcDbLine
 10
274.6925594226
 20
634.9270407614
 30
0.0
 11
274.6925594226
 21
635.1121622176
 31
0.0
  0
LINE
  5
1BD
330
85
100
AcDbEntity
  8
$DDT_AUDIT_GENERATED_(F2)
  6
Continuous
 62
     7
100
AcDbLine
 10
274.6925594226
 20
635.1121622176
 30
0.0
 11
275.6925594226
 21
635.1121622176
 31
0.0
  0
LINE
  5
1BE
330
85
100
AcDbEntity
  8
$DDT_AUDIT_GENERATED_(F2)
  6
Continuous
 62
     7
100
AcDbLine
 10
275.6925594226
 20
634.9270407614
 30
0.0
 11
274.6925594226
 21
634.9270407614
 31
0.0
  0
LINE
  5
1BF
330
85
100
AcDbEntity
  8
$DDT_AUDIT_GENERATED_(F2)
  6
Continuous
 62
     7
100
AcDbLine
 10
274.6925594226
 20
635.1491865088
 30
0.0
 11
274.6925594226
 21
635.334307965
 31
0.0
  0
LINE
  5
1C0
330
85
100
AcDbEntity
  8
$DDT_AUDIT_GENERATED_(F2)
  6
Continuous
 62
     7
100
AcDbLine
 10
274.6925594226
 20
635.334307965
 30
0.0
 11
275.6925594226
 21
635.334307965
 31
0.0
  0
LINE
  5
1C1
330
85
100
AcDbEntity
  8
$DDT_AUDIT_GENERATED_(F2)
  6
Continuous
 62
     7
100
AcDbLine
 10
275.6925594226
 20
635.1491865088
 30
0.0
 11
274.6925594226
 21
635.1491865088
 31
0.0
  0
LINE
  5
1C2
330
85
100
AcDbEntity
  8
$DDT_AUDIT_GENERATED_(F2)
  6
Continuous
 62
     7
100
AcDbLine
 10
274.6925594226
 20
635.3713322562
 30
0.0
 11
274.6925594226
 21
635.3862509854
 31
0.0
  0
LINE
  5
1C3
330
85
100
AcDbEntity
  8
$DDT_AUDIT_GENERATED_(F2)
  6
Continuous
 62
     7
100
AcDbLine
 10
275.6925594226
 20
635.3713322562
 30
0.0
 11
274.6925594226
 21
635.3713322562
 31
0.0
  0
LINE
  5
1C4
330
85
100
AcDbEntity
  8
$DDT_AUDIT_GENERATED_(F2)
  6
Continuous
 62
     7
100
AcDbLine
 10
273.4925594226
 20
634.4457249753
 30
0.0
 11
274.4925594226
 21
634.4457249753
 31
0.0
  0
LINE
  5
1C5
330
85
100
AcDbEntity
  8
$DDT_AUDIT_GENERATED_(F2)
  6
Continuous
 62
     7
100
AcDbLine
 10
273.4925594226
 20
634.4827492665
 30
0.0
 11
273.4925594226
 21
634.6678707227
 31
0.0
  0
LINE
  5
1C6
330
85
100
AcDbEntity
  8
$DDT_AUDIT_GENERATED_(F2)
  6
Continuous
 62
     7
100
AcDbLine
 10
273.4925594226
 20
634.6678707227
 30
0.0
 11
274.4925594226
 21
634.6678707227
 31
0.0
  0
LINE
  5
1C7
330
85
100
AcDbEntity
  8
$DDT_AUDIT_GENERATED_(F2)
  6
Continuous
 62
     7
100
AcDbLine
 10
274.4925594226
 20
634.6678707227
 30
0.0
 11
274.4925594226
 21
634.4827492665
 31
0.0
  0
LINE
  5
1C8
330
85
100
AcDbEntity
  8
$DDT_AUDIT_GENERATED_(F2)
  6
Continuous
 62
     7
100
AcDbLine
 10
274.4925594226
 20
634.4827492665
 30
0.0
 11
273.4925594226
 21
634.4827492665
 31
0.0
  0
LINE
  5
1C9
330
85
100
AcDbEntity
  8
$DDT_AUDIT_GENERATED_(F2)
  6
Continuous
 62
     7
100
AcDbLine
 10
273.4925594226
 20
634.704895014
 30
0.0
 11
273.4925594226
 21
634.8900164701
 31
0.0
  0
LINE
  5
1CA
330
85
100
AcDbEntity
  8
$DDT_AUDIT_GENERATED_(F2)
  6
Continuous
 62
     7
100
AcDbLine
 10
273.4925594226
 20
634.8900164701
 30
0.0
 11
274.4925594226
 21
634.8900164701
 31
0.0
  0
LINE
  5
1CB
330
85
100
AcDbEntity
  8
$DDT_AUDIT_GENERATED_(F2)
  6
Continuous
 62
     7
100
AcDbLine
 10
274.4925594226
 20
634.8900164701
 30
0.0
 11
274.4925594226
 21
634.704895014
 31
0.0
  0
LINE
  5
1CC
330
85
100
AcDbEntity
  8
$DDT_AUDIT_GENERATED_(F2)
  6
Continuous
 62
     7
100
AcDbLine
 10
274.4925594226
 20
634.704895014
 30
0.0
 11
273.4925594226
 21
634.704895014
 31
0.0
  0
LINE
  5
1CD
330
85
100
AcDbEntity
  8
$DDT_AUDIT_GENERATED_(F2)
  6
Continuous
 62
     7
100
AcDbLine
 10
273.4925594226
 20
634.9270407614
 30
0.0
 11
273.4925594226
 21
635.1121622176
 31
0.0
  0
LINE
  5
1CE
330
85
100
AcDbEntity
  8
$DDT_AUDIT_GENERATED_(F2)
  6
Continuous
 62
     7
100
AcDbLine
 10
273.4925594226
 20
635.1121622176
 30
0.0
 11
274.4925594226
 21
635.1121622176
 31
0.0
  0
LINE
  5
1CF
330
85
100
AcDbEntity
  8
$DDT_AUDIT_GENERATED_(F2)
  6
Continuous
 62
     7
100
AcDbLine
 10
274.4925594226
 20
635.1121622176
 30
0.0
 11
274.4925594226
 21
634.9270407614
 31
0.0
  0
LINE
  5
1D0
330
85
100
AcDbEntity
  8
$DDT_AUDIT_GENERATED_(F2)
  6
Continuous
 62
     7
100
AcDbLine
 10
274.4925594226
 20
634.9270407614
 30
0.0
 11
273.4925594226
 21
634.9270407614
 31
0.0
  0
LINE
  5
1D1
330
85
100
AcDbEntity
  8
$DDT_AUDIT_GENERATED_(F2)
  6
Continuous
 62
     7
100
AcDbLine
 10
273.4925594226
 20
635.1491865088
 30
0.0
 11
273.4925594226
 21
635.334307965
 31
0.0
  0
LINE
  5
1D2
330
85
100
AcDbEntity
  8
$DDT_AUDIT_GENERATED_(F2)
  6
Continuous
 62
     7
100
AcDbLine
 10
273.4925594226
 20
635.334307965
 30
0.0
 11
274.4925594226
 21
635.334307965
 31
0.0
  0
LINE
  5
1D3
330
85
100
AcDbEntity
  8
$DDT_AUDIT_GENERATED_(F2)
  6
Continuous
 62
     7
100
AcDbLine
 10
274.4925594226
 20
635.334307965
 30
0.0
 11
274.4925594226
 21
635.1491865088
 31
0.0
  0
LINE
  5
1D4
330
85
100
AcDbEntity
  8
$DDT_AUDIT_GENERATED_(F2)
  6
Continuous
 62
     7
100
AcDbLine
 10
274.4925594226
 20
635.1491865088
 30
0.0
 11
273.4925594226
 21
635.1491865088
 31
0.0
  0
LINE
  5
1D5
330
85
100
AcDbEntity
  8
$DDT_AUDIT_GENERATED_(F2)
  6
Continuous
 62
     7
100
AcDbLine
 10
274.4925594226
 20
635.3835509597
 30
0.0
 11
274.4925594226
 21
635.3713322562
 31
0.0
  0
LINE
  5
1D6
330
85
100
AcDbEntity
  8
$DDT_AUDIT_GENERATED_(F2)
  6
Continuous
 62
     7
100
AcDbLine
 10
274.4925594226
 20
635.3713322562
 30
0.0
 11
273.9392528065
 21
635.3713322562
 31
0.0
  0
LINE
  5
1D7
330
85
100
AcDbEntity
  8
$DDT_AUDIT_GENERATED_(F2)
  6
Continuous
 62
     7
100
AcDbLine
 10
272.2925594226
 20
634.4457249753
 30
0.0
 11
273.2925594226
 21
634.4457249753
 31
0.0
  0
LINE
  5
1D8
330
85
100
AcDbEntity
  8
$DDT_AUDIT_GENERATED_(F2)
  6
Continuous
 62
     7
100
AcDbLine
 10
272.2925594226
 20
634.4827492665
 30
0.0
 11
272.2925594226
 21
634.6678707227
 31
0.0
  0
LINE
  5
1D9
330
85
100
AcDbEntity
  8
$DDT_AUDIT_GENERATED_(F2)
  6
Continuous
 62
     7
100
AcDbLine
 10
272.2925594226
 20
634.6678707227
 30
0.0
 11
273.2925594226
 21
634.6678707227
 31
0.0
  0
LINE
  5
1DA
330
85
100
AcDbEntity
  8
$DDT_AUDIT_GENERATED_(F2)
  6
Continuous
 62
     7
100
AcDbLine
 10
273.2925594226
 20
634.6678707227
 30
0.0
 11
273.2925594226
 21
634.4827492665
 31
0.0
  0
LINE
  5
1DB
330
85
100
AcDbEntity
  8
$DDT_AUDIT_GENERATED_(F2)
  6
Continuous
 62
     7
100
AcDbLine
 10
273.2925594226
 20
634.4827492665
 30
0.0
 11
272.2925594226
 21
634.4827492665
 31
0.0
  0
LINE
  5
1DC
330
85
100
AcDbEntity
  8
$DDT_AUDIT_GENERATED_(F2)
  6
Continuous
 62
     7
100
AcDbLine
 10
272.2925594226
 20
634.704895014
 30
0.0
 11
272.2925594226
 21
634.8900164701
 31
0.0
  0
LINE
  5
1DD
330
85
100
AcDbEntity
  8
$DDT_AUDIT_GENERATED_(F2)
  6
Continuous
 62
     7
100
AcDbLine
 10
272.2925594226
 20
634.8900164701
 30
0.0
 11
273.2925594226
 21
634.8900164701
 31
0.0
  0
LINE
  5
1DE
330
85
100
AcDbEntity
  8
$DDT_AUDIT_GENERATED_(F2)
  6
Continuous
 62
     7
100
AcDbLine
 10
273.2925594226
 20
634.8900164701
 30
0.0
 11
273.2925594226
 21
634.704895014
 31
0.0
  0
LINE
  5
1DF
330
85
100
AcDbEntity
  8
$DDT_AUDIT_GENERATED_(F2)
  6
Continuous
 62
     7
100
AcDbLine
 10
273.2925594226
 20
634.704895014
 30
0.0
 11
272.2925594226
 21
634.704895014
 31
0.0
  0
LINE
  5
1E0
330
85
100
AcDbEntity
  8
$DDT_AUDIT_GENERATED_(F2)
  6
Continuous
 62
     7
100
AcDbLine
 10
272.2925594226
 20
634.9270407614
 30
0.0
 11
272.2925594226
 21
635.1121622176
 31
0.0
  0
LINE
  5
1E1
330
85
100
AcDbEntity
  8
$DDT_AUDIT_GENERATED_(F2)
  6
Continuous
 62
     7
100
AcDbLine
 10
272.2925594226
 20
635.1121622176
 30
0.0
 11
273.2925594226
 21
635.1121622176
 31
0.0
  0
LINE
  5
1E2
330
85
100
AcDbEntity
  8
$DDT_AUDIT_GENERATED_(F2)
  6
Continuous
 62
     7
100
AcDbLine
 10
273.2925594226
 20
635.1121622176
 30
0.0
 11
273.2925594226
 21
634.9270407614
 31
0.0
  0
LINE
  5
1E3
330
85
100
AcDbEntity
  8
$DDT_AUDIT_GENERATED_(F2)
  6
Continuous
 62
     7
100
AcDbLine
 10
273.2925594226
 20
634.9270407614
 30
0.0
 11
272.2925594226
 21
634.9270407614
 31
0.0
  0
LINE
  5
1E4
330
85
100
AcDbEntity
  8
$DDT_AUDIT_GENERATED_(F2)
  6
Continuous
 62
     7
100
AcDbLine
 10
272.2925594226
 20
635.1491865088
 30
0.0
 11
272.2925594226
 21
635.2915925619
 31
0.0
  0
LINE
  5
1E5
330
85
100
AcDbEntity
  8
$DDT_AUDIT_GENERATED_(F2)
  6
Continuous
 62
     7
100
AcDbLine
 10
273.0033870347
 20
635.334307965
 30
0.0
 11
273.2925594226
 21
635.334307965
 31
0.0
  0
LINE
  5
1E6
330
85
100
AcDbEntity
  8
$DDT_AUDIT_GENERATED_(F2)
  6
Continuous
 62
     7
100
AcDbLine
 10
273.2925594226
 20
635.334307965
 30
0.0
 11
273.2925594226
 21
635.1491865088
 31
0.0
  0
LINE
  5
1E7
330
85
100
AcDbEntity
  8
$DDT_AUDIT_GENERATED_(F2)
  6
Continuous
 62
     7
100
AcDbLine
 10
273.2925594226
 20
635.1491865088
 30
0.0
 11
272.2925594226
 21
635.1491865088
 31
0.0
  0
LINE
  5
1E8
330
85
100
AcDbEntity
  8
$DDT_AUDIT_GENERATED_(F2)
  6
Continuous
 62
     7
100
AcDbLine
 10
271.0925594226
 20
634.4457249753
 30
0.0
 11
272.0925594226
 21
634.4457249753
 31
0.0
  0
LINE
  5
1E9
330
85
100
AcDbEntity
  8
$DDT_AUDIT_GENERATED_(F2)
  6
Continuous
 62
     7
100
AcDbLine
 10
271.0925594226
 20
634.4827492665
 30
0.0
 11
271.0925594226
 21
634.6678707227
 31
0.0
  0
LINE
  5
1EA
330
85
100
AcDbEntity
  8
$DDT_AUDIT_GENERATED_(F2)
  6
Continuous
 62
     7
100
AcDbLine
 10
271.0925594226
 20
634.6678707227
 30
0.0
 11
272.0925594226
 21
634.6678707227
 31
0.0
  0
LINE
  5
1EB
330
85
100
AcDbEntity
  8
$DDT_AUDIT_GENERATED_(F2)
  6
Continuous
 62
     7
100
AcDbLine
 10
272.0925594226
 20
634.6678707227
 30
0.0
 11
272.0925594226
 21
634.4827492665
 31
0.0
  0
LINE
  5
1EC
330
85
100
AcDbEntity
  8
$DDT_AUDIT_GENERATED_(F2)
  6
Continuous
 62
     7
100
AcDbLine
 10
272.0925594226
 20
634.4827492665
 30
0.0
 11
271.0925594226
 21
634.4827492665
 31
0.0
  0
LINE
  5
1ED
330
85
100
AcDbEntity
  8
$DDT_AUDIT_GENERATED_(F2)
  6
Continuous
 62
     7
100
AcDbLine
 10
271.0925594226
 20
634.704895014
 30
0.0
 11
271.0925594226
 21
634.8900164701
 31
0.0
  0
LINE
  5
1EE
330
85
100
AcDbEntity
  8
$DDT_AUDIT_GENERATED_(F2)
  6
Continuous
 62
     7
100
AcDbLine
 10
271.0925594226
 20
634.8900164701
 30
0.0
 11
272.0925594226
 21
634.8900164701
 31
0.0
  0
LINE
  5
1EF
330
85
100
AcDbEntity
  8
$DDT_AUDIT_GENERATED_(F2)
  6
Continuous
 62
     7
100
AcDbLine
 10
272.0925594226
 20
634.8900164701
 30
0.0
 11
272.0925594226
 21
634.704895014
 31
0.0
  0
LINE
  5
1F0
330
85
100
AcDbEntity
  8
$DDT_AUDIT_GENERATED_(F2)
  6
Continuous
 62
     7
100
AcDbLine
 10
272.0925594226
 20
634.704895014
 30
0.0
 11
271.0925594226
 21
634.704895014
 31
0.0
  0
LINE
  5
1F1
330
85
100
AcDbEntity
  8
$DDT_AUDIT_GENERATED_(F2)
  6
Continuous
 62
     7
100
AcDbLine
 10
271.0925594226
 20
634.9270407614
 30
0.0
 11
271.0925594226
 21
635.1121622176
 31
0.0
  0
LINE
  5
1F2
330
85
100
AcDbEntity
  8
$DDT_AUDIT_GENERATED_(F2)
  6
Continuous
 62
     7
100
AcDbLine
 10
271.0925594226
 20
635.1121622176
 30
0.0
 11
272.0925594226
 21
635.1121622176
 31
0.0
  0
LINE
  5
1F3
330
85
100
AcDbEntity
  8
$DDT_AUDIT_GENERATED_(F2)
  6
Continuous
 62
     7
100
AcDbLine
 10
272.0925594226
 20
635.1121622176
 30
0.0
 11
272.0925594226
 21
634.9270407614
 31
0.0
  0
LINE
  5
1F4
330
85
100
AcDbEntity
  8
$DDT_AUDIT_GENERATED_(F2)
  6
Continuous
 62
     7
100
AcDbLine
 10
272.0925594226
 20
634.9270407614
 30
0.0
 11
271.0925594226
 21
634.9270407614
 31
0.0
  0
LINE
  5
1F5
330
85
100
AcDbEntity
  8
$DDT_AUDIT_GENERATED_(F2)
  6
Continuous
 62
     7
100
AcDbLine
 10
271.0925594226
 20
635.1491865088
 30
0.0
 11
271.0925594226
 21
635.1871066883
 31
0.0
  0
LINE
  5
1F6
330
85
100
AcDbEntity
  8
$DDT_AUDIT_GENERATED_(F2)
  6
Continuous
 62
     7
100
AcDbLine
 10
272.0925594226
 20
635.2771383483
 30
0.0
 11
272.0925594226
 21
635.1491865088
 31
0.0
  0
LINE
  5
1F7
330
85
100
AcDbEntity
  8
$DDT_AUDIT_GENERATED_(F2)
  6
Continuous
 62
     7
100
AcDbLine
 10
272.0925594226
 20
635.1491865088
 30
0.0
 11
271.0925594226
 21
635.1491865088
 31
0.0
  0
LINE
  5
1F8
330
85
100
AcDbEntity
  8
$DDT_AUDIT_GENERATED_(F2)
  6
Continuous
 62
     7
100
AcDbLine
 10
269.8925594226
 20
634.4457249753
 30
0.0
 11
270.8925594226
 21
634.4457249753
 31
0.0
  0
LINE
  5
1F9
330
85
100
AcDbEntity
  8
$DDT_AUDIT_GENERATED_(F2)
  6
Continuous
 62
     7
100
AcDbLine
 10
269.8925594226
 20
634.4827492665
 30
0.0
 11
269.8925594226
 21
634.6678707227
 31
0.0
  0
LINE
  5
1FA
330
85
100
AcDbEntity
  8
$DDT_AUDIT_GENERATED_(F2)
  6
Continuous
 62
     7
100
AcDbLine
 10
269.8925594226
 20
634.6678707227
 30
0.0
 11
270.8925594226
 21
634.6678707227
 31
0.0
  0
LINE
  5
1FB
330
85
100
AcDbEntity
  8
$DDT_AUDIT_GENERATED_(F2)
  6
Continuous
 62
     7
100
AcDbLine
 10
270.8925594226
 20
634.6678707227
 30
0.0
 11
270.8925594226
 21
634.4827492665
 31
0.0
  0
LINE
  5
1FC
330
85
100
AcDbEntity
  8
$DDT_AUDIT_GENERATED_(F2)
  6
Continuous
 62
     7
100
AcDbLine
 10
270.8925594226
 20
634.4827492665
 30
0.0
 11
269.8925594226
 21
634.4827492665
 31
0.0
  0
LINE
  5
1FD
330
85
100
AcDbEntity
  8
$DDT_AUDIT_GENERATED_(F2)
  6
Continuous
 62
     7
100
AcDbLine
 10
269.8925594226
 20
634.704895014
 30
0.0
 11
269.8925594226
 21
634.8900164701
 31
0.0
  0
LINE
  5
1FE
330
85
100
AcDbEntity
  8
$DDT_AUDIT_GENERATED_(F2)
  6
Continuous
 62
     7
100
AcDbLine
 10
269.8925594226
 20
634.8900164701
 30
0.0
 11
270.8925594226
 21
634.8900164701
 31
0.0
  0
LINE
  5
1FF
330
85
100
AcDbEntity
  8
$DDT_AUDIT_GENERATED_(F2)
  6
Continuous
 62
     7
100
AcDbLine
 10
270.8925594226
 20
634.8900164701
 30
0.0
 11
270.8925594226
 21
634.704895014
 31
0.0
  0
LINE
  5
200
330
85
100
AcDbEntity
  8
$DDT_AUDIT_GENERATED_(F2)
  6
Continuous
 62
     7
100
AcDbLine
 10
270.8925594226
 20
634.704895014
 30
0.0
 11
269.8925594226
 21
634.704895014
 31
0.0
  0
LINE
  5
201
330
85
100
AcDbEntity
  8
$DDT_AUDIT_GENERATED_(F2)
  6
Continuous
 62
     7
100
AcDbLine
 10
269.8925594226
 20
634.9270407614
 30
0.0
 11
269.8925594226
 21
635.032214778
 31
0.0
  0
LINE
  5
202
330
85
100
AcDbEntity
  8
$DDT_AUDIT_GENERATED_(F2)
  6
Continuous
 62
     7
100
AcDbLine
 10
270.4551903887
 20
635.1121622176
 30
0.0
 11
270.8925594226
 21
635.1121622176
 31
0.0
  0
LINE
  5
203
330
85
100
AcDbEntity
  8
$DDT_AUDIT_GENERATED_(F2)
  6
Continuous
 62
     7
100
AcDbLine
 10
270.8925594226
 20
635.1121622176
 30
0.0
 11
270.8925594226
 21
634.9270407614
 31
0.0
  0
LINE
  5
204
330
85
100
AcDbEntity
  8
$DDT_AUDIT_GENERATED_(F2)
  6
Continuous
 62
     7
100
AcDbLine
 10
270.8925594226
 20
634.9270407614
 30
0.0
 11
269.8925594226
 21
634.9270407614
 31
0.0
  0
LINE
  5
205
330
85
100
AcDbEntity
  8
$DDT_AUDIT_GENERATED_(F2)
  6
Continuous
 62
     7
100
AcDbLine
 10
270.8925594226
 20
635.1652047778
 30
0.0
 11
270.8925594226
 21
635.1491865088
 31
0.0
  0
LINE
  5
206
330
85
100
AcDbEntity
  8
$DDT_AUDIT_GENERATED_(F2)
  6
Continuous
 62
     7
100
AcDbLine
 10
270.8925594226
 20
635.1491865088
 30
0.0
 11
270.7539822752
 21
635.1491865088
 31
0.0
  0
LINE
  5
207
330
85
100
AcDbEntity
  8
$DDT_AUDIT_GENERATED_(F2)
  6
Continuous
 62
     7
100
AcDbLine
 10
268.6925594226
 20
634.4457249753
 30
0.0
 11
269.6925594226
 21
634.4457249753
 31
0.0
  0
LINE
  5
208
330
85
100
AcDbEntity
  8
$DDT_AUDIT_GENERATED_(F2)
  6
Continuous
 62
     7
100
AcDbLine
 10
268.6925594226
 20
634.4827492665
 30
0.0
 11
268.6925594226
 21
634.6678707227
 31
0.0
  0
LINE
  5
209
330
85
100
AcDbEntity
  8
$DDT_AUDIT_GENERATED_(F2)
  6
Continuous
 62
     7
100
AcDbLine
 10
268.6925594226
 20
634.6678707227
 30
0.0
 11
269.6925594226
 21
634.6678707227
 31
0.0
  0
LINE
  5
20A
330
85
100
AcDbEntity
  8
$DDT_AUDIT_GENERATED_(F2)
  6
Continuous
 62
     7
100
AcDbLine
 10
269.6925594226
 20
634.6678707227
 30
0.0
 11
269.6925594226
 21
634.4827492665
 31
0.0
  0
LINE
  5
20B
330
85
100
AcDbEntity
  8
$DDT_AUDIT_GENERATED_(F2)
  6
Continuous
 62
     7
100
AcDbLine
 10
269.6925594226
 20
634.4827492665
 30
0.0
 11
268.6925594226
 21
634.4827492665
 31
0.0
  0
LINE
  5
20C
330
85
100
AcDbEntity
  8
$DDT_AUDIT_GENERATED_(F2)
  6
Continuous
 62
     7
100
AcDbLine
 10
268.6925594226
 20
634.704895014
 30
0.0
 11
268.6925594226
 21
634.8023345594
 31
0.0
  0
LINE
  5
20D
330
85
100
AcDbEntity
  8
$DDT_AUDIT_GENERATED_(F2)
  6
Continuous
 62
     7
100
AcDbLine
 10
269.0923254121
 20
634.8900164701
 30
0.0
 11
269.6925594226
 21
634.8900164701
 31
0.0
  0
LINE
  5
20E
330
85
100
AcDbEntity
  8
$DDT_AUDIT_GENERATED_(F2)
  6
Continuous
 62
     7
100
AcDbLine
 10
269.6925594226
 20
634.8900164701
 30
0.0
 11
269.6925594226
 21
634.704895014
 31
0.0
  0
LINE
  5
20F
330
85
100
AcDbEntity
  8
$DDT_AUDIT_GENERATED_(F2)
  6
Continuous
 62
     7
100
AcDbLine
 10
269.6925594226
 20
634.704895014
 30
0.0
 11
268.6925594226
 21
634.704895014
 31
0.0
  0
LINE
  5
210
330
85
100
AcDbEntity
  8
$DDT_AUDIT_GENERATED_(F2)
  6
Continuous
 62
     7
100
AcDbLine
 10
269.6925594226
 20
635.0001528631
 30
0.0
 11
269.6925594226
 21
634.9270407614
 31
0.0
  0
LINE
  5
211
330
85
100
AcDbEntity
  8
$DDT_AUDIT_GENERATED_(F2)
  6
Continuous
 62
     7
100
AcDbLine
 10
269.6925594226
 20
634.9270407614
 30
0.0
 11
269.2806090919
 21
634.9270407614
 31
0.0
  0
LINE
  5
212
330
85
100
AcDbEntity
  8
$DDT_AUDIT_GENERATED_(F2)
  6
Continuous
 62
     7
100
AcDbLine
 10
267.5693557507
 20
634.4457249753
 30
0.0
 11
268.4925594226
 21
634.4457249753
 31
0.0
  0
LINE
  5
213
330
85
100
AcDbEntity
  8
$DDT_AUDIT_GENERATED_(F2)
  6
Continuous
 62
     7
100
AcDbLine
 10
268.1852029594
 20
634.6678707227
 30
0.0
 11
268.4925594226
 21
634.6678707227
 31
0.0
  0
LINE
  5
214
330
85
100
AcDbEntity
  8
$DDT_AUDIT_GENERATED_(F2)
  6
Continuous
 62
     7
100
AcDbLine
 10
268.4925594226
 20
634.6678707227
 30
0.0
 11
268.4925594226
 21
634.4827492665
 31
0.0
  0
LINE
  5
215
330
85
100
AcDbEntity
  8
$DDT_AUDIT_GENERATED_(F2)
  6
Continuous
 62
     7
100
AcDbLine
 10
268.4925594226
 20
634.4827492665
 30
0.0
 11
267.6552166579
 21
634.4827492665
 31
0.0
  0
LINE
  5
216
330
85
100
AcDbEntity
  8
$DDT_AUDIT_GENERATED_(F2)
  6
Continuous
 62
     7
100
AcDbLine
 10
268.4925594226
 20
634.7529408113
 30
0.0
 11
268.4925594226
 21
634.704895014
 31
0.0
  0
LINE
  5
217
330
85
100
AcDbEntity
  8
$DDT_AUDIT_GENERATED_(F2)
  6
Continuous
 62
     7
100
AcDbLine
 10
268.4925594226
 20
634.704895014
 30
0.0
 11
268.3135081557
 21
634.704895014
 31
0.0
  0
LINE
  5
218
330
85
100
AcDbEntity
  8
$DDT_AUDIT_GENERATED_(F2)
  6
Continuous
 62
     7
100
AcDbLine
 10
275.6925594226
 20
634.4457249753
 30
0.0
 11
275.6925594226
 21
634.2606035191
 31
0.0
  0
LINE
  5
219
330
85
100
AcDbEntity
  8
$DDT_AUDIT_GENERATED_(F2)
  6
Continuous
 62
     7
100
AcDbLine
 10
275.8925594226
 20
634.4457249753
 30
0.0
 11
276.8925594226
 21
634.4457249753
 31
0.0
  0
LINE
  5
21A
330
85
100
AcDbEntity
  8
$DDT_AUDIT_GENERATED_(F2)
  6
Continuous
 62
     7
100
AcDbLine
 10
276.8925594226
 20
634.4457249753
 30
0.0
 11
276.8925594226
 21
634.2606035191
 31
0.0
  0
LINE
  5
21B
330
85
100
AcDbEntity
  8
$DDT_AUDIT_GENERATED_(F2)
  6
Continuous
 62
     7
100
AcDbLine
 10
275.8925594226
 20
634.2606035191
 30
0.0
 11
275.8925594226
 21
634.4457249753
 31
0.0
  0
LINE
  5
21C
330
85
100
AcDbEntity
  8
$DDT_AUDIT_GENERATED_(F2)
  6
Continuous
 62
     7
100
AcDbLine
 10
277.0925594226
 20
634.4457249753
 30
0.0
 11
278.0925594226
 21
634.4457249753
 31
0.0
  0
LINE
  5
21D
330
85
100
AcDbEntity
  8
$DDT_AUDIT_GENERATED_(F2)
  6
Continuous
 62
     7
100
AcDbLine
 10
278.0925594226
 20
634.4457249753
 30
0.0
 11
278.0925594226
 21
634.2606035191
 31
0.0
  0
LINE
  5
21E
330
85
100
AcDbEntity
  8
$DDT_AUDIT_GENERATED_(F2)
  6
Continuous
 62
     7
100
AcDbLine
 10
277.0925594226
 20
634.2606035191
 30
0.0
 11
277.0925594226
 21
634.4457249753
 31
0.0
  0
LINE
  5
21F
330
85
100
AcDbEntity
  8
$DDT_AUDIT_GENERATED_(F2)
  6
Continuous
 62
     7
100
AcDbLine
 10
278.2925594226
 20
634.4457249753
 30
0.0
 11
279.2925594226
 21
634.4457249753
 31
0.0
  0
LINE
  5
220
330
85
100
AcDbEntity
  8
$DDT_AUDIT_GENERATED_(F2)
  6
Continuous
 62
     7
100
AcDbLine
 10
279.2925594226
 20
634.4457249753
 30
0.0
 11
279.2925594226
 21
634.2606035191
 31
0.0
  0
LINE
  5
221
330
85
100
AcDbEntity
  8
$DDT_AUDIT_GENERATED_(F2)
  6
Continuous
 62
     7
100
AcDbLine
 10
278.2925594226
 20
634.2606035191
 30
0.0
 11
278.2925594226
 21
634.4457249753
 31
0.0
  0
LINE
  5
222
330
85
100
AcDbEntity
  8
$DDT_AUDIT_GENERATED_(F2)
  6
Continuous
 62
     7
100
AcDbLine
 10
279.4925594226
 20
634.4457249753
 30
0.0
 11
280.4925594226
 21
634.4457249753
 31
0.0
  0
LINE
  5
223
330
85
100
AcDbEntity
  8
$DDT_AUDIT_GENERATED_(F2)
  6
Continuous
 62
     7
100
AcDbLine
 10
280.4925594226
 20
634.4457249753
 30
0.0
 11
280.4925594226
 21
634.2606035191
 31
0.0
  0
LINE
  5
224
330
85
100
AcDbEntity
  8
$DDT_AUDIT_GENERATED_(F2)
  6
Continuous
 62
     7
100
AcDbLine
 10
279.4925594226
 20
634.2606035191
 30
0.0
 11
279.4925594226
 21
634.4457249753
 31
0.0
  0
LINE
  5
225
330
85
100
AcDbEntity
  8
$DDT_AUDIT_GENERATED_(F2)
  6
Continuous
 62
     7
100
AcDbLine
 10
280.6925594226
 20
634.4457249753
 30
0.0
 11
281.6925594226
 21
634.4457249753
 31
0.0
  0
LINE
  5
226
330
85
100
AcDbEntity
  8
$DDT_AUDIT_GENERATED_(F2)
  6
Continuous
 62
     7
100
AcDbLine
 10
281.6925594226
 20
634.4457249753
 30
0.0
 11
281.6925594226
 21
634.2606035191
 31
0.0
  0
LINE
  5
227
330
85
100
AcDbEntity
  8
$DDT_AUDIT_GENERATED_(F2)
  6
Continuous
 62
     7
100
AcDbLine
 10
280.6925594226
 20
634.2606035191
 30
0.0
 11
280.6925594226
 21
634.4457249753
 31
0.0
  0
LINE
  5
228
330
85
100
AcDbEntity
  8
$DDT_AUDIT_GENERATED_(F2)
  6
Continuous
 62
     7
100
AcDbLine
 10
282.8925594226
 20
634.4101066758
 30
0.0
 11
282.8925594226
 21
634.2606035191
 31
0.0
  0
LINE
  5
229
330
85
100
AcDbEntity
  8
$DDT_AUDIT_GENERATED_(F2)
  6
Continuous
 62
     7
100
AcDbLine
 10
281.8925594226
 20
634.4457249753
 30
0.0
 11
282.8157630945
 21
634.4457249753
 31
0.0
  0
LINE
  5
22A
330
85
100
AcDbEntity
  8
$DDT_AUDIT_GENERATED_(F2)
  6
Continuous
 62
     7
100
AcDbLine
 10
281.8925594226
 20
634.2606035191
 30
0.0
 11
281.8925594226
 21
634.4457249753
 31
0.0
  0
LINE
  5
22B
330
85
100
AcDbEntity
  8
$DDT_AUDIT_GENERATED_(F2)
  6
Continuous
 62
     7
100
AcDbLine
 10
275.6925594226
 20
634.6678707227
 30
0.0
 11
275.6925594226
 21
634.4827492665
 31
0.0
  0
LINE
  5
22C
330
85
100
AcDbEntity
  8
$DDT_AUDIT_GENERATED_(F2)
  6
Continuous
 62
     7
100
AcDbLine
 10
275.8925594226
 20
634.6678707227
 30
0.0
 11
276.8925594226
 21
634.6678707227
 31
0.0
  0
LINE
  5
22D
330
85
100
AcDbEntity
  8
$DDT_AUDIT_GENERATED_(F2)
  6
Continuous
 62
     7
100
AcDbLine
 10
276.8925594226
 20
634.6678707227
 30
0.0
 11
276.8925594226
 21
634.4827492665
 31
0.0
  0
LINE
  5
22E
330
85
100
AcDbEntity
  8
$DDT_AUDIT_GENERATED_(F2)
  6
Continuous
 62
     7
100
AcDbLine
 10
276.8925594226
 20
634.4827492665
 30
0.0
 11
275.8925594226
 21
634.4827492665
 31
0.0
  0
LINE
  5
22F
330
85
100
AcDbEntity
  8
$DDT_AUDIT_GENERATED_(F2)
  6
Continuous
 62
     7
100
AcDbLine
 10
275.8925594226
 20
634.4827492665
 30
0.0
 11
275.8925594226
 21
634.6678707227
 31
0.0
  0
LINE
  5
230
330
85
100
AcDbEntity
  8
$DDT_AUDIT_GENERATED_(F2)
  6
Continuous
 62
     7
100
AcDbLine
 10
277.0925594226
 20
634.6678707227
 30
0.0
 11
278.0925594226
 21
634.6678707227
 31
0.0
  0
LINE
  5
231
330
85
100
AcDbEntity
  8
$DDT_AUDIT_GENERATED_(F2)
  6
Continuous
 62
     7
100
AcDbLine
 10
278.0925594226
 20
634.6678707227
 30
0.0
 11
278.0925594226
 21
634.4827492665
 31
0.0
  0
LINE
  5
232
330
85
100
AcDbEntity
  8
$DDT_AUDIT_GENERATED_(F2)
  6
Continuous
 62
     7
100
AcDbLine
 10
278.0925594226
 20
634.4827492665
 30
0.0
 11
277.0925594226
 21
634.4827492665
 31
0.0
  0
LINE
  5
233
330
85
100
AcDbEntity
  8
$DDT_AUDIT_GENERATED_(F2)
  6
Continuous
 62
     7
100
AcDbLine
 10
277.0925594226
 20
634.4827492665
 30
0.0
 11
277.0925594226
 21
634.6678707227
 31
0.0
  0
LINE
  5
234
330
85
100
AcDbEntity
  8
$DDT_AUDIT_GENERATED_(F2)
  6
Continuous
 62
     7
100
AcDbLine
 10
278.2925594226
 20
634.6678707227
 30
0.0
 11
279.2925594226
 21
634.6678707227
 31
0.0
  0
LINE
  5
235
330
85
100
AcDbEntity
  8
$DDT_AUDIT_GENERATED_(F2)
  6
Continuous
 62
     7
100
AcDbLine
 10
279.2925594226
 20
634.6678707227
 30
0.0
 11
279.2925594226
 21
634.4827492665
 31
0.0
  0
LINE
  5
236
330
85
100
AcDbEntity
  8
$DDT_AUDIT_GENERATED_(F2)
  6
Continuous
 62
     7
100
AcDbLine
 10
279.2925594226
 20
634.4827492665
 30
0.0
 11
278.2925594226
 21
634.4827492665
 31
0.0
  0
LINE
  5
237
330
85
100
AcDbEntity
  8
$DDT_AUDIT_GENERATED_(F2)
  6
Continuous
 62
     7
100
AcDbLine
 10
278.2925594226
 20
634.4827492665
 30
0.0
 11
278.2925594226
 21
634.6678707227
 31
0.0
  0
LINE
  5
238
330
85
100
AcDbEntity
  8
$DDT_AUDIT_GENERATED_(F2)
  6
Continuous
 62
     7
100
AcDbLine
 10
279.4925594226
 20
634.6678707227
 30
0.0
 11
280.4925594226
 21
634.6678707227
 31
0.0
  0
LINE
  5
239
330
85
100
AcDbEntity
  8
$DDT_AUDIT_GENERATED_(F2)
  6
Continuous
 62
     7
100
AcDbLine
 10
280.4925594226
 20
634.6678707227
 30
0.0
 11
280.4925594226
 21
634.4827492665
 31
0.0
  0
LINE
  5
23A
330
85
100
AcDbEntity
  8
$DDT_AUDIT_GENERATED_(F2)
  6
Continuous
 62
     7
100
AcDbLine
 10
280.4925594226
 20
634.4827492665
 30
0.0
 11
279.4925594226
 21
634.4827492665
 31
0.0
  0
LINE
  5
23B
330
85
100
AcDbEntity
  8
$DDT_AUDIT_GENERATED_(F2)
  6
Continuous
 62
     7
100
AcDbLine
 10
279.4925594226
 20
634.4827492665
 30
0.0
 11
279.4925594226
 21
634.6678707227
 31
0.0
  0
LINE
  5
23C
330
85
100
AcDbEntity
  8
$DDT_AUDIT_GENERATED_(F2)
  6
Continuous
 62
     7
100
AcDbLine
 10
280.6925594226
 20
634.6678707227
 30
0.0
 11
281.6925594226
 21
634.6678707227
 31
0.0
  0
LINE
  5
23D
330
85
100
AcDbEntity
  8
$DDT_AUDIT_GENERATED_(F2)
  6
Continuous
 62
     7
100
AcDbLine
 10
281.6925594226
 20
634.6678707227
 30
0.0
 11
281.6925594226
 21
634.4827492665
 31
0.0
  0
LINE
  5
23E
330
85
100
AcDbEntity
  8
$DDT_AUDIT_GENERATED_(F2)
  6
Continuous
 62
     7
100
AcDbLine
 10
281.6925594226
 20
634.4827492665
 30
0.0
 11
280.6925594226
 21
634.4827492665
 31
0.0
  0
LINE
  5
23F
330
85
100
AcDbEntity
  8
$DDT_AUDIT_GENERATED_(F2)
  6
Continuous
 62
     7
100
AcDbLine
 10
280.6925594226
 20
634.4827492665
 30
0.0
 11
280.6925594226
 21
634.6678707227
 31
0.0
  0
LINE
  5
240
330
85
100
AcDbEntity
  8
$DDT_AUDIT_GENERATED_(F2)
  6
Continuous
 62
     7
100
AcDbLine
 10
281.8925594226
 20
634.6678707227
 30
0.0
 11
282.1999158858
 21
634.6678707227
 31
0.0
  0
LINE
  5
241
330
85
100
AcDbEntity
  8
$DDT_AUDIT_GENERATED_(F2)
  6
Continuous
 62
     7
100
AcDbLine
 10
282.7299021873
 20
634.4827492665
 30
0.0
 11
281.8925594226
 21
634.4827492665
 31
0.0
  0
LINE
  5
242
330
85
100
AcDbEntity
  8
$DDT_AUDIT_GENERATED_(F2)
  6
Continuous
 62
     7
100
AcDbLine
 10
281.8925594226
 20
634.4827492665
 30
0.0
 11
281.8925594226
 21
634.6678707227
 31
0.0
  0
LINE
  5
243
330
85
100
AcDbEntity
  8
$DDT_AUDIT_GENERATED_(F2)
  6
Continuous
 62
     7
100
AcDbLine
 10
275.6925594226
 20
634.8900164701
 30
0.0
 11
275.6925594226
 21
634.704895014
 31
0.0
  0
LINE
  5
244
330
85
100
AcDbEntity
  8
$DDT_AUDIT_GENERATED_(F2)
  6
Continuous
 62
     7
100
AcDbLine
 10
275.8925594226
 20
634.8900164701
 30
0.0
 11
276.8925594226
 21
634.8900164701
 31
0.0
  0
LINE
  5
245
330
85
100
AcDbEntity
  8
$DDT_AUDIT_GENERATED_(F2)
  6
Continuous
 62
     7
100
AcDbLine
 10
276.8925594226
 20
634.8900164701
 30
0.0
 11
276.8925594226
 21
634.704895014
 31
0.0
  0
LINE
  5
246
330
85
100
AcDbEntity
  8
$DDT_AUDIT_GENERATED_(F2)
  6
Continuous
 62
     7
100
AcDbLine
 10
276.8925594226
 20
634.704895014
 30
0.0
 11
275.8925594226
 21
634.704895014
 31
0.0
  0
LINE
  5
247
330
85
100
AcDbEntity
  8
$DDT_AUDIT_GENERATED_(F2)
  6
Continuous
 62
     7
100
AcDbLine
 10
275.8925594226
 20
634.704895014
 30
0.0
 11
275.8925594226
 21
634.8900164701
 31
0.0
  0
LINE
  5
248
330
85
100
AcDbEntity
  8
$DDT_AUDIT_GENERATED_(F2)
  6
Continuous
 62
     7
100
AcDbLine
 10
277.0925594226
 20
634.8900164701
 30
0.0
 11
278.0925594226
 21
634.8900164701
 31
0.0
  0
LINE
  5
249
330
85
100
AcDbEntity
  8
$DDT_AUDIT_GENERATED_(F2)
  6
Continuous
 62
     7
100
AcDbLine
 10
278.0925594226
 20
634.8900164701
 30
0.0
 11
278.0925594226
 21
634.704895014
 31
0.0
  0
LINE
  5
24A
330
85
100
AcDbEntity
  8
$DDT_AUDIT_GENERATED_(F2)
  6
Continuous
 62
     7
100
AcDbLine
 10
278.0925594226
 20
634.704895014
 30
0.0
 11
277.0925594226
 21
634.704895014
 31
0.0
  0
LINE
  5
24B
330
85
100
AcDbEntity
  8
$DDT_AUDIT_GENERATED_(F2)
  6
Continuous
 62
     7
100
AcDbLine
 10
277.0925594226
 20
634.704895014
 30
0.0
 11
277.0925594226
 21
634.8900164701
 31
0.0
  0
LINE
  5
24C
330
85
100
AcDbEntity
  8
$DDT_AUDIT_GENERATED_(F2)
  6
Continuous
 62
     7
100
AcDbLine
 10
278.2925594226
 20
634.8900164701
 30
0.0
 11
279.2925594226
 21
634.8900164701
 31
0.0
  0
LINE
  5
24D
330
85
100
AcDbEntity
  8
$DDT_AUDIT_GENERATED_(F2)
  6
Continuous
 62
     7
100
AcDbLine
 10
279.2925594226
 20
634.8900164701
 30
0.0
 11
279.2925594226
 21
634.704895014
 31
0.0
  0
LINE
  5
24E
330
85
100
AcDbEntity
  8
$DDT_AUDIT_GENERATED_(F2)
  6
Continuous
 62
     7
100
AcDbLine
 10
279.2925594226
 20
634.704895014
 30
0.0
 11
278.2925594226
 21
634.704895014
 31
0.0
  0
LINE
  5
24F
330
85
100
AcDbEntity
  8
$DDT_AUDIT_GENERATED_(F2)
  6
Continuous
 62
     7
100
AcDbLine
 10
278.2925594226
 20
634.704895014
 30
0.0
 11
278.2925594226
 21
634.8900164701
 31
0.0
  0
LINE
  5
250
330
85
100
AcDbEntity
  8
$DDT_AUDIT_GENERATED_(F2)
  6
Continuous
 62
     7
100
AcDbLine
 10
279.4925594226
 20
634.8900164701
 30
0.0
 11
280.4925594226
 21
634.8900164701
 31
0.0
  0
LINE
  5
251
330
85
100
AcDbEntity
  8
$DDT_AUDIT_GENERATED_(F2)
  6
Continuous
 62
     7
100
AcDbLine
 10
280.4925594226
 20
634.8900164701
 30
0.0
 11
280.4925594226
 21
634.704895014
 31
0.0
  0
LINE
  5
252
330
85
100
AcDbEntity
  8
$DDT_AUDIT_GENERATED_(F2)
  6
Continuous
 62
     7
100
AcDbLine
 10
280.4925594226
 20
634.704895014
 30
0.0
 11
279.4925594226
 21
634.704895014
 31
0.0
  0
LINE
  5
253
330
85
100
AcDbEntity
  8
$DDT_AUDIT_GENERATED_(F2)
  6
Continuous
 62
     7
100
AcDbLine
 10
279.4925594226
 20
634.704895014
 30
0.0
 11
279.4925594226
 21
634.8900164701
 31
0.0
  0
LINE
  5
254
330
85
100
AcDbEntity
  8
$DDT_AUDIT_GENERATED_(F2)
  6
Continuous
 62
     7
100
AcDbLine
 10
280.6925594226
 20
634.8900164701
 30
0.0
 11
281.2927934331
 21
634.8900164701
 31
0.0
  0
LINE
  5
255
330
85
100
AcDbEntity
  8
$DDT_AUDIT_GENERATED_(F2)
  6
Continuous
 62
     7
100
AcDbLine
 10
281.6925594226
 20
634.8023345594
 30
0.0
 11
281.6925594226
 21
634.704895014
 31
0.0
  0
LINE
  5
256
330
85
100
AcDbEntity
  8
$DDT_AUDIT_GENERATED_(F2)
  6
Continuous
 62
     7
100
AcDbLine
 10
281.6925594226
 20
634.704895014
 30
0.0
 11
280.6925594226
 21
634.704895014
 31
0.0
  0
LINE
  5
257
330
85
100
AcDbEntity
  8
$DDT_AUDIT_GENERATED_(F2)
  6
Continuous
 62
     7
100
AcDbLine
 10
280.6925594226
 20
634.704895014
 30
0.0
 11
280.6925594226
 21
634.8900164701
 31
0.0
  0
LINE
  5
258
330
85
100
AcDbEntity
  8
$DDT_AUDIT_GENERATED_(F2)
  6
Continuous
 62
     7
100
AcDbLine
 10
275.6925594226
 20
635.1121622176
 30
0.0
 11
275.6925594226
 21
634.9270407614
 31
0.0
  0
LINE
  5
259
330
85
100
AcDbEntity
  8
$DDT_AUDIT_GENERATED_(F2)
  6
Continuous
 62
     7
100
AcDbLine
 10
275.8925594226
 20
635.1121622176
 30
0.0
 11
276.8925594226
 21
635.1121622176
 31
0.0
  0
LINE
  5
25A
330
85
100
AcDbEntity
  8
$DDT_AUDIT_GENERATED_(F2)
  6
Continuous
 62
     7
100
AcDbLine
 10
276.8925594226
 20
635.1121622176
 30
0.0
 11
276.8925594226
 21
634.9270407614
 31
0.0
  0
LINE
  5
25B
330
85
100
AcDbEntity
  8
$DDT_AUDIT_GENERATED_(F2)
  6
Continuous
 62
     7
100
AcDbLine
 10
276.8925594226
 20
634.9270407614
 30
0.0
 11
275.8925594226
 21
634.9270407614
 31
0.0
  0
LINE
  5
25C
330
85
100
AcDbEntity
  8
$DDT_AUDIT_GENERATED_(F2)
  6
Continuous
 62
     7
100
AcDbLine
 10
275.8925594226
 20
634.9270407614
 30
0.0
 11
275.8925594226
 21
635.1121622176
 31
0.0
  0
LINE
  5
25D
330
85
100
AcDbEntity
  8
$DDT_AUDIT_GENERATED_(F2)
  6
Continuous
 62
     7
100
AcDbLine
 10
277.0925594226
 20
635.1121622176
 30
0.0
 11
278.0925594226
 21
635.1121622176
 31
0.0
  0
LINE
  5
25E
330
85
100
AcDbEntity
  8
$DDT_AUDIT_GENERATED_(F2)
  6
Continuous
 62
     7
100
AcDbLine
 10
278.0925594226
 20
635.1121622176
 30
0.0
 11
278.0925594226
 21
634.9270407614
 31
0.0
  0
LINE
  5
25F
330
85
100
AcDbEntity
  8
$DDT_AUDIT_GENERATED_(F2)
  6
Continuous
 62
     7
100
AcDbLine
 10
278.0925594226
 20
634.9270407614
 30
0.0
 11
277.0925594226
 21
634.9270407614
 31
0.0
  0
LINE
  5
260
330
85
100
AcDbEntity
  8
$DDT_AUDIT_GENERATED_(F2)
  6
Continuous
 62
     7
100
AcDbLine
 10
277.0925594226
 20
634.9270407614
 30
0.0
 11
277.0925594226
 21
635.1121622176
 31
0.0
  0
LINE
  5
261
330
85
100
AcDbEntity
  8
$DDT_AUDIT_GENERATED_(F2)
  6
Continuous
 62
     7
100
AcDbLine
 10
278.2925594226
 20
635.1121622176
 30
0.0
 11
279.2925594226
 21
635.1121622176
 31
0.0
  0
LINE
  5
262
330
85
100
AcDbEntity
  8
$DDT_AUDIT_GENERATED_(F2)
  6
Continuous
 62
     7
100
AcDbLine
 10
279.2925594226
 20
635.1121622176
 30
0.0
 11
279.2925594226
 21
634.9270407614
 31
0.0
  0
LINE
  5
263
330
85
100
AcDbEntity
  8
$DDT_AUDIT_GENERATED_(F2)
  6
Continuous
 62
     7
100
AcDbLine
 10
279.2925594226
 20
634.9270407614
 30
0.0
 11
278.2925594226
 21
634.9270407614
 31
0.0
  0
LINE
  5
264
330
85
100
AcDbEntity
  8
$DDT_AUDIT_GENERATED_(F2)
  6
Continuous
 62
     7
100
AcDbLine
 10
278.2925594226
 20
634.9270407614
 30
0.0
 11
278.2925594226
 21
635.1121622176
 31
0.0
  0
LINE
  5
265
330
85
100
AcDbEntity
  8
$DDT_AUDIT_GENERATED_(F2)
  6
Continuous
 62
     7
100
AcDbLine
 10
279.4925594226
 20
635.1121622176
 30
0.0
 11
279.9299284565
 21
635.1121622176
 31
0.0
  0
LINE
  5
266
330
85
100
AcDbEntity
  8
$DDT_AUDIT_GENERATED_(F2)
  6
Continuous
 62
     7
100
AcDbLine
 10
280.4925594226
 20
635.032214778
 30
0.0
 11
280.4925594226
 21
634.9270407614
 31
0.0
  0
LINE
  5
267
330
85
100
AcDbEntity
  8
$DDT_AUDIT_GENERATED_(F2)
  6
Continuous
 62
     7
100
AcDbLine
 10
280.4925594226
 20
634.9270407614
 30
0.0
 11
279.4925594226
 21
634.9270407614
 31
0.0
  0
LINE
  5
268
330
85
100
AcDbEntity
  8
$DDT_AUDIT_GENERATED_(F2)
  6
Continuous
 62
     7
100
AcDbLine
 10
279.4925594226
 20
634.9270407614
 30
0.0
 11
279.4925594226
 21
635.1121622176
 31
0.0
  0
LINE
  5
269
330
85
100
AcDbEntity
  8
$DDT_AUDIT_GENERATED_(F2)
  6
Continuous
 62
     7
100
AcDbLine
 10
281.1045097533
 20
634.9270407614
 30
0.0
 11
280.6925594226
 21
634.9270407614
 31
0.0
  0
LINE
  5
26A
330
85
100
AcDbEntity
  8
$DDT_AUDIT_GENERATED_(F2)
  6
Continuous
 62
     7
100
AcDbLine
 10
280.6925594226
 20
634.9270407614
 30
0.0
 11
280.6925594226
 21
635.0001528631
 31
0.0
  0
LINE
  5
26B
330
85
100
AcDbEntity
  8
$DDT_AUDIT_GENERATED_(F2)
  6
Continuous
 62
     7
100
AcDbLine
 10
275.6925594226
 20
635.334307965
 30
0.0
 11
275.6925594226
 21
635.1491865088
 31
0.0
  0
LINE
  5
26C
330
85
100
AcDbEntity
  8
$DDT_AUDIT_GENERATED_(F2)
  6
Continuous
 62
     7
100
AcDbLine
 10
275.8925594226
 20
635.334307965
 30
0.0
 11
276.8925594226
 21
635.334307965
 31
0.0
  0
LINE
  5
26D
330
85
100
AcDbEntity
  8
$DDT_AUDIT_GENERATED_(F2)
  6
Continuous
 62
     7
100
AcDbLine
 10
276.8925594226
 20
635.334307965
 30
0.0
 11
276.8925594226
 21
635.1491865088
 31
0.0
  0
LINE
  5
26E
330
85
100
AcDbEntity
  8
$DDT_AUDIT_GENERATED_(F2)
  6
Continuous
 62
     7
100
AcDbLine
 10
276.8925594226
 20
635.1491865088
 30
0.0
 11
275.8925594226
 21
635.1491865088
 31
0.0
  0
LINE
  5
26F
330
85
100
AcDbEntity
  8
$DDT_AUDIT_GENERATED_(F2)
  6
Continuous
 62
     7
100
AcDbLine
 10
275.8925594226
 20
635.1491865088
 30
0.0
 11
275.8925594226
 21
635.334307965
 31
0.0
  0
LINE
  5
270
330
85
100
AcDbEntity
  8
$DDT_AUDIT_GENERATED_(F2)
  6
Continuous
 62
     7
100
AcDbLine
 10
277.0925594226
 20
635.334307965
 30
0.0
 11
277.3817318105
 21
635.334307965
 31
0.0
  0
LINE
  5
271
330
85
100
AcDbEntity
  8
$DDT_AUDIT_GENERATED_(F2)
  6
Continuous
 62
     7
100
AcDbLine
 10
278.0925594226
 20
635.2915925619
 30
0.0
 11
278.0925594226
 21
635.1491865088
 31
0.0
  0
LINE
  5
272
330
85
100
AcDbEntity
  8
$DDT_AUDIT_GENERATED_(F2)
  6
Continuous
 62
     7
100
AcDbLine
 10
278.0925594226
 20
635.1491865088
 30
0.0
 11
277.0925594226
 21
635.1491865088
 31
0.0
  0
LINE
  5
273
330
85
100
AcDbEntity
  8
$DDT_AUDIT_GENERATED_(F2)
  6
Continuous
 62
     7
100
AcDbLine
 10
277.0925594226
 20
635.1491865088
 30
0.0
 11
277.0925594226
 21
635.334307965
 31
0.0
  0
LINE
  5
274
330
85
100
AcDbEntity
  8
$DDT_AUDIT_GENERATED_(F2)
  6
Continuous
 62
     7
100
AcDbLine
 10
279.2925594226
 20
635.1871066883
 30
0.0
 11
279.2925594226
 21
635.1491865088
 31
0.0
  0
LINE
  5
275
330
85
100
AcDbEntity
  8
$DDT_AUDIT_GENERATED_(F2)
  6
Continuous
 62
     7
100
AcDbLine
 10
279.2925594226
 20
635.1491865088
 30
0.0
 11
278.2925594226
 21
635.1491865088
 31
0.0
  0
LINE
  5
276
330
85
100
AcDbEntity
  8
$DDT_AUDIT_GENERATED_(F2)
  6
Continuous
 62
     7
100
AcDbLine
 10
278.2925594226
 20
635.1491865088
 30
0.0
 11
278.2925594226
 21
635.2771383483
 31
0.0
  0
LINE
  5
277
330
85
100
AcDbEntity
  8
$DDT_AUDIT_GENERATED_(F2)
  6
Continuous
 62
     7
100
AcDbLine
 10
279.63113657
 20
635.1491865088
 30
0.0
 11
279.4925594226
 21
635.1491865088
 31
0.0
  0
LINE
  5
278
330
85
100
AcDbEntity
  8
$DDT_AUDIT_GENERATED_(F2)
  6
Continuous
 62
     7
100
AcDbLine
 10
279.4925594226
 20
635.1491865088
 30
0.0
 11
279.4925594226
 21
635.1652047778
 31
0.0
  0
LINE
  5
279
330
85
100
AcDbEntity
  8
$DDT_AUDIT_GENERATED_(F2)
  6
Continuous
 62
     7
100
AcDbLine
 10
275.6925594226
 20
635.3862509854
 30
0.0
 11
275.6925594226
 21
635.3713322562
 31
0.0
  0
LINE
  5
27A
330
85
100
AcDbEntity
  8
$DDT_AUDIT_GENERATED_(F2)
  6
Continuous
 62
     7
100
AcDbLine
 10
276.4458660387
 20
635.3713322562
 30
0.0
 11
275.8925594226
 21
635.3713322562
 31
0.0
  0
LINE
  5
27B
330
85
100
AcDbEntity
  8
$DDT_AUDIT_GENERATED_(F2)
  6
Continuous
 62
     7
100
AcDbLine
 10
275.8925594226
 20
635.3713322562
 30
0.0
 11
275.8925594226
 21
635.3835509597
 31
0.0
  0
LINE
  5
27C
330
85
100
AcDbEntity
  8
$DDT_AUDIT_GENERATED_(F2)
  6
Continuous
 62
     7
100
AcDbLine
 10
282.0716106895
 20
634.704895014
 30
0.0
 11
281.8925594226
 21
634.704895014
 31
0.0
  0
LINE
  5
27D
330
85
100
AcDbEntity
  8
$DDT_AUDIT_GENERATED_(F2)
  6
Continuous
 62
     7
100
AcDbLine
 10
281.8925594226
 20
634.704895014
 30
0.0
 11
281.8925594226
 21
634.7529408113
 31
0.0
  0
LINE
  5
27E
330
85
100
AcDbEntity
  8
$DDT_AUDIT_GENERATED_(F2)
  6
Continuous
 62
     7
100
AcDbLine
 10
283.0925594226
 20
634.2606035191
 30
0.0
 11
283.0925594226
 21
634.3019324415
 31
0.0
  0
LINE
  5
27F
330
85
100
AcDbEntity
  8
$DDT_AUDIT_GENERATED_(F2)
  6
Continuous
 62
     7
100
AcDbLine
 10
275.6925594226
 20
634.2235792279
 30
0.0
 11
275.6925594226
 21
634.0384577717
 31
0.0
  0
LINE
  5
280
330
85
100
AcDbEntity
  8
$DDT_AUDIT_GENERATED_(F2)
  6
Continuous
 62
     7
100
AcDbLine
 10
275.6925594226
 20
634.0014334804
 30
0.0
 11
275.6925594226
 21
633.8163120243
 31
0.0
  0
LINE
  5
281
330
85
100
AcDbEntity
  8
$DDT_AUDIT_GENERATED_(F2)
  6
Continuous
 62
     7
100
AcDbLine
 10
275.6925594226
 20
633.779287733
 30
0.0
 11
275.6925594226
 21
633.5941662768
 31
0.0
  0
LINE
  5
282
330
85
100
AcDbEntity
  8
$DDT_AUDIT_GENERATED_(F2)
  6
Continuous
 62
     7
100
AcDbLine
 10
275.6925594226
 20
633.5571419856
 30
0.0
 11
275.6925594226
 21
633.3720205294
 31
0.0
  0
LINE
  5
283
330
85
100
AcDbEntity
  8
$DDT_AUDIT_GENERATED_(F2)
  6
Continuous
 62
     7
100
AcDbLine
 10
275.6925594226
 20
633.3349962382
 30
0.0
 11
275.6925594226
 21
633.149874782
 31
0.0
  0
LINE
  5
284
330
85
100
AcDbEntity
  8
$DDT_AUDIT_GENERATED_(F2)
  6
Continuous
 62
     7
100
AcDbLine
 10
275.6925594226
 20
633.1128504907
 30
0.0
 11
275.6925594226
 21
632.9277290345
 31
0.0
  0
LINE
  5
285
330
85
100
AcDbEntity
  8
$DDT_AUDIT_GENERATED_(F2)
  6
Continuous
 62
     7
100
AcDbLine
 10
276.8925594226
 20
634.2606035191
 30
0.0
 11
275.8925594226
 21
634.2606035191
 31
0.0
  0
LINE
  5
286
330
85
100
AcDbEntity
  8
$DDT_AUDIT_GENERATED_(F2)
  6
Continuous
 62
     7
100
AcDbLine
 10
276.8925594226
 20
634.2235792279
 30
0.0
 11
276.8925594226
 21
634.0384577717
 31
0.0
  0
LINE
  5
287
330
85
100
AcDbEntity
  8
$DDT_AUDIT_GENERATED_(F2)
  6
Continuous
 62
     7
100
AcDbLine
 10
276.8925594226
 20
634.0384577717
 30
0.0
 11
275.8925594226
 21
634.0384577717
 31
0.0
  0
LINE
  5
288
330
85
100
AcDbEntity
  8
$DDT_AUDIT_GENERATED_(F2)
  6
Continuous
 62
     7
100
AcDbLine
 10
275.8925594226
 20
634.0384577717
 30
0.0
 11
275.8925594226
 21
634.2235792279
 31
0.0
  0
LINE
  5
289
330
85
100
AcDbEntity
  8
$DDT_AUDIT_GENERATED_(F2)
  6
Continuous
 62
     7
100
AcDbLine
 10
275.8925594226
 20
634.2235792279
 30
0.0
 11
276.8925594226
 21
634.2235792279
 31
0.0
  0
LINE
  5
28A
330
85
100
AcDbEntity
  8
$DDT_AUDIT_GENERATED_(F2)
  6
Continuous
 62
     7
100
AcDbLine
 10
276.8925594226
 20
634.0014334804
 30
0.0
 11
276.8925594226
 21
633.8163120243
 31
0.0
  0
LINE
  5
28B
330
85
100
AcDbEntity
  8
$DDT_AUDIT_GENERATED_(F2)
  6
Continuous
 62
     7
100
AcDbLine
 10
276.8925594226
 20
633.8163120243
 30
0.0
 11
275.8925594226
 21
633.8163120243
 31
0.0
  0
LINE
  5
28C
330
85
100
AcDbEntity
  8
$DDT_AUDIT_GENERATED_(F2)
  6
Continuous
 62
     7
100
AcDbLine
 10
275.8925594226
 20
633.8163120243
 30
0.0
 11
275.8925594226
 21
634.0014334804
 31
0.0
  0
LINE
  5
28D
330
85
100
AcDbEntity
  8
$DDT_AUDIT_GENERATED_(F2)
  6
Continuous
 62
     7
100
AcDbLine
 10
275.8925594226
 20
634.0014334804
 30
0.0
 11
276.8925594226
 21
634.0014334804
 31
0.0
  0
LINE
  5
28E
330
85
100
AcDbEntity
  8
$DDT_AUDIT_GENERATED_(F2)
  6
Continuous
 62
     7
100
AcDbLine
 10
276.8925594226
 20
633.779287733
 30
0.0
 11
276.8925594226
 21
633.5941662768
 31
0.0
  0
LINE
  5
28F
330
85
100
AcDbEntity
  8
$DDT_AUDIT_GENERATED_(F2)
  6
Continuous
 62
     7
100
AcDbLine
 10
276.8925594226
 20
633.5941662768
 30
0.0
 11
275.8925594226
 21
633.5941662768
 31
0.0
  0
LINE
  5
290
330
85
100
AcDbEntity
  8
$DDT_AUDIT_GENERATED_(F2)
  6
Continuous
 62
     7
100
AcDbLine
 10
275.8925594226
 20
633.5941662768
 30
0.0
 11
275.8925594226
 21
633.779287733
 31
0.0
  0
LINE
  5
291
330
85
100
AcDbEntity
  8
$DDT_AUDIT_GENERATED_(F2)
  6
Continuous
 62
     7
100
AcDbLine
 10
275.8925594226
 20
633.779287733
 30
0.0
 11
276.8925594226
 21
633.779287733
 31
0.0
  0
LINE
  5
292
330
85
100
AcDbEntity
  8
$DDT_AUDIT_GENERATED_(F2)
  6
Continuous
 62
     7
100
AcDbLine
 10
276.8925594226
 20
633.5571419856
 30
0.0
 11
276.8925594226
 21
633.3720205294
 31
0.0
  0
LINE
  5
293
330
85
100
AcDbEntity
  8
$DDT_AUDIT_GENERATED_(F2)
  6
Continuous
 62
     7
100
AcDbLine
 10
276.8925594226
 20
633.3720205294
 30
0.0
 11
275.8925594226
 21
633.3720205294
 31
0.0
  0
LINE
  5
294
330
85
100
AcDbEntity
  8
$DDT_AUDIT_GENERATED_(F2)
  6
Continuous
 62
     7
100
AcDbLine
 10
275.8925594226
 20
633.3720205294
 30
0.0
 11
275.8925594226
 21
633.5571419856
 31
0.0
  0
LINE
  5
295
330
85
100
AcDbEntity
  8
$DDT_AUDIT_GENERATED_(F2)
  6
Continuous
 62
     7
100
AcDbLine
 10
275.8925594226
 20
633.5571419856
 30
0.0
 11
276.8925594226
 21
633.5571419856
 31
0.0
  0
LINE
  5
296
330
85
100
AcDbEntity
  8
$DDT_AUDIT_GENERATED_(F2)
  6
Continuous
 62
     7
100
AcDbLine
 10
276.8925594226
 20
633.3349962382
 30
0.0
 11
276.8925594226
 21
633.149874782
 31
0.0
  0
LINE
  5
297
330
85
100
AcDbEntity
  8
$DDT_AUDIT_GENERATED_(F2)
  6
Continuous
 62
     7
100
AcDbLine
 10
276.8925594226
 20
633.149874782
 30
0.0
 11
275.8925594226
 21
633.149874782
 31
0.0
  0
LINE
  5
298
330
85
100
AcDbEntity
  8
$DDT_AUDIT_GENERATED_(F2)
  6
Continuous
 62
     7
100
AcDbLine
 10
275.8925594226
 20
633.149874782
 30
0.0
 11
275.8925594226
 21
633.3349962382
 31
0.0
  0
LINE
  5
299
330
85
100
AcDbEntity
  8
$DDT_AUDIT_GENERATED_(F2)
  6
Continuous
 62
     7
100
AcDbLine
 10
275.8925594226
 20
633.3349962382
 30
0.0
 11
276.8925594226
 21
633.3349962382
 31
0.0
  0
LINE
  5
29A
330
85
100
AcDbEntity
  8
$DDT_AUDIT_GENERATED_(F2)
  6
Continuous
 62
     7
100
AcDbLine
 10
276.8925594226
 20
633.1128504907
 30
0.0
 11
276.8925594226
 21
632.9277290345
 31
0.0
  0
LINE
  5
29B
330
85
100
AcDbEntity
  8
$DDT_AUDIT_GENERATED_(F2)
  6
Continuous
 62
     7
100
AcDbLine
 10
276.8925594226
 20
632.9277290345
 30
0.0
 11
275.8925594226
 21
632.9277290345
 31
0.0
  0
LINE
  5
29C
330
85
100
AcDbEntity
  8
$DDT_AUDIT_GENERATED_(F2)
  6
Continuous
 62
     7
100
AcDbLine
 10
275.8925594226
 20
632.9277290345
 30
0.0
 11
275.8925594226
 21
633.1128504907
 31
0.0
  0
LINE
  5
29D
330
85
100
AcDbEntity
  8
$DDT_AUDIT_GENERATED_(F2)
  6
Continuous
 62
     7
100
AcDbLine
 10
275.8925594226
 20
633.1128504907
 30
0.0
 11
276.8925594226
 21
633.1128504907
 31
0.0
  0
LINE
  5
29E
330
85
100
AcDbEntity
  8
$DDT_AUDIT_GENERATED_(F2)
  6
Continuous
 62
     7
100
AcDbLine
 10
278.0925594226
 20
634.2606035191
 30
0.0
 11
277.0925594226
 21
634.2606035191
 31
0.0
  0
LINE
  5
29F
330
85
100
AcDbEntity
  8
$DDT_AUDIT_GENERATED_(F2)
  6
Continuous
 62
     7
100
AcDbLine
 10
278.0925594226
 20
634.2235792279
 30
0.0
 11
278.0925594226
 21
634.0384577717
 31
0.0
  0
LINE
  5
2A0
330
85
100
AcDbEntity
  8
$DDT_AUDIT_GENERATED_(F2)
  6
Continuous
 62
     7
100
AcDbLine
 10
278.0925594226
 20
634.0384577717
 30
0.0
 11
277.0925594226
 21
634.0384577717
 31
0.0
  0
LINE
  5
2A1
330
85
100
AcDbEntity
  8
$DDT_AUDIT_GENERATED_(F2)
  6
Continuous
 62
     7
100
AcDbLine
 10
277.0925594226
 20
634.0384577717
 30
0.0
 11
277.0925594226
 21
634.2235792279
 31
0.0
  0
LINE
  5
2A2
330
85
100
AcDbEntity
  8
$DDT_AUDIT_GENERATED_(F2)
  6
Continuous
 62
     7
100
AcDbLine
 10
277.0925594226
 20
634.2235792279
 30
0.0
 11
278.0925594226
 21
634.2235792279
 31
0.0
  0
LINE
  5
2A3
330
85
100
AcDbEntity
  8
$DDT_AUDIT_GENERATED_(F2)
  6
Continuous
 62
     7
100
AcDbLine
 10
278.0925594226
 20
634.0014334804
 30
0.0
 11
278.0925594226
 21
633.8163120243
 31
0.0
  0
LINE
  5
2A4
330
85
100
AcDbEntity
  8
$DDT_AUDIT_GENERATED_(F2)
  6
Continuous
 62
     7
100
AcDbLine
 10
278.0925594226
 20
633.8163120243
 30
0.0
 11
277.0925594226
 21
633.8163120243
 31
0.0
  0
LINE
  5
2A5
330
85
100
AcDbEntity
  8
$DDT_AUDIT_GENERATED_(F2)
  6
Continuous
 62
     7
100
AcDbLine
 10
277.0925594226
 20
633.8163120243
 30
0.0
 11
277.0925594226
 21
634.0014334804
 31
0.0
  0
LINE
  5
2A6
330
85
100
AcDbEntity
  8
$DDT_AUDIT_GENERATED_(F2)
  6
Continuous
 62
     7
100
AcDbLine
 10
277.0925594226
 20
634.0014334804
 30
0.0
 11
278.0925594226
 21
634.0014334804
 31
0.0
  0
LINE
  5
2A7
330
85
100
AcDbEntity
  8
$DDT_AUDIT_GENERATED_(F2)
  6
Continuous
 62
     7
100
AcDbLine
 10
278.0925594226
 20
633.779287733
 30
0.0
 11
278.0925594226
 21
633.5941662768
 31
0.0
  0
LINE
  5
2A8
330
85
100
AcDbEntity
  8
$DDT_AUDIT_GENERATED_(F2)
  6
Continuous
 62
     7
100
AcDbLine
 10
278.0925594226
 20
633.5941662768
 30
0.0
 11
277.0925594226
 21
633.5941662768
 31
0.0
  0
LINE
  5
2A9
330
85
100
AcDbEntity
  8
$DDT_AUDIT_GENERATED_(F2)
  6
Continuous
 62
     7
100
AcDbLine
 10
277.0925594226
 20
633.5941662768
 30
0.0
 11
277.0925594226
 21
633.779287733
 31
0.0
  0
LINE
  5
2AA
330
85
100
AcDbEntity
  8
$DDT_AUDIT_GENERATED_(F2)
  6
Continuous
 62
     7
100
AcDbLine
 10
277.0925594226
 20
633.779287733
 30
0.0
 11
278.0925594226
 21
633.779287733
 31
0.0
  0
LINE
  5
2AB
330
85
100
AcDbEntity
  8
$DDT_AUDIT_GENERATED_(F2)
  6
Continuous
 62
     7
100
AcDbLine
 10
278.0925594226
 20
633.5571419856
 30
0.0
 11
278.0925594226
 21
633.3720205294
 31
0.0
  0
LINE
  5
2AC
330
85
100
AcDbEntity
  8
$DDT_AUDIT_GENERATED_(F2)
  6
Continuous
 62
     7
100
AcDbLine
 10
278.0925594226
 20
633.3720205294
 30
0.0
 11
277.0925594226
 21
633.3720205294
 31
0.0
  0
LINE
  5
2AD
330
85
100
AcDbEntity
  8
$DDT_AUDIT_GENERATED_(F2)
  6
Continuous
 62
     7
100
AcDbLine
 10
277.0925594226
 20
633.3720205294
 30
0.0
 11
277.0925594226
 21
633.5571419856
 31
0.0
  0
LINE
  5
2AE
330
85
100
AcDbEntity
  8
$DDT_AUDIT_GENERATED_(F2)
  6
Continuous
 62
     7
100
AcDbLine
 10
277.0925594226
 20
633.5571419856
 30
0.0
 11
278.0925594226
 21
633.5571419856
 31
0.0
  0
LINE
  5
2AF
330
85
100
AcDbEntity
  8
$DDT_AUDIT_GENERATED_(F2)
  6
Continuous
 62
     7
100
AcDbLine
 10
278.0925594226
 20
633.3349962382
 30
0.0
 11
278.0925594226
 21
633.149874782
 31
0.0
  0
LINE
  5
2B0
330
85
100
AcDbEntity
  8
$DDT_AUDIT_GENERATED_(F2)
  6
Continuous
 62
     7
100
AcDbLine
 10
278.0925594226
 20
633.149874782
 30
0.0
 11
277.0925594226
 21
633.149874782
 31
0.0
  0
LINE
  5
2B1
330
85
100
AcDbEntity
  8
$DDT_AUDIT_GENERATED_(F2)
  6
Continuous
 62
     7
100
AcDbLine
 10
277.0925594226
 20
633.149874782
 30
0.0
 11
277.0925594226
 21
633.3349962382
 31
0.0
  0
LINE
  5
2B2
330
85
100
AcDbEntity
  8
$DDT_AUDIT_GENERATED_(F2)
  6
Continuous
 62
     7
100
AcDbLine
 10
277.0925594226
 20
633.3349962382
 30
0.0
 11
278.0925594226
 21
633.3349962382
 31
0.0
  0
LINE
  5
2B3
330
85
100
AcDbEntity
  8
$DDT_AUDIT_GENERATED_(F2)
  6
Continuous
 62
     7
100
AcDbLine
 10
279.2925594226
 20
634.2606035191
 30
0.0
 11
278.2925594226
 21
634.2606035191
 31
0.0
  0
LINE
  5
2B4
330
85
100
AcDbEntity
  8
$DDT_AUDIT_GENERATED_(F2)
  6
Continuous
 62
     7
100
AcDbLine
 10
279.2925594226
 20
634.2235792279
 30
0.0
 11
279.2925594226
 21
634.0384577717
 31
0.0
  0
LINE
  5
2B5
330
85
100
AcDbEntity
  8
$DDT_AUDIT_GENERATED_(F2)
  6
Continuous
 62
     7
100
AcDbLine
 10
279.2925594226
 20
634.0384577717
 30
0.0
 11
278.2925594226
 21
634.0384577717
 31
0.0
  0
LINE
  5
2B6
330
85
100
AcDbEntity
  8
$DDT_AUDIT_GENERATED_(F2)
  6
Continuous
 62
     7
100
AcDbLine
 10
278.2925594226
 20
634.0384577717
 30
0.0
 11
278.2925594226
 21
634.2235792279
 31
0.0
  0
LINE
  5
2B7
330
85
100
AcDbEntity
  8
$DDT_AUDIT_GENERATED_(F2)
  6
Continuous
 62
     7
100
AcDbLine
 10
278.2925594226
 20
634.2235792279
 30
0.0
 11
279.2925594226
 21
634.2235792279
 31
0.0
  0
LINE
  5
2B8
330
85
100
AcDbEntity
  8
$DDT_AUDIT_GENERATED_(F2)
  6
Continuous
 62
     7
100
AcDbLine
 10
279.2925594226
 20
634.0014334804
 30
0.0
 11
279.2925594226
 21
633.8163120243
 31
0.0
  0
LINE
  5
2B9
330
85
100
AcDbEntity
  8
$DDT_AUDIT_GENERATED_(F2)
  6
Continuous
 62
     7
100
AcDbLine
 10
279.2925594226
 20
633.8163120243
 30
0.0
 11
278.2925594226
 21
633.8163120243
 31
0.0
  0
LINE
  5
2BA
330
85
100
AcDbEntity
  8
$DDT_AUDIT_GENERATED_(F2)
  6
Continuous
 62
     7
100
AcDbLine
 10
278.2925594226
 20
633.8163120243
 30
0.0
 11
278.2925594226
 21
634.0014334804
 31
0.0
  0
LINE
  5
2BB
330
85
100
AcDbEntity
  8
$DDT_AUDIT_GENERATED_(F2)
  6
Continuous
 62
     7
100
AcDbLine
 10
278.2925594226
 20
634.0014334804
 30
0.0
 11
279.2925594226
 21
634.0014334804
 31
0.0
  0
LINE
  5
2BC
330
85
100
AcDbEntity
  8
$DDT_AUDIT_GENERATED_(F2)
  6
Continuous
 62
     7
100
AcDbLine
 10
279.2925594226
 20
633.779287733
 30
0.0
 11
279.2925594226
 21
633.5941662768
 31
0.0
  0
LINE
  5
2BD
330
85
100
AcDbEntity
  8
$DDT_AUDIT_GENERATED_(F2)
  6
Continuous
 62
     7
100
AcDbLine
 10
279.2925594226
 20
633.5941662768
 30
0.0
 11
278.2925594226
 21
633.5941662768
 31
0.0
  0
LINE
  5
2BE
330
85
100
AcDbEntity
  8
$DDT_AUDIT_GENERATED_(F2)
  6
Continuous
 62
     7
100
AcDbLine
 10
278.2925594226
 20
633.5941662768
 30
0.0
 11
278.2925594226
 21
633.779287733
 31
0.0
  0
LINE
  5
2BF
330
85
100
AcDbEntity
  8
$DDT_AUDIT_GENERATED_(F2)
  6
Continuous
 62
     7
100
AcDbLine
 10
278.2925594226
 20
633.779287733
 30
0.0
 11
279.2925594226
 21
633.779287733
 31
0.0
  0
LINE
  5
2C0
330
85
100
AcDbEntity
  8
$DDT_AUDIT_GENERATED_(F2)
  6
Continuous
 62
     7
100
AcDbLine
 10
279.2925594226
 20
633.5571419856
 30
0.0
 11
279.2925594226
 21
633.3720205294
 31
0.0
  0
LINE
  5
2C1
330
85
100
AcDbEntity
  8
$DDT_AUDIT_GENERATED_(F2)
  6
Continuous
 62
     7
100
AcDbLine
 10
279.2925594226
 20
633.3720205294
 30
0.0
 11
278.2925594226
 21
633.3720205294
 31
0.0
  0
LINE
  5
2C2
330
85
100
AcDbEntity
  8
$DDT_AUDIT_GENERATED_(F2)
  6
Continuous
 62
     7
100
AcDbLine
 10
278.2925594226
 20
633.3720205294
 30
0.0
 11
278.2925594226
 21
633.5571419856
 31
0.0
  0
LINE
  5
2C3
330
85
100
AcDbEntity
  8
$DDT_AUDIT_GENERATED_(F2)
  6
Continuous
 62
     7
100
AcDbLine
 10
278.2925594226
 20
633.5571419856
 30
0.0
 11
279.2925594226
 21
633.5571419856
 31
0.0
  0
LINE
  5
2C4
330
85
100
AcDbEntity
  8
$DDT_AUDIT_GENERATED_(F2)
  6
Continuous
 62
     7
100
AcDbLine
 10
279.2925594226
 20
633.149874782
 30
0.0
 11
278.2925594226
 21
633.149874782
 31
0.0
  0
LINE
  5
2C5
330
85
100
AcDbEntity
  8
$DDT_AUDIT_GENERATED_(F2)
  6
Continuous
 62
     7
100
AcDbLine
 10
279.2925594226
 20
633.3349962382
 30
0.0
 11
279.2925594226
 21
633.149874782
 31
0.0
  0
LINE
  5
2C6
330
85
100
AcDbEntity
  8
$DDT_AUDIT_GENERATED_(F2)
  6
Continuous
 62
     7
100
AcDbLine
 10
278.2925594226
 20
633.149874782
 30
0.0
 11
278.2925594226
 21
633.3349962382
 31
0.0
  0
LINE
  5
2C7
330
85
100
AcDbEntity
  8
$DDT_AUDIT_GENERATED_(F2)
  6
Continuous
 62
     7
100
AcDbLine
 10
278.2925594226
 20
633.3349962382
 30
0.0
 11
279.2925594226
 21
633.3349962382
 31
0.0
  0
LINE
  5
2C8
330
85
100
AcDbEntity
  8
$DDT_AUDIT_GENERATED_(F2)
  6
Continuous
 62
     7
100
AcDbLine
 10
280.4925594226
 20
634.2606035191
 30
0.0
 11
279.4925594226
 21
634.2606035191
 31
0.0
  0
LINE
  5
2C9
330
85
100
AcDbEntity
  8
$DDT_AUDIT_GENERATED_(F2)
  6
Continuous
 62
     7
100
AcDbLine
 10
280.4925594226
 20
634.2235792279
 30
0.0
 11
280.4925594226
 21
634.0384577717
 31
0.0
  0
LINE
  5
2CA
330
85
100
AcDbEntity
  8
$DDT_AUDIT_GENERATED_(F2)
  6
Continuous
 62
     7
100
AcDbLine
 10
280.4925594226
 20
634.0384577717
 30
0.0
 11
279.4925594226
 21
634.0384577717
 31
0.0
  0
LINE
  5
2CB
330
85
100
AcDbEntity
  8
$DDT_AUDIT_GENERATED_(F2)
  6
Continuous
 62
     7
100
AcDbLine
 10
279.4925594226
 20
634.0384577717
 30
0.0
 11
279.4925594226
 21
634.2235792279
 31
0.0
  0
LINE
  5
2CC
330
85
100
AcDbEntity
  8
$DDT_AUDIT_GENERATED_(F2)
  6
Continuous
 62
     7
100
AcDbLine
 10
279.4925594226
 20
634.2235792279
 30
0.0
 11
280.4925594226
 21
634.2235792279
 31
0.0
  0
LINE
  5
2CD
330
85
100
AcDbEntity
  8
$DDT_AUDIT_GENERATED_(F2)
  6
Continuous
 62
     7
100
AcDbLine
 10
280.4925594226
 20
634.0014334804
 30
0.0
 11
280.4925594226
 21
633.8163120243
 31
0.0
  0
LINE
  5
2CE
330
85
100
AcDbEntity
  8
$DDT_AUDIT_GENERATED_(F2)
  6
Continuous
 62
     7
100
AcDbLine
 10
280.4925594226
 20
633.8163120243
 30
0.0
 11
279.4925594226
 21
633.8163120243
 31
0.0
  0
LINE
  5
2CF
330
85
100
AcDbEntity
  8
$DDT_AUDIT_GENERATED_(F2)
  6
Continuous
 62
     7
100
AcDbLine
 10
279.4925594226
 20
633.8163120243
 30
0.0
 11
279.4925594226
 21
634.0014334804
 31
0.0
  0
LINE
  5
2D0
330
85
100
AcDbEntity
  8
$DDT_AUDIT_GENERATED_(F2)
  6
Continuous
 62
     7
100
AcDbLine
 10
279.4925594226
 20
634.0014334804
 30
0.0
 11
280.4925594226
 21
634.0014334804
 31
0.0
  0
LINE
  5
2D1
330
85
100
AcDbEntity
  8
$DDT_AUDIT_GENERATED_(F2)
  6
Continuous
 62
     7
100
AcDbLine
 10
280.4925594226
 20
633.779287733
 30
0.0
 11
280.4925594226
 21
633.5941662768
 31
0.0
  0
LINE
  5
2D2
330
85
100
AcDbEntity
  8
$DDT_AUDIT_GENERATED_(F2)
  6
Continuous
 62
     7
100
AcDbLine
 10
280.4925594226
 20
633.5941662768
 30
0.0
 11
279.4925594226
 21
633.5941662768
 31
0.0
  0
LINE
  5
2D3
330
85
100
AcDbEntity
  8
$DDT_AUDIT_GENERATED_(F2)
  6
Continuous
 62
     7
100
AcDbLine
 10
279.4925594226
 20
633.5941662768
 30
0.0
 11
279.4925594226
 21
633.779287733
 31
0.0
  0
LINE
  5
2D4
330
85
100
AcDbEntity
  8
$DDT_AUDIT_GENERATED_(F2)
  6
Continuous
 62
     7
100
AcDbLine
 10
279.4925594226
 20
633.779287733
 30
0.0
 11
280.4925594226
 21
633.779287733
 31
0.0
  0
LINE
  5
2D5
330
85
100
AcDbEntity
  8
$DDT_AUDIT_GENERATED_(F2)
  6
Continuous
 62
     7
100
AcDbLine
 10
280.4925594226
 20
633.5571419856
 30
0.0
 11
280.4925594226
 21
633.3720205294
 31
0.0
  0
LINE
  5
2D6
330
85
100
AcDbEntity
  8
$DDT_AUDIT_GENERATED_(F2)
  6
Continuous
 62
     7
100
AcDbLine
 10
280.4925594226
 20
633.3720205294
 30
0.0
 11
279.4925594226
 21
633.3720205294
 31
0.0
  0
LINE
  5
2D7
330
85
100
AcDbEntity
  8
$DDT_AUDIT_GENERATED_(F2)
  6
Continuous
 62
     7
100
AcDbLine
 10
279.4925594226
 20
633.3720205294
 30
0.0
 11
279.4925594226
 21
633.5571419856
 31
0.0
  0
LINE
  5
2D8
330
85
100
AcDbEntity
  8
$DDT_AUDIT_GENERATED_(F2)
  6
Continuous
 62
     7
100
AcDbLine
 10
279.4925594226
 20
633.5571419856
 30
0.0
 11
280.4925594226
 21
633.5571419856
 31
0.0
  0
LINE
  5
2D9
330
85
100
AcDbEntity
  8
$DDT_AUDIT_GENERATED_(F2)
  6
Continuous
 62
     7
100
AcDbLine
 10
281.6925594226
 20
634.2606035191
 30
0.0
 11
280.6925594226
 21
634.2606035191
 31
0.0
  0
LINE
  5
2DA
330
85
100
AcDbEntity
  8
$DDT_AUDIT_GENERATED_(F2)
  6
Continuous
 62
     7
100
AcDbLine
 10
281.6925594226
 20
634.2235792279
 30
0.0
 11
281.6925594226
 21
634.0384577717
 31
0.0
  0
LINE
  5
2DB
330
85
100
AcDbEntity
  8
$DDT_AUDIT_GENERATED_(F2)
  6
Continuous
 62
     7
100
AcDbLine
 10
281.6925594226
 20
634.0384577717
 30
0.0
 11
280.6925594226
 21
634.0384577717
 31
0.0
  0
LINE
  5
2DC
330
85
100
AcDbEntity
  8
$DDT_AUDIT_GENERATED_(F2)
  6
Continuous
 62
     7
100
AcDbLine
 10
280.6925594226
 20
634.0384577717
 30
0.0
 11
280.6925594226
 21
634.2235792279
 31
0.0
  0
LINE
  5
2DD
330
85
100
AcDbEntity
  8
$DDT_AUDIT_GENERATED_(F2)
  6
Continuous
 62
     7
100
AcDbLine
 10
280.6925594226
 20
634.2235792279
 30
0.0
 11
281.6925594226
 21
634.2235792279
 31
0.0
  0
LINE
  5
2DE
330
85
100
AcDbEntity
  8
$DDT_AUDIT_GENERATED_(F2)
  6
Continuous
 62
     7
100
AcDbLine
 10
281.6925594226
 20
634.0014334804
 30
0.0
 11
281.6925594226
 21
633.8163120243
 31
0.0
  0
LINE
  5
2DF
330
85
100
AcDbEntity
  8
$DDT_AUDIT_GENERATED_(F2)
  6
Continuous
 62
     7
100
AcDbLine
 10
281.6925594226
 20
633.8163120243
 30
0.0
 11
280.6925594226
 21
633.8163120243
 31
0.0
  0
LINE
  5
2E0
330
85
100
AcDbEntity
  8
$DDT_AUDIT_GENERATED_(F2)
  6
Continuous
 62
     7
100
AcDbLine
 10
280.6925594226
 20
633.8163120243
 30
0.0
 11
280.6925594226
 21
634.0014334804
 31
0.0
  0
LINE
  5
2E1
330
85
100
AcDbEntity
  8
$DDT_AUDIT_GENERATED_(F2)
  6
Continuous
 62
     7
100
AcDbLine
 10
280.6925594226
 20
634.0014334804
 30
0.0
 11
281.6925594226
 21
634.0014334804
 31
0.0
  0
LINE
  5
2E2
330
85
100
AcDbEntity
  8
$DDT_AUDIT_GENERATED_(F2)
  6
Continuous
 62
     7
100
AcDbLine
 10
281.6925594226
 20
633.779287733
 30
0.0
 11
281.6925594226
 21
633.5941662768
 31
0.0
  0
LINE
  5
2E3
330
85
100
AcDbEntity
  8
$DDT_AUDIT_GENERATED_(F2)
  6
Continuous
 62
     7
100
AcDbLine
 10
281.6925594226
 20
633.5941662768
 30
0.0
 11
280.6925594226
 21
633.5941662768
 31
0.0
  0
LINE
  5
2E4
330
85
100
AcDbEntity
  8
$DDT_AUDIT_GENERATED_(F2)
  6
Continuous
 62
     7
100
AcDbLine
 10
280.6925594226
 20
633.5941662768
 30
0.0
 11
280.6925594226
 21
633.779287733
 31
0.0
  0
LINE
  5
2E5
330
85
100
AcDbEntity
  8
$DDT_AUDIT_GENERATED_(F2)
  6
Continuous
 62
     7
100
AcDbLine
 10
280.6925594226
 20
633.779287733
 30
0.0
 11
281.6925594226
 21
633.779287733
 31
0.0
  0
LINE
  5
2E6
330
85
100
AcDbEntity
  8
$DDT_AUDIT_GENERATED_(F2)
  6
Continuous
 62
     7
100
AcDbLine
 10
282.8925594226
 20
634.2606035191
 30
0.0
 11
281.8925594226
 21
634.2606035191
 31
0.0
  0
LINE
  5
2E7
330
85
100
AcDbEntity
  8
$DDT_AUDIT_GENERATED_(F2)
  6
Continuous
 62
     7
100
AcDbLine
 10
282.8925594226
 20
634.2235792279
 30
0.0
 11
282.8925594226
 21
634.0384577717
 31
0.0
  0
LINE
  5
2E8
330
85
100
AcDbEntity
  8
$DDT_AUDIT_GENERATED_(F2)
  6
Continuous
 62
     7
100
AcDbLine
 10
282.8925594226
 20
634.0384577717
 30
0.0
 11
281.8925594226
 21
634.0384577717
 31
0.0
  0
LINE
  5
2E9
330
85
100
AcDbEntity
  8
$DDT_AUDIT_GENERATED_(F2)
  6
Continuous
 62
     7
100
AcDbLine
 10
281.8925594226
 20
634.0384577717
 30
0.0
 11
281.8925594226
 21
634.2235792279
 31
0.0
  0
LINE
  5
2EA
330
85
100
AcDbEntity
  8
$DDT_AUDIT_GENERATED_(F2)
  6
Continuous
 62
     7
100
AcDbLine
 10
281.8925594226
 20
634.2235792279
 30
0.0
 11
282.8925594226
 21
634.2235792279
 31
0.0
  0
LINE
  5
2EB
330
85
100
AcDbEntity
  8
$DDT_AUDIT_GENERATED_(F2)
  6
Continuous
 62
     7
100
AcDbLine
 10
282.8925594226
 20
634.0014334804
 30
0.0
 11
282.8925594226
 21
633.8163120243
 31
0.0
  0
LINE
  5
2EC
330
85
100
AcDbEntity
  8
$DDT_AUDIT_GENERATED_(F2)
  6
Continuous
 62
     7
100
AcDbLine
 10
282.8925594226
 20
633.8163120243
 30
0.0
 11
281.8925594226
 21
633.8163120243
 31
0.0
  0
LINE
  5
2ED
330
85
100
AcDbEntity
  8
$DDT_AUDIT_GENERATED_(F2)
  6
Continuous
 62
     7
100
AcDbLine
 10
281.8925594226
 20
633.8163120243
 30
0.0
 11
281.8925594226
 21
634.0014334804
 31
0.0
  0
LINE
  5
2EE
330
85
100
AcDbEntity
  8
$DDT_AUDIT_GENERATED_(F2)
  6
Continuous
 62
     7
100
AcDbLine
 10
281.8925594226
 20
634.0014334804
 30
0.0
 11
282.8925594226
 21
634.0014334804
 31
0.0
  0
LINE
  5
2EF
330
85
100
AcDbEntity
  8
$DDT_AUDIT_GENERATED_(F2)
  6
Continuous
 62
     7
100
AcDbLine
 10
283.156335259
 20
634.2606035191
 30
0.0
 11
283.0925594226
 21
634.2606035191
 31
0.0
  0
LINE
  5
2F0
330
85
100
AcDbEntity
  8
$DDT_AUDIT_GENERATED_(F2)
  6
Continuous
 62
     7
100
AcDbLine
 10
283.2655080785
 20
634.0384577717
 30
0.0
 11
283.2655080785
 21
634.1765128983
 31
0.0
  0
LINE
  5
2F1
330
85
100
AcDbEntity
  8
$DDT_AUDIT_GENERATED_(F2)
  6
Continuous
 62
     7
100
AcDbLine
 10
283.2655080785
 20
634.0384577717
 30
0.0
 11
283.0925594226
 21
634.0384577717
 31
0.0
  0
LINE
  5
2F2
330
85
100
AcDbEntity
  8
$DDT_AUDIT_GENERATED_(F2)
  6
Continuous
 62
     7
100
AcDbLine
 10
283.0925594226
 20
634.0384577717
 30
0.0
 11
283.0925594226
 21
634.2235792279
 31
0.0
  0
LINE
  5
2F3
330
85
100
AcDbEntity
  8
$DDT_AUDIT_GENERATED_(F2)
  6
Continuous
 62
     7
100
AcDbLine
 10
283.0925594226
 20
634.2235792279
 30
0.0
 11
283.2077589736
 21
634.2235792279
 31
0.0
  0
ELLIPSE
  5
2F4
330
85
100
AcDbEntity
  8
$DDT_AUDIT_GENERATED_(F2)
  6
Continuous
 62
     7
100
AcDbEllipse
 10
275.1925591159
 20
634.3531642599
 30
0.0
 11
8.250000306747593
 21
-1.284761186326477E-8
 31
0.0
210
0.0
220
0.0
230
1.0
 40
0.185121453
 41
-0.2323890678996374
 42
-0.2075474463743889
  0
LINE
  5
2F5
330
85
100
AcDbEntity
  8
$DDT_AUDIT_GENERATED_(F2)
  6
Continuous
 62
     7
100
AcDbLine
 10
283.0925594226
 20
633.9130382284
 30
0.0
 11
283.0925594226
 21
634.0014334804
 31
0.0
  0
LINE
  5
2F6
330
85
100
AcDbEntity
  8
$DDT_AUDIT_GENERATED_(F2)
  6
Continuous
 62
     7
100
AcDbLine
 10
283.0925594226
 20
634.0014334804
 30
0.0
 11
283.2207908592
 21
634.0014334804
 31
0.0
  0
ELLIPSE
  5
2F7
330
85
100
AcDbEntity
  8
$DDT_AUDIT_GENERATED_(F2)
  6
Continuous
 62
     7
100
AcDbEllipse
 10
275.1925594227
 20
634.3531642472
 30
0.0
 11
8.249999999886571
 21
1.096345236817342E-11
 31
0.0
210
0.0
220
0.0
230
1.0
 40
0.1851214562
 41
-0.3852141216650731
 42
-0.292327393155678
  0
LINE
  5
2F8
330
85
100
AcDbEntity
  8
$DDT_AUDIT_GENERATED_(F2)
  6
Continuous
 62
     7
100
AcDbLine
 10
282.3516445597
 20
633.5941662768
 30
0.0
 11
282.3516445597
 21
633.779287733
 31
0.0
  0
LINE
  5
2F9
330
85
100
AcDbEntity
  8
$DDT_AUDIT_GENERATED_(F2)
  6
Continuous
 62
     7
100
AcDbLine
 10
282.3516445597
 20
633.5941662768
 30
0.0
 11
281.8925594226
 21
633.5941662768
 31
0.0
  0
LINE
  5
2FA
330
85
100
AcDbEntity
  8
$DDT_AUDIT_GENERATED_(F2)
  6
Continuous
 62
     7
100
AcDbLine
 10
281.8925594226
 20
633.5941662768
 30
0.0
 11
281.8925594226
 21
633.779287733
 31
0.0
  0
LINE
  5
2FB
330
85
100
AcDbEntity
  8
$DDT_AUDIT_GENERATED_(F2)
  6
Continuous
 62
     7
100
AcDbLine
 10
281.8925594226
 20
633.779287733
 30
0.0
 11
282.8379828903
 21
633.779287733
 31
0.0
  0
ELLIPSE
  5
2FC
330
85
100
AcDbEntity
  8
$DDT_AUDIT_GENERATED_(F2)
  6
Continuous
 62
     7
100
AcDbEllipse
 10
275.1925594313
 20
634.353164246
 30
0.0
 11
8.249999991090592
 21
1.026206897236648E-9
 31
0.0
210
0.0
220
0.0
230
1.0
 40
0.1851214562
 41
-0.6634394345891765
 42
-0.623017960148311
  0
LINE
  5
2FD
330
85
100
AcDbEntity
  8
$DDT_AUDIT_GENERATED_(F2)
  6
Continuous
 62
     7
100
AcDbLine
 10
281.5149403032
 20
633.3720205294
 30
0.0
 11
281.5149403032
 21
633.5571419856
 31
0.0
  0
LINE
  5
2FE
330
85
100
AcDbEntity
  8
$DDT_AUDIT_GENERATED_(F2)
  6
Continuous
 62
     7
100
AcDbLine
 10
281.5149403032
 20
633.3720205294
 30
0.0
 11
280.6925594226
 21
633.3720205294
 31
0.0
  0
LINE
  5
2FF
330
85
100
AcDbEntity
  8
$DDT_AUDIT_GENERATED_(F2)
  6
Continuous
 62
     7
100
AcDbLine
 10
280.6925594226
 20
633.3720205294
 30
0.0
 11
280.6925594226
 21
633.5571419856
 31
0.0
  0
LINE
  5
300
330
85
100
AcDbEntity
  8
$DDT_AUDIT_GENERATED_(F2)
  6
Continuous
 62
     7
100
AcDbLine
 10
280.6925594226
 20
633.5571419856
 30
0.0
 11
281.6925594226
 21
633.5571419856
 31
0.0
  0
LINE
  5
301
330
85
100
AcDbEntity
  8
$DDT_AUDIT_GENERATED_(F2)
  6
Continuous
 62
     7
100
AcDbLine
 10
281.6925594226
 20
633.5571419856
 30
0.0
 11
281.6925594226
 21
633.4126361106
 31
0.0
  0
ELLIPSE
  5
302
330
85
100
AcDbEntity
  8
$DDT_AUDIT_GENERATED_(F2)
  6
Continuous
 62
     7
100
AcDbEllipse
 10
275.19255927
 20
634.3531642639
 30
0.0
 11
8.250000154373508
 21
-1.487773793051872E-8
 31
0.0
210
0.0
220
0.0
230
1.0
 40
0.1851214552
 41
-0.5482706288887114
 42
-0.5201031983726114
  0
LINE
  5
303
330
85
100
AcDbEntity
  8
$DDT_AUDIT_GENERATED_(F2)
  6
Continuous
 62
     7
100
AcDbLine
 10
281.8925594226
 20
633.4620298587
 30
0.0
 11
281.8925594226
 21
633.5571419856
 31
0.0
  0
LINE
  5
304
330
85
100
AcDbEntity
  8
$DDT_AUDIT_GENERATED_(F2)
  6
Continuous
 62
     7
100
AcDbLine
 10
281.8925594226
 20
633.5571419856
 30
0.0
 11
282.2333335278
 21
633.5571419856
 31
0.0
  0
ELLIPSE
  5
305
330
85
100
AcDbEntity
  8
$DDT_AUDIT_GENERATED_(F2)
  6
Continuous
 62
     7
100
AcDbEllipse
 10
275.1925594469
 20
634.353164242
 30
0.0
 11
8.2499999734897
 21
3.543332294242418E-9
 31
0.0
210
0.0
220
0.0
230
1.0
 40
0.1851214561
 41
-0.8731388751571512
 42
-0.8410686717265614
  0
LINE
  5
306
330
85
100
AcDbEntity
  8
$DDT_AUDIT_GENERATED_(F2)
  6
Continuous
 62
     7
100
AcDbLine
 10
280.2731597808
 20
633.149874782
 30
0.0
 11
280.2731597808
 21
633.3349962382
 31
0.0
  0
LINE
  5
307
330
85
100
AcDbEntity
  8
$DDT_AUDIT_GENERATED_(F2)
  6
Continuous
 62
     7
100
AcDbLine
 10
280.2731597808
 20
633.149874782
 30
0.0
 11
279.4925594226
 21
633.149874782
 31
0.0
  0
LINE
  5
308
330
85
100
AcDbEntity
  8
$DDT_AUDIT_GENERATED_(F2)
  6
Continuous
 62
     7
100
AcDbLine
 10
279.4925594226
 20
633.149874782
 30
0.0
 11
279.4925594226
 21
633.3349962382
 31
0.0
  0
LINE
  5
309
330
85
100
AcDbEntity
  8
$DDT_AUDIT_GENERATED_(F2)
  6
Continuous
 62
     7
100
AcDbLine
 10
279.4925594226
 20
633.3349962382
 30
0.0
 11
280.4925594226
 21
633.3349962382
 31
0.0
  0
LINE
  5
30A
330
85
100
AcDbEntity
  8
$DDT_AUDIT_GENERATED_(F2)
  6
Continuous
 62
     7
100
AcDbLine
 10
280.4925594226
 20
633.3349962382
 30
0.0
 11
280.4925594226
 21
633.182755892
 31
0.0
  0
ELLIPSE
  5
30B
330
85
100
AcDbEntity
  8
$DDT_AUDIT_GENERATED_(F2)
  6
Continuous
 62
     7
100
AcDbEllipse
 10
275.1925593106
 20
634.3531642652
 30
0.0
 11
8.250000116411693
 21
-1.410560557246754E-8
 31
0.0
210
0.0
220
0.0
230
1.0
 40
0.185121456
 41
-0.7297276513231985
 42
-0.697657448252686
  0
LINE
  5
30C
330
85
100
AcDbEntity
  8
$DDT_AUDIT_GENERATED_(F2)
  6
Continuous
 62
     7
100
AcDbLine
 10
280.6925594226
 20
633.2148178068
 30
0.0
 11
280.6925594226
 21
633.3349962382
 31
0.0
  0
LINE
  5
30D
330
85
100
AcDbEntity
  8
$DDT_AUDIT_GENERATED_(F2)
  6
Continuous
 62
     7
100
AcDbLine
 10
280.6925594226
 20
633.3349962382
 30
0.0
 11
281.3417463607
 21
633.3349962382
 31
0.0
  0
LINE
  5
30E
330
85
100
AcDbEntity
  8
$DDT_AUDIT_GENERATED_(F2)
  6
Continuous
 62
     7
100
AcDbLine
 10
278.0925594226
 20
633.1128504907
 30
0.0
 11
278.0925594226
 21
632.9277290345
 31
0.0
  0
LINE
  5
30F
330
85
100
AcDbEntity
  8
$DDT_AUDIT_GENERATED_(F2)
  6
Continuous
 62
     7
100
AcDbLine
 10
278.0925594226
 20
632.9277290345
 30
0.0
 11
277.0925594226
 21
632.9277290345
 31
0.0
  0
LINE
  5
310
330
85
100
AcDbEntity
  8
$DDT_AUDIT_GENERATED_(F2)
  6
Continuous
 62
     7
100
AcDbLine
 10
277.0925594226
 20
632.9277290345
 30
0.0
 11
277.0925594226
 21
633.1128504907
 31
0.0
  0
LINE
  5
311
330
85
100
AcDbEntity
  8
$DDT_AUDIT_GENERATED_(F2)
  6
Continuous
 62
     7
100
AcDbLine
 10
277.0925594226
 20
633.1128504907
 30
0.0
 11
278.0925594226
 21
633.1128504907
 31
0.0
  0
ELLIPSE
  5
312
330
85
100
AcDbEntity
  8
$DDT_AUDIT_GENERATED_(F2)
  6
Continuous
 62
     7
100
AcDbEllipse
 10
275.1925593323
 20
634.3531642756
 30
0.0
 11
8.250000111760233
 21
-1.493993817547334E-8
 31
0.0
210
0.0
220
0.0
230
1.0
 40
0.1851214572
 41
-1.05069311833805
 42
-1.022525687822285
  0
LINE
  5
313
330
85
100
AcDbEntity
  8
$DDT_AUDIT_GENERATED_(F2)
  6
Continuous
 62
     7
100
AcDbLine
 10
278.2925594226
 20
632.9378323217
 30
0.0
 11
278.2925594226
 21
633.1128504907
 31
0.0
  0
LINE
  5
314
330
85
100
AcDbEntity
  8
$DDT_AUDIT_GENERATED_(F2)
  6
Continuous
 62
     7
100
AcDbLine
 10
278.2925594226
 20
633.1128504907
 30
0.0
 11
279.2925594226
 21
633.1128504907
 31
0.0
  0
LINE
  5
315
330
85
100
AcDbEntity
  8
$DDT_AUDIT_GENERATED_(F2)
  6
Continuous
 62
     7
100
AcDbLine
 10
279.2925594226
 20
633.1128504907
 30
0.0
 11
279.2925594226
 21
633.0278639816
 31
0.0
  0
ELLIPSE
  5
316
330
85
100
AcDbEntity
  8
$DDT_AUDIT_GENERATED_(F2)
  6
Continuous
 62
     7
100
AcDbEllipse
 10
275.1925594619
 20
634.3531642375
 30
0.0
 11
8.249999955420833
 21
6.036754429672442E-9
 31
0.0
210
0.0
220
0.0
230
1.0
 40
0.185121456
 41
-0.9477783690946362
 42
-0.9073568945197623
  0
LINE
  5
317
330
85
100
AcDbEntity
  8
$DDT_AUDIT_GENERATED_(F2)
  6
Continuous
 62
     7
100
AcDbLine
 10
279.4925594226
 20
633.0497658922
 30
0.0
 11
279.4925594226
 21
633.1128504907
 31
0.0
  0
LINE
  5
318
330
85
100
AcDbEntity
  8
$DDT_AUDIT_GENERATED_(F2)
  6
Continuous
 62
     7
100
AcDbLine
 10
279.4925594226
 20
633.1128504907
 30
0.0
 11
280.0063417193
 21
633.1128504907
 31
0.0
  0
ELLIPSE
  5
319
330
85
100
AcDbEntity
  8
$DDT_AUDIT_GENERATED_(F2)
  6
Continuous
 62
     7
100
AcDbEllipse
 10
275.1925593951
 20
634.3531643174
 30
0.0
 11
8.250000191463227
 21
-5.249356505032665E-9
 31
0.0
210
0.0
220
0.0
230
1.0
 40
0.1851214604
 41
-1.510153100719017
 42
-1.485845701425971
  0
LINE
  5
31A
330
85
100
AcDbEntity
  8
$DDT_AUDIT_GENERATED_(F2)
  6
Continuous
 62
     7
100
AcDbLine
 10
275.6925594226
 20
632.8907047433
 30
0.0
 11
275.6925594226
 21
632.8287196846
 31
0.0
  0
ELLIPSE
  5
31B
330
85
100
AcDbEntity
  8
$DDT_AUDIT_GENERATED_(F2)
  6
Continuous
 62
     7
100
AcDbEllipse
 10
275.1925593547
 20
634.3531643036
 30
0.0
 11
8.250000163406046
 21
-1.270886174076225E-8
 31
0.0
210
0.0
220
0.0
230
1.0
 40
0.1851214594
 41
-1.363248871783037
 42
-1.338407250254737
  0
LINE
  5
31C
330
85
100
AcDbEntity
  8
$DDT_AUDIT_GENERATED_(F2)
  6
Continuous
 62
     7
100
AcDbLine
 10
275.8925594226
 20
632.8314197103
 30
0.0
 11
275.8925594226
 21
632.8907047433
 31
0.0
  0
LINE
  5
31D
330
85
100
AcDbEntity
  8
$DDT_AUDIT_GENERATED_(F2)
  6
Continuous
 62
     7
100
AcDbLine
 10
275.8925594226
 20
632.8907047433
 30
0.0
 11
276.8925594226
 21
632.8907047433
 31
0.0
  0
LINE
  5
31E
330
85
100
AcDbEntity
  8
$DDT_AUDIT_GENERATED_(F2)
  6
Continuous
 62
     7
100
AcDbLine
 10
276.8925594226
 20
632.8907047433
 30
0.0
 11
276.8925594226
 21
632.8586882363
 31
0.0
  0
ELLIPSE
  5
31F
330
85
100
AcDbEntity
  8
$DDT_AUDIT_GENERATED_(F2)
  6
Continuous
 62
     7
100
AcDbEllipse
 10
275.1925594225
 20
634.3531642473
 30
0.0
 11
8.25000000024731
 21
-2.772782004001328E-11
 31
0.0
210
0.0
220
0.0
230
1.0
 40
0.1851214562
 41
-1.278468933631309
 42
-1.18558220512507
  0
LINE
  5
320
330
85
100
AcDbEntity
  8
$DDT_AUDIT_GENERATED_(F2)
  6
Continuous
 62
     7
100
AcDbLine
 10
277.0925594226
 20
632.866966353
 30
0.0
 11
277.0925594226
 21
632.8907047433
 31
0.0
  0
LINE
  5
321
330
85
100
AcDbEntity
  8
$DDT_AUDIT_GENERATED_(F2)
  6
Continuous
 62
     7
100
AcDbLine
 10
277.0925594226
 20
632.8907047433
 30
0.0
 11
277.5700581082
 21
632.8907047433
 31
0.0
  0
LINE
  5
322
330
85
100
AcDbEntity
  8
$DDT_AUDIT_GENERATED_(F2)
  6
Continuous
 62
     7
100
AcDbLine
 10
284.5925594226
 20
633.8618064228
 30
0.0
 11
284.5925594226
 21
634.2873204471
 31
0.0
  0
LINE
  5
323
330
85
100
AcDbEntity
  8
$DDT_AUDIT_GENERATED_(F2)
  6
Continuous
 62
     7
100
AcDbLine
 10
265.7925594226
 20
634.2873204471
 30
0.0
 11
265.7925594226
 21
633.8618064228
 31
0.0
  0
ENDBLK
  5
325
330
85
100
AcDbEntity
  8
0
100
AcDbBlockEnd
  0
BLOCK
  5
376
330
326
100
AcDbEntity
  8
0
100
AcDbBlockBegin
  2
SE1
 70
     0
 10
0.0
 20
0.0
 30
0.0
  3
SE1
  1

  0
LINE
  5
328
330
326
100
AcDbEntity
  8
09491131_84380__
  6
Continuous
 62
     7
100
AcDbLine
 10
497.0740536983
 20
476.2409675971
 30
0.0
 11
549.0740536983
 21
476.2409675971
 31
0.0
  0
LINE
  5
329
330
326
100
AcDbEntity
  8
09491131_84380__
  6
Continuous
 62
     7
100
AcDbLine
 10
497.0740536983
 20
461.2409675971
 30
0.0
 11
549.0740536983
 21
461.2409675971
 31
0.0
  0
LINE
  5
32A
330
326
100
AcDbEntity
  8
09491131_84380__
  6
Continuous
 62
     7
100
AcDbLine
 10
549.0740536983
 20
461.2409675971
 30
0.0
 11
549.0740536983
 21
476.2409675971
 31
0.0
  0
LINE
  5
32B
330
326
100
AcDbEntity
  8
09491131_84380__
  6
Continuous
 62
     7
100
AcDbLine
 10
497.0740536983
 20
476.2409675971
 30
0.0
 11
497.0740536983
 21
461.2409675971
 31
0.0
  0
LINE
  5
32C
330
326
100
AcDbEntity
  8
$DDT_AUDIT_GENERATED_(8C)
  6
Continuous
 62
     7
100
AcDbLine
 10
548.1987985969
 20
519.7409675971
 30
0.0
 11
497.9493087997
 21
519.7409675971
 31
0.0
  0
LINE
  5
32D
330
326
100
AcDbEntity
  8
$DDT_AUDIT_GENERATED_(8C)
  6
Continuous
 62
     7
100
AcDbLine
 10
549.0696906543
 20
476.7409485606
 30
0.0
 11
497.0784167422
 21
476.7409485606
 31
0.0
  0
ARC
  5
32E
330
326
100
AcDbEntity
  8
$DDT_AUDIT_GENERATED_(8C)
  6
Continuous
 62
     7
100
AcDbCircle
 10
523.0740536983
 20
511.6409675971
 30
0.0
 40
26.3
100
AcDbArc
 50
157.3063560814
 51
162.0621734783
  0
ARC
  5
32F
330
326
100
AcDbEntity
  8
$DDT_AUDIT_GENERATED_(8C)
  6
Continuous
 62
     7
100
AcDbCircle
 10
523.0740536983
 20
511.6409675971
 30
0.0
 40
26.3
100
AcDbArc
 50
17.9378265217
 51
22.7077847482
  0
LINE
  5
330
330
326
100
AcDbEntity
  8
$DDT_AUDIT_GENERATED_(8C)
  6
Continuous
 62
     7
100
AcDbLine
 10
549.0696906543
 20
476.7409485606
 30
0.0
 11
548.6987795603
 21
519.245330641
 31
0.0
  0
LINE
  5
331
330
326
100
AcDbEntity
  8
$DDT_AUDIT_GENERATED_(8C)
  6
Continuous
 62
     7
100
AcDbLine
 10
497.4493278362
 20
519.245330641
 30
0.0
 11
497.0784167422
 21
476.7409485606
 31
0.0
  0
ARC
  5
332
330
326
100
AcDbEntity
  8
$DDT_AUDIT_GENERATED_(8C)
  6
Continuous
 62
     7
100
AcDbCircle
 10
497.9493087997
 20
519.2409675971
 30
0.0
 40
0.5000000000000004
100
AcDbArc
 50
90.0
 51
179.500025649
  0
ARC
  5
333
330
326
100
AcDbEntity
  8
$DDT_AUDIT_GENERATED_(8C)
  6
Continuous
 62
     7
100
AcDbCircle
 10
548.1987985969
 20
519.2409675971
 30
0.0
 40
0.5000000000000003
100
AcDbArc
 50
0.499974351
 51
90.0
  0
LINE
  5
334
330
326
100
AcDbEntity
  8
$DDT_AUDIT_GENERATED_(8C)
  6
Continuous
 62
     7
100
AcDbLine
 10
497.0784167422
 20
476.7409485606
 30
0.0
 11
497.5740536983
 21
476.2409675971
 31
0.0
  0
LINE
  5
335
330
326
100
AcDbEntity
  8
$DDT_AUDIT_GENERATED_(8C)
  6
Continuous
 62
     7
100
AcDbLine
 10
548.5740536983
 20
476.2409675971
 30
0.0
 11
549.0696906543
 21
476.7409485606
 31
0.0
  0
ARC
  5
336
330
326
100
AcDbEntity
  8
$DDT_AUDIT_GENERATED_(95)
  6
Continuous
 62
     7
100
AcDbCircle
 10
579.9812090397
 20
546.381651367
 30
0.0
 40
29.67729508032762
100
AcDbArc
 50
171.4571294731
 51
193.1525816813
  0
ARC
  5
337
330
326
100
AcDbEntity
  8
$DDT_AUDIT_GENERATED_(95)
  6
Continuous
 62
     7
100
AcDbCircle
 10
585.6984314824
 20
545.7415392591
 30
0.0
 40
35.42683334321676
100
AcDbArc
 50
169.5269045502
 51
171.8069207459
  0
ARC
  5
338
330
326
100
AcDbEntity
  8
$DDT_AUDIT_GENERATED_(95)
  6
Continuous
 62
     7
100
AcDbCircle
 10
1535.573871751
 20
-5573.157618895
 30
0.0
 40
6209.987291692915
100
AcDbArc
 50
99.6425786779
 51
99.6435916268
  0
ELLIPSE
  5
339
330
326
100
AcDbEntity
  8
$DDT_AUDIT_GENERATED_(95)
  6
Continuous
 62
     7
100
AcDbEllipse
 10
551.5616608874
 20
552.1935100559
 30
0.0
 11
0.04143400293149872
 21
0.6988596334329967
 31
0.0
210
0.0
220
0.0
230
1.0
 40
0.9998364154
 41
1.647576720735284
 42
3.37542816560396
  0
ELLIPSE
  5
33A
330
326
100
AcDbEntity
  8
$DDT_AUDIT_GENERATED_(95)
  6
Continuous
 62
     7
100
AcDbEllipse
 10
551.7823247039
 20
539.6409752141
 30
0.0
 11
0.628062298504508
 21
-0.3091514157545494
 31
0.0
210
0.0
220
0.0
230
1.0
 40
0.9998872663
 41
2.202840397337375
 42
3.616545446723061
  0
ARC
  5
33B
330
326
100
AcDbEntity
  8
$DDT_AUDIT_GENERATED_(95)
  6
Continuous
 62
     7
100
AcDbCircle
 10
548.6184847474
 20
559.3873583257
 30
0.0
 40
0.4999456144820336
100
AcDbArc
 50
55.0461063394
 51
92.4899069477
  0
ARC
  5
33C
330
326
100
AcDbEntity
  8
$DDT_AUDIT_GENERATED_(95)
  6
Continuous
 62
     7
100
AcDbCircle
 10
497.117329161
 20
550.8604630288
 30
0.0
 40
0.4999999905910651
100
AcDbArc
 50
106.3114509142
 51
143.3715832146
  0
LINE
  5
33D
330
326
100
AcDbEntity
  8
$DDT_AUDIT_GENERATED_(95)
  6
Continuous
 62
     7
100
AcDbLine
 10
550.5943923748
 20
558.6179018099
 30
0.0
 11
548.907048479
 21
559.7973744129
 31
0.0
  0
LINE
  5
33E
330
326
100
AcDbEntity
  8
$DDT_AUDIT_GENERATED_(95)
  6
Continuous
 62
     7
100
AcDbLine
 10
495.3848389471
 20
549.3681281048
 30
0.0
 11
496.7160683343
 21
551.1587745091
 31
0.0
  0
ARC
  5
33F
330
326
100
AcDbEntity
  8
$DDT_AUDIT_GENERATED_(95)
  6
Continuous
 62
     7
100
AcDbCircle
 10
1664.1881387968
 20
-6257.5315524127
 30
0.0
 40
6906.517531605095
100
AcDbArc
 50
99.2787671194
 51
99.74223801
  0
ARC
  5
340
330
326
100
AcDbEntity
  8
$DDT_AUDIT_GENERATED_(95)
  6
Continuous
 62
     7
100
AcDbCircle
 10
495.7017565216
 20
549.09543106
 30
0.0
 40
0.4183577879811303
100
AcDbArc
 50
139.3331070186
 51
182.7248852266
  0
SPLINE
  5
341
330
326
100
AcDbEntity
  8
$DDT_AUDIT_GENERATED_(95)
  6
Continuous
 62
     7
100
AcDbSpline
210
0.0
220
0.0
230
1.0
 70
    12
 71
     5
 72
    12
 73
     6
 74
     0
 42
0.000000023309238
 43
0.0000000001
 40
0.0
 40
0.0
 40
0.0
 40
0.0
 40
0.0
 40
0.0
 40
1.0
 40
1.0
 40
1.0
 40
1.0
 40
1.0
 40
1.0
 10
550.7549450076508
 20
558.2596198469986
 30
0.0
 41
1.0
 10
550.753496659109
 20
558.342107069071
 30
0.0
 41
1.0
 10
550.7520467305428
 20
558.424590059863
 30
0.0
 41
1.0
 10
550.7218691365435
 20
558.528794099028
 30
0.0
 41
1.0
 10
550.6581307556892
 20
558.5733479544442
 30
0.0
 41
1.0
 10
550.5943923748348
 20
558.6179018098605
 30
0.0
 41
1.0
  0
ARC
  5
342
330
326
100
AcDbEntity
  8
$DDT_AUDIT_GENERATED_(95)
  6
Continuous
 62
     7
100
AcDbCircle
 10
1628.8952310486
 20
-6130.0190236846
 30
0.0
 40
6774.612825397499
100
AcDbArc
 50
99.6318108849
 51
99.6327478099
  0
LINE
  5
343
330
326
100
AcDbEntity
  8
$DDT_AUDIT_GENERATED_(95)
  6
Continuous
 62
     7
100
AcDbLine
 10
495.3844275336
 20
549.3680581902
 30
0.0
 11
495.3848389471
 21
549.3681281048
 31
0.0
  0
LINE
  5
344
330
326
100
AcDbEntity
  8
$DDT_AUDIT_GENERATED_(95)
  6
Continuous
 62
     7
100
AcDbLine
 10
551.1924346045
 20
521.7940689468
 30
0.0
 11
495.0144361094
 21
521.7871364684
 31
0.0
  0
SPLINE
  5
345
330
326
100
AcDbEntity
  8
$DDT_AUDIT_GENERATED_(95)
  6
Continuous
 62
     7
100
AcDbSpline
210
0.0
220
0.0
230
1.0
 70
    12
 71
     3
 72
     8
 73
     4
 74
     0
 42
0.000004587543761
 43
0.0000000001
 40
0.0
 40
0.0
 40
0.0
 40
0.0
 40
1.0
 40
1.0
 40
1.0
 40
1.0
 10
548.9070484789796
 20
559.797374412853
 30
0.0
 41
1.0
 10
548.9069282744784
 20
559.7974401331887
 30
0.0
 41
1.0
 10
548.9062424117495
 20
559.7973351791198
 30
0.0
 41
1.0
 10
548.9049109231353
 20
559.7971187006613
 30
0.0
 41
1.0
  0
ARC
  5
346
330
326
100
AcDbEntity
  8
$DDT_AUDIT_GENERATED_(95)
  6
Continuous
 62
     7
100
AcDbCircle
 10
364.1148538925
 20
556.9020098333
 30
0.0
 40
249.9842474355218
100
AcDbArc
 50
358.9130481922
 51
1.0164531039
  0
LINE
  5
347
330
326
100
AcDbEntity
  8
$DDT_AUDIT_GENERATED_(95)
  6
Continuous
 62
     7
100
AcDbLine
 10
550.8617992928
 20
552.1810236964
 30
0.0
 11
550.7545050095
 21
558.2847443706
 31
0.0
  0
LINE
  5
348
330
326
100
AcDbEntity
  8
$DDT_AUDIT_GENERATED_(95)
  6
Continuous
 62
     7
100
AcDbLine
 10
551.1308236194
 20
536.8768593463
 30
0.0
 11
551.0824498445
 21
539.6287301906
 31
0.0
  0
LINE
  5
349
330
326
100
AcDbEntity
  8
$DDT_AUDIT_GENERATED_(95)
  6
Continuous
 62
     7
100
AcDbLine
 10
551.3923790309
 20
521.9975841032
 30
0.0
 11
551.2651932898
 21
529.2328832597
 31
0.0
  0
LINE
  5
34A
330
326
100
AcDbEntity
  8
$DDT_AUDIT_GENERATED_(95)
  6
Continuous
 62
     7
100
AcDbLine
 10
495.2838674998
 20
549.0755422828
 30
0.0
 11
494.8144414608
 21
521.9906022715
 31
0.0
  0
LINE
  5
34B
330
326
100
AcDbEntity
  8
$DDT_AUDIT_GENERATED_(95)
  6
Continuous
 62
     7
100
AcDbLine
 10
551.591307148
 20
540.3179878445
 30
0.0
 11
613.2280684487
 21
551.1940546195
 31
0.0
  0
LINE
  5
34C
330
326
100
AcDbEntity
  8
$DDT_AUDIT_GENERATED_(95)
  6
Continuous
 62
     7
100
AcDbLine
 10
612.8861516845
 20
562.3036578265
 30
0.0
 11
551.6832476086
 21
551.5041469906
 31
0.0
  0
ARC
  5
34D
330
326
100
AcDbEntity
  8
$DDT_AUDIT_GENERATED_(95)
  6
Continuous
 62
     7
100
AcDbCircle
 10
558.0471706078
 20
342.6511337136
 30
0.0
 40
217.4413985125207
100
AcDbArc
 50
92.4946518978
 51
106.31153891
  0
ARC
  5
34E
330
326
100
AcDbEntity
  8
$DDT_AUDIT_GENERATED_(95)
  6
Continuous
 62
     7
100
AcDbCircle
 10
545.1006068198
 20
553.4080609895
 30
0.0
 40
7.417553031175249
100
AcDbArc
 50
55.1489956977
 51
59.5107973669
  0
ARC
  5
34F
330
326
100
AcDbEntity
  8
$DDT_AUDIT_GENERATED_(95)
  6
Continuous
 62
     7
100
AcDbCircle
 10
495.8134641828
 20
549.1123667123
 30
0.0
 40
0.4208641245943096
100
AcDbArc
 50
138.9074993036
 51
182.5222571845
  0
ARC
  5
350
330
326
100
AcDbEntity
  8
$DDT_AUDIT_GENERATED_(95)
  6
Continuous
 62
     7
100
AcDbCircle
 10
551.1924099241
 20
521.9940689453
 30
0.0
 40
0.1999999999999949
100
AcDbArc
 50
270.0070704148
 51
1.0070704147
  0
ARC
  5
351
330
326
100
AcDbEntity
  8
$DDT_AUDIT_GENERATED_(95)
  6
Continuous
 62
     7
100
AcDbCircle
 10
495.014411429
 20
521.9871364669
 30
0.0
 40
0.1999999999999936
100
AcDbArc
 50
179.0070704148
 51
270.0070704148
  0
ARC
  5
352
330
326
100
AcDbEntity
  8
$DDT_AUDIT_GENERATED_(95)
  6
Continuous
 62
     7
100
AcDbCircle
 10
548.5969134178
 20
559.3827305985
 30
0.0
 40
0.5010948559725796
100
AcDbArc
 50
55.0676659148
 51
92.4003879241
  0
ARC
  5
353
330
326
100
AcDbEntity
  8
$DDT_AUDIT_GENERATED_(95)
  6
Continuous
 62
     7
100
AcDbCircle
 10
613.0542986304
 20
552.1788409163
 30
0.0
 40
0.9999999999999933
100
AcDbArc
 50
280.0208545146
 51
358.9103695381
  0
ARC
  5
354
330
326
100
AcDbEntity
  8
$DDT_AUDIT_GENERATED_(95)
  6
Continuous
 62
     7
100
AcDbCircle
 10
613.0599217356
 20
561.3188715708
 30
0.0
 40
1.000000000000007
100
AcDbArc
 50
1.0429246606
 51
99.9876803583
  0
LINE
  5
355
330
326
100
AcDbEntity
  8
$DDT_AUDIT_GENERATED_(CD)
  6
Continuous
 62
     7
100
AcDbLine
 10
551.2176337551
 20
536.8372976882
 30
0.0
 11
551.4185929671
 21
529.1629749991
 31
0.0
  0
LINE
  5
356
330
326
100
AcDbEntity
  8
$DDT_AUDIT_GENERATED_(CD)
  6
Continuous
 62
     7
100
AcDbLine
 10
551.2651932898
 20
529.2328832597
 30
0.0
 11
551.4185929671
 21
529.1629749991
 31
0.0
  0
LINE
  5
357
330
326
100
AcDbEntity
  8
$DDT_AUDIT_GENERATED_(CD)
  6
Continuous
 62
     7
100
AcDbLine
 10
551.2176337551
 20
536.8372976882
 30
0.0
 11
551.1308236194
 21
536.8768593463
 31
0.0
  0
LINE
  5
358
330
326
100
AcDbEntity
  8
$DDT_AUDIT_GENERATED_(D1)
  6
Continuous
 62
     7
100
AcDbLine
 10
497.5740536983
 20
566.5409675971
 30
0.0
 11
548.5740536983
 21
566.5409675971
 31
0.0
  0
LINE
  5
359
330
326
100
AcDbEntity
  8
$DDT_AUDIT_GENERATED_(D1)
  6
Continuous
 62
     7
100
AcDbLine
 10
509.0740536983
 20
583.5409675971
 30
0.0
 11
537.0740536983
 21
583.5409675971
 31
0.0
  0
ARC
  5
35A
330
326
100
AcDbEntity
  8
$DDT_AUDIT_GENERATED_(D1)
  6
Continuous
 62
     7
100
AcDbCircle
 10
471.5237326279
 20
475.858465334
 30
0.0
 40
25.78395841747605
100
AcDbArc
 50
7.2943091199
 51
7.7190251244
  0
ARC
  5
35B
330
326
100
AcDbEntity
  8
$DDT_AUDIT_GENERATED_(D1)
  6
Continuous
 62
     7
100
AcDbCircle
 10
471.5237326279
 20
475.858465334
 30
0.0
 40
25.78395841747605
100
AcDbArc
 50
0.8604048243
 51
1.475497865
  0
LINE
  5
35C
330
326
100
AcDbEntity
  8
$DDT_AUDIT_GENERATED_(D1)
  6
Continuous
 62
     7
100
AcDbLine
 10
538.0740536983
 20
567.0409675971
 30
0.0
 11
538.0740536983
 21
582.5409675971
 31
0.0
  0
LINE
  5
35D
330
326
100
AcDbEntity
  8
$DDT_AUDIT_GENERATED_(D1)
  6
Continuous
 62
     7
100
AcDbLine
 10
508.0740536983
 20
582.5409675971
 30
0.0
 11
508.0740536983
 21
567.0409675971
 31
0.0
  0
LINE
  5
35E
330
326
100
AcDbEntity
  8
$DDT_AUDIT_GENERATED_(D1)
  6
Continuous
 62
     7
100
AcDbLine
 10
549.0740536983
 20
476.2409675971
 30
0.0
 11
549.0740536983
 21
521.7938075344
 31
0.0
  0
LINE
  5
35F
330
326
100
AcDbEntity
  8
$DDT_AUDIT_GENERATED_(D1)
  6
Continuous
 62
     7
100
AcDbLine
 10
549.0740536983
 20
559.6806358623
 30
0.0
 11
549.0740536983
 21
566.0409675971
 31
0.0
  0
LINE
  5
360
330
326
100
AcDbEntity
  8
$DDT_AUDIT_GENERATED_(D1)
  6
Continuous
 62
     7
100
AcDbLine
 10
497.0740536983
 20
566.0409675971
 30
0.0
 11
497.0740536983
 21
551.3687438988
 31
0.0
  0
LINE
  5
361
330
326
100
AcDbEntity
  8
$DDT_AUDIT_GENERATED_(D1)
  6
Continuous
 62
     7
100
AcDbLine
 10
497.0740536983
 20
521.7873906294
 30
0.0
 11
497.0740536983
 21
479.3216437693
 31
0.0
  0
ARC
  5
362
330
326
100
AcDbEntity
  8
$DDT_AUDIT_GENERATED_(D1)
  6
Continuous
 62
     7
100
AcDbCircle
 10
497.5740536983
 20
566.0409675971
 30
0.0
 40
0.5000000000000004
100
AcDbArc
 50
90.0
 51
180.0
  0
ARC
  5
363
330
326
100
AcDbEntity
  8
$DDT_AUDIT_GENERATED_(D1)
  6
Continuous
 62
     7
100
AcDbCircle
 10
548.5740536983
 20
566.0409675971
 30
0.0
 40
0.5000000000000004
100
AcDbArc
 50
0.0
 51
90.0
  0
ARC
  5
364
330
326
100
AcDbEntity
  8
$DDT_AUDIT_GENERATED_(D1)
  6
Continuous
 62
     7
100
AcDbCircle
 10
507.5740536983
 20
567.0409675971
 30
0.0
 40
0.5000000000000004
100
AcDbArc
 50
270.0
 51
0.0
  0
ARC
  5
365
330
326
100
AcDbEntity
  8
$DDT_AUDIT_GENERATED_(D1)
  6
Continuous
 62
     7
100
AcDbCircle
 10
538.5740536983
 20
567.0409675971
 30
0.0
 40
0.5000000000000004
100
AcDbArc
 50
180.0
 51
270.0
  0
ARC
  5
366
330
326
100
AcDbEntity
  8
$DDT_AUDIT_GENERATED_(D1)
  6
Continuous
 62
     7
100
AcDbCircle
 10
509.0740536983
 20
582.5409675971
 30
0.0
 40
1.000000000000001
100
AcDbArc
 50
90.0
 51
180.0
  0
ARC
  5
367
330
326
100
AcDbEntity
  8
$DDT_AUDIT_GENERATED_(D1)
  6
Continuous
 62
     7
100
AcDbCircle
 10
537.0740536983
 20
582.5409675971
 30
0.0
 40
1.000000000000001
100
AcDbArc
 50
0.0
 51
90.0
  0
LINE
  5
368
330
326
100
AcDbEntity
  8
$DDT_AUDIT_GENERATED_(DF)
  6
Continuous
 62
     7
100
AcDbLine
 10
692.6129126801
 20
650.4927628271
 30
0.0
 11
680.0832832498
 21
648.1324633362
 31
0.0
  0
LINE
  5
369
330
326
100
AcDbEntity
  8
$DDT_AUDIT_GENERATED_(DF)
  6
Continuous
 62
     7
100
AcDbLine
 10
692.6129126801
 20
650.4927628271
 30
0.0
 11
705.1425395526
 21
652.8530618362
 31
0.0
  0
SPLINE
  5
36A
330
326
100
AcDbEntity
  8
$DDT_AUDIT_GENERATED_(DF)
  6
Continuous
 62
     7
100
AcDbSpline
210
0.0
220
0.0
230
1.0
 70
     8
 71
     3
 72
    56
 73
    52
 74
     0
 42
0.0000000000375276
 43
0.0000000001
 40
0.0
 40
0.0
 40
0.0
 40
0.0
 40
0.0293945453843898
 40
0.063504327040196
 40
0.0954892627606278
 40
0.1253512095735138
 40
0.1430346913230643
 40
0.1598632723354648
 40
0.1757312990846301
 40
0.1906585023496084
 40
0.2030395223108329
 40
0.2196574715900143
 40
0.234709699298372
 40
0.2483804717078929
 40
0.2616749856465108
 40
0.2751244117169244
 40
0.2888273428487963
 40
0.3126423974921239
 40
0.3370198634840995
 40
0.3621162612411182
 40
0.3873007380374464
 40
0.412762781465351
 40
0.43800002099848
 40
0.4634170979395176
 40
0.4889374873635119
 40
0.5145028128133745
 40
0.5399044456500486
 40
0.5653207631883358
 40
0.5908228573955203
 40
0.616343725703293
 40
0.6411786353377542
 40
0.6649460165395272
 40
0.6881139967211173
 40
0.7010375312026145
 40
0.7136578113663204
 40
0.7262680621203002
 40
0.7407210811055636
 40
0.7573633373509069
 40
0.7762225681601306
 40
0.7973134899260895
 40
0.8134002052688808
 40
0.8305405879894936
 40
0.8487025395822273
 40
0.8679072284157171
 40
0.8881904250179643
 40
0.9058977780532432
 40
0.9243534101015827
 40
0.9436933720416557
 40
0.9636907862205283
 40
0.9843155768797366
 40
1.0
 40
1.0
 40
1.0
 40
1.0
 10
535.8240510398542
 20
583.5409676025815
 30
0.0
 10
535.8240506456043
 20
586.4106252766936
 30
0.0
 10
535.8240525819245
 20
591.6440743541464
 30
0.0
 10
535.8240381338693
 20
600.2981983035132
 30
0.0
 10
535.8240979907167
 20
608.7674400961345
 30
0.0
 10
535.8239448431028
 20
615.8364043892841
 30
0.0
 10
535.824323131773
 20
621.5480217039014
 30
0.0
 10
535.8232224565738
 20
626.0195915411805
 30
0.0
 10
535.8269868574379
 20
630.2462036470314
 30
0.0
 10
535.8143530271823
 20
634.0779458721672
 30
0.0
 10
535.8564249312616
 20
637.9770572217183
 30
0.0
 10
536.1418860580777
 20
641.8793895116492
 30
0.0
 10
536.6562001765759
 20
645.8720864657073
 30
0.0
 10
537.3248056316587
 20
649.5423293912272
 30
0.0
 10
538.1370660985525
 20
653.0373375139849
 30
0.0
 10
539.1194744869887
 20
656.4915446710452
 30
0.0
 10
540.5740143081604
 20
660.776511212483
 30
0.0
 10
542.7008391938625
 20
665.8494379473927
 30
0.0
 10
545.7343058389145
 20
671.6128322745777
 30
0.0
 10
549.3509993043966
 20
677.1760425639519
 30
0.0
 10
553.5176947466581
 20
682.4628482326298
 30
0.0
 10
558.1613114538882
 20
687.3542700786702
 30
0.0
 10
563.2582103637575
 20
691.8028720922466
 30
0.0
 10
568.7525798898963
 20
695.758685459146
 30
0.0
 10
574.6123245980651
 20
699.2073138406545
 30
0.0
 10
580.7660048803542
 20
702.0969407660183
 30
0.0
 10
587.1561789602307
 20
704.3895270330285
 30
0.0
 10
593.7256987226858
 20
706.0783066352274
 30
0.0
 10
600.433993328547
 20
707.1527787571943
 30
0.0
 10
607.1618013113375
 20
707.5948137721899
 30
0.0
 10
613.7470568239796
 20
707.4153744217983
 30
0.0
 10
620.0814886024206
 20
706.6764649829848
 30
0.0
 10
625.2933402823073
 20
705.6124066489235
 30
0.0
 10
629.463695366598
 20
704.4677404720701
 30
0.0
 10
632.6850649456861
 20
703.4201213603096
 30
0.0
 10
635.9814052467152
 20
702.1763984875371
 30
0.0
 10
639.5395969593288
 20
700.6274776172236
 30
0.0
 10
643.5000516504529
 20
698.6287908322566
 30
0.0
 10
647.8320231910852
 20
696.0793338352727
 30
0.0
 10
651.9260764799631
 20
693.2464626833377
 30
0.0
 10
655.6961547900192
 20
690.2379941875475
 30
0.0
 10
659.0849869328888
 20
687.1811342547535
 30
0.0
 10
662.4620525506514
 20
683.7124449119459
 30
0.0
 10
665.7741083828644
 20
679.8071122405748
 30
0.0
 10
668.77297630208
 20
675.7058717844315
 30
0.0
 10
671.445699806175
 20
671.4641186379147
 30
0.0
 10
673.7878782736792
 20
667.1286223555115
 30
0.0
 10
675.9138010101865
 20
662.4471982355623
 30
0.0
 10
677.7509898443402
 20
657.481764638371
 30
0.0
 10
679.1832698135131
 20
652.5715484529425
 30
0.0
 10
679.7625286360835
 20
649.6287121069581
 30
0.0
 10
680.0515433978392
 20
648.1250354050187
 30
0.0
  0
SPLINE
  5
36B
330
326
100
AcDbEntity
  8
$DDT_AUDIT_GENERATED_(DF)
  6
Continuous
 62
     7
100
AcDbSpline
210
0.0
220
0.0
230
1.0
 70
     8
 71
     3
 72
    61
 73
    57
 74
     0
 42
0.000000000029255
 43
0.0000000001
 40
0.0
 40
0.0
 40
0.0
 40
0.0
 40
0.0164834171090722
 40
0.0380312741888399
 40
0.0587614033652663
 40
0.078617674255677
 40
0.0973854889537303
 40
0.1152086727063311
 40
0.1321030450995178
 40
0.1480224051422741
 40
0.1629848530784773
 40
0.177024697327056
 40
0.1951521802693593
 40
0.2114441254184673
 40
0.2258682144208318
 40
0.2396158060319189
 40
0.2613586802271935
 40
0.2833086771372766
 40
0.3035082668716321
 40
0.324006770476621
 40
0.3446827396879379
 40
0.3652815566412352
 40
0.3859396610484648
 40
0.4068069406774098
 40
0.4276640057047647
 40
0.4484434712970746
 40
0.4691423427393529
 40
0.4898175283283905
 40
0.5105354235496575
 40
0.5313709754743721
 40
0.5521986604411244
 40
0.572900455846142
 40
0.5936121146069634
 40
0.6142642164013064
 40
0.6348557020555394
 40
0.6547754777286001
 40
0.6741812284239851
 40
0.6934244785881577
 40
0.7040175926157853
 40
0.7144098145786684
 40
0.7246383821340855
 40
0.7349866622020967
 40
0.7466955776750774
 40
0.7596628197942474
 40
0.773984806753694
 40
0.7896680576171442
 40
0.8069024474474924
 40
0.8225621596657908
 40
0.8392379268562654
 40
0.856100242206538
 40
0.8723534575053078
 40
0.8896279974387414
 40
0.9078093438903405
 40
0.9381496919306862
 40
0.9706555833926899
 40
1.0
 40
1.0
 40
1.0
 40
1.0
 10
705.0987276708977
 20
652.8447120760675
 30
0.0
 10
704.7087705259587
 20
654.872250940669
 30
0.0
 10
703.9300367379775
 20
658.8267917847292
 30
0.0
 10
702.011413515157
 20
665.4010253347928
 30
0.0
 10
699.5753353888466
 20
672.0051578494046
 30
0.0
 10
696.7879127468047
 20
678.1798790909454
 30
0.0
 10
693.7564571362349
 20
683.8501691824223
 30
0.0
 10
690.5421526395561
 20
689.0288038755141
 30
0.0
 10
687.2117060068326
 20
693.7396204929506
 30
0.0
 10
683.8230993697549
 20
697.9993605958181
 30
0.0
 10
680.4260358937371
 20
701.8269766802118
 30
0.0
 10
676.6629757443991
 20
705.6562372791335
 30
0.0
 10
672.5775477904268
 20
709.3713079799652
 30
0.0
 10
668.2458839925191
 20
712.8646233236965
 30
0.0
 10
664.139424586151
 20
715.8302078964385
 30
0.0
 10
659.3712583651636
 20
718.9275240416107
 30
0.0
 10
653.6704718064358
 20
722.1477596098057
 30
0.0
 10
647.0773997629424
 20
725.2408956977125
 30
0.0
 10
640.4085231480666
 20
727.7906276706663
 30
0.0
 10
633.7145684626224
 20
729.8198742321467
 30
0.0
 10
626.8478189724152
 20
731.3732988882911
 30
0.0
 10
619.869996748564
 20
732.4369948734721
 30
0.0
 10
612.8119224182976
 20
732.9972678008246
 30
0.0
 10
605.7022207516171
 20
733.0495834178719
 30
0.0
 10
598.5939604404244
 20
732.5807021049784
 30
0.0
 10
591.5569381862948
 20
731.6047417789247
 30
0.0
 10
584.6289537307047
 20
730.1277619474803
 30
0.0
 10
577.831439801154
 20
728.1602070435333
 30
0.0
 10
571.1779256008965
 20
725.704125393786
 30
0.0
 10
564.7062689199163
 20
722.7604371319457
 30
0.0
 10
558.4637357338215
 20
719.3615987818121
 30
0.0
 10
552.4964143088315
 20
715.5263662275646
 30
0.0
 10
546.8299772565587
 20
711.292300658061
 30
0.0
 10
541.4977139981844
 20
706.6632978820901
 30
0.0
 10
536.5757567806107
 20
701.7270220437217
 30
0.0
 10
532.1092310135055
 20
696.5622193811598
 30
0.0
 10
528.0915175690785
 20
691.2327753793792
 30
0.0
 10
525.0236701057132
 20
686.5337441112054
 30
0.0
 10
522.7192628612661
 20
682.5736196694363
 30
0.0
 10
521.0473425671202
 20
679.4360556337666
 30
0.0
 10
519.5013477703227
 20
676.2656825142992
 30
0.0
 10
518.0081323151009
 20
672.9052883948831
 30
0.0
 10
516.5288057937162
 20
669.2002989153665
 30
0.0
 10
515.0609204347903
 20
665.0074798756192
 30
0.0
 10
513.6686503272041
 20
660.3141974183957
 30
0.0
 10
512.4071455319346
 20
655.082361392725
 30
0.0
 10
511.4146307478691
 20
649.6369681612134
 30
0.0
 10
510.720634749545
 20
644.0329864387112
 30
0.0
 10
510.3292422832406
 20
638.4400457479815
 30
0.0
 10
510.3229613739157
 20
632.7684705929346
 30
0.0
 10
510.324369098632
 20
627.0305295659228
 30
0.0
 10
510.3239979905048
 20
621.1438282910468
 30
0.0
 10
510.3241003088261
 20
613.6434787041976
 30
0.0
 10
510.3240388248319
 20
604.4690358633985
 30
0.0
 10
510.3240523555758
 20
593.7523219507943
 30
0.0
 10
510.3240505880913
 20
587.216623937898
 30
0.0
 10
510.324051030447
 20
583.54096759233
 30
0.0
  0
LINE
  5
36C
330
326
100
AcDbEntity
  8
$DDT_AUDIT_GENERATED_(DF)
  6
Continuous
 62
     7
100
AcDbLine
 10
702.9840245999
 20
652.2429286487
 30
0.0
 11
702.9470003086
 21
652.4394717784
 31
0.0
  0
LINE
  5
36D
330
326
100
AcDbEntity
  8
$DDT_AUDIT_GENERATED_(DF)
  6
Continuous
 62
     7
100
AcDbLine
 10
682.5556505954
 20
648.5982015625
 30
0.0
 11
682.5926748866
 21
648.4016584327
 31
0.0
  0
LINE
  5
36E
330
326
100
AcDbEntity
  8
$DDT_AUDIT_GENERATED_(E5)
  6
Continuous
 62
     7
100
AcDbLine
 10
679.0303306596
 20
647.7305931541
 30
0.0
 11
706.5463688269
 21
652.9139939274
 31
0.0
  0
LINE
  5
36F
330
326
100
AcDbEntity
  8
$DDT_AUDIT_GENERATED_(E5)
  6
Continuous
 62
     7
100
AcDbLine
 10
709.6934335821
 20
636.2078278972
 30
0.0
 11
682.1773954148
 21
631.0244271239
 31
0.0
  0
LINE
  5
370
330
326
100
AcDbEntity
  8
$DDT_AUDIT_GENERATED_(E5)
  6
Continuous
 62
     7
100
AcDbLine
 10
710.4910277747
 20
637.3756650022
 30
0.0
 11
707.7142059319
 21
652.1163997347
 31
0.0
  0
LINE
  5
371
330
326
100
AcDbEntity
  8
$DDT_AUDIT_GENERATED_(E5)
  6
Continuous
 62
     7
100
AcDbLine
 10
678.232736467
 20
646.562756049
 30
0.0
 11
681.0095583098
 21
631.8220213166
 31
0.0
  0
ARC
  5
372
330
326
100
AcDbEntity
  8
$DDT_AUDIT_GENERATED_(E5)
  6
Continuous
 62
     7
100
AcDbCircle
 10
706.7314902831
 20
651.9312782785
 30
0.0
 40
0.9999999999999979
100
AcDbArc
 50
10.6682136384
 51
100.6682136384
  0
ARC
  5
373
330
326
100
AcDbEntity
  8
$DDT_AUDIT_GENERATED_(E5)
  6
Continuous
 62
     7
100
AcDbCircle
 10
679.2154521158
 20
646.7478775052
 30
0.0
 40
0.9999999999999927
100
AcDbArc
 50
100.6682136384
 51
190.6682136384
  0
ARC
  5
374
330
326
100
AcDbEntity
  8
$DDT_AUDIT_GENERATED_(E5)
  6
Continuous
 62
     7
100
AcDbCircle
 10
709.5083121259
 20
637.1905435461
 30
0.0
 40
0.9999999999999927
100
AcDbArc
 50
280.6682136384
 51
10.6682136384
  0
ARC
  5
375
330
326
100
AcDbEntity
  8
$DDT_AUDIT_GENERATED_(E5)
  6
Continuous
 62
     7
100
AcDbCircle
 10
681.9922739586
 20
632.0071427728
 30
0.0
 40
1.00000000000002
100
AcDbArc
 50
190.6682136384
 51
280.6682136384
  0
ENDBLK
  5
377
330
326
100
AcDbEntity
  8
0
100
AcDbBlockEnd
  0
BLOCK
  5
3E6
330
378
100
AcDbEntity
  8
0
100
AcDbBlockBegin
  2
SE2
 70
     0
 10
0.0
 20
0.0
 30
0.0
  3
SE2
  1

  0
ARC
  5
37A
330
378
100
AcDbEntity
  8
$DDT_AUDIT_GENERATED_(95)
  6
Continuous
 62
     7
100
AcDbCircle
 10
155.1925594226
 20
293.7376177443
 30
0.0
 40
28.28896856965815
100
AcDbArc
 50
0.0
 51
258.6935364835
  0
ARC
  5
37B
330
378
100
AcDbEntity
  8
$DDT_AUDIT_GENERATED_(95)
  6
Continuous
 62
     7
100
AcDbCircle
 10
155.1925594226
 20
293.7376177443
 30
0.0
 40
28.28896856965815
100
AcDbArc
 50
281.1253959781
 51
360.0
  0
ARC
  5
37C
330
378
100
AcDbEntity
  8
$DDT_AUDIT_GENERATED_(95)
  6
Continuous
 62
     7
100
AcDbCircle
 10
155.1922686867
 20
293.8213684709
 30
0.0
 40
27.7352999531329
100
AcDbArc
 50
271.6997858855
 51
359.8350785375
  0
LINE
  5
37D
330
378
100
AcDbEntity
  8
$DDT_AUDIT_GENERATED_(95)
  6
Continuous
 62
     7
100
AcDbLine
 10
155.1925594247
 20
266.086081188
 30
0.0
 11
156.0149674964
 21
266.0982735487
 31
0.0
  0
LINE
  5
37E
330
378
100
AcDbEntity
  8
$DDT_AUDIT_GENERATED_(95)
  6
Continuous
 62
     7
100
AcDbLine
 10
155.1925594205
 20
266.086081188
 30
0.0
 11
154.3701513488
 21
266.0982735487
 31
0.0
  0
ARC
  5
37F
330
378
100
AcDbEntity
  8
$DDT_AUDIT_GENERATED_(95)
  6
Continuous
 62
     7
100
AcDbCircle
 10
155.192436739
 20
293.8209659805
 30
0.0
 40
27.73488537971282
100
AcDbArc
 50
180.1640924444
 51
268.3010431326
  0
ARC
  5
380
330
378
100
AcDbEntity
  8
$DDT_AUDIT_GENERATED_(95)
  6
Continuous
 62
     7
100
AcDbCircle
 10
155.3260446204
 20
290.8443226306
 30
0.0
 40
25.08607200357971
100
AcDbArc
 50
256.7010704958
 51
261.0612015254
  0
ARC
  5
381
330
378
100
AcDbEntity
  8
$DDT_AUDIT_GENERATED_(95)
  6
Continuous
 62
     7
100
AcDbCircle
 10
155.1922461664
 20
293.8218322025
 30
0.0
 40
27.73532381200217
100
AcDbArc
 50
359.8341206962
 51
89.9993528737
  0
ELLIPSE
  5
382
330
378
100
AcDbEntity
  8
$DDT_AUDIT_GENERATED_(95)
  6
Continuous
 62
     7
100
AcDbEllipse
 10
151.3567370442
 20
265.5143263353
 30
0.0
 11
-0.08431151104321957
 21
-0.6949039999197166
 31
0.0
210
0.0
220
0.0
230
1.0
 40
0.6317972206
 41
1.509748291259886
 42
3.118917634236815
  0
ELLIPSE
  5
383
330
378
100
AcDbEntity
  8
$DDT_AUDIT_GENERATED_(95)
  6
Continuous
 62
     7
100
AcDbEllipse
 10
155.5127951468
 20
268.2225317991
 30
0.0
 11
0.0
 21
0.2864477625674736
 31
0.0
210
0.0
220
0.0
230
1.0
 40
1.0
 41
3.156729415006563
 42
6.249797381588467
  0
ARC
  5
384
330
378
100
AcDbEntity
  8
$DDT_AUDIT_GENERATED_(95)
  6
Continuous
 62
     7
100
AcDbCircle
 10
155.1932112061
 20
293.3209838558
 30
0.0
 40
26.8039756016167
100
AcDbArc
 50
78.9062922094
 51
90.002035935
  0
LINE
  5
385
330
378
100
AcDbEntity
  8
$DDT_AUDIT_GENERATED_(95)
  6
Continuous
 62
     7
100
AcDbLine
 10
155.1923051054
 20
319.8641278743
 30
0.0
 11
155.1922587598
 21
320.1249594405
 31
0.0
  0
ARC
  5
386
330
378
100
AcDbEntity
  8
$DDT_AUDIT_GENERATED_(95)
  6
Continuous
 62
     7
100
AcDbCircle
 10
155.1961950649
 20
294.6814516568
 30
0.0
 40
26.43909365810771
100
AcDbArc
 50
270.6876888824
 51
281.0918450006
  0
ARC
  5
387
330
378
100
AcDbEntity
  8
$DDT_AUDIT_GENERATED_(95)
  6
Continuous
 62
     7
100
AcDbCircle
 10
155.1946940612
 20
293.3672184613
 30
0.0
 40
26.49690952069941
100
AcDbArc
 50
90.0051657753
 51
101.1247788476
  0
LINE
  5
388
330
378
100
AcDbEntity
  8
$DDT_AUDIT_GENERATED_(95)
  6
Continuous
 62
     7
100
AcDbLine
 10
155.1925594226
 20
266.2466353999
 30
0.0
 11
155.1925594226
 21
267.9339792958
 31
0.0
  0
ARC
  5
389
330
378
100
AcDbEntity
  8
$DDT_AUDIT_GENERATED_(95)
  6
Continuous
 62
     7
100
AcDbCircle
 10
155.203578998
 20
295.0520035388
 30
0.0
 40
27.11802648194735
100
AcDbArc
 50
264.4952471744
 51
269.9767175101
  0
ARC
  5
38A
330
378
100
AcDbEntity
  8
$DDT_AUDIT_GENERATED_(95)
  6
Continuous
 62
     7
100
AcDbCircle
 10
174.7081323427
 20
266.1663590835
 30
0.0
 40
19.51573802564691
100
AcDbArc
 50
179.764318055
 51
180.235681945
  0
ARC
  5
38B
330
378
100
AcDbEntity
  8
$DDT_AUDIT_GENERATED_(95)
  6
Continuous
 62
     7
100
AcDbCircle
 10
155.1927868573
 20
293.8219177749
 30
0.0
 40
27.73523823874575
100
AcDbArc
 50
90.0004698373
 51
180.1660565928
  0
ARC
  5
38C
330
378
100
AcDbEntity
  8
$DDT_AUDIT_GENERATED_(95)
  6
Continuous
 62
     7
100
AcDbCircle
 10
155.1639617509
 20
296.9192269124
 30
0.0
 40
28.9852617242812
100
AcDbArc
 50
270.0565296314
 51
270.6981341429
  0
ARC
  5
38D
330
378
100
AcDbEntity
  8
$DDT_AUDIT_GENERATED_(95)
  6
Continuous
 62
     7
100
AcDbCircle
 10
155.1969554516
 20
294.7388970123
 30
0.0
 40
26.80469243705628
100
AcDbArc
 50
270.6844001895
 51
281.0602387269
  0
ARC
  5
38E
330
378
100
AcDbEntity
  8
$DDT_AUDIT_GENERATED_(95)
  6
Continuous
 62
     7
100
AcDbCircle
 10
155.209566947
 20
294.6856194281
 30
0.0
 40
26.74998511482737
100
AcDbArc
 50
281.0556198744
 51
292.1663246159
  0
ARC
  5
38F
330
378
100
AcDbEntity
  8
$DDT_AUDIT_GENERATED_(95)
  6
Continuous
 62
     7
100
AcDbCircle
 10
155.1751683976
 20
294.7406923707
 30
0.0
 40
26.81396849583421
100
AcDbArc
 50
292.189994694
 51
297.7089464932
  0
ARC
  5
390
330
378
100
AcDbEntity
  8
$DDT_AUDIT_GENERATED_(95)
  6
Continuous
 62
     7
100
AcDbCircle
 10
155.155961316
 20
294.7209247239
 30
0.0
 40
26.80541149697028
100
AcDbArc
 50
297.7649396812
 51
303.3380589933
  0
ARC
  5
391
330
378
100
AcDbEntity
  8
$DDT_AUDIT_GENERATED_(95)
  6
Continuous
 62
     7
100
AcDbCircle
 10
155.3088849956
 20
294.4633121558
 30
0.0
 40
26.50615114259596
100
AcDbArc
 50
303.3679306888
 51
308.9099517473
  0
ARC
  5
392
330
378
100
AcDbEntity
  8
$DDT_AUDIT_GENERATED_(95)
  6
Continuous
 62
     7
100
AcDbCircle
 10
155.2430621842
 20
294.5167933718
 30
0.0
 40
26.58911573253045
100
AcDbArc
 50
308.9479365494
 51
314.5549328792
  0
ARC
  5
393
330
378
100
AcDbEntity
  8
$DDT_AUDIT_GENERATED_(95)
  6
Continuous
 62
     7
100
AcDbCircle
 10
155.3821841704
 20
294.3447972834
 30
0.0
 40
26.36895689719359
100
AcDbArc
 50
314.6017272235
 51
320.1822318737
  0
ARC
  5
394
330
378
100
AcDbEntity
  8
$DDT_AUDIT_GENERATED_(95)
  6
Continuous
 62
     7
100
AcDbCircle
 10
155.5002189125
 20
294.2283986779
 30
0.0
 40
26.20376422406346
100
AcDbArc
 50
320.2124515355
 51
325.8530077728
  0
ARC
  5
395
330
378
100
AcDbEntity
  8
$DDT_AUDIT_GENERATED_(95)
  6
Continuous
 62
     7
100
AcDbCircle
 10
155.6998598879
 20
294.0918466139
 30
0.0
 40
25.96189219735562
100
AcDbArc
 50
325.8551009389
 51
337.202435891
  0
ARC
  5
396
330
378
100
AcDbEntity
  8
$DDT_AUDIT_GENERATED_(95)
  6
Continuous
 62
     7
100
AcDbCircle
 10
155.8561112625
 20
294.0298735942
 30
0.0
 40
25.79383438214233
100
AcDbArc
 50
337.1948567018
 51
359.9921632096
  0
ARC
  5
397
330
378
100
AcDbEntity
  8
$DDT_AUDIT_GENERATED_(95)
  6
Continuous
 62
     7
100
AcDbCircle
 10
155.7127022129
 20
294.0076050705
 30
0.0
 40
25.9372499608096
100
AcDbArc
 50
0.0413980527
 51
11.3981737805
  0
ARC
  5
398
330
378
100
AcDbEntity
  8
$DDT_AUDIT_GENERATED_(95)
  6
Continuous
 62
     7
100
AcDbCircle
 10
155.5769512401
 20
293.9335924734
 30
0.0
 40
26.08499047826711
100
AcDbArc
 50
11.4986088497
 51
22.7799283711
  0
ARC
  5
399
330
378
100
AcDbEntity
  8
$DDT_AUDIT_GENERATED_(95)
  6
Continuous
 62
     7
100
AcDbCircle
 10
155.4819652461
 20
293.8435296667
 30
0.0
 40
26.20747993710304
100
AcDbArc
 50
22.8810636207
 51
34.1108792826
  0
ARC
  5
39A
330
378
100
AcDbEntity
  8
$DDT_AUDIT_GENERATED_(95)
  6
Continuous
 62
     7
100
AcDbCircle
 10
155.3699912357
 20
293.7186978421
 30
0.0
 40
26.37022566000249
100
AcDbArc
 50
34.1990067086
 51
45.4138435042
  0
ARC
  5
39B
330
378
100
AcDbEntity
  8
$DDT_AUDIT_GENERATED_(95)
  6
Continuous
 62
     7
100
AcDbCircle
 10
155.3004489117
 20
293.6026571457
 30
0.0
 40
26.50170596791072
100
AcDbArc
 50
45.482876429
 51
56.650130055
  0
ARC
  5
39C
330
378
100
AcDbEntity
  8
$DDT_AUDIT_GENERATED_(95)
  6
Continuous
 62
     7
100
AcDbCircle
 10
155.2267036502
 20
293.4579062773
 30
0.0
 40
26.66316811528428
100
AcDbArc
 50
56.688756566
 51
78.9203045406
  0
ARC
  5
39D
330
378
100
AcDbEntity
  8
$DDT_AUDIT_GENERATED_(95)
  6
Continuous
 62
     7
100
AcDbCircle
 10
155.1934397407
 20
293.4095766609
 30
0.0
 40
26.45455123776553
100
AcDbArc
 50
78.8828243906
 51
90.0024574151
  0
ARC
  5
39E
330
378
100
AcDbEntity
  8
$DDT_AUDIT_GENERATED_(95)
  6
Continuous
 62
     7
100
AcDbCircle
 10
155.2556686847
 20
293.6230046638
 30
0.0
 40
26.23313704209146
100
AcDbArc
 50
45.4310379055
 51
78.9263073079
  0
ARC
  5
39F
330
378
100
AcDbEntity
  8
$DDT_AUDIT_GENERATED_(95)
  6
Continuous
 62
     7
100
AcDbCircle
 10
155.3656434431
 20
293.7910029214
 30
0.0
 40
26.03630737886997
100
AcDbArc
 50
34.1208935599
 51
45.3440060002
  0
ARC
  5
3A0
330
378
100
AcDbEntity
  8
$DDT_AUDIT_GENERATED_(95)
  6
Continuous
 62
     7
100
AcDbCircle
 10
155.4551551984
 20
293.8958076076
 30
0.0
 40
25.90344110238907
100
AcDbArc
 50
22.8166007752
 51
34.0400434163
  0
ARC
  5
3A1
330
378
100
AcDbEntity
  8
$DDT_AUDIT_GENERATED_(95)
  6
Continuous
 62
     7
100
AcDbCircle
 10
155.5413561935
 20
293.9771759283
 30
0.0
 40
25.79246554455866
100
AcDbArc
 50
11.4559516185
 51
22.7242474668
  0
ARC
  5
3A2
330
378
100
AcDbEntity
  8
$DDT_AUDIT_GENERATED_(95)
  6
Continuous
 62
     7
100
AcDbCircle
 10
155.6407811841
 20
294.0392576774
 30
0.0
 40
25.68272387542946
100
AcDbArc
 50
0.0368683153
 51
11.3642664367
  0
ARC
  5
3A3
330
378
100
AcDbEntity
  8
$DDT_AUDIT_GENERATED_(95)
  6
Continuous
 62
     7
100
AcDbCircle
 10
155.7223653995
 20
294.0680071169
 30
0.0
 40
25.60113726092217
100
AcDbArc
 50
325.9110324565
 51
359.9726440716
  0
LINE
  5
3A4
330
378
100
AcDbEntity
  8
$DDT_AUDIT_GENERATED_(95)
  6
Continuous
 62
     7
100
AcDbLine
 10
176.9244150015
 20
279.7190935089
 30
0.0
 11
175.3948158482
 21
277.6806542884
 31
0.0
  0
LINE
  5
3A5
330
378
100
AcDbEntity
  8
$DDT_AUDIT_GENERATED_(95)
  6
Continuous
 62
     7
100
AcDbLine
 10
175.3948158482
 20
277.6806542884
 30
0.0
 11
173.6799509997
 21
275.8100667567
 31
0.0
  0
LINE
  5
3A6
330
378
100
AcDbEntity
  8
$DDT_AUDIT_GENERATED_(95)
  6
Continuous
 62
     7
100
AcDbLine
 10
173.6799509997
 20
275.8100667567
 30
0.0
 11
171.7644571104
 21
274.0950983046
 31
0.0
  0
LINE
  5
3A7
330
378
100
AcDbEntity
  8
$DDT_AUDIT_GENERATED_(95)
  6
Continuous
 62
     7
100
AcDbLine
 10
171.7644571104
 20
274.0950983046
 30
0.0
 11
169.7202799143
 21
272.5973538337
 31
0.0
  0
LINE
  5
3A8
330
378
100
AcDbEntity
  8
$DDT_AUDIT_GENERATED_(95)
  6
Continuous
 62
     7
100
AcDbLine
 10
169.7202799143
 20
272.5973538337
 30
0.0
 11
167.5029346996
 21
271.2845351568
 31
0.0
  0
LINE
  5
3A9
330
378
100
AcDbEntity
  8
$DDT_AUDIT_GENERATED_(95)
  6
Continuous
 62
     7
100
AcDbLine
 10
167.5029346996
 20
271.2845351568
 30
0.0
 11
165.1894740856
 21
270.2047073874
 31
0.0
  0
ARC
  5
3AA
330
378
100
AcDbEntity
  8
$DDT_AUDIT_GENERATED_(95)
  6
Continuous
 62
     7
100
AcDbCircle
 10
155.2011134371
 20
294.6483200574
 30
0.0
 40
26.40563479271422
100
AcDbArc
 50
281.0952026758
 51
292.2263319289
  0
LINE
  5
3AB
330
378
100
AcDbEntity
  8
$DDT_AUDIT_GENERATED_(95)
  6
Continuous
 62
     7
100
AcDbLine
 10
155.513520955
 20
268.2442623666
 30
0.0
 11
152.6302935384
 21
268.3662456151
 31
0.0
  0
LINE
  5
3AC
330
378
100
AcDbEntity
  8
$DDT_AUDIT_GENERATED_(95)
  6
Continuous
 62
     7
100
AcDbLine
 10
152.63029311
 20
268.3662456559
 30
0.0
 11
150.0768680737
 21
268.7405757906
 31
0.0
  0
ARC
  5
3AD
330
378
100
AcDbEntity
  8
$DDT_AUDIT_GENERATED_(95)
  6
Continuous
 62
     7
100
AcDbCircle
 10
155.2593325244
 20
294.8852613706
 30
0.0
 40
26.65337730677792
100
AcDbArc
 50
247.7840759569
 51
258.788028142
  0
LINE
  5
3AE
330
378
100
AcDbEntity
  8
$DDT_AUDIT_GENERATED_(95)
  6
Continuous
 62
     7
100
AcDbLine
 10
145.1817412957
 20
270.2104832179
 30
0.0
 11
142.8472403006
 21
271.3042237648
 31
0.0
  0
LINE
  5
3AF
330
378
100
AcDbEntity
  8
$DDT_AUDIT_GENERATED_(95)
  6
Continuous
 62
     7
100
AcDbLine
 10
142.8472403006
 20
271.3042237648
 30
0.0
 11
140.6618308929
 21
272.6010798774
 31
0.0
  0
LINE
  5
3B0
330
378
100
AcDbEntity
  8
$DDT_AUDIT_GENERATED_(95)
  6
Continuous
 62
     7
100
AcDbLine
 10
140.6618308929
 20
272.6010798774
 30
0.0
 11
138.6000565743
 21
274.113721037
 31
0.0
  0
LINE
  5
3B1
330
378
100
AcDbEntity
  8
$DDT_AUDIT_GENERATED_(95)
  6
Continuous
 62
     7
100
AcDbLine
 10
138.6000565743
 20
274.113721037
 30
0.0
 11
136.7059326577
 21
275.8113182287
 31
0.0
  0
ARC
  5
3B2
330
378
100
AcDbEntity
  8
$DDT_AUDIT_GENERATED_(95)
  6
Continuous
 62
     7
100
AcDbCircle
 10
154.915596336
 20
294.2303248763
 30
0.0
 40
25.90080417983553
100
AcDbArc
 50
214.0558918166
 51
225.327457642
  0
LINE
  5
3B3
330
378
100
AcDbEntity
  8
$DDT_AUDIT_GENERATED_(95)
  6
Continuous
 62
     7
100
AcDbLine
 10
133.4569953703
 20
279.7258393027
 30
0.0
 11
132.1460813012
 21
281.8882039768
 31
0.0
  0
LINE
  5
3B4
330
378
100
AcDbEntity
  8
$DDT_AUDIT_GENERATED_(95)
  6
Continuous
 62
     7
100
AcDbLine
 10
132.1460813012
 20
281.8882039768
 30
0.0
 11
131.043038738
 21
284.1940581148
 31
0.0
  0
ARC
  5
3B5
330
378
100
AcDbEntity
  8
$DDT_AUDIT_GENERATED_(95)
  6
Continuous
 62
     7
100
AcDbCircle
 10
154.7723077477
 20
294.1089178454
 30
0.0
 40
25.71736089128846
100
AcDbArc
 50
191.3958125708
 51
202.6767573197
  0
ARC
  5
3B6
330
378
100
AcDbEntity
  8
$DDT_AUDIT_GENERATED_(95)
  6
Continuous
 62
     7
100
AcDbCircle
 10
154.5782936304
 20
294.0535804608
 30
0.0
 40
25.51624272819053
100
AcDbArc
 50
168.6217138621
 51
191.3600826989
  0
ARC
  5
3B7
330
378
100
AcDbEntity
  8
$DDT_AUDIT_GENERATED_(95)
  6
Continuous
 62
     7
100
AcDbCircle
 10
154.6117456717
 20
294.0485204208
 30
0.0
 40
25.55003563018357
100
AcDbArc
 50
157.2601751786
 51
168.6253893611
  0
ARC
  5
3B8
330
378
100
AcDbEntity
  8
$DDT_AUDIT_GENERATED_(95)
  6
Continuous
 62
     7
100
AcDbCircle
 10
154.6868708904
 20
294.0262029688
 30
0.0
 40
25.62794948150551
100
AcDbArc
 50
145.9270523257
 51
157.2790816906
  0
ARC
  5
3B9
330
378
100
AcDbEntity
  8
$DDT_AUDIT_GENERATED_(95)
  6
Continuous
 62
     7
100
AcDbCircle
 10
154.8085895392
 20
293.9675762779
 30
0.0
 40
25.7616250385857
100
AcDbArc
 50
134.6691712888
 51
145.9707124163
  0
ARC
  5
3BA
330
378
100
AcDbEntity
  8
$DDT_AUDIT_GENERATED_(95)
  6
Continuous
 62
     7
100
AcDbCircle
 10
155.080592376
 20
293.6970804158
 30
0.0
 40
26.14521720579205
100
AcDbArc
 50
112.2634892184
 51
134.6763603509
  0
ARC
  5
3BB
330
378
100
AcDbEntity
  8
$DDT_AUDIT_GENERATED_(95)
  6
Continuous
 62
     7
100
AcDbCircle
 10
155.1946317702
 20
293.4247098005
 30
0.0
 40
26.44048876581716
100
AcDbArc
 50
101.1486840573
 51
112.2685725116
  0
ARC
  5
3BC
330
378
100
AcDbEntity
  8
$DDT_AUDIT_GENERATED_(95)
  6
Continuous
 62
     7
100
AcDbCircle
 10
155.194575976
 20
293.2800324419
 30
0.0
 40
26.84492709863358
100
AcDbArc
 50
90.0049456909
 51
101.1009963755
  0
ARC
  5
3BD
330
378
100
AcDbEntity
  8
$DDT_AUDIT_GENERATED_(95)
  6
Continuous
 62
     7
100
AcDbCircle
 10
155.1958912146
 20
293.3302969375
 30
0.0
 40
26.79585856606266
100
AcDbArc
 50
101.1244495954
 51
112.2196578753
  0
ARC
  5
3BE
330
378
100
AcDbEntity
  8
$DDT_AUDIT_GENERATED_(95)
  6
Continuous
 62
     7
100
AcDbCircle
 10
155.0748478428
 20
293.6218607193
 30
0.0
 40
26.48017253975274
100
AcDbArc
 50
112.2157685848
 51
134.6012306922
  0
ARC
  5
3BF
330
378
100
AcDbEntity
  8
$DDT_AUDIT_GENERATED_(95)
  6
Continuous
 62
     7
100
AcDbCircle
 10
154.7872873713
 20
293.9099926149
 30
0.0
 40
26.07310372333102
100
AcDbArc
 50
134.595892707
 51
145.8965518513
  0
ARC
  5
3C0
330
378
100
AcDbEntity
  8
$DDT_AUDIT_GENERATED_(95)
  6
Continuous
 62
     7
100
AcDbCircle
 10
154.6389953634
 20
293.9856166628
 30
0.0
 40
25.90792057028147
100
AcDbArc
 50
145.8511561706
 51
157.2190726944
  0
ARC
  5
3C1
330
378
100
AcDbEntity
  8
$DDT_AUDIT_GENERATED_(95)
  6
Continuous
 62
     7
100
AcDbCircle
 10
154.5569411424
 20
294.0110096432
 30
0.0
 40
25.82243619755145
100
AcDbArc
 50
157.2005232592
 51
168.5863755285
  0
ARC
  5
3C2
330
378
100
AcDbEntity
  8
$DDT_AUDIT_GENERATED_(95)
  6
Continuous
 62
     7
100
AcDbCircle
 10
154.5273523847
 20
294.0190100956
 30
0.0
 40
25.79184944633347
100
AcDbArc
 50
168.5907893741
 51
179.9762646451
  0
ARC
  5
3C3
330
378
100
AcDbEntity
  8
$DDT_AUDIT_GENERATED_(95)
  6
Continuous
 62
     7
100
AcDbCircle
 10
154.485970285
 20
294.0227373074
 30
0.0
 40
25.75046607339322
100
AcDbArc
 50
179.9845196907
 51
191.3928238742
  0
ARC
  5
3C4
330
378
100
AcDbEntity
  8
$DDT_AUDIT_GENERATED_(95)
  6
Continuous
 62
     7
100
AcDbCircle
 10
154.6860503222
 20
294.0792888706
 30
0.0
 40
25.95777948499866
100
AcDbArc
 50
191.4279515426
 51
202.7408932108
  0
ARC
  5
3C5
330
378
100
AcDbEntity
  8
$DDT_AUDIT_GENERATED_(95)
  6
Continuous
 62
     7
100
AcDbCircle
 10
155.0426788531
 20
294.2686571099
 30
0.0
 40
26.35991326433008
100
AcDbArc
 50
202.8208539879
 51
208.4461407305
  0
ARC
  5
3C6
330
378
100
AcDbEntity
  8
$DDT_AUDIT_GENERATED_(95)
  6
Continuous
 62
     7
100
AcDbCircle
 10
154.9981672108
 20
294.2861960898
 30
0.0
 40
26.32915558037627
100
AcDbArc
 50
208.5258389672
 51
214.0959955211
  0
ARC
  5
3C7
330
378
100
AcDbEntity
  8
$DDT_AUDIT_GENERATED_(95)
  6
Continuous
 62
     7
100
AcDbCircle
 10
154.8444270999
 20
294.2036467819
 30
0.0
 40
26.15557395918394
100
AcDbArc
 50
214.1350420233
 51
225.4278306244
  0
ARC
  5
3C8
330
378
100
AcDbEntity
  8
$DDT_AUDIT_GENERATED_(95)
  6
Continuous
 62
     7
100
AcDbCircle
 10
154.809727654
 20
294.1466423809
 30
0.0
 40
26.0906180644428
100
AcDbArc
 50
225.3942591366
 51
231.0467518615
  0
ARC
  5
3C9
330
378
100
AcDbEntity
  8
$DDT_AUDIT_GENERATED_(95)
  6
Continuous
 62
     7
100
AcDbCircle
 10
154.8718824696
 20
294.1833262336
 30
0.0
 40
26.15823367449027
100
AcDbArc
 50
230.99139584
 51
236.6587522468
  0
ARC
  5
3CA
330
378
100
AcDbEntity
  8
$DDT_AUDIT_GENERATED_(95)
  6
Continuous
 62
     7
100
AcDbCircle
 10
155.0056759941
 20
294.3341446975
 30
0.0
 40
26.35778121772519
100
AcDbArc
 50
236.5959754735
 51
242.1842973739
  0
ARC
  5
3CB
330
378
100
AcDbEntity
  8
$DDT_AUDIT_GENERATED_(95)
  6
Continuous
 62
     7
100
AcDbCircle
 10
155.3799755775
 20
295.0763267451
 30
0.0
 40
27.18886979761984
100
AcDbArc
 50
242.2164831179
 51
247.7124084332
  0
ARC
  5
3CC
330
378
100
AcDbEntity
  8
$DDT_AUDIT_GENERATED_(95)
  6
Continuous
 62
     7
100
AcDbCircle
 10
155.2573725927
 20
294.9438313579
 30
0.0
 40
27.01984890072137
100
AcDbArc
 50
247.8464116734
 51
258.8236312934
  0
ARC
  5
3CD
330
378
100
AcDbEntity
  8
$DDT_AUDIT_GENERATED_(95)
  6
Continuous
 62
     7
100
AcDbCircle
 10
155.3265125333
 20
295.7218837489
 30
0.0
 40
27.79667090861357
100
AcDbArc
 50
258.9946757748
 51
264.3754760926
  0
SPLINE
  5
3CE
330
378
100
AcDbEntity
  8
$DDT_AUDIT_GENERATED_(95)
  6
Continuous
 62
     7
100
AcDbSpline
210
0.0
220
0.0
230
1.0
 70
     8
 71
     3
 72
    10
 73
     6
 74
     0
 42
0.000000000450461
 43
0.0000000001
 40
0.0
 40
0.0
 40
0.0
 40
0.0
 40
0.1249999999999999
 40
0.1249999999999999
 40
0.2499564329626803
 40
0.2499564329626803
 40
0.2499564329626803
 40
0.2499564329626803
 10
155.1925429033826
 20
203.9548757427539
 30
0.0
 10
156.6536502841945
 20
203.9548759458907
 30
0.0
 10
158.080838320599
 20
203.9259839964322
 30
0.0
 10
160.1049702675933
 20
203.840823617198
 30
0.0
 10
160.6924376538791
 20
203.786390015014
 30
0.0
 10
160.6925593976561
 20
203.7419810559319
 30
0.0
  0
SPLINE
  5
3CF
330
378
100
AcDbEntity
  8
$DDT_AUDIT_GENERATED_(95)
  6
Continuous
 62
     7
100
AcDbSpline
210
0.0
220
0.0
230
1.0
 70
     8
 71
     3
 72
    10
 73
     6
 74
     0
 42
0.0000000004501829
 43
0.0000000001
 40
0.7501930952067716
 40
0.7501930952067716
 40
0.7501930952067716
 40
0.7501930952067716
 40
0.875
 40
0.875
 40
1.0
 40
1.0
 40
1.0
 40
1.0
 10
149.6925595925924
 20
203.7419551863762
 30
0.0
 10
149.6925088157641
 20
203.7863064064105
 30
0.0
 10
150.2677752877826
 20
203.8402550505783
 30
0.0
 10
152.3129252632988
 20
203.9263956513537
 30
0.0
 10
153.7314355225706
 20
203.9548755396171
 30
0.0
 10
155.1925429033826
 20
203.9548757427539
 30
0.0
  0
ARC
  5
3D0
330
378
100
AcDbEntity
  8
$DDT_AUDIT_GENERATED_(95)
  6
Continuous
 62
     7
100
AcDbCircle
 10
155.1925124432
 20
-28.1784339158
 30
0.0
 40
230.9642463045347
100
AcDbArc
 50
88.8841923432
 51
91.1157686486
  0
LINE
  5
3D1
330
378
100
AcDbEntity
  8
$DDT_AUDIT_GENERATED_(95)
  6
Continuous
 62
     7
100
AcDbLine
 10
149.6925594226
 20
265.8465497565
 30
0.0
 11
149.6925594226
 21
203.7423187317
 31
0.0
  0
LINE
  5
3D2
330
378
100
AcDbEntity
  8
$DDT_AUDIT_GENERATED_(95)
  6
Continuous
 62
     7
100
AcDbLine
 10
160.6925594226
 20
203.7421954681
 30
0.0
 11
160.6925594226
 21
265.8471626296
 31
0.0
  0
SPLINE
  5
3D3
330
378
100
AcDbEntity
  8
$DDT_AUDIT_GENERATED_(95)
  6
Continuous
 62
     7
100
AcDbSpline
210
0.0
220
0.0
230
1.0
 70
     8
 71
     3
 72
    10
 73
     6
 74
     0
 42
0.0000000047610707
 43
0.0000000001
 40
0.0
 40
0.0
 40
0.0
 40
0.0
 40
0.040310034824148
 40
0.1031716188767373
 40
0.1450068799849889
 40
0.1450068799849889
 40
0.1450068799849889
 40
0.1450068799849889
 10
160.6925439514152
 20
265.8467855035108
 30
0.0
 10
160.6950695120131
 20
265.8989261885789
 30
0.0
 10
160.698805892468
 20
266.0116536089054
 30
0.0
 10
160.6854912106627
 20
266.0803212513263
 30
0.0
 10
160.6485992968317
 20
266.1113340232579
 30
0.0
 10
160.6295329778307
 20
266.1211277103744
 30
0.0
  0
SPLINE
  5
3D4
330
378
100
AcDbEntity
  8
$DDT_AUDIT_GENERATED_(95)
  6
Continuous
 62
     7
100
AcDbSpline
210
0.0
220
0.0
230
1.0
 70
     8
 71
     3
 72
    13
 73
     9
 74
     0
 42
0.0000000026098045
 43
0.0000000001
 40
0.8615872558420908
 40
0.8615872558420908
 40
0.8615872558420908
 40
0.8615872558420908
 40
0.8890553895916933
 40
0.9257998093549492
 40
0.9555057901995684
 40
0.9795869113083846
 40
0.9901309811315157
 40
1.0
 40
1.0
 40
1.0
 40
1.0
 10
149.5464865685707
 20
266.3430760391392
 30
0.0
 10
149.5413370483803
 20
266.3385049248599
 30
0.0
 10
149.5374859692008
 20
266.3220928808934
 30
0.0
 10
149.5631141377815
 20
266.273070611812
 30
0.0
 10
149.6189665187981
 20
266.1743585614004
 30
0.0
 10
149.6663585649302
 20
266.0527408035155
 30
0.0
 10
149.6891280862391
 20
265.9362388972012
 30
0.0
 10
149.6914135183533
 20
265.879863545178
 30
0.0
 10
149.6925749112224
 20
265.8476592053486
 30
0.0
  0
ARC
  5
3D5
330
378
100
AcDbEntity
  8
$DDT_AUDIT_GENERATED_(95)
  6
Continuous
 62
     7
100
AcDbCircle
 10
150.6821007708
 20
203.722004564
 30
0.0
 40
0.979054903380608
100
AcDbArc
 50
178.8539738803
 51
265.7421071911
  0
ARC
  5
3D6
330
378
100
AcDbEntity
  8
$DDT_AUDIT_GENERATED_(95)
  6
Continuous
 62
     7
100
AcDbCircle
 10
159.6989899017
 20
203.7319616844
 30
0.0
 40
0.9885326102619307
100
AcDbArc
 50
274.6862179124
 51
0.4781294721
  0
ARC
  5
3D7
330
378
100
AcDbEntity
  8
$DDT_AUDIT_GENERATED_(D1)
  6
Continuous
 62
     7
100
AcDbCircle
 10
275.1925594226
 20
293.7669740765
 30
0.0
 40
26.00000000000001
100
AcDbArc
 50
299.4218780787
 51
0.0
  0
ARC
  5
3D8
330
378
100
AcDbEntity
  8
$DDT_AUDIT_GENERATED_(D1)
  6
Continuous
 62
     7
100
AcDbCircle
 10
275.1925594226
 20
293.7669740765
 30
0.0
 40
26.00000000000001
100
AcDbArc
 50
0.0
 51
240.5701250877
  0
ARC
  5
3D9
330
378
100
AcDbEntity
  8
$DDT_AUDIT_GENERATED_(D1)
  6
Continuous
 62
     7
100
AcDbCircle
 10
275.1925594226
 20
293.7669740765
 30
0.0
 40
15.00000000000002
100
AcDbArc
 50
328.4299071509
 51
0.0
  0
ARC
  5
3DA
330
378
100
AcDbEntity
  8
$DDT_AUDIT_GENERATED_(D1)
  6
Continuous
 62
     7
100
AcDbCircle
 10
275.1925594226
 20
293.7669740765
 30
0.0
 40
15.00000000000002
100
AcDbArc
 50
0.0
 51
211.3568238735
  0
LINE
  5
3DB
330
378
100
AcDbEntity
  8
$DDT_AUDIT_GENERATED_(DF)
  6
Continuous
 62
     7
100
AcDbLine
 10
287.9425594226
 20
293.7672324996
 30
0.0
 11
287.9425594226
 21
124.2281150946
 31
0.0
  0
LINE
  5
3DC
330
378
100
AcDbEntity
  8
$DDT_AUDIT_GENERATED_(DF)
  6
Continuous
 62
     7
100
AcDbLine
 10
262.4425594226
 20
293.7672324996
 30
0.0
 11
262.4425594226
 21
124.2281150946
 31
0.0
  0
SPLINE
  5
3DD
330
378
100
AcDbEntity
  8
$DDT_AUDIT_GENERATED_(DF)
  6
Continuous
 62
     7
100
AcDbSpline
210
0.0
220
0.0
230
1.0
 70
     8
 71
     3
 72
     8
 73
     4
 74
     0
 42
0.0000000002481352
 43
0.0000000001
 40
0.0
 40
0.0
 40
0.0
 40
0.0
 40
0.0257957995974621
 40
0.0257957995974621
 40
0.0257957995974621
 40
0.0257957995974621
 10
287.9425594225994
 20
293.7669740764726
 30
0.0
 10
287.9425594225994
 20
294.1145985266148
 30
0.0
 10
287.9284386172221
 20
294.4608782342968
 30
0.0
 10
287.9004017417799
 20
294.8051329345972
 30
0.0
  0
SPLINE
  5
3DE
330
378
100
AcDbEntity
  8
$DDT_AUDIT_GENERATED_(DF)
  6
Continuous
 62
     7
100
AcDbSpline
210
0.0
220
0.0
230
1.0
 70
     8
 71
     3
 72
     8
 73
     4
 74
     0
 42
0.0000000002480534
 43
0.0000000001
 40
0.9742884460698511
 40
0.9742884460698511
 40
0.9742884460698511
 40
0.9742884460698511
 40
1.0
 40
1.0
 40
1.0
 40
1.0
 10
262.4845200364592
 20
294.802088927545
 30
0.0
 10
262.4566147490084
 20
294.4587404937575
 30
0.0
 10
262.4425594225996
 20
294.1134632311703
 30
0.0
 10
262.4425594225997
 20
293.7669740764726
 30
0.0
  0
ARC
  5
3DF
330
378
100
AcDbEntity
  8
$DDT_AUDIT_GENERATED_(DF)
  6
Continuous
 62
     7
100
AcDbCircle
 10
275.1925594226
 20
124.4524515648
 30
0.0
 40
12.75197344930769
100
AcDbArc
 50
181.0080162164
 51
358.9919837836
  0
ARC
  5
3E0
330
378
100
AcDbEntity
  8
$DDT_AUDIT_GENERATED_(DF)
  6
Continuous
 62
     7
100
AcDbCircle
 10
275.1926042695
 20
293.7672855066
 30
0.0
 40
12.74851729199415
100
AcDbArc
 50
4.6693511
 51
175.3461448542
  0
ELLIPSE
  5
3E1
330
378
100
AcDbEntity
  8
$DDT_AUDIT_GENERATED_(E5)
  6
Continuous
 62
     7
100
AcDbEllipse
 10
275.1925594226
 20
123.8675565753
 30
0.0
 11
14.99999999999999
 21
-1.110223024625157E-13
 31
0.0
210
0.0
220
0.0
230
1.0
 40
0.9827156488
 41
2.592698446871755
 42
6.283185307179586
  0
ELLIPSE
  5
3E2
330
378
100
AcDbEntity
  8
$DDT_AUDIT_GENERATED_(E5)
  6
Continuous
 62
     7
100
AcDbEllipse
 10
275.1925594226
 20
123.8675565753
 30
0.0
 11
14.99999999999999
 21
-1.110223024625157E-13
 31
0.0
210
0.0
220
0.0
230
1.0
 40
0.9827156488
 41
0.0000000000000008
 42
0.548351261642719
  0
ELLIPSE
  5
3E3
330
378
100
AcDbEntity
  8
$DDT_AUDIT_GENERATED_(E5)
  6
Continuous
 62
     7
100
AcDbEllipse
 10
275.1925594226
 20
121.0907347325
 30
0.0
 11
15.0
 21
1.665334536937735E-13
 31
0.0
210
0.0
220
0.0
230
1.0
 40
0.9827156488
 41
3.141592653589786
 42
6.283185307179586
  0
LINE
  5
3E4
330
378
100
AcDbEntity
  8
$DDT_AUDIT_GENERATED_(E5)
  6
Continuous
 62
     7
100
AcDbLine
 10
290.1925594226
 20
121.0907347325
 30
0.0
 11
290.1925594226
 21
123.8675565753
 31
0.0
  0
LINE
  5
3E5
330
378
100
AcDbEntity
  8
$DDT_AUDIT_GENERATED_(E5)
  6
Continuous
 62
     7
100
AcDbLine
 10
260.1925594226
 20
123.8675565753
 30
0.0
 11
260.1925594226
 21
121.0907347325
 31
0.0
  0
ENDBLK
  5
3E7
330
378
100
AcDbEntity
  8
0
100
AcDbBlockEnd
  0
ENDSEC
  0
SECTION
  2
ENTITIES
  0
INSERT
  5
5F
330
1F
100
AcDbEntity
  8
Default
100
AcDbBlockReference
  2
SEANNOT_GROUP
 10
0.0
 20
0.0
 30
0.0
  0
INSERT
  5
66
330
1F
100
AcDbEntity
  8
Default
100
AcDbBlockReference
  2
SEANNOT_GROUP1
 10
0.0
 20
0.0
 30
0.0
  0
INSERT
  5
6C
330
1F
100
AcDbEntity
  8
Default
100
AcDbBlockReference
  2
SEANNOT_GROUP2
 10
0.0
 20
0.0
 30
0.0
  0
INSERT
  5
72
330
1F
100
AcDbEntity
  8
Default
100
AcDbBlockReference
  2
SEANNOT_GROUP3
 10
0.0
 20
0.0
 30
0.0
  0
INSERT
  5
7C
330
1F
100
AcDbEntity
  8
Default
100
AcDbBlockReference
  2
SEANNOT_GROUP4
 10
0.0
 20
0.0
 30
0.0
  0
INSERT
  5
86
330
1F
100
AcDbEntity
  8
Default
100
AcDbBlockReference
  2
SE
 10
0.0
 20
0.0
 30
0.0
  0
INSERT
  5
327
330
1F
100
AcDbEntity
  8
Default
100
AcDbBlockReference
  2
SE1
 10
0.0
 20
0.0
 30
0.0
  0
INSERT
  5
379
330
1F
100
AcDbEntity
  8
Default
100
AcDbBlockReference
  2
SE2
 10
0.0
 20
0.0
 30
0.0
  0
TEXT
  5
3E9
330
1F
100
AcDbEntity
  8
Default
  6
Continuous
 62
     7
100
AcDbText
 10
5.9362635081
 20
53.4225120485
 30
0.0
 40
10.0
  1
Grohe AG^J
  7
SEACAD_seiso_ttf
 11
5.9362635081
 21
63.4225120485
 31
0.0
100
AcDbText
 73
     3
  0
TEXT
  5
3EA
330
1F
100
AcDbEntity
  8
Default
  6
Continuous
 62
     7
100
AcDbText
 10
5.9362635081
 20
37.0588756849
 30
0.0
 40
10.0
  1
 
  7
SEACAD_seiso_ttf
 11
5.9362635081
 21
47.0588756849
 31
0.0
100
AcDbText
 73
     3
  0
TEXT
  5
3EB
330
1F
100
AcDbEntity
  8
Default
  6
Continuous
 62
     7
100
AcDbText
 10
5.9362635081
 20
20.6952393213
 30
0.0
 40
10.0
  1
ecn: 
  7
SEACAD_seiso_ttf
 11
5.9362635081
 21
30.6952393213
 31
0.0
100
AcDbText
 73
     3
  0
TEXT
  5
3EC
330
1F
100
AcDbEntity
  8
Default
  6
Continuous
 62
     7
100
AcDbText
 10
5.9362635081
 20
4.3316029576
 30
0.0
 40
10.0
  1
unit: mm
  7
SEACAD_seiso_ttf
 11
5.9362635081
 21
14.3316029576
 31
0.0
100
AcDbText
 73
     3
  0
LINE
  5
3ED
330
1F
100
AcDbEntity
  8
Default
  6
Continuous
 62
     7
100
AcDbLine
 10
0.0
 20
0.0
 30
0.0
 11
100.0
 21
0.0
 31
0.0
  0
LINE
  5
3EE
330
1F
100
AcDbEntity
  8
Default
  6
Continuous
 62
     7
100
AcDbLine
 10
0.0
 20
0.0
 30
0.0
 11
0.0
 21
100.0
 31
0.0
  0
TEXT
  5
3EF
330
1F
100
AcDbEntity
  8
Default
  6
Continuous
 62
     7
100
AcDbText
 10
24.3923665681
 20
-18.2375342018
 30
0.0
 40
10.0
  1
100 mm
  7
SEACAD_seiso_ttf
 11
24.3923665681
 21
-8.2375342018
 31
0.0
100
AcDbText
 73
     3
  0
TEXT
  5
3F0
330
1F
100
AcDbEntity
  8
Default
  6
Continuous
 62
     7
100
AcDbText
 10
-7.6150308803
 20
24.6231930421
 30
0.0
 40
10.0
  1
100 mm
 50
90.0
  7
SEACAD_seiso_ttf
 11
-17.6150308803
 21
24.6231930421
 31
0.0
100
AcDbText
 73
     3
  0
TEXT
  5
3F1
330
1F
100
AcDbEntity
  8
Default
  6
Continuous
 62
     7
100
AcDbText
 10
28.4878128572
 20
20.0907663715
 30
0.0
 40
10.0
  1
219758
  7
SEACAD_seiso_ttf
 11
28.4878128572
 21
30.0907663715
 31
0.0
100
AcDbText
 73
     3
  0
TEXT
  5
3F2
330
1F
100
AcDbEntity
  8
Default
  6
Continuous
 62
     7
100
AcDbText
 10
5.9012241913
 20
36.7242780188
 30
0.0
 40
10.0
  1
34273001
  7
SEACAD_seiso_ttf
 11
5.9012241913
 21
46.7242780188
 31
0.0
100
AcDbText
 73
     3
  0
ENDSEC
  0
SECTION
  2
OBJECTS
  0
DICTIONARY
  5
C
330
0
100
AcDbDictionary
281
     1
  3
ACAD_GROUP
350
D
  3
ACAD_LAYOUT
350
1A
  3
ACAD_MLEADERSTYLE
350
3F6
  3
ACAD_MLINESTYLE
350
17
  3
ACAD_PLOTSETTINGS
350
19
  3
ACAD_PLOTSTYLENAME
350
E
  3
ACAD_SCALELIST
350
3B
  3
ACAD_TABLESTYLE
350
3F5
  3
ACAD_VISUALSTYLE
350
2A
  3
AcDbVariableDictionary
350
3F3
  0
DICTIONARY
  5
D
102
{ACAD_REACTORS
330
C
102
}
330
C
100
AcDbDictionary
281
     1
  0
DICTIONARY
  5
1A
102
{ACAD_REACTORS
330
C
102
}
330
C
100
AcDbDictionary
281
     1
  3
Layout1
350
1E
  3
Model
350
22
  0
DICTIONARY
  5
3F6
102
{ACAD_REACTORS
330
C
102
}
330
C
100
AcDbDictionary
281
     1
  0
DICTIONARY
  5
17
102
{ACAD_REACTORS
330
C
102
}
330
C
100
AcDbDictionary
281
     1
  3
Standard
350
18
  0
DICTIONARY
  5
19
102
{ACAD_REACTORS
330
C
102
}
330
C
100
AcDbDictionary
281
     1
  0
ACDBDICTIONARYWDFLT
  5
E
102
{ACAD_REACTORS
330
C
102
}
330
C
100
AcDbDictionary
281
     1
  3
Normal
350
F
100
AcDbDictionaryWithDefault
340
F
  0
DICTIONARY
  5
3B
102
{ACAD_REACTORS
330
C
102
}
330
C
100
AcDbDictionary
281
     1
  3
A0
350
3C
  3
A1
350
3D
  3
A2
350
3E
  3
A3
350
3F
  3
A4
350
40
  3
A5
350
41
  3
A6
350
42
  3
A7
350
43
  3
A8
350
44
  3
A9
350
45
  3
B0
350
46
  3
B1
350
47
  3
B2
350
48
  3
B3
350
49
  3
B4
350
4A
  3
B5
350
4B
  3
B6
350
4C
  3
B7
350
4D
  3
B8
350
4E
  3
B9
350
4F
  3
C0
350
50
  3
C1
350
51
  3
C2
350
52
  3
C3
350
53
  3
C4
350
54
  3
C5
350
55
  3
C6
350
56
  3
C7
350
57
  3
C8
350
58
  3
C9
350
59
  3
D0
350
5A
  3
D1
350
5B
  3
D2
350
5C
  0
DICTIONARY
  5
3F5
102
{ACAD_REACTORS
330
C
102
}
330
C
100
AcDbDictionary
281
     1
  0
DICTIONARY
  5
2A
102
{ACAD_REACTORS
330
C
102
}
330
C
100
AcDbDictionary
281
     1
  3
2dWireframe
350
2F
  3
3D Hidden
350
31
  3
3dWireframe
350
30
  3
Basic
350
32
  3
Brighten
350
36
  3
ColorChange
350
3A
  3
Conceptual
350
34
  3
Dim
350
35
  3
Facepattern
350
39
  3
Flat
350
2B
  3
FlatWithEdges
350
2C
  3
Gouraud
350
2D
  3
GouraudWithEdges
350
2E
  3
Linepattern
350
38
  3
Realistic
350
33
  3
Thicken
350
37
  0
DICTIONARY
  5
3F3
102
{ACAD_REACTORS
330
C
102
}
330
C
100
AcDbDictionary
281
     1
  3
CANNOSCALE
350
3F4
  3
PSOLHEIGHT
350
3F8
  3
PSOLWIDTH
350
3F7
  0
LAYOUT
  5
1E
102
{ACAD_REACTORS
330
1A
102
}
330
1A
100
AcDbPlotSettings
  1

  2
none_device
  4

  6

 40
0.0
 41
0.0
 42
0.0
 43
0.0
 44
0.0
 45
0.0
 46
0.0
 47
0.0
 48
0.0
 49
0.0
140
0.0
141
0.0
142
1.0
143
1.0
 70
   688
 72
     0
 73
     0
 74
     5
  7

 75
    16
147
1.0
148
0.0
149
0.0
100
AcDbLayout
  1
Layout1
 70
     1
 71
     1
 10
0.0
 20
0.0
 11
1682.0
 21
2378.0
 12
0.0
 22
0.0
 32
0.0
 14
0.0
 24
0.0
 34
0.0
 15
1682.0
 25
2378.0
 35
0.0
146
0.0
 13
0.0
 23
0.0
 33
0.0
 16
1.0
 26
0.0
 36
0.0
 17
0.0
 27
1.0
 37
0.0
 76
     0
330
1B
  0
LAYOUT
  5
22
102
{ACAD_REACTORS
330
1A
102
}
330
1A
100
AcDbPlotSettings
  1

  2
none_device
  4

  6

 40
0.0
 41
0.0
 42
0.0
 43
0.0
 44
0.0
 45
0.0
 46
0.0
 47
0.0
 48
0.0
 49
0.0
140
0.0
141
0.0
142
1.0
143
1.0
 70
  1712
 72
     0
 73
     0
 74
     0
  7

 75
     0
147
1.0
148
0.0
149
0.0
100
AcDbLayout
  1
Model
 70
     1
 71
     0
 10
0.0
 20
0.0
 11
1682.0
 21
2378.0
 12
0.0
 22
0.0
 32
0.0
 14
0.0
 24
0.0
 34
0.0
 15
1682.0
 25
2378.0
 35
0.0
146
0.0
 13
0.0
 23
0.0
 33
0.0
 16
1.0
 26
0.0
 36
0.0
 17
0.0
 27
1.0
 37
0.0
 76
     0
330
1F
331
29
  0
MLINESTYLE
  5
18
102
{ACAD_REACTORS
330
17
102
}
330
17
100
AcDbMlineStyle
  2
Standard
 70
     0
  3

 62
   256
 51
90.0
 52
90.0
 71
     2
 49
0.5
 62
   256
  6
BYLAYER
 49
-0.5
 62
   256
  6
BYLAYER
  0
ACDBPLACEHOLDER
  5
F
102
{ACAD_REACTORS
330
E
102
}
330
E
  0
SCALE
  5
3C
102
{ACAD_REACTORS
330
3B
102
}
330
3B
100
AcDbScale
 70
     0
300
1:1
140
1.0
141
1.0
290
     1
  0
SCALE
  5
3D
102
{ACAD_REACTORS
330
3B
102
}
330
3B
100
AcDbScale
 70
     0
300
1:2
140
1.0
141
2.0
290
     0
  0
SCALE
  5
3E
102
{ACAD_REACTORS
330
3B
102
}
330
3B
100
AcDbScale
 70
     0
300
1:4
140
1.0
141
4.0
290
     0
  0
SCALE
  5
3F
102
{ACAD_REACTORS
330
3B
102
}
330
3B
100
AcDbScale
 70
     0
300
1:5
140
1.0
141
5.0
290
     0
  0
SCALE
  5
40
102
{ACAD_REACTORS
330
3B
102
}
330
3B
100
AcDbScale
 70
     0
300
1:8
140
1.0
141
8.0
290
     0
  0
SCALE
  5
41
102
{ACAD_REACTORS
330
3B
102
}
330
3B
100
AcDbScale
 70
     0
300
1:10
140
1.0
141
10.0
290
     0
  0
SCALE
  5
42
102
{ACAD_REACTORS
330
3B
102
}
330
3B
100
AcDbScale
 70
     0
300
1:16
140
1.0
141
16.0
290
     0
  0
SCALE
  5
43
102
{ACAD_REACTORS
330
3B
102
}
330
3B
100
AcDbScale
 70
     0
300
1:20
140
1.0
141
20.0
290
     0
  0
SCALE
  5
44
102
{ACAD_REACTORS
330
3B
102
}
330
3B
100
AcDbScale
 70
     0
300
1:30
140
1.0
141
30.0
290
     0
  0
SCALE
  5
45
102
{ACAD_REACTORS
330
3B
102
}
330
3B
100
AcDbScale
 70
     0
300
1:40
140
1.0
141
40.0
290
     0
  0
SCALE
  5
46
102
{ACAD_REACTORS
330
3B
102
}
330
3B
100
AcDbScale
 70
     0
300
1:50
140
1.0
141
50.0
290
     0
  0
SCALE
  5
47
102
{ACAD_REACTORS
330
3B
102
}
330
3B
100
AcDbScale
 70
     0
300
1:100
140
1.0
141
100.0
290
     0
  0
SCALE
  5
48
102
{ACAD_REACTORS
330
3B
102
}
330
3B
100
AcDbScale
 70
     0
300
2:1
140
2.0
141
1.0
290
     0
  0
SCALE
  5
49
102
{ACAD_REACTORS
330
3B
102
}
330
3B
100
AcDbScale
 70
     0
300
4:1
140
4.0
141
1.0
290
     0
  0
SCALE
  5
4A
102
{ACAD_REACTORS
330
3B
102
}
330
3B
100
AcDbScale
 70
     0
300
8:1
140
8.0
141
1.0
290
     0
  0
SCALE
  5
4B
102
{ACAD_REACTORS
330
3B
102
}
330
3B
100
AcDbScale
 70
     0
300
10:1
140
10.0
141
1.0
290
     0
  0
SCALE
  5
4C
102
{ACAD_REACTORS
330
3B
102
}
330
3B
100
AcDbScale
 70
     0
300
100:1
140
100.0
141
1.0
290
     0
  0
SCALE
  5
4D
102
{ACAD_REACTORS
330
3B
102
}
330
3B
100
AcDbScale
 70
     0
300
1/128" = 1'-0"
140
0.0078125
141
12.0
290
     0
  0
SCALE
  5
4E
102
{ACAD_REACTORS
330
3B
102
}
330
3B
100
AcDbScale
 70
     0
300
1/64" = 1'-0"
140
0.015625
141
12.0
290
     0
  0
SCALE
  5
4F
102
{ACAD_REACTORS
330
3B
102
}
330
3B
100
AcDbScale
 70
     0
300
1/32" = 1'-0"
140
0.03125
141
12.0
290
     0
  0
SCALE
  5
50
102
{ACAD_REACTORS
330
3B
102
}
330
3B
100
AcDbScale
 70
     0
300
1/16" = 1'-0"
140
0.0625
141
12.0
290
     0
  0
SCALE
  5
51
102
{ACAD_REACTORS
330
3B
102
}
330
3B
100
AcDbScale
 70
     0
300
3/32" = 1'-0"
140
0.09375
141
12.0
290
     0
  0
SCALE
  5
52
102
{ACAD_REACTORS
330
3B
102
}
330
3B
100
AcDbScale
 70
     0
300
1/8" = 1'-0"
140
0.125
141
12.0
290
     0
  0
SCALE
  5
53
102
{ACAD_REACTORS
330
3B
102
}
330
3B
100
AcDbScale
 70
     0
300
3/16" = 1'-0"
140
0.1875
141
12.0
290
     0
  0
SCALE
  5
54
102
{ACAD_REACTORS
330
3B
102
}
330
3B
100
AcDbScale
 70
     0
300
1/4" = 1'-0"
140
0.25
141
12.0
290
     0
  0
SCALE
  5
55
102
{ACAD_REACTORS
330
3B
102
}
330
3B
100
AcDbScale
 70
     0
300
3/8" = 1'-0"
140
0.375
141
12.0
290
     0
  0
SCALE
  5
56
102
{ACAD_REACTORS
330
3B
102
}
330
3B
100
AcDbScale
 70
     0
300
1/2" = 1'-0"
140
0.5
141
12.0
290
     0
  0
SCALE
  5
57
102
{ACAD_REACTORS
330
3B
102
}
330
3B
100
AcDbScale
 70
     0
300
3/4" = 1'-0"
140
0.75
141
12.0
290
     0
  0
SCALE
  5
58
102
{ACAD_REACTORS
330
3B
102
}
330
3B
100
AcDbScale
 70
     0
300
1" = 1'-0"
140
1.0
141
12.0
290
     0
  0
SCALE
  5
59
102
{ACAD_REACTORS
330
3B
102
}
330
3B
100
AcDbScale
 70
     0
300
1-1/2" = 1'-0"
140
1.5
141
12.0
290
     0
  0
SCALE
  5
5A
102
{ACAD_REACTORS
330
3B
102
}
330
3B
100
AcDbScale
 70
     0
300
3" = 1'-0"
140
3.0
141
12.0
290
     0
  0
SCALE
  5
5B
102
{ACAD_REACTORS
330
3B
102
}
330
3B
100
AcDbScale
 70
     0
300
6" = 1'-0"
140
6.0
141
12.0
290
     0
  0
SCALE
  5
5C
102
{ACAD_REACTORS
330
3B
102
}
330
3B
100
AcDbScale
 70
     0
300
1'-0" = 1'-0"
140
12.0
141
12.0
290
     0
  0
VISUALSTYLE
  5
2F
102
{ACAD_REACTORS
330
2A
102
}
330
2A
100
AcDbVisualStyle
  2
2dWireframe
 70
     4
 71
     0
 72
     2
 73
     0
 90
        0
 40
-0.6
 41
-30.0
 62
     5
 63
     7
 74
     1
 91
        4
 64
     7
 65
   257
 75
     1
175
     1
 42
1.0
 92
        0
 66
   257
 43
1.0
 76
     1
 77
     6
 78
     2
 67
     7
 79
     5
170
     0
171
     0
290
     0
174
     0
 93
        1
 44
0.0
173
     0
291
     0
 45
0.0
1001
ACAD
1000
AcDbSavedByObjectVersion
1070
     0
  0
VISUALSTYLE
  5
31
102
{ACAD_REACTORS
330
2A
102
}
330
2A
100
AcDbVisualStyle
  2
3D Hidden
 70
     6
 71
     1
 72
     2
 73
     2
 90
        0
 40
-0.6
 41
-30.0
 62
     5
 63
     7
 74
     2
 91
        2
 64
     7
 65
   257
 75
     2
175
     1
 42
40.0
 92
        0
 66
   257
 43
1.0
 76
     1
 77
     6
 78
     2
 67
     7
 79
     3
170
     0
171
     0
290
     0
174
     0
 93
        1
 44
0.0
173
     0
291
     0
 45
0.0
1001
ACAD
1000
AcDbSavedByObjectVersion
1070
     0
  0
VISUALSTYLE
  5
30
102
{ACAD_REACTORS
330
2A
102
}
330
2A
100
AcDbVisualStyle
  2
3dWireframe
 70
     5
 71
     0
 72
     2
 73
     0
 90
        0
 40
-0.6
 41
-30.0
 62
     5
 63
     7
 74
     1
 91
        4
 64
     7
 65
   257
 75
     1
175
     1
 42
1.0
 92
        0
 66
   257
 43
1.0
 76
     1
 77
     6
 78
     2
 67
     7
 79
     5
170
     0
171
     0
290
     0
174
     0
 93
        1
 44
0.0
173
     0
291
     0
 45
0.0
1001
ACAD
1000
AcDbSavedByObjectVersion
1070
     0
  0
VISUALSTYLE
  5
32
102
{ACAD_REACTORS
330
2A
102
}
330
2A
100
AcDbVisualStyle
  2
Basic
 70
     7
 71
     1
 72
     0
 73
     1
 90
        0
 40
-0.6
 41
-30.0
 62
     5
 63
     7
 74
     0
 91
        4
 64
     7
 65
   257
 75
     1
175
     1
 42
1.0
 92
        8
 66
     7
 43
1.0
 76
     1
 77
     6
 78
     2
 67
     7
 79
     5
170
     0
171
     0
290
     0
174
     0
 93
        1
 44
0.0
173
     0
291
     1
 45
0.0
1001
ACAD
1000
AcDbSavedByObjectVersion
1070
     0
  0
VISUALSTYLE
  5
36
102
{ACAD_REACTORS
330
2A
102
}
330
2A
100
AcDbVisualStyle
  2
Brighten
 70
    12
 71
     2
 72
     2
 73
     0
 90
        0
 40
-0.6
 41
-30.0
 62
     5
 63
     7
 74
     1
 91
        4
 64
     7
 65
   257
 75
     1
175
     1
 42
1.0
 92
        8
 66
     7
 43
1.0
 76
     1
 77
     6
 78
     2
 67
     7
 79
     5
170
     0
171
     0
290
     0
174
     0
 93
        1
 44
50.0
173
     0
291
     1
 45
0.0
1001
ACAD
1000
AcDbSavedByObjectVersion
1070
     0
  0
VISUALSTYLE
  5
3A
102
{ACAD_REACTORS
330
2A
102
}
330
2A
100
AcDbVisualStyle
  2
ColorChange
 70
    16
 71
     2
 72
     2
 73
     3
 90
        0
 40
-0.6
 41
-30.0
 62
     5
 63
     8
 74
     1
 91
        4
 64
     7
 65
   257
 75
     1
175
     1
 42
1.0
 92
        8
 66
     8
 43
1.0
 76
     1
 77
     6
 78
     2
 67
     7
 79
     5
170
     0
171
     0
290
     0
174
     0
 93
        1
 44
0.0
173
     0
291
     1
 45
0.0
1001
ACAD
1000
AcDbSavedByObjectVersion
1070
     0
  0
VISUALSTYLE
  5
34
102
{ACAD_REACTORS
330
2A
102
}
330
2A
100
AcDbVisualStyle
  2
Conceptual
 70
     9
 71
     3
 72
     2
 73
     0
 90
        0
 40
-0.6
 41
-30.0
 62
     5
 63
     7
 74
     2
 91
        2
 64
     7
 65
   257
 75
     1
175
     1
 42
40.0
 92
        8
 66
     7
 43
1.0
 76
     1
 77
     6
 78
     2
 67
     7
 79
     3
170
     0
171
     0
290
     0
174
     0
 93
        1
 44
0.0
173
     0
291
     0
 45
0.0
1001
ACAD
1000
AcDbSavedByObjectVersion
1070
     0
  0
VISUALSTYLE
  5
35
102
{ACAD_REACTORS
330
2A
102
}
330
2A
100
AcDbVisualStyle
  2
Dim
 70
    11
 71
     2
 72
     2
 73
     0
 90
        0
 40
-0.6
 41
-30.0
 62
     5
 63
     7
 74
     1
 91
        4
 64
     7
 65
   257
 75
     1
175
     1
 42
1.0
 92
        8
 66
     7
 43
1.0
 76
     1
 77
     6
 78
     2
 67
     7
 79
     5
170
     0
171
     0
290
     0
174
     0
 93
        1
 44
-50.0
173
     0
291
     1
 45
0.0
1001
ACAD
1000
AcDbSavedByObjectVersion
1070
     0
  0
VISUALSTYLE
  5
39
102
{ACAD_REACTORS
330
2A
102
}
330
2A
100
AcDbVisualStyle
  2
Facepattern
 70
    15
 71
     2
 72
     2
 73
     0
 90
        0
 40
-0.6
 41
-30.0
 62
     5
 63
     7
 74
     1
 91
        4
 64
     7
 65
   257
 75
     1
175
     1
 42
1.0
 92
        8
 66
     7
 43
1.0
 76
     1
 77
     6
 78
     2
 67
     7
 79
     5
170
     0
171
     0
290
     0
174
     0
 93
        1
 44
0.0
173
     0
291
     1
 45
0.0
1001
ACAD
1000
AcDbSavedByObjectVersion
1070
     0
  0
VISUALSTYLE
  5
2B
102
{ACAD_REACTORS
330
2A
102
}
330
2A
100
AcDbVisualStyle
  2
Flat
 70
     0
 71
     2
 72
     1
 73
     1
 90
        2
 40
-0.6
 41
30.0
 62
     5
 63
     7
 74
     0
 91
        4
 64
     7
 65
   257
 75
     1
175
     1
 42
1.0
 92
        8
 66
     7
 43
1.0
 76
     1
 77
     6
 78
     2
 67
     7
 79
     5
170
     0
171
     0
290
     0
174
     0
 93
       13
 44
0.0
173
     0
291
     1
 45
0.0
1001
ACAD
1000
AcDbSavedByObjectVersion
1070
     0
  0
VISUALSTYLE
  5
2C
102
{ACAD_REACTORS
330
2A
102
}
330
2A
100
AcDbVisualStyle
  2
FlatWithEdges
 70
     1
 71
     2
 72
     1
 73
     1
 90
        2
 40
-0.6
 41
30.0
 62
     5
 63
     7
 74
     1
 91
        4
 64
     7
 65
   257
 75
     1
175
     1
 42
1.0
 92
        0
 66
   257
 43
1.0
 76
     1
 77
     6
 78
     2
 67
     7
 79
     5
170
     0
171
     0
290
     0
174
     0
 93
       13
 44
0.0
173
     0
291
     1
 45
0.0
1001
ACAD
1000
AcDbSavedByObjectVersion
1070
     0
  0
VISUALSTYLE
  5
2D
102
{ACAD_REACTORS
330
2A
102
}
330
2A
100
AcDbVisualStyle
  2
Gouraud
 70
     2
 71
     2
 72
     2
 73
     1
 90
        2
 40
-0.6
 41
30.0
 62
     5
 63
     7
 74
     0
 91
        4
 64
     7
 65
   257
 75
     1
175
     1
 42
1.0
 92
        0
 66
     7
 43
1.0
 76
     1
 77
     6
 78
     2
 67
     7
 79
     5
170
     0
171
     0
290
     0
174
     0
 93
       13
 44
0.0
173
     0
291
     1
 45
0.0
1001
ACAD
1000
AcDbSavedByObjectVersion
1070
     0
  0
VISUALSTYLE
  5
2E
102
{ACAD_REACTORS
330
2A
102
}
330
2A
100
AcDbVisualStyle
  2
GouraudWithEdges
 70
     3
 71
     2
 72
     2
 73
     1
 90
        2
 40
-0.6
 41
30.0
 62
     5
 63
     7
 74
     1
 91
        4
 64
     7
 65
   257
 75
     1
175
     1
 42
1.0
 92
        0
 66
   257
 43
1.0
 76
     1
 77
     6
 78
     2
 67
     7
 79
     5
170
     0
171
     0
290
     0
174
     0
 93
       13
 44
0.0
173
     0
291
     1
 45
0.0
1001
ACAD
1000
AcDbSavedByObjectVersion
1070
     0
  0
VISUALSTYLE
  5
38
102
{ACAD_REACTORS
330
2A
102
}
330
2A
100
AcDbVisualStyle
  2
Linepattern
 70
    14
 71
     2
 72
     2
 73
     0
 90
        0
 40
-0.6
 41
-30.0
 62
     5
 63
     7
 74
     1
 91
        4
 64
     7
 65
   257
 75
     7
175
     7
 42
1.0
 92
        8
 66
     7
 43
1.0
 76
     1
 77
     6
 78
     2
 67
     7
 79
     5
170
     0
171
     0
290
     0
174
     0
 93
        1
 44
0.0
173
     0
291
     1
 45
0.0
1001
ACAD
1000
AcDbSavedByObjectVersion
1070
     0
  0
VISUALSTYLE
  5
33
102
{ACAD_REACTORS
330
2A
102
}
330
2A
100
AcDbVisualStyle
  2
Realistic
 70
     8
 71
     2
 72
     2
 73
     0
 90
        0
 40
-0.6
 41
-30.0
 62
     5
 63
     7
 74
     1
 91
        0
 64
     7
 65
   257
 75
     1
175
     1
 42
1.0
 92
        8
 66
     8
 43
1.0
 76
     1
 77
     6
 78
     2
 67
     7
 79
     5
170
     0
171
     0
290
     0
174
     0
 93
       13
 44
0.0
173
     0
291
     0
 45
0.0
1001
ACAD
1000
AcDbSavedByObjectVersion
1070
     0
  0
VISUALSTYLE
  5
37
102
{ACAD_REACTORS
330
2A
102
}
330
2A
100
AcDbVisualStyle
  2
Thicken
 70
    13
 71
     2
 72
     2
 73
     0
 90
        0
 40
-0.6
 41
-30.0
 62
     5
 63
     7
 74
     1
 91
        4
 64
     7
 65
   257
 75
     1
175
     1
 42
1.0
 92
       12
 66
     7
 43
1.0
 76
     1
 77
     6
 78
     2
 67
     7
 79
     5
170
     0
171
     0
290
     0
174
     0
 93
        1
 44
0.0
173
     0
291
     1
 45
0.0
1001
ACAD
1000
AcDbSavedByObjectVersion
1070
     0
  0
DICTIONARYVAR
  5
3F4
102
{ACAD_REACTORS
330
3F3
102
}
330
3F3
100
DictionaryVariables
280
     0
  1
1:1
  0
DICTIONARYVAR
  5
3F8
102
{ACAD_REACTORS
330
3F3
102
}
330
3F3
100
DictionaryVariables
280
     0
  1
80.000000
  0
DICTIONARYVAR
  5
3F7
102
{ACAD_REACTORS
330
3F3
102
}
330
3F3
100
DictionaryVariables
280
     0
  1
5.000000
  0
ENDSEC
  0
EOF
