  0
SECTION
  2
HEADER
  9
$ACADVER
  1
AC1015
  9
$ACADMAINTVER
 70
     6
  9
$DWGCODEPAGE
  3
ANSI_1252
  9
$INSBASE
 10
0.0
 20
0.0
 30
0.0
  9
$EXTMIN
 10
0.0
 20
0.0
 30
0.0
  9
$EXTMAX
 10
1682.0
 20
2378.0
 30
0.0
  9
$LIMMIN
 10
0.0
 20
0.0
  9
$LIMMAX
 10
1682.0
 20
2378.0
  9
$ORTHOMODE
 70
     0
  9
$REGENMODE
 70
     1
  9
$FILLMODE
 70
     1
  9
$QTEXTMODE
 70
     0
  9
$MIRRTEXT
 70
     1
  9
$LTSCALE
 40
1.0
  9
$ATTMODE
 70
     1
  9
$TEXTSIZE
 40
2.5
  9
$TRACEWID
 40
1.0
  9
$TEXTSTYLE
  7
Standard
  9
$CLAYER
  8
0
  9
$CELTYPE
  6
ByLayer
  9
$CECOLOR
 62
   256
  9
$CELTSCALE
 40
1.0
  9
$DISPSILH
 70
     0
  9
$DIMSCALE
 40
1.0
  9
$DIMASZ
 40
2.5
  9
$DIMEXO
 40
0.625
  9
$DIMDLI
 40
3.75
  9
$DIMRND
 40
0.0
  9
$DIMDLE
 40
0.0
  9
$DIMEXE
 40
1.25
  9
$DIMTP
 40
0.0
  9
$DIMTM
 40
0.0
  9
$DIMTXT
 40
2.5
  9
$DIMCEN
 40
2.5
  9
$DIMTSZ
 40
0.0
  9
$DIMTOL
 70
     0
  9
$DIMLIM
 70
     0
  9
$DIMTIH
 70
     0
  9
$DIMTOH
 70
     0
  9
$DIMSE1
 70
     0
  9
$DIMSE2
 70
     0
  9
$DIMTAD
 70
     1
  9
$DIMZIN
 70
     8
  9
$DIMBLK
  1

  9
$DIMASO
 70
     1
  9
$DIMSHO
 70
     1
  9
$DIMPOST
  1

  9
$DIMAPOST
  1

  9
$DIMALT
 70
     0
  9
$DIMALTD
 70
     3
  9
$DIMALTF
 40
0.0393700787
  9
$DIMLFAC
 40
1.0
  9
$DIMTOFL
 70
     1
  9
$DIMTVP
 40
0.0
  9
$DIMTIX
 70
     0
  9
$DIMSOXD
 70
     0
  9
$DIMSAH
 70
     0
  9
$DIMBLK1
  1

  9
$DIMBLK2
  1

  9
$DIMSTYLE
  2
ISO-25
  9
$DIMCLRD
 70
     0
  9
$DIMCLRE
 70
     0
  9
$DIMCLRT
 70
     0
  9
$DIMTFAC
 40
1.0
  9
$DIMGAP
 40
0.625
  9
$DIMJUST
 70
     0
  9
$DIMSD1
 70
     0
  9
$DIMSD2
 70
     0
  9
$DIMTOLJ
 70
     0
  9
$DIMTZIN
 70
     8
  9
$DIMALTZ
 70
     0
  9
$DIMALTTZ
 70
     0
  9
$DIMUPT
 70
     0
  9
$DIMDEC
 70
     2
  9
$DIMTDEC
 70
     2
  9
$DIMALTU
 70
     2
  9
$DIMALTTD
 70
     3
  9
$DIMTXSTY
  7
Standard
  9
$DIMAUNIT
 70
     0
  9
$DIMADEC
 70
     0
  9
$DIMALTRND
 40
0.0
  9
$DIMAZIN
 70
     0
  9
$DIMDSEP
 70
    44
  9
$DIMATFIT
 70
     3
  9
$DIMFRAC
 70
     0
  9
$DIMLDRBLK
  1

  9
$DIMLUNIT
 70
     2
  9
$DIMLWD
 70
    -2
  9
$DIMLWE
 70
    -2
  9
$DIMTMOVE
 70
     0
  9
$LUNITS
 70
     2
  9
$LUPREC
 70
     4
  9
$SKETCHINC
 40
1.0
  9
$FILLETRAD
 40
10.0
  9
$AUNITS
 70
     0
  9
$AUPREC
 70
     0
  9
$MENU
  1
.
  9
$ELEVATION
 40
0.0
  9
$PELEVATION
 40
0.0
  9
$THICKNESS
 40
0.0
  9
$LIMCHECK
 70
     0
  9
$CHAMFERA
 40
10.0
  9
$CHAMFERB
 40
10.0
  9
$CHAMFERC
 40
20.0
  9
$CHAMFERD
 40
0.0
  9
$SKPOLY
 70
     0
  9
$TDCREATE
 40
2455456.36210125
  9
$TDUCREATE
 40
2455456.278767917
  9
$TDUPDATE
 40
2455456.362101262
  9
$TDUUPDATE
 40
2455456.278767928
  9
$TDINDWG
 40
0.0000000116
  9
$TDUSRTIMER
 40
0.0000000116
  9
$USRTIMER
 70
     1
  9
$ANGBASE
 50
0.0
  9
$ANGDIR
 70
     0
  9
$PDMODE
 70
     0
  9
$PDSIZE
 40
0.0
  9
$PLINEWID
 40
0.0
  9
$SPLFRAME
 70
     0
  9
$SPLINETYPE
 70
     6
  9
$SPLINESEGS
 70
     8
  9
$HANDSEED
  5
10A
  9
$SURFTAB1
 70
     6
  9
$SURFTAB2
 70
     6
  9
$SURFTYPE
 70
     6
  9
$SURFU
 70
     6
  9
$SURFV
 70
     6
  9
$UCSBASE
  2

  9
$UCSNAME
  2

  9
$UCSORG
 10
0.0
 20
0.0
 30
0.0
  9
$UCSXDIR
 10
1.0
 20
0.0
 30
0.0
  9
$UCSYDIR
 10
0.0
 20
1.0
 30
0.0
  9
$UCSORTHOREF
  2

  9
$UCSORTHOVIEW
 70
     0
  9
$UCSORGTOP
 10
0.0
 20
0.0
 30
0.0
  9
$UCSORGBOTTOM
 10
0.0
 20
0.0
 30
0.0
  9
$UCSORGLEFT
 10
0.0
 20
0.0
 30
0.0
  9
$UCSORGRIGHT
 10
0.0
 20
0.0
 30
0.0
  9
$UCSORGFRONT
 10
0.0
 20
0.0
 30
0.0
  9
$UCSORGBACK
 10
0.0
 20
0.0
 30
0.0
  9
$PUCSBASE
  2

  9
$PUCSNAME
  2

  9
$PUCSORG
 10
0.0
 20
0.0
 30
0.0
  9
$PUCSXDIR
 10
1.0
 20
0.0
 30
0.0
  9
$PUCSYDIR
 10
0.0
 20
1.0
 30
0.0
  9
$PUCSORTHOREF
  2

  9
$PUCSORTHOVIEW
 70
     0
  9
$PUCSORGTOP
 10
0.0
 20
0.0
 30
0.0
  9
$PUCSORGBOTTOM
 10
0.0
 20
0.0
 30
0.0
  9
$PUCSORGLEFT
 10
0.0
 20
0.0
 30
0.0
  9
$PUCSORGRIGHT
 10
0.0
 20
0.0
 30
0.0
  9
$PUCSORGFRONT
 10
0.0
 20
0.0
 30
0.0
  9
$PUCSORGBACK
 10
0.0
 20
0.0
 30
0.0
  9
$USERI1
 70
     0
  9
$USERI2
 70
     0
  9
$USERI3
 70
     0
  9
$USERI4
 70
     0
  9
$USERI5
 70
     0
  9
$USERR1
 40
0.0
  9
$USERR2
 40
0.0
  9
$USERR3
 40
0.0
  9
$USERR4
 40
0.0
  9
$USERR5
 40
0.0
  9
$WORLDVIEW
 70
     1
  9
$SHADEDGE
 70
     3
  9
$SHADEDIF
 70
    70
  9
$TILEMODE
 70
     1
  9
$MAXACTVP
 70
    64
  9
$PINSBASE
 10
0.0
 20
0.0
 30
0.0
  9
$PLIMCHECK
 70
     0
  9
$PEXTMIN
 10
0.0
 20
0.0
 30
0.0
  9
$PEXTMAX
 10
1682.0
 20
2378.0
 30
0.0
  9
$PLIMMIN
 10
0.0
 20
0.0
  9
$PLIMMAX
 10
1682.0
 20
2378.0
  9
$UNITMODE
 70
     0
  9
$VISRETAIN
 70
     1
  9
$PLINEGEN
 70
     0
  9
$PSLTSCALE
 70
     1
  9
$TREEDEPTH
 70
  3020
  9
$CMLSTYLE
  2
Standard
  9
$CMLJUST
 70
     0
  9
$CMLSCALE
 40
20.0
  9
$PROXYGRAPHICS
 70
     1
  9
$MEASUREMENT
 70
     1
  9
$CELWEIGHT
370
    -1
  9
$ENDCAPS
280
     0
  9
$JOINSTYLE
280
     0
  9
$LWDISPLAY
290
     0
  9
$INSUNITS
 70
     4
  9
$HYPERLINKBASE
  1

  9
$STYLESHEET
  1

  9
$XEDIT
290
     1
  9
$CEPSNTYPE
380
     0
  9
$PSTYLEMODE
290
     1
  9
$FINGERPRINTGUID
  2
{681DE528-7928-4892-8057-61FA03F43082}
  9
$VERSIONGUID
  2
{FAEB1C32-E019-11D5-929B-00C0DF256EC4}
  9
$EXTNAMES
290
     1
  9
$PSVPSCALE
 40
0.0
  9
$OLESTARTUP
290
     0
  0
ENDSEC
  0
SECTION
  2
CLASSES
  0
CLASS
  1
ACDBDICTIONARYWDFLT
  2
AcDbDictionaryWithDefault
  3
ObjectDBX Classes
 90
        0
280
     0
281
     0
  0
CLASS
  1
VISUALSTYLE
  2
AcDbVisualStyle
  3
ObjectDBX Classes
 90
     4095
280
     0
281
     0
  0
CLASS
  1
SCALE
  2
AcDbScale
  3
ObjectDBX Classes
 90
     1153
280
     0
281
     0
  0
CLASS
  1
DICTIONARYVAR
  2
AcDbDictionaryVar
  3
ObjectDBX Classes
 90
        0
280
     0
281
     0
  0
CLASS
  1
ACDBPLACEHOLDER
  2
AcDbPlaceHolder
  3
ObjectDBX Classes
 90
        0
280
     0
281
     0
  0
CLASS
  1
LAYOUT
  2
AcDbLayout
  3
ObjectDBX Classes
 90
        0
280
     0
281
     0
  0
ENDSEC
  0
SECTION
  2
TABLES
  0
TABLE
  2
VPORT
  5
8
330
0
100
AcDbSymbolTable
 70
     1
  0
VPORT
  5
29
330
8
100
AcDbSymbolTableRecord
100
AcDbViewportTableRecord
  2
*Active
 70
     0
 10
0.0
 20
0.0
 11
1.0
 21
1.0
 12
344.1869158879
 22
148.5
 13
0.0
 23
0.0
 14
10.0
 24
10.0
 15
10.0
 25
10.0
 16
0.0
 26
0.0
 36
1.0
 17
0.0
 27
0.0
 37
0.0
 40
297.0
 41
1.9729729729
 42
50.0
 43
0.0
 44
0.0
 50
0.0
 51
0.0
 71
     0
 72
   100
 73
     1
 74
     3
 75
     0
 76
     0
 77
     0
 78
     0
281
     0
 65
     1
110
0.0
120
0.0
130
0.0
111
1.0
121
0.0
131
0.0
112
0.0
122
1.0
132
0.0
 79
     0
146
0.0
  0
ENDTAB
  0
TABLE
  2
LTYPE
  5
5
330
0
100
AcDbSymbolTable
 70
     2
  0
LTYPE
  5
14
330
5
100
AcDbSymbolTableRecord
100
AcDbLinetypeTableRecord
  2
ByBlock
 70
     0
  3

 72
    65
 73
     0
 40
0.0
  0
LTYPE
  5
15
330
5
100
AcDbSymbolTableRecord
100
AcDbLinetypeTableRecord
  2
ByLayer
 70
     0
  3

 72
    65
 73
     0
 40
0.0
  0
LTYPE
  5
16
330
5
100
AcDbSymbolTableRecord
100
AcDbLinetypeTableRecord
  2
Continuous
 70
     0
  3
Solid line
 72
    65
 73
     0
 40
0.0
  0
LTYPE
  5
60
330
5
100
AcDbSymbolTableRecord
100
AcDbLinetypeTableRecord
  2
CENTER2
 70
     0
  3
Center (.5x) ___ _ ___ _ ___ _ ___ _ ___ _ ___
 72
    65
 73
     4
 40
28.575
 49
19.05
 74
     4
 75
     0
340
0
 46
0.0
 50
0.0
 44
0.0
 45
0.0
 49
-3.175
 74
     4
 75
     0
340
0
 46
0.0
 50
0.0
 44
0.0
 45
0.0
 49
3.175
 74
     4
 75
     0
340
0
 46
0.0
 50
0.0
 44
0.0
 45
0.0
 49
-3.175
 74
     4
 75
     0
340
0
 46
0.0
 50
0.0
 44
0.0
 45
0.0
  0
ENDTAB
  0
TABLE
  2
LAYER
  5
2
330
0
100
AcDbSymbolTable
 70
     7
  0
LAYER
  5
10
330
2
100
AcDbSymbolTableRecord
100
AcDbLayerTableRecord
  2
0
 70
     0
 62
     7
  6
Continuous
370
    -3
390
F
  0
LAYER
  5
5D
330
2
100
AcDbSymbolTableRecord
100
AcDbLayerTableRecord
  2
Default
 70
     0
 62
     7
  6
Continuous
370
    -3
390
F
  0
LAYER
  5
77
330
2
100
AcDbSymbolTableRecord
100
AcDbLayerTableRecord
  2
12030696_PROTECT
 70
     0
 62
     7
  6
Continuous
370
    -3
390
F
  0
LAYER
  5
7D
330
2
100
AcDbSymbolTableRecord
100
AcDbLayerTableRecord
  2
400692038_217068
 70
     0
 62
     7
  6
Continuous
370
    -3
390
F
  0
LAYER
  5
8C
330
2
100
AcDbSymbolTableRecord
100
AcDbLayerTableRecord
  2
64273038_213703_
 70
     0
 62
     7
  6
Continuous
370
    -3
390
F
  0
LAYER
  5
A9
330
2
100
AcDbSymbolTableRecord
100
AcDbLayerTableRecord
  2
12030697_LEVELIN
 70
     0
 62
     7
  6
Continuous
370
    -3
390
F
  0
LAYER
  5
D8
330
2
100
AcDbSymbolTableRecord
100
AcDbLayerTableRecord
  2
02822131_207296_
 70
     0
 62
     7
  6
Continuous
370
    -3
390
F
  0
ENDTAB
  0
TABLE
  2
STYLE
  5
3
330
0
100
AcDbSymbolTable
 70
     2
  0
STYLE
  5
11
330
3
100
AcDbSymbolTableRecord
100
AcDbTextStyleTableRecord
  2
Standard
 70
     0
 40
0.0
 41
1.0
 50
0.0
 71
     0
 42
2.5
  3
txt
  4

  0
STYLE
  5
F9
330
3
100
AcDbSymbolTableRecord
100
AcDbTextStyleTableRecord
  2
SEACAD_seiso_ttf
 70
     0
 40
0.0
 41
1.0
 50
0.0
 71
     0
 42
0.2
  3
seiso.ttf
  4

  0
ENDTAB
  0
TABLE
  2
VIEW
  5
6
330
0
100
AcDbSymbolTable
 70
     0
  0
ENDTAB
  0
TABLE
  2
UCS
  5
7
330
0
100
AcDbSymbolTable
 70
     0
  0
ENDTAB
  0
TABLE
  2
APPID
  5
9
330
0
100
AcDbSymbolTable
 70
     1
  0
APPID
  5
12
330
9
100
AcDbSymbolTableRecord
100
AcDbRegAppTableRecord
  2
ACAD
 70
     0
  0
ENDTAB
  0
TABLE
  2
DIMSTYLE
  5
A
330
0
100
AcDbSymbolTable
 70
     1
100
AcDbDimStyleTable
  0
DIMSTYLE
105
27
330
A
100
AcDbSymbolTableRecord
100
AcDbDimStyleTableRecord
  2
ISO-25
 70
     0
 41
2.5
 42
0.625
 43
3.75
 44
1.25
 73
     0
 74
     0
 77
     1
 78
     8
140
2.5
141
2.5
143
0.0393700787
147
0.625
171
     3
172
     1
271
     2
272
     2
274
     3
278
    44
283
     0
284
     8
340
11
  0
ENDTAB
  0
TABLE
  2
BLOCK_RECORD
  5
1
330
0
100
AcDbSymbolTable
 70
     7
  0
BLOCK_RECORD
  5
1F
330
1
100
AcDbSymbolTableRecord
100
AcDbBlockTableRecord
  2
*Model_Space
340
22
  0
BLOCK_RECORD
  5
1B
330
1
100
AcDbSymbolTableRecord
100
AcDbBlockTableRecord
  2
*Paper_Space
340
1E
  0
BLOCK_RECORD
  5
5E
330
1
100
AcDbSymbolTableRecord
100
AcDbBlockTableRecord
  2
SEANNOT_GROUP
340
0
102
{BLKREFS
331
5F
102
}
  0
BLOCK_RECORD
  5
69
330
1
100
AcDbSymbolTableRecord
100
AcDbBlockTableRecord
  2
SEANNOT_GROUP1
340
0
102
{BLKREFS
331
6A
102
}
  0
BLOCK_RECORD
  5
6F
330
1
100
AcDbSymbolTableRecord
100
AcDbBlockTableRecord
  2
SEANNOT_GROUP2
340
0
102
{BLKREFS
331
70
102
}
  0
BLOCK_RECORD
  5
75
330
1
100
AcDbSymbolTableRecord
100
AcDbBlockTableRecord
  2
SE
340
0
102
{BLKREFS
331
76
102
}
  0
BLOCK_RECORD
  5
A2
330
1
100
AcDbSymbolTableRecord
100
AcDbBlockTableRecord
  2
SE1
340
0
102
{BLKREFS
331
A3
102
}
  0
BLOCK_RECORD
  5
DD
330
1
100
AcDbSymbolTableRecord
100
AcDbBlockTableRecord
  2
SE2
340
0
102
{BLKREFS
331
DE
102
}
  0
ENDTAB
  0
ENDSEC
  0
SECTION
  2
BLOCKS
  0
BLOCK
  5
20
330
1F
100
AcDbEntity
  8
0
100
AcDbBlockBegin
  2
*Model_Space
 70
     0
 10
0.0
 20
0.0
 30
0.0
  3
*Model_Space
  1

  0
ENDBLK
  5
21
330
1F
100
AcDbEntity
  8
0
100
AcDbBlockEnd
  0
BLOCK
  5
1C
330
1B
100
AcDbEntity
 67
     1
  8
0
100
AcDbBlockBegin
  2
*Paper_Space
 70
     0
 10
0.0
 20
0.0
 30
0.0
  3
*Paper_Space
  1

  0
ENDBLK
  5
1D
330
1B
100
AcDbEntity
 67
     1
  8
0
100
AcDbBlockEnd
  0
BLOCK
  5
67
330
5E
100
AcDbEntity
  8
0
100
AcDbBlockBegin
  2
SEANNOT_GROUP
 70
     0
 10
0.0
 20
0.0
 30
0.0
  3
SEANNOT_GROUP
  1

  0
LINE
  5
61
330
5E
100
AcDbEntity
  8
Default
  6
CENTER2
 62
     7
100
AcDbLine
 10
235.0332486848
 20
437.2669128347
 30
0.0
 11
195.0332495789
 21
437.2669128347
 31
0.0
  0
LINE
  5
62
330
5E
100
AcDbEntity
  8
Default
  6
CENTER2
 62
     7
100
AcDbLine
 10
215.0332491318
 20
457.2669123877
 30
0.0
 11
215.0332491318
 21
417.2669132817
 31
0.0
  0
LINE
  5
63
330
5E
100
AcDbEntity
  8
Default
  6
CENTER2
 62
     7
100
AcDbLine
 10
240.0332485731
 20
437.2669128347
 30
0.0
 11
246.8680814768
 21
437.2669128347
 31
0.0
  0
LINE
  5
64
330
5E
100
AcDbEntity
  8
Default
  6
CENTER2
 62
     7
100
AcDbLine
 10
215.0332491318
 20
462.2669122759
 30
0.0
 11
215.0332491318
 21
469.1017451797
 31
0.0
  0
LINE
  5
65
330
5E
100
AcDbEntity
  8
Default
  6
CENTER2
 62
     7
100
AcDbLine
 10
190.0332496906
 20
437.2669128347
 30
0.0
 11
183.1984167869
 21
437.2669128347
 31
0.0
  0
LINE
  5
66
330
5E
100
AcDbEntity
  8
Default
  6
CENTER2
 62
     7
100
AcDbLine
 10
215.0332491318
 20
412.2669133935
 30
0.0
 11
215.0332491318
 21
405.4320804897
 31
0.0
  0
ENDBLK
  5
68
330
5E
100
AcDbEntity
  8
0
100
AcDbBlockEnd
  0
BLOCK
  5
6D
330
69
100
AcDbEntity
  8
0
100
AcDbBlockBegin
  2
SEANNOT_GROUP1
 70
     0
 10
0.0
 20
0.0
 30
0.0
  3
SEANNOT_GROUP1
  1

  0
LINE
  5
6B
330
69
100
AcDbEntity
  8
Default
  6
CENTER2
 62
     7
100
AcDbLine
 10
494.2390027785
 20
437.2669128347
 30
0.0
 11
454.2390036725
 21
437.2669128347
 31
0.0
  0
LINE
  5
6C
330
69
100
AcDbEntity
  8
Default
  6
CENTER2
 62
     7
100
AcDbLine
 10
474.2390032255
 20
457.2669123877
 30
0.0
 11
474.2390032255
 21
417.2669132817
 31
0.0
  0
ENDBLK
  5
6E
330
69
100
AcDbEntity
  8
0
100
AcDbBlockEnd
  0
BLOCK
  5
73
330
6F
100
AcDbEntity
  8
0
100
AcDbBlockBegin
  2
SEANNOT_GROUP2
 70
     0
 10
0.0
 20
0.0
 30
0.0
  3
SEANNOT_GROUP2
  1

  0
LINE
  5
71
330
6F
100
AcDbEntity
  8
Default
  6
CENTER2
 62
     7
100
AcDbLine
 10
235.0332486848
 20
182.3511587411
 30
0.0
 11
195.0332495789
 21
182.3511587411
 31
0.0
  0
LINE
  5
72
330
6F
100
AcDbEntity
  8
Default
  6
CENTER2
 62
     7
100
AcDbLine
 10
215.0332491318
 20
202.351158294
 30
0.0
 11
215.0332491318
 21
162.3511591881
 31
0.0
  0
ENDBLK
  5
74
330
6F
100
AcDbEntity
  8
0
100
AcDbBlockEnd
  0
BLOCK
  5
A0
330
75
100
AcDbEntity
  8
0
100
AcDbBlockBegin
  2
SE
 70
     0
 10
0.0
 20
0.0
 30
0.0
  3
SE
  1

  0
ARC
  5
78
330
75
100
AcDbEntity
  8
12030696_PROTECT
  6
Continuous
 62
     7
100
AcDbCircle
 10
215.0332491318
 20
437.2669128347
 30
0.0
 40
26.33551769300219
100
AcDbArc
 50
0.0
 51
39.4188168544
  0
ARC
  5
79
330
75
100
AcDbEntity
  8
12030696_PROTECT
  6
Continuous
 62
     7
100
AcDbCircle
 10
215.0332491318
 20
437.2669128347
 30
0.0
 40
26.33551769300219
100
AcDbArc
 50
140.581183144
 51
248.1180397844
  0
ARC
  5
7A
330
75
100
AcDbEntity
  8
12030696_PROTECT
  6
Continuous
 62
     7
100
AcDbCircle
 10
215.0332491318
 20
437.2669128347
 30
0.0
 40
26.33551769300219
100
AcDbArc
 50
291.8885367216
 51
0.0
  0
ARC
  5
7B
330
75
100
AcDbEntity
  8
12030696_PROTECT
  6
Continuous
 62
     7
100
AcDbCircle
 10
215.0332491318
 20
437.2669128347
 30
0.0
 40
28.33483234498358
100
AcDbArc
 50
290.2345497871
 51
0.0
  0
ARC
  5
7C
330
75
100
AcDbEntity
  8
12030696_PROTECT
  6
Continuous
 62
     7
100
AcDbCircle
 10
215.0332491318
 20
437.2669128347
 30
0.0
 40
28.33483234498358
100
AcDbArc
 50
0.0
 51
249.7654502129
  0
LINE
  5
7E
330
75
100
AcDbEntity
  8
400692038_217068
  6
Continuous
 62
     7
100
AcDbLine
 10
135.5332491318
 20
347.0662960197
 30
0.0
 11
135.5332491318
 21
527.4675296497
 31
0.0
  0
ELLIPSE
  5
7F
330
75
100
AcDbEntity
  8
400692038_217068
  6
Continuous
 62
     7
100
AcDbEllipse
 10
137.3338661583
 20
347.0675298612
 30
0.0
 11
1.273664663898042
 21
1.273664663898034
 31
0.0
210
0.0
220
0.0
230
1.0
 40
0.999315002
 41
2.356537106530531
 42
3.926648200649078
  0
LINE
  5
80
330
75
100
AcDbEntity
  8
400692038_217068
  6
Continuous
 62
     7
100
AcDbLine
 10
294.5332491318
 20
527.4675296497
 30
0.0
 11
294.5332491318
 21
347.0662960197
 31
0.0
  0
ELLIPSE
  5
81
330
75
100
AcDbEntity
  8
400692038_217068
  6
Continuous
 62
     7
100
AcDbEllipse
 10
292.7326321054
 20
527.4662958082
 30
0.0
 11
-1.273664663898042
 21
-1.273664663898034
 31
0.0
210
0.0
220
0.0
230
1.0
 40
0.999315002
 41
2.356537106530515
 42
3.926648200649141
  0
LINE
  5
82
330
75
100
AcDbEntity
  8
400692038_217068
  6
Continuous
 62
     7
100
AcDbLine
 10
137.3326323168
 20
529.2669128347
 30
0.0
 11
292.7338659469
 21
529.2669128347
 31
0.0
  0
ELLIPSE
  5
83
330
75
100
AcDbEntity
  8
400692038_217068
  6
Continuous
 62
     7
100
AcDbEllipse
 10
137.3338661583
 20
527.4662958082
 30
0.0
 11
1.273664663898034
 21
-1.273664663898042
 31
0.0
210
0.0
220
0.0
230
1.0
 40
0.999315002
 41
2.356537106530467
 42
3.926648200649157
  0
LINE
  5
84
330
75
100
AcDbEntity
  8
400692038_217068
  6
Continuous
 62
     7
100
AcDbLine
 10
292.7338659469
 20
345.2669128347
 30
0.0
 11
220.0332491318
 21
345.2669128347
 31
0.0
  0
ELLIPSE
  5
85
330
75
100
AcDbEntity
  8
400692038_217068
  6
Continuous
 62
     7
100
AcDbEllipse
 10
292.7326321054
 20
347.0675298612
 30
0.0
 11
-1.273664663898034
 21
1.273664663898042
 31
0.0
210
0.0
220
0.0
230
1.0
 40
0.999315002
 41
2.356537106530515
 42
3.92664820064911
  0
LINE
  5
86
330
75
100
AcDbEntity
  8
400692038_217068
  6
Continuous
 62
     7
100
AcDbLine
 10
210.0332491318
 20
345.2669128347
 30
0.0
 11
137.3326323168
 21
345.2669128347
 31
0.0
  0
LINE
  5
87
330
75
100
AcDbEntity
  8
400692038_217068
  6
Continuous
 62
     7
100
AcDbLine
 10
210.2712492592
 20
345.2901719183
 30
0.0
 11
210.0332491318
 21
345.2669128347
 31
0.0
  0
ELLIPSE
  5
88
330
75
100
AcDbEntity
  8
400692038_217068
  6
Continuous
 62
     7
100
AcDbEllipse
 10
211.7201379987
 20
345.2800057955
 30
0.0
 11
-1.500000000000002
 21
1.387778780781446E-14
 31
0.0
210
0.0
220
0.0
230
1.0
 40
0.0261859216
 41
4.712388980384709
 42
6.021385919380166
  0
LINE
  5
89
330
75
100
AcDbEntity
  8
400692038_217068
  6
Continuous
 62
     7
100
AcDbLine
 10
218.346360265
 20
345.3192846778
 30
0.0
 11
211.7201379987
 21
345.3192846778
 31
0.0
  0
ELLIPSE
  5
8A
330
75
100
AcDbEntity
  8
400692038_217068
  6
Continuous
 62
     7
100
AcDbEllipse
 10
218.346360265
 20
345.2800057955
 30
0.0
 11
1.499999999999999
 21
0.0
 31
0.0
210
0.0
220
0.0
230
1.0
 40
0.0261859216
 41
0.2617993877992647
 42
1.570796326794916
  0
LINE
  5
8B
330
75
100
AcDbEntity
  8
400692038_217068
  6
Continuous
 62
     7
100
AcDbLine
 10
220.0332491318
 20
345.2669128347
 30
0.0
 11
219.7952490045
 21
345.2901719183
 31
0.0
  0
ELLIPSE
  5
8D
330
75
100
AcDbEntity
  8
64273038_213703_
  6
Continuous
 62
     7
100
AcDbEllipse
 10
215.0332491319
 20
437.8059927304
 30
0.0
 11
-26.0000000000055
 21
-9.090228569874625E-9
 31
0.0
210
0.0
220
0.0
230
1.0
 40
0.9996573495
 41
3.141592653589793
 42
6.283185307179586
  0
ELLIPSE
  5
8E
330
75
100
AcDbEntity
  8
64273038_213703_
  6
Continuous
 62
     7
100
AcDbEllipse
 10
215.0332491319
 20
437.8059927304
 30
0.0
 11
-26.0000000000055
 21
-9.090228569874625E-9
 31
0.0
210
0.0
220
0.0
230
1.0
 40
0.9996573495
 41
0.0
 42
3.141592653589793
  0
ARC
  5
8F
330
75
100
AcDbEntity
  8
64273038_213703_
  6
Continuous
 62
     7
100
AcDbCircle
 10
204.3112621609
 20
412.7850883693
 30
0.0
 40
0.9219915699124526
100
AcDbArc
 50
359.8190306122
 51
69.5597839047
  0
LINE
  5
90
330
75
100
AcDbEntity
  8
64273038_213703_
  6
Continuous
 62
     7
100
AcDbLine
 10
205.2332491318
 20
349.2581003975
 30
0.0
 11
205.2332491318
 21
349.4184823035
 31
0.0
  0
ELLIPSE
  5
91
330
75
100
AcDbEntity
  8
64273038_213703_
  6
Continuous
 62
     7
100
AcDbEllipse
 10
205.9332491318
 20
349.2581003975
 30
0.0
 11
-0.6999999999999905
 21
1.063038546078588E-11
 31
0.0
210
0.0
220
0.0
230
1.0
 40
0.9996573495
 41
0.0
 42
1.570796326809794
  0
ARC
  5
92
330
75
100
AcDbEntity
  8
64273038_213703_
  6
Continuous
 62
     7
100
AcDbCircle
 10
225.7552361028
 20
412.7850883693
 30
0.0
 40
0.9219915699121863
100
AcDbArc
 50
110.4402160953
 51
180.1809693878
  0
ELLIPSE
  5
93
330
75
100
AcDbEntity
  8
64273038_213703_
  6
Continuous
 62
     7
100
AcDbEllipse
 10
224.1332491318
 20
349.2581003975
 30
0.0
 11
-0.699999999999902
 21
1.044997421928429E-11
 31
0.0
210
0.0
220
0.0
230
1.0
 40
0.9996573495
 41
1.570796326809576
 42
3.141592653604483
  0
LINE
  5
94
330
75
100
AcDbEntity
  8
64273038_213703_
  6
Continuous
 62
     7
100
AcDbLine
 10
205.9332491318
 20
348.5583402529
 30
0.0
 11
205.9332491318
 21
348.5581003975
 31
0.0
  0
LINE
  5
95
330
75
100
AcDbEntity
  8
64273038_213703_
  6
Continuous
 62
     7
100
AcDbLine
 10
224.8332491318
 20
349.4184823034
 30
0.0
 11
224.8332491318
 21
349.2581003975
 31
0.0
  0
LINE
  5
96
330
75
100
AcDbEntity
  8
64273038_213703_
  6
Continuous
 62
     7
100
AcDbLine
 10
224.8332491319
 20
412.2998768391
 30
0.0
 11
224.8332491318
 21
349.4184823034
 31
0.0
  0
LINE
  5
97
330
75
100
AcDbEntity
  8
64273038_213703_
  6
Continuous
 62
     7
100
AcDbLine
 10
224.8332491319
 20
412.9537914258
 30
0.0
 11
224.8332491319
 21
412.2998768391
 31
0.0
  0
ELLIPSE
  5
98
330
75
100
AcDbEntity
  8
64273038_213703_
  6
Continuous
 62
     7
100
AcDbEllipse
 10
224.1332491318
 20
349.4184823034
 30
0.0
 11
0.7000000000000963
 21
1.099120794378905E-11
 31
0.0
210
0.0
220
0.0
230
1.0
 40
0.9996573495
 41
4.71238898036875
 42
6.283185307179586
  0
ARC
  5
99
330
75
100
AcDbEntity
  8
64273038_213703_
  6
Continuous
 62
     7
100
AcDbCircle
 10
215.0332491294
 20
-8794.2728289731
 30
0.0
 40
9142.996079736085
100
AcDbArc
 50
89.9429736516
 51
90.0570263484
  0
LINE
  5
9A
330
75
100
AcDbEntity
  8
64273038_213703_
  6
Continuous
 62
     7
100
AcDbLine
 10
205.2332491318
 20
349.4184823035
 30
0.0
 11
205.2332491319
 21
412.2998768391
 31
0.0
  0
LINE
  5
9B
330
75
100
AcDbEntity
  8
64273038_213703_
  6
Continuous
 62
     7
100
AcDbLine
 10
205.2332491319
 20
412.2998768391
 30
0.0
 11
205.2332491319
 21
412.9537914258
 31
0.0
  0
ELLIPSE
  5
9C
330
75
100
AcDbEntity
  8
64273038_213703_
  6
Continuous
 62
     7
100
AcDbEllipse
 10
205.9332491318
 20
349.4184823035
 30
0.0
 11
0.6999999999999004
 21
-1.106059688282812E-11
 31
0.0
210
0.0
220
0.0
230
1.0
 40
0.9996573495
 41
3.141592653589793
 42
4.712388980400242
  0
LINE
  5
9D
330
75
100
AcDbEntity
  8
64273038_213703_
  6
Continuous
 62
     7
100
AcDbLine
 10
241.0332491319
 20
436.9284136828
 30
0.0
 11
241.0332491319
 21
437.8059927302
 31
0.0
  0
LINE
  5
9E
330
75
100
AcDbEntity
  8
64273038_213703_
  6
Continuous
 62
     7
100
AcDbLine
 10
189.0332491319
 20
437.8059927305
 30
0.0
 11
189.0332491319
 21
436.9284136831
 31
0.0
  0
LINE
  5
9F
330
75
100
AcDbEntity
  8
64273038_213703_
  6
Continuous
 62
     7
100
AcDbLine
 10
205.9332491318
 20
348.5581003975
 30
0.0
 11
224.1332491318
 21
348.5581003975
 31
0.0
  0
ENDBLK
  5
A1
330
75
100
AcDbEntity
  8
0
100
AcDbBlockEnd
  0
BLOCK
  5
DB
330
A2
100
AcDbEntity
  8
0
100
AcDbBlockBegin
  2
SE1
 70
     0
 10
0.0
 20
0.0
 30
0.0
  3
SE1
  1

  0
LINE
  5
A4
330
A2
100
AcDbEntity
  8
12030696_PROTECT
  6
Continuous
 62
     7
100
AcDbLine
 10
517.3390021383
 20
463.6024305277
 30
0.0
 11
517.3390021383
 21
410.9313951417
 31
0.0
  0
LINE
  5
A5
330
A2
100
AcDbEntity
  8
12030696_PROTECT
  6
Continuous
 62
     7
100
AcDbLine
 10
488.0703588308
 20
408.216656062
 30
0.0
 11
515.3913559574
 21
408.9320804897
 31
0.0
  0
LINE
  5
A6
330
A2
100
AcDbEntity
  8
12030696_PROTECT
  6
Continuous
 62
     7
100
AcDbLine
 10
515.3913559574
 20
465.6017451797
 30
0.0
 11
488.0704677379
 21
466.3171667556
 31
0.0
  0
ARC
  5
A7
330
A2
100
AcDbEntity
  8
12030696_PROTECT
  6
Continuous
 62
     7
100
AcDbCircle
 10
515.3390021383
 20
463.6024305277
 30
0.0
 40
2.000000000000002
100
AcDbArc
 50
0.0
 51
88.5000022219
  0
ARC
  5
A8
330
A2
100
AcDbEntity
  8
12030696_PROTECT
  6
Continuous
 62
     7
100
AcDbCircle
 10
515.3390021383
 20
410.9313951417
 30
0.0
 40
1.999999999999997
100
AcDbArc
 50
271.4999977781
 51
0.0
  0
SPLINE
  5
AA
330
A2
100
AcDbEntity
  8
12030697_LEVELIN
  6
Continuous
 62
     7
100
AcDbSpline
210
0.0
220
0.0
230
1.0
 70
    24
 71
     3
 72
     8
 73
     4
 74
     0
 42
0.0000000003555788
 43
0.0000000001
 40
0.9448044867117033
 40
0.9448044867117033
 40
0.9448044867117033
 40
0.9448044867117033
 40
1.0
 40
1.0
 40
1.0
 40
1.0
 10
517.7390021382967
 20
410.9828344893329
 30
0.0
 10
517.7390021382967
 20
410.4654104386818
 30
0.0
 10
517.7390021382967
 20
409.9479863880308
 30
0.0
 10
517.7390021382967
 20
409.4305623373797
 30
0.0
  0
SPLINE
  5
AB
330
A2
100
AcDbEntity
  8
12030697_LEVELIN
  6
Continuous
 62
     7
100
AcDbSpline
210
0.0
220
0.0
230
1.0
 70
    24
 71
     3
 72
     8
 73
     4
 74
     0
 42
0.0000000003480916
 43
0.0000000001
 40
0.9374084540187526
 40
0.9374084540187526
 40
0.9374084540187526
 40
0.9374084540187526
 40
1.0
 40
1.0
 40
1.0
 40
1.0
 10
519.2077774714919
 20
411.0212943483698
 30
0.0
 10
518.9822471951339
 20
410.4659654250075
 30
0.0
 10
518.756716918776
 20
409.9106365016452
 30
0.0
 10
518.531186642418
 20
409.3553075782828
 30
0.0
  0
LINE
  5
AC
330
A2
100
AcDbEntity
  8
12030697_LEVELIN
  6
Continuous
 62
     7
100
AcDbLine
 10
518.2145842228
 20
409.2305623374
 30
0.0
 11
517.9986143426
 21
409.2305623374
 31
0.0
  0
LINE
  5
AD
330
A2
100
AcDbEntity
  8
12030697_LEVELIN
  6
Continuous
 62
     7
100
AcDbLine
 10
518.3458849392
 20
409.2305623374
 30
0.0
 11
518.2145842228
 21
409.2305623374
 31
0.0
  0
LINE
  5
AE
330
A2
100
AcDbEntity
  8
12030697_LEVELIN
  6
Continuous
 62
     7
100
AcDbLine
 10
517.9986143426
 20
409.2305623374
 30
0.0
 11
517.9390021383
 21
409.2305623374
 31
0.0
  0
ARC
  5
AF
330
A2
100
AcDbEntity
  8
12030697_LEVELIN
  6
Continuous
 62
     7
100
AcDbCircle
 10
518.3458849392
 20
409.4305623374
 30
0.0
 40
0.2000000000000032
100
AcDbArc
 50
270.0
 51
337.8969369267
  0
ARC
  5
B0
330
A2
100
AcDbEntity
  8
12030697_LEVELIN
  6
Continuous
 62
     7
100
AcDbCircle
 10
517.9390021383
 20
409.4305623374
 30
0.0
 40
0.1999999999999953
100
AcDbArc
 50
180.0
 51
270.0
  0
SPLINE
  5
B1
330
A2
100
AcDbEntity
  8
400692038_217068
  6
Continuous
 62
     7
100
AcDbSpline
210
0.0
220
0.0
230
1.0
 70
     8
 71
     3
 72
    14
 73
    10
 74
     0
 42
0.000000000393756
 43
0.0000000001
 40
0.0
 40
0.0
 40
0.0
 40
0.0
 40
0.0625000000000002
 40
0.0625000000000002
 40
0.1250000000000003
 40
0.1250000000000003
 40
0.2500000000000006
 40
0.2500000000000006
 40
0.2501583644515732
 40
0.2501583644515732
 40
0.2501583644515732
 40
0.2501583644515732
 10
487.8999334709592
 20
382.2639937017559
 30
0.0
 10
487.9067192180254
 20
383.1030034843795
 30
0.0
 10
487.9133972168888
 20
383.926365342292
 30
0.0
 10
487.9259324827187
 20
385.464648951109
 30
0.0
 10
487.9317066056558
 20
386.1692769391777
 30
0.0
 10
487.94618058987
 20
387.9274681339813
 30
0.0
 10
487.9519313586443
 20
388.6152673698733
 30
0.0
 10
487.9519450587882
 20
388.6169117944549
 30
0.0
 10
487.9519450672972
 20
388.6169128173941
 30
0.0
 10
487.9519450669821
 20
388.6169127827436
 30
0.0
  0
SPLINE
  5
B2
330
A2
100
AcDbEntity
  8
400692038_217068
  6
Continuous
 62
     7
100
AcDbSpline
210
0.0
220
0.0
230
1.0
 70
     8
 71
     3
 72
    10
 73
     6
 74
     0
 42
0.0000000002514827
 43
0.0000000001
 40
0.4924507357670874
 40
0.4924507357670874
 40
0.4924507357670874
 40
0.4924507357670874
 40
0.5000000000000007
 40
0.5000000000000007
 40
0.5049955189714115
 40
0.5049955189714115
 40
0.5049955189714115
 40
0.5049955189714115
 10
487.9024272660128
 20
382.5721922705075
 30
0.0
 10
487.9016182710575
 20
382.4722581793333
 30
0.0
 10
487.9008085346292
 20
382.3721874539924
 30
0.0
 10
487.8994630984145
 20
382.2058364900743
 30
0.0
 10
487.8989274013569
 20
382.1395914134882
 30
0.0
 10
487.8983920240597
 20
382.0733757680915
 30
0.0
  0
SPLINE
  5
B3
330
A2
100
AcDbEntity
  8
400692038_217068
  6
Continuous
 62
     7
100
AcDbSpline
210
0.0
220
0.0
230
1.0
 70
     8
 71
     3
 72
    10
 73
     6
 74
     0
 42
0.0000000003935002
 43
0.0000000001
 40
0.7502340933178022
 40
0.7502340933178022
 40
0.7502340933178022
 40
0.7502340933178022
 40
0.8750000000000002
 40
0.8750000000000002
 40
1.0
 40
1.0
 40
1.0
 40
1.0
 10
487.8486080957616
 20
375.916913101909
 30
0.0
 10
487.8486088946876
 20
375.9170079811711
 30
0.0
 10
487.8541925309133
 20
376.6022756691982
 30
0.0
 10
487.8731234513617
 20
378.9422615840986
 30
0.0
 10
487.8863619768267
 20
380.5859741365086
 30
0.0
 10
487.8999334709592
 20
382.2639937017559
 30
0.0
  0
ARC
  5
B4
330
A2
100
AcDbEntity
  8
400692038_217068
  6
Continuous
 62
     7
100
AcDbCircle
 10
-158593.2396733588
 20
437.2669128317
 30
0.0
 40
159080.8050542267
100
AcDbArc
 50
359.9676212188
 51
0.0323787812
  0
LINE
  5
B5
330
A2
100
AcDbEntity
  8
400692038_217068
  6
Continuous
 62
     7
100
AcDbLine
 10
485.7870981247
 20
345.569310342
 30
0.0
 11
474.2390032255
 21
345.2669128347
 31
0.0
  0
LINE
  5
B6
330
A2
100
AcDbEntity
  8
400692038_217068
  6
Continuous
 62
     7
100
AcDbLine
 10
474.2390032255
 20
347.0662960197
 30
0.0
 11
474.2390032255
 21
527.4675296497
 31
0.0
  0
LINE
  5
B7
330
A2
100
AcDbEntity
  8
400692038_217068
  6
Continuous
 62
     7
100
AcDbLine
 10
474.2390032255
 20
345.2669128347
 30
0.0
 11
474.2390032255
 21
347.0662960197
 31
0.0
  0
LINE
  5
B8
330
A2
100
AcDbEntity
  8
400692038_217068
  6
Continuous
 62
     7
100
AcDbLine
 10
474.2390032255
 20
527.4675296497
 30
0.0
 11
474.2390032255
 21
529.2669128347
 31
0.0
  0
LINE
  5
B9
330
A2
100
AcDbEntity
  8
400692038_217068
  6
Continuous
 62
     7
100
AcDbLine
 10
474.2390032255
 20
529.2669128347
 30
0.0
 11
485.7870981247
 21
528.9645153274
 31
0.0
  0
SPLINE
  5
BA
330
A2
100
AcDbEntity
  8
400692038_217068
  6
Continuous
 62
     7
100
AcDbSpline
210
0.0
220
0.0
230
1.0
 70
     8
 71
     3
 72
    17
 73
    13
 74
     0
 42
0.000000000161557
 43
0.0000000001
 40
0.0166218033508578
 40
0.0166218033508578
 40
0.0166218033508578
 40
0.0166218033508578
 40
0.0859476800697124
 40
0.164972457286053
 40
0.2512221500430487
 40
0.3446968848309742
 40
0.4453967957437941
 40
0.5469602157003063
 40
0.6549468813471762
 40
0.7693568571539637
 40
0.8901901576467637
 40
1.0
 40
1.0
 40
1.0
 40
1.0
 10
488.0705427595288
 20
466.317167090536
 30
0.0
 10
488.0643983739337
 20
467.6933155836523
 30
0.0
 10
488.0483564606344
 20
470.8459761628698
 30
0.0
 10
488.0214495464059
 20
475.6439650720112
 30
0.0
 10
487.9873829343917
 20
480.9949269177837
 30
0.0
 10
487.9463168418941
 20
486.7760140572238
 30
0.0
 10
487.8983540827604
 20
492.8787891887883
 30
0.0
 10
487.843474921811
 20
499.2765189512384
 30
0.0
 10
487.7815760420477
 20
505.9691367456136
 30
0.0
 10
487.7121282457807
 20
513.0116377283493
 30
0.0
 10
487.6366669089632
 20
520.2768587471231
 30
0.0
 10
487.588824332732
 20
524.6919318814405
 30
0.0
 10
487.5617274301587
 20
527.1837557412389
 30
0.0
  0
SPLINE
  5
BB
330
A2
100
AcDbEntity
  8
400692038_217068
  6
Continuous
 62
     7
100
AcDbSpline
210
0.0
220
0.0
230
1.0
 70
     8
 71
     3
 72
    13
 73
     9
 74
     0
 42
0.0000000004856515
 43
0.0000000001
 40
0.0
 40
0.0
 40
0.0
 40
0.0
 40
0.0752573872620198
 40
0.317382337547743
 40
0.5344902054411461
 40
0.7265813292986795
 40
0.893655992414545
 40
0.9528711424959044
 40
0.9528711424959044
 40
0.9528711424959044
 40
0.9528711424959044
 10
487.9514602553502
 20
388.5965534752109
 30
0.0
 10
487.9557718276561
 20
389.1658286882897
 30
0.0
 10
487.9712655634853
 20
391.2161305662691
 30
0.0
 10
487.996796496302
 20
394.9973295487563
 30
0.0
 10
488.0245941990719
 20
399.4515080901785
 30
0.0
 10
488.0467164308213
 20
403.3955918053348
 30
0.0
 10
488.0617416413046
 20
406.3377368859911
 30
0.0
 10
488.0685849175633
 20
407.8129856783546
 30
0.0
 10
488.0704289567611
 20
408.2166557416513
 30
0.0
  0
SPLINE
  5
BC
330
A2
100
AcDbEntity
  8
400692038_217068
  6
Continuous
 62
     7
100
AcDbSpline
210
0.0
220
0.0
230
1.0
 70
     8
 71
     3
 72
    12
 73
     8
 74
     0
 42
0.0000000003499737
 43
0.0000000001
 40
0.0
 40
0.0
 40
0.0
 40
0.0
 40
0.22638382057392
 40
0.4756289134790248
 40
0.709944959093487
 40
0.9293320108469899
 40
1.0
 40
1.0
 40
1.0
 40
1.0
 10
487.5617355228786
 20
347.3500698398092
 30
0.0
 10
487.5875296199387
 20
349.7217480695134
 30
0.0
 10
487.6330547330287
 20
353.9219286836599
 30
0.0
 10
487.7051441785464
 20
360.8386100811009
 30
0.0
 10
487.7705826204424
 20
367.4445721581376
 30
0.0
 10
487.8192856592243
 20
372.5880596350656
 30
0.0
 10
487.841824877069
 20
375.1818473035401
 30
0.0
 10
487.8482485514244
 20
375.922206462085
 30
0.0
  0
ARC
  5
BD
330
A2
100
AcDbEntity
  8
400692038_217068
  6
Continuous
 62
     7
100
AcDbCircle
 10
485.7619613295
 20
347.3692691383
 30
0.0
 40
1.799999999999725
100
AcDbArc
 50
271.4998725317
 51
359.3896658829
  0
ARC
  5
BE
330
A2
100
AcDbEntity
  8
400692038_217068
  6
Continuous
 62
     7
100
AcDbCircle
 10
485.7619613295
 20
527.1645565311
 30
0.0
 40
1.799999999999982
100
AcDbArc
 50
0.5841505525
 51
88.5001274652
  0
LINE
  5
BF
330
A2
100
AcDbEntity
  8
64273038_213703_
  6
Continuous
 62
     7
100
AcDbLine
 10
536.6370001616
 20
413.6490286714
 30
0.0
 11
546.5916756596
 21
413.909691693
 31
0.0
  0
ARC
  5
C0
330
A2
100
AcDbEntity
  8
64273038_213703_
  6
Continuous
 62
     7
100
AcDbCircle
 10
531.042261261
 20
380.2646791696
 30
0.0
 40
31.26055636176084
100
AcDbArc
 50
84.9394626865
 51
86.9307226448
  0
LINE
  5
C1
330
A2
100
AcDbEntity
  8
64273038_213703_
  6
Continuous
 62
     7
100
AcDbLine
 10
536.6938179804
 20
411.4791660445
 30
0.0
 11
536.6370001616
 21
413.6490286714
 31
0.0
  0
LINE
  5
C2
330
A2
100
AcDbEntity
  8
64273038_213703_
  6
Continuous
 62
     7
100
AcDbLine
 10
549.5155021638
 20
411.8149016435
 30
0.0
 11
548.1543495399
 21
463.7970838172
 31
0.0
  0
ARC
  5
C3
330
A2
100
AcDbEntity
  8
64273038_213703_
  6
Continuous
 62
     7
100
AcDbCircle
 10
536.3464860282
 20
411.5216840259
 30
0.0
 40
1.846101442438883
100
AcDbArc
 50
1.4280136117
 51
29.4008869934
  0
ARC
  5
C4
330
A2
100
AcDbEntity
  8
64273038_213703_
  6
Continuous
 62
     7
100
AcDbCircle
 10
535.253152382
 20
410.8338675029
 30
0.0
 40
3.136904060009817
100
AcDbArc
 50
30.5424142847
 51
63.8226693277
  0
LINE
  5
C5
330
A2
100
AcDbEntity
  8
64273038_213703_
  6
Continuous
 62
     7
100
AcDbLine
 10
539.8240695522
 20
349.2397771891
 30
0.0
 11
538.1920141171
 21
411.5676906443
 31
0.0
  0
ARC
  5
C6
330
A2
100
AcDbEntity
  8
64273038_213703_
  6
Continuous
 62
     7
100
AcDbCircle
 10
540.5238296969
 20
349.2581003975
 30
0.0
 40
0.6999999999999883
100
AcDbArc
 50
181.4999463351
 51
271.4999463351
  0
SPLINE
  5
C7
330
A2
100
AcDbEntity
  8
64273038_213703_
  6
Continuous
 62
     7
100
AcDbSpline
210
0.0
220
0.0
230
1.0
 70
     8
 71
     3
 72
    12
 73
     8
 74
     0
 42
0.0000000022908466
 43
0.0000000001
 40
0.0
 40
0.0
 40
0.0
 40
0.0
 40
0.25
 40
0.25
 40
0.5
 40
0.5
 40
0.5003344106830165
 40
0.5003344106830165
 40
0.5003344106830165
 40
0.5003344106830165
 10
546.591675659643
 20
413.9096916929906
 30
0.0
 10
546.6871093270038
 20
413.1932489159214
 30
0.0
 10
546.7616853523051
 20
412.6574922285871
 30
0.0
 10
546.8633616505799
 20
411.933379366727
 30
0.0
 10
546.8902554321844
 20
411.7466339305945
 30
0.0
 10
546.8903229046168
 20
411.7461616513334
 30
0.0
 10
546.8903229482506
 20
411.7461613431661
 30
0.0
 10
546.8903229453874
 20
411.7461613577311
 30
0.0
  0
SPLINE
  5
C8
330
A2
100
AcDbEntity
  8
64273038_213703_
  6
Continuous
 62
     7
100
AcDbSpline
210
0.0
220
0.0
230
1.0
 70
     8
 71
     3
 72
     8
 73
     4
 74
     0
 42
0.0000000030798101
 43
0.0000000001
 40
0.5034580783582862
 40
0.5034580783582862
 40
0.5034580783582862
 40
0.5034580783582862
 40
1.0
 40
1.0
 40
1.0
 40
1.0
 10
545.9168313850206
 20
410.7204002662094
 30
0.0
 10
545.9158232249275
 20
410.7275329406588
 30
0.0
 10
545.8402716670954
 20
411.2626781698872
 30
0.0
 10
545.7014933322147
 20
412.3181868163072
 30
0.0
  0
ARC
  5
C9
330
A2
100
AcDbEntity
  8
64273038_213703_
  6
Continuous
 62
     7
100
AcDbCircle
 10
548.0798211141
 20
411.9641430643
 30
0.0
 40
2.449435926939989
100
AcDbArc
 50
127.4122869128
 51
161.6748706107
  0
LINE
  5
CA
330
A2
100
AcDbEntity
  8
64273038_213703_
  6
Continuous
 62
     7
100
AcDbLine
 10
546.6671100228
 20
348.7187221588
 30
0.0
 11
540.5421529053
 21
348.5583402529
 31
0.0
  0
LINE
  5
CB
330
A2
100
AcDbEntity
  8
64273038_213703_
  6
Continuous
 62
     7
100
AcDbLine
 10
546.6671100228
 20
348.7187221588
 30
0.0
 11
546.8399942071
 21
348.7232491285
 31
0.0
  0
LINE
  5
CC
330
A2
100
AcDbEntity
  8
64273038_213703_
  6
Continuous
 62
     7
100
AcDbLine
 10
546.8895208903
 20
411.7461403651
 30
0.0
 11
549.5155021638
 21
411.8149016435
 31
0.0
  0
LINE
  5
CD
330
A2
100
AcDbEntity
  8
64273038_213703_
  6
Continuous
 62
     7
100
AcDbLine
 10
533.7997001928
 20
411.4033836157
 30
0.0
 11
536.6938179804
 21
411.4791660445
 31
0.0
  0
LINE
  5
CE
330
A2
100
AcDbEntity
  8
64273038_213703_
  6
Continuous
 62
     7
100
AcDbLine
 10
517.3390021383
 20
410.9723604956
 30
0.0
 11
517.7390021383
 21
410.9828344893
 31
0.0
  0
LINE
  5
CF
330
A2
100
AcDbEntity
  8
64273038_213703_
  6
Continuous
 62
     7
100
AcDbLine
 10
519.2077774715
 20
411.0212943484
 30
0.0
 11
526.4392723857
 21
411.2106509291
 31
0.0
  0
LINE
  5
D0
330
A2
100
AcDbEntity
  8
64273038_213703_
  6
Continuous
 62
     7
100
AcDbLine
 10
548.1543495399
 20
463.7970838172
 30
0.0
 11
517.3390021383
 21
462.9901844293
 31
0.0
  0
LINE
  5
D1
330
A2
100
AcDbEntity
  8
64273038_213703_
  6
Continuous
 62
     7
100
AcDbLine
 10
547.5214311433
 20
349.4413324815
 30
0.0
 11
545.9162416651
 21
410.7432397125
 31
0.0
  0
ARC
  5
D2
330
A2
100
AcDbEntity
  8
64273038_213703_
  6
Continuous
 62
     7
100
AcDbCircle
 10
536.7330819984
 20
409.9796800203
 30
0.0
 40
1.5
100
AcDbArc
 50
1.4999463351
 51
91.4999463351
  0
ARC
  5
D3
330
A2
100
AcDbEntity
  8
64273038_213703_
  6
Continuous
 62
     7
100
AcDbCircle
 10
-126.0098380335
 20
420.1351931845
 30
0.0
 40
676.2499999999994
100
AcDbArc
 50
359.3536621313
 51
3.6462305389
  0
ARC
  5
D4
330
A2
100
AcDbEntity
  8
64273038_213703_
  6
Continuous
 62
     7
100
AcDbCircle
 10
549.4971789554
 20
412.5146617882
 30
0.0
 40
0.6999999999999988
100
AcDbArc
 50
271.4999463351
 51
359.3536621312
  0
ARC
  5
D5
330
A2
100
AcDbEntity
  8
64273038_213703_
  6
Continuous
 62
     7
100
AcDbCircle
 10
548.1726727483
 20
463.0973236725
 30
0.0
 40
0.6999999999999515
100
AcDbArc
 50
3.6462305391
 51
91.4999463351
  0
SPLINE
  5
D6
330
A2
100
AcDbEntity
  8
64273038_213703_
  6
Continuous
 62
     7
100
AcDbSpline
210
0.0
220
0.0
230
1.0
 70
     8
 71
     3
 72
    13
 73
     9
 74
     0
 42
0.0000000070408538
 43
0.0000000001
 40
0.0
 40
0.0
 40
0.0
 40
0.0
 40
0.0913382766291894
 40
0.2506425029554631
 40
0.4829561990384194
 40
0.7068557786270155
 40
0.9504600625695715
 40
1.0
 40
1.0
 40
1.0
 40
1.0
 10
545.9306201744182
 20
410.8858234086554
 30
0.0
 10
545.936463566667
 20
410.931864432277
 30
0.0
 10
545.9513454916155
 20
411.0395898251586
 30
0.0
 10
546.040771886756
 20
411.254783609544
 30
0.0
 10
546.2166444818328
 20
411.4869132290851
 30
0.0
 10
546.4888378882006
 20
411.6667323598743
 30
0.0
 10
546.7338670222612
 20
411.7528739473229
 30
0.0
 10
546.8626903445172
 20
411.7397671281731
 30
0.0
 10
546.8879589272145
 20
411.7370714788888
 30
0.0
  0
ARC
  5
D7
330
A2
100
AcDbEntity
  8
64273038_213703_
  6
Continuous
 62
     7
100
AcDbCircle
 10
546.8216709987
 20
349.4230092731
 30
0.0
 40
0.700000000000016
100
AcDbArc
 50
271.4999463351
 51
1.4999463351
  0
LINE
  5
D9
330
A2
100
AcDbEntity
  8
02822131_207296_
  6
Continuous
 62
     7
100
AcDbLine
 10
526.4150513202
 20
411.1535898234
 30
0.0
 11
532.6947571749
 21
411.4826893639
 31
0.0
  0
LINE
  5
DA
330
A2
100
AcDbEntity
  8
02822131_207296_
  6
Continuous
 62
     7
100
AcDbLine
 10
526.4392723857
 20
411.2106509291
 30
0.0
 11
526.4150513202
 21
411.1535898234
 31
0.0
  0
ENDBLK
  5
DC
330
A2
100
AcDbEntity
  8
0
100
AcDbBlockEnd
  0
BLOCK
  5
F7
330
DD
100
AcDbEntity
  8
0
100
AcDbBlockBegin
  2
SE2
 70
     0
 10
0.0
 20
0.0
 30
0.0
  3
SE2
  1

  0
LINE
  5
DF
330
DD
100
AcDbEntity
  8
12030696_PROTECT
  6
Continuous
 62
     7
100
AcDbLine
 10
188.6977314388
 20
139.2511598282
 30
0.0
 11
241.3687668249
 21
139.2511598282
 31
0.0
  0
LINE
  5
E0
330
DD
100
AcDbEntity
  8
12030696_PROTECT
  6
Continuous
 62
     7
100
AcDbLine
 10
185.9823963834
 20
168.5425625635
 30
0.0
 11
186.6984167869
 21
141.1988060092
 31
0.0
  0
LINE
  5
E1
330
DD
100
AcDbEntity
  8
12030696_PROTECT
  6
Continuous
 62
     7
100
AcDbLine
 10
243.3680814768
 20
141.1988060092
 30
0.0
 11
244.0841057092
 21
168.5427087867
 31
0.0
  0
ARC
  5
E2
330
DD
100
AcDbEntity
  8
12030696_PROTECT
  6
Continuous
 62
     7
100
AcDbCircle
 10
241.3687668249
 20
141.2511598282
 30
0.0
 40
2.000000000000002
100
AcDbArc
 50
270.0
 51
358.5000022219
  0
ARC
  5
E3
330
DD
100
AcDbEntity
  8
12030696_PROTECT
  6
Continuous
 62
     7
100
AcDbCircle
 10
188.6977314388
 20
141.2511598282
 30
0.0
 40
1.999999999999997
100
AcDbArc
 50
181.4999977781
 51
270.0
  0
ARC
  5
E4
330
DD
100
AcDbEntity
  8
400692038_217068
  6
Continuous
 62
     7
100
AcDbCircle
 10
215.033249131
 20
137095.7159596699
 30
0.0
 40
136926.6876521518
100
AcDbArc
 50
269.9676129928
 51
270.0323870072
  0
LINE
  5
E5
330
DD
100
AcDbEntity
  8
400692038_217068
  6
Continuous
 62
     7
100
AcDbLine
 10
292.7338659469
 20
182.3511587411
 30
0.0
 11
294.5332491318
 21
182.3511587411
 31
0.0
  0
LINE
  5
E6
330
DD
100
AcDbEntity
  8
400692038_217068
  6
Continuous
 62
     7
100
AcDbLine
 10
294.5332491318
 20
182.3511587411
 30
0.0
 11
294.2308516245
 21
170.8030638418
 31
0.0
  0
LINE
  5
E7
330
DD
100
AcDbEntity
  8
400692038_217068
  6
Continuous
 62
     7
100
AcDbLine
 10
135.8356466392
 20
170.8030638418
 30
0.0
 11
135.5332491318
 21
182.3511587411
 31
0.0
  0
LINE
  5
E8
330
DD
100
AcDbEntity
  8
400692038_217068
  6
Continuous
 62
     7
100
AcDbLine
 10
137.3326323168
 20
182.3511587411
 30
0.0
 11
292.7338659469
 21
182.3511587411
 31
0.0
  0
LINE
  5
E9
330
DD
100
AcDbEntity
  8
400692038_217068
  6
Continuous
 62
     7
100
AcDbLine
 10
135.5332491318
 20
182.3511587411
 30
0.0
 11
137.3326323168
 21
182.3511587411
 31
0.0
  0
SPLINE
  5
EA
330
DD
100
AcDbEntity
  8
400692038_217068
  6
Continuous
 62
     7
100
AcDbSpline
210
0.0
220
0.0
230
1.0
 70
     8
 71
     3
 72
    16
 73
    12
 74
     0
 42
0.0000000002026697
 43
0.0000000001
 40
0.0196801557386605
 40
0.0196801557386605
 40
0.0196801557386605
 40
0.0196801557386605
 40
0.053617584766218
 40
0.1356892429821193
 40
0.2287843497546546
 40
0.3329031464697629
 40
0.4480458992526571
 40
0.5742128749818011
 40
0.7114043019369439
 40
0.859620312641584
 40
1.0
 40
1.0
 40
1.0
 40
1.0
 10
244.0841064320723
 20
168.5425894560685
 30
0.0
 10
244.6451319035108
 20
168.54598780291
 30
0.0
 10
246.4503237237317
 20
168.5571174589639
 30
0.0
 10
249.9716243015366
 20
168.5814456902834
 30
0.0
 10
254.5391437438906
 20
168.6164298406657
 30
0.0
 10
259.6912120645446
 20
168.6603457870232
 30
0.0
 10
265.3727597452387
 20
168.7137960287747
 30
0.0
 10
271.6129380395746
 20
168.7780185200915
 30
0.0
 10
278.3523901447224
 20
168.8530157929384
 30
0.0
 10
285.5042079973025
 20
168.9378944732371
 30
0.0
 10
289.909989928034
 20
168.99299548293
 30
0.0
 10
292.4519402425408
 20
169.0249279979755
 30
0.0
  0
SPLINE
  5
EB
330
DD
100
AcDbEntity
  8
400692038_217068
  6
Continuous
 62
     7
100
AcDbSpline
210
0.0
220
0.0
230
1.0
 70
     8
 71
     3
 72
    19
 73
    15
 74
     0
 42
0.0000000002026971
 43
0.0000000001
 40
0.0
 40
0.0
 40
0.0
 40
0.0
 40
0.1124335628531939
 40
0.2348562348285856
 40
0.3483998453392791
 40
0.4530644649213885
 40
0.5488502203511944
 40
0.6357572660700253
 40
0.7137857633059669
 40
0.7893625698761935
 40
0.8541967015098242
 40
0.9083122254088347
 40
0.9584783790710818
 40
0.9804527986866215
 40
0.9804527986866215
 40
0.9804527986866215
 40
0.9804527986866215
 10
137.6145574463742
 20
169.0248867671879
 30
0.0
 10
139.6496823973274
 20
168.9993019467714
 30
0.0
 10
143.2351722580641
 20
168.9543722299343
 30
0.0
 10
149.0863857073716
 20
168.8839351978223
 30
0.0
 10
154.6617812465974
 20
168.8198920596089
 30
0.0
 10
159.835767384619
 20
168.7636896792599
 30
0.0
 10
164.5628020787368
 20
168.7154666472672
 30
0.0
 10
168.8533818579821
 20
168.6745471806378
 30
0.0
 10
172.8116507100524
 20
168.6393666368826
 30
0.0
 10
176.4045093152466
 20
168.6097356109101
 30
0.0
 10
179.6110518901865
 20
168.5852646130869
 30
0.0
 10
182.3779677649005
 20
168.5656608448683
 30
0.0
 10
184.4993947449177
 20
168.5515999540193
 30
0.0
 10
185.6257503459835
 20
168.5446523549221
 30
0.0
 10
185.9823958958701
 20
168.5424824269094
 30
0.0
  0
ARC
  5
EC
330
DD
100
AcDbEntity
  8
400692038_217068
  6
Continuous
 62
     7
100
AcDbCircle
 10
292.4307995594
 20
170.8246388439
 30
0.0
 40
1.799999999999442
100
AcDbArc
 50
270.6509542952
 51
358.5006454834
  0
ARC
  5
ED
330
DD
100
AcDbEntity
  8
400692038_217068
  6
Continuous
 62
     7
100
AcDbCircle
 10
137.6356987017
 20
170.8246389452
 30
0.0
 40
1.799999999991356
100
AcDbArc
 50
181.4988636621
 51
269.3194477465
  0
ELLIPSE
  5
EE
330
DD
100
AcDbEntity
  8
64273038_213703_
  6
Continuous
 62
     7
100
AcDbEllipse
 10
215.0332491319
 20
107.0559668752
 30
0.0
 11
25.32621567611576
 21
3.066991105526995E-12
 31
0.0
210
0.0
220
0.0
230
1.0
 40
0.026176012
 41
0.1240476746217552
 42
3.034711451849346
  0
ELLIPSE
  5
EF
330
DD
100
AcDbEntity
  8
64273038_213703_
  6
Continuous
 62
     7
100
AcDbEllipse
 10
215.0332491319
 20
107.0559668752
 30
0.0
 11
25.32621567611576
 21
3.066991105526995E-12
 31
0.0
210
0.0
220
0.0
230
1.0
 40
0.026176012
 41
3.313978240597759
 42
3.915157402457757
  0
ELLIPSE
  5
F0
330
DD
100
AcDbEntity
  8
64273038_213703_
  6
Continuous
 62
     7
100
AcDbEllipse
 10
215.0332491319
 20
107.0559668752
 30
0.0
 11
25.32621567611576
 21
3.066991105526995E-12
 31
0.0
210
0.0
220
0.0
230
1.0
 40
0.026176012
 41
-0.7735647488679644
 42
-0.1557713430646848
  0
LINE
  5
F1
330
DD
100
AcDbEntity
  8
64273038_213703_
  6
Continuous
 62
     7
100
AcDbLine
 10
189.0332491319
 20
139.2511598282
 30
0.0
 11
189.0332491319
 21
107.7552361147
 31
0.0
  0
LINE
  5
F2
330
DD
100
AcDbEntity
  8
64273038_213703_
  6
Continuous
 62
     7
100
AcDbLine
 10
241.0332491319
 20
107.7552361147
 30
0.0
 11
241.0332491319
 21
139.2511598282
 31
0.0
  0
ARC
  5
F3
330
DD
100
AcDbEntity
  8
64273038_213703_
  6
Continuous
 62
     7
100
AcDbCircle
 10
215.0332491318
 20
782.6
 30
0.0
 40
676.2499999999995
100
AcDbArc
 50
268.4646709055
 51
270.0
  0
ARC
  5
F4
330
DD
100
AcDbEntity
  8
64273038_213703_
  6
Continuous
 62
     7
100
AcDbCircle
 10
215.0332491318
 20
782.6
 30
0.0
 40
676.2499999999995
100
AcDbArc
 50
270.0
 51
271.5353290945
  0
SPLINE
  5
F5
330
DD
100
AcDbEntity
  8
64273038_213703_
  6
Continuous
 62
     7
100
AcDbSpline
210
0.0
220
0.0
230
1.0
 70
     8
 71
     3
 72
    14
 73
    10
 74
     0
 42
0.0000000075554547
 43
0.0000000001
 40
0.0
 40
0.0
 40
0.0
 40
0.0
 40
0.023736787222455
 40
0.4994267241434509
 40
0.64080018798199
 40
0.74745405197915
 40
0.8426155359545534
 40
0.9360136832103064
 40
1.0
 40
1.0
 40
1.0
 40
1.0
 10
240.140114236144
 20
106.9623496445347
 30
0.0
 10
240.147764932279
 20
106.9633867669721
 30
0.0
 10
240.28696253082
 20
106.9825137501867
 30
0.0
 10
240.4052797475083
 20
107.0089382798002
 30
0.0
 10
240.6070301545219
 20
107.0882603152839
 30
0.0
 10
240.7414263358192
 20
107.1670068746963
 30
0.0
 10
240.8891818563831
 20
107.3049748041554
 30
0.0
 10
241.0168714961115
 20
107.5230707603431
 30
0.0
 10
241.0193398831161
 20
107.6759384209967
 30
0.0
 10
241.0203504706452
 20
107.7497002746198
 30
0.0
  0
SPLINE
  5
F6
330
DD
100
AcDbEntity
  8
64273038_213703_
  6
Continuous
 62
     7
100
AcDbSpline
210
0.0
220
0.0
230
1.0
 70
     8
 71
     3
 72
    15
 73
    11
 74
     0
 42
0.0000000069906664
 43
0.0000000001
 40
0.0
 40
0.0
 40
0.0
 40
0.0
 40
0.0050888422687773
 40
0.0943336342751974
 40
0.1735501041549244
 40
0.2547316146475181
 40
0.3503413889583051
 40
0.4797982224908368
 40
0.6802194510488794
 40
1.0
 40
1.0
 40
1.0
 40
1.0
 10
189.036545573995
 20
107.7686306525695
 30
0.0
 10
189.0352730228367
 20
107.7625199780328
 30
0.0
 10
189.0149930313577
 20
107.6650249492949
 30
0.0
 10
189.086201137836
 20
107.4530501903325
 30
0.0
 10
189.2182063706744
 20
107.2591971776554
 30
0.0
 10
189.3577131325542
 20
107.1458152857747
 30
0.0
 10
189.4802822578259
 20
107.0790116783874
 30
0.0
 10
189.6069862486974
 20
107.0310148990281
 30
0.0
 10
189.7674741691733
 20
106.9884000276671
 30
0.0
 10
189.9087453675402
 20
106.9653319532392
 30
0.0
 10
190.0101187299954
 20
106.9504162139444
 30
0.0
  0
ENDBLK
  5
F8
330
DD
100
AcDbEntity
  8
0
100
AcDbBlockEnd
  0
ENDSEC
  0
SECTION
  2
ENTITIES
  0
INSERT
  5
5F
330
1F
100
AcDbEntity
  8
Default
100
AcDbBlockReference
  2
SEANNOT_GROUP
 10
0.0
 20
0.0
 30
0.0
  0
INSERT
  5
6A
330
1F
100
AcDbEntity
  8
Default
100
AcDbBlockReference
  2
SEANNOT_GROUP1
 10
0.0
 20
0.0
 30
0.0
  0
INSERT
  5
70
330
1F
100
AcDbEntity
  8
Default
100
AcDbBlockReference
  2
SEANNOT_GROUP2
 10
0.0
 20
0.0
 30
0.0
  0
INSERT
  5
76
330
1F
100
AcDbEntity
  8
Default
100
AcDbBlockReference
  2
SE
 10
0.0
 20
0.0
 30
0.0
  0
INSERT
  5
A3
330
1F
100
AcDbEntity
  8
Default
100
AcDbBlockReference
  2
SE1
 10
0.0
 20
0.0
 30
0.0
  0
INSERT
  5
DE
330
1F
100
AcDbEntity
  8
Default
100
AcDbBlockReference
  2
SE2
 10
0.0
 20
0.0
 30
0.0
  0
TEXT
  5
FA
330
1F
100
AcDbEntity
  8
Default
  6
Continuous
 62
     7
100
AcDbText
 10
5.9362635081
 20
53.4225120485
 30
0.0
 40
10.0
  1
Grohe AG^J
  7
SEACAD_seiso_ttf
 11
5.9362635081
 21
63.4225120485
 31
0.0
100
AcDbText
 73
     3
  0
TEXT
  5
FB
330
1F
100
AcDbEntity
  8
Default
  6
Continuous
 62
     7
100
AcDbText
 10
5.9362635081
 20
37.0588756849
 30
0.0
 40
10.0
  1
 
  7
SEACAD_seiso_ttf
 11
5.9362635081
 21
47.0588756849
 31
0.0
100
AcDbText
 73
     3
  0
TEXT
  5
FC
330
1F
100
AcDbEntity
  8
Default
  6
Continuous
 62
     7
100
AcDbText
 10
5.9362635081
 20
20.6952393213
 30
0.0
 40
10.0
  1
ecn: 
  7
SEACAD_seiso_ttf
 11
5.9362635081
 21
30.6952393213
 31
0.0
100
AcDbText
 73
     3
  0
TEXT
  5
FD
330
1F
100
AcDbEntity
  8
Default
  6
Continuous
 62
     7
100
AcDbText
 10
5.9362635081
 20
4.3316029576
 30
0.0
 40
10.0
  1
unit: mm
  7
SEACAD_seiso_ttf
 11
5.9362635081
 21
14.3316029576
 31
0.0
100
AcDbText
 73
     3
  0
LINE
  5
FE
330
1F
100
AcDbEntity
  8
Default
  6
Continuous
 62
     7
100
AcDbLine
 10
0.0
 20
0.0
 30
0.0
 11
100.0
 21
0.0
 31
0.0
  0
LINE
  5
FF
330
1F
100
AcDbEntity
  8
Default
  6
Continuous
 62
     7
100
AcDbLine
 10
0.0
 20
0.0
 30
0.0
 11
0.0
 21
100.0
 31
0.0
  0
TEXT
  5
100
330
1F
100
AcDbEntity
  8
Default
  6
Continuous
 62
     7
100
AcDbText
 10
24.3923665681
 20
-18.2375342018
 30
0.0
 40
10.0
  1
100 mm
  7
SEACAD_seiso_ttf
 11
24.3923665681
 21
-8.2375342018
 31
0.0
100
AcDbText
 73
     3
  0
TEXT
  5
101
330
1F
100
AcDbEntity
  8
Default
  6
Continuous
 62
     7
100
AcDbText
 10
-7.6150308803
 20
24.6231930421
 30
0.0
 40
10.0
  1
100 mm
 50
90.0
  7
SEACAD_seiso_ttf
 11
-17.6150308803
 21
24.6231930421
 31
0.0
100
AcDbText
 73
     3
  0
TEXT
  5
102
330
1F
100
AcDbEntity
  8
Default
  6
Continuous
 62
     7
100
AcDbText
 10
28.4878128572
 20
20.0907663715
 30
0.0
 40
10.0
  1
217686
  7
SEACAD_seiso_ttf
 11
28.4878128572
 21
30.0907663715
 31
0.0
100
AcDbText
 73
     3
  0
TEXT
  5
103
330
1F
100
AcDbEntity
  8
Default
  6
Continuous
 62
     7
100
AcDbText
 10
5.9012241913
 20
36.7242780188
 30
0.0
 40
10.0
  1
19375000
  7
SEACAD_seiso_ttf
 11
5.9012241913
 21
46.7242780188
 31
0.0
100
AcDbText
 73
     3
  0
ENDSEC
  0
SECTION
  2
OBJECTS
  0
DICTIONARY
  5
C
330
0
100
AcDbDictionary
281
     1
  3
ACAD_GROUP
350
D
  3
ACAD_LAYOUT
350
1A
  3
ACAD_MLEADERSTYLE
350
107
  3
ACAD_MLINESTYLE
350
17
  3
ACAD_PLOTSETTINGS
350
19
  3
ACAD_PLOTSTYLENAME
350
E
  3
ACAD_SCALELIST
350
3B
  3
ACAD_TABLESTYLE
350
106
  3
ACAD_VISUALSTYLE
350
2A
  3
AcDbVariableDictionary
350
104
  0
DICTIONARY
  5
D
102
{ACAD_REACTORS
330
C
102
}
330
C
100
AcDbDictionary
281
     1
  0
DICTIONARY
  5
1A
102
{ACAD_REACTORS
330
C
102
}
330
C
100
AcDbDictionary
281
     1
  3
Layout1
350
1E
  3
Model
350
22
  0
DICTIONARY
  5
107
102
{ACAD_REACTORS
330
C
102
}
330
C
100
AcDbDictionary
281
     1
  0
DICTIONARY
  5
17
102
{ACAD_REACTORS
330
C
102
}
330
C
100
AcDbDictionary
281
     1
  3
Standard
350
18
  0
DICTIONARY
  5
19
102
{ACAD_REACTORS
330
C
102
}
330
C
100
AcDbDictionary
281
     1
  0
ACDBDICTIONARYWDFLT
  5
E
102
{ACAD_REACTORS
330
C
102
}
330
C
100
AcDbDictionary
281
     1
  3
Normal
350
F
100
AcDbDictionaryWithDefault
340
F
  0
DICTIONARY
  5
3B
102
{ACAD_REACTORS
330
C
102
}
330
C
100
AcDbDictionary
281
     1
  3
A0
350
3C
  3
A1
350
3D
  3
A2
350
3E
  3
A3
350
3F
  3
A4
350
40
  3
A5
350
41
  3
A6
350
42
  3
A7
350
43
  3
A8
350
44
  3
A9
350
45
  3
B0
350
46
  3
B1
350
47
  3
B2
350
48
  3
B3
350
49
  3
B4
350
4A
  3
B5
350
4B
  3
B6
350
4C
  3
B7
350
4D
  3
B8
350
4E
  3
B9
350
4F
  3
C0
350
50
  3
C1
350
51
  3
C2
350
52
  3
C3
350
53
  3
C4
350
54
  3
C5
350
55
  3
C6
350
56
  3
C7
350
57
  3
C8
350
58
  3
C9
350
59
  3
D0
350
5A
  3
D1
350
5B
  3
D2
350
5C
  0
DICTIONARY
  5
106
102
{ACAD_REACTORS
330
C
102
}
330
C
100
AcDbDictionary
281
     1
  0
DICTIONARY
  5
2A
102
{ACAD_REACTORS
330
C
102
}
330
C
100
AcDbDictionary
281
     1
  3
2dWireframe
350
2F
  3
3D Hidden
350
31
  3
3dWireframe
350
30
  3
Basic
350
32
  3
Brighten
350
36
  3
ColorChange
350
3A
  3
Conceptual
350
34
  3
Dim
350
35
  3
Facepattern
350
39
  3
Flat
350
2B
  3
FlatWithEdges
350
2C
  3
Gouraud
350
2D
  3
GouraudWithEdges
350
2E
  3
Linepattern
350
38
  3
Realistic
350
33
  3
Thicken
350
37
  0
DICTIONARY
  5
104
102
{ACAD_REACTORS
330
C
102
}
330
C
100
AcDbDictionary
281
     1
  3
CANNOSCALE
350
105
  3
PSOLHEIGHT
350
109
  3
PSOLWIDTH
350
108
  0
LAYOUT
  5
1E
102
{ACAD_REACTORS
330
1A
102
}
330
1A
100
AcDbPlotSettings
  1

  2
none_device
  4

  6

 40
0.0
 41
0.0
 42
0.0
 43
0.0
 44
0.0
 45
0.0
 46
0.0
 47
0.0
 48
0.0
 49
0.0
140
0.0
141
0.0
142
1.0
143
1.0
 70
   688
 72
     0
 73
     0
 74
     5
  7

 75
    16
147
1.0
148
0.0
149
0.0
100
AcDbLayout
  1
Layout1
 70
     1
 71
     1
 10
0.0
 20
0.0
 11
1682.0
 21
2378.0
 12
0.0
 22
0.0
 32
0.0
 14
0.0
 24
0.0
 34
0.0
 15
1682.0
 25
2378.0
 35
0.0
146
0.0
 13
0.0
 23
0.0
 33
0.0
 16
1.0
 26
0.0
 36
0.0
 17
0.0
 27
1.0
 37
0.0
 76
     0
330
1B
  0
LAYOUT
  5
22
102
{ACAD_REACTORS
330
1A
102
}
330
1A
100
AcDbPlotSettings
  1

  2
none_device
  4

  6

 40
0.0
 41
0.0
 42
0.0
 43
0.0
 44
0.0
 45
0.0
 46
0.0
 47
0.0
 48
0.0
 49
0.0
140
0.0
141
0.0
142
1.0
143
1.0
 70
  1712
 72
     0
 73
     0
 74
     0
  7

 75
     0
147
1.0
148
0.0
149
0.0
100
AcDbLayout
  1
Model
 70
     1
 71
     0
 10
0.0
 20
0.0
 11
1682.0
 21
2378.0
 12
0.0
 22
0.0
 32
0.0
 14
0.0
 24
0.0
 34
0.0
 15
1682.0
 25
2378.0
 35
0.0
146
0.0
 13
0.0
 23
0.0
 33
0.0
 16
1.0
 26
0.0
 36
0.0
 17
0.0
 27
1.0
 37
0.0
 76
     0
330
1F
331
29
  0
MLINESTYLE
  5
18
102
{ACAD_REACTORS
330
17
102
}
330
17
100
AcDbMlineStyle
  2
Standard
 70
     0
  3

 62
   256
 51
90.0
 52
90.0
 71
     2
 49
0.5
 62
   256
  6
BYLAYER
 49
-0.5
 62
   256
  6
BYLAYER
  0
ACDBPLACEHOLDER
  5
F
102
{ACAD_REACTORS
330
E
102
}
330
E
  0
SCALE
  5
3C
102
{ACAD_REACTORS
330
3B
102
}
330
3B
100
AcDbScale
 70
     0
300
1:1
140
1.0
141
1.0
290
     1
  0
SCALE
  5
3D
102
{ACAD_REACTORS
330
3B
102
}
330
3B
100
AcDbScale
 70
     0
300
1:2
140
1.0
141
2.0
290
     0
  0
SCALE
  5
3E
102
{ACAD_REACTORS
330
3B
102
}
330
3B
100
AcDbScale
 70
     0
300
1:4
140
1.0
141
4.0
290
     0
  0
SCALE
  5
3F
102
{ACAD_REACTORS
330
3B
102
}
330
3B
100
AcDbScale
 70
     0
300
1:5
140
1.0
141
5.0
290
     0
  0
SCALE
  5
40
102
{ACAD_REACTORS
330
3B
102
}
330
3B
100
AcDbScale
 70
     0
300
1:8
140
1.0
141
8.0
290
     0
  0
SCALE
  5
41
102
{ACAD_REACTORS
330
3B
102
}
330
3B
100
AcDbScale
 70
     0
300
1:10
140
1.0
141
10.0
290
     0
  0
SCALE
  5
42
102
{ACAD_REACTORS
330
3B
102
}
330
3B
100
AcDbScale
 70
     0
300
1:16
140
1.0
141
16.0
290
     0
  0
SCALE
  5
43
102
{ACAD_REACTORS
330
3B
102
}
330
3B
100
AcDbScale
 70
     0
300
1:20
140
1.0
141
20.0
290
     0
  0
SCALE
  5
44
102
{ACAD_REACTORS
330
3B
102
}
330
3B
100
AcDbScale
 70
     0
300
1:30
140
1.0
141
30.0
290
     0
  0
SCALE
  5
45
102
{ACAD_REACTORS
330
3B
102
}
330
3B
100
AcDbScale
 70
     0
300
1:40
140
1.0
141
40.0
290
     0
  0
SCALE
  5
46
102
{ACAD_REACTORS
330
3B
102
}
330
3B
100
AcDbScale
 70
     0
300
1:50
140
1.0
141
50.0
290
     0
  0
SCALE
  5
47
102
{ACAD_REACTORS
330
3B
102
}
330
3B
100
AcDbScale
 70
     0
300
1:100
140
1.0
141
100.0
290
     0
  0
SCALE
  5
48
102
{ACAD_REACTORS
330
3B
102
}
330
3B
100
AcDbScale
 70
     0
300
2:1
140
2.0
141
1.0
290
     0
  0
SCALE
  5
49
102
{ACAD_REACTORS
330
3B
102
}
330
3B
100
AcDbScale
 70
     0
300
4:1
140
4.0
141
1.0
290
     0
  0
SCALE
  5
4A
102
{ACAD_REACTORS
330
3B
102
}
330
3B
100
AcDbScale
 70
     0
300
8:1
140
8.0
141
1.0
290
     0
  0
SCALE
  5
4B
102
{ACAD_REACTORS
330
3B
102
}
330
3B
100
AcDbScale
 70
     0
300
10:1
140
10.0
141
1.0
290
     0
  0
SCALE
  5
4C
102
{ACAD_REACTORS
330
3B
102
}
330
3B
100
AcDbScale
 70
     0
300
100:1
140
100.0
141
1.0
290
     0
  0
SCALE
  5
4D
102
{ACAD_REACTORS
330
3B
102
}
330
3B
100
AcDbScale
 70
     0
300
1/128" = 1'-0"
140
0.0078125
141
12.0
290
     0
  0
SCALE
  5
4E
102
{ACAD_REACTORS
330
3B
102
}
330
3B
100
AcDbScale
 70
     0
300
1/64" = 1'-0"
140
0.015625
141
12.0
290
     0
  0
SCALE
  5
4F
102
{ACAD_REACTORS
330
3B
102
}
330
3B
100
AcDbScale
 70
     0
300
1/32" = 1'-0"
140
0.03125
141
12.0
290
     0
  0
SCALE
  5
50
102
{ACAD_REACTORS
330
3B
102
}
330
3B
100
AcDbScale
 70
     0
300
1/16" = 1'-0"
140
0.0625
141
12.0
290
     0
  0
SCALE
  5
51
102
{ACAD_REACTORS
330
3B
102
}
330
3B
100
AcDbScale
 70
     0
300
3/32" = 1'-0"
140
0.09375
141
12.0
290
     0
  0
SCALE
  5
52
102
{ACAD_REACTORS
330
3B
102
}
330
3B
100
AcDbScale
 70
     0
300
1/8" = 1'-0"
140
0.125
141
12.0
290
     0
  0
SCALE
  5
53
102
{ACAD_REACTORS
330
3B
102
}
330
3B
100
AcDbScale
 70
     0
300
3/16" = 1'-0"
140
0.1875
141
12.0
290
     0
  0
SCALE
  5
54
102
{ACAD_REACTORS
330
3B
102
}
330
3B
100
AcDbScale
 70
     0
300
1/4" = 1'-0"
140
0.25
141
12.0
290
     0
  0
SCALE
  5
55
102
{ACAD_REACTORS
330
3B
102
}
330
3B
100
AcDbScale
 70
     0
300
3/8" = 1'-0"
140
0.375
141
12.0
290
     0
  0
SCALE
  5
56
102
{ACAD_REACTORS
330
3B
102
}
330
3B
100
AcDbScale
 70
     0
300
1/2" = 1'-0"
140
0.5
141
12.0
290
     0
  0
SCALE
  5
57
102
{ACAD_REACTORS
330
3B
102
}
330
3B
100
AcDbScale
 70
     0
300
3/4" = 1'-0"
140
0.75
141
12.0
290
     0
  0
SCALE
  5
58
102
{ACAD_REACTORS
330
3B
102
}
330
3B
100
AcDbScale
 70
     0
300
1" = 1'-0"
140
1.0
141
12.0
290
     0
  0
SCALE
  5
59
102
{ACAD_REACTORS
330
3B
102
}
330
3B
100
AcDbScale
 70
     0
300
1-1/2" = 1'-0"
140
1.5
141
12.0
290
     0
  0
SCALE
  5
5A
102
{ACAD_REACTORS
330
3B
102
}
330
3B
100
AcDbScale
 70
     0
300
3" = 1'-0"
140
3.0
141
12.0
290
     0
  0
SCALE
  5
5B
102
{ACAD_REACTORS
330
3B
102
}
330
3B
100
AcDbScale
 70
     0
300
6" = 1'-0"
140
6.0
141
12.0
290
     0
  0
SCALE
  5
5C
102
{ACAD_REACTORS
330
3B
102
}
330
3B
100
AcDbScale
 70
     0
300
1'-0" = 1'-0"
140
12.0
141
12.0
290
     0
  0
VISUALSTYLE
  5
2F
102
{ACAD_REACTORS
330
2A
102
}
330
2A
100
AcDbVisualStyle
  2
2dWireframe
 70
     4
 71
     0
 72
     2
 73
     0
 90
        0
 40
-0.6
 41
-30.0
 62
     5
 63
     7
 74
     1
 91
        4
 64
     7
 65
   257
 75
     1
175
     1
 42
1.0
 92
        0
 66
   257
 43
1.0
 76
     1
 77
     6
 78
     2
 67
     7
 79
     5
170
     0
171
     0
290
     0
174
     0
 93
        1
 44
0.0
173
     0
291
     0
 45
0.0
1001
ACAD
1000
AcDbSavedByObjectVersion
1070
     0
  0
VISUALSTYLE
  5
31
102
{ACAD_REACTORS
330
2A
102
}
330
2A
100
AcDbVisualStyle
  2
3D Hidden
 70
     6
 71
     1
 72
     2
 73
     2
 90
        0
 40
-0.6
 41
-30.0
 62
     5
 63
     7
 74
     2
 91
        2
 64
     7
 65
   257
 75
     2
175
     1
 42
40.0
 92
        0
 66
   257
 43
1.0
 76
     1
 77
     6
 78
     2
 67
     7
 79
     3
170
     0
171
     0
290
     0
174
     0
 93
        1
 44
0.0
173
     0
291
     0
 45
0.0
1001
ACAD
1000
AcDbSavedByObjectVersion
1070
     0
  0
VISUALSTYLE
  5
30
102
{ACAD_REACTORS
330
2A
102
}
330
2A
100
AcDbVisualStyle
  2
3dWireframe
 70
     5
 71
     0
 72
     2
 73
     0
 90
        0
 40
-0.6
 41
-30.0
 62
     5
 63
     7
 74
     1
 91
        4
 64
     7
 65
   257
 75
     1
175
     1
 42
1.0
 92
        0
 66
   257
 43
1.0
 76
     1
 77
     6
 78
     2
 67
     7
 79
     5
170
     0
171
     0
290
     0
174
     0
 93
        1
 44
0.0
173
     0
291
     0
 45
0.0
1001
ACAD
1000
AcDbSavedByObjectVersion
1070
     0
  0
VISUALSTYLE
  5
32
102
{ACAD_REACTORS
330
2A
102
}
330
2A
100
AcDbVisualStyle
  2
Basic
 70
     7
 71
     1
 72
     0
 73
     1
 90
        0
 40
-0.6
 41
-30.0
 62
     5
 63
     7
 74
     0
 91
        4
 64
     7
 65
   257
 75
     1
175
     1
 42
1.0
 92
        8
 66
     7
 43
1.0
 76
     1
 77
     6
 78
     2
 67
     7
 79
     5
170
     0
171
     0
290
     0
174
     0
 93
        1
 44
0.0
173
     0
291
     1
 45
0.0
1001
ACAD
1000
AcDbSavedByObjectVersion
1070
     0
  0
VISUALSTYLE
  5
36
102
{ACAD_REACTORS
330
2A
102
}
330
2A
100
AcDbVisualStyle
  2
Brighten
 70
    12
 71
     2
 72
     2
 73
     0
 90
        0
 40
-0.6
 41
-30.0
 62
     5
 63
     7
 74
     1
 91
        4
 64
     7
 65
   257
 75
     1
175
     1
 42
1.0
 92
        8
 66
     7
 43
1.0
 76
     1
 77
     6
 78
     2
 67
     7
 79
     5
170
     0
171
     0
290
     0
174
     0
 93
        1
 44
50.0
173
     0
291
     1
 45
0.0
1001
ACAD
1000
AcDbSavedByObjectVersion
1070
     0
  0
VISUALSTYLE
  5
3A
102
{ACAD_REACTORS
330
2A
102
}
330
2A
100
AcDbVisualStyle
  2
ColorChange
 70
    16
 71
     2
 72
     2
 73
     3
 90
        0
 40
-0.6
 41
-30.0
 62
     5
 63
     8
 74
     1
 91
        4
 64
     7
 65
   257
 75
     1
175
     1
 42
1.0
 92
        8
 66
     8
 43
1.0
 76
     1
 77
     6
 78
     2
 67
     7
 79
     5
170
     0
171
     0
290
     0
174
     0
 93
        1
 44
0.0
173
     0
291
     1
 45
0.0
1001
ACAD
1000
AcDbSavedByObjectVersion
1070
     0
  0
VISUALSTYLE
  5
34
102
{ACAD_REACTORS
330
2A
102
}
330
2A
100
AcDbVisualStyle
  2
Conceptual
 70
     9
 71
     3
 72
     2
 73
     0
 90
        0
 40
-0.6
 41
-30.0
 62
     5
 63
     7
 74
     2
 91
        2
 64
     7
 65
   257
 75
     1
175
     1
 42
40.0
 92
        8
 66
     7
 43
1.0
 76
     1
 77
     6
 78
     2
 67
     7
 79
     3
170
     0
171
     0
290
     0
174
     0
 93
        1
 44
0.0
173
     0
291
     0
 45
0.0
1001
ACAD
1000
AcDbSavedByObjectVersion
1070
     0
  0
VISUALSTYLE
  5
35
102
{ACAD_REACTORS
330
2A
102
}
330
2A
100
AcDbVisualStyle
  2
Dim
 70
    11
 71
     2
 72
     2
 73
     0
 90
        0
 40
-0.6
 41
-30.0
 62
     5
 63
     7
 74
     1
 91
        4
 64
     7
 65
   257
 75
     1
175
     1
 42
1.0
 92
        8
 66
     7
 43
1.0
 76
     1
 77
     6
 78
     2
 67
     7
 79
     5
170
     0
171
     0
290
     0
174
     0
 93
        1
 44
-50.0
173
     0
291
     1
 45
0.0
1001
ACAD
1000
AcDbSavedByObjectVersion
1070
     0
  0
VISUALSTYLE
  5
39
102
{ACAD_REACTORS
330
2A
102
}
330
2A
100
AcDbVisualStyle
  2
Facepattern
 70
    15
 71
     2
 72
     2
 73
     0
 90
        0
 40
-0.6
 41
-30.0
 62
     5
 63
     7
 74
     1
 91
        4
 64
     7
 65
   257
 75
     1
175
     1
 42
1.0
 92
        8
 66
     7
 43
1.0
 76
     1
 77
     6
 78
     2
 67
     7
 79
     5
170
     0
171
     0
290
     0
174
     0
 93
        1
 44
0.0
173
     0
291
     1
 45
0.0
1001
ACAD
1000
AcDbSavedByObjectVersion
1070
     0
  0
VISUALSTYLE
  5
2B
102
{ACAD_REACTORS
330
2A
102
}
330
2A
100
AcDbVisualStyle
  2
Flat
 70
     0
 71
     2
 72
     1
 73
     1
 90
        2
 40
-0.6
 41
30.0
 62
     5
 63
     7
 74
     0
 91
        4
 64
     7
 65
   257
 75
     1
175
     1
 42
1.0
 92
        8
 66
     7
 43
1.0
 76
     1
 77
     6
 78
     2
 67
     7
 79
     5
170
     0
171
     0
290
     0
174
     0
 93
       13
 44
0.0
173
     0
291
     1
 45
0.0
1001
ACAD
1000
AcDbSavedByObjectVersion
1070
     0
  0
VISUALSTYLE
  5
2C
102
{ACAD_REACTORS
330
2A
102
}
330
2A
100
AcDbVisualStyle
  2
FlatWithEdges
 70
     1
 71
     2
 72
     1
 73
     1
 90
        2
 40
-0.6
 41
30.0
 62
     5
 63
     7
 74
     1
 91
        4
 64
     7
 65
   257
 75
     1
175
     1
 42
1.0
 92
        0
 66
   257
 43
1.0
 76
     1
 77
     6
 78
     2
 67
     7
 79
     5
170
     0
171
     0
290
     0
174
     0
 93
       13
 44
0.0
173
     0
291
     1
 45
0.0
1001
ACAD
1000
AcDbSavedByObjectVersion
1070
     0
  0
VISUALSTYLE
  5
2D
102
{ACAD_REACTORS
330
2A
102
}
330
2A
100
AcDbVisualStyle
  2
Gouraud
 70
     2
 71
     2
 72
     2
 73
     1
 90
        2
 40
-0.6
 41
30.0
 62
     5
 63
     7
 74
     0
 91
        4
 64
     7
 65
   257
 75
     1
175
     1
 42
1.0
 92
        0
 66
     7
 43
1.0
 76
     1
 77
     6
 78
     2
 67
     7
 79
     5
170
     0
171
     0
290
     0
174
     0
 93
       13
 44
0.0
173
     0
291
     1
 45
0.0
1001
ACAD
1000
AcDbSavedByObjectVersion
1070
     0
  0
VISUALSTYLE
  5
2E
102
{ACAD_REACTORS
330
2A
102
}
330
2A
100
AcDbVisualStyle
  2
GouraudWithEdges
 70
     3
 71
     2
 72
     2
 73
     1
 90
        2
 40
-0.6
 41
30.0
 62
     5
 63
     7
 74
     1
 91
        4
 64
     7
 65
   257
 75
     1
175
     1
 42
1.0
 92
        0
 66
   257
 43
1.0
 76
     1
 77
     6
 78
     2
 67
     7
 79
     5
170
     0
171
     0
290
     0
174
     0
 93
       13
 44
0.0
173
     0
291
     1
 45
0.0
1001
ACAD
1000
AcDbSavedByObjectVersion
1070
     0
  0
VISUALSTYLE
  5
38
102
{ACAD_REACTORS
330
2A
102
}
330
2A
100
AcDbVisualStyle
  2
Linepattern
 70
    14
 71
     2
 72
     2
 73
     0
 90
        0
 40
-0.6
 41
-30.0
 62
     5
 63
     7
 74
     1
 91
        4
 64
     7
 65
   257
 75
     7
175
     7
 42
1.0
 92
        8
 66
     7
 43
1.0
 76
     1
 77
     6
 78
     2
 67
     7
 79
     5
170
     0
171
     0
290
     0
174
     0
 93
        1
 44
0.0
173
     0
291
     1
 45
0.0
1001
ACAD
1000
AcDbSavedByObjectVersion
1070
     0
  0
VISUALSTYLE
  5
33
102
{ACAD_REACTORS
330
2A
102
}
330
2A
100
AcDbVisualStyle
  2
Realistic
 70
     8
 71
     2
 72
     2
 73
     0
 90
        0
 40
-0.6
 41
-30.0
 62
     5
 63
     7
 74
     1
 91
        0
 64
     7
 65
   257
 75
     1
175
     1
 42
1.0
 92
        8
 66
     8
 43
1.0
 76
     1
 77
     6
 78
     2
 67
     7
 79
     5
170
     0
171
     0
290
     0
174
     0
 93
       13
 44
0.0
173
     0
291
     0
 45
0.0
1001
ACAD
1000
AcDbSavedByObjectVersion
1070
     0
  0
VISUALSTYLE
  5
37
102
{ACAD_REACTORS
330
2A
102
}
330
2A
100
AcDbVisualStyle
  2
Thicken
 70
    13
 71
     2
 72
     2
 73
     0
 90
        0
 40
-0.6
 41
-30.0
 62
     5
 63
     7
 74
     1
 91
        4
 64
     7
 65
   257
 75
     1
175
     1
 42
1.0
 92
       12
 66
     7
 43
1.0
 76
     1
 77
     6
 78
     2
 67
     7
 79
     5
170
     0
171
     0
290
     0
174
     0
 93
        1
 44
0.0
173
     0
291
     1
 45
0.0
1001
ACAD
1000
AcDbSavedByObjectVersion
1070
     0
  0
DICTIONARYVAR
  5
105
102
{ACAD_REACTORS
330
104
102
}
330
104
100
DictionaryVariables
280
     0
  1
1:1
  0
DICTIONARYVAR
  5
109
102
{ACAD_REACTORS
330
104
102
}
330
104
100
DictionaryVariables
280
     0
  1
80.000000
  0
DICTIONARYVAR
  5
108
102
{ACAD_REACTORS
330
104
102
}
330
104
100
DictionaryVariables
280
     0
  1
5.000000
  0
ENDSEC
  0
EOF
