  0
SECTION
  2
HEADER
  9
$ACADVER
  1
AC1015
  9
$ACADMAINTVER
 70
     6
  9
$DWGCODEPAGE
  3
ANSI_1252
  9
$INSBASE
 10
0.0
 20
0.0
 30
0.0
  9
$EXTMIN
 10
0.0
 20
0.0
 30
0.0
  9
$EXTMAX
 10
1682.0
 20
2378.0
 30
0.0
  9
$LIMMIN
 10
0.0
 20
0.0
  9
$LIMMAX
 10
1682.0
 20
2378.0
  9
$ORTHOMODE
 70
     0
  9
$REGENMODE
 70
     1
  9
$FILLMODE
 70
     1
  9
$QTEXTMODE
 70
     0
  9
$MIRRTEXT
 70
     1
  9
$LTSCALE
 40
1.0
  9
$ATTMODE
 70
     1
  9
$TEXTSIZE
 40
2.5
  9
$TRACEWID
 40
1.0
  9
$TEXTSTYLE
  7
Standard
  9
$CLAYER
  8
0
  9
$CELTYPE
  6
ByLayer
  9
$CECOLOR
 62
   256
  9
$CELTSCALE
 40
1.0
  9
$DISPSILH
 70
     0
  9
$DIMSCALE
 40
1.0
  9
$DIMASZ
 40
2.5
  9
$DIMEXO
 40
0.625
  9
$DIMDLI
 40
3.75
  9
$DIMRND
 40
0.0
  9
$DIMDLE
 40
0.0
  9
$DIMEXE
 40
1.25
  9
$DIMTP
 40
0.0
  9
$DIMTM
 40
0.0
  9
$DIMTXT
 40
2.5
  9
$DIMCEN
 40
2.5
  9
$DIMTSZ
 40
0.0
  9
$DIMTOL
 70
     0
  9
$DIMLIM
 70
     0
  9
$DIMTIH
 70
     0
  9
$DIMTOH
 70
     0
  9
$DIMSE1
 70
     0
  9
$DIMSE2
 70
     0
  9
$DIMTAD
 70
     1
  9
$DIMZIN
 70
     8
  9
$DIMBLK
  1

  9
$DIMASO
 70
     1
  9
$DIMSHO
 70
     1
  9
$DIMPOST
  1

  9
$DIMAPOST
  1

  9
$DIMALT
 70
     0
  9
$DIMALTD
 70
     3
  9
$DIMALTF
 40
0.0393700787
  9
$DIMLFAC
 40
1.0
  9
$DIMTOFL
 70
     1
  9
$DIMTVP
 40
0.0
  9
$DIMTIX
 70
     0
  9
$DIMSOXD
 70
     0
  9
$DIMSAH
 70
     0
  9
$DIMBLK1
  1

  9
$DIMBLK2
  1

  9
$DIMSTYLE
  2
ISO-25
  9
$DIMCLRD
 70
     0
  9
$DIMCLRE
 70
     0
  9
$DIMCLRT
 70
     0
  9
$DIMTFAC
 40
1.0
  9
$DIMGAP
 40
0.625
  9
$DIMJUST
 70
     0
  9
$DIMSD1
 70
     0
  9
$DIMSD2
 70
     0
  9
$DIMTOLJ
 70
     0
  9
$DIMTZIN
 70
     8
  9
$DIMALTZ
 70
     0
  9
$DIMALTTZ
 70
     0
  9
$DIMUPT
 70
     0
  9
$DIMDEC
 70
     2
  9
$DIMTDEC
 70
     2
  9
$DIMALTU
 70
     2
  9
$DIMALTTD
 70
     3
  9
$DIMTXSTY
  7
Standard
  9
$DIMAUNIT
 70
     0
  9
$DIMADEC
 70
     0
  9
$DIMALTRND
 40
0.0
  9
$DIMAZIN
 70
     0
  9
$DIMDSEP
 70
    44
  9
$DIMATFIT
 70
     3
  9
$DIMFRAC
 70
     0
  9
$DIMLDRBLK
  1

  9
$DIMLUNIT
 70
     2
  9
$DIMLWD
 70
    -2
  9
$DIMLWE
 70
    -2
  9
$DIMTMOVE
 70
     0
  9
$LUNITS
 70
     2
  9
$LUPREC
 70
     4
  9
$SKETCHINC
 40
1.0
  9
$FILLETRAD
 40
10.0
  9
$AUNITS
 70
     0
  9
$AUPREC
 70
     0
  9
$MENU
  1
.
  9
$ELEVATION
 40
0.0
  9
$PELEVATION
 40
0.0
  9
$THICKNESS
 40
0.0
  9
$LIMCHECK
 70
     0
  9
$CHAMFERA
 40
10.0
  9
$CHAMFERB
 40
10.0
  9
$CHAMFERC
 40
20.0
  9
$CHAMFERD
 40
0.0
  9
$SKPOLY
 70
     0
  9
$TDCREATE
 40
2455454.600992153
  9
$TDUCREATE
 40
2455454.517658819
  9
$TDUPDATE
 40
2455454.600992165
  9
$TDUUPDATE
 40
2455454.517658831
  9
$TDINDWG
 40
0.0000000116
  9
$TDUSRTIMER
 40
0.0000000116
  9
$USRTIMER
 70
     1
  9
$ANGBASE
 50
0.0
  9
$ANGDIR
 70
     0
  9
$PDMODE
 70
     0
  9
$PDSIZE
 40
0.0
  9
$PLINEWID
 40
0.0
  9
$SPLFRAME
 70
     0
  9
$SPLINETYPE
 70
     6
  9
$SPLINESEGS
 70
     8
  9
$HANDSEED
  5
39C
  9
$SURFTAB1
 70
     6
  9
$SURFTAB2
 70
     6
  9
$SURFTYPE
 70
     6
  9
$SURFU
 70
     6
  9
$SURFV
 70
     6
  9
$UCSBASE
  2

  9
$UCSNAME
  2

  9
$UCSORG
 10
0.0
 20
0.0
 30
0.0
  9
$UCSXDIR
 10
1.0
 20
0.0
 30
0.0
  9
$UCSYDIR
 10
0.0
 20
1.0
 30
0.0
  9
$UCSORTHOREF
  2

  9
$UCSORTHOVIEW
 70
     0
  9
$UCSORGTOP
 10
0.0
 20
0.0
 30
0.0
  9
$UCSORGBOTTOM
 10
0.0
 20
0.0
 30
0.0
  9
$UCSORGLEFT
 10
0.0
 20
0.0
 30
0.0
  9
$UCSORGRIGHT
 10
0.0
 20
0.0
 30
0.0
  9
$UCSORGFRONT
 10
0.0
 20
0.0
 30
0.0
  9
$UCSORGBACK
 10
0.0
 20
0.0
 30
0.0
  9
$PUCSBASE
  2

  9
$PUCSNAME
  2

  9
$PUCSORG
 10
0.0
 20
0.0
 30
0.0
  9
$PUCSXDIR
 10
1.0
 20
0.0
 30
0.0
  9
$PUCSYDIR
 10
0.0
 20
1.0
 30
0.0
  9
$PUCSORTHOREF
  2

  9
$PUCSORTHOVIEW
 70
     0
  9
$PUCSORGTOP
 10
0.0
 20
0.0
 30
0.0
  9
$PUCSORGBOTTOM
 10
0.0
 20
0.0
 30
0.0
  9
$PUCSORGLEFT
 10
0.0
 20
0.0
 30
0.0
  9
$PUCSORGRIGHT
 10
0.0
 20
0.0
 30
0.0
  9
$PUCSORGFRONT
 10
0.0
 20
0.0
 30
0.0
  9
$PUCSORGBACK
 10
0.0
 20
0.0
 30
0.0
  9
$USERI1
 70
     0
  9
$USERI2
 70
     0
  9
$USERI3
 70
     0
  9
$USERI4
 70
     0
  9
$USERI5
 70
     0
  9
$USERR1
 40
0.0
  9
$USERR2
 40
0.0
  9
$USERR3
 40
0.0
  9
$USERR4
 40
0.0
  9
$USERR5
 40
0.0
  9
$WORLDVIEW
 70
     1
  9
$SHADEDGE
 70
     3
  9
$SHADEDIF
 70
    70
  9
$TILEMODE
 70
     1
  9
$MAXACTVP
 70
    64
  9
$PINSBASE
 10
0.0
 20
0.0
 30
0.0
  9
$PLIMCHECK
 70
     0
  9
$PEXTMIN
 10
0.0
 20
0.0
 30
0.0
  9
$PEXTMAX
 10
1682.0
 20
2378.0
 30
0.0
  9
$PLIMMIN
 10
0.0
 20
0.0
  9
$PLIMMAX
 10
1682.0
 20
2378.0
  9
$UNITMODE
 70
     0
  9
$VISRETAIN
 70
     1
  9
$PLINEGEN
 70
     0
  9
$PSLTSCALE
 70
     1
  9
$TREEDEPTH
 70
  3020
  9
$CMLSTYLE
  2
Standard
  9
$CMLJUST
 70
     0
  9
$CMLSCALE
 40
20.0
  9
$PROXYGRAPHICS
 70
     1
  9
$MEASUREMENT
 70
     1
  9
$CELWEIGHT
370
    -1
  9
$ENDCAPS
280
     0
  9
$JOINSTYLE
280
     0
  9
$LWDISPLAY
290
     0
  9
$INSUNITS
 70
     4
  9
$HYPERLINKBASE
  1

  9
$STYLESHEET
  1

  9
$XEDIT
290
     1
  9
$CEPSNTYPE
380
     0
  9
$PSTYLEMODE
290
     1
  9
$FINGERPRINTGUID
  2
{D6781A17-EDE7-463A-AB84-1ACE47DACA23}
  9
$VERSIONGUID
  2
{FAEB1C32-E019-11D5-929B-00C0DF256EC4}
  9
$EXTNAMES
290
     1
  9
$PSVPSCALE
 40
0.0
  9
$OLESTARTUP
290
     0
  0
ENDSEC
  0
SECTION
  2
CLASSES
  0
CLASS
  1
ACDBDICTIONARYWDFLT
  2
AcDbDictionaryWithDefault
  3
ObjectDBX Classes
 90
        0
280
     0
281
     0
  0
CLASS
  1
VISUALSTYLE
  2
AcDbVisualStyle
  3
ObjectDBX Classes
 90
     4095
280
     0
281
     0
  0
CLASS
  1
SCALE
  2
AcDbScale
  3
ObjectDBX Classes
 90
     1153
280
     0
281
     0
  0
CLASS
  1
DICTIONARYVAR
  2
AcDbDictionaryVar
  3
ObjectDBX Classes
 90
        0
280
     0
281
     0
  0
CLASS
  1
ACDBPLACEHOLDER
  2
AcDbPlaceHolder
  3
ObjectDBX Classes
 90
        0
280
     0
281
     0
  0
CLASS
  1
LAYOUT
  2
AcDbLayout
  3
ObjectDBX Classes
 90
        0
280
     0
281
     0
  0
ENDSEC
  0
SECTION
  2
TABLES
  0
TABLE
  2
VPORT
  5
8
330
0
100
AcDbSymbolTable
 70
     1
  0
VPORT
  5
29
330
8
100
AcDbSymbolTableRecord
100
AcDbViewportTableRecord
  2
*Active
 70
     0
 10
0.0
 20
0.0
 11
1.0
 21
1.0
 12
344.1869158879
 22
148.5
 13
0.0
 23
0.0
 14
10.0
 24
10.0
 15
10.0
 25
10.0
 16
0.0
 26
0.0
 36
1.0
 17
0.0
 27
0.0
 37
0.0
 40
297.0
 41
1.9729729729
 42
50.0
 43
0.0
 44
0.0
 50
0.0
 51
0.0
 71
     0
 72
   100
 73
     1
 74
     3
 75
     0
 76
     0
 77
     0
 78
     0
281
     0
 65
     1
110
0.0
120
0.0
130
0.0
111
1.0
121
0.0
131
0.0
112
0.0
122
1.0
132
0.0
 79
     0
146
0.0
  0
ENDTAB
  0
TABLE
  2
LTYPE
  5
5
330
0
100
AcDbSymbolTable
 70
     2
  0
LTYPE
  5
14
330
5
100
AcDbSymbolTableRecord
100
AcDbLinetypeTableRecord
  2
ByBlock
 70
     0
  3

 72
    65
 73
     0
 40
0.0
  0
LTYPE
  5
15
330
5
100
AcDbSymbolTableRecord
100
AcDbLinetypeTableRecord
  2
ByLayer
 70
     0
  3

 72
    65
 73
     0
 40
0.0
  0
LTYPE
  5
16
330
5
100
AcDbSymbolTableRecord
100
AcDbLinetypeTableRecord
  2
Continuous
 70
     0
  3
Solid line
 72
    65
 73
     0
 40
0.0
  0
LTYPE
  5
60
330
5
100
AcDbSymbolTableRecord
100
AcDbLinetypeTableRecord
  2
CENTER2
 70
     0
  3
Center (.5x) ___ _ ___ _ ___ _ ___ _ ___ _ ___
 72
    65
 73
     4
 40
28.575
 49
19.05
 74
     4
 75
     0
340
0
 46
0.0
 50
0.0
 44
0.0
 45
0.0
 49
-3.175
 74
     4
 75
     0
340
0
 46
0.0
 50
0.0
 44
0.0
 45
0.0
 49
3.175
 74
     4
 75
     0
340
0
 46
0.0
 50
0.0
 44
0.0
 45
0.0
 49
-3.175
 74
     4
 75
     0
340
0
 46
0.0
 50
0.0
 44
0.0
 45
0.0
  0
ENDTAB
  0
TABLE
  2
LAYER
  5
2
330
0
100
AcDbSymbolTable
 70
    12
  0
LAYER
  5
10
330
2
100
AcDbSymbolTableRecord
100
AcDbLayerTableRecord
  2
0
 70
     0
 62
     7
  6
Continuous
370
    -3
390
F
  0
LAYER
  5
5D
330
2
100
AcDbSymbolTableRecord
100
AcDbLayerTableRecord
  2
Default
 70
     0
 62
     7
  6
Continuous
370
    -3
390
F
  0
LAYER
  5
77
330
2
100
AcDbSymbolTableRecord
100
AcDbLayerTableRecord
  2
$DDT_AUDIT_GENERATED_(77)
 70
     0
 62
     7
  6
Continuous
370
    -3
390
F
  0
LAYER
  5
7D
330
2
100
AcDbSymbolTableRecord
100
AcDbLayerTableRecord
  2
$DDT_AUDIT_GENERATED_(7D)
 70
     0
 62
     7
  6
Continuous
370
    -3
390
F
  0
LAYER
  5
83
330
2
100
AcDbSymbolTableRecord
100
AcDbLayerTableRecord
  2
$DDT_AUDIT_GENERATED_(83)
 70
     0
 62
     7
  6
Continuous
370
    -3
390
F
  0
LAYER
  5
A1
330
2
100
AcDbSymbolTableRecord
100
AcDbLayerTableRecord
  2
$DDT_AUDIT_GENERATED_(A1)
 70
     0
 62
     7
  6
Continuous
370
    -3
390
F
  0
LAYER
  5
AB
330
2
100
AcDbSymbolTableRecord
100
AcDbLayerTableRecord
  2
$DDT_AUDIT_GENERATED_(AB)
 70
     0
 62
     7
  6
Continuous
370
    -3
390
F
  0
LAYER
  5
BA
330
2
100
AcDbSymbolTableRecord
100
AcDbLayerTableRecord
  2
$DDT_AUDIT_GENERATED_(BA)
 70
     0
 62
     7
  6
Continuous
370
    -3
390
F
  0
LAYER
  5
DF
330
2
100
AcDbSymbolTableRecord
100
AcDbLayerTableRecord
  2
$DDT_AUDIT_GENERATED_(DF)
 70
     0
 62
     7
  6
Continuous
370
    -3
390
F
  0
LAYER
  5
ED
330
2
100
AcDbSymbolTableRecord
100
AcDbLayerTableRecord
  2
$DDT_AUDIT_GENERATED_(ED)
 70
     0
 62
     7
  6
Continuous
370
    -3
390
F
  0
LAYER
  5
2F2
330
2
100
AcDbSymbolTableRecord
100
AcDbLayerTableRecord
  2
$DDT_AUDIT_GENERATED_(2F2)
 70
     0
 62
     7
  6
Continuous
370
    -3
390
F
  0
LAYER
  5
34F
330
2
100
AcDbSymbolTableRecord
100
AcDbLayerTableRecord
  2
$DDT_AUDIT_GENERATED_(34F)
 70
     0
 62
     7
  6
Continuous
370
    -3
390
F
  0
ENDTAB
  0
TABLE
  2
STYLE
  5
3
330
0
100
AcDbSymbolTable
 70
     2
  0
STYLE
  5
11
330
3
100
AcDbSymbolTableRecord
100
AcDbTextStyleTableRecord
  2
Standard
 70
     0
 40
0.0
 41
1.0
 50
0.0
 71
     0
 42
2.5
  3
txt
  4

  0
STYLE
  5
38B
330
3
100
AcDbSymbolTableRecord
100
AcDbTextStyleTableRecord
  2
SEACAD_seiso_ttf
 70
     0
 40
0.0
 41
1.0
 50
0.0
 71
     0
 42
0.2
  3
seiso.ttf
  4

  0
ENDTAB
  0
TABLE
  2
VIEW
  5
6
330
0
100
AcDbSymbolTable
 70
     0
  0
ENDTAB
  0
TABLE
  2
UCS
  5
7
330
0
100
AcDbSymbolTable
 70
     0
  0
ENDTAB
  0
TABLE
  2
APPID
  5
9
330
0
100
AcDbSymbolTable
 70
     1
  0
APPID
  5
12
330
9
100
AcDbSymbolTableRecord
100
AcDbRegAppTableRecord
  2
ACAD
 70
     0
  0
ENDTAB
  0
TABLE
  2
DIMSTYLE
  5
A
330
0
100
AcDbSymbolTable
 70
     1
100
AcDbDimStyleTable
  0
DIMSTYLE
105
27
330
A
100
AcDbSymbolTableRecord
100
AcDbDimStyleTableRecord
  2
ISO-25
 70
     0
 41
2.5
 42
0.625
 43
3.75
 44
1.25
 73
     0
 74
     0
 77
     1
 78
     8
140
2.5
141
2.5
143
0.0393700787
147
0.625
171
     3
172
     1
271
     2
272
     2
274
     3
278
    44
283
     0
284
     8
340
11
  0
ENDTAB
  0
TABLE
  2
BLOCK_RECORD
  5
1
330
0
100
AcDbSymbolTable
 70
     7
  0
BLOCK_RECORD
  5
1F
330
1
100
AcDbSymbolTableRecord
100
AcDbBlockTableRecord
  2
*Model_Space
340
22
  0
BLOCK_RECORD
  5
1B
330
1
100
AcDbSymbolTableRecord
100
AcDbBlockTableRecord
  2
*Paper_Space
340
1E
  0
BLOCK_RECORD
  5
5E
330
1
100
AcDbSymbolTableRecord
100
AcDbBlockTableRecord
  2
SEANNOT_GROUP
340
0
102
{BLKREFS
331
5F
102
}
  0
BLOCK_RECORD
  5
65
330
1
100
AcDbSymbolTableRecord
100
AcDbBlockTableRecord
  2
SEANNOT_GROUP1
340
0
102
{BLKREFS
331
66
102
}
  0
BLOCK_RECORD
  5
6B
330
1
100
AcDbSymbolTableRecord
100
AcDbBlockTableRecord
  2
SEANNOT_GROUP2
340
0
102
{BLKREFS
331
6C
102
}
  0
BLOCK_RECORD
  5
75
330
1
100
AcDbSymbolTableRecord
100
AcDbBlockTableRecord
  2
SE
340
0
102
{BLKREFS
331
76
102
}
  0
BLOCK_RECORD
  5
2FD
330
1
100
AcDbSymbolTableRecord
100
AcDbBlockTableRecord
  2
SE1
340
0
102
{BLKREFS
331
2FE
102
}
  0
BLOCK_RECORD
  5
366
330
1
100
AcDbSymbolTableRecord
100
AcDbBlockTableRecord
  2
SE2
340
0
102
{BLKREFS
331
367
102
}
  0
ENDTAB
  0
ENDSEC
  0
SECTION
  2
BLOCKS
  0
BLOCK
  5
20
330
1F
100
AcDbEntity
  8
0
100
AcDbBlockBegin
  2
*Model_Space
 70
     0
 10
0.0
 20
0.0
 30
0.0
  3
*Model_Space
  1

  0
ENDBLK
  5
21
330
1F
100
AcDbEntity
  8
0
100
AcDbBlockEnd
  0
BLOCK
  5
1C
330
1B
100
AcDbEntity
 67
     1
  8
0
100
AcDbBlockBegin
  2
*Paper_Space
 70
     0
 10
0.0
 20
0.0
 30
0.0
  3
*Paper_Space
  1

  0
ENDBLK
  5
1D
330
1B
100
AcDbEntity
 67
     1
  8
0
100
AcDbBlockEnd
  0
BLOCK
  5
63
330
5E
100
AcDbEntity
  8
0
100
AcDbBlockBegin
  2
SEANNOT_GROUP
 70
     0
 10
0.0
 20
0.0
 30
0.0
  3
SEANNOT_GROUP
  1

  0
LINE
  5
61
330
5E
100
AcDbEntity
  8
Default
  6
CENTER2
 62
     7
100
AcDbLine
 10
265.2190453454
 20
531.7003385912
 30
0.0
 11
225.2190462395
 21
531.7003385912
 31
0.0
  0
LINE
  5
62
330
5E
100
AcDbEntity
  8
Default
  6
CENTER2
 62
     7
100
AcDbLine
 10
245.2190457924
 20
551.7003381442
 30
0.0
 11
245.2190457924
 21
511.7003390383
 31
0.0
  0
ENDBLK
  5
64
330
5E
100
AcDbEntity
  8
0
100
AcDbBlockEnd
  0
BLOCK
  5
69
330
65
100
AcDbEntity
  8
0
100
AcDbBlockBegin
  2
SEANNOT_GROUP1
 70
     0
 10
0.0
 20
0.0
 30
0.0
  3
SEANNOT_GROUP1
  1

  0
LINE
  5
67
330
65
100
AcDbEntity
  8
Default
  6
CENTER2
 62
     7
100
AcDbLine
 10
134.765620588
 20
531.7003385912
 30
0.0
 11
94.765621482
 21
531.7003385912
 31
0.0
  0
LINE
  5
68
330
65
100
AcDbEntity
  8
Default
  6
CENTER2
 62
     7
100
AcDbLine
 10
114.765621035
 20
551.7003381442
 30
0.0
 11
114.765621035
 21
511.7003390383
 31
0.0
  0
ENDBLK
  5
6A
330
65
100
AcDbEntity
  8
0
100
AcDbBlockEnd
  0
BLOCK
  5
73
330
6B
100
AcDbEntity
  8
0
100
AcDbBlockBegin
  2
SEANNOT_GROUP2
 70
     0
 10
0.0
 20
0.0
 30
0.0
  3
SEANNOT_GROUP2
  1

  0
LINE
  5
6D
330
6B
100
AcDbEntity
  8
Default
  6
CENTER2
 62
     7
100
AcDbLine
 10
134.7873758825
 20
345.3476555012
 30
0.0
 11
94.7873767766
 21
345.3476555012
 31
0.0
  0
LINE
  5
6E
330
6B
100
AcDbEntity
  8
Default
  6
CENTER2
 62
     7
100
AcDbLine
 10
114.7873763296
 20
365.3476550542
 30
0.0
 11
114.7873763296
 21
325.3476559483
 31
0.0
  0
LINE
  5
6F
330
6B
100
AcDbEntity
  8
Default
  6
CENTER2
 62
     7
100
AcDbLine
 10
139.7873757708
 20
345.3476555012
 30
0.0
 11
145.5589396111
 21
345.3476555012
 31
0.0
  0
LINE
  5
70
330
6B
100
AcDbEntity
  8
Default
  6
CENTER2
 62
     7
100
AcDbLine
 10
114.7873763296
 20
370.3476549424
 30
0.0
 11
114.7873763296
 21
376.1192187827
 31
0.0
  0
LINE
  5
71
330
6B
100
AcDbEntity
  8
Default
  6
CENTER2
 62
     7
100
AcDbLine
 10
89.7873768884
 20
345.3476555012
 30
0.0
 11
84.015813048
 21
345.3476555012
 31
0.0
  0
LINE
  5
72
330
6B
100
AcDbEntity
  8
Default
  6
CENTER2
 62
     7
100
AcDbLine
 10
114.7873763296
 20
320.34765606
 30
0.0
 11
114.7873763296
 21
314.5760922197
 31
0.0
  0
ENDBLK
  5
74
330
6B
100
AcDbEntity
  8
0
100
AcDbBlockEnd
  0
BLOCK
  5
2FB
330
75
100
AcDbEntity
  8
0
100
AcDbBlockBegin
  2
SE
 70
     0
 10
0.0
 20
0.0
 30
0.0
  3
SE
  1

  0
LINE
  5
78
330
75
100
AcDbEntity
  8
$DDT_AUDIT_GENERATED_(77)
  6
Continuous
 62
     7
100
AcDbLine
 10
140.765621035
 20
531.7003385912
 30
0.0
 11
88.765621035
 21
531.7003385912
 31
0.0
  0
LINE
  5
79
330
75
100
AcDbEntity
  8
$DDT_AUDIT_GENERATED_(77)
  6
Continuous
 62
     7
100
AcDbLine
 10
88.265621035
 20
532.2503385912
 30
0.0
 11
88.265621035
 21
532.2003385912
 31
0.0
  0
LINE
  5
7A
330
75
100
AcDbEntity
  8
$DDT_AUDIT_GENERATED_(77)
  6
Continuous
 62
     7
100
AcDbLine
 10
141.265621035
 20
532.2003385912
 30
0.0
 11
141.265621035
 21
532.2503385912
 31
0.0
  0
ARC
  5
7B
330
75
100
AcDbEntity
  8
$DDT_AUDIT_GENERATED_(77)
  6
Continuous
 62
     7
100
AcDbCircle
 10
88.765621035
 20
532.2003385912
 30
0.0
 40
0.5000000000000004
100
AcDbArc
 50
180.0
 51
270.0
  0
ARC
  5
7C
330
75
100
AcDbEntity
  8
$DDT_AUDIT_GENERATED_(77)
  6
Continuous
 62
     7
100
AcDbCircle
 10
140.765621035
 20
532.2003385912
 30
0.0
 40
0.5000000000000004
100
AcDbArc
 50
270.0
 51
0.0
  0
LINE
  5
7E
330
75
100
AcDbEntity
  8
$DDT_AUDIT_GENERATED_(7D)
  6
Continuous
 62
     7
100
AcDbLine
 10
143.765621035
 20
600.2503385912
 30
0.0
 11
130.2691709843
 21
600.2503385912
 31
0.0
  0
LINE
  5
7F
330
75
100
AcDbEntity
  8
$DDT_AUDIT_GENERATED_(7D)
  6
Continuous
 62
     7
100
AcDbLine
 10
99.2556223483
 20
600.2503385912
 30
0.0
 11
85.765621035
 21
600.2503385912
 31
0.0
  0
LINE
  5
80
330
75
100
AcDbEntity
  8
$DDT_AUDIT_GENERATED_(7D)
  6
Continuous
 62
     7
100
AcDbLine
 10
143.765621035
 20
532.2503385912
 30
0.0
 11
85.765621035
 21
532.2503385912
 31
0.0
  0
LINE
  5
81
330
75
100
AcDbEntity
  8
$DDT_AUDIT_GENERATED_(7D)
  6
Continuous
 62
     7
100
AcDbLine
 10
143.765621035
 20
532.2503385912
 30
0.0
 11
143.765621035
 21
600.2503385912
 31
0.0
  0
LINE
  5
82
330
75
100
AcDbEntity
  8
$DDT_AUDIT_GENERATED_(7D)
  6
Continuous
 62
     7
100
AcDbLine
 10
85.765621035
 20
600.2503385912
 30
0.0
 11
85.765621035
 21
532.2503385912
 31
0.0
  0
ARC
  5
84
330
75
100
AcDbEntity
  8
$DDT_AUDIT_GENERATED_(83)
  6
Continuous
 62
     7
100
AcDbCircle
 10
100.8984698805
 20
670.731882168
 30
0.0
 40
1.630587739464873
100
AcDbArc
 50
170.1499892355
 51
179.7995842031
  0
SPLINE
  5
85
330
75
100
AcDbEntity
  8
$DDT_AUDIT_GENERATED_(83)
  6
Continuous
 62
     7
100
AcDbSpline
210
0.0
220
0.0
230
1.0
 70
     8
 71
     3
 72
    19
 73
    15
 74
     0
 42
0.0000000006328822
 43
0.0000000001
 40
0.0
 40
0.0
 40
0.0
 40
0.0
 40
0.045542008080176
 40
0.0933227433515691
 40
0.143344758418716
 40
0.1956102517044641
 40
0.2501211243317095
 40
0.3540355455232832
 40
0.500051597776871
 40
0.6455231901856373
 40
0.7499826914260913
 40
0.8394645217682852
 40
0.9228006585734482
 40
1.0
 40
1.0
 40
1.0
 40
1.0
 10
114.7656846446318
 20
672.0181421227895
 30
0.0
 10
114.3962514838775
 20
672.0180836441099
 30
0.0
 10
113.6392247847886
 20
672.0179638381112
 30
0.0
 10
112.4825611610858
 20
672.0155672360477
 30
0.0
 10
111.2854253958732
 20
672.0096504395127
 30
0.0
 10
110.0575112112184
 20
671.9987451776007
 30
0.0
 10
108.4513681409332
 20
671.9762242648898
 30
0.0
 10
106.2466316194267
 20
671.9276625924707
 30
0.0
 10
103.7137846389175
 20
671.8103513456846
 30
0.0
 10
101.7019207139509
 20
671.6243096132619
 30
0.0
 10
100.4380085923584
 20
671.4136837552753
 30
0.0
 10
99.72769059290243
 20
671.2007463787273
 30
0.0
 10
99.3359129068839
 20
670.9811688114075
 30
0.0
 10
99.28998042576814
 20
670.8166842274811
 30
0.0
 10
99.26789211649677
 20
670.7375858145086
 30
0.0
  0
SPLINE
  5
86
330
75
100
AcDbEntity
  8
$DDT_AUDIT_GENERATED_(83)
  6
Continuous
 62
     7
100
AcDbSpline
210
0.0
220
0.0
230
1.0
 70
     8
 71
     3
 72
     9
 73
     5
 74
     0
 42
0.0000000004720496
 43
0.0000000001
 40
0.8436578547339915
 40
0.8436578547339915
 40
0.8436578547339915
 40
0.8436578547339915
 40
0.8438425792288535
 40
0.8962269032427987
 40
0.8962269032427987
 40
0.8962269032427987
 40
0.8962269032427987
 10
111.424657802573
 20
674.1363030412217
 30
0.0
 10
111.4259518363752
 20
674.1363470365584
 30
0.0
 10
111.7942201727389
 20
674.1488605585564
 30
0.0
 10
112.165652703058
 20
674.1594655787032
 30
0.0
 10
112.5378365525387
 20
674.1676753868808
 30
0.0
  0
SPLINE
  5
87
330
75
100
AcDbEntity
  8
$DDT_AUDIT_GENERATED_(83)
  6
Continuous
 62
     7
100
AcDbSpline
210
0.0
220
0.0
230
1.0
 70
    12
 71
     3
 72
    14
 73
    10
 74
     0
 42
0.0000000006300306
 43
0.0000000001
 40
0.0
 40
0.0
 40
0.0
 40
0.0
 40
0.2499901129846349
 40
0.2499901129846349
 40
0.4999934086564237
 40
0.4999934086564237
 40
0.7499967043282098
 40
0.7499967043282098
 40
1.0
 40
1.0
 40
1.0
 40
1.0
 10
114.7656846446318
 20
672.0181421227895
 30
0.0
 41
1.000000000000016
 10
116.7942757567547
 20
672.0181387246922
 30
0.0
 41
1.000000000000016
 10
118.8220607575184
 20
672.0120733160637
 30
0.0
 41
1.000000000000016
 10
122.5705075549039
 20
671.9489612826496
 30
0.0
 41
1.000000000000016
 10
124.2896782647909
 20
671.8919694874667
 30
0.0
 41
1.000000000000016
 10
127.1586909884924
 20
671.7030763793028
 30
0.0
 41
1.000000000000016
 10
128.3074041743067
 20
671.5713227719399
 30
0.0
 41
1.000000000000016
 10
129.8601027251187
 20
671.2208694377423
 30
0.0
 41
1.000000000000016
 10
130.2634771727512
 20
671.0023802644762
 30
0.0
 41
1.000000000000016
 10
130.2634771727629
 20
670.7375858145086
 30
0.0
 41
1.000000000000016
  0
ARC
  5
88
330
75
100
AcDbEntity
  8
$DDT_AUDIT_GENERATED_(83)
  6
Continuous
 62
     7
100
AcDbCircle
 10
128.6328994087
 20
670.731882168
 30
0.0
 40
1.63058773946488
100
AcDbArc
 50
0.2004157969
 51
9.8500107645
  0
SPLINE
  5
89
330
75
100
AcDbEntity
  8
$DDT_AUDIT_GENERATED_(83)
  6
Continuous
 62
     7
100
AcDbSpline
210
0.0
220
0.0
230
1.0
 70
    12
 71
     3
 72
    12
 73
     8
 74
     0
 42
0.0000000005751169
 43
0.0000000001
 40
0.311712530467217
 40
0.311712530467217
 40
0.311712530467217
 40
0.311712530467217
 40
0.5000075803235584
 40
0.5000075803235584
 40
0.7500113704853387
 40
0.7500113704853387
 40
0.8933653622622091
 40
0.8933653622622091
 40
0.8933653622622091
 40
0.8933653622622091
 10
127.0462609432992
 20
673.2258474738204
 30
0.0
 41
0.9999999999999849
 10
126.3469313398091
 20
673.3885437046141
 30
0.0
 41
0.9999999999999849
 10
125.4682841090232
 20
673.5375073380123
 30
0.0
 41
0.9999999999999849
 10
123.1257156729253
 20
673.835505400321
 30
0.0
 41
0.9999999999999847
 10
121.567350215683
 20
673.96867827314
 30
0.0
 41
0.9999999999999847
 10
118.9647086891546
 20
674.1087042459866
 30
0.0
 41
0.9999999999999847
 10
117.9852070740972
 20
674.1453157092303
 30
0.0
 41
0.9999999999999847
 10
116.9930791167639
 20
674.1672659095912
 30
0.0
 41
0.9999999999999847
  0
ARC
  5
8A
330
75
100
AcDbEntity
  8
$DDT_AUDIT_GENERATED_(83)
  6
Continuous
 62
     7
100
AcDbCircle
 10
123.3773971308
 20
573.8450519282
 30
0.0
 40
7.912632723939687
100
AcDbArc
 50
342.699131722
 51
29.2489941178
  0
ARC
  5
8B
330
75
100
AcDbEntity
  8
$DDT_AUDIT_GENERATED_(83)
  6
Continuous
 62
     7
100
AcDbCircle
 10
106.153692233
 20
573.8451923828
 30
0.0
 40
7.912398202714624
100
AcDbArc
 50
150.8260658268
 51
197.3019866443
  0
ARC
  5
8C
330
75
100
AcDbEntity
  8
$DDT_AUDIT_GENERATED_(83)
  6
Continuous
 62
     7
100
AcDbCircle
 10
115.5710277436
 20
579.1299864191
 30
0.0
 40
17.15519025246226
100
AcDbArc
 50
267.3091524985
 51
333.5617145261
  0
ARC
  5
8D
330
75
100
AcDbEntity
  8
$DDT_AUDIT_GENERATED_(83)
  6
Continuous
 62
     7
100
AcDbCircle
 10
113.9600702327
 20
579.1294972157
 30
0.0
 40
17.15471060279125
100
AcDbArc
 50
206.4370232658
 51
272.6915647094
  0
ELLIPSE
  5
8E
330
75
100
AcDbEntity
  8
$DDT_AUDIT_GENERATED_(83)
  6
Continuous
 62
     7
100
AcDbEllipse
 10
114.7653486891
 20
659.0386564913
 30
0.0
 11
-15.49811222341744
 21
2.779788482731860E-7
 31
0.0
210
0.0
220
0.0
230
1.0
 40
0.1305261922
 41
3.137956948707266
 42
3.141592653589793
  0
ELLIPSE
  5
8F
330
75
100
AcDbEntity
  8
$DDT_AUDIT_GENERATED_(83)
  6
Continuous
 62
     7
100
AcDbEllipse
 10
114.7660206002
 20
658.840367519
 30
0.0
 11
15.29811222341763
 21
0.0
 31
0.0
210
0.0
220
0.0
230
1.0
 40
0.1305261922
 41
1.570818570781066
 42
2.81202173126918
  0
ELLIPSE
  5
90
330
75
100
AcDbEntity
  8
$DDT_AUDIT_GENERATED_(83)
  6
Continuous
 62
     7
100
AcDbEllipse
 10
114.7660206002
 20
658.840367519
 30
0.0
 11
15.29811222341763
 21
0.0
 31
0.0
210
0.0
220
0.0
230
1.0
 40
0.1305261922
 41
3.708426029272662
 42
3.824084217858461
  0
ELLIPSE
  5
91
330
75
100
AcDbEntity
  8
$DDT_AUDIT_GENERATED_(83)
  6
Continuous
 62
     7
100
AcDbEllipse
 10
114.7653486891
 20
658.840367519
 30
0.0
 11
-15.29811222341763
 21
0.0
 31
0.0
210
0.0
220
0.0
230
1.0
 40
0.1305261922
 41
-3.823932597960967
 42
-3.50198717592566
  0
ELLIPSE
  5
92
330
75
100
AcDbEntity
  8
$DDT_AUDIT_GENERATED_(83)
  6
Continuous
 62
     7
100
AcDbEllipse
 10
114.7653486891
 20
658.840367519
 30
0.0
 11
-15.29811222341763
 21
0.0
 31
0.0
210
0.0
220
0.0
230
1.0
 40
0.1305261922
 41
3.45262762664406
 42
4.712367303192432
  0
ELLIPSE
  5
93
330
75
100
AcDbEntity
  8
$DDT_AUDIT_GENERATED_(83)
  6
Continuous
 62
     7
100
AcDbEllipse
 10
114.7660206002
 20
659.0386564913
 30
0.0
 11
15.49811222341743
 21
2.779788482731860E-7
 31
0.0
210
0.0
220
0.0
230
1.0
 40
0.1305261922
 41
3.138532035210778
 42
3.141592653589793
  0
ELLIPSE
  5
94
330
75
100
AcDbEntity
  8
$DDT_AUDIT_GENERATED_(83)
  6
Continuous
 62
     7
100
AcDbEllipse
 10
114.7660206002
 20
658.840367519
 30
0.0
 11
14.90000000000001
 21
0.0
 31
0.0
210
0.0
220
0.0
230
1.0
 40
0.1305261922
 41
5.727174243805465
 42
6.283185307179586
  0
ELLIPSE
  5
95
330
75
100
AcDbEntity
  8
$DDT_AUDIT_GENERATED_(83)
  6
Continuous
 62
     7
100
AcDbEllipse
 10
114.7660206002
 20
658.840367519
 30
0.0
 11
14.90000000000001
 21
0.0
 31
0.0
210
0.0
220
0.0
230
1.0
 40
0.1305261922
 41
0.0
 42
3.697603716963912
  0
LINE
  5
96
330
75
100
AcDbEntity
  8
$DDT_AUDIT_GENERATED_(83)
  6
Continuous
 62
     7
100
AcDbLine
 10
99.2678920889
 20
670.7574355181
 30
0.0
 11
99.2679083768
 21
659.0386558511
 31
0.0
  0
ARC
  5
97
330
75
100
AcDbEntity
  8
$DDT_AUDIT_GENERATED_(83)
  6
Continuous
 62
     7
100
AcDbCircle
 10
114.5716007107
 20
596.2785021177
 30
0.0
 40
77.91310832637913
100
AcDbArc
 50
89.8573458245
 51
91.4932246831
  0
SPLINE
  5
98
330
75
100
AcDbEntity
  8
$DDT_AUDIT_GENERATED_(83)
  6
Continuous
 62
     7
100
AcDbSpline
210
0.0
220
0.0
230
1.0
 70
     8
 71
     3
 72
    28
 73
    24
 74
     0
 42
0.0000000007529812
 43
0.0000000001
 40
0.0
 40
0.0
 40
0.0
 40
0.0
 40
0.0367070720120471
 40
0.0835749543686742
 40
0.1206902839493857
 40
0.1625792650828046
 40
0.2092751577836484
 40
0.2849449137420991
 40
0.3577877590107139
 40
0.4271044119061281
 40
0.4928450051692747
 40
0.5747850909842271
 40
0.650205530066874
 40
0.720200971242352
 40
0.7451722798523821
 40
0.7694636498664641
 40
0.7930874628609891
 40
0.8194667127245597
 40
0.8531185296899364
 40
0.8943750370016411
 40
0.9261936821073138
 40
0.9614360956683237
 40
1.0
 40
1.0
 40
1.0
 40
1.0
 10
111.5504663607719
 20
674.140418689356
 30
0.0
 10
111.2908383009491
 20
674.1297856689467
 30
0.0
 10
110.7893221409143
 20
674.1091241985304
 30
0.0
 10
110.0028301289943
 20
674.0620764344632
 30
0.0
 10
109.2253073922134
 20
674.0124783670141
 30
0.0
 10
108.4645398325964
 20
673.9598235401833
 30
0.0
 10
107.5073857857935
 20
673.8881366513509
 30
0.0
 10
106.4296957993347
 20
673.7961506440089
 30
0.0
 10
105.300364846222
 20
673.6755278424278
 30
0.0
 10
104.3039462951489
 20
673.5464537539044
 30
0.0
 10
103.3540891981749
 20
673.3986508377895
 30
0.0
 10
102.4828588450476
 20
673.2320084441909
 30
0.0
 10
101.7317458501048
 20
673.0521601797096
 30
0.0
 10
101.2259520183046
 20
672.893236466864
 30
0.0
 10
100.8961074896834
 20
672.7652216566121
 30
0.0
 10
100.7004196989545
 20
672.6795931083823
 30
0.0
 10
100.512808034505
 20
672.5874405168482
 30
0.0
 10
100.2875306788874
 20
672.4588712053123
 30
0.0
 10
100.003004783692
 20
672.2565107089085
 30
0.0
 10
99.73670896478345
 20
671.9970629649159
 30
0.0
 10
99.5207728061905
 20
671.6965973765427
 30
0.0
 10
99.36181879534459
 20
671.3687836612304
 30
0.0
 10
99.31700488806118
 20
671.1479580782434
 30
0.0
 10
99.29113923099735
 20
671.0103887646727
 30
0.0
  0
LINE
  5
99
330
75
100
AcDbEntity
  8
$DDT_AUDIT_GENERATED_(83)
  6
Continuous
 62
     7
100
AcDbLine
 10
130.2634609125
 20
659.0386558511
 30
0.0
 11
130.2634772004
 21
670.7574355181
 31
0.0
  0
ARC
  5
9A
330
75
100
AcDbEntity
  8
$DDT_AUDIT_GENERATED_(83)
  6
Continuous
 62
     7
100
AcDbCircle
 10
114.9597685786
 20
596.2785021176
 30
0.0
 40
77.91310832645472
100
AcDbArc
 50
88.5067753169
 51
90.1426541755
  0
SPLINE
  5
9B
330
75
100
AcDbEntity
  8
$DDT_AUDIT_GENERATED_(83)
  6
Continuous
 62
     7
100
AcDbSpline
210
0.0
220
0.0
230
1.0
 70
     8
 71
     3
 72
    28
 73
    24
 74
     0
 42
0.0000000007529812
 43
0.0000000001
 40
0.0
 40
0.0
 40
0.0
 40
0.0
 40
0.0385639043323383
 40
0.0738063178940548
 40
0.1056249630004796
 40
0.1468814703134006
 40
0.1805332872801078
 40
0.2069125371451263
 40
0.2305363501411273
 40
0.2548277201566262
 40
0.2797990287680171
 40
0.3497944699468504
 40
0.4252149090326119
 40
0.5071549948509265
 40
0.5728955881167705
 40
0.6422122410150187
 40
0.7150550862866292
 40
0.7907248422480129
 40
0.8374207349488866
 40
0.8793097160801314
 40
0.9164250456565047
 40
0.9632929280027182
 40
1.0
 40
1.0
 40
1.0
 40
1.0
 10
130.2402300582623
 20
671.0103887646727
 30
0.0
 10
130.2143644011983
 20
671.1479580782442
 30
0.0
 10
130.1695504939146
 20
671.3687836612327
 30
0.0
 10
130.0105964830662
 20
671.6965973765476
 30
0.0
 10
129.7946603244689
 20
671.9970629649232
 30
0.0
 10
129.528364505553
 20
672.2565107089202
 30
0.0
 10
129.243838610347
 20
672.4588712053277
 30
0.0
 10
129.0185612547173
 20
672.5874405168672
 30
0.0
 10
128.8309495902538
 20
672.6795931084054
 30
0.0
 10
128.6352617995094
 20
672.7652216566389
 30
0.0
 10
128.3054172708626
 20
672.8932364668951
 30
0.0
 10
127.7996234390223
 20
673.0521601797464
 30
0.0
 10
127.0485104440199
 20
673.2320084442327
 30
0.0
 10
126.177280090826
 20
673.3986508378346
 30
0.0
 10
125.2274229937805
 20
673.5464537539516
 30
0.0
 10
124.2310044426335
 20
673.6755278424753
 30
0.0
 10
123.1016734894412
 20
673.7961506440553
 30
0.0
 10
122.02398350292
 20
673.8881366513945
 30
0.0
 10
121.0668294560911
 20
673.9598235402208
 30
0.0
 10
120.3060618964989
 20
674.0124783670449
 30
0.0
 10
119.5285391598119
 20
674.0620764344841
 30
0.0
 10
118.7420471480737
 20
674.1091241985397
 30
0.0
 10
118.2405309881884
 20
674.129785668951
 30
0.0
 10
117.9809029284707
 20
674.1404186893566
 30
0.0
  0
SPLINE
  5
9C
330
75
100
AcDbEntity
  8
$DDT_AUDIT_GENERATED_(83)
  6
Continuous
 62
     7
100
AcDbSpline
210
0.0
220
0.0
230
1.0
 70
     8
 71
     3
 72
    51
 73
    47
 74
     0
 42
0.0000000001029349
 43
0.0000000001
 40
0.0
 40
0.0
 40
0.0
 40
0.0
 40
0.0027211081746729
 40
0.040439261394117
 40
0.0803997979970546
 40
0.1184447513701674
 40
0.1548393515337202
 40
0.189836379574036
 40
0.2236278879411056
 40
0.2564163130533563
 40
0.2878490571553859
 40
0.3180262035438353
 40
0.3471321793868704
 40
0.3753107449110803
 40
0.4026759850244797
 40
0.4293205966632481
 40
0.4553213993946555
 40
0.4807468382590129
 40
0.5054988049622059
 40
0.529505789788738
 40
0.5528446207819717
 40
0.5755803351259241
 40
0.597767554585343
 40
0.6194528646694656
 40
0.6406765448849596
 40
0.6614738459817067
 40
0.6818759519276316
 40
0.7019107173113399
 40
0.7215966786371956
 40
0.7408681427892467
 40
0.7597564790031566
 40
0.7783014741031856
 40
0.796526102036378
 40
0.8144514533271505
 40
0.8320970713694692
 40
0.8494811650661459
 40
0.8666207851758314
 40
0.8835319718048463
 40
0.900229878402939
 40
0.9167288763168986
 40
0.933042642876388
 40
0.9491842349780473
 40
0.9651662888122198
 40
0.9809821799208341
 40
0.9966455117209511
 40
1.0
 40
1.0
 40
1.0
 40
1.0
 10
130.264879715987
 20
573.5844977596472
 30
0.0
 10
130.2648723496046
 20
573.7156637576876
 30
0.0
 10
130.264778290039
 20
575.3938828574593
 30
0.0
 10
130.2647390692572
 20
578.9995747321074
 30
0.0
 10
130.2647621738443
 20
583.9411632802269
 30
0.0
 10
130.2649254810653
 20
588.8340182999522
 30
0.0
 10
130.26517240705
 20
593.452741140021
 30
0.0
 10
130.2654831881035
 20
597.847593892442
 30
0.0
 10
130.2658371424135
 20
602.0429965522686
 30
0.0
 10
130.2662148950457
 20
606.0436626188867
 30
0.0
 10
130.2666003366274
 20
609.8478074431853
 30
0.0
 10
130.2669802311892
 20
613.4545516102041
 30
0.0
 10
130.2673459365781
 20
616.8828648208171
 30
0.0
 10
130.2676909098439
 20
620.1518443217935
 30
0.0
 10
130.2680097344
 20
623.2765413504095
 30
0.0
 10
130.2682976873973
 20
626.2690758565343
 30
0.0
 10
130.2685511597313
 20
629.1394961800256
 30
0.0
 10
130.2687649360161
 20
631.890766095814
 30
0.0
 10
130.2689338606111
 20
634.5196532211208
 30
0.0
 10
130.269059318538
 20
637.0237920503092
 30
0.0
 10
130.2691420108378
 20
639.4069624775485
 30
0.0
 10
130.2691831387566
 20
641.6771449719934
 30
0.0
 10
130.2691836338743
 20
643.8410478077835
 30
0.0
 10
130.2691443106349
 20
645.9043424519955
 30
0.0
 10
130.2690658648935
 20
647.8718871215746
 30
0.0
 10
130.2689489091676
 20
649.7478871490212
 30
0.0
 10
130.2687939636656
 20
651.5360268954388
 30
0.0
 10
130.2686015722587
 20
653.2393422527854
 30
0.0
 10
130.2683723540601
 20
654.8582029707113
 30
0.0
 10
130.2681004039629
 20
656.3926516917821
 30
0.0
 10
130.267796909861
 20
657.8437368195741
 30
0.0
 10
130.2674688646601
 20
659.2147472864118
 30
0.0
 10
130.2671232518343
 20
660.508530103331
 30
0.0
 10
130.2667663057362
 20
661.7273133409252
 30
0.0
 10
130.266403762024
 20
662.8731135915618
 30
0.0
 10
130.2660408638227
 20
663.9477623200091
 30
0.0
 10
130.2656824349769
 20
664.9529287980254
 30
0.0
 10
130.2653329373108
 20
665.8901292523201
 30
0.0
 10
130.2649964762336
 20
666.7607707285919
 30
0.0
 10
130.2646769828514
 20
667.5660552212977
 30
0.0
 10
130.2643777180978
 20
668.3073856819943
 30
0.0
 10
130.2641032434885
 20
668.984923794536
 30
0.0
 10
130.2638524090907
 20
669.6026923524512
 30
0.0
 10
130.2636483223706
 20
670.1492047169315
 30
0.0
 10
130.2635176612652
 20
670.5346655587958
 30
0.0
 10
130.263483283097
 20
670.6994440091141
 30
0.0
 10
130.263476259769
 20
670.7333037192844
 30
0.0
  0
SPLINE
  5
9D
330
75
100
AcDbEntity
  8
$DDT_AUDIT_GENERATED_(83)
  6
Continuous
 62
     7
100
AcDbSpline
210
0.0
220
0.0
230
1.0
 70
     8
 71
     3
 72
    52
 73
    48
 74
     0
 42
0.0000000001029268
 43
0.0000000001
 40
0.0
 40
0.0
 40
0.0
 40
0.0
 40
0.0099331004717171
 40
0.0253505364105414
 40
0.0409035592406722
 40
0.0566038949228798
 40
0.0724821519947646
 40
0.0885164645666039
 40
0.1047184806520902
 40
0.1211000959552134
 40
0.1376737070597514
 40
0.1544522629696704
 40
0.1714493290903464
 40
0.1886791629352594
 40
0.2061568030987397
 40
0.2238981737464588
 40
0.241920207638411
 40
0.2602409916017881
 40
0.2788799395063415
 40
0.297853875737747
 40
0.3171698211672284
 40
0.3368513994243048
 40
0.3568630296058468
 40
0.3772274303043474
 40
0.3979688867921608
 40
0.4191142899190128
 40
0.4406936477153701
 40
0.4627407433541292
 40
0.4852939806021211
 40
0.5083974866378596
 40
0.5321025749309216
 40
0.5564732418802163
 40
0.5815702008028699
 40
0.6072259864199284
 40
0.6334640412871966
 40
0.6603454229211874
 40
0.6879411515450534
 40
0.7163355603217154
 40
0.745630348432957
 40
0.7759503917455135
 40
0.8074529449998866
 40
0.8402310907285899
 40
0.8739399038377157
 40
0.9087588126466167
 40
0.9448376538605437
 40
0.982367151884055
 40
1.0
 40
1.0
 40
1.0
 40
1.0
 10
99.26789071254244
 20
670.7278134687651
 30
0.0
 10
99.2678646545475
 20
670.6231347520462
 30
0.0
 10
99.26780724594994
 20
670.3953901787152
 30
0.0
 10
99.2676427465849
 20
669.9314835210382
 30
0.0
 10
99.2674225286859
 20
669.3693215586505
 30
0.0
 10
99.26716769753148
 20
668.742060920796
 30
0.0
 10
99.26688987881751
 20
668.0563625635637
 30
0.0
 10
99.26658982297675
 20
667.3094880337773
 30
0.0
 10
99.26627165355366
 20
666.5016161063428
 30
0.0
 10
99.26593868127448
 20
665.631674705286
 30
0.0
 10
99.26559466722685
 20
664.6987004177242
 30
0.0
 10
99.26524356476085
 20
663.7015878209394
 30
0.0
 10
99.26488962774565
 20
662.6391480722419
 30
0.0
 10
99.26453742573159
 20
661.5100825664776
 30
0.0
 10
99.26419188587887
 20
660.3129779010253
 30
0.0
 10
99.26385835268678
 20
659.0462928090103
 30
0.0
 10
99.26354258335007
 20
657.7083446333098
 30
0.0
 10
99.26325103185862
 20
656.29729258543
 30
0.0
 10
99.26299008897196
 20
654.8112277308431
 30
0.0
 10
99.26276945633364
 20
653.2484862016981
 30
0.0
 10
99.26258299696188
 20
651.6074600483215
 30
0.0
 10
99.26243138847195
 20
649.8874117486407
 30
0.0
 10
99.26231519207467
 20
648.0873926874642
 30
0.0
 10
99.2622348385807
 20
646.2065344246663
 30
0.0
 10
99.2621906542418
 20
644.2420624435993
 30
0.0
 10
99.26218300277354
 20
642.1908846236553
 30
0.0
 10
99.26221229183238
 20
640.0495111184732
 30
0.0
 10
99.26227897960263
 20
637.813973288471
 30
0.0
 10
99.26238358861346
 20
635.4797156285154
 30
0.0
 10
99.26252670702719
 20
633.0414697800388
 30
0.0
 10
99.26270906598134
 20
630.4928981583446
 30
0.0
 10
99.26293133833597
 20
627.8270645526346
 30
0.0
 10
99.26318720599858
 20
625.0441995899807
 30
0.0
 10
99.26347344130235
 20
622.1460617947677
 30
0.0
 10
99.26378496064497
 20
619.1350199410576
 30
0.0
 10
99.26411704496573
 20
616.0044830200668
 30
0.0
 10
99.26446430107028
 20
612.7453830441867
 30
0.0
 10
99.26482045723634
 20
609.3468672716048
 30
0.0
 10
99.2651780796254
 20
605.7957698220833
 30
0.0
 10
99.26552824944254
 20
602.0756372619833
 30
0.0
 10
99.26585955510292
 20
598.1706282719372
 30
0.0
 10
99.26615501042643
 20
594.0817046144693
 30
0.0
 10
99.26639696261607
 20
589.8135599958221
 30
0.0
 10
99.26656780467145
 20
585.3535282064274
 30
0.0
 10
99.26663702485112
 20
580.7273749707879
 30
0.0
 10
99.26661427348624
 20
576.6750391679689
 30
0.0
 10
99.26651320606437
 20
574.4194654009707
 30
0.0
 10
99.2664744646759
 20
573.5714150739785
 30
0.0
  0
ARC
  5
9E
330
75
100
AcDbEntity
  8
$DDT_AUDIT_GENERATED_(83)
  6
Continuous
 62
     7
100
AcDbCircle
 10
104.2784223814
 20
670.1959174364
 30
0.0
 40
12.66536363936281
100
AcDbArc
 50
255.2374774392
 51
258.8172065202
  0
SPLINE
  5
9F
330
75
100
AcDbEntity
  8
$DDT_AUDIT_GENERATED_(83)
  6
Continuous
 62
     7
100
AcDbSpline
210
0.0
220
0.0
230
1.0
 70
     8
 71
     3
 72
    17
 73
    13
 74
     0
 42
0.0000000044899034
 43
0.0000000001
 40
0.0
 40
0.0
 40
0.0
 40
0.0
 40
0.0096931769309118
 40
0.1083848960345108
 40
0.207197283692942
 40
0.3157936722409624
 40
0.4407383357587359
 40
0.5760793460651352
 40
0.7108262880196411
 40
0.843269503952489
 40
0.974143143137255
 40
1.0
 40
1.0
 40
1.0
 40
1.0
 10
99.27032892615978
 20
659.0491504043418
 30
0.0
 10
99.26936571607139
 20
659.0434376202545
 30
0.0
 10
99.26021034993848
 20
658.988585676123
 30
0.0
 10
99.29249389586246
 20
658.8708576021273
 30
0.0
 10
99.36837539174195
 20
658.728508889235
 30
0.0
 10
99.49369163189293
 20
658.5940999448187
 30
0.0
 10
99.67138586371945
 20
658.4625631876448
 30
0.0
 10
99.91123613555388
 20
658.3319959461234
 30
0.0
 10
100.2094230407488
 20
658.2051163116782
 30
0.0
 10
100.5573608724023
 20
658.0859136616439
 30
0.0
 10
100.8494896353342
 20
657.9981635498715
 30
0.0
 10
101.0185283702271
 20
657.9566238867551
 30
0.0
 10
101.0511192818364
 20
657.9486340306294
 30
0.0
  0
SPLINE
  5
A0
330
75
100
AcDbEntity
  8
$DDT_AUDIT_GENERATED_(83)
  6
Continuous
 62
     7
100
AcDbSpline
210
0.0
220
0.0
230
1.0
 70
     8
 71
     3
 72
    14
 73
    10
 74
     0
 42
0.0000000067053238
 43
0.0000000001
 40
0.0
 40
0.0
 40
0.0
 40
0.0
 40
0.0967255655086012
 40
0.270814227554229
 40
0.4471698602743754
 40
0.6267856527713852
 40
0.7764406225838513
 40
0.9069268761343876
 40
1.0
 40
1.0
 40
1.0
 40
1.0
 10
129.160672506773
 20
658.1532995426877
 30
0.0
 10
129.2313533905922
 20
658.1775065589919
 30
0.0
 10
129.3983575201538
 20
658.2352185705382
 30
0.0
 10
129.6448477531169
 20
658.3446868476597
 30
0.0
 10
129.8825548743447
 20
658.4764141311005
 30
0.0
 10
130.0619694003619
 20
658.6145248565283
 30
0.0
 10
130.1822600749378
 20
658.7569414216828
 30
0.0
 10
130.2515999685459
 20
658.8982866138788
 30
0.0
 10
130.2566421103144
 20
658.9838905445163
 30
0.0
 10
130.258659294801
 20
659.0262927910959
 30
0.0
  0
ELLIPSE
  5
A2
330
75
100
AcDbEntity
  8
$DDT_AUDIT_GENERATED_(A1)
  6
Continuous
 62
     7
100
AcDbEllipse
 10
114.7660206002
 20
657.9480671438
 30
0.0
 11
-12.0
 21
0.0
 31
0.0
210
0.0
220
0.0
230
1.0
 40
0.1305261922
 41
0.0
 42
0.302843116752514
  0
ELLIPSE
  5
A3
330
75
100
AcDbEntity
  8
$DDT_AUDIT_GENERATED_(A1)
  6
Continuous
 62
     7
100
AcDbEllipse
 10
114.7660206002
 20
657.9480671438
 30
0.0
 11
-12.0
 21
0.0
 31
0.0
210
0.0
220
0.0
230
1.0
 40
0.1305261922
 41
2.841731160161641
 42
6.283185307179586
  0
ELLIPSE
  5
A4
330
75
100
AcDbEntity
  8
$DDT_AUDIT_GENERATED_(A1)
  6
Continuous
 62
     7
100
AcDbEllipse
 10
114.7660206002
 20
658.840367519
 30
0.0
 11
14.75000000000001
 21
0.0
 31
0.0
210
0.0
220
0.0
230
1.0
 40
0.1305261922
 41
0.0
 42
3.555589276025126
  0
ELLIPSE
  5
A5
330
75
100
AcDbEntity
  8
$DDT_AUDIT_GENERATED_(A1)
  6
Continuous
 62
     7
100
AcDbEllipse
 10
114.7660206002
 20
658.840367519
 30
0.0
 11
14.75000000000001
 21
0.0
 31
0.0
210
0.0
220
0.0
230
1.0
 40
0.1305261922
 41
5.86918868474426
 42
6.283185307179586
  0
ELLIPSE
  5
A6
330
75
100
AcDbEntity
  8
$DDT_AUDIT_GENERATED_(A1)
  6
Continuous
 62
     7
100
AcDbEllipse
 10
114.7660206002
 20
657.9480671438
 30
0.0
 11
10.40000000000002
 21
0.0
 31
0.0
210
0.0
220
0.0
230
1.0
 40
0.1305261922
 41
0.0790564779473029
 42
3.062536175642457
  0
LINE
  5
A7
330
75
100
AcDbEntity
  8
$DDT_AUDIT_GENERATED_(A1)
  6
Continuous
 62
     7
100
AcDbLine
 10
129.5160206002
 20
658.840367519
 30
0.0
 11
129.5160206002
 21
659.1156354681
 31
0.0
  0
LINE
  5
A8
330
75
100
AcDbEntity
  8
$DDT_AUDIT_GENERATED_(A1)
  6
Continuous
 62
     7
100
AcDbLine
 10
100.0160206002
 20
659.1156354681
 30
0.0
 11
100.0160206002
 21
658.840367519
 31
0.0
  0
LINE
  5
A9
330
75
100
AcDbEntity
  8
$DDT_AUDIT_GENERATED_(A1)
  6
Continuous
 62
     7
100
AcDbLine
 10
101.2620945305
 20
658.0658897146
 30
0.0
 11
103.3077883799
 21
657.4581927703
 31
0.0
  0
LINE
  5
AA
330
75
100
AcDbEntity
  8
$DDT_AUDIT_GENERATED_(A1)
  6
Continuous
 62
     7
100
AcDbLine
 10
126.2261853767
 20
657.4587668584
 30
0.0
 11
128.2699466699
 21
658.0658897146
 31
0.0
  0
LINE
  5
AC
330
75
100
AcDbEntity
  8
$DDT_AUDIT_GENERATED_(AB)
  6
Continuous
 62
     7
100
AcDbLine
 10
88.446040988
 20
624.8864276189
 30
0.0
 11
99.2455100389
 21
624.8864276189
 31
0.0
  0
LINE
  5
AD
330
75
100
AcDbEntity
  8
$DDT_AUDIT_GENERATED_(AB)
  6
Continuous
 62
     7
100
AcDbLine
 10
130.2862761547
 20
624.8864276189
 30
0.0
 11
141.085201082
 21
624.8864276189
 31
0.0
  0
LINE
  5
AE
330
75
100
AcDbEntity
  8
$DDT_AUDIT_GENERATED_(AB)
  6
Continuous
 62
     7
100
AcDbLine
 10
85.7656431746
 20
601.3503385912
 30
0.0
 11
99.2548542092
 21
601.3503385912
 31
0.0
  0
LINE
  5
AF
330
75
100
AcDbEntity
  8
$DDT_AUDIT_GENERATED_(AB)
  6
Continuous
 62
     7
100
AcDbLine
 10
130.2822088456
 20
601.3503385912
 30
0.0
 11
143.7655988953
 21
601.3503385912
 31
0.0
  0
ARC
  5
B0
330
75
100
AcDbEntity
  8
$DDT_AUDIT_GENERATED_(AB)
  6
Continuous
 62
     7
100
AcDbCircle
 10
114.765621035
 20
636.7503385913
 30
0.0
 40
25.99999999999999
100
AcDbArc
 50
160.5709823461
 51
178.5
  0
ARC
  5
B1
330
75
100
AcDbEntity
  8
$DDT_AUDIT_GENERATED_(AB)
  6
Continuous
 62
     7
100
AcDbCircle
 10
114.765621035
 20
636.7503385913
 30
0.0
 40
26.00000000000001
100
AcDbArc
 50
1.5
 51
19.4352510244
  0
LINE
  5
B2
330
75
100
AcDbEntity
  8
$DDT_AUDIT_GENERATED_(AB)
  6
Continuous
 62
     7
100
AcDbLine
 10
141.085201082
 20
624.8864276189
 30
0.0
 11
140.7567114844
 21
637.4309392473
 31
0.0
  0
LINE
  5
B3
330
75
100
AcDbEntity
  8
$DDT_AUDIT_GENERATED_(AB)
  6
Continuous
 62
     7
100
AcDbLine
 10
88.7745305856
 20
637.4309392473
 30
0.0
 11
88.446040988
 21
624.8864276189
 31
0.0
  0
ARC
  5
B4
330
75
100
AcDbEntity
  8
$DDT_AUDIT_GENERATED_(AB)
  6
Continuous
 62
     7
100
AcDbCircle
 10
87.049320801
 20
607.6568065222
 30
0.0
 40
56.71627809438672
100
AcDbArc
 50
0.0
 51
17.6851520989
  0
ARC
  5
B5
330
75
100
AcDbEntity
  8
$DDT_AUDIT_GENERATED_(AB)
  6
Continuous
 62
     7
100
AcDbCircle
 10
142.481921269
 20
607.6568065222
 30
0.0
 40
56.71627809438672
100
AcDbArc
 50
162.3148479011
 51
180.0
  0
LINE
  5
B6
330
75
100
AcDbEntity
  8
$DDT_AUDIT_GENERATED_(AB)
  6
Continuous
 62
     7
100
AcDbLine
 10
85.7656431746
 20
607.6568065222
 30
0.0
 11
85.7656431746
 21
601.3503385912
 31
0.0
  0
LINE
  5
B7
330
75
100
AcDbEntity
  8
$DDT_AUDIT_GENERATED_(AB)
  6
Continuous
 62
     7
100
AcDbLine
 10
143.7655988953
 20
601.3503385912
 30
0.0
 11
143.7655988953
 21
607.6568065222
 31
0.0
  0
LINE
  5
B8
330
75
100
AcDbEntity
  8
$DDT_AUDIT_GENERATED_(AB)
  6
Continuous
 62
     7
100
AcDbLine
 10
85.8656431746
 20
601.3503385912
 30
0.0
 11
86.3656431746
 21
600.8503385912
 31
0.0
  0
LINE
  5
B9
330
75
100
AcDbEntity
  8
$DDT_AUDIT_GENERATED_(AB)
  6
Continuous
 62
     7
100
AcDbLine
 10
143.1655988953
 20
600.8503385912
 30
0.0
 11
143.6655988953
 21
601.3503385912
 31
0.0
  0
ARC
  5
BB
330
75
100
AcDbEntity
  8
$DDT_AUDIT_GENERATED_(BA)
  6
Continuous
 62
     7
100
AcDbCircle
 10
114.7920146005
 20
528.2503411611
 30
0.0
 40
155.3554941272308
100
AcDbArc
 50
85.7358707509
 51
94.2790608963
  0
SPLINE
  5
BC
330
75
100
AcDbEntity
  8
$DDT_AUDIT_GENERATED_(BA)
  6
Continuous
 62
     7
100
AcDbSpline
210
0.0
220
0.0
230
1.0
 70
     8
 71
     3
 72
    10
 73
     6
 74
     0
 42
0.0000000021373967
 43
0.0000000001
 40
0.471202692335456
 40
0.471202692335456
 40
0.471202692335456
 40
0.471202692335456
 40
0.4999999999999993
 40
0.4999999999999993
 40
0.5051379723181028
 40
0.5051379723181028
 40
0.5051379723181028
 40
0.5051379723181028
 10
101.3961913205739
 20
688.0716005219559
 30
0.0
 10
101.4424541740457
 20
688.0814643859301
 30
0.0
 10
101.4871691532159
 20
688.0879258740102
 30
0.0
 10
101.5380329689916
 20
688.0916665977163
 30
0.0
 10
101.5456875367995
 20
688.0921281547381
 30
0.0
 10
101.5532965703423
 20
688.0924855480176
 30
0.0
  0
SPLINE
  5
BD
330
75
100
AcDbEntity
  8
$DDT_AUDIT_GENERATED_(BA)
  6
Continuous
 62
     7
100
AcDbSpline
210
0.0
220
0.0
230
1.0
 70
     8
 71
     3
 72
    10
 73
     6
 74
     0
 42
0.0000000016207354
 43
0.0000000001
 40
0.5051379723181028
 40
0.5051379723181028
 40
0.5051379723181028
 40
0.5051379723181028
 40
0.7499999999999997
 40
0.7499999999999997
 40
1.0
 40
1.0
 40
1.0
 40
1.0
 10
101.5532965703423
 20
688.0924855480176
 30
0.0
 10
101.9159227712337
 20
688.1095179564649
 30
0.0
 10
102.1751306006841
 20
687.8899715037778
 30
0.0
 10
102.6946933470135
 20
687.1089488772161
 30
0.0
 10
102.9619128580458
 20
686.5420323476515
 30
0.0
 10
103.3409590044289
 20
685.853683653547
 30
0.0
  0
SPLINE
  5
BE
330
75
100
AcDbEntity
  8
$DDT_AUDIT_GENERATED_(BA)
  6
Continuous
 62
     7
100
AcDbSpline
210
0.0
220
0.0
230
1.0
 70
     8
 71
     3
 72
    10
 73
     6
 74
     0
 42
0.0000000015156432
 43
0.0000000001
 40
0.0
 40
0.0
 40
0.0
 40
0.0
 40
0.5000000000000001
 40
0.5000000000000001
 40
0.5012193162703706
 40
0.5012193162703706
 40
0.5012193162703706
 40
0.5012193162703706
 10
126.2021133242957
 20
685.8567526395996
 30
0.0
 10
126.9735742744811
 20
687.2371364087775
 30
0.0
 10
127.2835809793275
 20
688.1435540642719
 30
0.0
 10
128.0454624857032
 20
688.0873673247772
 30
0.0
 10
128.0473187307034
 20
688.0872247741208
 30
0.0
 10
128.0491777915769
 20
688.0870763487717
 30
0.0
  0
SPLINE
  5
BF
330
75
100
AcDbEntity
  8
$DDT_AUDIT_GENERATED_(BA)
  6
Continuous
 62
     7
100
AcDbSpline
210
0.0
220
0.0
230
1.0
 70
     8
 71
     3
 72
     8
 73
     4
 74
     0
 42
0.0000000020818865
 43
0.0000000001
 40
0.5012193162703706
 40
0.5012193162703706
 40
0.5012193162703706
 40
0.5012193162703706
 40
0.5307110218680872
 40
0.5307110218680872
 40
0.5307110218680872
 40
0.5307110218680872
 10
128.0491777915769
 20
688.0870763487717
 30
0.0
 10
128.0941430539131
 20
688.0834863723171
 30
0.0
 10
128.1407556444259
 20
688.0764596121455
 30
0.0
 10
128.1890166060194
 20
688.065861333748
 30
0.0
  0
ARC
  5
C0
330
75
100
AcDbEntity
  8
$DDT_AUDIT_GENERATED_(BA)
  6
Continuous
 62
     7
100
AcDbCircle
 10
114.7899900872
 20
548.3902798329
 30
0.0
 40
137.939362412232
100
AcDbArc
 50
85.2543297591
 51
94.7610535365
  0
SPLINE
  5
C1
330
75
100
AcDbEntity
  8
$DDT_AUDIT_GENERATED_(BA)
  6
Continuous
 62
     7
100
AcDbSpline
210
0.0
220
0.0
230
1.0
 70
     8
 71
     3
 72
    12
 73
     8
 74
     0
 42
0.0000000010863429
 43
0.0000000001
 40
0.3854621024875058
 40
0.3854621024875058
 40
0.3854621024875058
 40
0.3854621024875058
 40
0.5
 40
0.5
 40
0.75
 40
0.75
 40
1.0
 40
1.0
 40
1.0
 40
1.0
 10
101.4563779560408
 20
685.2496620733659
 30
0.0
 10
101.3290169860316
 20
685.3344048714214
 30
0.0
 10
101.1864540810933
 20
685.3774717013808
 30
0.0
 10
100.6500857944641
 20
685.3597106920322
 30
0.0
 10
100.1488894363558
 20
685.1144073065303
 30
0.0
 10
98.89280764304962
 20
684.0055488768888
 30
0.0
 10
98.14907832979272
 20
683.1465438924187
 30
0.0
 10
97.41281675807987
 20
681.8989607513072
 30
0.0
  0
SPLINE
  5
C2
330
75
100
AcDbEntity
  8
$DDT_AUDIT_GENERATED_(BA)
  6
Continuous
 62
     7
100
AcDbSpline
210
0.0
220
0.0
230
1.0
 70
     8
 71
     3
 72
    12
 73
     8
 74
     0
 42
0.0000000010738814
 43
0.0000000001
 40
0.0
 40
0.0
 40
0.0
 40
0.0
 40
0.2499999999999999
 40
0.2499999999999999
 40
0.4999999999999998
 40
0.4999999999999998
 40
0.6187711705604528
 40
0.6187711705604528
 40
0.6187711705604528
 40
0.6187711705604528
 10
132.2329206758603
 20
681.8502880633071
 30
0.0
 10
131.4831045967217
 20
683.1122477151506
 30
0.0
 10
130.726809044423
 20
683.9797316636678
 30
0.0
 10
129.4494067002099
 20
685.1015630977339
 30
0.0
 10
128.9365421631585
 20
685.3528224894858
 30
0.0
 10
128.3821999001605
 20
685.3750411419379
 30
0.0
 10
128.2320456718334
 20
685.3309965610468
 30
0.0
 10
128.097948923618
 20
685.2423120455683
 30
0.0
  0
ARC
  5
C3
330
75
100
AcDbEntity
  8
$DDT_AUDIT_GENERATED_(BA)
  6
Continuous
 62
     7
100
AcDbCircle
 10
70.8042282188
 20
713.7885033447
 30
0.0
 40
41.53263669540096
100
AcDbArc
 50
302.4753784563
 51
309.8415718257
  0
ARC
  5
C4
330
75
100
AcDbEntity
  8
$DDT_AUDIT_GENERATED_(BA)
  6
Continuous
 62
     7
100
AcDbCircle
 10
172.4419502536
 20
731.8665592692
 30
0.0
 40
64.17471032203653
100
AcDbArc
 50
231.2035381006
 51
235.9757017748
  0
ARC
  5
C5
330
75
100
AcDbEntity
  8
$DDT_AUDIT_GENERATED_(BA)
  6
Continuous
 62
     7
100
AcDbCircle
 10
-91.9190555309
 20
645.3057496891
 30
0.0
 40
233.9346676165157
100
AcDbArc
 50
0.0945255217
 51
6.5164940976
  0
ELLIPSE
  5
C6
330
75
100
AcDbEntity
  8
$DDT_AUDIT_GENERATED_(BA)
  6
Continuous
 62
     7
100
AcDbEllipse
 10
125.9549442154
 20
684.3912473255
 30
0.0
 11
-1.315981080017297
 21
0.7198567892550133
 31
0.0
210
0.0
220
0.0
230
0.9999999999999999
 40
0.9897150612
 41
3.141592653589109
 42
5.042664886752842
  0
ELLIPSE
  5
C7
330
75
100
AcDbEntity
  8
$DDT_AUDIT_GENERATED_(BA)
  6
Continuous
 62
     7
100
AcDbEllipse
 10
103.5886431391
 20
684.3882721601
 30
0.0
 11
1.320422207644759
 21
0.7116777315319955
 31
0.0
210
0.0
220
0.0
230
1.0
 40
0.9897554619
 41
1.247011562545842
 42
3.141592653589793
  0
ELLIPSE
  5
C8
330
75
100
AcDbEntity
  8
$DDT_AUDIT_GENERATED_(BA)
  6
Continuous
 62
     7
100
AcDbEllipse
 10
125.9549442154
 20
684.3912473255
 30
0.0
 11
-0.1237170904732927
 21
-1.494889320827753
 31
0.0
210
0.0
220
0.0
230
1.0
 40
0.5257471681
 41
0.6661865843921098
 42
2.981832461265618
  0
ELLIPSE
  5
C9
330
75
100
AcDbEntity
  8
$DDT_AUDIT_GENERATED_(BA)
  6
Continuous
 62
     7
100
AcDbEllipse
 10
103.5886431391
 20
684.3882721601
 30
0.0
 11
-0.1241378398829165
 21
1.494854439973686
 31
0.0
210
0.0
220
0.0
230
1.0
 40
0.5259701718
 41
0.1598256542734391
 42
2.475307581106818
  0
LINE
  5
CA
330
75
100
AcDbEntity
  8
$DDT_AUDIT_GENERATED_(BA)
  6
Continuous
 62
     7
100
AcDbLine
 10
141.7152944154
 20
645.391335294
 30
0.0
 11
130.2818583726
 21
645.3913352948
 31
0.0
  0
LINE
  5
CB
330
75
100
AcDbEntity
  8
$DDT_AUDIT_GENERATED_(BA)
  6
Continuous
 62
     7
100
AcDbLine
 10
99.2511004122
 20
645.3913352958
 30
0.0
 11
87.8158157965
 21
645.3913352958
 31
0.0
  0
ARC
  5
CC
330
75
100
AcDbEntity
  8
$DDT_AUDIT_GENERATED_(BA)
  6
Continuous
 62
     7
100
AcDbCircle
 10
141.7152941753
 20
645.6913350558
 30
0.0
 40
0.2999997618202841
100
AcDbArc
 50
270.000045855
 51
0.0679077836
  0
ARC
  5
CD
330
75
100
AcDbEntity
  8
$DDT_AUDIT_GENERATED_(BA)
  6
Continuous
 62
     7
100
AcDbCircle
 10
87.8158209953
 20
645.6913352665
 30
0.0
 40
0.2999999707117028
100
AcDbArc
 50
179.9321346544
 51
269.9999944537
  0
ARC
  5
CE
330
75
100
AcDbEntity
  8
$DDT_AUDIT_GENERATED_(BA)
  6
Continuous
 62
     7
100
AcDbCircle
 10
318.1693607418
 20
645.5906992146
 30
0.0
 40
230.6533693241851
100
AcDbArc
 50
173.5767407174
 51
179.8996387319
  0
ARC
  5
CF
330
75
100
AcDbEntity
  8
$DDT_AUDIT_GENERATED_(BA)
  6
Continuous
 62
     7
100
AcDbCircle
 10
114.7919015739
 20
624.0841709022
 30
0.0
 40
65.35983644542742
100
AcDbArc
 50
78.288668016
 51
101.6981312952
  0
ARC
  5
D0
330
75
100
AcDbEntity
  8
$DDT_AUDIT_GENERATED_(BA)
  6
Continuous
 62
     7
100
AcDbCircle
 10
-87.7575856101
 20
645.5918250671
 30
0.0
 40
229.769767671483
100
AcDbArc
 50
0.1377724575
 51
6.4611623256
  0
LINE
  5
D1
330
75
100
AcDbEntity
  8
$DDT_AUDIT_GENERATED_(BA)
  6
Continuous
 62
     7
100
AcDbLine
 10
87.5164010638
 20
646.0176798642
 30
0.0
 11
87.5159815903
 21
645.6916682181
 31
0.0
  0
ARC
  5
D2
330
75
100
AcDbEntity
  8
$DDT_AUDIT_GENERATED_(BA)
  6
Continuous
 62
     7
100
AcDbCircle
 10
132.4388922776
 20
670.692088407
 30
0.0
 40
8.144387481938278
100
AcDbArc
 50
5.6454023669
 51
7.3482862726
  0
LINE
  5
D3
330
75
100
AcDbEntity
  8
$DDT_AUDIT_GENERATED_(BA)
  6
Continuous
 62
     7
100
AcDbLine
 10
89.0106527608
 20
671.8007784232
 30
0.0
 11
88.9668629029
 21
671.473893568
 31
0.0
  0
ARC
  5
D4
330
75
100
AcDbEntity
  8
$DDT_AUDIT_GENERATED_(BA)
  6
Continuous
 62
     7
100
AcDbCircle
 10
127.2243775425
 20
669.7043777718
 30
0.0
 40
13.45933407173237
100
AcDbArc
 50
9.553517247
 51
47.8546346786
  0
ARC
  5
D5
330
75
100
AcDbEntity
  8
$DDT_AUDIT_GENERATED_(BA)
  6
Continuous
 62
     7
100
AcDbCircle
 10
102.3820041745
 20
669.6326911721
 30
0.0
 40
13.55152343467243
100
AcDbArc
 50
131.598269925
 51
170.6189098697
  0
SPLINE
  5
D6
330
75
100
AcDbEntity
  8
$DDT_AUDIT_GENERATED_(BA)
  6
Continuous
 62
     7
100
AcDbSpline
210
0.0
220
0.0
230
1.0
 70
     8
 71
     3
 72
    20
 73
    16
 74
     0
 42
0.0000000018002441
 43
0.0000000001
 40
0.0
 40
0.0
 40
0.0
 40
0.0
 40
0.0164020856437641
 40
0.1001405650442976
 40
0.18447669038343
 40
0.2952872892879807
 40
0.3994344889223293
 40
0.4917965358375035
 40
0.5788833325860495
 40
0.6702272068181656
 40
0.7478151714042861
 40
0.8202188371194892
 40
0.8874881972791985
 40
0.9591910283738506
 40
0.9756071321690163
 40
0.9756071321690163
 40
0.9756071321690163
 40
0.9756071321690163
 10
136.2614430314838
 20
679.6769810536358
 30
0.0
 10
136.2278682877511
 20
679.7101154393359
 30
0.0
 10
136.0521279257061
 20
679.8836363987832
 30
0.0
 10
135.7262334637649
 20
680.196864499574
 30
0.0
 10
135.250568999154
 20
680.6648168245641
 30
0.0
 10
134.7599451061807
 20
681.1433635960983
 30
0.0
 10
134.2863584542146
 20
681.6103217036379
 30
0.0
 10
133.878297205247
 20
682.0189932526906
 30
0.0
 10
133.5231291248768
 20
682.3839086899885
 30
0.0
 10
133.2247775288817
 20
682.704004728686
 30
0.0
 10
132.9827462855928
 20
682.9790155506481
 30
0.0
 10
132.7994622324967
 20
683.2024948284809
 30
0.0
 10
132.6614017884329
 20
683.3871134322346
 30
0.0
 10
132.5791914492398
 20
683.5085124800854
 30
0.0
 10
132.5363174150937
 20
683.5793163169528
 30
0.0
 10
132.5282054333219
 20
683.5929118908537
 30
0.0
  0
SPLINE
  5
D7
330
75
100
AcDbEntity
  8
$DDT_AUDIT_GENERATED_(BA)
  6
Continuous
 62
     7
100
AcDbSpline
210
0.0
220
0.0
230
1.0
 70
     8
 71
     3
 72
    20
 73
    16
 74
     0
 42
0.0000000018050728
 43
0.0000000001
 40
0.0268656935732448
 40
0.0268656935732448
 40
0.0268656935732448
 40
0.0268656935732448
 40
0.0292326456452869
 40
0.1083876624627134
 40
0.1752721130238963
 40
0.245862004382324
 40
0.32192856317167
 40
0.4034451008044405
 40
0.4904546769344261
 40
0.583140324931551
 40
0.6799946498992
 40
0.7881415843427134
 40
0.9024988640062899
 40
0.9866877448664931
 40
1.0
 40
1.0
 40
1.0
 40
1.0
 10
97.11367808162484
 20
683.6360878852306
 30
0.0
 10
97.11255068955873
 20
683.63422425145
 30
0.0
 10
97.07367990937114
 20
683.5701362287011
 30
0.0
 10
96.99737518810744
 20
683.4553818080252
 30
0.0
 10
96.86217499768925
 20
683.2736062131899
 30
0.0
 10
96.68638996138063
 20
683.0585274045574
 30
0.0
 10
96.46233554860292
 20
682.8036967432598
 30
0.0
 10
96.1836272045426
 20
682.5042073195734
 30
0.0
 10
95.8488252524631
 20
682.1600103653575
 30
0.0
 10
95.4565650211742
 20
681.7688338414712
 30
0.0
 10
95.00312237954623
 20
681.3248045352483
 30
0.0
 10
94.48371772707411
 20
680.8234827481649
 30
0.0
 10
93.95939031202991
 20
680.3148223427376
 30
0.0
 10
93.57975198267258
 20
679.9550876614246
 30
0.0
 10
93.40669956186697
 20
679.7874777536005
 30
0.0
 10
93.3791722558843
 20
679.7608255306668
 30
0.0
  0
SPLINE
  5
D8
330
75
100
AcDbEntity
  8
$DDT_AUDIT_GENERATED_(BA)
  6
Continuous
 62
     7
100
AcDbSpline
210
0.0
220
0.0
230
1.0
 70
     8
 71
     3
 72
    16
 73
    12
 74
     0
 42
0.0000000045373526
 43
0.0000000001
 40
0.0
 40
0.0
 40
0.0
 40
0.0
 40
0.0078142526811377
 40
0.1505027032059685
 40
0.2705000600563377
 40
0.3843601166058694
 40
0.4910208821718949
 40
0.5905078938115101
 40
0.6833837866329644
 40
0.7707014343734832
 40
0.8454892428987815
 40
0.8454892428987815
 40
0.8454892428987815
 40
0.8454892428987815
 10
127.2699146866972
 20
683.6702489265771
 30
0.0
 10
127.2753819389451
 20
683.6800142160131
 30
0.0
 10
127.3660685477659
 20
683.8419893849401
 30
0.0
 10
127.5143407239082
 20
684.1246135608664
 30
0.0
 10
127.6978257535005
 20
684.4757045458266
 30
0.0
 10
127.8416317157341
 20
684.7512526849719
 30
0.0
 10
127.9590811126731
 20
684.967596149956
 30
0.0
 10
128.0517727619593
 20
685.126637188176
 30
0.0
 10
128.12020730534
 20
685.2324466158476
 30
0.0
 10
128.1621955632902
 20
685.2881889814156
 30
0.0
 10
128.171541330746
 20
685.2989183730097
 30
0.0
 10
128.1717157732874
 20
685.298940478445
 30
0.0
  0
SPLINE
  5
D9
330
75
100
AcDbEntity
  8
$DDT_AUDIT_GENERATED_(BA)
  6
Continuous
 62
     7
100
AcDbSpline
210
0.0
220
0.0
230
1.0
 70
     8
 71
     3
 72
    20
 73
    16
 74
     0
 42
0.0000000015603212
 43
0.0000000001
 40
0.0
 40
0.0
 40
0.0
 40
0.0
 40
0.0184286175463547
 40
0.0991372796727356
 40
0.1812093525749318
 40
0.2515853847037713
 40
0.3240941634448277
 40
0.4116771528696857
 40
0.501251431798821
 40
0.5933095229676407
 40
0.6880322576629675
 40
0.7850541155222759
 40
0.8689401728605434
 40
0.9434733020475498
 40
1.0
 40
1.0
 40
1.0
 40
1.0
 10
132.5389396807651
 20
683.575712071441
 30
0.0
 10
132.5102336395402
 20
683.6317483352387
 30
0.0
 10
132.377978760749
 20
683.8895266845892
 30
0.0
 10
132.1095485139037
 20
684.3529284136396
 30
0.0
 10
131.7730348338483
 20
684.8936632556258
 30
0.0
 10
131.4537696712861
 20
685.3625905974848
 30
0.0
 10
131.1293357196145
 20
685.8061590067025
 30
0.0
 10
130.7815460698658
 20
686.239880897653
 30
0.0
 10
130.4097530012522
 20
686.6554029075168
 30
0.0
 10
130.0294610812178
 20
687.0295785384112
 30
0.0
 10
129.6367983220911
 20
687.3611354178664
 30
0.0
 10
129.2458909183966
 20
687.6335137107601
 30
0.0
 10
128.8693214009593
 20
687.8390677416254
 30
0.0
 10
128.5242075499624
 20
687.982736199732
 30
0.0
 10
128.3140988686121
 20
688.0340287792748
 30
0.0
 10
128.2066410012835
 20
688.0596223717448
 30
0.0
  0
ARC
  5
DA
330
75
100
AcDbEntity
  8
$DDT_AUDIT_GENERATED_(BA)
  6
Continuous
 62
     7
100
AcDbCircle
 10
114.7690345731
 20
697.6448428001
 30
0.0
 40
18.83906596354156
100
AcDbArc
 50
230.0923473743
 51
309.9269422328
  0
SPLINE
  5
DB
330
75
100
AcDbEntity
  8
$DDT_AUDIT_GENERATED_(BA)
  6
Continuous
 62
     7
100
AcDbSpline
210
0.0
220
0.0
230
1.0
 70
     8
 71
     3
 72
    20
 73
    16
 74
     0
 42
0.0000000015748035
 43
0.0000000001
 40
0.0
 40
0.0
 40
0.0
 40
0.0
 40
0.0059876603950702
 40
0.0705706963549036
 40
0.1424200229220486
 40
0.2231897196649371
 40
0.3131173900276665
 40
0.4093979529869752
 40
0.5067655861185395
 40
0.6017433961060992
 40
0.6938673177367325
 40
0.7833731701884127
 40
0.8575466363426054
 40
0.9358006248865486
 40
1.0
 40
1.0
 40
1.0
 40
1.0
 10
101.3868995886269
 20
688.068132065024
 30
0.0
 10
101.3749828251443
 20
688.0663093264259
 30
0.0
 10
101.2542026936704
 20
688.0477624833612
 30
0.0
 10
101.0124182641103
 20
687.9669390238992
 30
0.0
 10
100.6754539556929
 20
687.8267006546158
 30
0.0
 10
100.3198102441991
 20
687.6250637481078
 30
0.0
 10
99.94601562688601
 20
687.3617953459765
 30
0.0
 10
99.55849997094343
 20
687.0318460737117
 30
0.0
 10
99.16710415946488
 20
686.6414141660147
 30
0.0
 10
98.77999187724674
 20
686.1999154006123
 30
0.0
 10
98.3999308567165
 20
685.7136700093589
 30
0.0
 10
98.04480180736554
 20
685.2111846827735
 30
0.0
 10
97.70367955884146
 20
684.685633281962
 30
0.0
 10
97.3886124768174
 20
684.1583364374502
 30
0.0
 10
97.2029980952074
 20
683.8089277810637
 30
0.0
 10
97.10394942252206
 20
683.6215923782845
 30
0.0
  0
SPLINE
  5
DC
330
75
100
AcDbEntity
  8
$DDT_AUDIT_GENERATED_(BA)
  6
Continuous
 62
     7
100
AcDbSpline
210
0.0
220
0.0
230
1.0
 70
     8
 71
     3
 72
    16
 73
    12
 74
     0
 42
0.0000000044808168
 43
0.0000000001
 40
0.1631057731097235
 40
0.1631057731097235
 40
0.1631057731097235
 40
0.1631057731097235
 40
0.2393801740183635
 40
0.3263251751719681
 40
0.4180315898810686
 40
0.5159775139578393
 40
0.6210524600892163
 40
0.7336736436133191
 40
0.853734106847626
 40
0.9804562270784178
 40
1.0
 40
1.0
 40
1.0
 40
1.0
 10
101.3792340345864
 20
685.3132336989844
 30
0.0
 10
101.3793610363005
 20
685.3132657245837
 30
0.0
 10
101.389527397685
 20
685.3015575553778
 30
0.0
 10
101.4321201093364
 20
685.24316381238
 30
0.0
 10
101.5002984130015
 20
685.1349108691851
 30
0.0
 10
101.5917048597868
 20
684.9741870353422
 30
0.0
 10
101.7072876993404
 20
684.7565614197147
 30
0.0
 10
101.8495571363447
 20
684.4785362813152
 30
0.0
 10
102.0240782086891
 20
684.1384088375894
 30
0.0
 10
102.1698240446337
 20
683.8566848876939
 30
0.0
 10
102.2569986511969
 20
683.6984883757808
 30
0.0
 10
102.2705846599094
 20
683.6738339107787
 30
0.0
  0
ARC
  5
DD
330
75
100
AcDbEntity
  8
$DDT_AUDIT_GENERATED_(BA)
  6
Continuous
 62
     7
100
AcDbCircle
 10
125.9549442154
 20
684.3912473255
 30
0.0
 40
1.500000000000003
100
AcDbArc
 50
307.1905705386
 51
331.3208333456
  0
ARC
  5
DE
330
75
100
AcDbEntity
  8
$DDT_AUDIT_GENERATED_(BA)
  6
Continuous
 62
     7
100
AcDbCircle
 10
103.5886431391
 20
684.3882721601
 30
0.0
 40
1.499999999999994
100
AcDbArc
 50
208.3236641509
 51
232.8337688866
  0
ELLIPSE
  5
E0
330
75
100
AcDbEntity
  8
$DDT_AUDIT_GENERATED_(DF)
  6
Continuous
 62
     7
100
AcDbEllipse
 10
114.7660206002
 20
640.5977820697
 30
0.0
 11
10.5
 21
0.0
 31
0.0
210
0.0
220
0.0
230
1.0
 40
0.1305261922
 41
0.0
 42
3.74841739894674
  0
ELLIPSE
  5
E1
330
75
100
AcDbEntity
  8
$DDT_AUDIT_GENERATED_(DF)
  6
Continuous
 62
     7
100
AcDbEllipse
 10
114.7660206002
 20
640.5977820697
 30
0.0
 11
10.5
 21
0.0
 31
0.0
210
0.0
220
0.0
230
1.0
 40
0.1305261922
 41
5.676360561822644
 42
6.283185307179586
  0
ELLIPSE
  5
E2
330
75
100
AcDbEntity
  8
$DDT_AUDIT_GENERATED_(DF)
  6
Continuous
 62
     7
100
AcDbEllipse
 10
114.7660206002
 20
646.2931991865
 30
0.0
 11
-11.49999999999999
 21
0.0
 31
0.0
210
0.0
220
0.0
230
1.0
 40
0.1305261922
 41
3.141583378900693
 42
6.283185307179586
  0
ELLIPSE
  5
E3
330
75
100
AcDbEntity
  8
$DDT_AUDIT_GENERATED_(DF)
  6
Continuous
 62
     7
100
AcDbEllipse
 10
114.7660206002
 20
640.5977820697
 30
0.0
 11
-10.05
 21
0.0
 31
0.0
210
0.0
220
0.0
230
1.0
 40
0.1305261922
 41
2.662249831265158
 42
6.283185307179586
  0
ELLIPSE
  5
E4
330
75
100
AcDbEntity
  8
$DDT_AUDIT_GENERATED_(DF)
  6
Continuous
 62
     7
100
AcDbEllipse
 10
114.7660206002
 20
640.5977820697
 30
0.0
 11
-10.05
 21
0.0
 31
0.0
210
0.0
220
0.0
230
1.0
 40
0.1305261922
 41
0.0
 42
0.4793428223246383
  0
ELLIPSE
  5
E5
330
75
100
AcDbEntity
  8
$DDT_AUDIT_GENERATED_(DF)
  6
Continuous
 62
     7
100
AcDbEllipse
 10
114.7660206002
 20
657.3036279839
 30
0.0
 11
11.49999999999999
 21
0.0
 31
0.0
210
0.0
220
0.0
230
1.0
 40
0.1305261922
 41
0.0
 42
0.0087326385282725
  0
ELLIPSE
  5
E6
330
75
100
AcDbEntity
  8
$DDT_AUDIT_GENERATED_(DF)
  6
Continuous
 62
     7
100
AcDbEllipse
 10
114.7660206002
 20
657.4523447131
 30
0.0
 11
-11.34999999999999
 21
0.0
 31
0.0
210
0.0
220
0.0
230
1.0
 40
0.1305261922
 41
3.469614094798108
 42
5.988497981708374
  0
ARC
  5
E7
330
75
100
AcDbEntity
  8
$DDT_AUDIT_GENERATED_(DF)
  6
Continuous
 62
     7
100
AcDbCircle
 10
120.0797596785
 20
646.2726113812
 30
0.0
 40
16.81081125842852
100
AcDbArc
 50
179.9301196538
 51
199.9942780965
  0
ARC
  5
E8
330
75
100
AcDbEntity
  8
$DDT_AUDIT_GENERATED_(DF)
  6
Continuous
 62
     7
100
AcDbCircle
 10
109.4859180026
 20
646.2664034918
 30
0.0
 40
16.77716698132471
100
AcDbArc
 50
339.9954767061
 51
0.0893644372
  0
LINE
  5
E9
330
75
100
AcDbEntity
  8
$DDT_AUDIT_GENERATED_(DF)
  6
Continuous
 62
     7
100
AcDbLine
 10
126.2660206002
 20
646.2931991865
 30
0.0
 11
126.2660206002
 21
657.3036279839
 31
0.0
  0
LINE
  5
EA
330
75
100
AcDbEntity
  8
$DDT_AUDIT_GENERATED_(DF)
  6
Continuous
 62
     7
100
AcDbLine
 10
103.2660206002
 20
657.3036279839
 30
0.0
 11
103.2660206002
 21
646.2931991865
 31
0.0
  0
SPLINE
  5
EB
330
75
100
AcDbEntity
  8
$DDT_AUDIT_GENERATED_(DF)
  6
Continuous
 62
     7
100
AcDbSpline
210
0.0
220
0.0
230
1.0
 70
     8
 71
     3
 72
    12
 73
     8
 74
     0
 42
0.0000000117999313
 43
0.0000000001
 40
0.0
 40
0.0
 40
0.0
 40
0.0
 40
0.2095165719188185
 40
0.4605136678322135
 40
0.6795825394903602
 40
0.8648558095410392
 40
1.0
 40
1.0
 40
1.0
 40
1.0
 10
103.8326472892455
 20
657.8640730319458
 30
0.0
 10
103.7579410606833
 20
657.8304689792857
 30
0.0
 10
103.6209537052332
 20
657.7674060633718
 30
0.0
 10
103.4566863273152
 20
657.6563611316362
 30
0.0
 10
103.3415371383334
 20
657.5389464666521
 30
0.0
 10
103.2764176352229
 20
657.4162144800791
 30
0.0
 10
103.2691528829297
 20
657.3412886708178
 30
0.0
 10
103.2660206001881
 20
657.3036279839055
 30
0.0
  0
SPLINE
  5
EC
330
75
100
AcDbEntity
  8
$DDT_AUDIT_GENERATED_(DF)
  6
Continuous
 62
     7
100
AcDbSpline
210
0.0
220
0.0
230
1.0
 70
     8
 71
     3
 72
    13
 73
     9
 74
     0
 42
0.0000000102594977
 43
0.0000000001
 40
0.0
 40
0.0
 40
0.0
 40
0.0
 40
0.1331796511297917
 40
0.3011783842839711
 40
0.4891168214547421
 40
0.7084474101605635
 40
0.9400734416630269
 40
1.0
 40
1.0
 40
1.0
 40
1.0
 10
126.2606551349981
 20
657.3257783549759
 30
0.0
 10
126.2563559602405
 20
657.3664299835597
 30
0.0
 10
126.2472373011187
 20
657.4436096259104
 30
0.0
 10
126.1721402344247
 20
657.5599041208202
 30
0.0
 10
126.0559184835368
 20
657.6716547855218
 30
0.0
 10
125.8816547236701
 20
657.7818363015909
 30
0.0
 10
125.707538379095
 20
657.867691065347
 30
0.0
 10
125.5890247423389
 20
657.9099586824046
 30
0.0
 10
125.5604550899886
 20
657.9200918907721
 30
0.0
  0
ELLIPSE
  5
EE
330
75
100
AcDbEntity
  8
$DDT_AUDIT_GENERATED_(ED)
  6
Continuous
 62
     7
100
AcDbEllipse
 10
114.7660206002
 20
640.6473543128
 30
0.0
 11
8.500000000000005
 21
0.0
 31
0.0
210
0.0
220
0.0
230
1.0
 40
0.1305261922
 41
3.366898544900476
 42
6.057879415868918
  0
ELLIPSE
  5
EF
330
75
100
AcDbEntity
  8
$DDT_AUDIT_GENERATED_(ED)
  6
Continuous
 62
     7
100
AcDbEllipse
 10
114.7660206002
 20
640.1516318821
 30
0.0
 11
8.500000000000005
 21
0.0
 31
0.0
210
0.0
220
0.0
230
1.0
 40
0.1305261922
 41
0.0
 42
6.283185307179586
  0
ELLIPSE
  5
F0
330
75
100
AcDbEntity
  8
$DDT_AUDIT_GENERATED_(ED)
  6
Continuous
 62
     7
100
AcDbEllipse
 10
114.7660206002
 20
640.1516318821
 30
0.0
 11
9.000000000000005
 21
0.0
 31
0.0
210
0.0
220
0.0
230
1.0
 40
0.1305261922
 41
0.0
 42
6.283185307179586
  0
LINE
  5
F1
330
75
100
AcDbEntity
  8
$DDT_AUDIT_GENERATED_(ED)
  6
Continuous
 62
     7
100
AcDbLine
 10
114.2660206002
 20
640.7387226474
 30
0.0
 11
114.2660206002
 21
640.8692488396
 31
0.0
  0
LINE
  5
F2
330
75
100
AcDbEntity
  8
$DDT_AUDIT_GENERATED_(ED)
  6
Continuous
 62
     7
100
AcDbLine
 10
114.2660206002
 20
640.8692488396
 30
0.0
 11
115.2660206002
 21
640.8692488396
 31
0.0
  0
LINE
  5
F3
330
75
100
AcDbEntity
  8
$DDT_AUDIT_GENERATED_(ED)
  6
Continuous
 62
     7
100
AcDbLine
 10
115.2660206002
 20
640.7387226474
 30
0.0
 11
114.2660206002
 21
640.7387226474
 31
0.0
  0
LINE
  5
F4
330
75
100
AcDbEntity
  8
$DDT_AUDIT_GENERATED_(ED)
  6
Continuous
 62
     7
100
AcDbLine
 10
114.2660206002
 20
640.895354078
 30
0.0
 11
114.2660206002
 21
641.0258802702
 31
0.0
  0
LINE
  5
F5
330
75
100
AcDbEntity
  8
$DDT_AUDIT_GENERATED_(ED)
  6
Continuous
 62
     7
100
AcDbLine
 10
114.2660206002
 20
641.0258802702
 30
0.0
 11
115.2660206002
 21
641.0258802702
 31
0.0
  0
LINE
  5
F6
330
75
100
AcDbEntity
  8
$DDT_AUDIT_GENERATED_(ED)
  6
Continuous
 62
     7
100
AcDbLine
 10
115.2660206002
 20
640.895354078
 30
0.0
 11
114.2660206002
 21
640.895354078
 31
0.0
  0
LINE
  5
F7
330
75
100
AcDbEntity
  8
$DDT_AUDIT_GENERATED_(ED)
  6
Continuous
 62
     7
100
AcDbLine
 10
114.2660206002
 20
641.0519855087
 30
0.0
 11
114.2660206002
 21
641.1825117009
 31
0.0
  0
LINE
  5
F8
330
75
100
AcDbEntity
  8
$DDT_AUDIT_GENERATED_(ED)
  6
Continuous
 62
     7
100
AcDbLine
 10
114.2660206002
 20
641.1825117009
 30
0.0
 11
115.2660206002
 21
641.1825117009
 31
0.0
  0
LINE
  5
F9
330
75
100
AcDbEntity
  8
$DDT_AUDIT_GENERATED_(ED)
  6
Continuous
 62
     7
100
AcDbLine
 10
115.2660206002
 20
641.0519855087
 30
0.0
 11
114.2660206002
 21
641.0519855087
 31
0.0
  0
LINE
  5
FA
330
75
100
AcDbEntity
  8
$DDT_AUDIT_GENERATED_(ED)
  6
Continuous
 62
     7
100
AcDbLine
 10
114.2660206002
 20
641.2086169394
 30
0.0
 11
114.2660206002
 21
641.2591833498
 31
0.0
  0
LINE
  5
FB
330
75
100
AcDbEntity
  8
$DDT_AUDIT_GENERATED_(ED)
  6
Continuous
 62
     7
100
AcDbLine
 10
115.2660206002
 20
641.2086169394
 30
0.0
 11
114.2660206002
 21
641.2086169394
 31
0.0
  0
LINE
  5
FC
330
75
100
AcDbEntity
  8
$DDT_AUDIT_GENERATED_(ED)
  6
Continuous
 62
     7
100
AcDbLine
 10
113.0660206002
 20
640.5820912167
 30
0.0
 11
113.0660206002
 21
640.7126174089
 31
0.0
  0
LINE
  5
FD
330
75
100
AcDbEntity
  8
$DDT_AUDIT_GENERATED_(ED)
  6
Continuous
 62
     7
100
AcDbLine
 10
113.0660206002
 20
640.7126174089
 30
0.0
 11
114.0660206002
 21
640.7126174089
 31
0.0
  0
LINE
  5
FE
330
75
100
AcDbEntity
  8
$DDT_AUDIT_GENERATED_(ED)
  6
Continuous
 62
     7
100
AcDbLine
 10
114.0660206002
 20
640.7126174089
 30
0.0
 11
114.0660206002
 21
640.5820912167
 31
0.0
  0
LINE
  5
FF
330
75
100
AcDbEntity
  8
$DDT_AUDIT_GENERATED_(ED)
  6
Continuous
 62
     7
100
AcDbLine
 10
113.0660206002
 20
640.7387226474
 30
0.0
 11
113.0660206002
 21
640.8692488396
 31
0.0
  0
LINE
  5
100
330
75
100
AcDbEntity
  8
$DDT_AUDIT_GENERATED_(ED)
  6
Continuous
 62
     7
100
AcDbLine
 10
113.0660206002
 20
640.8692488396
 30
0.0
 11
114.0660206002
 21
640.8692488396
 31
0.0
  0
LINE
  5
101
330
75
100
AcDbEntity
  8
$DDT_AUDIT_GENERATED_(ED)
  6
Continuous
 62
     7
100
AcDbLine
 10
114.0660206002
 20
640.8692488396
 30
0.0
 11
114.0660206002
 21
640.7387226474
 31
0.0
  0
LINE
  5
102
330
75
100
AcDbEntity
  8
$DDT_AUDIT_GENERATED_(ED)
  6
Continuous
 62
     7
100
AcDbLine
 10
114.0660206002
 20
640.7387226474
 30
0.0
 11
113.0660206002
 21
640.7387226474
 31
0.0
  0
LINE
  5
103
330
75
100
AcDbEntity
  8
$DDT_AUDIT_GENERATED_(ED)
  6
Continuous
 62
     7
100
AcDbLine
 10
113.0660206002
 20
640.895354078
 30
0.0
 11
113.0660206002
 21
641.0258802702
 31
0.0
  0
LINE
  5
104
330
75
100
AcDbEntity
  8
$DDT_AUDIT_GENERATED_(ED)
  6
Continuous
 62
     7
100
AcDbLine
 10
113.0660206002
 20
641.0258802702
 30
0.0
 11
114.0660206002
 21
641.0258802702
 31
0.0
  0
LINE
  5
105
330
75
100
AcDbEntity
  8
$DDT_AUDIT_GENERATED_(ED)
  6
Continuous
 62
     7
100
AcDbLine
 10
114.0660206002
 20
641.0258802702
 30
0.0
 11
114.0660206002
 21
640.895354078
 31
0.0
  0
LINE
  5
106
330
75
100
AcDbEntity
  8
$DDT_AUDIT_GENERATED_(ED)
  6
Continuous
 62
     7
100
AcDbLine
 10
114.0660206002
 20
640.895354078
 30
0.0
 11
113.0660206002
 21
640.895354078
 31
0.0
  0
LINE
  5
107
330
75
100
AcDbEntity
  8
$DDT_AUDIT_GENERATED_(ED)
  6
Continuous
 62
     7
100
AcDbLine
 10
113.0660206002
 20
641.0519855087
 30
0.0
 11
113.0660206002
 21
641.1825117009
 31
0.0
  0
LINE
  5
108
330
75
100
AcDbEntity
  8
$DDT_AUDIT_GENERATED_(ED)
  6
Continuous
 62
     7
100
AcDbLine
 10
113.0660206002
 20
641.1825117009
 30
0.0
 11
114.0660206002
 21
641.1825117009
 31
0.0
  0
LINE
  5
109
330
75
100
AcDbEntity
  8
$DDT_AUDIT_GENERATED_(ED)
  6
Continuous
 62
     7
100
AcDbLine
 10
114.0660206002
 20
641.1825117009
 30
0.0
 11
114.0660206002
 21
641.0519855087
 31
0.0
  0
LINE
  5
10A
330
75
100
AcDbEntity
  8
$DDT_AUDIT_GENERATED_(ED)
  6
Continuous
 62
     7
100
AcDbLine
 10
114.0660206002
 20
641.0519855087
 30
0.0
 11
113.0660206002
 21
641.0519855087
 31
0.0
  0
LINE
  5
10B
330
75
100
AcDbEntity
  8
$DDT_AUDIT_GENERATED_(ED)
  6
Continuous
 62
     7
100
AcDbLine
 10
113.0660206002
 20
641.2086169394
 30
0.0
 11
113.0660206002
 21
641.2386886167
 31
0.0
  0
LINE
  5
10C
330
75
100
AcDbEntity
  8
$DDT_AUDIT_GENERATED_(ED)
  6
Continuous
 62
     7
100
AcDbLine
 10
114.0660206002
 20
641.2573358899
 30
0.0
 11
114.0660206002
 21
641.2086169394
 31
0.0
  0
LINE
  5
10D
330
75
100
AcDbEntity
  8
$DDT_AUDIT_GENERATED_(ED)
  6
Continuous
 62
     7
100
AcDbLine
 10
114.0660206002
 20
641.2086169394
 30
0.0
 11
113.0660206002
 21
641.2086169394
 31
0.0
  0
LINE
  5
10E
330
75
100
AcDbEntity
  8
$DDT_AUDIT_GENERATED_(ED)
  6
Continuous
 62
     7
100
AcDbLine
 10
111.8660206002
 20
640.5820912167
 30
0.0
 11
111.8660206002
 21
640.7126174089
 31
0.0
  0
LINE
  5
10F
330
75
100
AcDbEntity
  8
$DDT_AUDIT_GENERATED_(ED)
  6
Continuous
 62
     7
100
AcDbLine
 10
111.8660206002
 20
640.7126174089
 30
0.0
 11
112.8660206002
 21
640.7126174089
 31
0.0
  0
LINE
  5
110
330
75
100
AcDbEntity
  8
$DDT_AUDIT_GENERATED_(ED)
  6
Continuous
 62
     7
100
AcDbLine
 10
112.8660206002
 20
640.7126174089
 30
0.0
 11
112.8660206002
 21
640.5820912167
 31
0.0
  0
LINE
  5
111
330
75
100
AcDbEntity
  8
$DDT_AUDIT_GENERATED_(ED)
  6
Continuous
 62
     7
100
AcDbLine
 10
111.8660206002
 20
640.7387226474
 30
0.0
 11
111.8660206002
 21
640.8692488396
 31
0.0
  0
LINE
  5
112
330
75
100
AcDbEntity
  8
$DDT_AUDIT_GENERATED_(ED)
  6
Continuous
 62
     7
100
AcDbLine
 10
111.8660206002
 20
640.8692488396
 30
0.0
 11
112.8660206002
 21
640.8692488396
 31
0.0
  0
LINE
  5
113
330
75
100
AcDbEntity
  8
$DDT_AUDIT_GENERATED_(ED)
  6
Continuous
 62
     7
100
AcDbLine
 10
112.8660206002
 20
640.8692488396
 30
0.0
 11
112.8660206002
 21
640.7387226474
 31
0.0
  0
LINE
  5
114
330
75
100
AcDbEntity
  8
$DDT_AUDIT_GENERATED_(ED)
  6
Continuous
 62
     7
100
AcDbLine
 10
112.8660206002
 20
640.7387226474
 30
0.0
 11
111.8660206002
 21
640.7387226474
 31
0.0
  0
LINE
  5
115
330
75
100
AcDbEntity
  8
$DDT_AUDIT_GENERATED_(ED)
  6
Continuous
 62
     7
100
AcDbLine
 10
111.8660206002
 20
640.895354078
 30
0.0
 11
111.8660206002
 21
641.0258802702
 31
0.0
  0
LINE
  5
116
330
75
100
AcDbEntity
  8
$DDT_AUDIT_GENERATED_(ED)
  6
Continuous
 62
     7
100
AcDbLine
 10
111.8660206002
 20
641.0258802702
 30
0.0
 11
112.8660206002
 21
641.0258802702
 31
0.0
  0
LINE
  5
117
330
75
100
AcDbEntity
  8
$DDT_AUDIT_GENERATED_(ED)
  6
Continuous
 62
     7
100
AcDbLine
 10
112.8660206002
 20
641.0258802702
 30
0.0
 11
112.8660206002
 21
640.895354078
 31
0.0
  0
LINE
  5
118
330
75
100
AcDbEntity
  8
$DDT_AUDIT_GENERATED_(ED)
  6
Continuous
 62
     7
100
AcDbLine
 10
112.8660206002
 20
640.895354078
 30
0.0
 11
111.8660206002
 21
640.895354078
 31
0.0
  0
LINE
  5
119
330
75
100
AcDbEntity
  8
$DDT_AUDIT_GENERATED_(ED)
  6
Continuous
 62
     7
100
AcDbLine
 10
111.8660206002
 20
641.0519855087
 30
0.0
 11
111.8660206002
 21
641.1825117009
 31
0.0
  0
LINE
  5
11A
330
75
100
AcDbEntity
  8
$DDT_AUDIT_GENERATED_(ED)
  6
Continuous
 62
     7
100
AcDbLine
 10
111.8660206002
 20
641.1825117009
 30
0.0
 11
112.8660206002
 21
641.1825117009
 31
0.0
  0
LINE
  5
11B
330
75
100
AcDbEntity
  8
$DDT_AUDIT_GENERATED_(ED)
  6
Continuous
 62
     7
100
AcDbLine
 10
112.8660206002
 20
641.1825117009
 30
0.0
 11
112.8660206002
 21
641.0519855087
 31
0.0
  0
LINE
  5
11C
330
75
100
AcDbEntity
  8
$DDT_AUDIT_GENERATED_(ED)
  6
Continuous
 62
     7
100
AcDbLine
 10
112.8660206002
 20
641.0519855087
 30
0.0
 11
111.8660206002
 21
641.0519855087
 31
0.0
  0
LINE
  5
11D
330
75
100
AcDbEntity
  8
$DDT_AUDIT_GENERATED_(ED)
  6
Continuous
 62
     7
100
AcDbLine
 10
112.8660206002
 20
641.233031735
 30
0.0
 11
112.8660206002
 21
641.2086169394
 31
0.0
  0
LINE
  5
11E
330
75
100
AcDbEntity
  8
$DDT_AUDIT_GENERATED_(ED)
  6
Continuous
 62
     7
100
AcDbLine
 10
112.8660206002
 20
641.2086169394
 30
0.0
 11
112.1825370646
 21
641.2086169394
 31
0.0
  0
LINE
  5
11F
330
75
100
AcDbEntity
  8
$DDT_AUDIT_GENERATED_(ED)
  6
Continuous
 62
     7
100
AcDbLine
 10
110.6660206002
 20
640.5820912167
 30
0.0
 11
110.6660206002
 21
640.7126174089
 31
0.0
  0
LINE
  5
120
330
75
100
AcDbEntity
  8
$DDT_AUDIT_GENERATED_(ED)
  6
Continuous
 62
     7
100
AcDbLine
 10
110.6660206002
 20
640.7126174089
 30
0.0
 11
111.6660206002
 21
640.7126174089
 31
0.0
  0
LINE
  5
121
330
75
100
AcDbEntity
  8
$DDT_AUDIT_GENERATED_(ED)
  6
Continuous
 62
     7
100
AcDbLine
 10
111.6660206002
 20
640.7126174089
 30
0.0
 11
111.6660206002
 21
640.5820912167
 31
0.0
  0
LINE
  5
122
330
75
100
AcDbEntity
  8
$DDT_AUDIT_GENERATED_(ED)
  6
Continuous
 62
     7
100
AcDbLine
 10
110.6660206002
 20
640.7387226474
 30
0.0
 11
110.6660206002
 21
640.8692488396
 31
0.0
  0
LINE
  5
123
330
75
100
AcDbEntity
  8
$DDT_AUDIT_GENERATED_(ED)
  6
Continuous
 62
     7
100
AcDbLine
 10
110.6660206002
 20
640.8692488396
 30
0.0
 11
111.6660206002
 21
640.8692488396
 31
0.0
  0
LINE
  5
124
330
75
100
AcDbEntity
  8
$DDT_AUDIT_GENERATED_(ED)
  6
Continuous
 62
     7
100
AcDbLine
 10
111.6660206002
 20
640.8692488396
 30
0.0
 11
111.6660206002
 21
640.7387226474
 31
0.0
  0
LINE
  5
125
330
75
100
AcDbEntity
  8
$DDT_AUDIT_GENERATED_(ED)
  6
Continuous
 62
     7
100
AcDbLine
 10
111.6660206002
 20
640.7387226474
 30
0.0
 11
110.6660206002
 21
640.7387226474
 31
0.0
  0
LINE
  5
126
330
75
100
AcDbEntity
  8
$DDT_AUDIT_GENERATED_(ED)
  6
Continuous
 62
     7
100
AcDbLine
 10
110.6660206002
 20
640.895354078
 30
0.0
 11
110.6660206002
 21
641.0258802702
 31
0.0
  0
LINE
  5
127
330
75
100
AcDbEntity
  8
$DDT_AUDIT_GENERATED_(ED)
  6
Continuous
 62
     7
100
AcDbLine
 10
110.6660206002
 20
641.0258802702
 30
0.0
 11
111.6660206002
 21
641.0258802702
 31
0.0
  0
LINE
  5
128
330
75
100
AcDbEntity
  8
$DDT_AUDIT_GENERATED_(ED)
  6
Continuous
 62
     7
100
AcDbLine
 10
111.6660206002
 20
641.0258802702
 30
0.0
 11
111.6660206002
 21
640.895354078
 31
0.0
  0
LINE
  5
129
330
75
100
AcDbEntity
  8
$DDT_AUDIT_GENERATED_(ED)
  6
Continuous
 62
     7
100
AcDbLine
 10
111.6660206002
 20
640.895354078
 30
0.0
 11
110.6660206002
 21
640.895354078
 31
0.0
  0
LINE
  5
12A
330
75
100
AcDbEntity
  8
$DDT_AUDIT_GENERATED_(ED)
  6
Continuous
 62
     7
100
AcDbLine
 10
110.6660206002
 20
641.0519855087
 30
0.0
 11
110.6660206002
 21
641.1235043507
 31
0.0
  0
LINE
  5
12B
330
75
100
AcDbEntity
  8
$DDT_AUDIT_GENERATED_(ED)
  6
Continuous
 62
     7
100
AcDbLine
 10
111.6238019571
 20
641.1825117009
 30
0.0
 11
111.6660206002
 21
641.1825117009
 31
0.0
  0
LINE
  5
12C
330
75
100
AcDbEntity
  8
$DDT_AUDIT_GENERATED_(ED)
  6
Continuous
 62
     7
100
AcDbLine
 10
111.6660206002
 20
641.1825117009
 30
0.0
 11
111.6660206002
 21
641.0519855087
 31
0.0
  0
LINE
  5
12D
330
75
100
AcDbEntity
  8
$DDT_AUDIT_GENERATED_(ED)
  6
Continuous
 62
     7
100
AcDbLine
 10
111.6660206002
 20
641.0519855087
 30
0.0
 11
110.6660206002
 21
641.0519855087
 31
0.0
  0
LINE
  5
12E
330
75
100
AcDbEntity
  8
$DDT_AUDIT_GENERATED_(ED)
  6
Continuous
 62
     7
100
AcDbLine
 10
109.4660206002
 20
640.5820912167
 30
0.0
 11
109.4660206002
 21
640.7126174089
 31
0.0
  0
LINE
  5
12F
330
75
100
AcDbEntity
  8
$DDT_AUDIT_GENERATED_(ED)
  6
Continuous
 62
     7
100
AcDbLine
 10
109.4660206002
 20
640.7126174089
 30
0.0
 11
110.4660206002
 21
640.7126174089
 31
0.0
  0
LINE
  5
130
330
75
100
AcDbEntity
  8
$DDT_AUDIT_GENERATED_(ED)
  6
Continuous
 62
     7
100
AcDbLine
 10
110.4660206002
 20
640.7126174089
 30
0.0
 11
110.4660206002
 21
640.5820912167
 31
0.0
  0
LINE
  5
131
330
75
100
AcDbEntity
  8
$DDT_AUDIT_GENERATED_(ED)
  6
Continuous
 62
     7
100
AcDbLine
 10
109.4660206002
 20
640.7387226474
 30
0.0
 11
109.4660206002
 21
640.8692488396
 31
0.0
  0
LINE
  5
132
330
75
100
AcDbEntity
  8
$DDT_AUDIT_GENERATED_(ED)
  6
Continuous
 62
     7
100
AcDbLine
 10
109.4660206002
 20
640.8692488396
 30
0.0
 11
110.4660206002
 21
640.8692488396
 31
0.0
  0
LINE
  5
133
330
75
100
AcDbEntity
  8
$DDT_AUDIT_GENERATED_(ED)
  6
Continuous
 62
     7
100
AcDbLine
 10
110.4660206002
 20
640.8692488396
 30
0.0
 11
110.4660206002
 21
640.7387226474
 31
0.0
  0
LINE
  5
134
330
75
100
AcDbEntity
  8
$DDT_AUDIT_GENERATED_(ED)
  6
Continuous
 62
     7
100
AcDbLine
 10
110.4660206002
 20
640.7387226474
 30
0.0
 11
109.4660206002
 21
640.7387226474
 31
0.0
  0
LINE
  5
135
330
75
100
AcDbEntity
  8
$DDT_AUDIT_GENERATED_(ED)
  6
Continuous
 62
     7
100
AcDbLine
 10
109.4660206002
 20
640.895354078
 30
0.0
 11
109.4660206002
 21
641.0190174685
 31
0.0
  0
LINE
  5
136
330
75
100
AcDbEntity
  8
$DDT_AUDIT_GENERATED_(ED)
  6
Continuous
 62
     7
100
AcDbLine
 10
109.532623717
 20
641.0258802702
 30
0.0
 11
110.4660206002
 21
641.0258802702
 31
0.0
  0
LINE
  5
137
330
75
100
AcDbEntity
  8
$DDT_AUDIT_GENERATED_(ED)
  6
Continuous
 62
     7
100
AcDbLine
 10
110.4660206002
 20
641.0258802702
 30
0.0
 11
110.4660206002
 21
640.895354078
 31
0.0
  0
LINE
  5
138
330
75
100
AcDbEntity
  8
$DDT_AUDIT_GENERATED_(ED)
  6
Continuous
 62
     7
100
AcDbLine
 10
110.4660206002
 20
640.895354078
 30
0.0
 11
109.4660206002
 21
640.895354078
 31
0.0
  0
LINE
  5
139
330
75
100
AcDbEntity
  8
$DDT_AUDIT_GENERATED_(ED)
  6
Continuous
 62
     7
100
AcDbLine
 10
110.4660206002
 20
641.1086657317
 30
0.0
 11
110.4660206002
 21
641.0519855087
 31
0.0
  0
LINE
  5
13A
330
75
100
AcDbEntity
  8
$DDT_AUDIT_GENERATED_(ED)
  6
Continuous
 62
     7
100
AcDbLine
 10
110.4660206002
 20
641.0519855087
 30
0.0
 11
109.7992014859
 21
641.0519855087
 31
0.0
  0
LINE
  5
13B
330
75
100
AcDbEntity
  8
$DDT_AUDIT_GENERATED_(ED)
  6
Continuous
 62
     7
100
AcDbLine
 10
108.2660206002
 20
640.5820912167
 30
0.0
 11
108.2660206002
 21
640.7126174089
 31
0.0
  0
LINE
  5
13C
330
75
100
AcDbEntity
  8
$DDT_AUDIT_GENERATED_(ED)
  6
Continuous
 62
     7
100
AcDbLine
 10
108.2660206002
 20
640.7126174089
 30
0.0
 11
109.2660206002
 21
640.7126174089
 31
0.0
  0
LINE
  5
13D
330
75
100
AcDbEntity
  8
$DDT_AUDIT_GENERATED_(ED)
  6
Continuous
 62
     7
100
AcDbLine
 10
109.2660206002
 20
640.7126174089
 30
0.0
 11
109.2660206002
 21
640.5820912167
 31
0.0
  0
LINE
  5
13E
330
75
100
AcDbEntity
  8
$DDT_AUDIT_GENERATED_(ED)
  6
Continuous
 62
     7
100
AcDbLine
 10
108.2660206002
 20
640.7387226474
 30
0.0
 11
108.2660206002
 21
640.8665532804
 31
0.0
  0
LINE
  5
13F
330
75
100
AcDbEntity
  8
$DDT_AUDIT_GENERATED_(ED)
  6
Continuous
 62
     7
100
AcDbLine
 10
108.2834788246
 20
640.8692488396
 30
0.0
 11
109.2660206002
 21
640.8692488396
 31
0.0
  0
LINE
  5
140
330
75
100
AcDbEntity
  8
$DDT_AUDIT_GENERATED_(ED)
  6
Continuous
 62
     7
100
AcDbLine
 10
109.2660206002
 20
640.8692488396
 30
0.0
 11
109.2660206002
 21
640.7387226474
 31
0.0
  0
LINE
  5
141
330
75
100
AcDbEntity
  8
$DDT_AUDIT_GENERATED_(ED)
  6
Continuous
 62
     7
100
AcDbLine
 10
109.2660206002
 20
640.7387226474
 30
0.0
 11
108.2660206002
 21
640.7387226474
 31
0.0
  0
LINE
  5
142
330
75
100
AcDbEntity
  8
$DDT_AUDIT_GENERATED_(ED)
  6
Continuous
 62
     7
100
AcDbLine
 10
109.2660206002
 20
640.9975382882
 30
0.0
 11
109.2660206002
 21
640.895354078
 31
0.0
  0
LINE
  5
143
330
75
100
AcDbEntity
  8
$DDT_AUDIT_GENERATED_(ED)
  6
Continuous
 62
     7
100
AcDbLine
 10
109.2660206002
 20
640.895354078
 30
0.0
 11
108.4585490743
 21
640.895354078
 31
0.0
  0
LINE
  5
144
330
75
100
AcDbEntity
  8
$DDT_AUDIT_GENERATED_(ED)
  6
Continuous
 62
     7
100
AcDbLine
 10
107.0660206002
 20
640.5820912167
 30
0.0
 11
107.0660206002
 21
640.6215261741
 31
0.0
  0
LINE
  5
145
330
75
100
AcDbEntity
  8
$DDT_AUDIT_GENERATED_(ED)
  6
Continuous
 62
     7
100
AcDbLine
 10
107.4326548785
 20
640.7126174089
 30
0.0
 11
108.0660206002
 21
640.7126174089
 31
0.0
  0
LINE
  5
146
330
75
100
AcDbEntity
  8
$DDT_AUDIT_GENERATED_(ED)
  6
Continuous
 62
     7
100
AcDbLine
 10
108.0660206002
 20
640.7126174089
 30
0.0
 11
108.0660206002
 21
640.5820912167
 31
0.0
  0
LINE
  5
147
330
75
100
AcDbEntity
  8
$DDT_AUDIT_GENERATED_(ED)
  6
Continuous
 62
     7
100
AcDbLine
 10
108.0660206002
 20
640.8343724598
 30
0.0
 11
108.0660206002
 21
640.7387226474
 31
0.0
  0
LINE
  5
148
330
75
100
AcDbEntity
  8
$DDT_AUDIT_GENERATED_(ED)
  6
Continuous
 62
     7
100
AcDbLine
 10
108.0660206002
 20
640.7387226474
 30
0.0
 11
107.5535936865
 21
640.7387226474
 31
0.0
  0
LINE
  5
149
330
75
100
AcDbEntity
  8
$DDT_AUDIT_GENERATED_(ED)
  6
Continuous
 62
     7
100
AcDbLine
 10
114.2660206002
 20
640.7126174089
 30
0.0
 11
115.2660206002
 21
640.7126174089
 31
0.0
  0
LINE
  5
14A
330
75
100
AcDbEntity
  8
$DDT_AUDIT_GENERATED_(ED)
  6
Continuous
 62
     7
100
AcDbLine
 10
114.2660206002
 20
640.5820912167
 30
0.0
 11
114.2660206002
 21
640.7126174089
 31
0.0
  0
LINE
  5
14B
330
75
100
AcDbEntity
  8
$DDT_AUDIT_GENERATED_(ED)
  6
Continuous
 62
     7
100
AcDbLine
 10
115.4660206002
 20
640.7126174089
 30
0.0
 11
116.4660206002
 21
640.7126174089
 31
0.0
  0
LINE
  5
14C
330
75
100
AcDbEntity
  8
$DDT_AUDIT_GENERATED_(ED)
  6
Continuous
 62
     7
100
AcDbLine
 10
116.4660206002
 20
640.7126174089
 30
0.0
 11
116.4660206002
 21
640.5820912167
 31
0.0
  0
LINE
  5
14D
330
75
100
AcDbEntity
  8
$DDT_AUDIT_GENERATED_(ED)
  6
Continuous
 62
     7
100
AcDbLine
 10
115.4660206002
 20
640.5820912167
 30
0.0
 11
115.4660206002
 21
640.7126174089
 31
0.0
  0
LINE
  5
14E
330
75
100
AcDbEntity
  8
$DDT_AUDIT_GENERATED_(ED)
  6
Continuous
 62
     7
100
AcDbLine
 10
116.6660206002
 20
640.7126174089
 30
0.0
 11
117.6660206002
 21
640.7126174089
 31
0.0
  0
LINE
  5
14F
330
75
100
AcDbEntity
  8
$DDT_AUDIT_GENERATED_(ED)
  6
Continuous
 62
     7
100
AcDbLine
 10
117.6660206002
 20
640.7126174089
 30
0.0
 11
117.6660206002
 21
640.5820912167
 31
0.0
  0
LINE
  5
150
330
75
100
AcDbEntity
  8
$DDT_AUDIT_GENERATED_(ED)
  6
Continuous
 62
     7
100
AcDbLine
 10
116.6660206002
 20
640.5820912167
 30
0.0
 11
116.6660206002
 21
640.7126174089
 31
0.0
  0
LINE
  5
151
330
75
100
AcDbEntity
  8
$DDT_AUDIT_GENERATED_(ED)
  6
Continuous
 62
     7
100
AcDbLine
 10
117.8660206002
 20
640.7126174089
 30
0.0
 11
118.8660206002
 21
640.7126174089
 31
0.0
  0
LINE
  5
152
330
75
100
AcDbEntity
  8
$DDT_AUDIT_GENERATED_(ED)
  6
Continuous
 62
     7
100
AcDbLine
 10
118.8660206002
 20
640.7126174089
 30
0.0
 11
118.8660206002
 21
640.5820912167
 31
0.0
  0
LINE
  5
153
330
75
100
AcDbEntity
  8
$DDT_AUDIT_GENERATED_(ED)
  6
Continuous
 62
     7
100
AcDbLine
 10
117.8660206002
 20
640.5820912167
 30
0.0
 11
117.8660206002
 21
640.7126174089
 31
0.0
  0
LINE
  5
154
330
75
100
AcDbEntity
  8
$DDT_AUDIT_GENERATED_(ED)
  6
Continuous
 62
     7
100
AcDbLine
 10
119.0660206002
 20
640.7126174089
 30
0.0
 11
120.0660206002
 21
640.7126174089
 31
0.0
  0
LINE
  5
155
330
75
100
AcDbEntity
  8
$DDT_AUDIT_GENERATED_(ED)
  6
Continuous
 62
     7
100
AcDbLine
 10
120.0660206002
 20
640.7126174089
 30
0.0
 11
120.0660206002
 21
640.5820912167
 31
0.0
  0
LINE
  5
156
330
75
100
AcDbEntity
  8
$DDT_AUDIT_GENERATED_(ED)
  6
Continuous
 62
     7
100
AcDbLine
 10
119.0660206002
 20
640.5820912167
 30
0.0
 11
119.0660206002
 21
640.7126174089
 31
0.0
  0
LINE
  5
157
330
75
100
AcDbEntity
  8
$DDT_AUDIT_GENERATED_(ED)
  6
Continuous
 62
     7
100
AcDbLine
 10
120.2660206002
 20
640.7126174089
 30
0.0
 11
121.2660206002
 21
640.7126174089
 31
0.0
  0
LINE
  5
158
330
75
100
AcDbEntity
  8
$DDT_AUDIT_GENERATED_(ED)
  6
Continuous
 62
     7
100
AcDbLine
 10
121.2660206002
 20
640.7126174089
 30
0.0
 11
121.2660206002
 21
640.5820912167
 31
0.0
  0
LINE
  5
159
330
75
100
AcDbEntity
  8
$DDT_AUDIT_GENERATED_(ED)
  6
Continuous
 62
     7
100
AcDbLine
 10
120.2660206002
 20
640.5820912167
 30
0.0
 11
120.2660206002
 21
640.7126174089
 31
0.0
  0
LINE
  5
15A
330
75
100
AcDbEntity
  8
$DDT_AUDIT_GENERATED_(ED)
  6
Continuous
 62
     7
100
AcDbLine
 10
121.4660206002
 20
640.7126174089
 30
0.0
 11
122.0993863218
 21
640.7126174089
 31
0.0
  0
LINE
  5
15B
330
75
100
AcDbEntity
  8
$DDT_AUDIT_GENERATED_(ED)
  6
Continuous
 62
     7
100
AcDbLine
 10
122.4660206002
 20
640.6215261741
 30
0.0
 11
122.4660206002
 21
640.5820912167
 31
0.0
  0
LINE
  5
15C
330
75
100
AcDbEntity
  8
$DDT_AUDIT_GENERATED_(ED)
  6
Continuous
 62
     7
100
AcDbLine
 10
121.4660206002
 20
640.5820912167
 30
0.0
 11
121.4660206002
 21
640.7126174089
 31
0.0
  0
LINE
  5
15D
330
75
100
AcDbEntity
  8
$DDT_AUDIT_GENERATED_(ED)
  6
Continuous
 62
     7
100
AcDbLine
 10
115.2660206002
 20
640.8692488396
 30
0.0
 11
115.2660206002
 21
640.7387226474
 31
0.0
  0
LINE
  5
15E
330
75
100
AcDbEntity
  8
$DDT_AUDIT_GENERATED_(ED)
  6
Continuous
 62
     7
100
AcDbLine
 10
115.4660206002
 20
640.8692488396
 30
0.0
 11
116.4660206002
 21
640.8692488396
 31
0.0
  0
LINE
  5
15F
330
75
100
AcDbEntity
  8
$DDT_AUDIT_GENERATED_(ED)
  6
Continuous
 62
     7
100
AcDbLine
 10
116.4660206002
 20
640.8692488396
 30
0.0
 11
116.4660206002
 21
640.7387226474
 31
0.0
  0
LINE
  5
160
330
75
100
AcDbEntity
  8
$DDT_AUDIT_GENERATED_(ED)
  6
Continuous
 62
     7
100
AcDbLine
 10
116.4660206002
 20
640.7387226474
 30
0.0
 11
115.4660206002
 21
640.7387226474
 31
0.0
  0
LINE
  5
161
330
75
100
AcDbEntity
  8
$DDT_AUDIT_GENERATED_(ED)
  6
Continuous
 62
     7
100
AcDbLine
 10
115.4660206002
 20
640.7387226474
 30
0.0
 11
115.4660206002
 21
640.8692488396
 31
0.0
  0
LINE
  5
162
330
75
100
AcDbEntity
  8
$DDT_AUDIT_GENERATED_(ED)
  6
Continuous
 62
     7
100
AcDbLine
 10
116.6660206002
 20
640.8692488396
 30
0.0
 11
117.6660206002
 21
640.8692488396
 31
0.0
  0
LINE
  5
163
330
75
100
AcDbEntity
  8
$DDT_AUDIT_GENERATED_(ED)
  6
Continuous
 62
     7
100
AcDbLine
 10
117.6660206002
 20
640.8692488396
 30
0.0
 11
117.6660206002
 21
640.7387226474
 31
0.0
  0
LINE
  5
164
330
75
100
AcDbEntity
  8
$DDT_AUDIT_GENERATED_(ED)
  6
Continuous
 62
     7
100
AcDbLine
 10
117.6660206002
 20
640.7387226474
 30
0.0
 11
116.6660206002
 21
640.7387226474
 31
0.0
  0
LINE
  5
165
330
75
100
AcDbEntity
  8
$DDT_AUDIT_GENERATED_(ED)
  6
Continuous
 62
     7
100
AcDbLine
 10
116.6660206002
 20
640.7387226474
 30
0.0
 11
116.6660206002
 21
640.8692488396
 31
0.0
  0
LINE
  5
166
330
75
100
AcDbEntity
  8
$DDT_AUDIT_GENERATED_(ED)
  6
Continuous
 62
     7
100
AcDbLine
 10
117.8660206002
 20
640.8692488396
 30
0.0
 11
118.8660206002
 21
640.8692488396
 31
0.0
  0
LINE
  5
167
330
75
100
AcDbEntity
  8
$DDT_AUDIT_GENERATED_(ED)
  6
Continuous
 62
     7
100
AcDbLine
 10
118.8660206002
 20
640.8692488396
 30
0.0
 11
118.8660206002
 21
640.7387226474
 31
0.0
  0
LINE
  5
168
330
75
100
AcDbEntity
  8
$DDT_AUDIT_GENERATED_(ED)
  6
Continuous
 62
     7
100
AcDbLine
 10
118.8660206002
 20
640.7387226474
 30
0.0
 11
117.8660206002
 21
640.7387226474
 31
0.0
  0
LINE
  5
169
330
75
100
AcDbEntity
  8
$DDT_AUDIT_GENERATED_(ED)
  6
Continuous
 62
     7
100
AcDbLine
 10
117.8660206002
 20
640.7387226474
 30
0.0
 11
117.8660206002
 21
640.8692488396
 31
0.0
  0
LINE
  5
16A
330
75
100
AcDbEntity
  8
$DDT_AUDIT_GENERATED_(ED)
  6
Continuous
 62
     7
100
AcDbLine
 10
119.0660206002
 20
640.8692488396
 30
0.0
 11
120.0660206002
 21
640.8692488396
 31
0.0
  0
LINE
  5
16B
330
75
100
AcDbEntity
  8
$DDT_AUDIT_GENERATED_(ED)
  6
Continuous
 62
     7
100
AcDbLine
 10
120.0660206002
 20
640.8692488396
 30
0.0
 11
120.0660206002
 21
640.7387226474
 31
0.0
  0
LINE
  5
16C
330
75
100
AcDbEntity
  8
$DDT_AUDIT_GENERATED_(ED)
  6
Continuous
 62
     7
100
AcDbLine
 10
120.0660206002
 20
640.7387226474
 30
0.0
 11
119.0660206002
 21
640.7387226474
 31
0.0
  0
LINE
  5
16D
330
75
100
AcDbEntity
  8
$DDT_AUDIT_GENERATED_(ED)
  6
Continuous
 62
     7
100
AcDbLine
 10
119.0660206002
 20
640.7387226474
 30
0.0
 11
119.0660206002
 21
640.8692488396
 31
0.0
  0
LINE
  5
16E
330
75
100
AcDbEntity
  8
$DDT_AUDIT_GENERATED_(ED)
  6
Continuous
 62
     7
100
AcDbLine
 10
120.2660206002
 20
640.8692488396
 30
0.0
 11
121.2485623758
 21
640.8692488396
 31
0.0
  0
LINE
  5
16F
330
75
100
AcDbEntity
  8
$DDT_AUDIT_GENERATED_(ED)
  6
Continuous
 62
     7
100
AcDbLine
 10
121.2660206002
 20
640.8665532804
 30
0.0
 11
121.2660206002
 21
640.7387226474
 31
0.0
  0
LINE
  5
170
330
75
100
AcDbEntity
  8
$DDT_AUDIT_GENERATED_(ED)
  6
Continuous
 62
     7
100
AcDbLine
 10
121.2660206002
 20
640.7387226474
 30
0.0
 11
120.2660206002
 21
640.7387226474
 31
0.0
  0
LINE
  5
171
330
75
100
AcDbEntity
  8
$DDT_AUDIT_GENERATED_(ED)
  6
Continuous
 62
     7
100
AcDbLine
 10
120.2660206002
 20
640.7387226474
 30
0.0
 11
120.2660206002
 21
640.8692488396
 31
0.0
  0
LINE
  5
172
330
75
100
AcDbEntity
  8
$DDT_AUDIT_GENERATED_(ED)
  6
Continuous
 62
     7
100
AcDbLine
 10
121.9784475139
 20
640.7387226474
 30
0.0
 11
121.4660206002
 21
640.7387226474
 31
0.0
  0
LINE
  5
173
330
75
100
AcDbEntity
  8
$DDT_AUDIT_GENERATED_(ED)
  6
Continuous
 62
     7
100
AcDbLine
 10
121.4660206002
 20
640.7387226474
 30
0.0
 11
121.4660206002
 21
640.8343724598
 31
0.0
  0
LINE
  5
174
330
75
100
AcDbEntity
  8
$DDT_AUDIT_GENERATED_(ED)
  6
Continuous
 62
     7
100
AcDbLine
 10
115.2660206002
 20
641.0258802702
 30
0.0
 11
115.2660206002
 21
640.895354078
 31
0.0
  0
LINE
  5
175
330
75
100
AcDbEntity
  8
$DDT_AUDIT_GENERATED_(ED)
  6
Continuous
 62
     7
100
AcDbLine
 10
115.4660206002
 20
641.0258802702
 30
0.0
 11
116.4660206002
 21
641.0258802702
 31
0.0
  0
LINE
  5
176
330
75
100
AcDbEntity
  8
$DDT_AUDIT_GENERATED_(ED)
  6
Continuous
 62
     7
100
AcDbLine
 10
116.4660206002
 20
641.0258802702
 30
0.0
 11
116.4660206002
 21
640.895354078
 31
0.0
  0
LINE
  5
177
330
75
100
AcDbEntity
  8
$DDT_AUDIT_GENERATED_(ED)
  6
Continuous
 62
     7
100
AcDbLine
 10
116.4660206002
 20
640.895354078
 30
0.0
 11
115.4660206002
 21
640.895354078
 31
0.0
  0
LINE
  5
178
330
75
100
AcDbEntity
  8
$DDT_AUDIT_GENERATED_(ED)
  6
Continuous
 62
     7
100
AcDbLine
 10
115.4660206002
 20
640.895354078
 30
0.0
 11
115.4660206002
 21
641.0258802702
 31
0.0
  0
LINE
  5
179
330
75
100
AcDbEntity
  8
$DDT_AUDIT_GENERATED_(ED)
  6
Continuous
 62
     7
100
AcDbLine
 10
116.6660206002
 20
641.0258802702
 30
0.0
 11
117.6660206002
 21
641.0258802702
 31
0.0
  0
LINE
  5
17A
330
75
100
AcDbEntity
  8
$DDT_AUDIT_GENERATED_(ED)
  6
Continuous
 62
     7
100
AcDbLine
 10
117.6660206002
 20
641.0258802702
 30
0.0
 11
117.6660206002
 21
640.895354078
 31
0.0
  0
LINE
  5
17B
330
75
100
AcDbEntity
  8
$DDT_AUDIT_GENERATED_(ED)
  6
Continuous
 62
     7
100
AcDbLine
 10
117.6660206002
 20
640.895354078
 30
0.0
 11
116.6660206002
 21
640.895354078
 31
0.0
  0
LINE
  5
17C
330
75
100
AcDbEntity
  8
$DDT_AUDIT_GENERATED_(ED)
  6
Continuous
 62
     7
100
AcDbLine
 10
116.6660206002
 20
640.895354078
 30
0.0
 11
116.6660206002
 21
641.0258802702
 31
0.0
  0
LINE
  5
17D
330
75
100
AcDbEntity
  8
$DDT_AUDIT_GENERATED_(ED)
  6
Continuous
 62
     7
100
AcDbLine
 10
117.8660206002
 20
641.0258802702
 30
0.0
 11
118.8660206002
 21
641.0258802702
 31
0.0
  0
LINE
  5
17E
330
75
100
AcDbEntity
  8
$DDT_AUDIT_GENERATED_(ED)
  6
Continuous
 62
     7
100
AcDbLine
 10
118.8660206002
 20
641.0258802702
 30
0.0
 11
118.8660206002
 21
640.895354078
 31
0.0
  0
LINE
  5
17F
330
75
100
AcDbEntity
  8
$DDT_AUDIT_GENERATED_(ED)
  6
Continuous
 62
     7
100
AcDbLine
 10
118.8660206002
 20
640.895354078
 30
0.0
 11
117.8660206002
 21
640.895354078
 31
0.0
  0
LINE
  5
180
330
75
100
AcDbEntity
  8
$DDT_AUDIT_GENERATED_(ED)
  6
Continuous
 62
     7
100
AcDbLine
 10
117.8660206002
 20
640.895354078
 30
0.0
 11
117.8660206002
 21
641.0258802702
 31
0.0
  0
LINE
  5
181
330
75
100
AcDbEntity
  8
$DDT_AUDIT_GENERATED_(ED)
  6
Continuous
 62
     7
100
AcDbLine
 10
119.0660206002
 20
641.0258802702
 30
0.0
 11
119.9994174833
 21
641.0258802702
 31
0.0
  0
LINE
  5
182
330
75
100
AcDbEntity
  8
$DDT_AUDIT_GENERATED_(ED)
  6
Continuous
 62
     7
100
AcDbLine
 10
120.0660206002
 20
641.0190174685
 30
0.0
 11
120.0660206002
 21
640.895354078
 31
0.0
  0
LINE
  5
183
330
75
100
AcDbEntity
  8
$DDT_AUDIT_GENERATED_(ED)
  6
Continuous
 62
     7
100
AcDbLine
 10
120.0660206002
 20
640.895354078
 30
0.0
 11
119.0660206002
 21
640.895354078
 31
0.0
  0
LINE
  5
184
330
75
100
AcDbEntity
  8
$DDT_AUDIT_GENERATED_(ED)
  6
Continuous
 62
     7
100
AcDbLine
 10
119.0660206002
 20
640.895354078
 30
0.0
 11
119.0660206002
 21
641.0258802702
 31
0.0
  0
LINE
  5
185
330
75
100
AcDbEntity
  8
$DDT_AUDIT_GENERATED_(ED)
  6
Continuous
 62
     7
100
AcDbLine
 10
121.073492126
 20
640.895354078
 30
0.0
 11
120.2660206002
 21
640.895354078
 31
0.0
  0
LINE
  5
186
330
75
100
AcDbEntity
  8
$DDT_AUDIT_GENERATED_(ED)
  6
Continuous
 62
     7
100
AcDbLine
 10
120.2660206002
 20
640.895354078
 30
0.0
 11
120.2660206002
 21
640.9975382882
 31
0.0
  0
LINE
  5
187
330
75
100
AcDbEntity
  8
$DDT_AUDIT_GENERATED_(ED)
  6
Continuous
 62
     7
100
AcDbLine
 10
115.2660206002
 20
641.1825117009
 30
0.0
 11
115.2660206002
 21
641.0519855087
 31
0.0
  0
LINE
  5
188
330
75
100
AcDbEntity
  8
$DDT_AUDIT_GENERATED_(ED)
  6
Continuous
 62
     7
100
AcDbLine
 10
115.4660206002
 20
641.1825117009
 30
0.0
 11
116.4660206002
 21
641.1825117009
 31
0.0
  0
LINE
  5
189
330
75
100
AcDbEntity
  8
$DDT_AUDIT_GENERATED_(ED)
  6
Continuous
 62
     7
100
AcDbLine
 10
116.4660206002
 20
641.1825117009
 30
0.0
 11
116.4660206002
 21
641.0519855087
 31
0.0
  0
LINE
  5
18A
330
75
100
AcDbEntity
  8
$DDT_AUDIT_GENERATED_(ED)
  6
Continuous
 62
     7
100
AcDbLine
 10
116.4660206002
 20
641.0519855087
 30
0.0
 11
115.4660206002
 21
641.0519855087
 31
0.0
  0
LINE
  5
18B
330
75
100
AcDbEntity
  8
$DDT_AUDIT_GENERATED_(ED)
  6
Continuous
 62
     7
100
AcDbLine
 10
115.4660206002
 20
641.0519855087
 30
0.0
 11
115.4660206002
 21
641.1825117009
 31
0.0
  0
LINE
  5
18C
330
75
100
AcDbEntity
  8
$DDT_AUDIT_GENERATED_(ED)
  6
Continuous
 62
     7
100
AcDbLine
 10
116.6660206002
 20
641.1825117009
 30
0.0
 11
117.6660206002
 21
641.1825117009
 31
0.0
  0
LINE
  5
18D
330
75
100
AcDbEntity
  8
$DDT_AUDIT_GENERATED_(ED)
  6
Continuous
 62
     7
100
AcDbLine
 10
117.6660206002
 20
641.1825117009
 30
0.0
 11
117.6660206002
 21
641.0519855087
 31
0.0
  0
LINE
  5
18E
330
75
100
AcDbEntity
  8
$DDT_AUDIT_GENERATED_(ED)
  6
Continuous
 62
     7
100
AcDbLine
 10
117.6660206002
 20
641.0519855087
 30
0.0
 11
116.6660206002
 21
641.0519855087
 31
0.0
  0
LINE
  5
18F
330
75
100
AcDbEntity
  8
$DDT_AUDIT_GENERATED_(ED)
  6
Continuous
 62
     7
100
AcDbLine
 10
116.6660206002
 20
641.0519855087
 30
0.0
 11
116.6660206002
 21
641.1825117009
 31
0.0
  0
LINE
  5
190
330
75
100
AcDbEntity
  8
$DDT_AUDIT_GENERATED_(ED)
  6
Continuous
 62
     7
100
AcDbLine
 10
117.8660206002
 20
641.1825117009
 30
0.0
 11
117.9082392433
 21
641.1825117009
 31
0.0
  0
LINE
  5
191
330
75
100
AcDbEntity
  8
$DDT_AUDIT_GENERATED_(ED)
  6
Continuous
 62
     7
100
AcDbLine
 10
118.8660206002
 20
641.1235043507
 30
0.0
 11
118.8660206002
 21
641.0519855087
 31
0.0
  0
LINE
  5
192
330
75
100
AcDbEntity
  8
$DDT_AUDIT_GENERATED_(ED)
  6
Continuous
 62
     7
100
AcDbLine
 10
118.8660206002
 20
641.0519855087
 30
0.0
 11
117.8660206002
 21
641.0519855087
 31
0.0
  0
LINE
  5
193
330
75
100
AcDbEntity
  8
$DDT_AUDIT_GENERATED_(ED)
  6
Continuous
 62
     7
100
AcDbLine
 10
117.8660206002
 20
641.0519855087
 30
0.0
 11
117.8660206002
 21
641.1825117009
 31
0.0
  0
LINE
  5
194
330
75
100
AcDbEntity
  8
$DDT_AUDIT_GENERATED_(ED)
  6
Continuous
 62
     7
100
AcDbLine
 10
119.7328397145
 20
641.0519855087
 30
0.0
 11
119.0660206002
 21
641.0519855087
 31
0.0
  0
LINE
  5
195
330
75
100
AcDbEntity
  8
$DDT_AUDIT_GENERATED_(ED)
  6
Continuous
 62
     7
100
AcDbLine
 10
119.0660206002
 20
641.0519855087
 30
0.0
 11
119.0660206002
 21
641.1086657317
 31
0.0
  0
LINE
  5
196
330
75
100
AcDbEntity
  8
$DDT_AUDIT_GENERATED_(ED)
  6
Continuous
 62
     7
100
AcDbLine
 10
115.2660206002
 20
641.2591833498
 30
0.0
 11
115.2660206002
 21
641.2086169394
 31
0.0
  0
LINE
  5
197
330
75
100
AcDbEntity
  8
$DDT_AUDIT_GENERATED_(ED)
  6
Continuous
 62
     7
100
AcDbLine
 10
116.4660206002
 20
641.2386886167
 30
0.0
 11
116.4660206002
 21
641.2086169394
 31
0.0
  0
LINE
  5
198
330
75
100
AcDbEntity
  8
$DDT_AUDIT_GENERATED_(ED)
  6
Continuous
 62
     7
100
AcDbLine
 10
116.4660206002
 20
641.2086169394
 30
0.0
 11
115.4660206002
 21
641.2086169394
 31
0.0
  0
LINE
  5
199
330
75
100
AcDbEntity
  8
$DDT_AUDIT_GENERATED_(ED)
  6
Continuous
 62
     7
100
AcDbLine
 10
115.4660206002
 20
641.2086169394
 30
0.0
 11
115.4660206002
 21
641.2573358899
 31
0.0
  0
LINE
  5
19A
330
75
100
AcDbEntity
  8
$DDT_AUDIT_GENERATED_(ED)
  6
Continuous
 62
     7
100
AcDbLine
 10
117.3495041357
 20
641.2086169394
 30
0.0
 11
116.6660206002
 21
641.2086169394
 31
0.0
  0
LINE
  5
19B
330
75
100
AcDbEntity
  8
$DDT_AUDIT_GENERATED_(ED)
  6
Continuous
 62
     7
100
AcDbLine
 10
116.6660206002
 20
641.2086169394
 30
0.0
 11
116.6660206002
 21
641.233031735
 31
0.0
  0
LINE
  5
19C
330
75
100
AcDbEntity
  8
$DDT_AUDIT_GENERATED_(ED)
  6
Continuous
 62
     7
100
AcDbLine
 10
115.2660206002
 20
640.7126174089
 30
0.0
 11
115.2660206002
 21
640.5820912167
 31
0.0
  0
LINE
  5
19D
330
75
100
AcDbEntity
  8
$DDT_AUDIT_GENERATED_(ED)
  6
Continuous
 62
     7
100
AcDbLine
 10
115.2660206002
 20
640.5559859783
 30
0.0
 11
115.2660206002
 21
640.425459786
 31
0.0
  0
LINE
  5
19E
330
75
100
AcDbEntity
  8
$DDT_AUDIT_GENERATED_(ED)
  6
Continuous
 62
     7
100
AcDbLine
 10
115.2660206002
 20
640.425459786
 30
0.0
 11
114.2660206002
 21
640.425459786
 31
0.0
  0
LINE
  5
19F
330
75
100
AcDbEntity
  8
$DDT_AUDIT_GENERATED_(ED)
  6
Continuous
 62
     7
100
AcDbLine
 10
114.2660206002
 20
640.5559859783
 30
0.0
 11
115.2660206002
 21
640.5559859783
 31
0.0
  0
LINE
  5
1A0
330
75
100
AcDbEntity
  8
$DDT_AUDIT_GENERATED_(ED)
  6
Continuous
 62
     7
100
AcDbLine
 10
115.2660206002
 20
640.3993545476
 30
0.0
 11
115.2660206002
 21
640.2688283554
 31
0.0
  0
LINE
  5
1A1
330
75
100
AcDbEntity
  8
$DDT_AUDIT_GENERATED_(ED)
  6
Continuous
 62
     7
100
AcDbLine
 10
115.2660206002
 20
640.2688283554
 30
0.0
 11
114.2660206002
 21
640.2688283554
 31
0.0
  0
LINE
  5
1A2
330
75
100
AcDbEntity
  8
$DDT_AUDIT_GENERATED_(ED)
  6
Continuous
 62
     7
100
AcDbLine
 10
114.2660206002
 20
640.3993545476
 30
0.0
 11
115.2660206002
 21
640.3993545476
 31
0.0
  0
LINE
  5
1A3
330
75
100
AcDbEntity
  8
$DDT_AUDIT_GENERATED_(ED)
  6
Continuous
 62
     7
100
AcDbLine
 10
115.2660206002
 20
640.2427231169
 30
0.0
 11
115.2660206002
 21
640.1121969247
 31
0.0
  0
LINE
  5
1A4
330
75
100
AcDbEntity
  8
$DDT_AUDIT_GENERATED_(ED)
  6
Continuous
 62
     7
100
AcDbLine
 10
115.2660206002
 20
640.1121969247
 30
0.0
 11
114.2660206002
 21
640.1121969247
 31
0.0
  0
LINE
  5
1A5
330
75
100
AcDbEntity
  8
$DDT_AUDIT_GENERATED_(ED)
  6
Continuous
 62
     7
100
AcDbLine
 10
114.2660206002
 20
640.2427231169
 30
0.0
 11
115.2660206002
 21
640.2427231169
 31
0.0
  0
LINE
  5
1A6
330
75
100
AcDbEntity
  8
$DDT_AUDIT_GENERATED_(ED)
  6
Continuous
 62
     7
100
AcDbLine
 10
115.2660206002
 20
640.0860916863
 30
0.0
 11
115.2660206002
 21
639.9555654941
 31
0.0
  0
LINE
  5
1A7
330
75
100
AcDbEntity
  8
$DDT_AUDIT_GENERATED_(ED)
  6
Continuous
 62
     7
100
AcDbLine
 10
115.2660206002
 20
639.9555654941
 30
0.0
 11
114.2660206002
 21
639.9555654941
 31
0.0
  0
LINE
  5
1A8
330
75
100
AcDbEntity
  8
$DDT_AUDIT_GENERATED_(ED)
  6
Continuous
 62
     7
100
AcDbLine
 10
114.2660206002
 20
640.0860916863
 30
0.0
 11
115.2660206002
 21
640.0860916863
 31
0.0
  0
LINE
  5
1A9
330
75
100
AcDbEntity
  8
$DDT_AUDIT_GENERATED_(ED)
  6
Continuous
 62
     7
100
AcDbLine
 10
115.2660206002
 20
639.9294602556
 30
0.0
 11
115.2660206002
 21
639.7989340634
 31
0.0
  0
LINE
  5
1AA
330
75
100
AcDbEntity
  8
$DDT_AUDIT_GENERATED_(ED)
  6
Continuous
 62
     7
100
AcDbLine
 10
115.2660206002
 20
639.7989340634
 30
0.0
 11
114.2660206002
 21
639.7989340634
 31
0.0
  0
LINE
  5
1AB
330
75
100
AcDbEntity
  8
$DDT_AUDIT_GENERATED_(ED)
  6
Continuous
 62
     7
100
AcDbLine
 10
114.2660206002
 20
639.9294602556
 30
0.0
 11
115.2660206002
 21
639.9294602556
 31
0.0
  0
LINE
  5
1AC
330
75
100
AcDbEntity
  8
$DDT_AUDIT_GENERATED_(ED)
  6
Continuous
 62
     7
100
AcDbLine
 10
115.2660206002
 20
639.772828825
 30
0.0
 11
115.2660206002
 21
639.6423026327
 31
0.0
  0
LINE
  5
1AD
330
75
100
AcDbEntity
  8
$DDT_AUDIT_GENERATED_(ED)
  6
Continuous
 62
     7
100
AcDbLine
 10
115.2660206002
 20
639.6423026327
 30
0.0
 11
114.2660206002
 21
639.6423026327
 31
0.0
  0
LINE
  5
1AE
330
75
100
AcDbEntity
  8
$DDT_AUDIT_GENERATED_(ED)
  6
Continuous
 62
     7
100
AcDbLine
 10
114.2660206002
 20
639.772828825
 30
0.0
 11
115.2660206002
 21
639.772828825
 31
0.0
  0
LINE
  5
1AF
330
75
100
AcDbEntity
  8
$DDT_AUDIT_GENERATED_(ED)
  6
Continuous
 62
     7
100
AcDbLine
 10
116.4660206002
 20
640.5820912167
 30
0.0
 11
115.4660206002
 21
640.5820912167
 31
0.0
  0
LINE
  5
1B0
330
75
100
AcDbEntity
  8
$DDT_AUDIT_GENERATED_(ED)
  6
Continuous
 62
     7
100
AcDbLine
 10
116.4660206002
 20
640.5559859783
 30
0.0
 11
116.4660206002
 21
640.425459786
 31
0.0
  0
LINE
  5
1B1
330
75
100
AcDbEntity
  8
$DDT_AUDIT_GENERATED_(ED)
  6
Continuous
 62
     7
100
AcDbLine
 10
116.4660206002
 20
640.425459786
 30
0.0
 11
115.4660206002
 21
640.425459786
 31
0.0
  0
LINE
  5
1B2
330
75
100
AcDbEntity
  8
$DDT_AUDIT_GENERATED_(ED)
  6
Continuous
 62
     7
100
AcDbLine
 10
115.4660206002
 20
640.425459786
 30
0.0
 11
115.4660206002
 21
640.5559859783
 31
0.0
  0
LINE
  5
1B3
330
75
100
AcDbEntity
  8
$DDT_AUDIT_GENERATED_(ED)
  6
Continuous
 62
     7
100
AcDbLine
 10
115.4660206002
 20
640.5559859783
 30
0.0
 11
116.4660206002
 21
640.5559859783
 31
0.0
  0
LINE
  5
1B4
330
75
100
AcDbEntity
  8
$DDT_AUDIT_GENERATED_(ED)
  6
Continuous
 62
     7
100
AcDbLine
 10
116.4660206002
 20
640.3993545476
 30
0.0
 11
116.4660206002
 21
640.2688283554
 31
0.0
  0
LINE
  5
1B5
330
75
100
AcDbEntity
  8
$DDT_AUDIT_GENERATED_(ED)
  6
Continuous
 62
     7
100
AcDbLine
 10
116.4660206002
 20
640.2688283554
 30
0.0
 11
115.4660206002
 21
640.2688283554
 31
0.0
  0
LINE
  5
1B6
330
75
100
AcDbEntity
  8
$DDT_AUDIT_GENERATED_(ED)
  6
Continuous
 62
     7
100
AcDbLine
 10
115.4660206002
 20
640.2688283554
 30
0.0
 11
115.4660206002
 21
640.3993545476
 31
0.0
  0
LINE
  5
1B7
330
75
100
AcDbEntity
  8
$DDT_AUDIT_GENERATED_(ED)
  6
Continuous
 62
     7
100
AcDbLine
 10
115.4660206002
 20
640.3993545476
 30
0.0
 11
116.4660206002
 21
640.3993545476
 31
0.0
  0
LINE
  5
1B8
330
75
100
AcDbEntity
  8
$DDT_AUDIT_GENERATED_(ED)
  6
Continuous
 62
     7
100
AcDbLine
 10
116.4660206002
 20
640.2427231169
 30
0.0
 11
116.4660206002
 21
640.1121969247
 31
0.0
  0
LINE
  5
1B9
330
75
100
AcDbEntity
  8
$DDT_AUDIT_GENERATED_(ED)
  6
Continuous
 62
     7
100
AcDbLine
 10
116.4660206002
 20
640.1121969247
 30
0.0
 11
115.4660206002
 21
640.1121969247
 31
0.0
  0
LINE
  5
1BA
330
75
100
AcDbEntity
  8
$DDT_AUDIT_GENERATED_(ED)
  6
Continuous
 62
     7
100
AcDbLine
 10
115.4660206002
 20
640.1121969247
 30
0.0
 11
115.4660206002
 21
640.2427231169
 31
0.0
  0
LINE
  5
1BB
330
75
100
AcDbEntity
  8
$DDT_AUDIT_GENERATED_(ED)
  6
Continuous
 62
     7
100
AcDbLine
 10
115.4660206002
 20
640.2427231169
 30
0.0
 11
116.4660206002
 21
640.2427231169
 31
0.0
  0
LINE
  5
1BC
330
75
100
AcDbEntity
  8
$DDT_AUDIT_GENERATED_(ED)
  6
Continuous
 62
     7
100
AcDbLine
 10
116.4660206002
 20
640.0860916863
 30
0.0
 11
116.4660206002
 21
639.9555654941
 31
0.0
  0
LINE
  5
1BD
330
75
100
AcDbEntity
  8
$DDT_AUDIT_GENERATED_(ED)
  6
Continuous
 62
     7
100
AcDbLine
 10
116.4660206002
 20
639.9555654941
 30
0.0
 11
115.4660206002
 21
639.9555654941
 31
0.0
  0
LINE
  5
1BE
330
75
100
AcDbEntity
  8
$DDT_AUDIT_GENERATED_(ED)
  6
Continuous
 62
     7
100
AcDbLine
 10
115.4660206002
 20
639.9555654941
 30
0.0
 11
115.4660206002
 21
640.0860916863
 31
0.0
  0
LINE
  5
1BF
330
75
100
AcDbEntity
  8
$DDT_AUDIT_GENERATED_(ED)
  6
Continuous
 62
     7
100
AcDbLine
 10
115.4660206002
 20
640.0860916863
 30
0.0
 11
116.4660206002
 21
640.0860916863
 31
0.0
  0
LINE
  5
1C0
330
75
100
AcDbEntity
  8
$DDT_AUDIT_GENERATED_(ED)
  6
Continuous
 62
     7
100
AcDbLine
 10
116.4660206002
 20
639.9294602556
 30
0.0
 11
116.4660206002
 21
639.7989340634
 31
0.0
  0
LINE
  5
1C1
330
75
100
AcDbEntity
  8
$DDT_AUDIT_GENERATED_(ED)
  6
Continuous
 62
     7
100
AcDbLine
 10
116.4660206002
 20
639.7989340634
 30
0.0
 11
115.4660206002
 21
639.7989340634
 31
0.0
  0
LINE
  5
1C2
330
75
100
AcDbEntity
  8
$DDT_AUDIT_GENERATED_(ED)
  6
Continuous
 62
     7
100
AcDbLine
 10
115.4660206002
 20
639.7989340634
 30
0.0
 11
115.4660206002
 21
639.9294602556
 31
0.0
  0
LINE
  5
1C3
330
75
100
AcDbEntity
  8
$DDT_AUDIT_GENERATED_(ED)
  6
Continuous
 62
     7
100
AcDbLine
 10
115.4660206002
 20
639.9294602556
 30
0.0
 11
116.4660206002
 21
639.9294602556
 31
0.0
  0
LINE
  5
1C4
330
75
100
AcDbEntity
  8
$DDT_AUDIT_GENERATED_(ED)
  6
Continuous
 62
     7
100
AcDbLine
 10
116.4660206002
 20
639.772828825
 30
0.0
 11
116.4660206002
 21
639.6423026327
 31
0.0
  0
LINE
  5
1C5
330
75
100
AcDbEntity
  8
$DDT_AUDIT_GENERATED_(ED)
  6
Continuous
 62
     7
100
AcDbLine
 10
116.4660206002
 20
639.6423026327
 30
0.0
 11
115.4660206002
 21
639.6423026327
 31
0.0
  0
LINE
  5
1C6
330
75
100
AcDbEntity
  8
$DDT_AUDIT_GENERATED_(ED)
  6
Continuous
 62
     7
100
AcDbLine
 10
115.4660206002
 20
639.6423026327
 30
0.0
 11
115.4660206002
 21
639.772828825
 31
0.0
  0
LINE
  5
1C7
330
75
100
AcDbEntity
  8
$DDT_AUDIT_GENERATED_(ED)
  6
Continuous
 62
     7
100
AcDbLine
 10
115.4660206002
 20
639.772828825
 30
0.0
 11
116.4660206002
 21
639.772828825
 31
0.0
  0
LINE
  5
1C8
330
75
100
AcDbEntity
  8
$DDT_AUDIT_GENERATED_(ED)
  6
Continuous
 62
     7
100
AcDbLine
 10
117.6660206002
 20
640.5820912167
 30
0.0
 11
116.6660206002
 21
640.5820912167
 31
0.0
  0
LINE
  5
1C9
330
75
100
AcDbEntity
  8
$DDT_AUDIT_GENERATED_(ED)
  6
Continuous
 62
     7
100
AcDbLine
 10
117.6660206002
 20
640.5559859783
 30
0.0
 11
117.6660206002
 21
640.425459786
 31
0.0
  0
LINE
  5
1CA
330
75
100
AcDbEntity
  8
$DDT_AUDIT_GENERATED_(ED)
  6
Continuous
 62
     7
100
AcDbLine
 10
117.6660206002
 20
640.425459786
 30
0.0
 11
116.6660206002
 21
640.425459786
 31
0.0
  0
LINE
  5
1CB
330
75
100
AcDbEntity
  8
$DDT_AUDIT_GENERATED_(ED)
  6
Continuous
 62
     7
100
AcDbLine
 10
116.6660206002
 20
640.425459786
 30
0.0
 11
116.6660206002
 21
640.5559859783
 31
0.0
  0
LINE
  5
1CC
330
75
100
AcDbEntity
  8
$DDT_AUDIT_GENERATED_(ED)
  6
Continuous
 62
     7
100
AcDbLine
 10
116.6660206002
 20
640.5559859783
 30
0.0
 11
117.6660206002
 21
640.5559859783
 31
0.0
  0
LINE
  5
1CD
330
75
100
AcDbEntity
  8
$DDT_AUDIT_GENERATED_(ED)
  6
Continuous
 62
     7
100
AcDbLine
 10
117.6660206002
 20
640.3993545476
 30
0.0
 11
117.6660206002
 21
640.2688283554
 31
0.0
  0
LINE
  5
1CE
330
75
100
AcDbEntity
  8
$DDT_AUDIT_GENERATED_(ED)
  6
Continuous
 62
     7
100
AcDbLine
 10
117.6660206002
 20
640.2688283554
 30
0.0
 11
116.6660206002
 21
640.2688283554
 31
0.0
  0
LINE
  5
1CF
330
75
100
AcDbEntity
  8
$DDT_AUDIT_GENERATED_(ED)
  6
Continuous
 62
     7
100
AcDbLine
 10
116.6660206002
 20
640.2688283554
 30
0.0
 11
116.6660206002
 21
640.3993545476
 31
0.0
  0
LINE
  5
1D0
330
75
100
AcDbEntity
  8
$DDT_AUDIT_GENERATED_(ED)
  6
Continuous
 62
     7
100
AcDbLine
 10
116.6660206002
 20
640.3993545476
 30
0.0
 11
117.6660206002
 21
640.3993545476
 31
0.0
  0
LINE
  5
1D1
330
75
100
AcDbEntity
  8
$DDT_AUDIT_GENERATED_(ED)
  6
Continuous
 62
     7
100
AcDbLine
 10
117.6660206002
 20
640.2427231169
 30
0.0
 11
117.6660206002
 21
640.1121969247
 31
0.0
  0
LINE
  5
1D2
330
75
100
AcDbEntity
  8
$DDT_AUDIT_GENERATED_(ED)
  6
Continuous
 62
     7
100
AcDbLine
 10
117.6660206002
 20
640.1121969247
 30
0.0
 11
116.6660206002
 21
640.1121969247
 31
0.0
  0
LINE
  5
1D3
330
75
100
AcDbEntity
  8
$DDT_AUDIT_GENERATED_(ED)
  6
Continuous
 62
     7
100
AcDbLine
 10
116.6660206002
 20
640.1121969247
 30
0.0
 11
116.6660206002
 21
640.2427231169
 31
0.0
  0
LINE
  5
1D4
330
75
100
AcDbEntity
  8
$DDT_AUDIT_GENERATED_(ED)
  6
Continuous
 62
     7
100
AcDbLine
 10
116.6660206002
 20
640.2427231169
 30
0.0
 11
117.6660206002
 21
640.2427231169
 31
0.0
  0
LINE
  5
1D5
330
75
100
AcDbEntity
  8
$DDT_AUDIT_GENERATED_(ED)
  6
Continuous
 62
     7
100
AcDbLine
 10
117.6660206002
 20
640.0860916863
 30
0.0
 11
117.6660206002
 21
639.9555654941
 31
0.0
  0
LINE
  5
1D6
330
75
100
AcDbEntity
  8
$DDT_AUDIT_GENERATED_(ED)
  6
Continuous
 62
     7
100
AcDbLine
 10
117.6660206002
 20
639.9555654941
 30
0.0
 11
116.6660206002
 21
639.9555654941
 31
0.0
  0
LINE
  5
1D7
330
75
100
AcDbEntity
  8
$DDT_AUDIT_GENERATED_(ED)
  6
Continuous
 62
     7
100
AcDbLine
 10
116.6660206002
 20
639.9555654941
 30
0.0
 11
116.6660206002
 21
640.0860916863
 31
0.0
  0
LINE
  5
1D8
330
75
100
AcDbEntity
  8
$DDT_AUDIT_GENERATED_(ED)
  6
Continuous
 62
     7
100
AcDbLine
 10
116.6660206002
 20
640.0860916863
 30
0.0
 11
117.6660206002
 21
640.0860916863
 31
0.0
  0
LINE
  5
1D9
330
75
100
AcDbEntity
  8
$DDT_AUDIT_GENERATED_(ED)
  6
Continuous
 62
     7
100
AcDbLine
 10
117.6660206002
 20
639.9294602556
 30
0.0
 11
117.6660206002
 21
639.7989340634
 31
0.0
  0
LINE
  5
1DA
330
75
100
AcDbEntity
  8
$DDT_AUDIT_GENERATED_(ED)
  6
Continuous
 62
     7
100
AcDbLine
 10
117.6660206002
 20
639.7989340634
 30
0.0
 11
116.6660206002
 21
639.7989340634
 31
0.0
  0
LINE
  5
1DB
330
75
100
AcDbEntity
  8
$DDT_AUDIT_GENERATED_(ED)
  6
Continuous
 62
     7
100
AcDbLine
 10
116.6660206002
 20
639.7989340634
 30
0.0
 11
116.6660206002
 21
639.9294602556
 31
0.0
  0
LINE
  5
1DC
330
75
100
AcDbEntity
  8
$DDT_AUDIT_GENERATED_(ED)
  6
Continuous
 62
     7
100
AcDbLine
 10
116.6660206002
 20
639.9294602556
 30
0.0
 11
117.6660206002
 21
639.9294602556
 31
0.0
  0
LINE
  5
1DD
330
75
100
AcDbEntity
  8
$DDT_AUDIT_GENERATED_(ED)
  6
Continuous
 62
     7
100
AcDbLine
 10
118.8660206002
 20
640.5820912167
 30
0.0
 11
117.8660206002
 21
640.5820912167
 31
0.0
  0
LINE
  5
1DE
330
75
100
AcDbEntity
  8
$DDT_AUDIT_GENERATED_(ED)
  6
Continuous
 62
     7
100
AcDbLine
 10
118.8660206002
 20
640.5559859783
 30
0.0
 11
118.8660206002
 21
640.425459786
 31
0.0
  0
LINE
  5
1DF
330
75
100
AcDbEntity
  8
$DDT_AUDIT_GENERATED_(ED)
  6
Continuous
 62
     7
100
AcDbLine
 10
118.8660206002
 20
640.425459786
 30
0.0
 11
117.8660206002
 21
640.425459786
 31
0.0
  0
LINE
  5
1E0
330
75
100
AcDbEntity
  8
$DDT_AUDIT_GENERATED_(ED)
  6
Continuous
 62
     7
100
AcDbLine
 10
117.8660206002
 20
640.425459786
 30
0.0
 11
117.8660206002
 21
640.5559859783
 31
0.0
  0
LINE
  5
1E1
330
75
100
AcDbEntity
  8
$DDT_AUDIT_GENERATED_(ED)
  6
Continuous
 62
     7
100
AcDbLine
 10
117.8660206002
 20
640.5559859783
 30
0.0
 11
118.8660206002
 21
640.5559859783
 31
0.0
  0
LINE
  5
1E2
330
75
100
AcDbEntity
  8
$DDT_AUDIT_GENERATED_(ED)
  6
Continuous
 62
     7
100
AcDbLine
 10
118.8660206002
 20
640.3993545476
 30
0.0
 11
118.8660206002
 21
640.2688283554
 31
0.0
  0
LINE
  5
1E3
330
75
100
AcDbEntity
  8
$DDT_AUDIT_GENERATED_(ED)
  6
Continuous
 62
     7
100
AcDbLine
 10
118.8660206002
 20
640.2688283554
 30
0.0
 11
117.8660206002
 21
640.2688283554
 31
0.0
  0
LINE
  5
1E4
330
75
100
AcDbEntity
  8
$DDT_AUDIT_GENERATED_(ED)
  6
Continuous
 62
     7
100
AcDbLine
 10
117.8660206002
 20
640.2688283554
 30
0.0
 11
117.8660206002
 21
640.3993545476
 31
0.0
  0
LINE
  5
1E5
330
75
100
AcDbEntity
  8
$DDT_AUDIT_GENERATED_(ED)
  6
Continuous
 62
     7
100
AcDbLine
 10
117.8660206002
 20
640.3993545476
 30
0.0
 11
118.8660206002
 21
640.3993545476
 31
0.0
  0
LINE
  5
1E6
330
75
100
AcDbEntity
  8
$DDT_AUDIT_GENERATED_(ED)
  6
Continuous
 62
     7
100
AcDbLine
 10
118.8660206002
 20
640.2427231169
 30
0.0
 11
118.8660206002
 21
640.1121969247
 31
0.0
  0
LINE
  5
1E7
330
75
100
AcDbEntity
  8
$DDT_AUDIT_GENERATED_(ED)
  6
Continuous
 62
     7
100
AcDbLine
 10
118.8660206002
 20
640.1121969247
 30
0.0
 11
117.8660206002
 21
640.1121969247
 31
0.0
  0
LINE
  5
1E8
330
75
100
AcDbEntity
  8
$DDT_AUDIT_GENERATED_(ED)
  6
Continuous
 62
     7
100
AcDbLine
 10
117.8660206002
 20
640.1121969247
 30
0.0
 11
117.8660206002
 21
640.2427231169
 31
0.0
  0
LINE
  5
1E9
330
75
100
AcDbEntity
  8
$DDT_AUDIT_GENERATED_(ED)
  6
Continuous
 62
     7
100
AcDbLine
 10
117.8660206002
 20
640.2427231169
 30
0.0
 11
118.8660206002
 21
640.2427231169
 31
0.0
  0
LINE
  5
1EA
330
75
100
AcDbEntity
  8
$DDT_AUDIT_GENERATED_(ED)
  6
Continuous
 62
     7
100
AcDbLine
 10
118.8660206002
 20
640.0860916863
 30
0.0
 11
118.8660206002
 21
639.9555654941
 31
0.0
  0
LINE
  5
1EB
330
75
100
AcDbEntity
  8
$DDT_AUDIT_GENERATED_(ED)
  6
Continuous
 62
     7
100
AcDbLine
 10
118.8660206002
 20
639.9555654941
 30
0.0
 11
117.8660206002
 21
639.9555654941
 31
0.0
  0
LINE
  5
1EC
330
75
100
AcDbEntity
  8
$DDT_AUDIT_GENERATED_(ED)
  6
Continuous
 62
     7
100
AcDbLine
 10
117.8660206002
 20
639.9555654941
 30
0.0
 11
117.8660206002
 21
640.0860916863
 31
0.0
  0
LINE
  5
1ED
330
75
100
AcDbEntity
  8
$DDT_AUDIT_GENERATED_(ED)
  6
Continuous
 62
     7
100
AcDbLine
 10
117.8660206002
 20
640.0860916863
 30
0.0
 11
118.8660206002
 21
640.0860916863
 31
0.0
  0
LINE
  5
1EE
330
75
100
AcDbEntity
  8
$DDT_AUDIT_GENERATED_(ED)
  6
Continuous
 62
     7
100
AcDbLine
 10
118.8660206002
 20
639.9294602556
 30
0.0
 11
118.8660206002
 21
639.7989340634
 31
0.0
  0
LINE
  5
1EF
330
75
100
AcDbEntity
  8
$DDT_AUDIT_GENERATED_(ED)
  6
Continuous
 62
     7
100
AcDbLine
 10
118.8660206002
 20
639.7989340634
 30
0.0
 11
117.8660206002
 21
639.7989340634
 31
0.0
  0
LINE
  5
1F0
330
75
100
AcDbEntity
  8
$DDT_AUDIT_GENERATED_(ED)
  6
Continuous
 62
     7
100
AcDbLine
 10
117.8660206002
 20
639.7989340634
 30
0.0
 11
117.8660206002
 21
639.9294602556
 31
0.0
  0
LINE
  5
1F1
330
75
100
AcDbEntity
  8
$DDT_AUDIT_GENERATED_(ED)
  6
Continuous
 62
     7
100
AcDbLine
 10
117.8660206002
 20
639.9294602556
 30
0.0
 11
118.8660206002
 21
639.9294602556
 31
0.0
  0
LINE
  5
1F2
330
75
100
AcDbEntity
  8
$DDT_AUDIT_GENERATED_(ED)
  6
Continuous
 62
     7
100
AcDbLine
 10
120.0660206002
 20
640.5820912167
 30
0.0
 11
119.0660206002
 21
640.5820912167
 31
0.0
  0
LINE
  5
1F3
330
75
100
AcDbEntity
  8
$DDT_AUDIT_GENERATED_(ED)
  6
Continuous
 62
     7
100
AcDbLine
 10
120.0660206002
 20
640.5559859783
 30
0.0
 11
120.0660206002
 21
640.425459786
 31
0.0
  0
LINE
  5
1F4
330
75
100
AcDbEntity
  8
$DDT_AUDIT_GENERATED_(ED)
  6
Continuous
 62
     7
100
AcDbLine
 10
120.0660206002
 20
640.425459786
 30
0.0
 11
119.0660206002
 21
640.425459786
 31
0.0
  0
LINE
  5
1F5
330
75
100
AcDbEntity
  8
$DDT_AUDIT_GENERATED_(ED)
  6
Continuous
 62
     7
100
AcDbLine
 10
119.0660206002
 20
640.425459786
 30
0.0
 11
119.0660206002
 21
640.5559859783
 31
0.0
  0
LINE
  5
1F6
330
75
100
AcDbEntity
  8
$DDT_AUDIT_GENERATED_(ED)
  6
Continuous
 62
     7
100
AcDbLine
 10
119.0660206002
 20
640.5559859783
 30
0.0
 11
120.0660206002
 21
640.5559859783
 31
0.0
  0
LINE
  5
1F7
330
75
100
AcDbEntity
  8
$DDT_AUDIT_GENERATED_(ED)
  6
Continuous
 62
     7
100
AcDbLine
 10
120.0660206002
 20
640.3993545476
 30
0.0
 11
120.0660206002
 21
640.2688283554
 31
0.0
  0
LINE
  5
1F8
330
75
100
AcDbEntity
  8
$DDT_AUDIT_GENERATED_(ED)
  6
Continuous
 62
     7
100
AcDbLine
 10
120.0660206002
 20
640.2688283554
 30
0.0
 11
119.0660206002
 21
640.2688283554
 31
0.0
  0
LINE
  5
1F9
330
75
100
AcDbEntity
  8
$DDT_AUDIT_GENERATED_(ED)
  6
Continuous
 62
     7
100
AcDbLine
 10
119.0660206002
 20
640.2688283554
 30
0.0
 11
119.0660206002
 21
640.3993545476
 31
0.0
  0
LINE
  5
1FA
330
75
100
AcDbEntity
  8
$DDT_AUDIT_GENERATED_(ED)
  6
Continuous
 62
     7
100
AcDbLine
 10
119.0660206002
 20
640.3993545476
 30
0.0
 11
120.0660206002
 21
640.3993545476
 31
0.0
  0
LINE
  5
1FB
330
75
100
AcDbEntity
  8
$DDT_AUDIT_GENERATED_(ED)
  6
Continuous
 62
     7
100
AcDbLine
 10
120.0660206002
 20
640.2427231169
 30
0.0
 11
120.0660206002
 21
640.1121969247
 31
0.0
  0
LINE
  5
1FC
330
75
100
AcDbEntity
  8
$DDT_AUDIT_GENERATED_(ED)
  6
Continuous
 62
     7
100
AcDbLine
 10
120.0660206002
 20
640.1121969247
 30
0.0
 11
119.0660206002
 21
640.1121969247
 31
0.0
  0
LINE
  5
1FD
330
75
100
AcDbEntity
  8
$DDT_AUDIT_GENERATED_(ED)
  6
Continuous
 62
     7
100
AcDbLine
 10
119.0660206002
 20
640.1121969247
 30
0.0
 11
119.0660206002
 21
640.2427231169
 31
0.0
  0
LINE
  5
1FE
330
75
100
AcDbEntity
  8
$DDT_AUDIT_GENERATED_(ED)
  6
Continuous
 62
     7
100
AcDbLine
 10
119.0660206002
 20
640.2427231169
 30
0.0
 11
120.0660206002
 21
640.2427231169
 31
0.0
  0
LINE
  5
1FF
330
75
100
AcDbEntity
  8
$DDT_AUDIT_GENERATED_(ED)
  6
Continuous
 62
     7
100
AcDbLine
 10
120.0660206002
 20
640.0860916863
 30
0.0
 11
120.0660206002
 21
639.9555654941
 31
0.0
  0
LINE
  5
200
330
75
100
AcDbEntity
  8
$DDT_AUDIT_GENERATED_(ED)
  6
Continuous
 62
     7
100
AcDbLine
 10
120.0660206002
 20
639.9555654941
 30
0.0
 11
119.0660206002
 21
639.9555654941
 31
0.0
  0
LINE
  5
201
330
75
100
AcDbEntity
  8
$DDT_AUDIT_GENERATED_(ED)
  6
Continuous
 62
     7
100
AcDbLine
 10
119.0660206002
 20
639.9555654941
 30
0.0
 11
119.0660206002
 21
640.0860916863
 31
0.0
  0
LINE
  5
202
330
75
100
AcDbEntity
  8
$DDT_AUDIT_GENERATED_(ED)
  6
Continuous
 62
     7
100
AcDbLine
 10
119.0660206002
 20
640.0860916863
 30
0.0
 11
120.0660206002
 21
640.0860916863
 31
0.0
  0
LINE
  5
203
330
75
100
AcDbEntity
  8
$DDT_AUDIT_GENERATED_(ED)
  6
Continuous
 62
     7
100
AcDbLine
 10
121.2660206002
 20
640.5820912167
 30
0.0
 11
120.2660206002
 21
640.5820912167
 31
0.0
  0
LINE
  5
204
330
75
100
AcDbEntity
  8
$DDT_AUDIT_GENERATED_(ED)
  6
Continuous
 62
     7
100
AcDbLine
 10
121.2660206002
 20
640.5559859783
 30
0.0
 11
121.2660206002
 21
640.425459786
 31
0.0
  0
LINE
  5
205
330
75
100
AcDbEntity
  8
$DDT_AUDIT_GENERATED_(ED)
  6
Continuous
 62
     7
100
AcDbLine
 10
121.2660206002
 20
640.425459786
 30
0.0
 11
120.2660206002
 21
640.425459786
 31
0.0
  0
LINE
  5
206
330
75
100
AcDbEntity
  8
$DDT_AUDIT_GENERATED_(ED)
  6
Continuous
 62
     7
100
AcDbLine
 10
120.2660206002
 20
640.425459786
 30
0.0
 11
120.2660206002
 21
640.5559859783
 31
0.0
  0
LINE
  5
207
330
75
100
AcDbEntity
  8
$DDT_AUDIT_GENERATED_(ED)
  6
Continuous
 62
     7
100
AcDbLine
 10
120.2660206002
 20
640.5559859783
 30
0.0
 11
121.2660206002
 21
640.5559859783
 31
0.0
  0
LINE
  5
208
330
75
100
AcDbEntity
  8
$DDT_AUDIT_GENERATED_(ED)
  6
Continuous
 62
     7
100
AcDbLine
 10
121.2660206002
 20
640.3993545476
 30
0.0
 11
121.2660206002
 21
640.2688283554
 31
0.0
  0
LINE
  5
209
330
75
100
AcDbEntity
  8
$DDT_AUDIT_GENERATED_(ED)
  6
Continuous
 62
     7
100
AcDbLine
 10
121.2660206002
 20
640.2688283554
 30
0.0
 11
120.2660206002
 21
640.2688283554
 31
0.0
  0
LINE
  5
20A
330
75
100
AcDbEntity
  8
$DDT_AUDIT_GENERATED_(ED)
  6
Continuous
 62
     7
100
AcDbLine
 10
120.2660206002
 20
640.2688283554
 30
0.0
 11
120.2660206002
 21
640.3993545476
 31
0.0
  0
LINE
  5
20B
330
75
100
AcDbEntity
  8
$DDT_AUDIT_GENERATED_(ED)
  6
Continuous
 62
     7
100
AcDbLine
 10
120.2660206002
 20
640.3993545476
 30
0.0
 11
121.2660206002
 21
640.3993545476
 31
0.0
  0
LINE
  5
20C
330
75
100
AcDbEntity
  8
$DDT_AUDIT_GENERATED_(ED)
  6
Continuous
 62
     7
100
AcDbLine
 10
121.2660206002
 20
640.2427231169
 30
0.0
 11
121.2660206002
 21
640.1121969247
 31
0.0
  0
LINE
  5
20D
330
75
100
AcDbEntity
  8
$DDT_AUDIT_GENERATED_(ED)
  6
Continuous
 62
     7
100
AcDbLine
 10
121.2660206002
 20
640.1121969247
 30
0.0
 11
120.2660206002
 21
640.1121969247
 31
0.0
  0
LINE
  5
20E
330
75
100
AcDbEntity
  8
$DDT_AUDIT_GENERATED_(ED)
  6
Continuous
 62
     7
100
AcDbLine
 10
120.2660206002
 20
640.1121969247
 30
0.0
 11
120.2660206002
 21
640.2427231169
 31
0.0
  0
LINE
  5
20F
330
75
100
AcDbEntity
  8
$DDT_AUDIT_GENERATED_(ED)
  6
Continuous
 62
     7
100
AcDbLine
 10
120.2660206002
 20
640.2427231169
 30
0.0
 11
121.2660206002
 21
640.2427231169
 31
0.0
  0
LINE
  5
210
330
75
100
AcDbEntity
  8
$DDT_AUDIT_GENERATED_(ED)
  6
Continuous
 62
     7
100
AcDbLine
 10
122.4660206002
 20
640.5820912167
 30
0.0
 11
121.4660206002
 21
640.5820912167
 31
0.0
  0
LINE
  5
211
330
75
100
AcDbEntity
  8
$DDT_AUDIT_GENERATED_(ED)
  6
Continuous
 62
     7
100
AcDbLine
 10
122.4660206002
 20
640.5559859783
 30
0.0
 11
122.4660206002
 21
640.425459786
 31
0.0
  0
LINE
  5
212
330
75
100
AcDbEntity
  8
$DDT_AUDIT_GENERATED_(ED)
  6
Continuous
 62
     7
100
AcDbLine
 10
122.4660206002
 20
640.425459786
 30
0.0
 11
121.4660206002
 21
640.425459786
 31
0.0
  0
LINE
  5
213
330
75
100
AcDbEntity
  8
$DDT_AUDIT_GENERATED_(ED)
  6
Continuous
 62
     7
100
AcDbLine
 10
121.4660206002
 20
640.425459786
 30
0.0
 11
121.4660206002
 21
640.5559859783
 31
0.0
  0
LINE
  5
214
330
75
100
AcDbEntity
  8
$DDT_AUDIT_GENERATED_(ED)
  6
Continuous
 62
     7
100
AcDbLine
 10
121.4660206002
 20
640.5559859783
 30
0.0
 11
122.4660206002
 21
640.5559859783
 31
0.0
  0
LINE
  5
215
330
75
100
AcDbEntity
  8
$DDT_AUDIT_GENERATED_(ED)
  6
Continuous
 62
     7
100
AcDbLine
 10
122.4660206002
 20
640.3993545476
 30
0.0
 11
122.4660206002
 21
640.2688283554
 31
0.0
  0
LINE
  5
216
330
75
100
AcDbEntity
  8
$DDT_AUDIT_GENERATED_(ED)
  6
Continuous
 62
     7
100
AcDbLine
 10
122.4660206002
 20
640.2688283554
 30
0.0
 11
121.4660206002
 21
640.2688283554
 31
0.0
  0
LINE
  5
217
330
75
100
AcDbEntity
  8
$DDT_AUDIT_GENERATED_(ED)
  6
Continuous
 62
     7
100
AcDbLine
 10
121.4660206002
 20
640.2688283554
 30
0.0
 11
121.4660206002
 21
640.3993545476
 31
0.0
  0
LINE
  5
218
330
75
100
AcDbEntity
  8
$DDT_AUDIT_GENERATED_(ED)
  6
Continuous
 62
     7
100
AcDbLine
 10
121.4660206002
 20
640.3993545476
 30
0.0
 11
122.4660206002
 21
640.3993545476
 31
0.0
  0
ELLIPSE
  5
219
330
75
100
AcDbEntity
  8
$DDT_AUDIT_GENERATED_(ED)
  6
Continuous
 62
     7
100
AcDbEllipse
 10
114.7660206004
 20
640.6473543128
 30
0.0
 11
8.249999999789173
 21
3.816391647148976E-12
 31
0.0
210
0.0
220
0.0
230
1.0
 40
0.1305261922
 41
-0.2075474504858583
 42
-0.1640860757490676
  0
LINE
  5
21A
330
75
100
AcDbEntity
  8
$DDT_AUDIT_GENERATED_(ED)
  6
Continuous
 62
     7
100
AcDbLine
 10
122.838969256
 20
640.425459786
 30
0.0
 11
122.838969256
 21
640.4988781668
 31
0.0
  0
LINE
  5
21B
330
75
100
AcDbEntity
  8
$DDT_AUDIT_GENERATED_(ED)
  6
Continuous
 62
     7
100
AcDbLine
 10
122.838969256
 20
640.425459786
 30
0.0
 11
122.6660206002
 21
640.425459786
 31
0.0
  0
LINE
  5
21C
330
75
100
AcDbEntity
  8
$DDT_AUDIT_GENERATED_(ED)
  6
Continuous
 62
     7
100
AcDbLine
 10
122.6660206002
 20
640.425459786
 30
0.0
 11
122.6660206002
 21
640.5559859783
 31
0.0
  0
LINE
  5
21D
330
75
100
AcDbEntity
  8
$DDT_AUDIT_GENERATED_(ED)
  6
Continuous
 62
     7
100
AcDbLine
 10
122.6660206002
 20
640.5559859783
 30
0.0
 11
122.6813953698
 21
640.5559859783
 31
0.0
  0
ELLIPSE
  5
21E
330
75
100
AcDbEntity
  8
$DDT_AUDIT_GENERATED_(ED)
  6
Continuous
 62
     7
100
AcDbEllipse
 10
114.7660206019
 20
640.6473543128
 30
0.0
 11
8.249999998297833
 21
5.211109321834329E-11
 31
0.0
210
0.0
220
0.0
230
1.0
 40
0.1305261922
 41
-0.2923273931842552
 42
-0.2323890725057192
  0
LINE
  5
21F
330
75
100
AcDbEntity
  8
$DDT_AUDIT_GENERATED_(ED)
  6
Continuous
 62
     7
100
AcDbLine
 10
122.6660206002
 20
640.3370284624
 30
0.0
 11
122.6660206002
 21
640.3993545476
 31
0.0
  0
LINE
  5
220
330
75
100
AcDbEntity
  8
$DDT_AUDIT_GENERATED_(ED)
  6
Continuous
 62
     7
100
AcDbLine
 10
122.6660206002
 20
640.3993545476
 30
0.0
 11
122.7942520368
 21
640.3993545476
 31
0.0
  0
ELLIPSE
  5
221
330
75
100
AcDbEntity
  8
$DDT_AUDIT_GENERATED_(ED)
  6
Continuous
 62
     7
100
AcDbEllipse
 10
114.7660205998
 20
640.6473543128
 30
0.0
 11
8.250000000352845
 21
-1.897093593328236E-11
 31
0.0
210
0.0
220
0.0
230
1.0
 40
0.1305261922
 41
-0.5201032032531465
 42
-0.385214121654152
  0
LINE
  5
222
330
75
100
AcDbEntity
  8
$DDT_AUDIT_GENERATED_(ED)
  6
Continuous
 62
     7
100
AcDbLine
 10
121.9251057373
 20
640.1121969247
 30
0.0
 11
121.9251057373
 21
640.2427231169
 31
0.0
  0
LINE
  5
223
330
75
100
AcDbEntity
  8
$DDT_AUDIT_GENERATED_(ED)
  6
Continuous
 62
     7
100
AcDbLine
 10
121.9251057373
 20
640.1121969247
 30
0.0
 11
121.4660206002
 21
640.1121969247
 31
0.0
  0
LINE
  5
224
330
75
100
AcDbEntity
  8
$DDT_AUDIT_GENERATED_(ED)
  6
Continuous
 62
     7
100
AcDbLine
 10
121.4660206002
 20
640.1121969247
 30
0.0
 11
121.4660206002
 21
640.2427231169
 31
0.0
  0
LINE
  5
225
330
75
100
AcDbEntity
  8
$DDT_AUDIT_GENERATED_(ED)
  6
Continuous
 62
     7
100
AcDbLine
 10
121.4660206002
 20
640.2427231169
 30
0.0
 11
122.4114440679
 21
640.2427231169
 31
0.0
  0
ELLIPSE
  5
226
330
75
100
AcDbEntity
  8
$DDT_AUDIT_GENERATED_(ED)
  6
Continuous
 62
     7
100
AcDbEllipse
 10
114.766020634
 20
640.6473543093
 30
0.0
 11
8.249999965092716
 21
2.804506626929992E-9
 31
0.0
210
0.0
220
0.0
230
1.0
 40
0.1305261923
 41
-0.6976574542500238
 42
-0.6634394355288356
  0
LINE
  5
227
330
75
100
AcDbEntity
  8
$DDT_AUDIT_GENERATED_(ED)
  6
Continuous
 62
     7
100
AcDbLine
 10
121.0884014808
 20
639.9555654941
 30
0.0
 11
121.0884014808
 21
640.0860916863
 31
0.0
  0
LINE
  5
228
330
75
100
AcDbEntity
  8
$DDT_AUDIT_GENERATED_(ED)
  6
Continuous
 62
     7
100
AcDbLine
 10
121.0884014808
 20
639.9555654941
 30
0.0
 11
120.2660206002
 21
639.9555654941
 31
0.0
  0
LINE
  5
229
330
75
100
AcDbEntity
  8
$DDT_AUDIT_GENERATED_(ED)
  6
Continuous
 62
     7
100
AcDbLine
 10
120.2660206002
 20
639.9555654941
 30
0.0
 11
120.2660206002
 21
640.0860916863
 31
0.0
  0
LINE
  5
22A
330
75
100
AcDbEntity
  8
$DDT_AUDIT_GENERATED_(ED)
  6
Continuous
 62
     7
100
AcDbLine
 10
120.2660206002
 20
640.0860916863
 30
0.0
 11
121.2660206002
 21
640.0860916863
 31
0.0
  0
LINE
  5
22B
330
75
100
AcDbEntity
  8
$DDT_AUDIT_GENERATED_(ED)
  6
Continuous
 62
     7
100
AcDbLine
 10
121.2660206002
 20
640.0860916863
 30
0.0
 11
121.2660206002
 21
639.9842028939
 31
0.0
  0
ELLIPSE
  5
22C
330
75
100
AcDbEntity
  8
$DDT_AUDIT_GENERATED_(ED)
  6
Continuous
 62
     7
100
AcDbEllipse
 10
114.7660206027
 20
640.6473543126
 30
0.0
 11
8.249999997437284
 21
1.889322032155860E-10
 31
0.0
210
0.0
220
0.0
230
1.0
 40
0.1305261922
 41
-0.623017959917517
 42
-0.548270634163929
  0
LINE
  5
22D
330
75
100
AcDbEntity
  8
$DDT_AUDIT_GENERATED_(ED)
  6
Continuous
 62
     7
100
AcDbLine
 10
121.4660206002
 20
640.0190296395
 30
0.0
 11
121.4660206002
 21
640.0860916863
 31
0.0
  0
LINE
  5
22E
330
75
100
AcDbEntity
  8
$DDT_AUDIT_GENERATED_(ED)
  6
Continuous
 62
     7
100
AcDbLine
 10
121.4660206002
 20
640.0860916863
 30
0.0
 11
121.8067947054
 21
640.0860916863
 31
0.0
  0
ELLIPSE
  5
22F
330
75
100
AcDbEntity
  8
$DDT_AUDIT_GENERATED_(ED)
  6
Continuous
 62
     7
100
AcDbEllipse
 10
114.766020605
 20
640.6473543121
 30
0.0
 11
8.249999994722923
 21
4.943823128655822E-10
 31
0.0
210
0.0
220
0.0
230
1.0
 40
0.1305261922
 41
-0.9073568928009941
 42
-0.8731388741544199
  0
LINE
  5
230
330
75
100
AcDbEntity
  8
$DDT_AUDIT_GENERATED_(ED)
  6
Continuous
 62
     7
100
AcDbLine
 10
119.8466209584
 20
639.7989340634
 30
0.0
 11
119.8466209584
 21
639.9294602556
 31
0.0
  0
LINE
  5
231
330
75
100
AcDbEntity
  8
$DDT_AUDIT_GENERATED_(ED)
  6
Continuous
 62
     7
100
AcDbLine
 10
119.8466209584
 20
639.7989340634
 30
0.0
 11
119.0660206002
 21
639.7989340634
 31
0.0
  0
LINE
  5
232
330
75
100
AcDbEntity
  8
$DDT_AUDIT_GENERATED_(ED)
  6
Continuous
 62
     7
100
AcDbLine
 10
119.0660206002
 20
639.7989340634
 30
0.0
 11
119.0660206002
 21
639.9294602556
 31
0.0
  0
LINE
  5
233
330
75
100
AcDbEntity
  8
$DDT_AUDIT_GENERATED_(ED)
  6
Continuous
 62
     7
100
AcDbLine
 10
119.0660206002
 20
639.9294602556
 30
0.0
 11
120.0660206002
 21
639.9294602556
 31
0.0
  0
LINE
  5
234
330
75
100
AcDbEntity
  8
$DDT_AUDIT_GENERATED_(ED)
  6
Continuous
 62
     7
100
AcDbLine
 10
120.0660206002
 20
639.9294602556
 30
0.0
 11
120.0660206002
 21
639.8221180107
 31
0.0
  0
ELLIPSE
  5
235
330
75
100
AcDbEntity
  8
$DDT_AUDIT_GENERATED_(ED)
  6
Continuous
 62
     7
100
AcDbEllipse
 10
114.7660206002
 20
640.6473543128
 30
0.0
 11
8.250000000017289
 21
-4.024558464266192E-13
 31
0.0
210
0.0
220
0.0
230
1.0
 40
0.1305261922
 41
-0.8410686705671635
 42
-0.7297276562263866
  0
LINE
  5
236
330
75
100
AcDbEntity
  8
$DDT_AUDIT_GENERATED_(ED)
  6
Continuous
 62
     7
100
AcDbLine
 10
120.2660206002
 20
639.8447243566
 30
0.0
 11
120.2660206002
 21
639.9294602556
 31
0.0
  0
LINE
  5
237
330
75
100
AcDbEntity
  8
$DDT_AUDIT_GENERATED_(ED)
  6
Continuous
 62
     7
100
AcDbLine
 10
120.2660206002
 20
639.9294602556
 30
0.0
 11
120.9152075383
 21
639.9294602556
 31
0.0
  0
LINE
  5
238
330
75
100
AcDbEntity
  8
$DDT_AUDIT_GENERATED_(ED)
  6
Continuous
 62
     7
100
AcDbLine
 10
117.6660206002
 20
639.772828825
 30
0.0
 11
117.6660206002
 21
639.6423026327
 31
0.0
  0
LINE
  5
239
330
75
100
AcDbEntity
  8
$DDT_AUDIT_GENERATED_(ED)
  6
Continuous
 62
     7
100
AcDbLine
 10
117.6660206002
 20
639.6423026327
 30
0.0
 11
116.6660206002
 21
639.6423026327
 31
0.0
  0
LINE
  5
23A
330
75
100
AcDbEntity
  8
$DDT_AUDIT_GENERATED_(ED)
  6
Continuous
 62
     7
100
AcDbLine
 10
116.6660206002
 20
639.6423026327
 30
0.0
 11
116.6660206002
 21
639.772828825
 31
0.0
  0
LINE
  5
23B
330
75
100
AcDbEntity
  8
$DDT_AUDIT_GENERATED_(ED)
  6
Continuous
 62
     7
100
AcDbLine
 10
116.6660206002
 20
639.772828825
 30
0.0
 11
117.6660206002
 21
639.772828825
 31
0.0
  0
ELLIPSE
  5
23C
330
75
100
AcDbEntity
  8
$DDT_AUDIT_GENERATED_(ED)
  6
Continuous
 62
     7
100
AcDbEllipse
 10
114.7660206001
 20
640.6473543128
 30
0.0
 11
8.250000000138476
 21
-1.229571999772361E-11
 31
0.0
210
0.0
220
0.0
230
1.0
 40
0.1305261922
 41
-1.185582205126015
 42
-1.050693123525765
  0
LINE
  5
23D
330
75
100
AcDbEntity
  8
$DDT_AUDIT_GENERATED_(ED)
  6
Continuous
 62
     7
100
AcDbLine
 10
117.8660206002
 20
639.6494262997
 30
0.0
 11
117.8660206002
 21
639.772828825
 31
0.0
  0
LINE
  5
23E
330
75
100
AcDbEntity
  8
$DDT_AUDIT_GENERATED_(ED)
  6
Continuous
 62
     7
100
AcDbLine
 10
117.8660206002
 20
639.772828825
 30
0.0
 11
118.8660206002
 21
639.772828825
 31
0.0
  0
LINE
  5
23F
330
75
100
AcDbEntity
  8
$DDT_AUDIT_GENERATED_(ED)
  6
Continuous
 62
     7
100
AcDbLine
 10
118.8660206002
 20
639.772828825
 30
0.0
 11
118.8660206002
 21
639.7129061901
 31
0.0
  0
ELLIPSE
  5
240
330
75
100
AcDbEntity
  8
$DDT_AUDIT_GENERATED_(ED)
  6
Continuous
 62
     7
100
AcDbEllipse
 10
114.7660206006
 20
640.6473543127
 30
0.0
 11
8.249999999468001
 21
4.640732242933154E-11
 31
0.0
210
0.0
220
0.0
230
1.0
 40
0.1305261922
 41
-1.022525692736113
 42
-0.9477783669925062
  0
LINE
  5
241
330
75
100
AcDbEntity
  8
$DDT_AUDIT_GENERATED_(ED)
  6
Continuous
 62
     7
100
AcDbLine
 10
119.0660206002
 20
639.7283488786
 30
0.0
 11
119.0660206002
 21
639.772828825
 31
0.0
  0
LINE
  5
242
330
75
100
AcDbEntity
  8
$DDT_AUDIT_GENERATED_(ED)
  6
Continuous
 62
     7
100
AcDbLine
 10
119.0660206002
 20
639.772828825
 30
0.0
 11
119.5798028969
 21
639.772828825
 31
0.0
  0
ARC
  5
243
330
75
100
AcDbEntity
  8
$DDT_AUDIT_GENERATED_(ED)
  6
Continuous
 62
     7
100
AcDbCircle
 10
114.7660206002
 20
702.6620106599
 30
0.0
 40
63.09149922450452
100
AcDbArc
 50
269.5459263135
 51
270.4540736865
  0
LINE
  5
244
330
75
100
AcDbEntity
  8
$DDT_AUDIT_GENERATED_(ED)
  6
Continuous
 62
     7
100
AcDbLine
 10
114.2660206002
 20
639.6161973943
 30
0.0
 11
115.2660206002
 21
639.6161973943
 31
0.0
  0
LINE
  5
245
330
75
100
AcDbEntity
  8
$DDT_AUDIT_GENERATED_(ED)
  6
Continuous
 62
     7
100
AcDbLine
 10
115.2660206002
 20
639.6161973943
 30
0.0
 11
115.2660206002
 21
639.572492716
 31
0.0
  0
ELLIPSE
  5
246
330
75
100
AcDbEntity
  8
$DDT_AUDIT_GENERATED_(ED)
  6
Continuous
 62
     7
100
AcDbEllipse
 10
114.7660206002
 20
640.6473543128
 30
0.0
 11
8.249999999794392
 21
8.062994716340199E-12
 31
0.0
210
0.0
220
0.0
230
1.0
 40
0.1305261922
 41
-1.485845702914608
 42
-1.363248876314211
  0
LINE
  5
247
330
75
100
AcDbEntity
  8
$DDT_AUDIT_GENERATED_(ED)
  6
Continuous
 62
     7
100
AcDbLine
 10
115.4660206002
 20
639.5743964611
 30
0.0
 11
115.4660206002
 21
639.6161973943
 31
0.0
  0
LINE
  5
248
330
75
100
AcDbEntity
  8
$DDT_AUDIT_GENERATED_(ED)
  6
Continuous
 62
     7
100
AcDbLine
 10
115.4660206002
 20
639.6161973943
 30
0.0
 11
116.4660206002
 21
639.6161973943
 31
0.0
  0
LINE
  5
249
330
75
100
AcDbEntity
  8
$DDT_AUDIT_GENERATED_(ED)
  6
Continuous
 62
     7
100
AcDbLine
 10
116.4660206002
 20
639.6161973943
 30
0.0
 11
116.4660206002
 21
639.5936230648
 31
0.0
  0
ELLIPSE
  5
24A
330
75
100
AcDbEntity
  8
$DDT_AUDIT_GENERATED_(ED)
  6
Continuous
 62
     7
100
AcDbEllipse
 10
114.7660205989
 20
640.6473543134
 30
0.0
 11
8.250000002630472
 21
-1.665334536937735E-10
 31
0.0
210
0.0
220
0.0
230
1.0
 40
0.1305261923
 41
-1.33840725422625
 42
-1.278468933572004
  0
LINE
  5
24B
330
75
100
AcDbEntity
  8
$DDT_AUDIT_GENERATED_(ED)
  6
Continuous
 62
     7
100
AcDbLine
 10
116.6660206002
 20
639.5994598332
 30
0.0
 11
116.6660206002
 21
639.6161973943
 31
0.0
  0
LINE
  5
24C
330
75
100
AcDbEntity
  8
$DDT_AUDIT_GENERATED_(ED)
  6
Continuous
 62
     7
100
AcDbLine
 10
116.6660206002
 20
639.6161973943
 30
0.0
 11
117.1435192858
 21
639.6161973943
 31
0.0
  0
LINE
  5
24D
330
75
100
AcDbEntity
  8
$DDT_AUDIT_GENERATED_(ED)
  6
Continuous
 62
     7
100
AcDbLine
 10
115.2660206002
 20
640.5820912167
 30
0.0
 11
114.2660206002
 21
640.5820912167
 31
0.0
  0
LINE
  5
24E
330
75
100
AcDbEntity
  8
$DDT_AUDIT_GENERATED_(ED)
  6
Continuous
 62
     7
100
AcDbLine
 10
114.0660206002
 20
640.5820912167
 30
0.0
 11
113.0660206002
 21
640.5820912167
 31
0.0
  0
LINE
  5
24F
330
75
100
AcDbEntity
  8
$DDT_AUDIT_GENERATED_(ED)
  6
Continuous
 62
     7
100
AcDbLine
 10
112.8660206002
 20
640.5820912167
 30
0.0
 11
111.8660206002
 21
640.5820912167
 31
0.0
  0
LINE
  5
250
330
75
100
AcDbEntity
  8
$DDT_AUDIT_GENERATED_(ED)
  6
Continuous
 62
     7
100
AcDbLine
 10
111.6660206002
 20
640.5820912167
 30
0.0
 11
110.6660206002
 21
640.5820912167
 31
0.0
  0
LINE
  5
251
330
75
100
AcDbEntity
  8
$DDT_AUDIT_GENERATED_(ED)
  6
Continuous
 62
     7
100
AcDbLine
 10
110.4660206002
 20
640.5820912167
 30
0.0
 11
109.4660206002
 21
640.5820912167
 31
0.0
  0
LINE
  5
252
330
75
100
AcDbEntity
  8
$DDT_AUDIT_GENERATED_(ED)
  6
Continuous
 62
     7
100
AcDbLine
 10
109.2660206002
 20
640.5820912167
 30
0.0
 11
108.2660206002
 21
640.5820912167
 31
0.0
  0
LINE
  5
253
330
75
100
AcDbEntity
  8
$DDT_AUDIT_GENERATED_(ED)
  6
Continuous
 62
     7
100
AcDbLine
 10
108.0660206002
 20
640.5820912167
 30
0.0
 11
107.0660206002
 21
640.5820912167
 31
0.0
  0
LINE
  5
254
330
75
100
AcDbEntity
  8
$DDT_AUDIT_GENERATED_(ED)
  6
Continuous
 62
     7
100
AcDbLine
 10
114.2660206002
 20
640.425459786
 30
0.0
 11
114.2660206002
 21
640.5559859783
 31
0.0
  0
LINE
  5
255
330
75
100
AcDbEntity
  8
$DDT_AUDIT_GENERATED_(ED)
  6
Continuous
 62
     7
100
AcDbLine
 10
114.0660206002
 20
640.425459786
 30
0.0
 11
113.0660206002
 21
640.425459786
 31
0.0
  0
LINE
  5
256
330
75
100
AcDbEntity
  8
$DDT_AUDIT_GENERATED_(ED)
  6
Continuous
 62
     7
100
AcDbLine
 10
113.0660206002
 20
640.425459786
 30
0.0
 11
113.0660206002
 21
640.5559859783
 31
0.0
  0
LINE
  5
257
330
75
100
AcDbEntity
  8
$DDT_AUDIT_GENERATED_(ED)
  6
Continuous
 62
     7
100
AcDbLine
 10
113.0660206002
 20
640.5559859783
 30
0.0
 11
114.0660206002
 21
640.5559859783
 31
0.0
  0
LINE
  5
258
330
75
100
AcDbEntity
  8
$DDT_AUDIT_GENERATED_(ED)
  6
Continuous
 62
     7
100
AcDbLine
 10
114.0660206002
 20
640.5559859783
 30
0.0
 11
114.0660206002
 21
640.425459786
 31
0.0
  0
LINE
  5
259
330
75
100
AcDbEntity
  8
$DDT_AUDIT_GENERATED_(ED)
  6
Continuous
 62
     7
100
AcDbLine
 10
112.8660206002
 20
640.425459786
 30
0.0
 11
111.8660206002
 21
640.425459786
 31
0.0
  0
LINE
  5
25A
330
75
100
AcDbEntity
  8
$DDT_AUDIT_GENERATED_(ED)
  6
Continuous
 62
     7
100
AcDbLine
 10
111.8660206002
 20
640.425459786
 30
0.0
 11
111.8660206002
 21
640.5559859783
 31
0.0
  0
LINE
  5
25B
330
75
100
AcDbEntity
  8
$DDT_AUDIT_GENERATED_(ED)
  6
Continuous
 62
     7
100
AcDbLine
 10
111.8660206002
 20
640.5559859783
 30
0.0
 11
112.8660206002
 21
640.5559859783
 31
0.0
  0
LINE
  5
25C
330
75
100
AcDbEntity
  8
$DDT_AUDIT_GENERATED_(ED)
  6
Continuous
 62
     7
100
AcDbLine
 10
112.8660206002
 20
640.5559859783
 30
0.0
 11
112.8660206002
 21
640.425459786
 31
0.0
  0
LINE
  5
25D
330
75
100
AcDbEntity
  8
$DDT_AUDIT_GENERATED_(ED)
  6
Continuous
 62
     7
100
AcDbLine
 10
111.6660206002
 20
640.425459786
 30
0.0
 11
110.6660206002
 21
640.425459786
 31
0.0
  0
LINE
  5
25E
330
75
100
AcDbEntity
  8
$DDT_AUDIT_GENERATED_(ED)
  6
Continuous
 62
     7
100
AcDbLine
 10
110.6660206002
 20
640.425459786
 30
0.0
 11
110.6660206002
 21
640.5559859783
 31
0.0
  0
LINE
  5
25F
330
75
100
AcDbEntity
  8
$DDT_AUDIT_GENERATED_(ED)
  6
Continuous
 62
     7
100
AcDbLine
 10
110.6660206002
 20
640.5559859783
 30
0.0
 11
111.6660206002
 21
640.5559859783
 31
0.0
  0
LINE
  5
260
330
75
100
AcDbEntity
  8
$DDT_AUDIT_GENERATED_(ED)
  6
Continuous
 62
     7
100
AcDbLine
 10
111.6660206002
 20
640.5559859783
 30
0.0
 11
111.6660206002
 21
640.425459786
 31
0.0
  0
LINE
  5
261
330
75
100
AcDbEntity
  8
$DDT_AUDIT_GENERATED_(ED)
  6
Continuous
 62
     7
100
AcDbLine
 10
110.4660206002
 20
640.425459786
 30
0.0
 11
109.4660206002
 21
640.425459786
 31
0.0
  0
LINE
  5
262
330
75
100
AcDbEntity
  8
$DDT_AUDIT_GENERATED_(ED)
  6
Continuous
 62
     7
100
AcDbLine
 10
109.4660206002
 20
640.425459786
 30
0.0
 11
109.4660206002
 21
640.5559859783
 31
0.0
  0
LINE
  5
263
330
75
100
AcDbEntity
  8
$DDT_AUDIT_GENERATED_(ED)
  6
Continuous
 62
     7
100
AcDbLine
 10
109.4660206002
 20
640.5559859783
 30
0.0
 11
110.4660206002
 21
640.5559859783
 31
0.0
  0
LINE
  5
264
330
75
100
AcDbEntity
  8
$DDT_AUDIT_GENERATED_(ED)
  6
Continuous
 62
     7
100
AcDbLine
 10
110.4660206002
 20
640.5559859783
 30
0.0
 11
110.4660206002
 21
640.425459786
 31
0.0
  0
LINE
  5
265
330
75
100
AcDbEntity
  8
$DDT_AUDIT_GENERATED_(ED)
  6
Continuous
 62
     7
100
AcDbLine
 10
109.2660206002
 20
640.425459786
 30
0.0
 11
108.2660206002
 21
640.425459786
 31
0.0
  0
LINE
  5
266
330
75
100
AcDbEntity
  8
$DDT_AUDIT_GENERATED_(ED)
  6
Continuous
 62
     7
100
AcDbLine
 10
108.2660206002
 20
640.425459786
 30
0.0
 11
108.2660206002
 21
640.5559859783
 31
0.0
  0
LINE
  5
267
330
75
100
AcDbEntity
  8
$DDT_AUDIT_GENERATED_(ED)
  6
Continuous
 62
     7
100
AcDbLine
 10
108.2660206002
 20
640.5559859783
 30
0.0
 11
109.2660206002
 21
640.5559859783
 31
0.0
  0
LINE
  5
268
330
75
100
AcDbEntity
  8
$DDT_AUDIT_GENERATED_(ED)
  6
Continuous
 62
     7
100
AcDbLine
 10
109.2660206002
 20
640.5559859783
 30
0.0
 11
109.2660206002
 21
640.425459786
 31
0.0
  0
LINE
  5
269
330
75
100
AcDbEntity
  8
$DDT_AUDIT_GENERATED_(ED)
  6
Continuous
 62
     7
100
AcDbLine
 10
108.0660206002
 20
640.425459786
 30
0.0
 11
107.0660206002
 21
640.425459786
 31
0.0
  0
LINE
  5
26A
330
75
100
AcDbEntity
  8
$DDT_AUDIT_GENERATED_(ED)
  6
Continuous
 62
     7
100
AcDbLine
 10
107.0660206002
 20
640.425459786
 30
0.0
 11
107.0660206002
 21
640.5559859783
 31
0.0
  0
LINE
  5
26B
330
75
100
AcDbEntity
  8
$DDT_AUDIT_GENERATED_(ED)
  6
Continuous
 62
     7
100
AcDbLine
 10
107.0660206002
 20
640.5559859783
 30
0.0
 11
108.0660206002
 21
640.5559859783
 31
0.0
  0
LINE
  5
26C
330
75
100
AcDbEntity
  8
$DDT_AUDIT_GENERATED_(ED)
  6
Continuous
 62
     7
100
AcDbLine
 10
108.0660206002
 20
640.5559859783
 30
0.0
 11
108.0660206002
 21
640.425459786
 31
0.0
  0
LINE
  5
26D
330
75
100
AcDbEntity
  8
$DDT_AUDIT_GENERATED_(ED)
  6
Continuous
 62
     7
100
AcDbLine
 10
114.2660206002
 20
640.2688283554
 30
0.0
 11
114.2660206002
 21
640.3993545476
 31
0.0
  0
LINE
  5
26E
330
75
100
AcDbEntity
  8
$DDT_AUDIT_GENERATED_(ED)
  6
Continuous
 62
     7
100
AcDbLine
 10
114.0660206002
 20
640.2688283554
 30
0.0
 11
113.0660206002
 21
640.2688283554
 31
0.0
  0
LINE
  5
26F
330
75
100
AcDbEntity
  8
$DDT_AUDIT_GENERATED_(ED)
  6
Continuous
 62
     7
100
AcDbLine
 10
113.0660206002
 20
640.2688283554
 30
0.0
 11
113.0660206002
 21
640.3993545476
 31
0.0
  0
LINE
  5
270
330
75
100
AcDbEntity
  8
$DDT_AUDIT_GENERATED_(ED)
  6
Continuous
 62
     7
100
AcDbLine
 10
113.0660206002
 20
640.3993545476
 30
0.0
 11
114.0660206002
 21
640.3993545476
 31
0.0
  0
LINE
  5
271
330
75
100
AcDbEntity
  8
$DDT_AUDIT_GENERATED_(ED)
  6
Continuous
 62
     7
100
AcDbLine
 10
114.0660206002
 20
640.3993545476
 30
0.0
 11
114.0660206002
 21
640.2688283554
 31
0.0
  0
LINE
  5
272
330
75
100
AcDbEntity
  8
$DDT_AUDIT_GENERATED_(ED)
  6
Continuous
 62
     7
100
AcDbLine
 10
112.8660206002
 20
640.2688283554
 30
0.0
 11
111.8660206002
 21
640.2688283554
 31
0.0
  0
LINE
  5
273
330
75
100
AcDbEntity
  8
$DDT_AUDIT_GENERATED_(ED)
  6
Continuous
 62
     7
100
AcDbLine
 10
111.8660206002
 20
640.2688283554
 30
0.0
 11
111.8660206002
 21
640.3993545476
 31
0.0
  0
LINE
  5
274
330
75
100
AcDbEntity
  8
$DDT_AUDIT_GENERATED_(ED)
  6
Continuous
 62
     7
100
AcDbLine
 10
111.8660206002
 20
640.3993545476
 30
0.0
 11
112.8660206002
 21
640.3993545476
 31
0.0
  0
LINE
  5
275
330
75
100
AcDbEntity
  8
$DDT_AUDIT_GENERATED_(ED)
  6
Continuous
 62
     7
100
AcDbLine
 10
112.8660206002
 20
640.3993545476
 30
0.0
 11
112.8660206002
 21
640.2688283554
 31
0.0
  0
LINE
  5
276
330
75
100
AcDbEntity
  8
$DDT_AUDIT_GENERATED_(ED)
  6
Continuous
 62
     7
100
AcDbLine
 10
111.6660206002
 20
640.2688283554
 30
0.0
 11
110.6660206002
 21
640.2688283554
 31
0.0
  0
LINE
  5
277
330
75
100
AcDbEntity
  8
$DDT_AUDIT_GENERATED_(ED)
  6
Continuous
 62
     7
100
AcDbLine
 10
110.6660206002
 20
640.2688283554
 30
0.0
 11
110.6660206002
 21
640.3993545476
 31
0.0
  0
LINE
  5
278
330
75
100
AcDbEntity
  8
$DDT_AUDIT_GENERATED_(ED)
  6
Continuous
 62
     7
100
AcDbLine
 10
110.6660206002
 20
640.3993545476
 30
0.0
 11
111.6660206002
 21
640.3993545476
 31
0.0
  0
LINE
  5
279
330
75
100
AcDbEntity
  8
$DDT_AUDIT_GENERATED_(ED)
  6
Continuous
 62
     7
100
AcDbLine
 10
111.6660206002
 20
640.3993545476
 30
0.0
 11
111.6660206002
 21
640.2688283554
 31
0.0
  0
LINE
  5
27A
330
75
100
AcDbEntity
  8
$DDT_AUDIT_GENERATED_(ED)
  6
Continuous
 62
     7
100
AcDbLine
 10
110.4660206002
 20
640.2688283554
 30
0.0
 11
109.4660206002
 21
640.2688283554
 31
0.0
  0
LINE
  5
27B
330
75
100
AcDbEntity
  8
$DDT_AUDIT_GENERATED_(ED)
  6
Continuous
 62
     7
100
AcDbLine
 10
109.4660206002
 20
640.2688283554
 30
0.0
 11
109.4660206002
 21
640.3993545476
 31
0.0
  0
LINE
  5
27C
330
75
100
AcDbEntity
  8
$DDT_AUDIT_GENERATED_(ED)
  6
Continuous
 62
     7
100
AcDbLine
 10
109.4660206002
 20
640.3993545476
 30
0.0
 11
110.4660206002
 21
640.3993545476
 31
0.0
  0
LINE
  5
27D
330
75
100
AcDbEntity
  8
$DDT_AUDIT_GENERATED_(ED)
  6
Continuous
 62
     7
100
AcDbLine
 10
110.4660206002
 20
640.3993545476
 30
0.0
 11
110.4660206002
 21
640.2688283554
 31
0.0
  0
LINE
  5
27E
330
75
100
AcDbEntity
  8
$DDT_AUDIT_GENERATED_(ED)
  6
Continuous
 62
     7
100
AcDbLine
 10
109.2660206002
 20
640.2688283554
 30
0.0
 11
108.2660206002
 21
640.2688283554
 31
0.0
  0
LINE
  5
27F
330
75
100
AcDbEntity
  8
$DDT_AUDIT_GENERATED_(ED)
  6
Continuous
 62
     7
100
AcDbLine
 10
108.2660206002
 20
640.2688283554
 30
0.0
 11
108.2660206002
 21
640.3993545476
 31
0.0
  0
LINE
  5
280
330
75
100
AcDbEntity
  8
$DDT_AUDIT_GENERATED_(ED)
  6
Continuous
 62
     7
100
AcDbLine
 10
108.2660206002
 20
640.3993545476
 30
0.0
 11
109.2660206002
 21
640.3993545476
 31
0.0
  0
LINE
  5
281
330
75
100
AcDbEntity
  8
$DDT_AUDIT_GENERATED_(ED)
  6
Continuous
 62
     7
100
AcDbLine
 10
109.2660206002
 20
640.3993545476
 30
0.0
 11
109.2660206002
 21
640.2688283554
 31
0.0
  0
LINE
  5
282
330
75
100
AcDbEntity
  8
$DDT_AUDIT_GENERATED_(ED)
  6
Continuous
 62
     7
100
AcDbLine
 10
114.2660206002
 20
640.1121969247
 30
0.0
 11
114.2660206002
 21
640.2427231169
 31
0.0
  0
LINE
  5
283
330
75
100
AcDbEntity
  8
$DDT_AUDIT_GENERATED_(ED)
  6
Continuous
 62
     7
100
AcDbLine
 10
114.0660206002
 20
640.1121969247
 30
0.0
 11
113.0660206002
 21
640.1121969247
 31
0.0
  0
LINE
  5
284
330
75
100
AcDbEntity
  8
$DDT_AUDIT_GENERATED_(ED)
  6
Continuous
 62
     7
100
AcDbLine
 10
113.0660206002
 20
640.1121969247
 30
0.0
 11
113.0660206002
 21
640.2427231169
 31
0.0
  0
LINE
  5
285
330
75
100
AcDbEntity
  8
$DDT_AUDIT_GENERATED_(ED)
  6
Continuous
 62
     7
100
AcDbLine
 10
113.0660206002
 20
640.2427231169
 30
0.0
 11
114.0660206002
 21
640.2427231169
 31
0.0
  0
LINE
  5
286
330
75
100
AcDbEntity
  8
$DDT_AUDIT_GENERATED_(ED)
  6
Continuous
 62
     7
100
AcDbLine
 10
114.0660206002
 20
640.2427231169
 30
0.0
 11
114.0660206002
 21
640.1121969247
 31
0.0
  0
LINE
  5
287
330
75
100
AcDbEntity
  8
$DDT_AUDIT_GENERATED_(ED)
  6
Continuous
 62
     7
100
AcDbLine
 10
112.8660206002
 20
640.1121969247
 30
0.0
 11
111.8660206002
 21
640.1121969247
 31
0.0
  0
LINE
  5
288
330
75
100
AcDbEntity
  8
$DDT_AUDIT_GENERATED_(ED)
  6
Continuous
 62
     7
100
AcDbLine
 10
111.8660206002
 20
640.1121969247
 30
0.0
 11
111.8660206002
 21
640.2427231169
 31
0.0
  0
LINE
  5
289
330
75
100
AcDbEntity
  8
$DDT_AUDIT_GENERATED_(ED)
  6
Continuous
 62
     7
100
AcDbLine
 10
111.8660206002
 20
640.2427231169
 30
0.0
 11
112.8660206002
 21
640.2427231169
 31
0.0
  0
LINE
  5
28A
330
75
100
AcDbEntity
  8
$DDT_AUDIT_GENERATED_(ED)
  6
Continuous
 62
     7
100
AcDbLine
 10
112.8660206002
 20
640.2427231169
 30
0.0
 11
112.8660206002
 21
640.1121969247
 31
0.0
  0
LINE
  5
28B
330
75
100
AcDbEntity
  8
$DDT_AUDIT_GENERATED_(ED)
  6
Continuous
 62
     7
100
AcDbLine
 10
111.6660206002
 20
640.1121969247
 30
0.0
 11
110.6660206002
 21
640.1121969247
 31
0.0
  0
LINE
  5
28C
330
75
100
AcDbEntity
  8
$DDT_AUDIT_GENERATED_(ED)
  6
Continuous
 62
     7
100
AcDbLine
 10
110.6660206002
 20
640.1121969247
 30
0.0
 11
110.6660206002
 21
640.2427231169
 31
0.0
  0
LINE
  5
28D
330
75
100
AcDbEntity
  8
$DDT_AUDIT_GENERATED_(ED)
  6
Continuous
 62
     7
100
AcDbLine
 10
110.6660206002
 20
640.2427231169
 30
0.0
 11
111.6660206002
 21
640.2427231169
 31
0.0
  0
LINE
  5
28E
330
75
100
AcDbEntity
  8
$DDT_AUDIT_GENERATED_(ED)
  6
Continuous
 62
     7
100
AcDbLine
 10
111.6660206002
 20
640.2427231169
 30
0.0
 11
111.6660206002
 21
640.1121969247
 31
0.0
  0
LINE
  5
28F
330
75
100
AcDbEntity
  8
$DDT_AUDIT_GENERATED_(ED)
  6
Continuous
 62
     7
100
AcDbLine
 10
110.4660206002
 20
640.1121969247
 30
0.0
 11
109.4660206002
 21
640.1121969247
 31
0.0
  0
LINE
  5
290
330
75
100
AcDbEntity
  8
$DDT_AUDIT_GENERATED_(ED)
  6
Continuous
 62
     7
100
AcDbLine
 10
109.4660206002
 20
640.1121969247
 30
0.0
 11
109.4660206002
 21
640.2427231169
 31
0.0
  0
LINE
  5
291
330
75
100
AcDbEntity
  8
$DDT_AUDIT_GENERATED_(ED)
  6
Continuous
 62
     7
100
AcDbLine
 10
109.4660206002
 20
640.2427231169
 30
0.0
 11
110.4660206002
 21
640.2427231169
 31
0.0
  0
LINE
  5
292
330
75
100
AcDbEntity
  8
$DDT_AUDIT_GENERATED_(ED)
  6
Continuous
 62
     7
100
AcDbLine
 10
110.4660206002
 20
640.2427231169
 30
0.0
 11
110.4660206002
 21
640.1121969247
 31
0.0
  0
LINE
  5
293
330
75
100
AcDbEntity
  8
$DDT_AUDIT_GENERATED_(ED)
  6
Continuous
 62
     7
100
AcDbLine
 10
109.2660206002
 20
640.1121969247
 30
0.0
 11
108.2660206002
 21
640.1121969247
 31
0.0
  0
LINE
  5
294
330
75
100
AcDbEntity
  8
$DDT_AUDIT_GENERATED_(ED)
  6
Continuous
 62
     7
100
AcDbLine
 10
108.2660206002
 20
640.1121969247
 30
0.0
 11
108.2660206002
 21
640.2427231169
 31
0.0
  0
LINE
  5
295
330
75
100
AcDbEntity
  8
$DDT_AUDIT_GENERATED_(ED)
  6
Continuous
 62
     7
100
AcDbLine
 10
108.2660206002
 20
640.2427231169
 30
0.0
 11
109.2660206002
 21
640.2427231169
 31
0.0
  0
LINE
  5
296
330
75
100
AcDbEntity
  8
$DDT_AUDIT_GENERATED_(ED)
  6
Continuous
 62
     7
100
AcDbLine
 10
109.2660206002
 20
640.2427231169
 30
0.0
 11
109.2660206002
 21
640.1121969247
 31
0.0
  0
LINE
  5
297
330
75
100
AcDbEntity
  8
$DDT_AUDIT_GENERATED_(ED)
  6
Continuous
 62
     7
100
AcDbLine
 10
114.2660206002
 20
639.9555654941
 30
0.0
 11
114.2660206002
 21
640.0860916863
 31
0.0
  0
LINE
  5
298
330
75
100
AcDbEntity
  8
$DDT_AUDIT_GENERATED_(ED)
  6
Continuous
 62
     7
100
AcDbLine
 10
114.0660206002
 20
639.9555654941
 30
0.0
 11
113.0660206002
 21
639.9555654941
 31
0.0
  0
LINE
  5
299
330
75
100
AcDbEntity
  8
$DDT_AUDIT_GENERATED_(ED)
  6
Continuous
 62
     7
100
AcDbLine
 10
113.0660206002
 20
639.9555654941
 30
0.0
 11
113.0660206002
 21
640.0860916863
 31
0.0
  0
LINE
  5
29A
330
75
100
AcDbEntity
  8
$DDT_AUDIT_GENERATED_(ED)
  6
Continuous
 62
     7
100
AcDbLine
 10
113.0660206002
 20
640.0860916863
 30
0.0
 11
114.0660206002
 21
640.0860916863
 31
0.0
  0
LINE
  5
29B
330
75
100
AcDbEntity
  8
$DDT_AUDIT_GENERATED_(ED)
  6
Continuous
 62
     7
100
AcDbLine
 10
114.0660206002
 20
640.0860916863
 30
0.0
 11
114.0660206002
 21
639.9555654941
 31
0.0
  0
LINE
  5
29C
330
75
100
AcDbEntity
  8
$DDT_AUDIT_GENERATED_(ED)
  6
Continuous
 62
     7
100
AcDbLine
 10
112.8660206002
 20
639.9555654941
 30
0.0
 11
111.8660206002
 21
639.9555654941
 31
0.0
  0
LINE
  5
29D
330
75
100
AcDbEntity
  8
$DDT_AUDIT_GENERATED_(ED)
  6
Continuous
 62
     7
100
AcDbLine
 10
111.8660206002
 20
639.9555654941
 30
0.0
 11
111.8660206002
 21
640.0860916863
 31
0.0
  0
LINE
  5
29E
330
75
100
AcDbEntity
  8
$DDT_AUDIT_GENERATED_(ED)
  6
Continuous
 62
     7
100
AcDbLine
 10
111.8660206002
 20
640.0860916863
 30
0.0
 11
112.8660206002
 21
640.0860916863
 31
0.0
  0
LINE
  5
29F
330
75
100
AcDbEntity
  8
$DDT_AUDIT_GENERATED_(ED)
  6
Continuous
 62
     7
100
AcDbLine
 10
112.8660206002
 20
640.0860916863
 30
0.0
 11
112.8660206002
 21
639.9555654941
 31
0.0
  0
LINE
  5
2A0
330
75
100
AcDbEntity
  8
$DDT_AUDIT_GENERATED_(ED)
  6
Continuous
 62
     7
100
AcDbLine
 10
111.6660206002
 20
639.9555654941
 30
0.0
 11
110.6660206002
 21
639.9555654941
 31
0.0
  0
LINE
  5
2A1
330
75
100
AcDbEntity
  8
$DDT_AUDIT_GENERATED_(ED)
  6
Continuous
 62
     7
100
AcDbLine
 10
110.6660206002
 20
639.9555654941
 30
0.0
 11
110.6660206002
 21
640.0860916863
 31
0.0
  0
LINE
  5
2A2
330
75
100
AcDbEntity
  8
$DDT_AUDIT_GENERATED_(ED)
  6
Continuous
 62
     7
100
AcDbLine
 10
110.6660206002
 20
640.0860916863
 30
0.0
 11
111.6660206002
 21
640.0860916863
 31
0.0
  0
LINE
  5
2A3
330
75
100
AcDbEntity
  8
$DDT_AUDIT_GENERATED_(ED)
  6
Continuous
 62
     7
100
AcDbLine
 10
111.6660206002
 20
640.0860916863
 30
0.0
 11
111.6660206002
 21
639.9555654941
 31
0.0
  0
LINE
  5
2A4
330
75
100
AcDbEntity
  8
$DDT_AUDIT_GENERATED_(ED)
  6
Continuous
 62
     7
100
AcDbLine
 10
110.4660206002
 20
639.9555654941
 30
0.0
 11
109.4660206002
 21
639.9555654941
 31
0.0
  0
LINE
  5
2A5
330
75
100
AcDbEntity
  8
$DDT_AUDIT_GENERATED_(ED)
  6
Continuous
 62
     7
100
AcDbLine
 10
109.4660206002
 20
639.9555654941
 30
0.0
 11
109.4660206002
 21
640.0860916863
 31
0.0
  0
LINE
  5
2A6
330
75
100
AcDbEntity
  8
$DDT_AUDIT_GENERATED_(ED)
  6
Continuous
 62
     7
100
AcDbLine
 10
109.4660206002
 20
640.0860916863
 30
0.0
 11
110.4660206002
 21
640.0860916863
 31
0.0
  0
LINE
  5
2A7
330
75
100
AcDbEntity
  8
$DDT_AUDIT_GENERATED_(ED)
  6
Continuous
 62
     7
100
AcDbLine
 10
110.4660206002
 20
640.0860916863
 30
0.0
 11
110.4660206002
 21
639.9555654941
 31
0.0
  0
LINE
  5
2A8
330
75
100
AcDbEntity
  8
$DDT_AUDIT_GENERATED_(ED)
  6
Continuous
 62
     7
100
AcDbLine
 10
114.2660206002
 20
639.7989340634
 30
0.0
 11
114.2660206002
 21
639.9294602556
 31
0.0
  0
LINE
  5
2A9
330
75
100
AcDbEntity
  8
$DDT_AUDIT_GENERATED_(ED)
  6
Continuous
 62
     7
100
AcDbLine
 10
114.0660206002
 20
639.7989340634
 30
0.0
 11
113.0660206002
 21
639.7989340634
 31
0.0
  0
LINE
  5
2AA
330
75
100
AcDbEntity
  8
$DDT_AUDIT_GENERATED_(ED)
  6
Continuous
 62
     7
100
AcDbLine
 10
113.0660206002
 20
639.7989340634
 30
0.0
 11
113.0660206002
 21
639.9294602556
 31
0.0
  0
LINE
  5
2AB
330
75
100
AcDbEntity
  8
$DDT_AUDIT_GENERATED_(ED)
  6
Continuous
 62
     7
100
AcDbLine
 10
113.0660206002
 20
639.9294602556
 30
0.0
 11
114.0660206002
 21
639.9294602556
 31
0.0
  0
LINE
  5
2AC
330
75
100
AcDbEntity
  8
$DDT_AUDIT_GENERATED_(ED)
  6
Continuous
 62
     7
100
AcDbLine
 10
114.0660206002
 20
639.9294602556
 30
0.0
 11
114.0660206002
 21
639.7989340634
 31
0.0
  0
LINE
  5
2AD
330
75
100
AcDbEntity
  8
$DDT_AUDIT_GENERATED_(ED)
  6
Continuous
 62
     7
100
AcDbLine
 10
112.8660206002
 20
639.7989340634
 30
0.0
 11
111.8660206002
 21
639.7989340634
 31
0.0
  0
LINE
  5
2AE
330
75
100
AcDbEntity
  8
$DDT_AUDIT_GENERATED_(ED)
  6
Continuous
 62
     7
100
AcDbLine
 10
111.8660206002
 20
639.7989340634
 30
0.0
 11
111.8660206002
 21
639.9294602556
 31
0.0
  0
LINE
  5
2AF
330
75
100
AcDbEntity
  8
$DDT_AUDIT_GENERATED_(ED)
  6
Continuous
 62
     7
100
AcDbLine
 10
111.8660206002
 20
639.9294602556
 30
0.0
 11
112.8660206002
 21
639.9294602556
 31
0.0
  0
LINE
  5
2B0
330
75
100
AcDbEntity
  8
$DDT_AUDIT_GENERATED_(ED)
  6
Continuous
 62
     7
100
AcDbLine
 10
112.8660206002
 20
639.9294602556
 30
0.0
 11
112.8660206002
 21
639.7989340634
 31
0.0
  0
LINE
  5
2B1
330
75
100
AcDbEntity
  8
$DDT_AUDIT_GENERATED_(ED)
  6
Continuous
 62
     7
100
AcDbLine
 10
111.6660206002
 20
639.7989340634
 30
0.0
 11
110.6660206002
 21
639.7989340634
 31
0.0
  0
LINE
  5
2B2
330
75
100
AcDbEntity
  8
$DDT_AUDIT_GENERATED_(ED)
  6
Continuous
 62
     7
100
AcDbLine
 10
110.6660206002
 20
639.7989340634
 30
0.0
 11
110.6660206002
 21
639.9294602556
 31
0.0
  0
LINE
  5
2B3
330
75
100
AcDbEntity
  8
$DDT_AUDIT_GENERATED_(ED)
  6
Continuous
 62
     7
100
AcDbLine
 10
110.6660206002
 20
639.9294602556
 30
0.0
 11
111.6660206002
 21
639.9294602556
 31
0.0
  0
LINE
  5
2B4
330
75
100
AcDbEntity
  8
$DDT_AUDIT_GENERATED_(ED)
  6
Continuous
 62
     7
100
AcDbLine
 10
111.6660206002
 20
639.9294602556
 30
0.0
 11
111.6660206002
 21
639.7989340634
 31
0.0
  0
LINE
  5
2B5
330
75
100
AcDbEntity
  8
$DDT_AUDIT_GENERATED_(ED)
  6
Continuous
 62
     7
100
AcDbLine
 10
114.2660206002
 20
639.6423026327
 30
0.0
 11
114.2660206002
 21
639.772828825
 31
0.0
  0
LINE
  5
2B6
330
75
100
AcDbEntity
  8
$DDT_AUDIT_GENERATED_(ED)
  6
Continuous
 62
     7
100
AcDbLine
 10
114.0660206002
 20
639.6423026327
 30
0.0
 11
113.0660206002
 21
639.6423026327
 31
0.0
  0
LINE
  5
2B7
330
75
100
AcDbEntity
  8
$DDT_AUDIT_GENERATED_(ED)
  6
Continuous
 62
     7
100
AcDbLine
 10
113.0660206002
 20
639.6423026327
 30
0.0
 11
113.0660206002
 21
639.772828825
 31
0.0
  0
LINE
  5
2B8
330
75
100
AcDbEntity
  8
$DDT_AUDIT_GENERATED_(ED)
  6
Continuous
 62
     7
100
AcDbLine
 10
113.0660206002
 20
639.772828825
 30
0.0
 11
114.0660206002
 21
639.772828825
 31
0.0
  0
LINE
  5
2B9
330
75
100
AcDbEntity
  8
$DDT_AUDIT_GENERATED_(ED)
  6
Continuous
 62
     7
100
AcDbLine
 10
114.0660206002
 20
639.772828825
 30
0.0
 11
114.0660206002
 21
639.6423026327
 31
0.0
  0
LINE
  5
2BA
330
75
100
AcDbEntity
  8
$DDT_AUDIT_GENERATED_(ED)
  6
Continuous
 62
     7
100
AcDbLine
 10
112.8660206002
 20
639.6423026327
 30
0.0
 11
111.8660206002
 21
639.6423026327
 31
0.0
  0
LINE
  5
2BB
330
75
100
AcDbEntity
  8
$DDT_AUDIT_GENERATED_(ED)
  6
Continuous
 62
     7
100
AcDbLine
 10
111.8660206002
 20
639.6423026327
 30
0.0
 11
111.8660206002
 21
639.772828825
 31
0.0
  0
LINE
  5
2BC
330
75
100
AcDbEntity
  8
$DDT_AUDIT_GENERATED_(ED)
  6
Continuous
 62
     7
100
AcDbLine
 10
111.8660206002
 20
639.772828825
 30
0.0
 11
112.8660206002
 21
639.772828825
 31
0.0
  0
LINE
  5
2BD
330
75
100
AcDbEntity
  8
$DDT_AUDIT_GENERATED_(ED)
  6
Continuous
 62
     7
100
AcDbLine
 10
112.8660206002
 20
639.772828825
 30
0.0
 11
112.8660206002
 21
639.6423026327
 31
0.0
  0
LINE
  5
2BE
330
75
100
AcDbEntity
  8
$DDT_AUDIT_GENERATED_(ED)
  6
Continuous
 62
     7
100
AcDbLine
 10
114.2660206002
 20
639.572492716
 30
0.0
 11
114.2660206002
 21
639.6161973943
 31
0.0
  0
ELLIPSE
  5
2BF
330
75
100
AcDbEntity
  8
$DDT_AUDIT_GENERATED_(ED)
  6
Continuous
 62
     7
100
AcDbEllipse
 10
114.7660206002
 20
640.6473543128
 30
0.0
 11
-8.249999999986921
 21
6.800116025829084E-13
 31
0.0
210
0.0
220
0.0
230
1.0
 40
0.1305261922
 41
1.363248876312025
 42
1.48584570290957
  0
LINE
  5
2C0
330
75
100
AcDbEntity
  8
$DDT_AUDIT_GENERATED_(ED)
  6
Continuous
 62
     7
100
AcDbLine
 10
113.0660206002
 20
639.5936230648
 30
0.0
 11
113.0660206002
 21
639.6161973943
 31
0.0
  0
LINE
  5
2C1
330
75
100
AcDbEntity
  8
$DDT_AUDIT_GENERATED_(ED)
  6
Continuous
 62
     7
100
AcDbLine
 10
113.0660206002
 20
639.6161973943
 30
0.0
 11
114.0660206002
 21
639.6161973943
 31
0.0
  0
LINE
  5
2C2
330
75
100
AcDbEntity
  8
$DDT_AUDIT_GENERATED_(ED)
  6
Continuous
 62
     7
100
AcDbLine
 10
114.0660206002
 20
639.6161973943
 30
0.0
 11
114.0660206002
 21
639.5743964611
 31
0.0
  0
ELLIPSE
  5
2C3
330
75
100
AcDbEntity
  8
$DDT_AUDIT_GENERATED_(ED)
  6
Continuous
 62
     7
100
AcDbEllipse
 10
114.7660205998
 20
640.6473543126
 30
0.0
 11
-8.249999999086334
 21
5.463685059936552E-11
 31
0.0
210
0.0
220
0.0
230
1.0
 40
0.1305261922
 41
1.278468933664057
 42
1.338407254342479
  0
LINE
  5
2C4
330
75
100
AcDbEntity
  8
$DDT_AUDIT_GENERATED_(ED)
  6
Continuous
 62
     7
100
AcDbLine
 10
112.3885219146
 20
639.6161973943
 30
0.0
 11
112.8660206002
 21
639.6161973943
 31
0.0
  0
LINE
  5
2C5
330
75
100
AcDbEntity
  8
$DDT_AUDIT_GENERATED_(ED)
  6
Continuous
 62
     7
100
AcDbLine
 10
112.8660206002
 20
639.6161973943
 30
0.0
 11
112.8660206002
 21
639.5994598332
 31
0.0
  0
ELLIPSE
  5
2C6
330
75
100
AcDbEntity
  8
$DDT_AUDIT_GENERATED_(ED)
  6
Continuous
 62
     7
100
AcDbEllipse
 10
114.7660206003
 20
640.6473543128
 30
0.0
 11
-8.250000000114849
 21
-1.014466288751237E-11
 31
0.0
210
0.0
220
0.0
230
1.0
 40
0.1305261922
 41
1.050693123526639
 42
1.185582205127236
  0
LINE
  5
2C7
330
75
100
AcDbEntity
  8
$DDT_AUDIT_GENERATED_(ED)
  6
Continuous
 62
     7
100
AcDbLine
 10
110.6660206002
 20
639.7129061901
 30
0.0
 11
110.6660206002
 21
639.772828825
 31
0.0
  0
LINE
  5
2C8
330
75
100
AcDbEntity
  8
$DDT_AUDIT_GENERATED_(ED)
  6
Continuous
 62
     7
100
AcDbLine
 10
110.6660206002
 20
639.772828825
 30
0.0
 11
111.6660206002
 21
639.772828825
 31
0.0
  0
LINE
  5
2C9
330
75
100
AcDbEntity
  8
$DDT_AUDIT_GENERATED_(ED)
  6
Continuous
 62
     7
100
AcDbLine
 10
111.6660206002
 20
639.772828825
 30
0.0
 11
111.6660206002
 21
639.6494262997
 31
0.0
  0
ELLIPSE
  5
2CA
330
75
100
AcDbEntity
  8
$DDT_AUDIT_GENERATED_(ED)
  6
Continuous
 62
     7
100
AcDbEllipse
 10
114.7660205725
 20
640.6473543083
 30
0.0
 11
-8.249999969274334
 21
2.856603842360528E-9
 31
0.0
210
0.0
220
0.0
230
1.0
 40
0.1305261921
 41
0.8731388752264112
 42
0.9073568939488609
  0
LINE
  5
2CB
330
75
100
AcDbEntity
  8
$DDT_AUDIT_GENERATED_(ED)
  6
Continuous
 62
     7
100
AcDbLine
 10
109.4660206002
 20
639.8221180107
 30
0.0
 11
109.4660206002
 21
639.9294602556
 31
0.0
  0
LINE
  5
2CC
330
75
100
AcDbEntity
  8
$DDT_AUDIT_GENERATED_(ED)
  6
Continuous
 62
     7
100
AcDbLine
 10
109.4660206002
 20
639.9294602556
 30
0.0
 11
110.4660206002
 21
639.9294602556
 31
0.0
  0
LINE
  5
2CD
330
75
100
AcDbEntity
  8
$DDT_AUDIT_GENERATED_(ED)
  6
Continuous
 62
     7
100
AcDbLine
 10
110.4660206002
 20
639.9294602556
 30
0.0
 11
110.4660206002
 21
639.7989340634
 31
0.0
  0
LINE
  5
2CE
330
75
100
AcDbEntity
  8
$DDT_AUDIT_GENERATED_(ED)
  6
Continuous
 62
     7
100
AcDbLine
 10
110.4660206002
 20
639.7989340634
 30
0.0
 11
109.685420242
 21
639.7989340634
 31
0.0
  0
LINE
  5
2CF
330
75
100
AcDbEntity
  8
$DDT_AUDIT_GENERATED_(ED)
  6
Continuous
 62
     7
100
AcDbLine
 10
109.685420242
 20
639.7989340634
 30
0.0
 11
109.685420242
 21
639.9294602556
 31
0.0
  0
ELLIPSE
  5
2D0
330
75
100
AcDbEntity
  8
$DDT_AUDIT_GENERATED_(ED)
  6
Continuous
 62
     7
100
AcDbEllipse
 10
114.7660206004
 20
640.6473543129
 30
0.0
 11
-8.250000000279288
 21
-2.622901895676932E-11
 31
0.0
210
0.0
220
0.0
230
1.0
 40
0.1305261922
 41
0.9477783669603685
 42
1.022525692698318
  0
LINE
  5
2D1
330
75
100
AcDbEntity
  8
$DDT_AUDIT_GENERATED_(ED)
  6
Continuous
 62
     7
100
AcDbLine
 10
109.9522383035
 20
639.772828825
 30
0.0
 11
110.4660206002
 21
639.772828825
 31
0.0
  0
LINE
  5
2D2
330
75
100
AcDbEntity
  8
$DDT_AUDIT_GENERATED_(ED)
  6
Continuous
 62
     7
100
AcDbLine
 10
110.4660206002
 20
639.772828825
 30
0.0
 11
110.4660206002
 21
639.7283488786
 31
0.0
  0
ELLIPSE
  5
2D3
330
75
100
AcDbEntity
  8
$DDT_AUDIT_GENERATED_(ED)
  6
Continuous
 62
     7
100
AcDbEllipse
 10
114.7660205671
 20
640.6473543093
 30
0.0
 11
-8.249999965862852
 21
2.777875152126796E-9
 31
0.0
210
0.0
220
0.0
230
1.0
 40
0.1305261923
 41
0.6634394354959033
 42
0.6976574542152232
  0
LINE
  5
2D4
330
75
100
AcDbEntity
  8
$DDT_AUDIT_GENERATED_(ED)
  6
Continuous
 62
     7
100
AcDbLine
 10
108.2660206002
 20
639.9842028939
 30
0.0
 11
108.2660206002
 21
640.0860916863
 31
0.0
  0
LINE
  5
2D5
330
75
100
AcDbEntity
  8
$DDT_AUDIT_GENERATED_(ED)
  6
Continuous
 62
     7
100
AcDbLine
 10
108.2660206002
 20
640.0860916863
 30
0.0
 11
109.2660206002
 21
640.0860916863
 31
0.0
  0
LINE
  5
2D6
330
75
100
AcDbEntity
  8
$DDT_AUDIT_GENERATED_(ED)
  6
Continuous
 62
     7
100
AcDbLine
 10
109.2660206002
 20
640.0860916863
 30
0.0
 11
109.2660206002
 21
639.9555654941
 31
0.0
  0
LINE
  5
2D7
330
75
100
AcDbEntity
  8
$DDT_AUDIT_GENERATED_(ED)
  6
Continuous
 62
     7
100
AcDbLine
 10
109.2660206002
 20
639.9555654941
 30
0.0
 11
108.4436397195
 21
639.9555654941
 31
0.0
  0
LINE
  5
2D8
330
75
100
AcDbEntity
  8
$DDT_AUDIT_GENERATED_(ED)
  6
Continuous
 62
     7
100
AcDbLine
 10
108.4436397195
 20
639.9555654941
 30
0.0
 11
108.4436397195
 21
640.0860916863
 31
0.0
  0
ELLIPSE
  5
2D9
330
75
100
AcDbEntity
  8
$DDT_AUDIT_GENERATED_(ED)
  6
Continuous
 62
     7
100
AcDbEllipse
 10
114.7660206002
 20
640.6473543128
 30
0.0
 11
-8.249999999972372
 21
3.524958103184872E-12
 31
0.0
210
0.0
220
0.0
230
1.0
 40
0.1305261922
 41
0.7297276562279429
 42
0.8410686705691413
  0
LINE
  5
2DA
330
75
100
AcDbEntity
  8
$DDT_AUDIT_GENERATED_(ED)
  6
Continuous
 62
     7
100
AcDbLine
 10
108.6168336621
 20
639.9294602556
 30
0.0
 11
109.2660206002
 21
639.9294602556
 31
0.0
  0
LINE
  5
2DB
330
75
100
AcDbEntity
  8
$DDT_AUDIT_GENERATED_(ED)
  6
Continuous
 62
     7
100
AcDbLine
 10
109.2660206002
 20
639.9294602556
 30
0.0
 11
109.2660206002
 21
639.8447243566
 31
0.0
  0
LINE
  5
2DC
330
75
100
AcDbEntity
  8
$DDT_AUDIT_GENERATED_(ED)
  6
Continuous
 62
     7
100
AcDbLine
 10
108.0660206002
 20
640.2688283554
 30
0.0
 11
107.0660206002
 21
640.2688283554
 31
0.0
  0
LINE
  5
2DD
330
75
100
AcDbEntity
  8
$DDT_AUDIT_GENERATED_(ED)
  6
Continuous
 62
     7
100
AcDbLine
 10
107.0660206002
 20
640.2688283554
 30
0.0
 11
107.0660206002
 21
640.3993545476
 31
0.0
  0
LINE
  5
2DE
330
75
100
AcDbEntity
  8
$DDT_AUDIT_GENERATED_(ED)
  6
Continuous
 62
     7
100
AcDbLine
 10
107.0660206002
 20
640.3993545476
 30
0.0
 11
108.0660206002
 21
640.3993545476
 31
0.0
  0
LINE
  5
2DF
330
75
100
AcDbEntity
  8
$DDT_AUDIT_GENERATED_(ED)
  6
Continuous
 62
     7
100
AcDbLine
 10
108.0660206002
 20
640.3993545476
 30
0.0
 11
108.0660206002
 21
640.2688283554
 31
0.0
  0
ELLIPSE
  5
2E0
330
75
100
AcDbEntity
  8
$DDT_AUDIT_GENERATED_(ED)
  6
Continuous
 62
     7
100
AcDbEllipse
 10
114.7660206002
 20
640.6473543128
 30
0.0
 11
-8.249999999989447
 21
-6.938893903907228E-13
 31
0.0
210
0.0
220
0.0
230
1.0
 40
0.1305261922
 41
0.3852141216624129
 42
0.5201032032647019
  0
LINE
  5
2E1
330
75
100
AcDbEntity
  8
$DDT_AUDIT_GENERATED_(ED)
  6
Continuous
 62
     7
100
AcDbLine
 10
107.1205971325
 20
640.2427231169
 30
0.0
 11
108.0660206002
 21
640.2427231169
 31
0.0
  0
LINE
  5
2E2
330
75
100
AcDbEntity
  8
$DDT_AUDIT_GENERATED_(ED)
  6
Continuous
 62
     7
100
AcDbLine
 10
108.0660206002
 20
640.2427231169
 30
0.0
 11
108.0660206002
 21
640.1121969247
 31
0.0
  0
LINE
  5
2E3
330
75
100
AcDbEntity
  8
$DDT_AUDIT_GENERATED_(ED)
  6
Continuous
 62
     7
100
AcDbLine
 10
108.0660206002
 20
640.1121969247
 30
0.0
 11
107.6069354631
 21
640.1121969247
 31
0.0
  0
LINE
  5
2E4
330
75
100
AcDbEntity
  8
$DDT_AUDIT_GENERATED_(ED)
  6
Continuous
 62
     7
100
AcDbLine
 10
107.6069354631
 20
640.1121969247
 30
0.0
 11
107.6069354631
 21
640.2427231169
 31
0.0
  0
ELLIPSE
  5
2E5
330
75
100
AcDbEntity
  8
$DDT_AUDIT_GENERATED_(ED)
  6
Continuous
 62
     7
100
AcDbEllipse
 10
114.7660205982
 20
640.6473543126
 30
0.0
 11
-8.24999999794894
 21
1.476735400629536E-10
 31
0.0
210
0.0
220
0.0
230
1.0
 40
0.1305261922
 41
0.5482706341479733
 42
0.6230179598988035
  0
LINE
  5
2E6
330
75
100
AcDbEntity
  8
$DDT_AUDIT_GENERATED_(ED)
  6
Continuous
 62
     7
100
AcDbLine
 10
107.725246495
 20
640.0860916863
 30
0.0
 11
108.0660206002
 21
640.0860916863
 31
0.0
  0
LINE
  5
2E7
330
75
100
AcDbEntity
  8
$DDT_AUDIT_GENERATED_(ED)
  6
Continuous
 62
     7
100
AcDbLine
 10
108.0660206002
 20
640.0860916863
 30
0.0
 11
108.0660206002
 21
640.0190296395
 31
0.0
  0
ELLIPSE
  5
2E8
330
75
100
AcDbEntity
  8
$DDT_AUDIT_GENERATED_(ED)
  6
Continuous
 62
     7
100
AcDbEllipse
 10
114.7660206
 20
640.6473543128
 30
0.0
 11
-8.249999999780073
 21
3.982925100842749E-12
 31
0.0
210
0.0
220
0.0
230
1.0
 40
0.1305261922
 41
0.1640860757491788
 42
0.2075474504859728
  0
LINE
  5
2E9
330
75
100
AcDbEntity
  8
$DDT_AUDIT_GENERATED_(ED)
  6
Continuous
 62
     7
100
AcDbLine
 10
106.8506458306
 20
640.5559859783
 30
0.0
 11
106.8660206002
 21
640.5559859783
 31
0.0
  0
LINE
  5
2EA
330
75
100
AcDbEntity
  8
$DDT_AUDIT_GENERATED_(ED)
  6
Continuous
 62
     7
100
AcDbLine
 10
106.8660206002
 20
640.5559859783
 30
0.0
 11
106.8660206002
 21
640.425459786
 31
0.0
  0
LINE
  5
2EB
330
75
100
AcDbEntity
  8
$DDT_AUDIT_GENERATED_(ED)
  6
Continuous
 62
     7
100
AcDbLine
 10
106.8660206002
 20
640.425459786
 30
0.0
 11
106.6930719443
 21
640.425459786
 31
0.0
  0
LINE
  5
2EC
330
75
100
AcDbEntity
  8
$DDT_AUDIT_GENERATED_(ED)
  6
Continuous
 62
     7
100
AcDbLine
 10
106.6930719443
 20
640.425459786
 30
0.0
 11
106.6930719443
 21
640.4988781668
 31
0.0
  0
ELLIPSE
  5
2ED
330
75
100
AcDbEntity
  8
$DDT_AUDIT_GENERATED_(ED)
  6
Continuous
 62
     7
100
AcDbEllipse
 10
114.7660205985
 20
640.6473543127
 30
0.0
 11
-8.249999998282686
 21
6.783462680459706E-11
 31
0.0
210
0.0
220
0.0
230
1.0
 40
0.1305261922
 41
0.2323890725060718
 42
0.2923273931846852
  0
LINE
  5
2EE
330
75
100
AcDbEntity
  8
$DDT_AUDIT_GENERATED_(ED)
  6
Continuous
 62
     7
100
AcDbLine
 10
106.7377891636
 20
640.3993545476
 30
0.0
 11
106.8660206002
 21
640.3993545476
 31
0.0
  0
LINE
  5
2EF
330
75
100
AcDbEntity
  8
$DDT_AUDIT_GENERATED_(ED)
  6
Continuous
 62
     7
100
AcDbLine
 10
106.8660206002
 20
640.3993545476
 30
0.0
 11
106.8660206002
 21
640.3370284624
 31
0.0
  0
LINE
  5
2F0
330
75
100
AcDbEntity
  8
$DDT_AUDIT_GENERATED_(ED)
  6
Continuous
 62
     7
100
AcDbLine
 10
123.7660206002
 20
640.1516318821
 30
0.0
 11
123.7660206002
 21
641.1815494291
 31
0.0
  0
LINE
  5
2F1
330
75
100
AcDbEntity
  8
$DDT_AUDIT_GENERATED_(ED)
  6
Continuous
 62
     7
100
AcDbLine
 10
105.7660206002
 20
641.1815494291
 30
0.0
 11
105.7660206002
 21
640.1516318821
 31
0.0
  0
LINE
  5
2F3
330
75
100
AcDbEntity
  8
$DDT_AUDIT_GENERATED_(2F2)
  6
Continuous
 62
     7
100
AcDbLine
 10
86.365621035
 20
600.8503385912
 30
0.0
 11
99.2545182928
 21
600.8503385912
 31
0.0
  0
LINE
  5
2F4
330
75
100
AcDbEntity
  8
$DDT_AUDIT_GENERATED_(2F2)
  6
Continuous
 62
     7
100
AcDbLine
 10
130.2768003747
 20
600.8503385912
 30
0.0
 11
143.165621035
 21
600.8503385912
 31
0.0
  0
LINE
  5
2F5
330
75
100
AcDbEntity
  8
$DDT_AUDIT_GENERATED_(2F2)
  6
Continuous
 62
     7
100
AcDbLine
 10
143.265621035
 20
600.3503385912
 30
0.0
 11
143.265621035
 21
600.7503385912
 31
0.0
  0
LINE
  5
2F6
330
75
100
AcDbEntity
  8
$DDT_AUDIT_GENERATED_(2F2)
  6
Continuous
 62
     7
100
AcDbLine
 10
86.265621035
 20
600.7503385912
 30
0.0
 11
86.265621035
 21
600.3503385912
 31
0.0
  0
ARC
  5
2F7
330
75
100
AcDbEntity
  8
$DDT_AUDIT_GENERATED_(2F2)
  6
Continuous
 62
     7
100
AcDbCircle
 10
86.365621035
 20
600.7503385912
 30
0.0
 40
0.1000000000000029
100
AcDbArc
 50
90.0
 51
180.0
  0
ARC
  5
2F8
330
75
100
AcDbEntity
  8
$DDT_AUDIT_GENERATED_(2F2)
  6
Continuous
 62
     7
100
AcDbCircle
 10
143.165621035
 20
600.7503385912
 30
0.0
 40
0.0999999999999994
100
AcDbArc
 50
0.0
 51
90.0
  0
ARC
  5
2F9
330
75
100
AcDbEntity
  8
$DDT_AUDIT_GENERATED_(2F2)
  6
Continuous
 62
     7
100
AcDbCircle
 10
143.165621035
 20
600.3503385912
 30
0.0
 40
0.1000000000000029
100
AcDbArc
 50
270.0
 51
0.0
  0
ARC
  5
2FA
330
75
100
AcDbEntity
  8
$DDT_AUDIT_GENERATED_(2F2)
  6
Continuous
 62
     7
100
AcDbCircle
 10
86.365621035
 20
600.3503385912
 30
0.0
 40
0.0999999999999994
100
AcDbArc
 50
180.0
 51
270.0
  0
ENDBLK
  5
2FC
330
75
100
AcDbEntity
  8
0
100
AcDbBlockEnd
  0
BLOCK
  5
364
330
2FD
100
AcDbEntity
  8
0
100
AcDbBlockBegin
  2
SE1
 70
     0
 10
0.0
 20
0.0
 30
0.0
  3
SE1
  1

  0
LINE
  5
2FF
330
2FD
100
AcDbEntity
  8
$DDT_AUDIT_GENERATED_(77)
  6
Continuous
 62
     7
100
AcDbLine
 10
271.2190457924
 20
531.7003385912
 30
0.0
 11
219.2190457924
 21
531.7003385912
 31
0.0
  0
LINE
  5
300
330
2FD
100
AcDbEntity
  8
$DDT_AUDIT_GENERATED_(77)
  6
Continuous
 62
     7
100
AcDbLine
 10
218.7190457924
 20
532.2503385912
 30
0.0
 11
218.7190457924
 21
532.2003385912
 31
0.0
  0
LINE
  5
301
330
2FD
100
AcDbEntity
  8
$DDT_AUDIT_GENERATED_(77)
  6
Continuous
 62
     7
100
AcDbLine
 10
271.7190457924
 20
532.2003385912
 30
0.0
 11
271.7190457924
 21
532.2503385912
 31
0.0
  0
ARC
  5
302
330
2FD
100
AcDbEntity
  8
$DDT_AUDIT_GENERATED_(77)
  6
Continuous
 62
     7
100
AcDbCircle
 10
219.2190457924
 20
532.2003385912
 30
0.0
 40
0.5000000000000004
100
AcDbArc
 50
180.0
 51
270.0
  0
ARC
  5
303
330
2FD
100
AcDbEntity
  8
$DDT_AUDIT_GENERATED_(77)
  6
Continuous
 62
     7
100
AcDbCircle
 10
271.2190457924
 20
532.2003385912
 30
0.0
 40
0.5000000000000004
100
AcDbArc
 50
270.0
 51
0.0
  0
LINE
  5
304
330
2FD
100
AcDbEntity
  8
$DDT_AUDIT_GENERATED_(7D)
  6
Continuous
 62
     7
100
AcDbLine
 10
274.2190457924
 20
600.2503385912
 30
0.0
 11
216.2190457924
 21
600.2503385912
 31
0.0
  0
LINE
  5
305
330
2FD
100
AcDbEntity
  8
$DDT_AUDIT_GENERATED_(7D)
  6
Continuous
 62
     7
100
AcDbLine
 10
274.2190457924
 20
532.2503385912
 30
0.0
 11
216.2190457924
 21
532.2503385912
 31
0.0
  0
ARC
  5
306
330
2FD
100
AcDbEntity
  8
$DDT_AUDIT_GENERATED_(7D)
  6
Continuous
 62
     7
100
AcDbCircle
 10
187.2854596412
 20
593.4503385914
 30
0.0
 40
29.00262759774685
100
AcDbArc
 50
356.0457869831
 51
3.9542132731
  0
LINE
  5
307
330
2FD
100
AcDbEntity
  8
$DDT_AUDIT_GENERATED_(7D)
  6
Continuous
 62
     7
100
AcDbLine
 10
274.2190457924
 20
532.2503385912
 30
0.0
 11
274.2190457924
 21
562.0279393045
 31
0.0
  0
LINE
  5
308
330
2FD
100
AcDbEntity
  8
$DDT_AUDIT_GENERATED_(7D)
  6
Continuous
 62
     7
100
AcDbLine
 10
274.2190457924
 20
584.0082445797
 30
0.0
 11
274.2190457924
 21
600.2503385912
 31
0.0
  0
LINE
  5
309
330
2FD
100
AcDbEntity
  8
$DDT_AUDIT_GENERATED_(7D)
  6
Continuous
 62
     7
100
AcDbLine
 10
216.2190457924
 20
591.4749924202
 30
0.0
 11
216.2190457924
 21
532.2503385912
 31
0.0
  0
LINE
  5
30A
330
2FD
100
AcDbEntity
  8
$DDT_AUDIT_GENERATED_(7D)
  6
Continuous
 62
     7
100
AcDbLine
 10
216.2190457924
 20
600.2503385912
 30
0.0
 11
216.2190457924
 21
595.4503385912
 31
0.0
  0
ARC
  5
30B
330
2FD
100
AcDbEntity
  8
$DDT_AUDIT_GENERATED_(83)
  6
Continuous
 62
     7
100
AcDbCircle
 10
488.8913897983
 20
504.5839371805
 30
0.0
 40
167.5445975746229
100
AcDbArc
 50
92.0800142447
 51
97.3880346957
  0
SPLINE
  5
30C
330
2FD
100
AcDbEntity
  8
$DDT_AUDIT_GENERATED_(83)
  6
Continuous
 62
     7
100
AcDbSpline
210
0.0
220
0.0
230
1.0
 70
     8
 71
     3
 72
    14
 73
    10
 74
     0
 42
0.0000000000456636
 43
0.0000000001
 40
0.0
 40
0.0
 40
0.0
 40
0.0
 40
0.25
 40
0.25
 40
0.5
 40
0.5
 40
0.75
 40
0.75
 40
1.0
 40
1.0
 40
1.0
 40
1.0
 10
464.4303956236514
 20
669.5877440168568
 30
0.0
 10
446.3145347337633
 20
666.93613741151
 30
0.0
 10
428.8142482054897
 20
661.9990916781597
 30
0.0
 10
394.6467322708542
 20
649.032111106427
 30
0.0
 10
378.0977002498671
 20
641.0406274708943
 30
0.0
 10
346.1314242706244
 20
623.4766576806221
 30
0.0
 10
330.6601110589043
 20
613.8826709273374
 30
0.0
 10
300.3121187258853
 20
593.751319736555
 30
0.0
 10
285.4354247734301
 20
583.2057758055673
 30
0.0
 10
270.7365735033122
 20
572.3958618921031
 30
0.0
  0
ARC
  5
30D
330
2FD
100
AcDbEntity
  8
$DDT_AUDIT_GENERATED_(83)
  6
Continuous
 62
     7
100
AcDbCircle
 10
479.9681939705
 20
574.6914844551
 30
0.0
 40
98.50106207840584
100
AcDbArc
 50
97.3789387552
 51
97.4704745851
  0
SPLINE
  5
30E
330
2FD
100
AcDbEntity
  8
$DDT_AUDIT_GENERATED_(83)
  6
Continuous
 62
     7
100
AcDbSpline
210
0.0
220
0.0
230
1.0
 70
     8
 71
     3
 72
    16
 73
    12
 74
     0
 42
0.0000000000495321
 43
0.0000000001
 40
0.0
 40
0.0
 40
0.0
 40
0.0
 40
0.1249999999999999
 40
0.1249999999999999
 40
0.2499999999999999
 40
0.2499999999999999
 40
0.4999999999999998
 40
0.4999999999999998
 40
0.7499999999999999
 40
0.7499999999999999
 40
1.0
 40
1.0
 40
1.0
 40
1.0
 10
452.3254446874849
 20
657.8261834126542
 30
0.0
 10
444.0870849838586
 20
656.0592572776329
 30
0.0
 10
435.9328000479722
 20
653.8128820583609
 30
0.0
 10
419.9067679060957
 20
648.5756608541546
 30
0.0
 10
412.0422649180095
 20
645.5906308306461
 30
0.0
 10
388.8005090068529
 20
635.7676768135912
 30
0.0
 10
373.7434693545297
 20
628.053454196253
 30
0.0
 10
344.5527225120005
 20
611.4012386132234
 30
0.0
 10
330.3657282415236
 20
602.4361915815173
 30
0.0
 10
302.4870111252532
 20
583.7312089196904
 30
0.0
 10
288.7978857445435
 20
573.9872093642597
 30
0.0
 10
275.2604368917787
 20
564.0059007166943
 30
0.0
  0
SPLINE
  5
30F
330
2FD
100
AcDbEntity
  8
$DDT_AUDIT_GENERATED_(83)
  6
Continuous
 62
     7
100
AcDbSpline
210
0.0
220
0.0
230
1.0
 70
     8
 71
     3
 72
     8
 73
     4
 74
     0
 42
0.0000000007471604
 43
0.0000000001
 40
0.0
 40
0.0
 40
0.0
 40
0.0
 40
1.0
 40
1.0
 40
1.0
 40
1.0
 10
467.0031523390569
 20
673.3442520322028
 30
0.0
 10
471.4262073388851
 20
673.9265582755191
 30
0.0
 10
475.8814860894699
 20
674.2068538605444
 30
0.0
 10
480.3401596332008
 20
674.1918124288104
 30
0.0
  0
SPLINE
  5
310
330
2FD
100
AcDbEntity
  8
$DDT_AUDIT_GENERATED_(83)
  6
Continuous
 62
     7
100
AcDbSpline
210
0.0
220
0.0
230
1.0
 70
     8
 71
     3
 72
    20
 73
    16
 74
     0
 42
0.0000000027779355
 43
0.0000000001
 40
0.0
 40
0.0
 40
0.0
 40
0.0
 40
0.2500000000000013
 40
0.2500000000000013
 40
0.3750000000000011
 40
0.3750000000000011
 40
0.5000000000000009
 40
0.5000000000000009
 40
0.6250000000000007
 40
0.6250000000000007
 40
0.7500000000000004
 40
0.7500000000000004
 40
0.8750000000000002
 40
0.8750000000000002
 40
1.0
 40
1.0
 40
1.0
 40
1.0
 10
482.8103379344905
 20
672.0181421227895
 30
0.0
 10
482.7709234954008
 20
672.317525249651
 30
0.0
 10
482.6790540626897
 20
672.6031546903083
 30
0.0
 10
482.4666964020205
 20
673.0012226820787
 30
0.0
 10
482.3849511731428
 20
673.1258584328414
 30
0.0
 10
482.2001725829409
 20
673.3594861416806
 30
0.0
 10
482.0959968167834
 20
673.4694190499049
 30
0.0
 10
481.8708636821187
 20
673.6675648684549
 30
0.0
 10
481.750686959911
 20
673.7555065593783
 30
0.0
 10
481.4953778037307
 20
673.9095145266008
 30
0.0
 10
481.3587670725966
 20
673.9760256165459
 30
0.0
 10
481.0790509535136
 20
674.0821997939289
 30
0.0
 10
480.9357212686774
 20
674.1223573996286
 30
0.0
 10
480.6421597393772
 20
674.176966681402
 30
0.0
 10
480.4911420135161
 20
674.1913030864807
 30
0.0
 10
480.3401596332008
 20
674.1918124288104
 30
0.0
  0
ARC
  5
311
330
2FD
100
AcDbEntity
  8
$DDT_AUDIT_GENERATED_(83)
  6
Continuous
 62
     7
100
AcDbCircle
 10
39.4050614611
 20
779.1726841518
 30
0.0
 40
305.3306065104644
100
AcDbArc
 50
319.3377531655
 51
320.2758439014
  0
ARC
  5
312
330
2FD
100
AcDbEntity
  8
$DDT_AUDIT_GENERATED_(83)
  6
Continuous
 62
     7
100
AcDbCircle
 10
280.6745802062
 20
573.8187411982
 30
0.0
 40
11.5855365352149
100
AcDbArc
 50
146.4618809068
 51
191.5856804437
  0
ARC
  5
313
330
2FD
100
AcDbEntity
  8
$DDT_AUDIT_GENERATED_(83)
  6
Continuous
 62
     7
100
AcDbCircle
 10
299.5985479415
 20
581.1471149791
 30
0.0
 40
31.77583415652771
100
AcDbArc
 50
197.6890771077
 51
217.0682801835
  0
SPLINE
  5
314
330
2FD
100
AcDbEntity
  8
$DDT_AUDIT_GENERATED_(83)
  6
Continuous
 62
     7
100
AcDbSpline
210
0.0
220
0.0
230
1.0
 70
     8
 71
     3
 72
    18
 73
    14
 74
     0
 42
0.0000000000471937
 43
0.0000000001
 40
0.0
 40
0.0
 40
0.0
 40
0.0
 40
0.2500000000000001
 40
0.2500000000000001
 40
0.5000000000000001
 40
0.5000000000000001
 40
0.6250000000000001
 40
0.6250000000000001
 40
0.7500000000000002
 40
0.7500000000000002
 40
0.8750000000000001
 40
0.8750000000000001
 40
1.0
 40
1.0
 40
1.0
 40
1.0
 10
278.2087040178215
 20
582.012267994697
 30
0.0
 10
292.5201177524306
 20
592.3583063919018
 30
0.0
 10
307.0239121066272
 20
602.4270144612913
 30
0.0
 10
336.695830269089
 20
621.6067525051066
 30
0.0
 10
351.8239021297931
 20
630.6969588663293
 30
0.0
 10
375.227347172813
 20
643.0758291194477
 30
0.0
 10
383.160208070055
 20
646.9953717881066
 30
0.0
 10
399.2538254291746
 20
654.2552878698731
 30
0.0
 10
407.4183911329559
 20
657.5986655397954
 30
0.0
 10
424.0427722914577
 20
663.5668838436577
 30
0.0
 10
432.4989450124138
 20
666.187088572365
 30
0.0
 10
449.583191993733
 20
670.4945595945828
 30
0.0
 10
458.2312349530994
 20
672.1894029637367
 30
0.0
 10
467.0031523390569
 20
673.3442520322028
 30
0.0
  0
ARC
  5
315
330
2FD
100
AcDbEntity
  8
$DDT_AUDIT_GENERATED_(83)
  6
Continuous
 62
     7
100
AcDbCircle
 10
276.7440457925
 20
584.0382927436
 30
0.0
 40
2.500000000028956
100
AcDbArc
 50
180.0000000036
 51
305.8640009369
  0
ARC
  5
316
330
2FD
100
AcDbEntity
  8
$DDT_AUDIT_GENERATED_(83)
  6
Continuous
 62
     7
100
AcDbCircle
 10
276.7440457918
 20
561.9937117014
 30
0.0
 40
2.499999999403784
100
AcDbArc
 50
126.401756374
 51
180.0000000009
  0
ELLIPSE
  5
317
330
2FD
100
AcDbEntity
  8
$DDT_AUDIT_GENERATED_(83)
  6
Continuous
 62
     7
100
AcDbEllipse
 10
271.4014111287
 20
571.491982026
 30
0.0
 11
-2.367662873214188
 21
-0.8026035875843309
 31
0.0
210
0.0
220
0.0
230
1.0
 40
0.4317884817
 41
4.848594397395269
 42
5.617612543717212
  0
LINE
  5
318
330
2FD
100
AcDbEntity
  8
$DDT_AUDIT_GENERATED_(83)
  6
Continuous
 62
     7
100
AcDbLine
 10
484.2527984397
 20
661.061566066
 30
0.0
 11
482.8103378389
 21
672.0181421101
 31
0.0
  0
SPLINE
  5
319
330
2FD
100
AcDbEntity
  8
$DDT_AUDIT_GENERATED_(83)
  6
Continuous
 62
     7
100
AcDbSpline
210
0.0
220
0.0
230
1.0
 70
     8
 71
     3
 72
    14
 73
    10
 74
     0
 42
0.0000000061303083
 43
0.0000000001
 40
0.0
 40
0.0
 40
0.0
 40
0.0
 40
0.2500000000000011
 40
0.2500000000000011
 40
0.5000000000000007
 40
0.5000000000000007
 40
0.7500000000000003
 40
0.7500000000000003
 40
1.0
 40
1.0
 40
1.0
 40
1.0
 10
453.522084066058
 20
657.0095508399565
 30
0.0
 10
453.5002289774117
 20
657.1434133327596
 30
0.0
 10
453.45106278394
 20
657.2717921860929
 30
0.0
 10
453.3064187314795
 20
657.4990227969786
 30
0.0
 10
453.2100990867214
 20
657.5984159601744
 30
0.0
 10
452.9882133189842
 20
657.7499647991208
 30
0.0
 10
452.8605527388344
 20
657.8035311863936
 30
0.0
 10
452.5963703207498
 20
657.8555821881373
 30
0.0
 10
452.4586987756882
 20
657.8547631469114
 30
0.0
 10
452.3254446874849
 20
657.8261834126542
 30
0.0
  0
LINE
  5
31A
330
2FD
100
AcDbEntity
  8
$DDT_AUDIT_GENERATED_(83)
  6
Continuous
 62
     7
100
AcDbLine
 10
484.0806147058
 20
660.8371718552
 30
0.0
 11
453.7806125101
 21
656.8481008893
 31
0.0
  0
ARC
  5
31B
330
2FD
100
AcDbEntity
  8
$DDT_AUDIT_GENERATED_(83)
  6
Continuous
 62
     7
100
AcDbCircle
 10
453.7194706452
 20
657.0417772022
 30
0.0
 40
0.1999999999969317
100
AcDbArc
 50
189.2725966801
 51
277.4999999998
  0
ARC
  5
31C
330
2FD
100
AcDbEntity
  8
$DDT_AUDIT_GENERATED_(83)
  6
Continuous
 62
     7
100
AcDbCircle
 10
484.0545094673
 20
661.0354608276
 30
0.0
 40
0.2000000001409664
100
AcDbArc
 50
277.4999999991
 51
7.4999999859
  0
LINE
  5
31D
330
2FD
100
AcDbEntity
  8
$DDT_AUDIT_GENERATED_(A1)
  6
Continuous
 62
     7
100
AcDbLine
 10
480.9281918664
 20
659.5143814504
 30
0.0
 11
457.1335151934
 21
656.3817528372
 31
0.0
  0
LINE
  5
31E
330
2FD
100
AcDbEntity
  8
$DDT_AUDIT_GENERATED_(A1)
  6
Continuous
 62
     7
100
AcDbLine
 10
454.2895682516
 20
656.9151061838
 30
0.0
 11
457.1335151934
 21
656.3817528372
 31
0.0
  0
LINE
  5
31F
330
2FD
100
AcDbEntity
  8
$DDT_AUDIT_GENERATED_(A1)
  6
Continuous
 62
     7
100
AcDbLine
 10
480.9281918664
 20
659.5143814504
 30
0.0
 11
483.5371916622
 21
660.7656288542
 31
0.0
  0
LINE
  5
320
330
2FD
100
AcDbEntity
  8
$DDT_AUDIT_GENERATED_(A1)
  6
Continuous
 62
     7
100
AcDbLine
 10
479.4071431843
 20
658.8098171122
 30
0.0
 11
479.3418800882
 21
659.3055395429
 31
0.0
  0
LINE
  5
321
330
2FD
100
AcDbEntity
  8
$DDT_AUDIT_GENERATED_(A1)
  6
Continuous
 62
     7
100
AcDbLine
 10
458.7198269716
 20
656.5905947447
 30
0.0
 11
458.7850900677
 21
656.0948723141
 31
0.0
  0
LINE
  5
322
330
2FD
100
AcDbEntity
  8
$DDT_AUDIT_GENERATED_(AB)
  6
Continuous
 62
     7
100
AcDbLine
 10
271.5386258394
 20
624.8864276189
 30
0.0
 11
218.8994657455
 21
624.8864276189
 31
0.0
  0
LINE
  5
323
330
2FD
100
AcDbEntity
  8
$DDT_AUDIT_GENERATED_(AB)
  6
Continuous
 62
     7
100
AcDbLine
 10
274.2190236528
 20
601.3503385912
 30
0.0
 11
216.2190679321
 21
601.3503385912
 31
0.0
  0
ARC
  5
324
330
2FD
100
AcDbEntity
  8
$DDT_AUDIT_GENERATED_(AB)
  6
Continuous
 62
     7
100
AcDbCircle
 10
245.2190457924
 20
636.7503385913
 30
0.0
 40
25.99999999999999
100
AcDbArc
 50
160.5428750375
 51
178.5
  0
ARC
  5
325
330
2FD
100
AcDbEntity
  8
$DDT_AUDIT_GENERATED_(AB)
  6
Continuous
 62
     7
100
AcDbCircle
 10
245.2190457924
 20
636.7503385913
 30
0.0
 40
26.00000000000001
100
AcDbArc
 50
1.5
 51
19.4619589169
  0
LINE
  5
326
330
2FD
100
AcDbEntity
  8
$DDT_AUDIT_GENERATED_(AB)
  6
Continuous
 62
     7
100
AcDbLine
 10
271.5386258394
 20
624.8864276189
 30
0.0
 11
271.2101362418
 21
637.4309392473
 31
0.0
  0
LINE
  5
327
330
2FD
100
AcDbEntity
  8
$DDT_AUDIT_GENERATED_(AB)
  6
Continuous
 62
     7
100
AcDbLine
 10
219.2279553431
 20
637.4309392473
 30
0.0
 11
218.8994657455
 21
624.8864276189
 31
0.0
  0
ARC
  5
328
330
2FD
100
AcDbEntity
  8
$DDT_AUDIT_GENERATED_(AB)
  6
Continuous
 62
     7
100
AcDbCircle
 10
217.5027455584
 20
607.6568065222
 30
0.0
 40
56.71627809438672
100
AcDbArc
 50
0.0
 51
17.6851520989
  0
ARC
  5
329
330
2FD
100
AcDbEntity
  8
$DDT_AUDIT_GENERATED_(AB)
  6
Continuous
 62
     7
100
AcDbCircle
 10
272.9353460265
 20
607.6568065222
 30
0.0
 40
56.71627809438672
100
AcDbArc
 50
162.3148479011
 51
180.0
  0
LINE
  5
32A
330
2FD
100
AcDbEntity
  8
$DDT_AUDIT_GENERATED_(AB)
  6
Continuous
 62
     7
100
AcDbLine
 10
216.2190679321
 20
607.6568065222
 30
0.0
 11
216.2190679321
 21
601.3503385912
 31
0.0
  0
LINE
  5
32B
330
2FD
100
AcDbEntity
  8
$DDT_AUDIT_GENERATED_(AB)
  6
Continuous
 62
     7
100
AcDbLine
 10
274.2190236528
 20
601.3503385912
 30
0.0
 11
274.2190236528
 21
607.6568065222
 31
0.0
  0
LINE
  5
32C
330
2FD
100
AcDbEntity
  8
$DDT_AUDIT_GENERATED_(AB)
  6
Continuous
 62
     7
100
AcDbLine
 10
216.3190679321
 20
601.3503385912
 30
0.0
 11
216.8190679321
 21
600.8503385912
 31
0.0
  0
LINE
  5
32D
330
2FD
100
AcDbEntity
  8
$DDT_AUDIT_GENERATED_(AB)
  6
Continuous
 62
     7
100
AcDbLine
 10
273.6190236528
 20
600.8503385912
 30
0.0
 11
274.1190236528
 21
601.3503385912
 31
0.0
  0
LINE
  5
32E
330
2FD
100
AcDbEntity
  8
$DDT_AUDIT_GENERATED_(BA)
  6
Continuous
 62
     7
100
AcDbLine
 10
274.9764650599
 20
667.6999836153
 30
0.0
 11
274.3854612507
 21
661.1150321253
 31
0.0
  0
ARC
  5
32F
330
2FD
100
AcDbEntity
  8
$DDT_AUDIT_GENERATED_(BA)
  6
Continuous
 62
     7
100
AcDbCircle
 10
327.6993476691
 20
782.8924716024
 30
0.0
 40
100.2951191867675
100
AcDbArc
 50
276.1404439606
 51
278.1278073638
  0
ARC
  5
330
330
2FD
100
AcDbEntity
  8
$DDT_AUDIT_GENERATED_(BA)
  6
Continuous
 62
     7
100
AcDbCircle
 10
308.9807477112
 20
564.635698396
 30
0.0
 40
123.6271671760397
100
AcDbArc
 50
118.9429928521
 51
137.1597823351
  0
ARC
  5
331
330
2FD
100
AcDbEntity
  8
$DDT_AUDIT_GENERATED_(BA)
  6
Continuous
 62
     7
100
AcDbCircle
 10
310.5121143835
 20
562.8757761258
 30
0.0
 40
125.9514370683099
100
AcDbArc
 50
137.0394122498
 51
137.045745728
  0
ARC
  5
332
330
2FD
100
AcDbEntity
  8
$DDT_AUDIT_GENERATED_(BA)
  6
Continuous
 62
     7
100
AcDbCircle
 10
498.1807845742
 20
247.2387048367
 30
0.0
 40
493.0883778897222
100
AcDbArc
 50
118.6350609512
 51
120.3338341185
  0
ARC
  5
333
330
2FD
100
AcDbEntity
  8
$DDT_AUDIT_GENERATED_(BA)
  6
Continuous
 62
     7
100
AcDbCircle
 10
284.3121830472
 20
639.145591732
 30
0.0
 40
46.62373780850199
100
AcDbArc
 50
104.2090236816
 51
118.7614524605
  0
ARC
  5
334
330
2FD
100
AcDbEntity
  8
$DDT_AUDIT_GENERATED_(BA)
  6
Continuous
 62
     7
100
AcDbCircle
 10
309.3551521925
 20
513.0567997757
 30
0.0
 40
175.1292823011116
100
AcDbArc
 50
80.6385570048
 51
102.0253573649
  0
SPLINE
  5
335
330
2FD
100
AcDbEntity
  8
$DDT_AUDIT_GENERATED_(BA)
  6
Continuous
 62
     7
100
AcDbSpline
210
0.0
220
0.0
230
1.0
 70
     8
 71
     3
 72
    16
 73
    12
 74
     0
 42
0.0000000014542546
 43
0.0000000001
 40
0.0
 40
0.0
 40
0.0
 40
0.0
 40
0.2500000000000008
 40
0.2500000000000008
 40
0.3125000000000008
 40
0.3125000000000008
 40
0.3750000000000007
 40
0.3750000000000007
 40
0.5000000000000006
 40
0.5000000000000006
 40
0.5015618819545357
 40
0.5015618819545357
 40
0.5015618819545357
 40
0.5015618819545357
 10
337.8420341102313
 20
685.853683653547
 30
0.0
 10
338.8969461971217
 20
685.9994166893681
 30
0.0
 10
339.7480311712767
 20
686.1177319305598
 30
0.0
 10
340.4911101639859
 20
686.2213876424814
 30
0.0
 10
340.6238536089296
 20
686.2399298588335
 30
0.0
 10
340.8527902441547
 20
686.271945887024
 30
0.0
 10
340.9484206414137
 20
686.2853407151792
 30
0.0
 10
341.1786703047536
 20
686.3176393198868
 30
0.0
 10
341.2567325208966
 20
686.3286668287544
 30
0.0
 10
341.2580397801071
 20
686.328956503936
 30
0.0
 10
341.2580439153009
 20
686.3289584013448
 30
0.0
 10
341.258036048532
 20
686.328958620779
 30
0.0
  0
ARC
  5
336
330
2FD
100
AcDbEntity
  8
$DDT_AUDIT_GENERATED_(BA)
  6
Continuous
 62
     7
100
AcDbCircle
 10
309.2309268469
 20
504.979516437
 30
0.0
 40
180.4795307876953
100
AcDbArc
 50
80.9706885241
 51
101.399096235
  0
ARC
  5
337
330
2FD
100
AcDbEntity
  8
$DDT_AUDIT_GENERATED_(BA)
  6
Continuous
 62
     7
100
AcDbCircle
 10
19.8931600135
 20
957.5753174331
 30
0.0
 40
419.7380036203941
100
AcDbArc
 50
318.3876216147
 51
319.1840758347
  0
ARC
  5
338
330
2FD
100
AcDbEntity
  8
$DDT_AUDIT_GENERATED_(BA)
  6
Continuous
 62
     7
100
AcDbCircle
 10
284.7234341978
 20
625.6195784734
 30
0.0
 40
57.37575652066006
100
AcDbArc
 50
101.2188109863
 51
112.1774111036
  0
ARC
  5
339
330
2FD
100
AcDbEntity
  8
$DDT_AUDIT_GENERATED_(BA)
  6
Continuous
 62
     7
100
AcDbCircle
 10
458.4091737862
 20
293.5175179978
 30
0.0
 40
431.9302288530729
100
AcDbArc
 50
116.8886167767
 51
118.8705856882
  0
ARC
  5
33A
330
2FD
100
AcDbEntity
  8
$DDT_AUDIT_GENERATED_(BA)
  6
Continuous
 62
     7
100
AcDbCircle
 10
306.5017340367
 20
562.7148062176
 30
0.0
 40
122.8827433769677
100
AcDbArc
 50
117.4483603728
 51
135.9593692543
  0
LINE
  5
33B
330
2FD
100
AcDbEntity
  8
$DDT_AUDIT_GENERATED_(BA)
  6
Continuous
 62
     7
100
AcDbLine
 10
218.3285090881
 20
648.7008888028
 30
0.0
 11
218.1664245151
 21
648.1412848062
 31
0.0
  0
ELLIPSE
  5
33C
330
2FD
100
AcDbEntity
  8
$DDT_AUDIT_GENERATED_(BA)
  6
Continuous
 62
     7
100
AcDbEllipse
 10
337.6390027721
 20
684.3882721601
 30
0.0
 11
1.119478715120775
 21
-0.9983823948725714
 31
0.0
210
0.0
220
0.0
230
1.0
 40
0.701542028
 41
5.208057594178236
 42
5.911355323014317
  0
ELLIPSE
  5
33D
330
2FD
100
AcDbEntity
  8
$DDT_AUDIT_GENERATED_(BA)
  6
Continuous
 62
     7
100
AcDbEllipse
 10
337.6390027721
 20
684.3882721601
 30
0.0
 11
0.1889546351659527
 21
1.488051123399087
 31
0.0
210
0.0
220
0.0
230
1.0
 40
0.0677389034
 41
3.820967891505523
 42
6.116917382323702
  0
LINE
  5
33E
330
2FD
100
AcDbEntity
  8
$DDT_AUDIT_GENERATED_(BA)
  6
Continuous
 62
     7
100
AcDbLine
 10
273.6487986866
 20
654.3667873643
 30
0.0
 11
272.7733872403
 21
647.7188994179
 31
0.0
  0
LINE
  5
33F
330
2FD
100
AcDbEntity
  8
$DDT_AUDIT_GENERATED_(BA)
  6
Continuous
 62
     7
100
AcDbLine
 10
274.3854612507
 20
661.1150321253
 30
0.0
 11
274.3855307346
 21
661.1144756731
 31
0.0
  0
ARC
  5
340
330
2FD
100
AcDbEntity
  8
$DDT_AUDIT_GENERATED_(BA)
  6
Continuous
 62
     7
100
AcDbCircle
 10
309.0020660632
 20
653.9208792061
 30
0.0
 40
35.35607936817897
100
AcDbArc
 50
169.9542815727
 51
179.2773708704
  0
LINE
  5
341
330
2FD
100
AcDbEntity
  8
$DDT_AUDIT_GENERATED_(BA)
  6
Continuous
 62
     7
100
AcDbLine
 10
245.2341986139
 20
645.3913352958
 30
0.0
 11
218.2829714303
 21
645.391335294
 31
0.0
  0
LINE
  5
342
330
2FD
100
AcDbEntity
  8
$DDT_AUDIT_GENERATED_(BA)
  6
Continuous
 62
     7
100
AcDbLine
 10
272.2038260153
 20
645.3913352958
 30
0.0
 11
245.2341986139
 21
645.3913352958
 31
0.0
  0
LINE
  5
343
330
2FD
100
AcDbEntity
  8
$DDT_AUDIT_GENERATED_(BA)
  6
Continuous
 62
     7
100
AcDbLine
 10
218.0037225309
 20
645.9782307063
 30
0.0
 11
218.1664207914
 21
648.1412823348
 31
0.0
  0
ARC
  5
344
330
2FD
100
AcDbEntity
  8
$DDT_AUDIT_GENERATED_(BA)
  6
Continuous
 62
     7
100
AcDbCircle
 10
218.2829714413
 20
645.6913352839
 30
0.0
 40
0.2999999898532636
100
AcDbArc
 50
176.3442532186
 51
269.9999978883
  0
ARC
  5
345
330
2FD
100
AcDbEntity
  8
$DDT_AUDIT_GENERATED_(BA)
  6
Continuous
 62
     7
100
AcDbCircle
 10
272.2038259469
 20
645.69133518
 30
0.0
 40
0.2999998841848934
100
AcDbArc
 50
270.0000130664
 51
351.7846247624
  0
LINE
  5
346
330
2FD
100
AcDbEntity
  8
$DDT_AUDIT_GENERATED_(BA)
  6
Continuous
 62
     7
100
AcDbLine
 10
217.9939149261
 20
645.8703278245
 30
0.0
 11
217.9837082924
 21
645.7104710474
 31
0.0
  0
SPLINE
  5
347
330
2FD
100
AcDbEntity
  8
$DDT_AUDIT_GENERATED_(BA)
  6
Continuous
 62
     7
100
AcDbSpline
210
0.0
220
0.0
230
1.0
 70
     8
 71
     3
 72
    26
 73
    22
 74
     0
 42
0.0000000000726471
 43
0.0000000001
 40
0.0
 40
0.0
 40
0.0
 40
0.0
 40
0.0633734589752617
 40
0.1330972584163961
 40
0.2022776331337978
 40
0.2708133988344694
 40
0.3385070397126763
 40
0.4051195439579977
 40
0.4704203056705236
 40
0.5342319766338882
 40
0.5841532958870308
 40
0.6330778622740167
 40
0.6810757674240002
 40
0.7282781293336231
 40
0.774875413385065
 40
0.8134222862004546
 40
0.8518785579235011
 40
0.8904176781666889
 40
0.9292167092184821
 40
0.9684477940645465
 40
1.0
 40
1.0
 40
1.0
 40
1.0
 10
341.182291324899
 20
686.3275320069147
 30
0.0
 10
338.0189740832732
 20
686.7859944767763
 30
0.0
 10
332.4116840471181
 20
687.5848518997095
 30
0.0
 10
322.9965313200236
 20
688.5749263386457
 30
0.0
 10
313.5586092832654
 20
689.2418827515424
 30
0.0
 10
304.1278877105103
 20
689.5276723098289
 30
0.0
 10
294.8283278105797
 20
689.3795148008519
 30
0.0
 10
285.6919678629065
 20
688.7482823432076
 30
0.0
 10
276.7875606835083
 20
687.583750964506
 30
0.0
 10
268.7344014810368
 20
685.9510160751717
 30
0.0
 10
261.5454230399077
 20
683.9456053037002
 30
0.0
 10
255.1977060618619
 20
681.6824843959714
 30
0.0
 10
249.1559430606312
 20
678.9880188557793
 30
0.0
 10
243.4519712868468
 20
675.8511769561119
 30
0.0
 10
238.4081044175805
 20
672.4620282099484
 30
0.0
 10
233.986129193265
 20
668.9074130514318
 30
0.0
 10
230.131078551023
 20
665.2684654128245
 30
0.0
 10
226.5658229347556
 20
661.3151588134834
 30
0.0
 10
223.3338313379514
 20
657.0908247295233
 30
0.0
 10
220.5213987927463
 20
652.788455331051
 30
0.0
 10
219.1073439637589
 20
650.1212335193086
 30
0.0
 10
218.3687164155823
 20
648.7116295489483
 30
0.0
  0
LINE
  5
348
330
2FD
100
AcDbEntity
  8
$DDT_AUDIT_GENERATED_(BA)
  6
Continuous
 62
     7
100
AcDbLine
 10
334.6072852424
 20
678.9693130593
 30
0.0
 11
341.8182252101
 21
683.5723452234
 31
0.0
  0
ARC
  5
349
330
2FD
100
AcDbEntity
  8
$DDT_AUDIT_GENERATED_(BA)
  6
Continuous
 62
     7
100
AcDbCircle
 10
312.1266568148
 20
576.7758799938
 30
0.0
 40
104.2712039315564
100
AcDbArc
 50
78.0557553214
 51
106.9419167969
  0
ARC
  5
34A
330
2FD
100
AcDbEntity
  8
$DDT_AUDIT_GENERATED_(BA)
  6
Continuous
 62
     7
100
AcDbCircle
 10
285.2265581209
 20
666.8817896222
 30
0.0
 40
10.28106418463069
100
AcDbArc
 50
109.8720948446
 51
175.4286089587
  0
LINE
  5
34B
330
2FD
100
AcDbEntity
  8
$DDT_AUDIT_GENERATED_(BA)
  6
Continuous
 62
     7
100
AcDbLine
 10
272.6982633086
 20
647.0467959526
 30
0.0
 11
272.7913900484
 21
647.7041753491
 31
0.0
  0
LINE
  5
34C
330
2FD
100
AcDbEntity
  8
$DDT_AUDIT_GENERATED_(BA)
  6
Continuous
 62
     7
100
AcDbLine
 10
272.5001773214
 20
645.6485117751
 30
0.0
 11
272.6982633086
 21
647.0467959526
 31
0.0
  0
ARC
  5
34D
330
2FD
100
AcDbEntity
  8
$DDT_AUDIT_GENERATED_(BA)
  6
Continuous
 62
     7
100
AcDbCircle
 10
333.9820963034
 20
680.1634766203
 30
0.0
 40
1.343400471284028
100
AcDbArc
 50
258.5874840482
 51
303.0233416753
  0
SPLINE
  5
34E
330
2FD
100
AcDbEntity
  8
$DDT_AUDIT_GENERATED_(BA)
  6
Continuous
 62
     7
100
AcDbSpline
210
0.0
220
0.0
230
1.0
 70
     8
 71
     3
 72
    17
 73
    13
 74
     0
 42
0.0000000026449266
 43
0.0000000001
 40
0.0
 40
0.0
 40
0.0
 40
0.0
 40
0.0614449212784476
 40
0.1683026889895921
 40
0.2959827145632891
 40
0.4358687147543901
 40
0.5920330528142949
 40
0.7130594864735118
 40
0.8139920126494921
 40
0.899534435965114
 40
0.9700590774577691
 40
1.0
 40
1.0
 40
1.0
 40
1.0
 10
341.8115171720561
 20
683.5820618966857
 30
0.0
 10
341.8852552628202
 20
683.6221369777612
 30
0.0
 10
342.0571259166142
 20
683.7182265591131
 30
0.0
 10
342.3052183394101
 20
684.0113128375745
 30
0.0
 10
342.50792483058
 20
684.4324570573299
 30
0.0
 10
342.5659621137914
 20
684.9680784740734
 30
0.0
 10
342.4281521919242
 20
685.4812989196713
 30
0.0
 10
342.1560422378882
 20
685.8721407355397
 30
0.0
 10
341.8567902707925
 20
686.1173880274803
 30
0.0
 10
341.5700955082969
 20
686.2564634167403
 30
0.0
 10
341.3402698695774
 20
686.3211925523593
 30
0.0
 10
341.2237107900627
 20
686.3314783538053
 30
0.0
 10
341.1829639974707
 20
686.3348066821411
 30
0.0
  0
LINE
  5
350
330
2FD
100
AcDbEntity
  8
$DDT_AUDIT_GENERATED_(34F)
  6
Continuous
 62
     7
100
AcDbLine
 10
274.4248677025
 20
661.207147762
 30
0.0
 11
273.9600677921
 21
658.8159595165
 31
0.0
  0
LINE
  5
351
330
2FD
100
AcDbEntity
  8
$DDT_AUDIT_GENERATED_(DF)
  6
Continuous
 62
     7
100
AcDbLine
 10
481.7252329381
 20
641.968307088
 30
0.0
 11
460.9048908493
 21
639.2272570515
 31
0.0
  0
LINE
  5
352
330
2FD
100
AcDbEntity
  8
$DDT_AUDIT_GENERATED_(DF)
  6
Continuous
 62
     7
100
AcDbLine
 10
481.9668619113
 20
647.794250397
 30
0.0
 11
459.1636300997
 21
644.792147976
 31
0.0
  0
LINE
  5
353
330
2FD
100
AcDbEntity
  8
$DDT_AUDIT_GENERATED_(DF)
  6
Continuous
 62
     7
100
AcDbLine
 10
457.8432174494
 20
655.9708724315
 30
0.0
 11
480.3490158026
 21
658.9338169948
 31
0.0
  0
ARC
  5
354
330
2FD
100
AcDbEntity
  8
$DDT_AUDIT_GENERATED_(DF)
  6
Continuous
 62
     7
100
AcDbCircle
 10
476.018192743
 20
647.0110932437
 30
0.0
 40
16.99999999999982
100
AcDbArc
 50
187.4999999998
 51
207.2499227955
  0
ARC
  5
355
330
2FD
100
AcDbEntity
  8
$DDT_AUDIT_GENERATED_(DF)
  6
Continuous
 62
     7
100
AcDbCircle
 10
465.1122992679
 20
645.5753051293
 30
0.0
 40
16.99999999999982
100
AcDbArc
 50
347.7500772042
 51
7.4999999998
  0
LINE
  5
356
330
2FD
100
AcDbEntity
  8
$DDT_AUDIT_GENERATED_(DF)
  6
Continuous
 62
     7
100
AcDbLine
 10
481.9668619113
 20
647.794250397
 30
0.0
 11
480.5173114606
 21
658.8046791944
 31
0.0
  0
LINE
  5
357
330
2FD
100
AcDbEntity
  8
$DDT_AUDIT_GENERATED_(DF)
  6
Continuous
 62
     7
100
AcDbLine
 10
457.714079649
 20
655.8025767734
 30
0.0
 11
459.1636300997
 21
644.792147976
 31
0.0
  0
ARC
  5
358
330
2FD
100
AcDbEntity
  8
$DDT_AUDIT_GENERATED_(DF)
  6
Continuous
 62
     7
100
AcDbCircle
 10
480.3685947314
 20
658.7851002656
 30
0.0
 40
0.149999999999997
100
AcDbArc
 50
7.4999999998
 51
97.4999999998
  0
ARC
  5
359
330
2FD
100
AcDbEntity
  8
$DDT_AUDIT_GENERATED_(DF)
  6
Continuous
 62
     7
100
AcDbCircle
 10
457.8627963782
 20
655.8221557022
 30
0.0
 40
0.1499999999999952
100
AcDbArc
 50
97.4999999998
 51
187.4999999998
  0
LINE
  5
35A
330
2FD
100
AcDbEntity
  8
$DDT_AUDIT_GENERATED_(ED)
  6
Continuous
 62
     7
100
AcDbLine
 10
480.2968024326
 20
641.3263676121
 30
0.0
 11
462.4507949278
 21
638.9768961522
 31
0.0
  0
LINE
  5
35B
330
2FD
100
AcDbEntity
  8
$DDT_AUDIT_GENERATED_(ED)
  6
Continuous
 62
     7
100
AcDbLine
 10
480.2968024326
 20
641.3263676121
 30
0.0
 11
480.2380656461
 21
641.7725177997
 31
0.0
  0
LINE
  5
35C
330
2FD
100
AcDbEntity
  8
$DDT_AUDIT_GENERATED_(ED)
  6
Continuous
 62
     7
100
AcDbLine
 10
462.3920581413
 20
639.4230463398
 30
0.0
 11
462.4507949278
 21
638.9768961522
 31
0.0
  0
LINE
  5
35D
330
2FD
100
AcDbEntity
  8
$DDT_AUDIT_GENERATED_(2F2)
  6
Continuous
 62
     7
100
AcDbLine
 10
273.6190457924
 20
600.8503385912
 30
0.0
 11
216.8190457924
 21
600.8503385912
 31
0.0
  0
LINE
  5
35E
330
2FD
100
AcDbEntity
  8
$DDT_AUDIT_GENERATED_(2F2)
  6
Continuous
 62
     7
100
AcDbLine
 10
273.7190457924
 20
600.3503385912
 30
0.0
 11
273.7190457924
 21
600.7503385912
 31
0.0
  0
LINE
  5
35F
330
2FD
100
AcDbEntity
  8
$DDT_AUDIT_GENERATED_(2F2)
  6
Continuous
 62
     7
100
AcDbLine
 10
216.7190457924
 20
600.7503385912
 30
0.0
 11
216.7190457924
 21
600.3503385912
 31
0.0
  0
ARC
  5
360
330
2FD
100
AcDbEntity
  8
$DDT_AUDIT_GENERATED_(2F2)
  6
Continuous
 62
     7
100
AcDbCircle
 10
216.8190457924
 20
600.7503385912
 30
0.0
 40
0.1000000000000029
100
AcDbArc
 50
90.0
 51
180.0
  0
ARC
  5
361
330
2FD
100
AcDbEntity
  8
$DDT_AUDIT_GENERATED_(2F2)
  6
Continuous
 62
     7
100
AcDbCircle
 10
273.6190457924
 20
600.7503385912
 30
0.0
 40
0.0999999999999994
100
AcDbArc
 50
0.0
 51
90.0
  0
ARC
  5
362
330
2FD
100
AcDbEntity
  8
$DDT_AUDIT_GENERATED_(2F2)
  6
Continuous
 62
     7
100
AcDbCircle
 10
273.6190457924
 20
600.3503385912
 30
0.0
 40
0.1000000000000029
100
AcDbArc
 50
270.0
 51
0.0
  0
ARC
  5
363
330
2FD
100
AcDbEntity
  8
$DDT_AUDIT_GENERATED_(2F2)
  6
Continuous
 62
     7
100
AcDbCircle
 10
216.8190457924
 20
600.3503385912
 30
0.0
 40
0.0999999999999994
100
AcDbArc
 50
180.0
 51
270.0
  0
ENDBLK
  5
365
330
2FD
100
AcDbEntity
  8
0
100
AcDbBlockEnd
  0
BLOCK
  5
389
330
366
100
AcDbEntity
  8
0
100
AcDbBlockBegin
  2
SE2
 70
     0
 10
0.0
 20
0.0
 30
0.0
  3
SE2
  1

  0
ARC
  5
368
330
366
100
AcDbEntity
  8
$DDT_AUDIT_GENERATED_(83)
  6
Continuous
 62
     7
100
AcDbCircle
 10
114.3281618685
 20
123.9148783261
 30
0.0
 40
13.65924851806196
100
AcDbArc
 50
181.8763689953
 51
271.8355692939
  0
ARC
  5
369
330
366
100
AcDbEntity
  8
$DDT_AUDIT_GENERATED_(83)
  6
Continuous
 62
     7
100
AcDbCircle
 10
114.7517493307
 20
123.3042580377
 30
0.0
 40
15.51180379194109
100
AcDbArc
 50
358.5042781303
 51
359.8207041562
  0
ARC
  5
36A
330
366
100
AcDbEntity
  8
$DDT_AUDIT_GENERATED_(83)
  6
Continuous
 62
     7
100
AcDbCircle
 10
115.2310501882
 20
123.8851706891
 30
0.0
 40
13.63047834746527
100
AcDbArc
 50
268.043453528
 51
358.2446081827
  0
SPLINE
  5
36B
330
366
100
AcDbEntity
  8
$DDT_AUDIT_GENERATED_(83)
  6
Continuous
 62
     7
100
AcDbSpline
210
0.0
220
0.0
230
1.0
 70
     8
 71
     3
 72
    16
 73
    12
 74
     0
 42
0.0000000000509269
 43
0.0000000001
 40
0.2036906332039093
 40
0.2036906332039093
 40
0.2036906332039093
 40
0.2036906332039093
 40
0.2500000000000001
 40
0.2500000000000001
 40
0.5000000000000002
 40
0.5000000000000002
 40
0.6250000000000001
 40
0.6250000000000001
 40
0.7500000000000001
 40
0.7500000000000001
 40
1.0
 40
1.0
 40
1.0
 40
1.0
 10
100.673166800623
 20
279.8309740344714
 30
0.0
 10
100.6729604754792
 20
277.0592560767165
 30
0.0
 10
100.6727401261398
 20
274.277704279522
 30
0.0
 10
100.6712831774087
 20
256.4117240681836
 30
0.0
 10
100.6698583880496
 20
241.0304178003148
 30
0.0
 10
100.6689926605782
 20
217.1731491163797
 30
0.0
 10
100.6689165584985
 20
209.0765291614288
 30
0.0
 10
100.6693572879004
 20
192.6347372149654
 30
0.0
 10
100.6698819030351
 20
184.263590629539
 30
0.0
 10
100.6722616566714
 20
158.8262597263067
 30
0.0
 10
100.6754030490918
 20
141.4510252007617
 30
0.0
 10
100.6762373655242
 20
123.4676340504734
 30
0.0
  0
SPLINE
  5
36C
330
366
100
AcDbEntity
  8
$DDT_AUDIT_GENERATED_(83)
  6
Continuous
 62
     7
100
AcDbSpline
210
0.0
220
0.0
230
1.0
 70
     8
 71
     3
 72
    16
 73
    12
 74
     0
 42
0.0000000000509055
 43
0.0000000001
 40
0.2075913787176633
 40
0.2075913787176633
 40
0.2075913787176633
 40
0.2075913787176633
 40
0.2499999999999999
 40
0.2499999999999999
 40
0.4999999999999998
 40
0.4999999999999998
 40
0.6249999999999998
 40
0.6249999999999998
 40
0.7499999999999999
 40
0.7499999999999999
 40
1.0
 40
1.0
 40
1.0
 40
1.0
 10
128.858254916886
 20
279.1304127524203
 30
0.0
 10
128.8584459829276
 20
276.5906396415074
 30
0.0
 10
128.8586483388892
 20
274.042560325577
 30
0.0
 10
128.8600861077092
 20
256.4117698913393
 30
0.0
 10
128.8615108984593
 20
241.030458651931
 30
0.0
 10
128.8623766281138
 20
217.1731822408415
 30
0.0
 10
128.8624527309355
 20
209.0765596215298
 30
0.0
 10
128.8620120026689
 20
192.6347621129869
 30
0.0
 10
128.8614873879245
 20
184.2636126763321
 30
0.0
 10
128.8591076345299
 20
158.8262727296149
 30
0.0
 10
128.8559662404353
 20
141.45103192838
 30
0.0
 10
128.8551319237353
 20
123.4676340504734
 30
0.0
  0
ELLIPSE
  5
36D
330
366
100
AcDbEntity
  8
$DDT_AUDIT_GENERATED_(83)
  6
Continuous
 62
     7
100
AcDbEllipse
 10
114.7653486891
 20
121.7155237213
 30
0.0
 11
-15.49811222341739
 21
2.111461783194102E-6
 31
0.0
210
0.0
220
0.0
230
0.9999999999999999
 40
0.9914448614
 41
1.570818139061533
 42
3.141582321098404
  0
ELLIPSE
  5
36E
330
366
100
AcDbEntity
  8
$DDT_AUDIT_GENERATED_(83)
  6
Continuous
 62
     7
100
AcDbEllipse
 10
114.7660206002
 20
121.7155237213
 30
0.0
 11
15.49811222341725
 21
2.111458896614238E-6
 31
0.0
210
0.0
220
0.0
230
0.9999999999999999
 40
0.9914448614
 41
3.141602985253787
 42
4.712367168118236
  0
LINE
  5
36F
330
366
100
AcDbEntity
  8
$DDT_AUDIT_GENERATED_(83)
  6
Continuous
 62
     7
100
AcDbLine
 10
99.2678920898
 20
123.2581694666
 30
0.0
 11
99.2679083776
 21
121.7153628548
 31
0.0
  0
ARC
  5
370
330
366
100
AcDbEntity
  8
$DDT_AUDIT_GENERATED_(83)
  6
Continuous
 62
     7
100
AcDbCircle
 10
102.3018495376
 20
122.9496634403
 30
0.0
 40
3.030069169204515
100
AcDbArc
 50
173.5198841274
 51
181.3884222137
  0
LINE
  5
371
330
366
100
AcDbEntity
  8
$DDT_AUDIT_GENERATED_(83)
  6
Continuous
 62
     7
100
AcDbLine
 10
130.2634609116
 20
121.7153628548
 30
0.0
 11
130.2634771995
 21
123.2581694666
 31
0.0
  0
ARC
  5
372
330
366
100
AcDbEntity
  8
$DDT_AUDIT_GENERATED_(83)
  6
Continuous
 62
     7
100
AcDbCircle
 10
127.2295197515
 20
122.9496634403
 30
0.0
 40
3.030069169405415
100
AcDbArc
 50
358.6115777862
 51
6.4801158724
  0
SPLINE
  5
373
330
366
100
AcDbEntity
  8
$DDT_AUDIT_GENERATED_(83)
  6
Continuous
 62
     7
100
AcDbSpline
210
0.0
220
0.0
230
1.0
 70
     8
 71
     3
 72
    48
 73
    44
 74
     0
 42
0.0000000000503566
 43
0.0000000001
 40
0.0
 40
0.0
 40
0.0
 40
0.0
 40
0.0146676281278002
 40
0.0301337986010441
 40
0.0457360858469785
 40
0.061489434100249
 40
0.0774135711884338
 40
0.0934969701431077
 40
0.1097514220964152
 40
0.1261890170018315
 40
0.1428223456077068
 40
0.1596645597621061
 40
0.1767294429465483
 40
0.1940314917994021
 40
0.2115860108301273
 40
0.2294092230541924
 40
0.247518399971394
 40
0.2659320152144914
 40
0.2846699273868484
 40
0.3037421210532611
 40
0.323175560940087
 40
0.3429520498985973
 40
0.3630653633801552
 40
0.3835385180538009
 40
0.4043965279486765
 40
0.4256671533047388
 40
0.4473814532229174
 40
0.4695744938656271
 40
0.4922862625070188
 40
0.5155628656528163
 40
0.5394581270965266
 40
0.5640434412077396
 40
0.5893224438262255
 40
0.6151443916770941
 40
0.6415662488685099
 40
0.6686514671502363
 40
0.6964747021910983
 40
0.725124988221424
 40
0.7547102445753698
 40
0.7853637828913489
 40
0.8172554008914629
 40
0.8502981261192867
 40
0.8763113138453665
 40
0.8763113138453665
 40
0.8763113138453665
 40
0.8763113138453665
 10
130.263472109529
 20
123.2570666412932
 30
0.0
 10
130.2635159912124
 20
124.436076689167
 30
0.0
 10
130.2635936413207
 20
126.4781300256857
 30
0.0
 10
130.2637882607964
 20
129.8774049012295
 30
0.0
 10
130.2640210219942
 20
133.2619231781545
 30
0.0
 10
130.2642826517167
 20
136.6934206146114
 30
0.0
 10
130.2645676386019
 20
140.1429264397217
 30
0.0
 10
130.2648734750832
 20
143.6190261577229
 30
0.0
 10
130.2651964933756
 20
147.1194873056432
 30
0.0
 10
130.2655331933141
 20
150.6466056011081
 30
0.0
 10
130.2658797749663
 20
154.2020012535976
 30
0.0
 10
130.266232194073
 20
157.7876097165928
 30
0.0
 10
130.2665861070601
 20
161.4054311111549
 30
0.0
 10
130.2669368410841
 20
165.057617680751
 30
0.0
 10
130.2672793486138
 20
168.7464721162462
 30
0.0
 10
130.2676081671231
 20
172.4744742757662
 30
0.0
 10
130.2679173355824
 20
176.2443035627124
 30
0.0
 10
130.2682004362586
 20
180.0588724384257
 30
0.0
 10
130.2684500606125
 20
183.9205586371983
 30
0.0
 10
130.2686593859042
 20
187.8323566597336
 30
0.0
 10
130.2688357261378
 20
191.7946261439931
 30
0.0
 10
130.2689766389738
 20
195.8064667725748
 30
0.0
 10
130.2690820897711
 20
199.8668238187191
 30
0.0
 10
130.2691515770724
 20
203.9775771681167
 30
0.0
 10
130.2691848006979
 20
208.142870346717
 30
0.0
 10
130.2691813744337
 20
212.3673448516306
 30
0.0
 10
130.2691408760635
 20
216.6562674410659
 30
0.0
 10
130.2690628393463
 20
221.0156646184985
 30
0.0
 10
130.2689466809714
 20
225.4524965448318
 30
0.0
 10
130.2687919401062
 20
229.9748887932228
 30
0.0
 10
130.2685972439026
 20
234.5929238658864
 30
0.0
 10
130.2683643723845
 20
239.3139193971554
 30
0.0
 10
130.2680989606818
 20
244.1315745975791
 30
0.0
 10
130.2678045839828
 20
249.038925379614
 30
0.0
 10
130.2674863748688
 20
254.0330681049902
 30
0.0
 10
130.2671491362247
 20
259.1253401699305
 30
0.0
 10
130.266798512475
 20
264.328990901612
 30
0.0
 10
130.2664410801501
 20
269.6599421641422
 30
0.0
 10
130.2660847233298
 20
275.1375896995667
 30
0.0
 10
130.2657387426403
 20
280.7863107623531
 30
0.0
 10
130.265416580068
 20
286.6178773179479
 30
0.0
 10
130.2651579249109
 20
292.1400971522309
 30
0.0
 10
130.2650249784926
 20
295.7082511084996
 30
0.0
 10
130.2649739136973
 20
297.2783257084031
 30
0.0
  0
SPLINE
  5
374
330
366
100
AcDbEntity
  8
$DDT_AUDIT_GENERATED_(83)
  6
Continuous
 62
     7
100
AcDbSpline
210
0.0
220
0.0
230
1.0
 70
     8
 71
     3
 72
    47
 73
    43
 74
     0
 42
0.0000000000503711
 43
0.0000000001
 40
0.1204662396828951
 40
0.1204662396828951
 40
0.1204662396828951
 40
0.1204662396828951
 40
0.1549070981251701
 40
0.1898996105592314
 40
0.2236870607536052
 40
0.2564713376803924
 40
0.2879002448810463
 40
0.3180739899437856
 40
0.3471768960637485
 40
0.3753526484763235
 40
0.402715277868634
 40
0.4293574404830065
 40
0.455355924312335
 40
0.4807791530576609
 40
0.5055290152386368
 40
0.529534251414195
 40
0.5528714071506861
 40
0.5756055002902223
 40
0.5977911386374611
 40
0.619474895551254
 40
0.640697039482804
 40
0.6614928106898926
 40
0.6818933827690834
 40
0.701926599656219
 40
0.7216109826538726
 40
0.740880335685484
 40
0.7597684618551084
 40
0.7783132441322702
 40
0.7965376538563417
 40
0.8144627894058922
 40
0.8321082026939983
 40
0.8494921122492798
 40
0.8666315802033657
 40
0.8835426606611488
 40
0.9002405249560869
 40
0.9167395680802451
 40
0.9330534996663873
 40
0.9491954222045531
 40
0.9651780392580406
 40
0.9810007946938386
 40
0.9966704793432705
 40
1.0
 40
1.0
 40
1.0
 40
1.0
 10
99.26641416546536
 20
297.8659985699483
 30
0.0
 10
99.26634888943624
 20
295.7870941716916
 30
0.0
 10
99.26619083693055
 20
291.5918536636938
 30
0.0
 10
99.26588578206115
 20
285.3183618447504
 30
0.0
 10
99.26553181582292
 20
279.1142570630316
 30
0.0
 10
99.26515407031697
 20
273.0954729088376
 30
0.0
 10
99.26476864781311
 20
267.266479226619
 30
0.0
 10
99.26438877879167
 20
261.6331230742409
 30
0.0
 10
99.26402310213334
 20
256.170718595159
 30
0.0
 10
99.26367815944597
 20
250.8533871810288
 30
0.0
 10
99.26335936621625
 20
245.660697929695
 30
0.0
 10
99.2630714447547
 20
240.5761988464856
 30
0.0
 10
99.26281800257256
 20
235.5861153151487
 30
0.0
 10
99.2626042577218
 20
230.6888104232303
 30
0.0
 10
99.262435359978
 20
225.8916998740825
 30
0.0
 10
99.26230992535557
 20
221.2020074200925
 30
0.0
 10
99.26222725325188
 20
216.6166028289734
 30
0.0
 10
99.26218614293572
 20
212.1240661224009
 30
0.0
 10
99.26218566274476
 20
207.7148060528075
 30
0.0
 10
99.26222499807315
 20
203.3807473233564
 30
0.0
 10
99.26230345281775
 20
199.1150019058566
 30
0.0
 10
99.26242041410393
 20
194.9116250236949
 30
0.0
 10
99.26257536131925
 20
190.7654359807881
 30
0.0
 10
99.26276774983187
 20
186.6723146489668
 30
0.0
 10
99.26299695847115
 20
182.6347884765624
 30
0.0
 10
99.26326889757907
 20
178.6548162628872
 30
0.0
 10
99.26357238410179
 20
174.733197831357
 30
0.0
 10
99.26390043170139
 20
170.8645454562451
 30
0.0
 10
99.26424604646857
 20
167.0442842118291
 30
0.0
 10
99.26460299394326
 20
163.2690688388179
 30
0.0
 10
99.26496553850525
 20
159.5358500359409
 30
0.0
 10
99.26532843714577
 20
155.8418314979536
 30
0.0
 10
99.26568686621144
 20
152.1844280848345
 30
0.0
 10
99.26603636412128
 20
148.5612682638879
 30
0.0
 10
99.26637282583182
 20
144.9700589625952
 30
0.0
 10
99.26669232045678
 20
141.4089740401477
 30
0.0
 10
99.26699158811884
 20
137.8751394564506
 30
0.0
 10
99.26726606554134
 20
134.3701057645571
 30
0.0
 10
99.26751694278315
 20
130.8805676567128
 30
0.0
 10
99.2677210663493
 20
127.4520244343856
 30
0.0
 10
99.2678517102411
 20
124.8328849677621
 30
0.0
 10
99.26788603525544
 20
123.5230794652863
 30
0.0
 10
99.26789300241956
 20
123.2551030794443
 30
0.0
  0
SPLINE
  5
375
330
366
100
AcDbEntity
  8
$DDT_AUDIT_GENERATED_(BA)
  6
Continuous
 62
     7
100
AcDbSpline
210
0.0
220
0.0
230
1.0
 70
     8
 71
     3
 72
    20
 73
    16
 74
     0
 42
0.0000000002240206
 43
0.0000000001
 40
0.0
 40
0.0
 40
0.0
 40
0.0
 40
0.125
 40
0.125
 40
0.2499999999999999
 40
0.2499999999999999
 40
0.3749999999999999
 40
0.3749999999999999
 40
0.4999999999999999
 40
0.4999999999999999
 40
0.6249999999999999
 40
0.6249999999999999
 40
0.7499999999999998
 40
0.7499999999999998
 40
1.0
 40
1.0
 40
1.0
 40
1.0
 10
114.7869108928166
 20
372.2742870799578
 30
0.0
 10
112.619479855302
 20
372.2665918587972
 30
0.0
 10
110.5009248099801
 20
371.984073160589
 30
0.0
 10
106.4326854131759
 20
370.8522377390818
 30
0.0
 10
104.6199402610124
 20
370.0470552780155
 30
0.0
 10
101.3288835747187
 20
368.0851630058222
 30
0.0
 10
99.90873416002724
 20
366.9676348696318
 30
0.0
 10
97.34909077472359
 20
364.500611395464
 30
0.0
 10
96.21125971521776
 20
363.143000257804
 30
0.0
 10
94.23171325598099
 20
360.2872039625765
 30
0.0
 10
93.37880129473649
 20
358.7788542854431
 30
0.0
 10
91.92753024681303
 20
355.6026453708487
 30
0.0
 10
91.32601101677493
 20
353.920578217464
 30
0.0
 10
89.96440380555696
 20
348.7535170683749
 30
0.0
 10
89.62275355208426
 20
345.1561035487998
 30
0.0
 10
89.94115719675418
 20
341.450078990062
 30
0.0
  0
SPLINE
  5
376
330
366
100
AcDbEntity
  8
$DDT_AUDIT_GENERATED_(BA)
  6
Continuous
 62
     7
100
AcDbSpline
210
0.0
220
0.0
230
1.0
 70
     8
 71
     3
 72
    20
 73
    16
 74
     0
 42
0.0000000002234951
 43
0.0000000001
 40
0.0
 40
0.0
 40
0.0
 40
0.0
 40
0.25
 40
0.25
 40
0.5
 40
0.5
 40
0.625
 40
0.625
 40
0.75
 40
0.75
 40
0.8125
 40
0.8125
 40
0.875
 40
0.875
 40
1.0
 40
1.0
 40
1.0
 40
1.0
 10
139.5690585958794
 20
341.3732475353272
 30
0.0
 10
139.8976391770389
 20
345.080606863536
 30
0.0
 10
139.564390340273
 20
348.7064357609859
 30
0.0
 10
137.7566294475406
 20
355.6402045264685
 30
0.0
 10
136.3287204875705
 20
358.8194593141861
 30
0.0
 10
133.3605265237462
 20
363.1476348599498
 30
0.0
 10
132.2322577039266
 20
364.506235609489
 30
0.0
 10
129.6801679164661
 20
366.9864557980549
 30
0.0
 10
128.2301834998058
 20
368.1312195054659
 30
0.0
 10
125.777786376516
 20
369.5972720851324
 30
0.0
 10
124.9158238346513
 20
370.0439780828571
 30
0.0
 10
123.0798018730632
 20
370.8396225575576
 30
0.0
 10
122.1003728955074
 20
371.1875203943238
 30
0.0
 10
119.1015639574203
 20
372.0109008068245
 30
0.0
 10
116.9526444364966
 20
372.2797299534872
 30
0.0
 10
114.7869108928166
 20
372.2742870799578
 30
0.0
  0
ARC
  5
377
330
366
100
AcDbEntity
  8
$DDT_AUDIT_GENERATED_(BA)
  6
Continuous
 62
     7
100
AcDbCircle
 10
119.9920250493
 20
343.8682096801
 30
0.0
 40
30.14800183640392
100
AcDbArc
 50
184.6005593508
 51
210.1535776525
  0
ARC
  5
378
330
366
100
AcDbEntity
  8
$DDT_AUDIT_GENERATED_(BA)
  6
Continuous
 62
     7
100
AcDbCircle
 10
109.2150659962
 20
343.9514968001
 30
0.0
 40
30.46329325622999
100
AcDbArc
 50
330.4233929448
 51
355.1449855428
  0
ARC
  5
379
330
366
100
AcDbEntity
  8
$DDT_AUDIT_GENERATED_(BA)
  6
Continuous
 62
     7
100
AcDbCircle
 10
67.5810004988
 20
312.6148335962
 30
0.0
 40
30.87792384229355
100
AcDbArc
 50
9.5446288458
 51
31.4472956064
  0
ARC
  5
37A
330
366
100
AcDbEntity
  8
$DDT_AUDIT_GENERATED_(BA)
  6
Continuous
 62
     7
100
AcDbCircle
 10
162.9933329882
 20
312.5115943634
 30
0.0
 40
31.83582658162361
100
AcDbArc
 50
148.985386747
 51
170.2752115941
  0
ARC
  5
37B
330
366
100
AcDbEntity
  8
$DDT_AUDIT_GENERATED_(BA)
  6
Continuous
 62
     7
100
AcDbCircle
 10
-496.0150160364
 20
236.4872267556
 30
0.0
 40
599.5768614967185
100
AcDbArc
 50
1.555296073
 51
7.788014693
  0
ARC
  5
37C
330
366
100
AcDbEntity
  8
$DDT_AUDIT_GENERATED_(BA)
  6
Continuous
 62
     7
100
AcDbCircle
 10
714.078994893
 20
236.6919847569
 30
0.0
 40
588.0963533464068
100
AcDbArc
 50
172.0639450136
 51
178.4346327811
  0
ARC
  5
37D
330
366
100
AcDbEntity
  8
$DDT_AUDIT_GENERATED_(BA)
  6
Continuous
 62
     7
100
AcDbCircle
 10
114.7742323992
 20
270.3277650187
 30
0.0
 40
20.95994402987482
100
AcDbArc
 50
236.9423880882
 51
303.040025819
  0
ARC
  5
37E
330
366
100
AcDbEntity
  8
$DDT_AUDIT_GENERATED_(BA)
  6
Continuous
 62
     7
100
AcDbCircle
 10
114.7873763296
 20
345.3476555012
 30
0.0
 40
27.27156328150934
100
AcDbArc
 50
89.9767490354
 51
179.9556039455
  0
ARC
  5
37F
330
366
100
AcDbEntity
  8
$DDT_AUDIT_GENERATED_(BA)
  6
Continuous
 62
     7
100
AcDbCircle
 10
114.7475463735
 20
345.3514737706
 30
0.0
 40
27.26779026764997
100
AcDbArc
 50
359.8983479658
 51
89.8930540326
  0
ARC
  5
380
330
366
100
AcDbEntity
  8
$DDT_AUDIT_GENERATED_(BA)
  6
Continuous
 62
     7
100
AcDbCircle
 10
120.5218511545
 20
345.4536892582
 30
0.0
 40
33.00549750529378
100
AcDbArc
 50
180.9791047867
 51
217.0649996275
  0
ARC
  5
381
330
366
100
AcDbEntity
  8
$DDT_AUDIT_GENERATED_(BA)
  6
Continuous
 62
     7
100
AcDbCircle
 10
109.086036322
 20
345.4344549735
 30
0.0
 40
32.92847773201872
100
AcDbArc
 50
323.0915953429
 51
358.9380369611
  0
ARC
  5
382
330
366
100
AcDbEntity
  8
$DDT_AUDIT_GENERATED_(BA)
  6
Continuous
 62
     7
100
AcDbCircle
 10
161.763856415
 20
312.4269934434
 30
0.0
 40
29.49134256161939
100
AcDbArc
 50
149.8266643365
 51
170.3166547855
  0
ARC
  5
383
330
366
100
AcDbEntity
  8
$DDT_AUDIT_GENERATED_(BA)
  6
Continuous
 62
     7
100
AcDbCircle
 10
68.5567938866
 20
312.4509786148
 30
0.0
 40
28.79576460821801
100
AcDbArc
 50
9.567869216
 51
30.5039304575
  0
ARC
  5
384
330
366
100
AcDbEntity
  8
$DDT_AUDIT_GENERATED_(BA)
  6
Continuous
 62
     7
100
AcDbCircle
 10
679.5512767059
 20
240.39788492
 30
0.0
 40
552.243561991131
100
AcDbArc
 50
171.9862698975
 51
178.707243562
  0
SPLINE
  5
385
330
366
100
AcDbEntity
  8
$DDT_AUDIT_GENERATED_(BA)
  6
Continuous
 62
     7
100
AcDbSpline
210
0.0
220
0.0
230
1.0
 70
     8
 71
     3
 72
    29
 73
    25
 74
     0
 42
0.000000000154775
 43
0.0000000001
 40
0.0
 40
0.0
 40
0.0
 40
0.0
 40
0.0367047833617746
 40
0.0749948870414737
 40
0.1137479234883758
 40
0.1529969039324513
 40
0.1925101903836193
 40
0.2326270763242898
 40
0.2733686047724888
 40
0.3147561025645968
 40
0.3568072041617774
 40
0.3995348949584974
 40
0.4429463076495175
 40
0.4870412850705104
 40
0.5318250632145248
 40
0.5774602851178054
 40
0.6262141132879001
 40
0.6769812879986231
 40
0.7299917253259154
 40
0.785390788901003
 40
0.8431937797798061
 40
0.9031505623580169
 40
0.9645927614206344
 40
1.0
 40
1.0
 40
1.0
 40
1.0
 10
96.94411029773651
 20
317.2378695758854
 30
0.0
 10
97.05497623349005
 20
316.3950299182147
 30
0.0
 10
97.24579116476411
 20
314.942610197158
 30
0.0
 10
97.56409765165083
 20
312.5047319577867
 30
0.0
 10
97.87754731414249
 20
310.0635261982688
 30
0.0
 10
98.1862369658717
 20
307.5686570601727
 30
0.0
 10
98.48751984498418
 20
305.0397794238423
 30
0.0
 10
98.78074595383943
 20
302.4692279940898
 30
0.0
 10
99.06510777160432
 20
299.8513427995813
 30
0.0
 10
99.33902036573636
 20
297.1852567321934
 30
0.0
 10
99.60069462908109
 20
294.4708248145089
 30
0.0
 10
99.84822253886107
 20
291.7080479298313
 30
0.0
 10
100.0793664564883
 20
288.8973363810086
 30
0.0
 10
100.2922935485673
 20
286.0392846294421
 30
0.0
 10
100.4830751982464
 20
283.1309892150455
 30
0.0
 10
100.6599098684972
 20
280.1210902341535
 30
0.0
 10
100.8282316825645
 20
276.9819612114746
 30
0.0
 10
100.992052835517
 20
273.684725877069
 30
0.0
 10
101.1549789105741
 20
270.2456649490865
 30
0.0
 10
101.3230795006713
 20
266.660042587871
 30
0.0
 10
101.503962724888
 20
262.920952137564
 30
0.0
 10
101.7052021056999
 20
259.0887944972353
 30
0.0
 10
101.9047992883825
 20
255.6357440509317
 30
0.0
 10
102.038783910633
 20
253.697442201699
 30
0.0
 10
102.0967329067239
 20
252.86236850527
 30
0.0
  0
ARC
  5
386
330
366
100
AcDbEntity
  8
$DDT_AUDIT_GENERATED_(BA)
  6
Continuous
 62
     7
100
AcDbCircle
 10
125.9549442154
 20
252.9602376702
 30
0.0
 40
1.499999999999964
100
AcDbArc
 50
301.806075378
 51
356.0320288251
  0
ARC
  5
387
330
366
100
AcDbEntity
  8
$DDT_AUDIT_GENERATED_(BA)
  6
Continuous
 62
     7
100
AcDbCircle
 10
103.5886431391
 20
252.9637956676
 30
0.0
 40
1.49999999999999
100
AcDbArc
 50
183.915220045
 51
238.1782809328
  0
ARC
  5
388
330
366
100
AcDbEntity
  8
$DDT_AUDIT_GENERATED_(BA)
  6
Continuous
 62
     7
100
AcDbCircle
 10
114.7693732258
 20
269.6445312151
 30
0.0
 40
21.58108967895438
100
AcDbArc
 50
236.3050201051
 51
303.6978949436
  0
ENDBLK
  5
38A
330
366
100
AcDbEntity
  8
0
100
AcDbBlockEnd
  0
ENDSEC
  0
SECTION
  2
ENTITIES
  0
INSERT
  5
5F
330
1F
100
AcDbEntity
  8
Default
100
AcDbBlockReference
  2
SEANNOT_GROUP
 10
0.0
 20
0.0
 30
0.0
  0
INSERT
  5
66
330
1F
100
AcDbEntity
  8
Default
100
AcDbBlockReference
  2
SEANNOT_GROUP1
 10
0.0
 20
0.0
 30
0.0
  0
INSERT
  5
6C
330
1F
100
AcDbEntity
  8
Default
100
AcDbBlockReference
  2
SEANNOT_GROUP2
 10
0.0
 20
0.0
 30
0.0
  0
INSERT
  5
76
330
1F
100
AcDbEntity
  8
Default
100
AcDbBlockReference
  2
SE
 10
0.0
 20
0.0
 30
0.0
  0
INSERT
  5
2FE
330
1F
100
AcDbEntity
  8
Default
100
AcDbBlockReference
  2
SE1
 10
0.0
 20
0.0
 30
0.0
  0
INSERT
  5
367
330
1F
100
AcDbEntity
  8
Default
100
AcDbBlockReference
  2
SE2
 10
0.0
 20
0.0
 30
0.0
  0
TEXT
  5
38C
330
1F
100
AcDbEntity
  8
Default
  6
Continuous
 62
     7
100
AcDbText
 10
5.9362635081
 20
53.4225120485
 30
0.0
 40
10.0
  1
Grohe AG^J
  7
SEACAD_seiso_ttf
 11
5.9362635081
 21
63.4225120485
 31
0.0
100
AcDbText
 73
     3
  0
TEXT
  5
38D
330
1F
100
AcDbEntity
  8
Default
  6
Continuous
 62
     7
100
AcDbText
 10
5.9362635081
 20
37.0588756849
 30
0.0
 40
10.0
  1
 
  7
SEACAD_seiso_ttf
 11
5.9362635081
 21
47.0588756849
 31
0.0
100
AcDbText
 73
     3
  0
TEXT
  5
38E
330
1F
100
AcDbEntity
  8
Default
  6
Continuous
 62
     7
100
AcDbText
 10
5.9362635081
 20
20.6952393213
 30
0.0
 40
10.0
  1
ecn: 
  7
SEACAD_seiso_ttf
 11
5.9362635081
 21
30.6952393213
 31
0.0
100
AcDbText
 73
     3
  0
TEXT
  5
38F
330
1F
100
AcDbEntity
  8
Default
  6
Continuous
 62
     7
100
AcDbText
 10
5.9362635081
 20
4.3316029576
 30
0.0
 40
10.0
  1
unit: mm
  7
SEACAD_seiso_ttf
 11
5.9362635081
 21
14.3316029576
 31
0.0
100
AcDbText
 73
     3
  0
LINE
  5
390
330
1F
100
AcDbEntity
  8
Default
  6
Continuous
 62
     7
100
AcDbLine
 10
0.0
 20
0.0
 30
0.0
 11
100.0
 21
0.0
 31
0.0
  0
LINE
  5
391
330
1F
100
AcDbEntity
  8
Default
  6
Continuous
 62
     7
100
AcDbLine
 10
0.0
 20
0.0
 30
0.0
 11
0.0
 21
100.0
 31
0.0
  0
TEXT
  5
392
330
1F
100
AcDbEntity
  8
Default
  6
Continuous
 62
     7
100
AcDbText
 10
24.3923665681
 20
-18.2375342018
 30
0.0
 40
10.0
  1
100 mm
  7
SEACAD_seiso_ttf
 11
24.3923665681
 21
-8.2375342018
 31
0.0
100
AcDbText
 73
     3
  0
TEXT
  5
393
330
1F
100
AcDbEntity
  8
Default
  6
Continuous
 62
     7
100
AcDbText
 10
-7.6150308803
 20
24.6231930421
 30
0.0
 40
10.0
  1
100 mm
 50
90.0
  7
SEACAD_seiso_ttf
 11
-17.6150308803
 21
24.6231930421
 31
0.0
100
AcDbText
 73
     3
  0
TEXT
  5
394
330
1F
100
AcDbEntity
  8
Default
  6
Continuous
 62
     7
100
AcDbText
 10
28.4878128572
 20
20.0907663715
 30
0.0
 40
10.0
  1
0
  7
SEACAD_seiso_ttf
 11
28.4878128572
 21
30.0907663715
 31
0.0
100
AcDbText
 73
     3
  0
TEXT
  5
395
330
1F
100
AcDbEntity
  8
Default
  6
Continuous
 62
     7
100
AcDbText
 10
5.9012241913
 20
36.7242780188
 30
0.0
 40
10.0
  1
31133001
  7
SEACAD_seiso_ttf
 11
5.9012241913
 21
46.7242780188
 31
0.0
100
AcDbText
 73
     3
  0
ENDSEC
  0
SECTION
  2
OBJECTS
  0
DICTIONARY
  5
C
330
0
100
AcDbDictionary
281
     1
  3
ACAD_GROUP
350
D
  3
ACAD_LAYOUT
350
1A
  3
ACAD_MLEADERSTYLE
350
399
  3
ACAD_MLINESTYLE
350
17
  3
ACAD_PLOTSETTINGS
350
19
  3
ACAD_PLOTSTYLENAME
350
E
  3
ACAD_SCALELIST
350
3B
  3
ACAD_TABLESTYLE
350
398
  3
ACAD_VISUALSTYLE
350
2A
  3
AcDbVariableDictionary
350
396
  0
DICTIONARY
  5
D
102
{ACAD_REACTORS
330
C
102
}
330
C
100
AcDbDictionary
281
     1
  0
DICTIONARY
  5
1A
102
{ACAD_REACTORS
330
C
102
}
330
C
100
AcDbDictionary
281
     1
  3
Layout1
350
1E
  3
Model
350
22
  0
DICTIONARY
  5
399
102
{ACAD_REACTORS
330
C
102
}
330
C
100
AcDbDictionary
281
     1
  0
DICTIONARY
  5
17
102
{ACAD_REACTORS
330
C
102
}
330
C
100
AcDbDictionary
281
     1
  3
Standard
350
18
  0
DICTIONARY
  5
19
102
{ACAD_REACTORS
330
C
102
}
330
C
100
AcDbDictionary
281
     1
  0
ACDBDICTIONARYWDFLT
  5
E
102
{ACAD_REACTORS
330
C
102
}
330
C
100
AcDbDictionary
281
     1
  3
Normal
350
F
100
AcDbDictionaryWithDefault
340
F
  0
DICTIONARY
  5
3B
102
{ACAD_REACTORS
330
C
102
}
330
C
100
AcDbDictionary
281
     1
  3
A0
350
3C
  3
A1
350
3D
  3
A2
350
3E
  3
A3
350
3F
  3
A4
350
40
  3
A5
350
41
  3
A6
350
42
  3
A7
350
43
  3
A8
350
44
  3
A9
350
45
  3
B0
350
46
  3
B1
350
47
  3
B2
350
48
  3
B3
350
49
  3
B4
350
4A
  3
B5
350
4B
  3
B6
350
4C
  3
B7
350
4D
  3
B8
350
4E
  3
B9
350
4F
  3
C0
350
50
  3
C1
350
51
  3
C2
350
52
  3
C3
350
53
  3
C4
350
54
  3
C5
350
55
  3
C6
350
56
  3
C7
350
57
  3
C8
350
58
  3
C9
350
59
  3
D0
350
5A
  3
D1
350
5B
  3
D2
350
5C
  0
DICTIONARY
  5
398
102
{ACAD_REACTORS
330
C
102
}
330
C
100
AcDbDictionary
281
     1
  0
DICTIONARY
  5
2A
102
{ACAD_REACTORS
330
C
102
}
330
C
100
AcDbDictionary
281
     1
  3
2dWireframe
350
2F
  3
3D Hidden
350
31
  3
3dWireframe
350
30
  3
Basic
350
32
  3
Brighten
350
36
  3
ColorChange
350
3A
  3
Conceptual
350
34
  3
Dim
350
35
  3
Facepattern
350
39
  3
Flat
350
2B
  3
FlatWithEdges
350
2C
  3
Gouraud
350
2D
  3
GouraudWithEdges
350
2E
  3
Linepattern
350
38
  3
Realistic
350
33
  3
Thicken
350
37
  0
DICTIONARY
  5
396
102
{ACAD_REACTORS
330
C
102
}
330
C
100
AcDbDictionary
281
     1
  3
CANNOSCALE
350
397
  3
PSOLHEIGHT
350
39B
  3
PSOLWIDTH
350
39A
  0
LAYOUT
  5
1E
102
{ACAD_REACTORS
330
1A
102
}
330
1A
100
AcDbPlotSettings
  1

  2
none_device
  4

  6

 40
0.0
 41
0.0
 42
0.0
 43
0.0
 44
0.0
 45
0.0
 46
0.0
 47
0.0
 48
0.0
 49
0.0
140
0.0
141
0.0
142
1.0
143
1.0
 70
   688
 72
     0
 73
     0
 74
     5
  7

 75
    16
147
1.0
148
0.0
149
0.0
100
AcDbLayout
  1
Layout1
 70
     1
 71
     1
 10
0.0
 20
0.0
 11
1682.0
 21
2378.0
 12
0.0
 22
0.0
 32
0.0
 14
0.0
 24
0.0
 34
0.0
 15
1682.0
 25
2378.0
 35
0.0
146
0.0
 13
0.0
 23
0.0
 33
0.0
 16
1.0
 26
0.0
 36
0.0
 17
0.0
 27
1.0
 37
0.0
 76
     0
330
1B
  0
LAYOUT
  5
22
102
{ACAD_REACTORS
330
1A
102
}
330
1A
100
AcDbPlotSettings
  1

  2
none_device
  4

  6

 40
0.0
 41
0.0
 42
0.0
 43
0.0
 44
0.0
 45
0.0
 46
0.0
 47
0.0
 48
0.0
 49
0.0
140
0.0
141
0.0
142
1.0
143
1.0
 70
  1712
 72
     0
 73
     0
 74
     0
  7

 75
     0
147
1.0
148
0.0
149
0.0
100
AcDbLayout
  1
Model
 70
     1
 71
     0
 10
0.0
 20
0.0
 11
1682.0
 21
2378.0
 12
0.0
 22
0.0
 32
0.0
 14
0.0
 24
0.0
 34
0.0
 15
1682.0
 25
2378.0
 35
0.0
146
0.0
 13
0.0
 23
0.0
 33
0.0
 16
1.0
 26
0.0
 36
0.0
 17
0.0
 27
1.0
 37
0.0
 76
     0
330
1F
331
29
  0
MLINESTYLE
  5
18
102
{ACAD_REACTORS
330
17
102
}
330
17
100
AcDbMlineStyle
  2
Standard
 70
     0
  3

 62
   256
 51
90.0
 52
90.0
 71
     2
 49
0.5
 62
   256
  6
BYLAYER
 49
-0.5
 62
   256
  6
BYLAYER
  0
ACDBPLACEHOLDER
  5
F
102
{ACAD_REACTORS
330
E
102
}
330
E
  0
SCALE
  5
3C
102
{ACAD_REACTORS
330
3B
102
}
330
3B
100
AcDbScale
 70
     0
300
1:1
140
1.0
141
1.0
290
     1
  0
SCALE
  5
3D
102
{ACAD_REACTORS
330
3B
102
}
330
3B
100
AcDbScale
 70
     0
300
1:2
140
1.0
141
2.0
290
     0
  0
SCALE
  5
3E
102
{ACAD_REACTORS
330
3B
102
}
330
3B
100
AcDbScale
 70
     0
300
1:4
140
1.0
141
4.0
290
     0
  0
SCALE
  5
3F
102
{ACAD_REACTORS
330
3B
102
}
330
3B
100
AcDbScale
 70
     0
300
1:5
140
1.0
141
5.0
290
     0
  0
SCALE
  5
40
102
{ACAD_REACTORS
330
3B
102
}
330
3B
100
AcDbScale
 70
     0
300
1:8
140
1.0
141
8.0
290
     0
  0
SCALE
  5
41
102
{ACAD_REACTORS
330
3B
102
}
330
3B
100
AcDbScale
 70
     0
300
1:10
140
1.0
141
10.0
290
     0
  0
SCALE
  5
42
102
{ACAD_REACTORS
330
3B
102
}
330
3B
100
AcDbScale
 70
     0
300
1:16
140
1.0
141
16.0
290
     0
  0
SCALE
  5
43
102
{ACAD_REACTORS
330
3B
102
}
330
3B
100
AcDbScale
 70
     0
300
1:20
140
1.0
141
20.0
290
     0
  0
SCALE
  5
44
102
{ACAD_REACTORS
330
3B
102
}
330
3B
100
AcDbScale
 70
     0
300
1:30
140
1.0
141
30.0
290
     0
  0
SCALE
  5
45
102
{ACAD_REACTORS
330
3B
102
}
330
3B
100
AcDbScale
 70
     0
300
1:40
140
1.0
141
40.0
290
     0
  0
SCALE
  5
46
102
{ACAD_REACTORS
330
3B
102
}
330
3B
100
AcDbScale
 70
     0
300
1:50
140
1.0
141
50.0
290
     0
  0
SCALE
  5
47
102
{ACAD_REACTORS
330
3B
102
}
330
3B
100
AcDbScale
 70
     0
300
1:100
140
1.0
141
100.0
290
     0
  0
SCALE
  5
48
102
{ACAD_REACTORS
330
3B
102
}
330
3B
100
AcDbScale
 70
     0
300
2:1
140
2.0
141
1.0
290
     0
  0
SCALE
  5
49
102
{ACAD_REACTORS
330
3B
102
}
330
3B
100
AcDbScale
 70
     0
300
4:1
140
4.0
141
1.0
290
     0
  0
SCALE
  5
4A
102
{ACAD_REACTORS
330
3B
102
}
330
3B
100
AcDbScale
 70
     0
300
8:1
140
8.0
141
1.0
290
     0
  0
SCALE
  5
4B
102
{ACAD_REACTORS
330
3B
102
}
330
3B
100
AcDbScale
 70
     0
300
10:1
140
10.0
141
1.0
290
     0
  0
SCALE
  5
4C
102
{ACAD_REACTORS
330
3B
102
}
330
3B
100
AcDbScale
 70
     0
300
100:1
140
100.0
141
1.0
290
     0
  0
SCALE
  5
4D
102
{ACAD_REACTORS
330
3B
102
}
330
3B
100
AcDbScale
 70
     0
300
1/128" = 1'-0"
140
0.0078125
141
12.0
290
     0
  0
SCALE
  5
4E
102
{ACAD_REACTORS
330
3B
102
}
330
3B
100
AcDbScale
 70
     0
300
1/64" = 1'-0"
140
0.015625
141
12.0
290
     0
  0
SCALE
  5
4F
102
{ACAD_REACTORS
330
3B
102
}
330
3B
100
AcDbScale
 70
     0
300
1/32" = 1'-0"
140
0.03125
141
12.0
290
     0
  0
SCALE
  5
50
102
{ACAD_REACTORS
330
3B
102
}
330
3B
100
AcDbScale
 70
     0
300
1/16" = 1'-0"
140
0.0625
141
12.0
290
     0
  0
SCALE
  5
51
102
{ACAD_REACTORS
330
3B
102
}
330
3B
100
AcDbScale
 70
     0
300
3/32" = 1'-0"
140
0.09375
141
12.0
290
     0
  0
SCALE
  5
52
102
{ACAD_REACTORS
330
3B
102
}
330
3B
100
AcDbScale
 70
     0
300
1/8" = 1'-0"
140
0.125
141
12.0
290
     0
  0
SCALE
  5
53
102
{ACAD_REACTORS
330
3B
102
}
330
3B
100
AcDbScale
 70
     0
300
3/16" = 1'-0"
140
0.1875
141
12.0
290
     0
  0
SCALE
  5
54
102
{ACAD_REACTORS
330
3B
102
}
330
3B
100
AcDbScale
 70
     0
300
1/4" = 1'-0"
140
0.25
141
12.0
290
     0
  0
SCALE
  5
55
102
{ACAD_REACTORS
330
3B
102
}
330
3B
100
AcDbScale
 70
     0
300
3/8" = 1'-0"
140
0.375
141
12.0
290
     0
  0
SCALE
  5
56
102
{ACAD_REACTORS
330
3B
102
}
330
3B
100
AcDbScale
 70
     0
300
1/2" = 1'-0"
140
0.5
141
12.0
290
     0
  0
SCALE
  5
57
102
{ACAD_REACTORS
330
3B
102
}
330
3B
100
AcDbScale
 70
     0
300
3/4" = 1'-0"
140
0.75
141
12.0
290
     0
  0
SCALE
  5
58
102
{ACAD_REACTORS
330
3B
102
}
330
3B
100
AcDbScale
 70
     0
300
1" = 1'-0"
140
1.0
141
12.0
290
     0
  0
SCALE
  5
59
102
{ACAD_REACTORS
330
3B
102
}
330
3B
100
AcDbScale
 70
     0
300
1-1/2" = 1'-0"
140
1.5
141
12.0
290
     0
  0
SCALE
  5
5A
102
{ACAD_REACTORS
330
3B
102
}
330
3B
100
AcDbScale
 70
     0
300
3" = 1'-0"
140
3.0
141
12.0
290
     0
  0
SCALE
  5
5B
102
{ACAD_REACTORS
330
3B
102
}
330
3B
100
AcDbScale
 70
     0
300
6" = 1'-0"
140
6.0
141
12.0
290
     0
  0
SCALE
  5
5C
102
{ACAD_REACTORS
330
3B
102
}
330
3B
100
AcDbScale
 70
     0
300
1'-0" = 1'-0"
140
12.0
141
12.0
290
     0
  0
VISUALSTYLE
  5
2F
102
{ACAD_REACTORS
330
2A
102
}
330
2A
100
AcDbVisualStyle
  2
2dWireframe
 70
     4
 71
     0
 72
     2
 73
     0
 90
        0
 40
-0.6
 41
-30.0
 62
     5
 63
     7
 74
     1
 91
        4
 64
     7
 65
   257
 75
     1
175
     1
 42
1.0
 92
        0
 66
   257
 43
1.0
 76
     1
 77
     6
 78
     2
 67
     7
 79
     5
170
     0
171
     0
290
     0
174
     0
 93
        1
 44
0.0
173
     0
291
     0
 45
0.0
1001
ACAD
1000
AcDbSavedByObjectVersion
1070
     0
  0
VISUALSTYLE
  5
31
102
{ACAD_REACTORS
330
2A
102
}
330
2A
100
AcDbVisualStyle
  2
3D Hidden
 70
     6
 71
     1
 72
     2
 73
     2
 90
        0
 40
-0.6
 41
-30.0
 62
     5
 63
     7
 74
     2
 91
        2
 64
     7
 65
   257
 75
     2
175
     1
 42
40.0
 92
        0
 66
   257
 43
1.0
 76
     1
 77
     6
 78
     2
 67
     7
 79
     3
170
     0
171
     0
290
     0
174
     0
 93
        1
 44
0.0
173
     0
291
     0
 45
0.0
1001
ACAD
1000
AcDbSavedByObjectVersion
1070
     0
  0
VISUALSTYLE
  5
30
102
{ACAD_REACTORS
330
2A
102
}
330
2A
100
AcDbVisualStyle
  2
3dWireframe
 70
     5
 71
     0
 72
     2
 73
     0
 90
        0
 40
-0.6
 41
-30.0
 62
     5
 63
     7
 74
     1
 91
        4
 64
     7
 65
   257
 75
     1
175
     1
 42
1.0
 92
        0
 66
   257
 43
1.0
 76
     1
 77
     6
 78
     2
 67
     7
 79
     5
170
     0
171
     0
290
     0
174
     0
 93
        1
 44
0.0
173
     0
291
     0
 45
0.0
1001
ACAD
1000
AcDbSavedByObjectVersion
1070
     0
  0
VISUALSTYLE
  5
32
102
{ACAD_REACTORS
330
2A
102
}
330
2A
100
AcDbVisualStyle
  2
Basic
 70
     7
 71
     1
 72
     0
 73
     1
 90
        0
 40
-0.6
 41
-30.0
 62
     5
 63
     7
 74
     0
 91
        4
 64
     7
 65
   257
 75
     1
175
     1
 42
1.0
 92
        8
 66
     7
 43
1.0
 76
     1
 77
     6
 78
     2
 67
     7
 79
     5
170
     0
171
     0
290
     0
174
     0
 93
        1
 44
0.0
173
     0
291
     1
 45
0.0
1001
ACAD
1000
AcDbSavedByObjectVersion
1070
     0
  0
VISUALSTYLE
  5
36
102
{ACAD_REACTORS
330
2A
102
}
330
2A
100
AcDbVisualStyle
  2
Brighten
 70
    12
 71
     2
 72
     2
 73
     0
 90
        0
 40
-0.6
 41
-30.0
 62
     5
 63
     7
 74
     1
 91
        4
 64
     7
 65
   257
 75
     1
175
     1
 42
1.0
 92
        8
 66
     7
 43
1.0
 76
     1
 77
     6
 78
     2
 67
     7
 79
     5
170
     0
171
     0
290
     0
174
     0
 93
        1
 44
50.0
173
     0
291
     1
 45
0.0
1001
ACAD
1000
AcDbSavedByObjectVersion
1070
     0
  0
VISUALSTYLE
  5
3A
102
{ACAD_REACTORS
330
2A
102
}
330
2A
100
AcDbVisualStyle
  2
ColorChange
 70
    16
 71
     2
 72
     2
 73
     3
 90
        0
 40
-0.6
 41
-30.0
 62
     5
 63
     8
 74
     1
 91
        4
 64
     7
 65
   257
 75
     1
175
     1
 42
1.0
 92
        8
 66
     8
 43
1.0
 76
     1
 77
     6
 78
     2
 67
     7
 79
     5
170
     0
171
     0
290
     0
174
     0
 93
        1
 44
0.0
173
     0
291
     1
 45
0.0
1001
ACAD
1000
AcDbSavedByObjectVersion
1070
     0
  0
VISUALSTYLE
  5
34
102
{ACAD_REACTORS
330
2A
102
}
330
2A
100
AcDbVisualStyle
  2
Conceptual
 70
     9
 71
     3
 72
     2
 73
     0
 90
        0
 40
-0.6
 41
-30.0
 62
     5
 63
     7
 74
     2
 91
        2
 64
     7
 65
   257
 75
     1
175
     1
 42
40.0
 92
        8
 66
     7
 43
1.0
 76
     1
 77
     6
 78
     2
 67
     7
 79
     3
170
     0
171
     0
290
     0
174
     0
 93
        1
 44
0.0
173
     0
291
     0
 45
0.0
1001
ACAD
1000
AcDbSavedByObjectVersion
1070
     0
  0
VISUALSTYLE
  5
35
102
{ACAD_REACTORS
330
2A
102
}
330
2A
100
AcDbVisualStyle
  2
Dim
 70
    11
 71
     2
 72
     2
 73
     0
 90
        0
 40
-0.6
 41
-30.0
 62
     5
 63
     7
 74
     1
 91
        4
 64
     7
 65
   257
 75
     1
175
     1
 42
1.0
 92
        8
 66
     7
 43
1.0
 76
     1
 77
     6
 78
     2
 67
     7
 79
     5
170
     0
171
     0
290
     0
174
     0
 93
        1
 44
-50.0
173
     0
291
     1
 45
0.0
1001
ACAD
1000
AcDbSavedByObjectVersion
1070
     0
  0
VISUALSTYLE
  5
39
102
{ACAD_REACTORS
330
2A
102
}
330
2A
100
AcDbVisualStyle
  2
Facepattern
 70
    15
 71
     2
 72
     2
 73
     0
 90
        0
 40
-0.6
 41
-30.0
 62
     5
 63
     7
 74
     1
 91
        4
 64
     7
 65
   257
 75
     1
175
     1
 42
1.0
 92
        8
 66
     7
 43
1.0
 76
     1
 77
     6
 78
     2
 67
     7
 79
     5
170
     0
171
     0
290
     0
174
     0
 93
        1
 44
0.0
173
     0
291
     1
 45
0.0
1001
ACAD
1000
AcDbSavedByObjectVersion
1070
     0
  0
VISUALSTYLE
  5
2B
102
{ACAD_REACTORS
330
2A
102
}
330
2A
100
AcDbVisualStyle
  2
Flat
 70
     0
 71
     2
 72
     1
 73
     1
 90
        2
 40
-0.6
 41
30.0
 62
     5
 63
     7
 74
     0
 91
        4
 64
     7
 65
   257
 75
     1
175
     1
 42
1.0
 92
        8
 66
     7
 43
1.0
 76
     1
 77
     6
 78
     2
 67
     7
 79
     5
170
     0
171
     0
290
     0
174
     0
 93
       13
 44
0.0
173
     0
291
     1
 45
0.0
1001
ACAD
1000
AcDbSavedByObjectVersion
1070
     0
  0
VISUALSTYLE
  5
2C
102
{ACAD_REACTORS
330
2A
102
}
330
2A
100
AcDbVisualStyle
  2
FlatWithEdges
 70
     1
 71
     2
 72
     1
 73
     1
 90
        2
 40
-0.6
 41
30.0
 62
     5
 63
     7
 74
     1
 91
        4
 64
     7
 65
   257
 75
     1
175
     1
 42
1.0
 92
        0
 66
   257
 43
1.0
 76
     1
 77
     6
 78
     2
 67
     7
 79
     5
170
     0
171
     0
290
     0
174
     0
 93
       13
 44
0.0
173
     0
291
     1
 45
0.0
1001
ACAD
1000
AcDbSavedByObjectVersion
1070
     0
  0
VISUALSTYLE
  5
2D
102
{ACAD_REACTORS
330
2A
102
}
330
2A
100
AcDbVisualStyle
  2
Gouraud
 70
     2
 71
     2
 72
     2
 73
     1
 90
        2
 40
-0.6
 41
30.0
 62
     5
 63
     7
 74
     0
 91
        4
 64
     7
 65
   257
 75
     1
175
     1
 42
1.0
 92
        0
 66
     7
 43
1.0
 76
     1
 77
     6
 78
     2
 67
     7
 79
     5
170
     0
171
     0
290
     0
174
     0
 93
       13
 44
0.0
173
     0
291
     1
 45
0.0
1001
ACAD
1000
AcDbSavedByObjectVersion
1070
     0
  0
VISUALSTYLE
  5
2E
102
{ACAD_REACTORS
330
2A
102
}
330
2A
100
AcDbVisualStyle
  2
GouraudWithEdges
 70
     3
 71
     2
 72
     2
 73
     1
 90
        2
 40
-0.6
 41
30.0
 62
     5
 63
     7
 74
     1
 91
        4
 64
     7
 65
   257
 75
     1
175
     1
 42
1.0
 92
        0
 66
   257
 43
1.0
 76
     1
 77
     6
 78
     2
 67
     7
 79
     5
170
     0
171
     0
290
     0
174
     0
 93
       13
 44
0.0
173
     0
291
     1
 45
0.0
1001
ACAD
1000
AcDbSavedByObjectVersion
1070
     0
  0
VISUALSTYLE
  5
38
102
{ACAD_REACTORS
330
2A
102
}
330
2A
100
AcDbVisualStyle
  2
Linepattern
 70
    14
 71
     2
 72
     2
 73
     0
 90
        0
 40
-0.6
 41
-30.0
 62
     5
 63
     7
 74
     1
 91
        4
 64
     7
 65
   257
 75
     7
175
     7
 42
1.0
 92
        8
 66
     7
 43
1.0
 76
     1
 77
     6
 78
     2
 67
     7
 79
     5
170
     0
171
     0
290
     0
174
     0
 93
        1
 44
0.0
173
     0
291
     1
 45
0.0
1001
ACAD
1000
AcDbSavedByObjectVersion
1070
     0
  0
VISUALSTYLE
  5
33
102
{ACAD_REACTORS
330
2A
102
}
330
2A
100
AcDbVisualStyle
  2
Realistic
 70
     8
 71
     2
 72
     2
 73
     0
 90
        0
 40
-0.6
 41
-30.0
 62
     5
 63
     7
 74
     1
 91
        0
 64
     7
 65
   257
 75
     1
175
     1
 42
1.0
 92
        8
 66
     8
 43
1.0
 76
     1
 77
     6
 78
     2
 67
     7
 79
     5
170
     0
171
     0
290
     0
174
     0
 93
       13
 44
0.0
173
     0
291
     0
 45
0.0
1001
ACAD
1000
AcDbSavedByObjectVersion
1070
     0
  0
VISUALSTYLE
  5
37
102
{ACAD_REACTORS
330
2A
102
}
330
2A
100
AcDbVisualStyle
  2
Thicken
 70
    13
 71
     2
 72
     2
 73
     0
 90
        0
 40
-0.6
 41
-30.0
 62
     5
 63
     7
 74
     1
 91
        4
 64
     7
 65
   257
 75
     1
175
     1
 42
1.0
 92
       12
 66
     7
 43
1.0
 76
     1
 77
     6
 78
     2
 67
     7
 79
     5
170
     0
171
     0
290
     0
174
     0
 93
        1
 44
0.0
173
     0
291
     1
 45
0.0
1001
ACAD
1000
AcDbSavedByObjectVersion
1070
     0
  0
DICTIONARYVAR
  5
397
102
{ACAD_REACTORS
330
396
102
}
330
396
100
DictionaryVariables
280
     0
  1
1:1
  0
DICTIONARYVAR
  5
39B
102
{ACAD_REACTORS
330
396
102
}
330
396
100
DictionaryVariables
280
     0
  1
80.000000
  0
DICTIONARYVAR
  5
39A
102
{ACAD_REACTORS
330
396
102
}
330
396
100
DictionaryVariables
280
     0
  1
5.000000
  0
ENDSEC
  0
EOF
