  0
SECTION
  2
HEADER
  9
$ACADVER
  1
AC1009
  9
$DWGCODEPAGE
  3
ansi_1252
  9
$INSBASE
 10
0.0
 20
0.0
 30
0.0
  9
$EXTMIN
 10
1.000000000000000E+20
 20
1.000000000000000E+20
 30
1.000000000000000E+20
  9
$EXTMAX
 10
-1.000000000000000E+20
 20
-1.000000000000000E+20
 30
-1.000000000000000E+20
  9
$LIMMIN
 10
0.0
 20
0.0
  9
$LIMMAX
 10
12.0
 20
9.0
  9
$ORTHOMODE
 70
     0
  9
$REGENMODE
 70
     1
  9
$FILLMODE
 70
     1
  9
$QTEXTMODE
 70
     0
  9
$MIRRTEXT
 70
     1
  9
$DRAGMODE
 70
     2
  9
$LTSCALE
 40
1.0
  9
$OSMODE
 70
    37
  9
$ATTMODE
 70
     1
  9
$TEXTSIZE
 40
0.2
  9
$TRACEWID
 40
0.05
  9
$TEXTSTYLE
  7
STANDARD
  9
$CLAYER
  8
0
  9
$CELTYPE
  6
BYLAYER
  9
$CECOLOR
 62
   256
  9
$DIMSCALE
 40
1.0
  9
$DIMASZ
 40
0.18
  9
$DIMEXO
 40
0.0625
  9
$DIMDLI
 40
0.38
  9
$DIMRND
 40
0.0
  9
$DIMDLE
 40
0.0
  9
$DIMEXE
 40
0.18
  9
$DIMTP
 40
0.0
  9
$DIMTM
 40
0.0
  9
$DIMTXT
 40
0.18
  9
$DIMCEN
 40
0.09
  9
$DIMTSZ
 40
0.0
  9
$DIMTOL
 70
     0
  9
$DIMLIM
 70
     0
  9
$DIMTIH
 70
     1
  9
$DIMTOH
 70
     1
  9
$DIMSE1
 70
     0
  9
$DIMSE2
 70
     0
  9
$DIMTAD
 70
     0
  9
$DIMZIN
 70
     0
  9
$DIMBLK
  1

  9
$DIMASO
 70
     1
  9
$DIMSHO
 70
     1
  9
$DIMPOST
  1

  9
$DIMAPOST
  1

  9
$DIMALT
 70
     0
  9
$DIMALTD
 70
     2
  9
$DIMALTF
 40
25.4
  9
$DIMLFAC
 40
1.0
  9
$DIMTOFL
 70
     0
  9
$DIMTVP
 40
0.0
  9
$DIMTIX
 70
     0
  9
$DIMSOXD
 70
     0
  9
$DIMSAH
 70
     0
  9
$DIMBLK1
  1

  9
$DIMBLK2
  1

  9
$DIMSTYLE
  2
STANDARD
  9
$DIMCLRD
 70
     0
  9
$DIMCLRE
 70
     0
  9
$DIMCLRT
 70
     0
  9
$DIMTFAC
 40
1.0
  9
$DIMGAP
 40
0.09
  9
$LUNITS
 70
     2
  9
$LUPREC
 70
     4
  9
$SKETCHINC
 40
0.1
  9
$FILLETRAD
 40
0.5
  9
$AUNITS
 70
     0
  9
$AUPREC
 70
     0
  9
$MENU
  1
.
  9
$ELEVATION
 40
0.0
  9
$PELEVATION
 40
0.0
  9
$THICKNESS
 40
0.0
  9
$LIMCHECK
 70
     0
  9
$CHAMFERA
 40
0.5
  9
$CHAMFERB
 40
0.5
  9
$SKPOLY
 70
     0
  9
$TDCREATE
 40
2455442.70212257
  9
$TDUPDATE
 40
2455442.70212257
  9
$TDINDWG
 40
0.0000000116
  9
$TDUSRTIMER
 40
0.0000000116
  9
$USRTIMER
 70
     1
  9
$ANGBASE
 50
0.0
  9
$ANGDIR
 70
     0
  9
$PDMODE
 70
     0
  9
$PDSIZE
 40
0.0
  9
$PLINEWID
 40
0.0
  9
$COORDS
 70
     1
  9
$SPLFRAME
 70
     0
  9
$SPLINETYPE
 70
     6
  9
$SPLINESEGS
 70
     8
  9
$ATTDIA
 70
     0
  9
$ATTREQ
 70
     1
  9
$HANDLING
 70
     1
  9
$HANDSEED
  5
AF2
  9
$SURFTAB1
 70
     6
  9
$SURFTAB2
 70
     6
  9
$SURFTYPE
 70
     6
  9
$SURFU
 70
     6
  9
$SURFV
 70
     6
  9
$UCSNAME
  2

  9
$UCSORG
 10
0.0
 20
0.0
 30
0.0
  9
$UCSXDIR
 10
1.0
 20
0.0
 30
0.0
  9
$UCSYDIR
 10
0.0
 20
1.0
 30
0.0
  9
$PUCSNAME
  2

  9
$PUCSORG
 10
0.0
 20
0.0
 30
0.0
  9
$PUCSXDIR
 10
1.0
 20
0.0
 30
0.0
  9
$PUCSYDIR
 10
0.0
 20
1.0
 30
0.0
  9
$USERI1
 70
     0
  9
$USERI2
 70
     0
  9
$USERI3
 70
     0
  9
$USERI4
 70
     0
  9
$USERI5
 70
     0
  9
$USERR1
 40
0.0
  9
$USERR2
 40
0.0
  9
$USERR3
 40
0.0
  9
$USERR4
 40
0.0
  9
$USERR5
 40
0.0
  9
$WORLDVIEW
 70
     1
  9
$SHADEDGE
 70
     3
  9
$SHADEDIF
 70
    70
  9
$TILEMODE
 70
     1
  9
$MAXACTVP
 70
    64
  9
$PLIMCHECK
 70
     0
  9
$PEXTMIN
 10
1.000000000000000E+20
 20
1.000000000000000E+20
 30
1.000000000000000E+20
  9
$PEXTMAX
 10
-1.000000000000000E+20
 20
-1.000000000000000E+20
 30
-1.000000000000000E+20
  9
$PLIMMIN
 10
0.0
 20
0.0
  9
$PLIMMAX
 10
12.0
 20
9.0
  9
$UNITMODE
 70
     0
  9
$VISRETAIN
 70
     1
  9
$PLINEGEN
 70
     0
  9
$PSLTSCALE
 70
     1
  0
ENDSEC
  0
SECTION
  2
TABLES
  0
TABLE
  2
VPORT
 70
     1
  0
VPORT
  2
*ACTIVE
 70
     0
 10
0.0
 20
0.0
 11
1.0
 21
1.0
 12
0.0
 22
0.0
 13
0.0
 23
0.0
 14
0.5
 24
0.5
 15
0.5
 25
0.5
 16
270.4235534667969
 26
154.5144195556641
 36
270.4235534667969
 17
28.114501953125
 27
0.0005035400390625
 37
74.11349487304688
 40
147.9853519897481
 41
1.972972972850329
 42
50.0
 43
0.0
 44
0.0
 50
0.0
 51
0.0
 71
     0
 72
   100
 73
     1
 74
     3
 75
     0
 76
     0
 77
     0
 78
     0
  0
ENDTAB
  0
TABLE
  2
LTYPE
 70
     1
  0
LTYPE
  2
CONTINUOUS
 70
     0
  3
Solid line
 72
    65
 73
     0
 40
0.0
  0
ENDTAB
  0
TABLE
  2
LAYER
 70
     2
  0
LAYER
  2
0
 70
     0
 62
     7
  6
CONTINUOUS
  0
LAYER
  2
LAYER_1
 70
     0
 62
     7
  6
CONTINUOUS
  0
ENDTAB
  0
TABLE
  2
STYLE
 70
     1
  0
STYLE
  2
STANDARD
 70
     0
 40
0.0
 41
1.0
 50
0.0
 71
     0
 42
0.2
  3
txt
  4

  0
ENDTAB
  0
TABLE
  2
VIEW
 70
     0
  0
ENDTAB
  0
TABLE
  2
UCS
 70
     0
  0
ENDTAB
  0
TABLE
  2
APPID
 70
     1
  0
APPID
  2
ACAD
 70
     0
  0
ENDTAB
  0
TABLE
  2
DIMSTYLE
 70
     1
  0
DIMSTYLE
  2
STANDARD
 70
     0
  3

  4

  5

  6

  7

 40
1.0
 41
0.18
 42
0.0625
 43
0.38
 44
0.18
 45
0.0
 46
0.0
 47
0.0
 48
0.0
140
0.18
141
0.09
142
0.0
143
25.4
144
1.0
145
0.0
146
1.0
147
0.09
 71
     0
 72
     0
 73
     1
 74
     1
 75
     0
 76
     0
 77
     0
 78
     0
170
     0
171
     2
172
     0
173
     0
174
     0
175
     0
176
     0
177
     0
178
     0
  0
ENDTAB
  0
ENDSEC
  0
SECTION
  2
BLOCKS
  0
BLOCK
  8
0
  2
$MODEL_SPACE
 70
     0
 10
0.0
 20
0.0
 30
0.0
  3
$MODEL_SPACE
  1

  0
ENDBLK
  5
21
  8
0
  0
BLOCK
 67
     1
  8
0
  2
$PAPER_SPACE
 70
     0
 10
0.0
 20
0.0
 30
0.0
  3
$PAPER_SPACE
  1

  0
ENDBLK
  5
1D
 67
     1
  8
0
  0
BLOCK
  8
0
  2
E3_NODE
 70
     0
 10
0.0
 20
0.0
 30
0.0
  3
E3_NODE
  1

  0
POLYLINE
  5
3C
  8
0
 62
     9
 66
     1
 10
0.0
 20
0.0
 30
0.0
 70
    64
 71
     4
 72
     2
  0
VERTEX
  5
3D
  8
0
 10
-47.14799880981445
 20
2.0
 30
54.16899871826172
 70
   192
  0
VERTEX
  5
3E
  8
0
 10
-47.14799880981445
 20
0.0
 30
52.16899871826172
 70
   192
  0
VERTEX
  5
3F
  8
0
 10
-47.14799880981445
 20
-2.0
 30
54.16899871826172
 70
   192
  0
VERTEX
  5
40
  8
0
 10
-47.14799880981445
 20
0.0
 30
56.16899871826172
 70
   192
  0
VERTEX
  5
41
  8
0
 62
     9
 10
0.0
 20
0.0
 30
0.0
 70
   128
 71
     3
 72
     2
 73
     1
  0
VERTEX
  5
42
  8
0
 62
     9
 10
0.0
 20
0.0
 30
0.0
 70
   128
 71
     1
 72
     4
 73
     3
  0
SEQEND
  5
43
  8
0
 62
     9
  0
ENDBLK
  5
47
  8
0
  0
BLOCK
  8
0
  2
E3_NODE_1_
 70
     0
 10
0.0
 20
0.0
 30
0.0
  3
E3_NODE_1_
  1

  0
POLYLINE
  5
49
  8
0
 62
     9
 66
     1
 10
0.0
 20
0.0
 30
0.0
 70
    64
 71
    12
 72
    12
  0
VERTEX
  5
4A
  8
0
 10
-47.14799880981445
 20
0.0
 30
52.16899871826172
 70
   192
  0
VERTEX
  5
4B
  8
0
 10
-47.14799880981445
 20
2.0
 30
54.16899871826172
 70
   192
  0
VERTEX
  5
4C
  8
0
 10
-33.68099975585938
 20
1.901999950408936
 30
53.54999923706055
 70
   192
  0
VERTEX
  5
4D
  8
0
 10
-33.68099975585938
 20
1.730000019073486
 30
54.08100128173828
 70
   192
  0
VERTEX
  5
4E
  8
0
 10
-47.14799880981445
 20
0.0
 30
56.16899871826172
 70
   192
  0
VERTEX
  5
4F
  8
0
 10
-33.68099975585938
 20
1.175999999046326
 30
55.7869987487793
 70
   192
  0
VERTEX
  5
50
  8
0
 10
-33.68099975585938
 20
0.0
 30
56.16899871826172
 70
   192
  0
VERTEX
  5
51
  8
0
 10
-47.14799880981445
 20
-2.0
 30
54.16899871826172
 70
   192
  0
VERTEX
  5
52
  8
0
 10
-33.68099975585938
 20
-1.730000019073486
 30
54.08100128173828
 70
   192
  0
VERTEX
  5
53
  8
0
 10
-33.68099975585938
 20
-1.175999999046326
 30
55.7869987487793
 70
   192
  0
VERTEX
  5
54
  8
0
 10
-33.68099975585938
 20
0.0
 30
52.16899871826172
 70
   192
  0
VERTEX
  5
55
  8
0
 10
-33.68099975585938
 20
-1.901999950408936
 30
53.54999923706055
 70
   192
  0
VERTEX
  5
56
  8
0
 62
     9
 10
0.0
 20
0.0
 30
0.0
 70
   128
 71
     3
 72
     2
 73
     1
  0
VERTEX
  5
57
  8
0
 62
     9
 10
0.0
 20
0.0
 30
0.0
 70
   128
 71
     3
 72
     4
 73
     2
  0
VERTEX
  5
58
  8
0
 62
     9
 10
0.0
 20
0.0
 30
0.0
 70
   128
 71
     6
 72
     5
 73
     2
  0
VERTEX
  5
59
  8
0
 62
     9
 10
0.0
 20
0.0
 30
0.0
 70
   128
 71
     6
 72
     7
 73
     5
  0
VERTEX
  5
5A
  8
0
 62
     9
 10
0.0
 20
0.0
 30
0.0
 70
   128
 71
    10
 72
     9
 73
     8
  0
VERTEX
  5
5B
  8
0
 62
     9
 10
0.0
 20
0.0
 30
0.0
 70
   128
 71
     8
 72
     5
 73
    10
  0
VERTEX
  5
5C
  8
0
 62
     9
 10
0.0
 20
0.0
 30
0.0
 70
   128
 71
    12
 72
    11
 73
     1
  0
VERTEX
  5
5D
  8
0
 62
     9
 10
0.0
 20
0.0
 30
0.0
 70
   128
 71
     1
 72
     8
 73
    12
  0
VERTEX
  5
5E
  8
0
 62
     9
 10
0.0
 20
0.0
 30
0.0
 70
   128
 71
     8
 72
     9
 73
    12
  0
VERTEX
  5
5F
  8
0
 62
     9
 10
0.0
 20
0.0
 30
0.0
 70
   128
 71
     5
 72
     7
 73
    10
  0
VERTEX
  5
60
  8
0
 62
     9
 10
0.0
 20
0.0
 30
0.0
 70
   128
 71
     2
 72
     4
 73
     6
  0
VERTEX
  5
61
  8
0
 62
     9
 10
0.0
 20
0.0
 30
0.0
 70
   128
 71
     1
 72
    11
 73
     3
  0
SEQEND
  5
62
  8
0
 62
     9
  0
ENDBLK
  5
65
  8
0
  0
BLOCK
  8
0
  2
E3_NODE_2_
 70
     0
 10
0.0
 20
0.0
 30
0.0
  3
E3_NODE_2_
  1

  0
POLYLINE
  5
67
  8
0
 62
     9
 66
     1
 10
0.0
 20
0.0
 30
0.0
 70
    64
 71
    21
 72
    26
  0
VERTEX
  5
68
  8
0
 10
-32.28099822998047
 20
-1.901999950408936
 30
53.09600067138672
 70
   192
  0
VERTEX
  5
69
  8
0
 10
-33.68099975585938
 20
-1.901999950408936
 30
53.54999923706055
 70
   192
  0
VERTEX
  5
6A
  8
0
 10
-33.68099975585938
 20
0.0
 30
52.16899871826172
 70
   192
  0
VERTEX
  5
6B
  8
0
 10
-33.09299850463867
 20
0.0
 30
51.97800064086914
 70
   192
  0
VERTEX
  5
6C
  8
0
 10
-32.72999954223633
 20
0.0
 30
51.47800064086914
 70
   192
  0
VERTEX
  5
6D
  8
0
 10
-30.96599960327148
 20
-1.175999999046326
 30
54.90499877929688
 70
   192
  0
VERTEX
  5
6E
  8
0
 10
-33.68099975585938
 20
-1.730000019073486
 30
54.08100128173828
 70
   192
  0
VERTEX
  5
6F
  8
0
 10
-33.68099975585938
 20
-1.175999999046326
 30
55.7869987487793
 70
   192
  0
VERTEX
  5
70
  8
0
 10
-30.9109992980957
 20
-1.730000019073486
 30
52.06800079345703
 70
   192
  0
VERTEX
  5
71
  8
0
 10
-31.41500091552734
 20
-1.901999950408936
 30
51.90499877929688
 70
   192
  0
VERTEX
  5
72
  8
0
 10
-30.96599960327148
 20
1.175999999046326
 30
54.90499877929688
 70
   192
  0
VERTEX
  5
73
  8
0
 10
-33.68099975585938
 20
0.0
 30
56.16899871826172
 70
   192
  0
VERTEX
  5
74
  8
0
 10
-33.68099975585938
 20
1.175999999046326
 30
55.7869987487793
 70
   192
  0
VERTEX
  5
75
  8
0
 10
-28.92499923706055
 20
0.0
 30
52.7140007019043
 70
   192
  0
VERTEX
  5
76
  8
0
 10
-29.28899955749512
 20
-1.175999999046326
 30
52.59600067138672
 70
   192
  0
VERTEX
  5
77
  8
0
 10
-33.68099975585938
 20
1.730000019073486
 30
54.08100128173828
 70
   192
  0
VERTEX
  5
78
  8
0
 10
-32.28099822998047
 20
1.901999950408936
 30
53.09600067138672
 70
   192
  0
VERTEX
  5
79
  8
0
 10
-33.68099975585938
 20
1.901999950408936
 30
53.54999923706055
 70
   192
  0
VERTEX
  5
7A
  8
0
 10
-30.9109992980957
 20
1.730000019073486
 30
52.06800079345703
 70
   192
  0
VERTEX
  5
7B
  8
0
 10
-29.28899955749512
 20
1.175999999046326
 30
52.59600067138672
 70
   192
  0
VERTEX
  5
7C
  8
0
 10
-31.41500091552734
 20
1.901999950408936
 30
51.90499877929688
 70
   192
  0
VERTEX
  5
7D
  8
0
 62
     9
 10
0.0
 20
0.0
 30
0.0
 70
   128
 71
     3
 72
     2
 73
     1
  0
VERTEX
  5
7E
  8
0
 62
     9
 10
0.0
 20
0.0
 30
0.0
 70
   128
 71
     5
 72
     4
 73
     1
  0
VERTEX
  5
7F
  8
0
 62
     9
 10
0.0
 20
0.0
 30
0.0
 70
   128
 71
     7
 72
     6
 73
     1
  0
VERTEX
  5
80
  8
0
 62
     9
 10
0.0
 20
0.0
 30
0.0
 70
   128
 71
     7
 72
     8
 73
     6
  0
VERTEX
  5
81
  8
0
 62
     9
 10
0.0
 20
0.0
 30
0.0
 70
   128
 71
     1
 72
     6
 73
     9
  0
VERTEX
  5
82
  8
0
 62
     9
 10
0.0
 20
0.0
 30
0.0
 70
   128
 71
     9
 72
    10
 73
     1
  0
VERTEX
  5
83
  8
0
 62
     9
 10
0.0
 20
0.0
 30
0.0
 70
   128
 71
    12
 72
    11
 73
     6
  0
VERTEX
  5
84
  8
0
 62
     9
 10
0.0
 20
0.0
 30
0.0
 70
   128
 71
    12
 72
    13
 73
    11
  0
VERTEX
  5
85
  8
0
 62
     9
 10
0.0
 20
0.0
 30
0.0
 70
   128
 71
    14
 72
     6
 73
    11
  0
VERTEX
  5
86
  8
0
 62
     9
 10
0.0
 20
0.0
 30
0.0
 70
   128
 71
    14
 72
    15
 73
     6
  0
VERTEX
  5
87
  8
0
 62
     9
 10
0.0
 20
0.0
 30
0.0
 70
   128
 71
    17
 72
    11
 73
    16
  0
VERTEX
  5
88
  8
0
 62
     9
 10
0.0
 20
0.0
 30
0.0
 70
   128
 71
    16
 72
    18
 73
    17
  0
VERTEX
  5
89
  8
0
 62
     9
 10
0.0
 20
0.0
 30
0.0
 70
   128
 71
    19
 72
    11
 73
    17
  0
VERTEX
  5
8A
  8
0
 62
     9
 10
0.0
 20
0.0
 30
0.0
 70
   128
 71
    19
 72
    20
 73
    11
  0
VERTEX
  5
8B
  8
0
 62
     9
 10
0.0
 20
0.0
 30
0.0
 70
   128
 71
     3
 72
     4
 73
    17
  0
VERTEX
  5
8C
  8
0
 62
     9
 10
0.0
 20
0.0
 30
0.0
 70
   128
 71
     5
 72
    21
 73
    17
  0
VERTEX
  5
8D
  8
0
 62
     9
 10
0.0
 20
0.0
 30
0.0
 70
   128
 71
    17
 72
     4
 73
     5
  0
VERTEX
  5
8E
  8
0
 62
     9
 10
0.0
 20
0.0
 30
0.0
 70
   128
 71
    17
 72
    18
 73
     3
  0
VERTEX
  5
8F
  8
0
 62
     9
 10
0.0
 20
0.0
 30
0.0
 70
   128
 71
    17
 72
    21
 73
    19
  0
VERTEX
  5
90
  8
0
 62
     9
 10
0.0
 20
0.0
 30
0.0
 70
   128
 71
    11
 72
    13
 73
    16
  0
VERTEX
  5
91
  8
0
 62
     9
 10
0.0
 20
0.0
 30
0.0
 70
   128
 71
    11
 72
    20
 73
    14
  0
VERTEX
  5
92
  8
0
 62
     9
 10
0.0
 20
0.0
 30
0.0
 70
   128
 71
     6
 72
     8
 73
    12
  0
VERTEX
  5
93
  8
0
 62
     9
 10
0.0
 20
0.0
 30
0.0
 70
   128
 71
     6
 72
    15
 73
     9
  0
VERTEX
  5
94
  8
0
 62
     9
 10
0.0
 20
0.0
 30
0.0
 70
   128
 71
     1
 72
     2
 73
     7
  0
VERTEX
  5
95
  8
0
 62
     9
 10
0.0
 20
0.0
 30
0.0
 70
   128
 71
     1
 72
    10
 73
     5
  0
VERTEX
  5
96
  8
0
 62
     9
 10
0.0
 20
0.0
 30
0.0
 70
   128
 71
     1
 72
     4
 73
     3
  0
SEQEND
  5
97
  8
0
 62
     9
  0
ENDBLK
  5
9A
  8
0
  0
BLOCK
  8
0
  2
E3_NODE_3_
 70
     0
 10
0.0
 20
0.0
 30
0.0
  3
E3_NODE_3_
  1

  0
POLYLINE
  5
9C
  8
0
 62
     9
 66
     1
 10
0.0
 20
0.0
 30
0.0
 70
    64
 71
    12
 72
    12
  0
VERTEX
  5
9D
  8
0
 10
-29.28899955749512
 20
1.175999999046326
 30
52.59600067138672
 70
   192
  0
VERTEX
  5
9E
  8
0
 10
-14.7189998626709
 20
0.0
 30
8.989999771118164
 70
   192
  0
VERTEX
  5
9F
  8
0
 10
-16.82200050354004
 20
2.0
 30
8.989999771118164
 70
   192
  0
VERTEX
  5
A0
  8
0
 10
-30.9109992980957
 20
1.730000019073486
 30
52.06800079345703
 70
   192
  0
VERTEX
  5
A1
  8
0
 10
-31.41500091552734
 20
1.901999950408936
 30
51.90499877929688
 70
   192
  0
VERTEX
  5
A2
  8
0
 10
-18.92399978637695
 20
0.0
 30
8.989999771118164
 70
   192
  0
VERTEX
  5
A3
  8
0
 10
-32.72999954223633
 20
0.0
 30
51.47800064086914
 70
   192
  0
VERTEX
  5
A4
  8
0
 10
-31.41500091552734
 20
-1.901999950408936
 30
51.90499877929688
 70
   192
  0
VERTEX
  5
A5
  8
0
 10
-16.82200050354004
 20
-2.0
 30
8.989999771118164
 70
   192
  0
VERTEX
  5
A6
  8
0
 10
-30.9109992980957
 20
-1.730000019073486
 30
52.06800079345703
 70
   192
  0
VERTEX
  5
A7
  8
0
 10
-29.28899955749512
 20
-1.175999999046326
 30
52.59600067138672
 70
   192
  0
VERTEX
  5
A8
  8
0
 10
-28.92499923706055
 20
0.0
 30
52.7140007019043
 70
   192
  0
VERTEX
  5
A9
  8
0
 62
     9
 10
0.0
 20
0.0
 30
0.0
 70
   128
 71
     3
 72
     2
 73
     1
  0
VERTEX
  5
AA
  8
0
 62
     9
 10
0.0
 20
0.0
 30
0.0
 70
   128
 71
     1
 72
     4
 73
     3
  0
VERTEX
  5
AB
  8
0
 62
     9
 10
0.0
 20
0.0
 30
0.0
 70
   128
 71
     6
 72
     3
 73
     5
  0
VERTEX
  5
AC
  8
0
 62
     9
 10
0.0
 20
0.0
 30
0.0
 70
   128
 71
     5
 72
     7
 73
     6
  0
VERTEX
  5
AD
  8
0
 62
     9
 10
0.0
 20
0.0
 30
0.0
 70
   128
 71
     6
 72
     7
 73
     8
  0
VERTEX
  5
AE
  8
0
 62
     9
 10
0.0
 20
0.0
 30
0.0
 70
   128
 71
     8
 72
    10
 73
     9
  0
VERTEX
  5
AF
  8
0
 62
     9
 10
0.0
 20
0.0
 30
0.0
 70
   128
 71
     9
 72
    10
 73
    11
  0
VERTEX
  5
B0
  8
0
 62
     9
 10
0.0
 20
0.0
 30
0.0
 70
   128
 71
    11
 72
    12
 73
     2
  0
VERTEX
  5
B1
  8
0
 62
     9
 10
0.0
 20
0.0
 30
0.0
 70
   128
 71
    11
 72
     2
 73
     9
  0
VERTEX
  5
B2
  8
0
 62
     9
 10
0.0
 20
0.0
 30
0.0
 70
   128
 71
     8
 72
     9
 73
     6
  0
VERTEX
  5
B3
  8
0
 62
     9
 10
0.0
 20
0.0
 30
0.0
 70
   128
 71
     3
 72
     4
 73
     5
  0
VERTEX
  5
B4
  8
0
 62
     9
 10
0.0
 20
0.0
 30
0.0
 70
   128
 71
     2
 72
    12
 73
     1
  0
SEQEND
  5
B5
  8
0
 62
     9
  0
ENDBLK
  5
B8
  8
0
  0
BLOCK
  8
0
  2
E3_NODE_4_
 70
     0
 10
0.0
 20
0.0
 30
0.0
  3
E3_NODE_4_
  1

  0
POLYLINE
  5
BA
  8
0
 62
     9
 66
     1
 10
0.0
 20
0.0
 30
0.0
 70
    64
 71
    48
 72
    64
  0
VERTEX
  5
BB
  8
0
 10
-15.0
 20
0.0
 30
112.9710006713867
 70
   192
  0
VERTEX
  5
BC
  8
0
 10
-13.85799980163574
 20
5.739999771118164
 30
112.9710006713867
 70
   192
  0
VERTEX
  5
BD
  8
0
 10
-18.83200073242188
 20
7.801000118255615
 30
107.1920013427734
 70
   192
  0
VERTEX
  5
BE
  8
0
 10
-20.38400077819824
 20
0.0
 30
107.1920013427734
 70
   192
  0
VERTEX
  5
BF
  8
0
 10
-10.60700035095215
 20
10.60700035095215
 30
112.9710006713867
 70
   192
  0
VERTEX
  5
C0
  8
0
 10
-14.41399955749512
 20
14.41399955749512
 30
107.1920013427734
 70
   192
  0
VERTEX
  5
C1
  8
0
 10
-5.739999771118164
 20
13.85799980163574
 30
112.9710006713867
 70
   192
  0
VERTEX
  5
C2
  8
0
 10
-7.801000118255615
 20
18.83200073242188
 30
107.1920013427734
 70
   192
  0
VERTEX
  5
C3
  8
0
 10
0.0
 20
15.0
 30
112.9710006713867
 70
   192
  0
VERTEX
  5
C4
  8
0
 10
0.0
 20
20.38400077819824
 30
107.1920013427734
 70
   192
  0
VERTEX
  5
C5
  8
0
 10
5.739999771118164
 20
13.85799980163574
 30
112.9710006713867
 70
   192
  0
VERTEX
  5
C6
  8
0
 10
7.801000118255615
 20
18.83200073242188
 30
107.1920013427734
 70
   192
  0
VERTEX
  5
C7
  8
0
 10
10.60700035095215
 20
10.60700035095215
 30
112.9710006713867
 70
   192
  0
VERTEX
  5
C8
  8
0
 10
14.41399955749512
 20
14.41399955749512
 30
107.1920013427734
 70
   192
  0
VERTEX
  5
C9
  8
0
 10
13.85799980163574
 20
5.739999771118164
 30
112.9710006713867
 70
   192
  0
VERTEX
  5
CA
  8
0
 10
18.83200073242188
 20
7.801000118255615
 30
107.1920013427734
 70
   192
  0
VERTEX
  5
CB
  8
0
 10
15.0
 20
0.0
 30
112.9710006713867
 70
   192
  0
VERTEX
  5
CC
  8
0
 10
20.38400077819824
 20
0.0
 30
107.1920013427734
 70
   192
  0
VERTEX
  5
CD
  8
0
 10
13.85799980163574
 20
-5.739999771118164
 30
112.9710006713867
 70
   192
  0
VERTEX
  5
CE
  8
0
 10
18.83200073242188
 20
-7.801000118255615
 30
107.1920013427734
 70
   192
  0
VERTEX
  5
CF
  8
0
 10
10.60700035095215
 20
-10.60700035095215
 30
112.9710006713867
 70
   192
  0
VERTEX
  5
D0
  8
0
 10
14.41399955749512
 20
-14.41399955749512
 30
107.1920013427734
 70
   192
  0
VERTEX
  5
D1
  8
0
 10
5.739999771118164
 20
-13.85799980163574
 30
112.9710006713867
 70
   192
  0
VERTEX
  5
D2
  8
0
 10
7.801000118255615
 20
-18.83200073242188
 30
107.1920013427734
 70
   192
  0
VERTEX
  5
D3
  8
0
 10
0.0
 20
-15.0
 30
112.9710006713867
 70
   192
  0
VERTEX
  5
D4
  8
0
 10
0.0
 20
-20.38400077819824
 30
107.1920013427734
 70
   192
  0
VERTEX
  5
D5
  8
0
 10
-5.739999771118164
 20
-13.85799980163574
 30
112.9710006713867
 70
   192
  0
VERTEX
  5
D6
  8
0
 10
-7.801000118255615
 20
-18.83200073242188
 30
107.1920013427734
 70
   192
  0
VERTEX
  5
D7
  8
0
 10
-10.60700035095215
 20
-10.60700035095215
 30
112.9710006713867
 70
   192
  0
VERTEX
  5
D8
  8
0
 10
-14.41399955749512
 20
-14.41399955749512
 30
107.1920013427734
 70
   192
  0
VERTEX
  5
D9
  8
0
 10
-13.85799980163574
 20
-5.739999771118164
 30
112.9710006713867
 70
   192
  0
VERTEX
  5
DA
  8
0
 10
-18.83200073242188
 20
-7.801000118255615
 30
107.1920013427734
 70
   192
  0
VERTEX
  5
DB
  8
0
 10
-21.84900093078613
 20
9.050000190734863
 30
100.0
 70
   192
  0
VERTEX
  5
DC
  8
0
 10
-23.64900016784668
 20
0.0
 30
100.0
 70
   192
  0
VERTEX
  5
DD
  8
0
 10
-16.72299957275391
 20
16.72299957275391
 30
100.0
 70
   192
  0
VERTEX
  5
DE
  8
0
 10
-9.050000190734863
 20
21.84900093078613
 30
100.0
 70
   192
  0
VERTEX
  5
DF
  8
0
 10
0.0
 20
23.64900016784668
 30
100.0
 70
   192
  0
VERTEX
  5
E0
  8
0
 10
9.050000190734863
 20
21.84900093078613
 30
100.0
 70
   192
  0
VERTEX
  5
E1
  8
0
 10
16.72299957275391
 20
16.72299957275391
 30
100.0
 70
   192
  0
VERTEX
  5
E2
  8
0
 10
21.84900093078613
 20
9.050000190734863
 30
100.0
 70
   192
  0
VERTEX
  5
E3
  8
0
 10
23.64900016784668
 20
0.0
 30
100.0
 70
   192
  0
VERTEX
  5
E4
  8
0
 10
21.84900093078613
 20
-9.050000190734863
 30
100.0
 70
   192
  0
VERTEX
  5
E5
  8
0
 10
16.72299957275391
 20
-16.72299957275391
 30
100.0
 70
   192
  0
VERTEX
  5
E6
  8
0
 10
9.050000190734863
 20
-21.84900093078613
 30
100.0
 70
   192
  0
VERTEX
  5
E7
  8
0
 10
0.0
 20
-23.64900016784668
 30
100.0
 70
   192
  0
VERTEX
  5
E8
  8
0
 10
-9.050000190734863
 20
-21.84900093078613
 30
100.0
 70
   192
  0
VERTEX
  5
E9
  8
0
 10
-16.72299957275391
 20
-16.72299957275391
 30
100.0
 70
   192
  0
VERTEX
  5
EA
  8
0
 10
-21.84900093078613
 20
-9.050000190734863
 30
100.0
 70
   192
  0
VERTEX
  5
EB
  8
0
 62
     9
 10
0.0
 20
0.0
 30
0.0
 70
   128
 71
     3
 72
     2
 73
     1
  0
VERTEX
  5
EC
  8
0
 62
     9
 10
0.0
 20
0.0
 30
0.0
 70
   128
 71
     4
 72
     3
 73
     1
  0
VERTEX
  5
ED
  8
0
 62
     9
 10
0.0
 20
0.0
 30
0.0
 70
   128
 71
     6
 72
     5
 73
     2
  0
VERTEX
  5
EE
  8
0
 62
     9
 10
0.0
 20
0.0
 30
0.0
 70
   128
 71
     3
 72
     6
 73
     2
  0
VERTEX
  5
EF
  8
0
 62
     9
 10
0.0
 20
0.0
 30
0.0
 70
   128
 71
     8
 72
     7
 73
     5
  0
VERTEX
  5
F0
  8
0
 62
     9
 10
0.0
 20
0.0
 30
0.0
 70
   128
 71
     6
 72
     8
 73
     5
  0
VERTEX
  5
F1
  8
0
 62
     9
 10
0.0
 20
0.0
 30
0.0
 70
   128
 71
    10
 72
     9
 73
     7
  0
VERTEX
  5
F2
  8
0
 62
     9
 10
0.0
 20
0.0
 30
0.0
 70
   128
 71
     8
 72
    10
 73
     7
  0
VERTEX
  5
F3
  8
0
 62
     9
 10
0.0
 20
0.0
 30
0.0
 70
   128
 71
    12
 72
    11
 73
     9
  0
VERTEX
  5
F4
  8
0
 62
     9
 10
0.0
 20
0.0
 30
0.0
 70
   128
 71
    10
 72
    12
 73
     9
  0
VERTEX
  5
F5
  8
0
 62
     9
 10
0.0
 20
0.0
 30
0.0
 70
   128
 71
    14
 72
    13
 73
    11
  0
VERTEX
  5
F6
  8
0
 62
     9
 10
0.0
 20
0.0
 30
0.0
 70
   128
 71
    12
 72
    14
 73
    11
  0
VERTEX
  5
F7
  8
0
 62
     9
 10
0.0
 20
0.0
 30
0.0
 70
   128
 71
    16
 72
    15
 73
    13
  0
VERTEX
  5
F8
  8
0
 62
     9
 10
0.0
 20
0.0
 30
0.0
 70
   128
 71
    14
 72
    16
 73
    13
  0
VERTEX
  5
F9
  8
0
 62
     9
 10
0.0
 20
0.0
 30
0.0
 70
   128
 71
    18
 72
    17
 73
    15
  0
VERTEX
  5
FA
  8
0
 62
     9
 10
0.0
 20
0.0
 30
0.0
 70
   128
 71
    16
 72
    18
 73
    15
  0
VERTEX
  5
FB
  8
0
 62
     9
 10
0.0
 20
0.0
 30
0.0
 70
   128
 71
    20
 72
    19
 73
    17
  0
VERTEX
  5
FC
  8
0
 62
     9
 10
0.0
 20
0.0
 30
0.0
 70
   128
 71
    18
 72
    20
 73
    17
  0
VERTEX
  5
FD
  8
0
 62
     9
 10
0.0
 20
0.0
 30
0.0
 70
   128
 71
    22
 72
    21
 73
    19
  0
VERTEX
  5
FE
  8
0
 62
     9
 10
0.0
 20
0.0
 30
0.0
 70
   128
 71
    20
 72
    22
 73
    19
  0
VERTEX
  5
FF
  8
0
 62
     9
 10
0.0
 20
0.0
 30
0.0
 70
   128
 71
    24
 72
    23
 73
    21
  0
VERTEX
  5
100
  8
0
 62
     9
 10
0.0
 20
0.0
 30
0.0
 70
   128
 71
    22
 72
    24
 73
    21
  0
VERTEX
  5
101
  8
0
 62
     9
 10
0.0
 20
0.0
 30
0.0
 70
   128
 71
    26
 72
    25
 73
    23
  0
VERTEX
  5
102
  8
0
 62
     9
 10
0.0
 20
0.0
 30
0.0
 70
   128
 71
    24
 72
    26
 73
    23
  0
VERTEX
  5
103
  8
0
 62
     9
 10
0.0
 20
0.0
 30
0.0
 70
   128
 71
    28
 72
    27
 73
    25
  0
VERTEX
  5
104
  8
0
 62
     9
 10
0.0
 20
0.0
 30
0.0
 70
   128
 71
    26
 72
    28
 73
    25
  0
VERTEX
  5
105
  8
0
 62
     9
 10
0.0
 20
0.0
 30
0.0
 70
   128
 71
    30
 72
    29
 73
    27
  0
VERTEX
  5
106
  8
0
 62
     9
 10
0.0
 20
0.0
 30
0.0
 70
   128
 71
    28
 72
    30
 73
    27
  0
VERTEX
  5
107
  8
0
 62
     9
 10
0.0
 20
0.0
 30
0.0
 70
   128
 71
    32
 72
    31
 73
    29
  0
VERTEX
  5
108
  8
0
 62
     9
 10
0.0
 20
0.0
 30
0.0
 70
   128
 71
    30
 72
    32
 73
    29
  0
VERTEX
  5
109
  8
0
 62
     9
 10
0.0
 20
0.0
 30
0.0
 70
   128
 71
     4
 72
     1
 73
    31
  0
VERTEX
  5
10A
  8
0
 62
     9
 10
0.0
 20
0.0
 30
0.0
 70
   128
 71
    32
 72
     4
 73
    31
  0
VERTEX
  5
10B
  8
0
 62
     9
 10
0.0
 20
0.0
 30
0.0
 70
   128
 71
    33
 72
     3
 73
     4
  0
VERTEX
  5
10C
  8
0
 62
     9
 10
0.0
 20
0.0
 30
0.0
 70
   128
 71
    34
 72
    33
 73
     4
  0
VERTEX
  5
10D
  8
0
 62
     9
 10
0.0
 20
0.0
 30
0.0
 70
   128
 71
    35
 72
     6
 73
     3
  0
VERTEX
  5
10E
  8
0
 62
     9
 10
0.0
 20
0.0
 30
0.0
 70
   128
 71
    33
 72
    35
 73
     3
  0
VERTEX
  5
10F
  8
0
 62
     9
 10
0.0
 20
0.0
 30
0.0
 70
   128
 71
    36
 72
     8
 73
     6
  0
VERTEX
  5
110
  8
0
 62
     9
 10
0.0
 20
0.0
 30
0.0
 70
   128
 71
    35
 72
    36
 73
     6
  0
VERTEX
  5
111
  8
0
 62
     9
 10
0.0
 20
0.0
 30
0.0
 70
   128
 71
    37
 72
    10
 73
     8
  0
VERTEX
  5
112
  8
0
 62
     9
 10
0.0
 20
0.0
 30
0.0
 70
   128
 71
    36
 72
    37
 73
     8
  0
VERTEX
  5
113
  8
0
 62
     9
 10
0.0
 20
0.0
 30
0.0
 70
   128
 71
    38
 72
    12
 73
    10
  0
VERTEX
  5
114
  8
0
 62
     9
 10
0.0
 20
0.0
 30
0.0
 70
   128
 71
    37
 72
    38
 73
    10
  0
VERTEX
  5
115
  8
0
 62
     9
 10
0.0
 20
0.0
 30
0.0
 70
   128
 71
    39
 72
    14
 73
    12
  0
VERTEX
  5
116
  8
0
 62
     9
 10
0.0
 20
0.0
 30
0.0
 70
   128
 71
    38
 72
    39
 73
    12
  0
VERTEX
  5
117
  8
0
 62
     9
 10
0.0
 20
0.0
 30
0.0
 70
   128
 71
    40
 72
    16
 73
    14
  0
VERTEX
  5
118
  8
0
 62
     9
 10
0.0
 20
0.0
 30
0.0
 70
   128
 71
    39
 72
    40
 73
    14
  0
VERTEX
  5
119
  8
0
 62
     9
 10
0.0
 20
0.0
 30
0.0
 70
   128
 71
    41
 72
    18
 73
    16
  0
VERTEX
  5
11A
  8
0
 62
     9
 10
0.0
 20
0.0
 30
0.0
 70
   128
 71
    40
 72
    41
 73
    16
  0
VERTEX
  5
11B
  8
0
 62
     9
 10
0.0
 20
0.0
 30
0.0
 70
   128
 71
    42
 72
    20
 73
    18
  0
VERTEX
  5
11C
  8
0
 62
     9
 10
0.0
 20
0.0
 30
0.0
 70
   128
 71
    41
 72
    42
 73
    18
  0
VERTEX
  5
11D
  8
0
 62
     9
 10
0.0
 20
0.0
 30
0.0
 70
   128
 71
    43
 72
    22
 73
    20
  0
VERTEX
  5
11E
  8
0
 62
     9
 10
0.0
 20
0.0
 30
0.0
 70
   128
 71
    42
 72
    43
 73
    20
  0
VERTEX
  5
11F
  8
0
 62
     9
 10
0.0
 20
0.0
 30
0.0
 70
   128
 71
    44
 72
    24
 73
    22
  0
VERTEX
  5
120
  8
0
 62
     9
 10
0.0
 20
0.0
 30
0.0
 70
   128
 71
    43
 72
    44
 73
    22
  0
VERTEX
  5
121
  8
0
 62
     9
 10
0.0
 20
0.0
 30
0.0
 70
   128
 71
    45
 72
    26
 73
    24
  0
VERTEX
  5
122
  8
0
 62
     9
 10
0.0
 20
0.0
 30
0.0
 70
   128
 71
    44
 72
    45
 73
    24
  0
VERTEX
  5
123
  8
0
 62
     9
 10
0.0
 20
0.0
 30
0.0
 70
   128
 71
    46
 72
    28
 73
    26
  0
VERTEX
  5
124
  8
0
 62
     9
 10
0.0
 20
0.0
 30
0.0
 70
   128
 71
    45
 72
    46
 73
    26
  0
VERTEX
  5
125
  8
0
 62
     9
 10
0.0
 20
0.0
 30
0.0
 70
   128
 71
    47
 72
    30
 73
    28
  0
VERTEX
  5
126
  8
0
 62
     9
 10
0.0
 20
0.0
 30
0.0
 70
   128
 71
    46
 72
    47
 73
    28
  0
VERTEX
  5
127
  8
0
 62
     9
 10
0.0
 20
0.0
 30
0.0
 70
   128
 71
    48
 72
    32
 73
    30
  0
VERTEX
  5
128
  8
0
 62
     9
 10
0.0
 20
0.0
 30
0.0
 70
   128
 71
    47
 72
    48
 73
    30
  0
VERTEX
  5
129
  8
0
 62
     9
 10
0.0
 20
0.0
 30
0.0
 70
   128
 71
    34
 72
     4
 73
    32
  0
VERTEX
  5
12A
  8
0
 62
     9
 10
0.0
 20
0.0
 30
0.0
 70
   128
 71
    48
 72
    34
 73
    32
  0
SEQEND
  5
12B
  8
0
 62
     9
  0
ENDBLK
  5
12E
  8
0
  0
BLOCK
  8
0
  2
E3_NODE_5_
 70
     0
 10
0.0
 20
0.0
 30
0.0
  3
E3_NODE_5_
  1

  0
POLYLINE
  5
130
  8
0
 62
     9
 66
     1
 10
0.0
 20
0.0
 30
0.0
 70
    64
 71
    25
 72
    23
  0
VERTEX
  5
131
  8
0
 10
9.321000099182129
 20
22.58300018310547
 30
102.1169967651367
 70
   192
  0
VERTEX
  5
132
  8
0
 10
17.30599975585938
 20
-17.32200050354004
 30
102.1169967651367
 70
   192
  0
VERTEX
  5
133
  8
0
 10
17.01899909973145
 20
-17.63800048828125
 30
102.1169967651367
 70
   192
  0
VERTEX
  5
134
  8
0
 10
24.49399948120117
 20
-0.0280000008642673
 30
102.1169967651367
 70
   192
  0
VERTEX
  5
135
  8
0
 10
24.29999923706055
 20
-3.084000110626221
 30
102.1169967651367
 70
   192
  0
VERTEX
  5
136
  8
0
 10
23.10000038146973
 20
-8.152999877929688
 30
102.1169967651367
 70
   192
  0
VERTEX
  5
137
  8
0
 10
12.91399955749512
 20
-20.84199905395508
 30
102.1169967651367
 70
   192
  0
VERTEX
  5
138
  8
0
 10
22.5890007019043
 20
-9.357999801635742
 30
102.1169967651367
 70
   192
  0
VERTEX
  5
139
  8
0
 10
23.94700050354004
 20
5.152999877929688
 30
102.1169967651367
 70
   192
  0
VERTEX
  5
13A
  8
0
 10
22.5359992980957
 20
9.329999923706055
 30
102.1169967651367
 70
   192
  0
VERTEX
  5
13B
  8
0
 10
23.1200008392334
 20
8.097000122070312
 30
102.1169967651367
 70
   192
  0
VERTEX
  5
13C
  8
0
 10
19.13299942016602
 20
15.3100004196167
 30
102.1169967651367
 70
   192
  0
VERTEX
  5
13D
  8
0
 10
20.88899993896484
 20
12.80500030517578
 30
102.1169967651367
 70
   192
  0
VERTEX
  5
13E
  8
0
 10
9.329999923706055
 20
-22.57799911499023
 30
102.1169967651367
 70
   192
  0
VERTEX
  5
13F
  8
0
 10
5.485000133514404
 20
-23.91300010681152
 30
102.1169967651367
 70
   192
  0
VERTEX
  5
140
  8
0
 10
10.40900039672852
 20
-22.20400047302246
 30
102.1169967651367
 70
   192
  0
VERTEX
  5
141
  8
0
 10
21.90800094604492
 20
-10.96500015258789
 30
102.1169967651367
 70
   192
  0
VERTEX
  5
142
  8
0
 10
19.09900093078613
 20
-15.35299968719482
 30
102.1169967651367
 70
   192
  0
VERTEX
  5
143
  8
0
 10
17.22500038146973
 20
17.23999977111816
 30
102.1169967651367
 70
   192
  0
VERTEX
  5
144
  8
0
 10
12.98400020599365
 20
20.79800033569336
 30
102.1169967651367
 70
   192
  0
VERTEX
  5
145
  8
0
 10
15.47200012207031
 20
19.01300048828125
 30
102.1169967651367
 70
   192
  0
VERTEX
  5
146
  8
0
 10
4.23799991607666
 20
-24.16900062561035
 30
102.1169967651367
 70
   192
  0
VERTEX
  5
147
  8
0
 10
5.485000133514404
 20
23.91399955749512
 30
102.1169967651367
 70
   192
  0
VERTEX
  5
148
  8
0
 10
8.298999786376953
 20
23.08099937438965
 30
102.1169967651367
 70
   192
  0
VERTEX
  5
149
  8
0
 10
4.23799991607666
 20
24.16900062561035
 30
102.1169967651367
 70
   192
  0
VERTEX
  5
14A
  8
0
 62
     9
 10
0.0
 20
0.0
 30
0.0
 70
   128
 71
     3
 72
     2
 73
     1
  0
VERTEX
  5
14B
  8
0
 62
     9
 10
0.0
 20
0.0
 30
0.0
 70
   128
 71
     6
 72
     5
 73
     4
  0
VERTEX
  5
14C
  8
0
 62
     9
 10
0.0
 20
0.0
 30
0.0
 70
   128
 71
     1
 72
     7
 73
     3
  0
VERTEX
  5
14D
  8
0
 62
     9
 10
0.0
 20
0.0
 30
0.0
 70
   128
 71
     4
 72
     9
 73
     8
  0
VERTEX
  5
14E
  8
0
 62
     9
 10
0.0
 20
0.0
 30
0.0
 70
   128
 71
    11
 72
    10
 73
     8
  0
VERTEX
  5
14F
  8
0
 62
     9
 10
0.0
 20
0.0
 30
0.0
 70
   128
 71
    13
 72
    12
 73
     8
  0
VERTEX
  5
150
  8
0
 62
     9
 10
0.0
 20
0.0
 30
0.0
 70
   128
 71
    15
 72
    14
 73
     1
  0
VERTEX
  5
151
  8
0
 62
     9
 10
0.0
 20
0.0
 30
0.0
 70
   128
 71
     1
 72
    16
 73
     7
  0
VERTEX
  5
152
  8
0
 62
     9
 10
0.0
 20
0.0
 30
0.0
 70
   128
 71
    18
 72
    17
 73
     1
  0
VERTEX
  5
153
  8
0
 62
     9
 10
0.0
 20
0.0
 30
0.0
 70
   128
 71
     8
 72
     9
 73
    11
  0
VERTEX
  5
154
  8
0
 62
     9
 10
0.0
 20
0.0
 30
0.0
 70
   128
 71
    12
 72
    19
 73
     8
  0
VERTEX
  5
155
  8
0
 62
     9
 10
0.0
 20
0.0
 30
0.0
 70
   128
 71
    20
 72
     1
 73
     8
  0
VERTEX
  5
156
  8
0
 62
     9
 10
0.0
 20
0.0
 30
0.0
 70
   128
 71
     1
 72
    14
 73
    16
  0
VERTEX
  5
157
  8
0
 62
     9
 10
0.0
 20
0.0
 30
0.0
 70
   128
 71
    17
 72
     8
 73
     1
  0
VERTEX
  5
158
  8
0
 62
     9
 10
0.0
 20
0.0
 30
0.0
 70
   128
 71
     8
 72
    10
 73
    13
  0
VERTEX
  5
159
  8
0
 62
     9
 10
0.0
 20
0.0
 30
0.0
 70
   128
 71
     8
 72
    21
 73
    20
  0
VERTEX
  5
15A
  8
0
 62
     9
 10
0.0
 20
0.0
 30
0.0
 70
   128
 71
     1
 72
     2
 73
    18
  0
VERTEX
  5
15B
  8
0
 62
     9
 10
0.0
 20
0.0
 30
0.0
 70
   128
 71
     8
 72
    19
 73
    21
  0
VERTEX
  5
15C
  8
0
 62
     9
 10
0.0
 20
0.0
 30
0.0
 70
   128
 71
    24
 72
    23
 73
    22
  0
VERTEX
  5
15D
  8
0
 62
     9
 10
0.0
 20
0.0
 30
0.0
 70
   128
 71
     4
 72
     8
 73
     6
  0
VERTEX
  5
15E
  8
0
 62
     9
 10
0.0
 20
0.0
 30
0.0
 70
   128
 71
    23
 72
    25
 73
    22
  0
VERTEX
  5
15F
  8
0
 62
     9
 10
0.0
 20
0.0
 30
0.0
 70
   128
 71
    22
 72
     1
 73
    24
  0
VERTEX
  5
160
  8
0
 62
     9
 10
0.0
 20
0.0
 30
0.0
 70
   128
 71
     1
 72
    22
 73
    15
  0
SEQEND
  5
161
  8
0
 62
     9
  0
ENDBLK
  5
164
  8
0
  0
BLOCK
  8
0
  2
E3_NODE_6_
 70
     0
 10
0.0
 20
0.0
 30
0.0
  3
E3_NODE_6_
  1

  0
POLYLINE
  5
166
  8
0
 62
     9
 66
     1
 10
0.0
 20
0.0
 30
0.0
 70
    64
 71
    30
 72
    28
  0
VERTEX
  5
167
  8
0
 10
-15.9689998626709
 20
15.75399971008301
 30
112.8619995117188
 70
   192
  0
VERTEX
  5
168
  8
0
 10
-21.78000068664551
 20
0.0049999998882413
 30
115.9520034790039
 70
   192
  0
VERTEX
  5
169
  8
0
 10
-21.84000015258789
 20
1.047999978065491
 30
115.984001159668
 70
   192
  0
VERTEX
  5
16A
  8
0
 10
-2.043999910354614
 20
-23.84600067138672
 30
105.4580001831055
 70
   192
  0
VERTEX
  5
16B
  8
0
 10
-6.96999979019165
 20
-22.38299942016602
 30
108.0770034790039
 70
   192
  0
VERTEX
  5
16C
  8
0
 10
-20.3390007019043
 20
8.315999984741211
 30
115.1849975585938
 70
   192
  0
VERTEX
  5
16D
  8
0
 10
-20.16699981689453
 20
8.923999786376953
 30
115.0940017700195
 70
   192
  0
VERTEX
  5
16E
  8
0
 10
-18.35600090026855
 20
12.57999992370605
 30
114.1309967041016
 70
   192
  0
VERTEX
  5
16F
  8
0
 10
-21.48800086975098
 20
4.251999855041504
 30
115.7969970703125
 70
   192
  0
VERTEX
  5
170
  8
0
 10
-21.04299926757812
 20
-6.26200008392334
 30
115.5599975585938
 70
   192
  0
VERTEX
  5
171
  8
0
 10
-21.55999946594238
 20
-3.825999975204468
 30
115.8349990844727
 70
   192
  0
VERTEX
  5
172
  8
0
 10
-0.0560000017285347
 20
-24.12700080871582
 30
104.4000015258789
 70
   192
  0
VERTEX
  5
173
  8
0
 10
4.23799991607666
 20
-24.16900062561035
 30
102.1169967651367
 70
   192
  0
VERTEX
  5
174
  8
0
 10
-5.053999900817871
 20
23.0890007019043
 30
107.0579986572266
 70
   192
  0
VERTEX
  5
175
  8
0
 10
-0.0560000017285347
 20
24.12700080871582
 30
104.4000015258789
 70
   192
  0
VERTEX
  5
176
  8
0
 10
-8.970999717712402
 20
21.32799911499023
 30
109.140998840332
 70
   192
  0
VERTEX
  5
177
  8
0
 10
-7.85699987411499
 20
21.99300003051758
 30
108.5479965209961
 70
   192
  0
VERTEX
  5
178
  8
0
 10
-20.27700042724609
 20
-8.288000106811523
 30
115.1520004272461
 70
   192
  0
VERTEX
  5
179
  8
0
 10
-18.22599983215332
 20
-12.79300022125244
 30
114.0619964599609
 70
   192
  0
VERTEX
  5
17A
  8
0
 10
-19.30699920654297
 20
-10.85299968719482
 30
114.6370010375977
 70
   192
  0
VERTEX
  5
17B
  8
0
 10
-13.5310001373291
 20
-18.31399917602539
 30
111.5650024414062
 70
   192
  0
VERTEX
  5
17C
  8
0
 10
-15.18000030517578
 20
-16.73699951171875
 30
112.4420013427734
 70
   192
  0
VERTEX
  5
17D
  8
0
 10
-9.012999534606934
 20
-21.39500045776367
 30
109.1630020141602
 70
   192
  0
VERTEX
  5
17E
  8
0
 10
-9.380999565124512
 20
-21.2180004119873
 30
109.359001159668
 70
   192
  0
VERTEX
  5
17F
  8
0
 10
3.138000011444092
 20
-24.23200035095215
 30
102.7030029296875
 70
   192
  0
VERTEX
  5
180
  8
0
 10
-15.42700004577637
 20
16.47400093078613
 30
112.5739974975586
 70
   192
  0
VERTEX
  5
181
  8
0
 10
-15.95100021362305
 20
-15.73900032043457
 30
112.8519973754883
 70
   192
  0
VERTEX
  5
182
  8
0
 10
3.138000011444092
 20
24.23200035095215
 30
102.7030029296875
 70
   192
  0
VERTEX
  5
183
  8
0
 10
-12.12399959564209
 20
19.44799995422363
 30
110.818000793457
 70
   192
  0
VERTEX
  5
184
  8
0
 10
4.23799991607666
 20
24.16900062561035
 30
102.1169967651367
 70
   192
  0
VERTEX
  5
185
  8
0
 62
     9
 10
0.0
 20
0.0
 30
0.0
 70
   128
 71
     3
 72
     2
 73
     1
  0
VERTEX
  5
186
  8
0
 62
     9
 10
0.0
 20
0.0
 30
0.0
 70
   128
 71
     5
 72
     4
 73
     1
  0
VERTEX
  5
187
  8
0
 62
     9
 10
0.0
 20
0.0
 30
0.0
 70
   128
 71
     8
 72
     7
 73
     6
  0
VERTEX
  5
188
  8
0
 62
     9
 10
0.0
 20
0.0
 30
0.0
 70
   128
 71
     1
 72
     9
 73
     3
  0
VERTEX
  5
189
  8
0
 62
     9
 10
0.0
 20
0.0
 30
0.0
 70
   128
 71
    11
 72
    10
 73
     1
  0
VERTEX
  5
18A
  8
0
 62
     9
 10
0.0
 20
0.0
 30
0.0
 70
   128
 71
     4
 72
    12
 73
     1
  0
VERTEX
  5
18B
  8
0
 62
     9
 10
0.0
 20
0.0
 30
0.0
 70
   128
 71
    15
 72
    14
 73
    13
  0
VERTEX
  5
18C
  8
0
 62
     9
 10
0.0
 20
0.0
 30
0.0
 70
   128
 71
    17
 72
    16
 73
    13
  0
VERTEX
  5
18D
  8
0
 62
     9
 10
0.0
 20
0.0
 30
0.0
 70
   128
 71
     1
 72
     6
 73
     9
  0
VERTEX
  5
18E
  8
0
 62
     9
 10
0.0
 20
0.0
 30
0.0
 70
   128
 71
    10
 72
    18
 73
     1
  0
VERTEX
  5
18F
  8
0
 62
     9
 10
0.0
 20
0.0
 30
0.0
 70
   128
 71
    20
 72
    19
 73
     1
  0
VERTEX
  5
190
  8
0
 62
     9
 10
0.0
 20
0.0
 30
0.0
 70
   128
 71
    22
 72
    21
 73
     1
  0
VERTEX
  5
191
  8
0
 62
     9
 10
0.0
 20
0.0
 30
0.0
 70
   128
 71
    24
 72
    23
 73
     1
  0
VERTEX
  5
192
  8
0
 62
     9
 10
0.0
 20
0.0
 30
0.0
 70
   128
 71
    12
 72
    25
 73
     1
  0
VERTEX
  5
193
  8
0
 62
     9
 10
0.0
 20
0.0
 30
0.0
 70
   128
 71
    13
 72
    14
 73
    17
  0
VERTEX
  5
194
  8
0
 62
     9
 10
0.0
 20
0.0
 30
0.0
 70
   128
 71
    26
 72
     1
 73
    13
  0
VERTEX
  5
195
  8
0
 62
     9
 10
0.0
 20
0.0
 30
0.0
 70
   128
 71
     1
 72
     2
 73
    11
  0
VERTEX
  5
196
  8
0
 62
     9
 10
0.0
 20
0.0
 30
0.0
 70
   128
 71
    19
 72
    27
 73
     1
  0
VERTEX
  5
197
  8
0
 62
     9
 10
0.0
 20
0.0
 30
0.0
 70
   128
 71
     1
 72
    21
 73
    24
  0
VERTEX
  5
198
  8
0
 62
     9
 10
0.0
 20
0.0
 30
0.0
 70
   128
 71
    25
 72
    13
 73
     1
  0
VERTEX
  5
199
  8
0
 62
     9
 10
0.0
 20
0.0
 30
0.0
 70
   128
 71
    13
 72
    28
 73
    15
  0
VERTEX
  5
19A
  8
0
 62
     9
 10
0.0
 20
0.0
 30
0.0
 70
   128
 71
    13
 72
    29
 73
    26
  0
VERTEX
  5
19B
  8
0
 62
     9
 10
0.0
 20
0.0
 30
0.0
 70
   128
 71
     1
 72
    18
 73
    20
  0
VERTEX
  5
19C
  8
0
 62
     9
 10
0.0
 20
0.0
 30
0.0
 70
   128
 71
     1
 72
    23
 73
     5
  0
VERTEX
  5
19D
  8
0
 62
     9
 10
0.0
 20
0.0
 30
0.0
 70
   128
 71
    13
 72
    16
 73
    29
  0
VERTEX
  5
19E
  8
0
 62
     9
 10
0.0
 20
0.0
 30
0.0
 70
   128
 71
     1
 72
    27
 73
    22
  0
VERTEX
  5
19F
  8
0
 62
     9
 10
0.0
 20
0.0
 30
0.0
 70
   128
 71
     6
 72
     1
 73
     8
  0
VERTEX
  5
1A0
  8
0
 62
     9
 10
0.0
 20
0.0
 30
0.0
 70
   128
 71
    13
 72
    30
 73
    28
  0
SEQEND
  5
1A1
  8
0
 62
     9
  0
ENDBLK
  5
1A4
  8
0
  0
BLOCK
  8
0
  2
E3_NODE_7_
 70
     0
 10
0.0
 20
0.0
 30
0.0
  3
E3_NODE_7_
  1

  0
POLYLINE
  5
1A6
  8
0
 62
     9
 66
     1
 10
0.0
 20
0.0
 30
0.0
 70
    64
 71
    67
 72
    72
  0
VERTEX
  5
1A7
  8
0
 10
8.189000129699707
 20
19.98500061035156
 30
118.1019973754883
 70
   192
  0
VERTEX
  5
1A8
  8
0
 10
6.888000011444092
 20
17.68099975585938
 30
132.3509979248047
 70
   192
  0
VERTEX
  5
1A9
  8
0
 10
7.040999889373779
 20
17.60499954223633
 30
132.3159942626953
 70
   192
  0
VERTEX
  5
1AA
  8
0
 10
-0.1140000000596046
 20
21.11100006103516
 30
120.9240036010742
 70
   192
  0
VERTEX
  5
1AB
  8
0
 10
2.621999979019165
 20
18.66799926757812
 30
133.3269958496094
 70
   192
  0
VERTEX
  5
1AC
  8
0
 10
-0.1040000021457672
 20
21.63899993896484
 30
118.0319976806641
 70
   192
  0
VERTEX
  5
1AD
  8
0
 10
-0.1609999984502792
 20
18.73100090026855
 30
133.9629974365234
 70
   192
  0
VERTEX
  5
1AE
  8
0
 10
10.94900035858154
 20
15.66499996185303
 30
131.4219970703125
 70
   192
  0
VERTEX
  5
1AF
  8
0
 10
13.38500022888184
 20
13.59700012207031
 30
130.8650054931641
 70
   192
  0
VERTEX
  5
1B0
  8
0
 10
15.20899963378906
 20
15.28600025177002
 30
118.0699996948242
 70
   192
  0
VERTEX
  5
1B1
  8
0
 10
7.130000114440918
 20
17.55999946594238
 30
132.2949981689453
 70
   192
  0
VERTEX
  5
1B2
  8
0
 10
19.89100074768066
 20
8.265999794006348
 30
118.0510025024414
 70
   192
  0
VERTEX
  5
1B3
  8
0
 10
17.15900039672852
 20
8.887999534606934
 30
130.0019989013672
 70
   192
  0
VERTEX
  5
1B4
  8
0
 10
17.72599983215332
 20
7.440000057220459
 30
129.8719940185547
 70
   192
  0
VERTEX
  5
1B5
  8
0
 10
14.4399995803833
 20
12.70100021362305
 30
130.6239929199219
 70
   192
  0
VERTEX
  5
1B6
  8
0
 10
13.43900012969971
 20
13.55099964141846
 30
130.8529968261719
 70
   192
  0
VERTEX
  5
1B7
  8
0
 10
21.5319995880127
 20
-0.0010000000474975
 30
118.0400009155273
 70
   192
  0
VERTEX
  5
1B8
  8
0
 10
18.8120002746582
 20
4.664000034332275
 30
129.6239929199219
 70
   192
  0
VERTEX
  5
1B9
  8
0
 10
17.74200057983398
 20
7.39799976348877
 30
129.8690032958984
 70
   192
  0
VERTEX
  5
1BA
  8
0
 10
19.89100074768066
 20
-8.270000457763672
 30
118.0350036621094
 70
   192
  0
VERTEX
  5
1BB
  8
0
 10
19.14100074768066
 20
-3.114000082015991
 30
129.5489959716797
 70
   192
  0
VERTEX
  5
1BC
  8
0
 10
19.40099906921387
 20
-0.0010000000474975
 30
129.4889984130859
 70
   192
  0
VERTEX
  5
1BD
  8
0
 10
15.21000003814697
 20
-15.29300022125244
 30
118.0339965820312
 70
   192
  0
VERTEX
  5
1BE
  8
0
 10
17.84099960327148
 20
-7.484000205993652
 30
129.8459930419922
 70
   192
  0
VERTEX
  5
1BF
  8
0
 10
17.8390007019043
 20
-7.48799991607666
 30
129.8470001220703
 70
   192
  0
VERTEX
  5
1C0
  8
0
 10
15.46199989318848
 20
-11.49199962615967
 30
130.3899993896484
 70
   192
  0
VERTEX
  5
1C1
  8
0
 10
17.85300064086914
 20
-7.443999767303467
 30
129.8430023193359
 70
   192
  0
VERTEX
  5
1C2
  8
0
 10
13.40799999237061
 20
-13.53600025177002
 30
130.8600006103516
 70
   192
  0
VERTEX
  5
1C3
  8
0
 10
8.190999984741211
 20
-19.99699974060059
 30
118.0350036621094
 70
   192
  0
VERTEX
  5
1C4
  8
0
 10
12.07100009918213
 20
-14.86600017547607
 30
131.1660003662109
 70
   192
  0
VERTEX
  5
1C5
  8
0
 10
7.931000232696533
 20
-17.27499961853027
 30
132.1119995117188
 70
   192
  0
VERTEX
  5
1C6
  8
0
 10
13.35900020599365
 20
-13.58500003814697
 30
130.8710021972656
 70
   192
  0
VERTEX
  5
1C7
  8
0
 10
4.531000137329102
 20
-18.35700035095215
 30
132.8899993896484
 70
   192
  0
VERTEX
  5
1C8
  8
0
 10
-0.1609999984502792
 20
-18.73100090026855
 30
133.9629974365234
 70
   192
  0
VERTEX
  5
1C9
  8
0
 10
-0.1140000000596046
 20
-21.11100006103516
 30
120.9240036010742
 70
   192
  0
VERTEX
  5
1CA
  8
0
 10
-0.1040000021457672
 20
-21.63899993896484
 30
118.0319976806641
 70
   192
  0
VERTEX
  5
1CB
  8
0
 10
7.03000020980835
 20
-17.5620002746582
 30
132.3179931640625
 70
   192
  0
VERTEX
  5
1CC
  8
0
 10
7.125
 20
-17.5319995880127
 30
132.2969970703125
 70
   192
  0
VERTEX
  5
1CD
  8
0
 10
3.138000011444092
 20
-24.23200035095215
 30
102.7030029296875
 70
   192
  0
VERTEX
  5
1CE
  8
0
 10
4.23799991607666
 20
-24.16900062561035
 30
102.1169967651367
 70
   192
  0
VERTEX
  5
1CF
  8
0
 10
5.485000133514404
 20
-23.91300010681152
 30
102.1169967651367
 70
   192
  0
VERTEX
  5
1D0
  8
0
 10
-0.0560000017285347
 20
-24.12700080871582
 30
104.4000015258789
 70
   192
  0
VERTEX
  5
1D1
  8
0
 10
12.91399955749512
 20
-20.84199905395508
 30
102.1169967651367
 70
   192
  0
VERTEX
  5
1D2
  8
0
 10
17.01899909973145
 20
-17.63800048828125
 30
102.1169967651367
 70
   192
  0
VERTEX
  5
1D3
  8
0
 10
9.329999923706055
 20
-22.57799911499023
 30
102.1169967651367
 70
   192
  0
VERTEX
  5
1D4
  8
0
 10
10.40900039672852
 20
-22.20400047302246
 30
102.1169967651367
 70
   192
  0
VERTEX
  5
1D5
  8
0
 10
19.09900093078613
 20
-15.35299968719482
 30
102.1169967651367
 70
   192
  0
VERTEX
  5
1D6
  8
0
 10
17.30599975585938
 20
-17.32200050354004
 30
102.1169967651367
 70
   192
  0
VERTEX
  5
1D7
  8
0
 10
21.90800094604492
 20
-10.96500015258789
 30
102.1169967651367
 70
   192
  0
VERTEX
  5
1D8
  8
0
 10
23.10000038146973
 20
-8.152999877929688
 30
102.1169967651367
 70
   192
  0
VERTEX
  5
1D9
  8
0
 10
24.29999923706055
 20
-3.084000110626221
 30
102.1169967651367
 70
   192
  0
VERTEX
  5
1DA
  8
0
 10
22.5890007019043
 20
-9.357999801635742
 30
102.1169967651367
 70
   192
  0
VERTEX
  5
1DB
  8
0
 10
23.94700050354004
 20
5.152999877929688
 30
102.1169967651367
 70
   192
  0
VERTEX
  5
1DC
  8
0
 10
23.1200008392334
 20
8.097000122070312
 30
102.1169967651367
 70
   192
  0
VERTEX
  5
1DD
  8
0
 10
24.49399948120117
 20
-0.0280000008642673
 30
102.1169967651367
 70
   192
  0
VERTEX
  5
1DE
  8
0
 10
20.88899993896484
 20
12.80500030517578
 30
102.1169967651367
 70
   192
  0
VERTEX
  5
1DF
  8
0
 10
19.13299942016602
 20
15.3100004196167
 30
102.1169967651367
 70
   192
  0
VERTEX
  5
1E0
  8
0
 10
22.5359992980957
 20
9.329999923706055
 30
102.1169967651367
 70
   192
  0
VERTEX
  5
1E1
  8
0
 10
15.47200012207031
 20
19.01300048828125
 30
102.1169967651367
 70
   192
  0
VERTEX
  5
1E2
  8
0
 10
12.98400020599365
 20
20.79800033569336
 30
102.1169967651367
 70
   192
  0
VERTEX
  5
1E3
  8
0
 10
17.22500038146973
 20
17.23999977111816
 30
102.1169967651367
 70
   192
  0
VERTEX
  5
1E4
  8
0
 10
3.138000011444092
 20
24.23200035095215
 30
102.7030029296875
 70
   192
  0
VERTEX
  5
1E5
  8
0
 10
-0.0560000017285347
 20
24.12700080871582
 30
104.4000015258789
 70
   192
  0
VERTEX
  5
1E6
  8
0
 10
5.485000133514404
 20
23.91399955749512
 30
102.1169967651367
 70
   192
  0
VERTEX
  5
1E7
  8
0
 10
4.23799991607666
 20
24.16900062561035
 30
102.1169967651367
 70
   192
  0
VERTEX
  5
1E8
  8
0
 10
9.321000099182129
 20
22.58300018310547
 30
102.1169967651367
 70
   192
  0
VERTEX
  5
1E9
  8
0
 10
8.298999786376953
 20
23.08099937438965
 30
102.1169967651367
 70
   192
  0
VERTEX
  5
1EA
  8
0
 62
     9
 10
0.0
 20
0.0
 30
0.0
 70
   128
 71
     3
 72
     2
 73
     1
  0
VERTEX
  5
1EB
  8
0
 62
     9
 10
0.0
 20
0.0
 30
0.0
 70
   128
 71
     2
 72
     5
 73
     4
  0
VERTEX
  5
1EC
  8
0
 62
     9
 10
0.0
 20
0.0
 30
0.0
 70
   128
 71
     4
 72
     6
 73
     1
  0
VERTEX
  5
1ED
  8
0
 62
     9
 10
0.0
 20
0.0
 30
0.0
 70
   128
 71
     5
 72
     7
 73
     4
  0
VERTEX
  5
1EE
  8
0
 62
     9
 10
0.0
 20
0.0
 30
0.0
 70
   128
 71
     4
 72
     1
 73
     2
  0
VERTEX
  5
1EF
  8
0
 62
     9
 10
0.0
 20
0.0
 30
0.0
 70
   128
 71
     9
 72
     8
 73
     1
  0
VERTEX
  5
1F0
  8
0
 62
     9
 10
0.0
 20
0.0
 30
0.0
 70
   128
 71
     1
 72
    10
 73
     9
  0
VERTEX
  5
1F1
  8
0
 62
     9
 10
0.0
 20
0.0
 30
0.0
 70
   128
 71
     8
 72
    11
 73
     1
  0
VERTEX
  5
1F2
  8
0
 62
     9
 10
0.0
 20
0.0
 30
0.0
 70
   128
 71
    14
 72
    13
 73
    12
  0
VERTEX
  5
1F3
  8
0
 62
     9
 10
0.0
 20
0.0
 30
0.0
 70
   128
 71
    13
 72
    15
 73
    10
  0
VERTEX
  5
1F4
  8
0
 62
     9
 10
0.0
 20
0.0
 30
0.0
 70
   128
 71
    15
 72
    16
 73
    10
  0
VERTEX
  5
1F5
  8
0
 62
     9
 10
0.0
 20
0.0
 30
0.0
 70
   128
 71
    10
 72
    12
 73
    13
  0
VERTEX
  5
1F6
  8
0
 62
     9
 10
0.0
 20
0.0
 30
0.0
 70
   128
 71
    18
 72
    12
 73
    17
  0
VERTEX
  5
1F7
  8
0
 62
     9
 10
0.0
 20
0.0
 30
0.0
 70
   128
 71
    18
 72
    19
 73
    12
  0
VERTEX
  5
1F8
  8
0
 62
     9
 10
0.0
 20
0.0
 30
0.0
 70
   128
 71
    21
 72
    17
 73
    20
  0
VERTEX
  5
1F9
  8
0
 62
     9
 10
0.0
 20
0.0
 30
0.0
 70
   128
 71
    21
 72
    22
 73
    17
  0
VERTEX
  5
1FA
  8
0
 62
     9
 10
0.0
 20
0.0
 30
0.0
 70
   128
 71
    25
 72
    24
 73
    23
  0
VERTEX
  5
1FB
  8
0
 62
     9
 10
0.0
 20
0.0
 30
0.0
 70
   128
 71
    23
 72
    26
 73
    25
  0
VERTEX
  5
1FC
  8
0
 62
     9
 10
0.0
 20
0.0
 30
0.0
 70
   128
 71
    24
 72
    27
 73
    20
  0
VERTEX
  5
1FD
  8
0
 62
     9
 10
0.0
 20
0.0
 30
0.0
 70
   128
 71
    20
 72
    23
 73
    24
  0
VERTEX
  5
1FE
  8
0
 62
     9
 10
0.0
 20
0.0
 30
0.0
 70
   128
 71
    23
 72
    28
 73
    26
  0
VERTEX
  5
1FF
  8
0
 62
     9
 10
0.0
 20
0.0
 30
0.0
 70
   128
 71
    31
 72
    30
 73
    29
  0
VERTEX
  5
200
  8
0
 62
     9
 10
0.0
 20
0.0
 30
0.0
 70
   128
 71
    30
 72
    32
 73
    23
  0
VERTEX
  5
201
  8
0
 62
     9
 10
0.0
 20
0.0
 30
0.0
 70
   128
 71
    32
 72
    28
 73
    23
  0
VERTEX
  5
202
  8
0
 62
     9
 10
0.0
 20
0.0
 30
0.0
 70
   128
 71
    23
 72
    29
 73
    30
  0
VERTEX
  5
203
  8
0
 62
     9
 10
0.0
 20
0.0
 30
0.0
 70
   128
 71
    35
 72
    34
 73
    33
  0
VERTEX
  5
204
  8
0
 62
     9
 10
0.0
 20
0.0
 30
0.0
 70
   128
 71
    37
 72
    29
 73
    36
  0
VERTEX
  5
205
  8
0
 62
     9
 10
0.0
 20
0.0
 30
0.0
 70
   128
 71
    37
 72
    38
 73
    29
  0
VERTEX
  5
206
  8
0
 62
     9
 10
0.0
 20
0.0
 30
0.0
 70
   128
 71
    36
 72
    33
 73
    37
  0
VERTEX
  5
207
  8
0
 62
     9
 10
0.0
 20
0.0
 30
0.0
 70
   128
 71
    40
 72
    39
 73
    29
  0
VERTEX
  5
208
  8
0
 62
     9
 10
0.0
 20
0.0
 30
0.0
 70
   128
 71
    29
 72
    41
 73
    40
  0
VERTEX
  5
209
  8
0
 62
     9
 10
0.0
 20
0.0
 30
0.0
 70
   128
 71
    42
 72
    36
 73
    29
  0
VERTEX
  5
20A
  8
0
 62
     9
 10
0.0
 20
0.0
 30
0.0
 70
   128
 71
    29
 72
    39
 73
    42
  0
VERTEX
  5
20B
  8
0
 62
     9
 10
0.0
 20
0.0
 30
0.0
 70
   128
 71
    43
 72
    29
 73
    23
  0
VERTEX
  5
20C
  8
0
 62
     9
 10
0.0
 20
0.0
 30
0.0
 70
   128
 71
    23
 72
    44
 73
    43
  0
VERTEX
  5
20D
  8
0
 62
     9
 10
0.0
 20
0.0
 30
0.0
 70
   128
 71
    46
 72
    45
 73
    29
  0
VERTEX
  5
20E
  8
0
 62
     9
 10
0.0
 20
0.0
 30
0.0
 70
   128
 71
    29
 72
    43
 73
    46
  0
VERTEX
  5
20F
  8
0
 62
     9
 10
0.0
 20
0.0
 30
0.0
 70
   128
 71
    47
 72
    23
 73
    20
  0
VERTEX
  5
210
  8
0
 62
     9
 10
0.0
 20
0.0
 30
0.0
 70
   128
 71
    47
 72
    48
 73
    23
  0
VERTEX
  5
211
  8
0
 62
     9
 10
0.0
 20
0.0
 30
0.0
 70
   128
 71
    20
 72
    49
 73
    47
  0
VERTEX
  5
212
  8
0
 62
     9
 10
0.0
 20
0.0
 30
0.0
 70
   128
 71
    51
 72
    50
 73
    20
  0
VERTEX
  5
213
  8
0
 62
     9
 10
0.0
 20
0.0
 30
0.0
 70
   128
 71
    50
 72
    52
 73
    20
  0
VERTEX
  5
214
  8
0
 62
     9
 10
0.0
 20
0.0
 30
0.0
 70
   128
 71
    20
 72
    17
 73
    51
  0
VERTEX
  5
215
  8
0
 62
     9
 10
0.0
 20
0.0
 30
0.0
 70
   128
 71
    54
 72
    53
 73
    12
  0
VERTEX
  5
216
  8
0
 62
     9
 10
0.0
 20
0.0
 30
0.0
 70
   128
 71
    53
 72
    55
 73
    17
  0
VERTEX
  5
217
  8
0
 62
     9
 10
0.0
 20
0.0
 30
0.0
 70
   128
 71
    17
 72
    12
 73
    53
  0
VERTEX
  5
218
  8
0
 62
     9
 10
0.0
 20
0.0
 30
0.0
 70
   128
 71
    56
 72
    12
 73
    10
  0
VERTEX
  5
219
  8
0
 62
     9
 10
0.0
 20
0.0
 30
0.0
 70
   128
 71
    10
 72
    57
 73
    56
  0
VERTEX
  5
21A
  8
0
 62
     9
 10
0.0
 20
0.0
 30
0.0
 70
   128
 71
    56
 72
    58
 73
    12
  0
VERTEX
  5
21B
  8
0
 62
     9
 10
0.0
 20
0.0
 30
0.0
 70
   128
 71
    60
 72
    59
 73
    10
  0
VERTEX
  5
21C
  8
0
 62
     9
 10
0.0
 20
0.0
 30
0.0
 70
   128
 71
    59
 72
    61
 73
    10
  0
VERTEX
  5
21D
  8
0
 62
     9
 10
0.0
 20
0.0
 30
0.0
 70
   128
 71
    10
 72
     1
 73
    60
  0
VERTEX
  5
21E
  8
0
 62
     9
 10
0.0
 20
0.0
 30
0.0
 70
   128
 71
    63
 72
    62
 73
     1
  0
VERTEX
  5
21F
  8
0
 62
     9
 10
0.0
 20
0.0
 30
0.0
 70
   128
 71
    65
 72
    64
 73
     1
  0
VERTEX
  5
220
  8
0
 62
     9
 10
0.0
 20
0.0
 30
0.0
 70
   128
 71
     1
 72
    62
 73
    65
  0
VERTEX
  5
221
  8
0
 62
     9
 10
0.0
 20
0.0
 30
0.0
 70
   128
 71
    67
 72
    66
 73
     1
  0
VERTEX
  5
222
  8
0
 62
     9
 10
0.0
 20
0.0
 30
0.0
 70
   128
 71
     1
 72
    64
 73
    67
  0
VERTEX
  5
223
  8
0
 62
     9
 10
0.0
 20
0.0
 30
0.0
 70
   128
 71
     1
 72
     6
 73
    63
  0
VERTEX
  5
224
  8
0
 62
     9
 10
0.0
 20
0.0
 30
0.0
 70
   128
 71
     1
 72
    66
 73
    60
  0
VERTEX
  5
225
  8
0
 62
     9
 10
0.0
 20
0.0
 30
0.0
 70
   128
 71
    10
 72
    61
 73
    57
  0
VERTEX
  5
226
  8
0
 62
     9
 10
0.0
 20
0.0
 30
0.0
 70
   128
 71
    12
 72
    58
 73
    54
  0
VERTEX
  5
227
  8
0
 62
     9
 10
0.0
 20
0.0
 30
0.0
 70
   128
 71
    17
 72
    55
 73
    51
  0
VERTEX
  5
228
  8
0
 62
     9
 10
0.0
 20
0.0
 30
0.0
 70
   128
 71
    20
 72
    52
 73
    49
  0
VERTEX
  5
229
  8
0
 62
     9
 10
0.0
 20
0.0
 30
0.0
 70
   128
 71
    23
 72
    48
 73
    44
  0
VERTEX
  5
22A
  8
0
 62
     9
 10
0.0
 20
0.0
 30
0.0
 70
   128
 71
    29
 72
    45
 73
    41
  0
VERTEX
  5
22B
  8
0
 62
     9
 10
0.0
 20
0.0
 30
0.0
 70
   128
 71
    33
 72
    36
 73
    35
  0
VERTEX
  5
22C
  8
0
 62
     9
 10
0.0
 20
0.0
 30
0.0
 70
   128
 71
    29
 72
    38
 73
    31
  0
VERTEX
  5
22D
  8
0
 62
     9
 10
0.0
 20
0.0
 30
0.0
 70
   128
 71
    20
 72
    27
 73
    21
  0
VERTEX
  5
22E
  8
0
 62
     9
 10
0.0
 20
0.0
 30
0.0
 70
   128
 71
    17
 72
    22
 73
    18
  0
VERTEX
  5
22F
  8
0
 62
     9
 10
0.0
 20
0.0
 30
0.0
 70
   128
 71
    12
 72
    19
 73
    14
  0
VERTEX
  5
230
  8
0
 62
     9
 10
0.0
 20
0.0
 30
0.0
 70
   128
 71
    10
 72
    16
 73
     9
  0
VERTEX
  5
231
  8
0
 62
     9
 10
0.0
 20
0.0
 30
0.0
 70
   128
 71
     1
 72
    11
 73
     3
  0
SEQEND
  5
232
  8
0
 62
     9
  0
ENDBLK
  5
235
  8
0
  0
BLOCK
  8
0
  2
E3_NODE_8_
 70
     0
 10
0.0
 20
0.0
 30
0.0
  3
E3_NODE_8_
  1

  0
POLYLINE
  5
237
  8
0
 62
     9
 66
     1
 10
0.0
 20
0.0
 30
0.0
 70
    64
 71
    42
 72
    47
  0
VERTEX
  5
238
  8
0
 10
17.87299919128418
 20
6.765999794006348
 30
132.1600036621094
 70
   192
  0
VERTEX
  5
239
  8
0
 10
14.82400035858154
 20
12.13300037384033
 30
132.3849945068359
 70
   192
  0
VERTEX
  5
23A
  8
0
 10
16.72900009155273
 20
10.91199970245361
 30
133.8659973144531
 70
   192
  0
VERTEX
  5
23B
  8
0
 10
19.23299980163574
 20
-0.0010000000474975
 30
132.1609954833984
 70
   192
  0
VERTEX
  5
23C
  8
0
 10
18.94799995422363
 20
5.940999984741211
 30
133.906005859375
 70
   192
  0
VERTEX
  5
23D
  8
0
 10
19.96100044250488
 20
0.0
 30
133.89599609375
 70
   192
  0
VERTEX
  5
23E
  8
0
 10
19.46699905395508
 20
0.0
 30
133.4819946289062
 70
   192
  0
VERTEX
  5
23F
  8
0
 10
19.37599945068359
 20
10.12399959564209
 30
135.0140075683594
 70
   192
  0
VERTEX
  5
240
  8
0
 10
21.0939998626709
 20
5.267000198364258
 30
134.9920043945312
 70
   192
  0
VERTEX
  5
241
  8
0
 10
21.77099990844727
 20
0.0
 30
134.9160003662109
 70
   192
  0
VERTEX
  5
242
  8
0
 10
20.97800064086914
 20
0.0
 30
134.7480010986328
 70
   192
  0
VERTEX
  5
243
  8
0
 10
19.10899925231934
 20
-0.0010000000474975
 30
131.4559936523438
 70
   192
  0
VERTEX
  5
244
  8
0
 10
19.40099906921387
 20
-0.0010000000474975
 30
129.4889984130859
 70
   192
  0
VERTEX
  5
245
  8
0
 10
18.8120002746582
 20
4.664000034332275
 30
129.6239929199219
 70
   192
  0
VERTEX
  5
246
  8
0
 10
17.74200057983398
 20
7.39799976348877
 30
129.8690032958984
 70
   192
  0
VERTEX
  5
247
  8
0
 10
17.15900039672852
 20
8.887999534606934
 30
130.0019989013672
 70
   192
  0
VERTEX
  5
248
  8
0
 10
14.4399995803833
 20
12.70100021362305
 30
130.6239929199219
 70
   192
  0
VERTEX
  5
249
  8
0
 10
17.72599983215332
 20
7.440000057220459
 30
129.8719940185547
 70
   192
  0
VERTEX
  5
24A
  8
0
 10
13.43900012969971
 20
13.55099964141846
 30
130.8529968261719
 70
   192
  0
VERTEX
  5
24B
  8
0
 10
13.4680004119873
 20
15.23600006103516
 30
134.2169952392578
 70
   192
  0
VERTEX
  5
24C
  8
0
 10
10.94900035858154
 20
15.66499996185303
 30
131.4219970703125
 70
   192
  0
VERTEX
  5
24D
  8
0
 10
7.130000114440918
 20
17.55999946594238
 30
132.2949981689453
 70
   192
  0
VERTEX
  5
24E
  8
0
 10
13.38500022888184
 20
13.59700012207031
 30
130.8650054931641
 70
   192
  0
VERTEX
  5
24F
  8
0
 10
2.621999979019165
 20
18.66799926757812
 30
133.3269958496094
 70
   192
  0
VERTEX
  5
250
  8
0
 10
-0.1609999984502792
 20
18.73100090026855
 30
133.9629974365234
 70
   192
  0
VERTEX
  5
251
  8
0
 10
-0.136000007390976
 20
18.73100090026855
 30
133.9649963378906
 70
   192
  0
VERTEX
  5
252
  8
0
 10
6.888000011444092
 20
17.68099975585938
 30
132.3509979248047
 70
   192
  0
VERTEX
  5
253
  8
0
 10
4.880000114440918
 20
18.62800025939941
 30
134.427001953125
 70
   192
  0
VERTEX
  5
254
  8
0
 10
7.63100004196167
 20
18.50900077819824
 30
134.7389984130859
 70
   192
  0
VERTEX
  5
255
  8
0
 10
7.040999889373779
 20
17.60499954223633
 30
132.3159942626953
 70
   192
  0
VERTEX
  5
256
  8
0
 10
9.526000022888184
 20
18.43199920654297
 30
134.9900054931641
 70
   192
  0
VERTEX
  5
257
  8
0
 10
19.47200012207031
 20
16.7549991607666
 30
136.0760040283203
 70
   192
  0
VERTEX
  5
258
  8
0
 10
20.28000068664551
 20
15.31599998474121
 30
135.9759979248047
 70
   192
  0
VERTEX
  5
259
  8
0
 10
18.9680004119873
 20
17.59000015258789
 30
136.1380004882812
 70
   192
  0
VERTEX
  5
25A
  8
0
 10
13.11100006103516
 20
18.28800010681152
 30
135.4640045166016
 70
   192
  0
VERTEX
  5
25B
  8
0
 10
18.58600044250488
 20
18.19300079345703
 30
136.1849975585938
 70
   192
  0
VERTEX
  5
25C
  8
0
 10
20.66799926757812
 20
14.43000030517578
 30
135.9279937744141
 70
   192
  0
VERTEX
  5
25D
  8
0
 10
22.68099975585938
 20
9.824000358581543
 30
135.6790008544922
 70
   192
  0
VERTEX
  5
25E
  8
0
 10
22.73999977111816
 20
9.6899995803833
 30
135.6719970703125
 70
   192
  0
VERTEX
  5
25F
  8
0
 10
23.89500045776367
 20
4.96999979019165
 30
135.5290069580078
 70
   192
  0
VERTEX
  5
260
  8
0
 10
24.04400062561035
 20
4.361999988555908
 30
135.5110015869141
 70
   192
  0
VERTEX
  5
261
  8
0
 10
24.375
 20
0.0
 30
135.4700012207031
 70
   192
  0
VERTEX
  5
262
  8
0
 62
     9
 10
0.0
 20
0.0
 30
0.0
 70
   128
 71
     3
 72
     2
 73
     1
  0
VERTEX
  5
263
  8
0
 62
     9
 10
0.0
 20
0.0
 30
0.0
 70
   128
 71
     5
 72
     1
 73
     4
  0
VERTEX
  5
264
  8
0
 62
     9
 10
0.0
 20
0.0
 30
0.0
 70
   128
 71
     5
 72
     7
 73
     6
  0
VERTEX
  5
265
  8
0
 62
     9
 10
0.0
 20
0.0
 30
0.0
 70
   128
 71
     5
 72
     9
 73
     8
  0
VERTEX
  5
266
  8
0
 62
     9
 10
0.0
 20
0.0
 30
0.0
 70
   128
 71
     9
 72
     5
 73
     6
  0
VERTEX
  5
267
  8
0
 62
     9
 10
0.0
 20
0.0
 30
0.0
 70
   128
 71
     9
 72
    11
 73
    10
  0
VERTEX
  5
268
  8
0
 62
     9
 10
0.0
 20
0.0
 30
0.0
 70
   128
 71
    14
 72
    13
 73
    12
  0
VERTEX
  5
269
  8
0
 62
     9
 10
0.0
 20
0.0
 30
0.0
 70
   128
 71
    12
 72
     1
 73
    14
  0
VERTEX
  5
26A
  8
0
 62
     9
 10
0.0
 20
0.0
 30
0.0
 70
   128
 71
     1
 72
    15
 73
    14
  0
VERTEX
  5
26B
  8
0
 62
     9
 10
0.0
 20
0.0
 30
0.0
 70
   128
 71
    12
 72
     4
 73
     1
  0
VERTEX
  5
26C
  8
0
 62
     9
 10
0.0
 20
0.0
 30
0.0
 70
   128
 71
    16
 72
     1
 73
     2
  0
VERTEX
  5
26D
  8
0
 62
     9
 10
0.0
 20
0.0
 30
0.0
 70
   128
 71
     2
 72
    17
 73
    16
  0
VERTEX
  5
26E
  8
0
 62
     9
 10
0.0
 20
0.0
 30
0.0
 70
   128
 71
    16
 72
    18
 73
     1
  0
VERTEX
  5
26F
  8
0
 62
     9
 10
0.0
 20
0.0
 30
0.0
 70
   128
 71
     2
 72
    19
 73
    17
  0
VERTEX
  5
270
  8
0
 62
     9
 10
0.0
 20
0.0
 30
0.0
 70
   128
 71
    22
 72
    21
 73
    20
  0
VERTEX
  5
271
  8
0
 62
     9
 10
0.0
 20
0.0
 30
0.0
 70
   128
 71
    23
 72
     2
 73
    20
  0
VERTEX
  5
272
  8
0
 62
     9
 10
0.0
 20
0.0
 30
0.0
 70
   128
 71
    20
 72
    21
 73
    23
  0
VERTEX
  5
273
  8
0
 62
     9
 10
0.0
 20
0.0
 30
0.0
 70
   128
 71
     2
 72
     3
 73
    20
  0
VERTEX
  5
274
  8
0
 62
     9
 10
0.0
 20
0.0
 30
0.0
 70
   128
 71
    26
 72
    25
 73
    24
  0
VERTEX
  5
275
  8
0
 62
     9
 10
0.0
 20
0.0
 30
0.0
 70
   128
 71
    28
 72
    24
 73
    27
  0
VERTEX
  5
276
  8
0
 62
     9
 10
0.0
 20
0.0
 30
0.0
 70
   128
 71
    27
 72
    29
 73
    28
  0
VERTEX
  5
277
  8
0
 62
     9
 10
0.0
 20
0.0
 30
0.0
 70
   128
 71
    31
 72
    29
 73
    30
  0
VERTEX
  5
278
  8
0
 62
     9
 10
0.0
 20
0.0
 30
0.0
 70
   128
 71
    30
 72
    20
 73
    31
  0
VERTEX
  5
279
  8
0
 62
     9
 10
0.0
 20
0.0
 30
0.0
 70
   128
 71
    29
 72
    27
 73
    30
  0
VERTEX
  5
27A
  8
0
 62
     9
 10
0.0
 20
0.0
 30
0.0
 70
   128
 71
    33
 72
    32
 73
    20
  0
VERTEX
  5
27B
  8
0
 62
     9
 10
0.0
 20
0.0
 30
0.0
 70
   128
 71
    32
 72
    34
 73
    20
  0
VERTEX
  5
27C
  8
0
 62
     9
 10
0.0
 20
0.0
 30
0.0
 70
   128
 71
    36
 72
    35
 73
    20
  0
VERTEX
  5
27D
  8
0
 62
     9
 10
0.0
 20
0.0
 30
0.0
 70
   128
 71
    20
 72
    34
 73
    36
  0
VERTEX
  5
27E
  8
0
 62
     9
 10
0.0
 20
0.0
 30
0.0
 70
   128
 71
    35
 72
    31
 73
    20
  0
VERTEX
  5
27F
  8
0
 62
     9
 10
0.0
 20
0.0
 30
0.0
 70
   128
 71
     3
 72
     8
 73
    37
  0
VERTEX
  5
280
  8
0
 62
     9
 10
0.0
 20
0.0
 30
0.0
 70
   128
 71
     8
 72
    38
 73
    37
  0
VERTEX
  5
281
  8
0
 62
     9
 10
0.0
 20
0.0
 30
0.0
 70
   128
 71
     9
 72
    40
 73
    39
  0
VERTEX
  5
282
  8
0
 62
     9
 10
0.0
 20
0.0
 30
0.0
 70
   128
 71
    39
 72
    38
 73
     8
  0
VERTEX
  5
283
  8
0
 62
     9
 10
0.0
 20
0.0
 30
0.0
 70
   128
 71
    41
 72
     9
 73
    10
  0
VERTEX
  5
284
  8
0
 62
     9
 10
0.0
 20
0.0
 30
0.0
 70
   128
 71
    41
 72
    40
 73
     9
  0
VERTEX
  5
285
  8
0
 62
     9
 10
0.0
 20
0.0
 30
0.0
 70
   128
 71
    10
 72
    42
 73
    41
  0
VERTEX
  5
286
  8
0
 62
     9
 10
0.0
 20
0.0
 30
0.0
 70
   128
 71
    39
 72
     8
 73
     9
  0
VERTEX
  5
287
  8
0
 62
     9
 10
0.0
 20
0.0
 30
0.0
 70
   128
 71
    37
 72
    20
 73
     3
  0
VERTEX
  5
288
  8
0
 62
     9
 10
0.0
 20
0.0
 30
0.0
 70
   128
 71
    20
 72
    37
 73
    33
  0
VERTEX
  5
289
  8
0
 62
     9
 10
0.0
 20
0.0
 30
0.0
 70
   128
 71
    24
 72
    28
 73
    26
  0
VERTEX
  5
28A
  8
0
 62
     9
 10
0.0
 20
0.0
 30
0.0
 70
   128
 71
    20
 72
    30
 73
    22
  0
VERTEX
  5
28B
  8
0
 62
     9
 10
0.0
 20
0.0
 30
0.0
 70
   128
 71
     2
 72
    23
 73
    19
  0
VERTEX
  5
28C
  8
0
 62
     9
 10
0.0
 20
0.0
 30
0.0
 70
   128
 71
     1
 72
    18
 73
    15
  0
VERTEX
  5
28D
  8
0
 62
     9
 10
0.0
 20
0.0
 30
0.0
 70
   128
 71
     6
 72
    11
 73
     9
  0
VERTEX
  5
28E
  8
0
 62
     9
 10
0.0
 20
0.0
 30
0.0
 70
   128
 71
     8
 72
     3
 73
     5
  0
VERTEX
  5
28F
  8
0
 62
     9
 10
0.0
 20
0.0
 30
0.0
 70
   128
 71
     4
 72
     7
 73
     5
  0
VERTEX
  5
290
  8
0
 62
     9
 10
0.0
 20
0.0
 30
0.0
 70
   128
 71
     1
 72
     5
 73
     3
  0
SEQEND
  5
291
  8
0
 62
     9
  0
ENDBLK
  5
294
  8
0
  0
BLOCK
  8
0
  2
E3_NODE_9_
 70
     0
 10
0.0
 20
0.0
 30
0.0
  3
E3_NODE_9_
  1

  0
POLYLINE
  5
296
  8
0
 62
     9
 66
     1
 10
0.0
 20
0.0
 30
0.0
 70
    64
 71
    40
 72
    45
  0
VERTEX
  5
297
  8
0
 10
19.23299980163574
 20
-0.0010000000474975
 30
132.1609954833984
 70
   192
  0
VERTEX
  5
298
  8
0
 10
19.46699905395508
 20
0.0
 30
133.4819946289062
 70
   192
  0
VERTEX
  5
299
  8
0
 10
18.94599914550781
 20
-5.945000171661377
 30
133.906005859375
 70
   192
  0
VERTEX
  5
29A
  8
0
 10
17.87100028991699
 20
-6.769999980926514
 30
132.1600036621094
 70
   192
  0
VERTEX
  5
29B
  8
0
 10
16.72299957275391
 20
-10.91699981689453
 30
133.8670043945312
 70
   192
  0
VERTEX
  5
29C
  8
0
 10
19.96100044250488
 20
0.0
 30
133.89599609375
 70
   192
  0
VERTEX
  5
29D
  8
0
 10
20.97800064086914
 20
0.0
 30
134.7480010986328
 70
   192
  0
VERTEX
  5
29E
  8
0
 10
21.0930004119873
 20
-5.26800012588501
 30
134.9940032958984
 70
   192
  0
VERTEX
  5
29F
  8
0
 10
19.37400054931641
 20
-10.12600040435791
 30
135.0160064697266
 70
   192
  0
VERTEX
  5
2A0
  8
0
 10
21.77099990844727
 20
0.0
 30
134.9160003662109
 70
   192
  0
VERTEX
  5
2A1
  8
0
 10
24.375
 20
0.0
 30
135.4700012207031
 70
   192
  0
VERTEX
  5
2A2
  8
0
 10
24.375
 20
-0.003000000026077
 30
135.4700012207031
 70
   192
  0
VERTEX
  5
2A3
  8
0
 10
23.89500045776367
 20
-4.97700023651123
 30
135.5299987792969
 70
   192
  0
VERTEX
  5
2A4
  8
0
 10
23.84099960327148
 20
-5.538000106811523
 30
135.5370025634766
 70
   192
  0
VERTEX
  5
2A5
  8
0
 10
22.55599975585938
 20
-9.78600025177002
 30
135.6959991455078
 70
   192
  0
VERTEX
  5
2A6
  8
0
 10
21.94300079345703
 20
-11.81099987030029
 30
135.7720031738281
 70
   192
  0
VERTEX
  5
2A7
  8
0
 10
20.59099960327148
 20
-14.38199996948242
 30
135.9389953613281
 70
   192
  0
VERTEX
  5
2A8
  8
0
 10
13.46300029754639
 20
-15.23700046539307
 30
134.2169952392578
 70
   192
  0
VERTEX
  5
2A9
  8
0
 10
18.58799934387207
 20
-18.19300079345703
 30
136.1849975585938
 70
   192
  0
VERTEX
  5
2AA
  8
0
 10
13.85000038146973
 20
-18.26600074768066
 30
135.5650024414062
 70
   192
  0
VERTEX
  5
2AB
  8
0
 10
4.50600004196167
 20
-18.64399909973145
 30
134.3890075683594
 70
   192
  0
VERTEX
  5
2AC
  8
0
 10
4.531000137329102
 20
-18.35700035095215
 30
132.8899993896484
 70
   192
  0
VERTEX
  5
2AD
  8
0
 10
7.03000020980835
 20
-17.5620002746582
 30
132.3179931640625
 70
   192
  0
VERTEX
  5
2AE
  8
0
 10
9.538999557495117
 20
-18.42700004577637
 30
134.9819946289062
 70
   192
  0
VERTEX
  5
2AF
  8
0
 10
9.109999656677246
 20
-18.44300079345703
 30
134.9250030517578
 70
   192
  0
VERTEX
  5
2B0
  8
0
 10
-0.119999997317791
 20
-18.73100090026855
 30
133.9660034179688
 70
   192
  0
VERTEX
  5
2B1
  8
0
 10
-0.1609999984502792
 20
-18.73100090026855
 30
133.9629974365234
 70
   192
  0
VERTEX
  5
2B2
  8
0
 10
12.07100009918213
 20
-14.86600017547607
 30
131.1660003662109
 70
   192
  0
VERTEX
  5
2B3
  8
0
 10
13.35900020599365
 20
-13.58500003814697
 30
130.8710021972656
 70
   192
  0
VERTEX
  5
2B4
  8
0
 10
7.931000232696533
 20
-17.27499961853027
 30
132.1119995117188
 70
   192
  0
VERTEX
  5
2B5
  8
0
 10
7.125
 20
-17.5319995880127
 30
132.2969970703125
 70
   192
  0
VERTEX
  5
2B6
  8
0
 10
14.81599998474121
 20
-12.14000034332275
 30
132.3849945068359
 70
   192
  0
VERTEX
  5
2B7
  8
0
 10
15.46199989318848
 20
-11.49199962615967
 30
130.3899993896484
 70
   192
  0
VERTEX
  5
2B8
  8
0
 10
13.40799999237061
 20
-13.53600025177002
 30
130.8600006103516
 70
   192
  0
VERTEX
  5
2B9
  8
0
 10
17.85300064086914
 20
-7.443999767303467
 30
129.8430023193359
 70
   192
  0
VERTEX
  5
2BA
  8
0
 10
19.14100074768066
 20
-3.114000082015991
 30
129.5489959716797
 70
   192
  0
VERTEX
  5
2BB
  8
0
 10
19.10899925231934
 20
-0.0010000000474975
 30
131.4559936523438
 70
   192
  0
VERTEX
  5
2BC
  8
0
 10
17.8390007019043
 20
-7.48799991607666
 30
129.8470001220703
 70
   192
  0
VERTEX
  5
2BD
  8
0
 10
17.84099960327148
 20
-7.484000205993652
 30
129.8459930419922
 70
   192
  0
VERTEX
  5
2BE
  8
0
 10
19.40099906921387
 20
-0.0010000000474975
 30
129.4889984130859
 70
   192
  0
VERTEX
  5
2BF
  8
0
 62
     9
 10
0.0
 20
0.0
 30
0.0
 70
   128
 71
     3
 72
     2
 73
     1
  0
VERTEX
  5
2C0
  8
0
 62
     9
 10
0.0
 20
0.0
 30
0.0
 70
   128
 71
     1
 72
     4
 73
     3
  0
VERTEX
  5
2C1
  8
0
 62
     9
 10
0.0
 20
0.0
 30
0.0
 70
   128
 71
     5
 72
     3
 73
     4
  0
VERTEX
  5
2C2
  8
0
 62
     9
 10
0.0
 20
0.0
 30
0.0
 70
   128
 71
     8
 72
     7
 73
     6
  0
VERTEX
  5
2C3
  8
0
 62
     9
 10
0.0
 20
0.0
 30
0.0
 70
   128
 71
     6
 72
     3
 73
     8
  0
VERTEX
  5
2C4
  8
0
 62
     9
 10
0.0
 20
0.0
 30
0.0
 70
   128
 71
     3
 72
     5
 73
     9
  0
VERTEX
  5
2C5
  8
0
 62
     9
 10
0.0
 20
0.0
 30
0.0
 70
   128
 71
     8
 72
    11
 73
    10
  0
VERTEX
  5
2C6
  8
0
 62
     9
 10
0.0
 20
0.0
 30
0.0
 70
   128
 71
     8
 72
    12
 73
    11
  0
VERTEX
  5
2C7
  8
0
 62
     9
 10
0.0
 20
0.0
 30
0.0
 70
   128
 71
     8
 72
    13
 73
    12
  0
VERTEX
  5
2C8
  8
0
 62
     9
 10
0.0
 20
0.0
 30
0.0
 70
   128
 71
    15
 72
    14
 73
     8
  0
VERTEX
  5
2C9
  8
0
 62
     9
 10
0.0
 20
0.0
 30
0.0
 70
   128
 71
    14
 72
    13
 73
     8
  0
VERTEX
  5
2CA
  8
0
 62
     9
 10
0.0
 20
0.0
 30
0.0
 70
   128
 71
    16
 72
    15
 73
     9
  0
VERTEX
  5
2CB
  8
0
 62
     9
 10
0.0
 20
0.0
 30
0.0
 70
   128
 71
     5
 72
    18
 73
    17
  0
VERTEX
  5
2CC
  8
0
 62
     9
 10
0.0
 20
0.0
 30
0.0
 70
   128
 71
    17
 72
     9
 73
     5
  0
VERTEX
  5
2CD
  8
0
 62
     9
 10
0.0
 20
0.0
 30
0.0
 70
   128
 71
    19
 72
    17
 73
    18
  0
VERTEX
  5
2CE
  8
0
 62
     9
 10
0.0
 20
0.0
 30
0.0
 70
   128
 71
    18
 72
    20
 73
    19
  0
VERTEX
  5
2CF
  8
0
 62
     9
 10
0.0
 20
0.0
 30
0.0
 70
   128
 71
    23
 72
    22
 73
    21
  0
VERTEX
  5
2D0
  8
0
 62
     9
 10
0.0
 20
0.0
 30
0.0
 70
   128
 71
    24
 72
    18
 73
    23
  0
VERTEX
  5
2D1
  8
0
 62
     9
 10
0.0
 20
0.0
 30
0.0
 70
   128
 71
    23
 72
    25
 73
    24
  0
VERTEX
  5
2D2
  8
0
 62
     9
 10
0.0
 20
0.0
 30
0.0
 70
   128
 71
    26
 72
    21
 73
    22
  0
VERTEX
  5
2D3
  8
0
 62
     9
 10
0.0
 20
0.0
 30
0.0
 70
   128
 71
    22
 72
    27
 73
    26
  0
VERTEX
  5
2D4
  8
0
 62
     9
 10
0.0
 20
0.0
 30
0.0
 70
   128
 71
    29
 72
    28
 73
    18
  0
VERTEX
  5
2D5
  8
0
 62
     9
 10
0.0
 20
0.0
 30
0.0
 70
   128
 71
    28
 72
    30
 73
    18
  0
VERTEX
  5
2D6
  8
0
 62
     9
 10
0.0
 20
0.0
 30
0.0
 70
   128
 71
    30
 72
    31
 73
    18
  0
VERTEX
  5
2D7
  8
0
 62
     9
 10
0.0
 20
0.0
 30
0.0
 70
   128
 71
    31
 72
    23
 73
    18
  0
VERTEX
  5
2D8
  8
0
 62
     9
 10
0.0
 20
0.0
 30
0.0
 70
   128
 71
    18
 72
    32
 73
    29
  0
VERTEX
  5
2D9
  8
0
 62
     9
 10
0.0
 20
0.0
 30
0.0
 70
   128
 71
    33
 72
    32
 73
     4
  0
VERTEX
  5
2DA
  8
0
 62
     9
 10
0.0
 20
0.0
 30
0.0
 70
   128
 71
    33
 72
    34
 73
    32
  0
VERTEX
  5
2DB
  8
0
 62
     9
 10
0.0
 20
0.0
 30
0.0
 70
   128
 71
    34
 72
    29
 73
    32
  0
VERTEX
  5
2DC
  8
0
 62
     9
 10
0.0
 20
0.0
 30
0.0
 70
   128
 71
    36
 72
    35
 73
     4
  0
VERTEX
  5
2DD
  8
0
 62
     9
 10
0.0
 20
0.0
 30
0.0
 70
   128
 71
     4
 72
    37
 73
    36
  0
VERTEX
  5
2DE
  8
0
 62
     9
 10
0.0
 20
0.0
 30
0.0
 70
   128
 71
    39
 72
    38
 73
     4
  0
VERTEX
  5
2DF
  8
0
 62
     9
 10
0.0
 20
0.0
 30
0.0
 70
   128
 71
     4
 72
    35
 73
    39
  0
VERTEX
  5
2E0
  8
0
 62
     9
 10
0.0
 20
0.0
 30
0.0
 70
   128
 71
    37
 72
    40
 73
    36
  0
VERTEX
  5
2E1
  8
0
 62
     9
 10
0.0
 20
0.0
 30
0.0
 70
   128
 71
     4
 72
     1
 73
    37
  0
VERTEX
  5
2E2
  8
0
 62
     9
 10
0.0
 20
0.0
 30
0.0
 70
   128
 71
     4
 72
    38
 73
    33
  0
VERTEX
  5
2E3
  8
0
 62
     9
 10
0.0
 20
0.0
 30
0.0
 70
   128
 71
    18
 72
     5
 73
    32
  0
VERTEX
  5
2E4
  8
0
 62
     9
 10
0.0
 20
0.0
 30
0.0
 70
   128
 71
    21
 72
    25
 73
    23
  0
VERTEX
  5
2E5
  8
0
 62
     9
 10
0.0
 20
0.0
 30
0.0
 70
   128
 71
    18
 72
    24
 73
    20
  0
VERTEX
  5
2E6
  8
0
 62
     9
 10
0.0
 20
0.0
 30
0.0
 70
   128
 71
     9
 72
    17
 73
    16
  0
VERTEX
  5
2E7
  8
0
 62
     9
 10
0.0
 20
0.0
 30
0.0
 70
   128
 71
     8
 72
     9
 73
    15
  0
VERTEX
  5
2E8
  8
0
 62
     9
 10
0.0
 20
0.0
 30
0.0
 70
   128
 71
     9
 72
     8
 73
     3
  0
VERTEX
  5
2E9
  8
0
 62
     9
 10
0.0
 20
0.0
 30
0.0
 70
   128
 71
     8
 72
    10
 73
     7
  0
VERTEX
  5
2EA
  8
0
 62
     9
 10
0.0
 20
0.0
 30
0.0
 70
   128
 71
     4
 72
    32
 73
     5
  0
VERTEX
  5
2EB
  8
0
 62
     9
 10
0.0
 20
0.0
 30
0.0
 70
   128
 71
     3
 72
     6
 73
     2
  0
SEQEND
  5
2EC
  8
0
 62
     9
  0
ENDBLK
  5
2EF
  8
0
  0
BLOCK
  8
0
  2
E3_NODE_10_
 70
     0
 10
0.0
 20
0.0
 30
0.0
  3
E3_NODE_10_
  1

  0
POLYLINE
  5
2F1
  8
0
 62
     9
 66
     1
 10
0.0
 20
0.0
 30
0.0
 70
    64
 71
    12
 72
    10
  0
VERTEX
  5
2F2
  8
0
 10
4.828000068664551
 20
18.6870002746582
 30
134.7630004882812
 70
   192
  0
VERTEX
  5
2F3
  8
0
 10
4.880000114440918
 20
18.62800025939941
 30
134.427001953125
 70
   192
  0
VERTEX
  5
2F4
  8
0
 10
-0.136000007390976
 20
18.73100090026855
 30
133.9649963378906
 70
   192
  0
VERTEX
  5
2F5
  8
0
 10
7.560999870300293
 20
18.66600036621094
 30
135.1920013427734
 70
   192
  0
VERTEX
  5
2F6
  8
0
 10
7.63100004196167
 20
18.50900077819824
 30
134.7389984130859
 70
   192
  0
VERTEX
  5
2F7
  8
0
 10
13.0319995880127
 20
18.62899971008301
 30
136.02099609375
 70
   192
  0
VERTEX
  5
2F8
  8
0
 10
13.11100006103516
 20
18.28800010681152
 30
135.4640045166016
 70
   192
  0
VERTEX
  5
2F9
  8
0
 10
9.526000022888184
 20
18.43199920654297
 30
134.9900054931641
 70
   192
  0
VERTEX
  5
2FA
  8
0
 10
18.51700019836426
 20
18.60899925231934
 30
136.7599945068359
 70
   192
  0
VERTEX
  5
2FB
  8
0
 10
18.58600044250488
 20
18.19300079345703
 30
136.1849975585938
 70
   192
  0
VERTEX
  5
2FC
  8
0
 10
-0.136000007390976
 20
18.73100090026855
 30
133.9669952392578
 70
   192
  0
VERTEX
  5
2FD
  8
0
 10
-0.1609999984502792
 20
18.73100090026855
 30
133.9629974365234
 70
   192
  0
VERTEX
  5
2FE
  8
0
 62
     9
 10
0.0
 20
0.0
 30
0.0
 70
   128
 71
     3
 72
     2
 73
     1
  0
VERTEX
  5
2FF
  8
0
 62
     9
 10
0.0
 20
0.0
 30
0.0
 70
   128
 71
     2
 72
     5
 73
     4
  0
VERTEX
  5
300
  8
0
 62
     9
 10
0.0
 20
0.0
 30
0.0
 70
   128
 71
     8
 72
     7
 73
     6
  0
VERTEX
  5
301
  8
0
 62
     9
 10
0.0
 20
0.0
 30
0.0
 70
   128
 71
     6
 72
     4
 73
     8
  0
VERTEX
  5
302
  8
0
 62
     9
 10
0.0
 20
0.0
 30
0.0
 70
   128
 71
     7
 72
    10
 73
     9
  0
VERTEX
  5
303
  8
0
 62
     9
 10
0.0
 20
0.0
 30
0.0
 70
   128
 71
     9
 72
     6
 73
     7
  0
VERTEX
  5
304
  8
0
 62
     9
 10
0.0
 20
0.0
 30
0.0
 70
   128
 71
     4
 72
     5
 73
     8
  0
VERTEX
  5
305
  8
0
 62
     9
 10
0.0
 20
0.0
 30
0.0
 70
   128
 71
     4
 72
     1
 73
     2
  0
VERTEX
  5
306
  8
0
 62
     9
 10
0.0
 20
0.0
 30
0.0
 70
   128
 71
     1
 72
    11
 73
     3
  0
VERTEX
  5
307
  8
0
 62
     9
 10
0.0
 20
0.0
 30
0.0
 70
   128
 71
    12
 72
     3
 73
    11
  0
SEQEND
  5
308
  8
0
 62
     9
  0
ENDBLK
  5
30B
  8
0
  0
BLOCK
  8
0
  2
E3_NODE_11_
 70
     0
 10
0.0
 20
0.0
 30
0.0
  3
E3_NODE_11_
  1

  0
POLYLINE
  5
30D
  8
0
 62
     9
 66
     1
 10
0.0
 20
0.0
 30
0.0
 70
    64
 71
    10
 72
     8
  0
VERTEX
  5
30E
  8
0
 10
28.09199905395508
 20
18.17900085449219
 30
137.3520050048828
 70
   192
  0
VERTEX
  5
30F
  8
0
 10
28.02199935913086
 20
18.59499931335449
 30
137.9250030517578
 70
   192
  0
VERTEX
  5
310
  8
0
 10
47.03499984741211
 20
18.56900024414062
 30
140.2550048828125
 70
   192
  0
VERTEX
  5
311
  8
0
 10
47.10400009155273
 20
18.15299987792969
 30
139.6869964599609
 70
   192
  0
VERTEX
  5
312
  8
0
 10
66.0469970703125
 20
18.54599952697754
 30
142.5859985351562
 70
   192
  0
VERTEX
  5
313
  8
0
 10
18.58600044250488
 20
18.19300079345703
 30
136.1849975585938
 70
   192
  0
VERTEX
  5
314
  8
0
 10
18.51700019836426
 20
18.60899925231934
 30
136.7599945068359
 70
   192
  0
VERTEX
  5
315
  8
0
 10
66.11599731445312
 20
18.12899971008301
 30
142.0220031738281
 70
   192
  0
VERTEX
  5
316
  8
0
 10
69.75299835205078
 20
18.54199981689453
 30
143.0410003662109
 70
   192
  0
VERTEX
  5
317
  8
0
 10
69.82099914550781
 20
18.125
 30
142.4770050048828
 70
   192
  0
VERTEX
  5
318
  8
0
 62
     9
 10
0.0
 20
0.0
 30
0.0
 70
   128
 71
     3
 72
     2
 73
     1
  0
VERTEX
  5
319
  8
0
 62
     9
 10
0.0
 20
0.0
 30
0.0
 70
   128
 71
     5
 72
     3
 73
     4
  0
VERTEX
  5
31A
  8
0
 62
     9
 10
0.0
 20
0.0
 30
0.0
 70
   128
 71
     7
 72
     6
 73
     1
  0
VERTEX
  5
31B
  8
0
 62
     9
 10
0.0
 20
0.0
 30
0.0
 70
   128
 71
     9
 72
     5
 73
     8
  0
VERTEX
  5
31C
  8
0
 62
     9
 10
0.0
 20
0.0
 30
0.0
 70
   128
 71
     8
 72
    10
 73
     9
  0
VERTEX
  5
31D
  8
0
 62
     9
 10
0.0
 20
0.0
 30
0.0
 70
   128
 71
     1
 72
     2
 73
     7
  0
VERTEX
  5
31E
  8
0
 62
     9
 10
0.0
 20
0.0
 30
0.0
 70
   128
 71
     4
 72
     8
 73
     5
  0
VERTEX
  5
31F
  8
0
 62
     9
 10
0.0
 20
0.0
 30
0.0
 70
   128
 71
     1
 72
     4
 73
     3
  0
SEQEND
  5
320
  8
0
 62
     9
  0
ENDBLK
  5
323
  8
0
  0
BLOCK
  8
0
  2
E3_NODE_12_
 70
     0
 10
0.0
 20
0.0
 30
0.0
  3
E3_NODE_12_
  1

  0
POLYLINE
  5
325
  8
0
 62
     9
 66
     1
 10
0.0
 20
0.0
 30
0.0
 70
    64
 71
    15
 72
    13
  0
VERTEX
  5
326
  8
0
 10
-0.1729999929666519
 20
18.10600090026855
 30
137.3849945068359
 70
   192
  0
VERTEX
  5
327
  8
0
 10
4.828000068664551
 20
18.6870002746582
 30
134.7630004882812
 70
   192
  0
VERTEX
  5
328
  8
0
 10
-0.136000007390976
 20
18.73100090026855
 30
133.9669952392578
 70
   192
  0
VERTEX
  5
329
  8
0
 10
7.560999870300293
 20
18.66600036621094
 30
135.1920013427734
 70
   192
  0
VERTEX
  5
32A
  8
0
 10
13.0319995880127
 20
18.62899971008301
 30
136.02099609375
 70
   192
  0
VERTEX
  5
32B
  8
0
 10
48.99599838256836
 20
18.09499931335449
 30
143.4839935302734
 70
   192
  0
VERTEX
  5
32C
  8
0
 10
28.02199935913086
 20
18.59499931335449
 30
137.9250030517578
 70
   192
  0
VERTEX
  5
32D
  8
0
 10
69.87000274658203
 20
18.31800079345703
 30
144.5579986572266
 70
   192
  0
VERTEX
  5
32E
  8
0
 10
66.0469970703125
 20
18.54599952697754
 30
142.5859985351562
 70
   192
  0
VERTEX
  5
32F
  8
0
 10
47.03499984741211
 20
18.56900024414062
 30
140.2550048828125
 70
   192
  0
VERTEX
  5
330
  8
0
 10
69.83399963378906
 20
18.54199981689453
 30
143.0509948730469
 70
   192
  0
VERTEX
  5
331
  8
0
 10
69.75299835205078
 20
18.54199981689453
 30
143.0410003662109
 70
   192
  0
VERTEX
  5
332
  8
0
 10
69.90599822998047
 20
18.10199928283691
 30
146.0079956054688
 70
   192
  0
VERTEX
  5
333
  8
0
 10
18.51700019836426
 20
18.60899925231934
 30
136.7599945068359
 70
   192
  0
VERTEX
  5
334
  8
0
 10
-0.1609999984502792
 20
18.73100090026855
 30
133.9629974365234
 70
   192
  0
VERTEX
  5
335
  8
0
 62
     9
 10
0.0
 20
0.0
 30
0.0
 70
   128
 71
     3
 72
     2
 73
     1
  0
VERTEX
  5
336
  8
0
 62
     9
 10
0.0
 20
0.0
 30
0.0
 70
   128
 71
     2
 72
     4
 73
     1
  0
VERTEX
  5
337
  8
0
 62
     9
 10
0.0
 20
0.0
 30
0.0
 70
   128
 71
     4
 72
     5
 73
     1
  0
VERTEX
  5
338
  8
0
 62
     9
 10
0.0
 20
0.0
 30
0.0
 70
   128
 71
     7
 72
     6
 73
     1
  0
VERTEX
  5
339
  8
0
 62
     9
 10
0.0
 20
0.0
 30
0.0
 70
   128
 71
     9
 72
     8
 73
     6
  0
VERTEX
  5
33A
  8
0
 62
     9
 10
0.0
 20
0.0
 30
0.0
 70
   128
 71
     6
 72
    10
 73
     9
  0
VERTEX
  5
33B
  8
0
 62
     9
 10
0.0
 20
0.0
 30
0.0
 70
   128
 71
     6
 72
     7
 73
    10
  0
VERTEX
  5
33C
  8
0
 62
     9
 10
0.0
 20
0.0
 30
0.0
 70
   128
 71
    12
 72
    11
 73
     8
  0
VERTEX
  5
33D
  8
0
 62
     9
 10
0.0
 20
0.0
 30
0.0
 70
   128
 71
     8
 72
     9
 73
    12
  0
VERTEX
  5
33E
  8
0
 62
     9
 10
0.0
 20
0.0
 30
0.0
 70
   128
 71
     8
 72
    13
 73
     6
  0
VERTEX
  5
33F
  8
0
 62
     9
 10
0.0
 20
0.0
 30
0.0
 70
   128
 71
     1
 72
    14
 73
     7
  0
VERTEX
  5
340
  8
0
 62
     9
 10
0.0
 20
0.0
 30
0.0
 70
   128
 71
     1
 72
     5
 73
    14
  0
VERTEX
  5
341
  8
0
 62
     9
 10
0.0
 20
0.0
 30
0.0
 70
   128
 71
     1
 72
    15
 73
     3
  0
SEQEND
  5
342
  8
0
 62
     9
  0
ENDBLK
  5
345
  8
0
  0
BLOCK
  8
0
  2
E3_NODE_13_
 70
     0
 10
0.0
 20
0.0
 30
0.0
  3
E3_NODE_13_
  1

  0
POLYLINE
  5
347
  8
0
 62
     9
 66
     1
 10
0.0
 20
0.0
 30
0.0
 70
    64
 71
    65
 72
    70
  0
VERTEX
  5
348
  8
0
 10
-8.312999725341797
 20
-19.43899917602539
 30
120.4309997558594
 70
   192
  0
VERTEX
  5
349
  8
0
 10
-0.1140000000596046
 20
-21.11100006103516
 30
120.9240036010742
 70
   192
  0
VERTEX
  5
34A
  8
0
 10
-4.559999942779541
 20
-17.55900001525879
 30
136.8459930419922
 70
   192
  0
VERTEX
  5
34B
  8
0
 10
-6.089000225067139
 20
-17.09600067138672
 30
136.6660003662109
 70
   192
  0
VERTEX
  5
34C
  8
0
 10
-0.1609999984502792
 20
-18.73100090026855
 30
133.9629974365234
 70
   192
  0
VERTEX
  5
34D
  8
0
 10
-0.1729999929666519
 20
-18.10600090026855
 30
137.3849945068359
 70
   192
  0
VERTEX
  5
34E
  8
0
 10
-10.06099987030029
 20
-15.10999965667725
 30
136.2079925537109
 70
   192
  0
VERTEX
  5
34F
  8
0
 10
-11.3430004119873
 20
-14.17199993133545
 30
136.0599975585938
 70
   192
  0
VERTEX
  5
350
  8
0
 10
-15.11400032043457
 20
-14.79599952697754
 30
120.0319976806641
 70
   192
  0
VERTEX
  5
351
  8
0
 10
-7.25
 20
-16.51499938964844
 30
136.5319976806641
 70
   192
  0
VERTEX
  5
352
  8
0
 10
-19.5890007019043
 20
-7.973000049591064
 30
119.7720031738281
 70
   192
  0
VERTEX
  5
353
  8
0
 10
-15.36499977111816
 20
-9.651000022888184
 30
135.5820007324219
 70
   192
  0
VERTEX
  5
354
  8
0
 10
-12.98700046539307
 20
-12.48099994659424
 30
135.8659973144531
 70
   192
  0
VERTEX
  5
355
  8
0
 10
-14.45499992370605
 20
-10.97000026702881
 30
135.6929931640625
 70
   192
  0
VERTEX
  5
356
  8
0
 10
-21.14800071716309
 20
0.0
 30
119.6829986572266
 70
   192
  0
VERTEX
  5
357
  8
0
 10
-17.69099998474121
 20
-4.011000156402588
 30
135.2790069580078
 70
   192
  0
VERTEX
  5
358
  8
0
 10
-16.73900032043457
 20
-6.704999923706055
 30
135.4049987792969
 70
   192
  0
VERTEX
  5
359
  8
0
 10
-17.25300025939941
 20
-5.604000091552734
 30
135.3390045166016
 70
   192
  0
VERTEX
  5
35A
  8
0
 10
-19.5890007019043
 20
7.973000049591064
 30
119.7720031738281
 70
   192
  0
VERTEX
  5
35B
  8
0
 10
-18.02099990844727
 20
2.072999954223633
 30
135.2310028076172
 70
   192
  0
VERTEX
  5
35C
  8
0
 10
-16.97100067138672
 20
6.409999847412109
 30
135.3730010986328
 70
   192
  0
VERTEX
  5
35D
  8
0
 10
-18.13400077819824
 20
0.4230000078678131
 30
135.2160034179688
 70
   192
  0
VERTEX
  5
35E
  8
0
 10
-18.0930004119873
 20
0.0049999998882413
 30
135.2220001220703
 70
   192
  0
VERTEX
  5
35F
  8
0
 10
-15.11400032043457
 20
14.79599952697754
 30
120.0319976806641
 70
   192
  0
VERTEX
  5
360
  8
0
 10
-16.3439998626709
 20
7.875
 30
135.4550018310547
 70
   192
  0
VERTEX
  5
361
  8
0
 10
-13.92700004577637
 20
11.63599967956543
 30
135.7550048828125
 70
   192
  0
VERTEX
  5
362
  8
0
 10
-16.82699966430664
 20
6.747000217437744
 30
135.3919982910156
 70
   192
  0
VERTEX
  5
363
  8
0
 10
-8.312999725341797
 20
19.43899917602539
 30
120.4309997558594
 70
   192
  0
VERTEX
  5
364
  8
0
 10
-12.85000038146973
 20
12.81900024414062
 30
135.8829956054688
 70
   192
  0
VERTEX
  5
365
  8
0
 10
-9.343999862670898
 20
15.56400012969971
 30
136.2899932861328
 70
   192
  0
VERTEX
  5
366
  8
0
 10
-7.894000053405762
 20
16.34600067138672
 30
136.4570007324219
 70
   192
  0
VERTEX
  5
367
  8
0
 10
-2.075999975204468
 20
18.00600051879883
 30
137.1470031738281
 70
   192
  0
VERTEX
  5
368
  8
0
 10
-0.1729999929666519
 20
18.10600090026855
 30
137.3849945068359
 70
   192
  0
VERTEX
  5
369
  8
0
 10
-0.1609999984502792
 20
18.73100090026855
 30
133.9629974365234
 70
   192
  0
VERTEX
  5
36A
  8
0
 10
-0.1140000000596046
 20
21.11100006103516
 30
120.9240036010742
 70
   192
  0
VERTEX
  5
36B
  8
0
 10
-3.696000099182129
 20
17.75600051879883
 30
136.9499969482422
 70
   192
  0
VERTEX
  5
36C
  8
0
 10
-7.278999805450439
 20
16.55200004577637
 30
136.5290069580078
 70
   192
  0
VERTEX
  5
36D
  8
0
 10
-0.1040000021457672
 20
21.63899993896484
 30
118.0319976806641
 70
   192
  0
VERTEX
  5
36E
  8
0
 10
-7.85699987411499
 20
21.99300003051758
 30
108.5479965209961
 70
   192
  0
VERTEX
  5
36F
  8
0
 10
-8.970999717712402
 20
21.32799911499023
 30
109.140998840332
 70
   192
  0
VERTEX
  5
370
  8
0
 10
-5.053999900817871
 20
23.0890007019043
 30
107.0579986572266
 70
   192
  0
VERTEX
  5
371
  8
0
 10
-0.0560000017285347
 20
24.12700080871582
 30
104.4000015258789
 70
   192
  0
VERTEX
  5
372
  8
0
 10
-15.42700004577637
 20
16.47400093078613
 30
112.5739974975586
 70
   192
  0
VERTEX
  5
373
  8
0
 10
-12.12399959564209
 20
19.44799995422363
 30
110.818000793457
 70
   192
  0
VERTEX
  5
374
  8
0
 10
-18.35600090026855
 20
12.57999992370605
 30
114.1309967041016
 70
   192
  0
VERTEX
  5
375
  8
0
 10
-20.16699981689453
 20
8.923999786376953
 30
115.0940017700195
 70
   192
  0
VERTEX
  5
376
  8
0
 10
-15.9689998626709
 20
15.75399971008301
 30
112.8619995117188
 70
   192
  0
VERTEX
  5
377
  8
0
 10
-21.48800086975098
 20
4.251999855041504
 30
115.7969970703125
 70
   192
  0
VERTEX
  5
378
  8
0
 10
-20.3390007019043
 20
8.315999984741211
 30
115.1849975585938
 70
   192
  0
VERTEX
  5
379
  8
0
 10
-21.84000015258789
 20
1.047999978065491
 30
115.984001159668
 70
   192
  0
VERTEX
  5
37A
  8
0
 10
-21.55999946594238
 20
-3.825999975204468
 30
115.8349990844727
 70
   192
  0
VERTEX
  5
37B
  8
0
 10
-21.04299926757812
 20
-6.26200008392334
 30
115.5599975585938
 70
   192
  0
VERTEX
  5
37C
  8
0
 10
-21.78000068664551
 20
0.0049999998882413
 30
115.9520034790039
 70
   192
  0
VERTEX
  5
37D
  8
0
 10
-19.30699920654297
 20
-10.85299968719482
 30
114.6370010375977
 70
   192
  0
VERTEX
  5
37E
  8
0
 10
-18.22599983215332
 20
-12.79300022125244
 30
114.0619964599609
 70
   192
  0
VERTEX
  5
37F
  8
0
 10
-20.27700042724609
 20
-8.288000106811523
 30
115.1520004272461
 70
   192
  0
VERTEX
  5
380
  8
0
 10
-15.18000030517578
 20
-16.73699951171875
 30
112.4420013427734
 70
   192
  0
VERTEX
  5
381
  8
0
 10
-13.5310001373291
 20
-18.31399917602539
 30
111.5650024414062
 70
   192
  0
VERTEX
  5
382
  8
0
 10
-9.380999565124512
 20
-21.2180004119873
 30
109.359001159668
 70
   192
  0
VERTEX
  5
383
  8
0
 10
-15.95100021362305
 20
-15.73900032043457
 30
112.8519973754883
 70
   192
  0
VERTEX
  5
384
  8
0
 10
-0.1040000021457672
 20
-21.63899993896484
 30
118.0319976806641
 70
   192
  0
VERTEX
  5
385
  8
0
 10
-9.012999534606934
 20
-21.39500045776367
 30
109.1630020141602
 70
   192
  0
VERTEX
  5
386
  8
0
 10
-6.96999979019165
 20
-22.38299942016602
 30
108.0770034790039
 70
   192
  0
VERTEX
  5
387
  8
0
 10
-2.043999910354614
 20
-23.84600067138672
 30
105.4580001831055
 70
   192
  0
VERTEX
  5
388
  8
0
 10
-0.0560000017285347
 20
-24.12700080871582
 30
104.4000015258789
 70
   192
  0
VERTEX
  5
389
  8
0
 62
     9
 10
0.0
 20
0.0
 30
0.0
 70
   128
 71
     3
 72
     2
 73
     1
  0
VERTEX
  5
38A
  8
0
 62
     9
 10
0.0
 20
0.0
 30
0.0
 70
   128
 71
     1
 72
     4
 73
     3
  0
VERTEX
  5
38B
  8
0
 62
     9
 10
0.0
 20
0.0
 30
0.0
 70
   128
 71
     5
 72
     2
 73
     3
  0
VERTEX
  5
38C
  8
0
 62
     9
 10
0.0
 20
0.0
 30
0.0
 70
   128
 71
     3
 72
     6
 73
     5
  0
VERTEX
  5
38D
  8
0
 62
     9
 10
0.0
 20
0.0
 30
0.0
 70
   128
 71
     8
 72
     7
 73
     1
  0
VERTEX
  5
38E
  8
0
 62
     9
 10
0.0
 20
0.0
 30
0.0
 70
   128
 71
     1
 72
     9
 73
     8
  0
VERTEX
  5
38F
  8
0
 62
     9
 10
0.0
 20
0.0
 30
0.0
 70
   128
 71
     7
 72
    10
 73
     1
  0
VERTEX
  5
390
  8
0
 62
     9
 10
0.0
 20
0.0
 30
0.0
 70
   128
 71
    12
 72
     9
 73
    11
  0
VERTEX
  5
391
  8
0
 62
     9
 10
0.0
 20
0.0
 30
0.0
 70
   128
 71
    14
 72
    13
 73
     9
  0
VERTEX
  5
392
  8
0
 62
     9
 10
0.0
 20
0.0
 30
0.0
 70
   128
 71
     9
 72
    12
 73
    14
  0
VERTEX
  5
393
  8
0
 62
     9
 10
0.0
 20
0.0
 30
0.0
 70
   128
 71
    16
 72
    11
 73
    15
  0
VERTEX
  5
394
  8
0
 62
     9
 10
0.0
 20
0.0
 30
0.0
 70
   128
 71
    18
 72
    17
 73
    11
  0
VERTEX
  5
395
  8
0
 62
     9
 10
0.0
 20
0.0
 30
0.0
 70
   128
 71
    11
 72
    16
 73
    18
  0
VERTEX
  5
396
  8
0
 62
     9
 10
0.0
 20
0.0
 30
0.0
 70
   128
 71
    20
 72
    15
 73
    19
  0
VERTEX
  5
397
  8
0
 62
     9
 10
0.0
 20
0.0
 30
0.0
 70
   128
 71
    19
 72
    21
 73
    20
  0
VERTEX
  5
398
  8
0
 62
     9
 10
0.0
 20
0.0
 30
0.0
 70
   128
 71
    20
 72
    22
 73
    15
  0
VERTEX
  5
399
  8
0
 62
     9
 10
0.0
 20
0.0
 30
0.0
 70
   128
 71
    22
 72
    23
 73
    15
  0
VERTEX
  5
39A
  8
0
 62
     9
 10
0.0
 20
0.0
 30
0.0
 70
   128
 71
    25
 72
    19
 73
    24
  0
VERTEX
  5
39B
  8
0
 62
     9
 10
0.0
 20
0.0
 30
0.0
 70
   128
 71
    24
 72
    26
 73
    25
  0
VERTEX
  5
39C
  8
0
 62
     9
 10
0.0
 20
0.0
 30
0.0
 70
   128
 71
    25
 72
    27
 73
    19
  0
VERTEX
  5
39D
  8
0
 62
     9
 10
0.0
 20
0.0
 30
0.0
 70
   128
 71
    29
 72
    24
 73
    28
  0
VERTEX
  5
39E
  8
0
 62
     9
 10
0.0
 20
0.0
 30
0.0
 70
   128
 71
    28
 72
    30
 73
    29
  0
VERTEX
  5
39F
  8
0
 62
     9
 10
0.0
 20
0.0
 30
0.0
 70
   128
 71
    28
 72
    31
 73
    30
  0
VERTEX
  5
3A0
  8
0
 62
     9
 10
0.0
 20
0.0
 30
0.0
 70
   128
 71
    34
 72
    33
 73
    32
  0
VERTEX
  5
3A1
  8
0
 62
     9
 10
0.0
 20
0.0
 30
0.0
 70
   128
 71
    32
 72
    36
 73
    35
  0
VERTEX
  5
3A2
  8
0
 62
     9
 10
0.0
 20
0.0
 30
0.0
 70
   128
 71
    36
 72
    37
 73
    28
  0
VERTEX
  5
3A3
  8
0
 62
     9
 10
0.0
 20
0.0
 30
0.0
 70
   128
 71
    28
 72
    35
 73
    36
  0
VERTEX
  5
3A4
  8
0
 62
     9
 10
0.0
 20
0.0
 30
0.0
 70
   128
 71
    40
 72
    39
 73
    38
  0
VERTEX
  5
3A5
  8
0
 62
     9
 10
0.0
 20
0.0
 30
0.0
 70
   128
 71
    39
 72
    41
 73
    38
  0
VERTEX
  5
3A6
  8
0
 62
     9
 10
0.0
 20
0.0
 30
0.0
 70
   128
 71
    41
 72
    42
 73
    38
  0
VERTEX
  5
3A7
  8
0
 62
     9
 10
0.0
 20
0.0
 30
0.0
 70
   128
 71
    38
 72
    35
 73
    28
  0
VERTEX
  5
3A8
  8
0
 62
     9
 10
0.0
 20
0.0
 30
0.0
 70
   128
 71
    43
 72
    28
 73
    24
  0
VERTEX
  5
3A9
  8
0
 62
     9
 10
0.0
 20
0.0
 30
0.0
 70
   128
 71
    44
 72
    40
 73
    28
  0
VERTEX
  5
3AA
  8
0
 62
     9
 10
0.0
 20
0.0
 30
0.0
 70
   128
 71
    28
 72
    43
 73
    44
  0
VERTEX
  5
3AB
  8
0
 62
     9
 10
0.0
 20
0.0
 30
0.0
 70
   128
 71
    46
 72
    45
 73
    24
  0
VERTEX
  5
3AC
  8
0
 62
     9
 10
0.0
 20
0.0
 30
0.0
 70
   128
 71
    45
 72
    47
 73
    24
  0
VERTEX
  5
3AD
  8
0
 62
     9
 10
0.0
 20
0.0
 30
0.0
 70
   128
 71
    24
 72
    19
 73
    46
  0
VERTEX
  5
3AE
  8
0
 62
     9
 10
0.0
 20
0.0
 30
0.0
 70
   128
 71
    48
 72
    19
 73
    15
  0
VERTEX
  5
3AF
  8
0
 62
     9
 10
0.0
 20
0.0
 30
0.0
 70
   128
 71
    48
 72
    49
 73
    19
  0
VERTEX
  5
3B0
  8
0
 62
     9
 10
0.0
 20
0.0
 30
0.0
 70
   128
 71
    15
 72
    50
 73
    48
  0
VERTEX
  5
3B1
  8
0
 62
     9
 10
0.0
 20
0.0
 30
0.0
 70
   128
 71
    52
 72
    51
 73
    11
  0
VERTEX
  5
3B2
  8
0
 62
     9
 10
0.0
 20
0.0
 30
0.0
 70
   128
 71
    51
 72
    53
 73
    15
  0
VERTEX
  5
3B3
  8
0
 62
     9
 10
0.0
 20
0.0
 30
0.0
 70
   128
 71
    15
 72
    11
 73
    51
  0
VERTEX
  5
3B4
  8
0
 62
     9
 10
0.0
 20
0.0
 30
0.0
 70
   128
 71
    55
 72
    54
 73
     9
  0
VERTEX
  5
3B5
  8
0
 62
     9
 10
0.0
 20
0.0
 30
0.0
 70
   128
 71
    54
 72
    56
 73
    11
  0
VERTEX
  5
3B6
  8
0
 62
     9
 10
0.0
 20
0.0
 30
0.0
 70
   128
 71
    11
 72
     9
 73
    54
  0
VERTEX
  5
3B7
  8
0
 62
     9
 10
0.0
 20
0.0
 30
0.0
 70
   128
 71
    58
 72
    57
 73
     1
  0
VERTEX
  5
3B8
  8
0
 62
     9
 10
0.0
 20
0.0
 30
0.0
 70
   128
 71
     1
 72
    59
 73
    58
  0
VERTEX
  5
3B9
  8
0
 62
     9
 10
0.0
 20
0.0
 30
0.0
 70
   128
 71
    57
 72
    60
 73
     9
  0
VERTEX
  5
3BA
  8
0
 62
     9
 10
0.0
 20
0.0
 30
0.0
 70
   128
 71
     9
 72
     1
 73
    57
  0
VERTEX
  5
3BB
  8
0
 62
     9
 10
0.0
 20
0.0
 30
0.0
 70
   128
 71
    62
 72
     1
 73
    61
  0
VERTEX
  5
3BC
  8
0
 62
     9
 10
0.0
 20
0.0
 30
0.0
 70
   128
 71
    61
 72
    63
 73
    62
  0
VERTEX
  5
3BD
  8
0
 62
     9
 10
0.0
 20
0.0
 30
0.0
 70
   128
 71
    61
 72
    64
 73
    63
  0
VERTEX
  5
3BE
  8
0
 62
     9
 10
0.0
 20
0.0
 30
0.0
 70
   128
 71
    61
 72
    65
 73
    64
  0
VERTEX
  5
3BF
  8
0
 62
     9
 10
0.0
 20
0.0
 30
0.0
 70
   128
 71
     1
 72
     2
 73
    61
  0
VERTEX
  5
3C0
  8
0
 62
     9
 10
0.0
 20
0.0
 30
0.0
 70
   128
 71
     1
 72
    62
 73
    59
  0
VERTEX
  5
3C1
  8
0
 62
     9
 10
0.0
 20
0.0
 30
0.0
 70
   128
 71
     9
 72
    60
 73
    55
  0
VERTEX
  5
3C2
  8
0
 62
     9
 10
0.0
 20
0.0
 30
0.0
 70
   128
 71
    11
 72
    56
 73
    52
  0
VERTEX
  5
3C3
  8
0
 62
     9
 10
0.0
 20
0.0
 30
0.0
 70
   128
 71
    15
 72
    53
 73
    50
  0
VERTEX
  5
3C4
  8
0
 62
     9
 10
0.0
 20
0.0
 30
0.0
 70
   128
 71
    19
 72
    49
 73
    46
  0
VERTEX
  5
3C5
  8
0
 62
     9
 10
0.0
 20
0.0
 30
0.0
 70
   128
 71
    24
 72
    47
 73
    43
  0
VERTEX
  5
3C6
  8
0
 62
     9
 10
0.0
 20
0.0
 30
0.0
 70
   128
 71
    38
 72
    28
 73
    40
  0
VERTEX
  5
3C7
  8
0
 62
     9
 10
0.0
 20
0.0
 30
0.0
 70
   128
 71
    32
 72
    35
 73
    34
  0
VERTEX
  5
3C8
  8
0
 62
     9
 10
0.0
 20
0.0
 30
0.0
 70
   128
 71
    28
 72
    37
 73
    31
  0
VERTEX
  5
3C9
  8
0
 62
     9
 10
0.0
 20
0.0
 30
0.0
 70
   128
 71
    24
 72
    29
 73
    26
  0
VERTEX
  5
3CA
  8
0
 62
     9
 10
0.0
 20
0.0
 30
0.0
 70
   128
 71
    19
 72
    27
 73
    21
  0
VERTEX
  5
3CB
  8
0
 62
     9
 10
0.0
 20
0.0
 30
0.0
 70
   128
 71
    15
 72
    23
 73
    16
  0
VERTEX
  5
3CC
  8
0
 62
     9
 10
0.0
 20
0.0
 30
0.0
 70
   128
 71
    11
 72
    17
 73
    12
  0
VERTEX
  5
3CD
  8
0
 62
     9
 10
0.0
 20
0.0
 30
0.0
 70
   128
 71
     9
 72
    13
 73
     8
  0
VERTEX
  5
3CE
  8
0
 62
     9
 10
0.0
 20
0.0
 30
0.0
 70
   128
 71
     1
 72
    10
 73
     4
  0
SEQEND
  5
3CF
  8
0
 62
     9
  0
ENDBLK
  5
3D2
  8
0
  0
BLOCK
  8
0
  2
E3_NODE_14_
 70
     0
 10
0.0
 20
0.0
 30
0.0
  3
E3_NODE_14_
  1

  0
POLYLINE
  5
3D4
  8
0
 62
     9
 66
     1
 10
0.0
 20
0.0
 30
0.0
 70
    64
 71
    56
 72
    55
  0
VERTEX
  5
3D5
  8
0
 10
48.99599838256836
 20
18.09499931335449
 30
143.4839935302734
 70
   192
  0
VERTEX
  5
3D6
  8
0
 10
-0.1729999929666519
 20
18.10600090026855
 30
137.3849945068359
 70
   192
  0
VERTEX
  5
3D7
  8
0
 10
22.94000053405762
 20
-18.09499931335449
 30
140.2799987792969
 70
   192
  0
VERTEX
  5
3D8
  8
0
 10
69.90599822998047
 20
18.10199928283691
 30
146.0079956054688
 70
   192
  0
VERTEX
  5
3D9
  8
0
 10
76.98100280761719
 20
16.51099967956543
 30
146.89599609375
 70
   192
  0
VERTEX
  5
3DA
  8
0
 10
75.81700134277344
 20
17.09199905395508
 30
146.7440032958984
 70
   192
  0
VERTEX
  5
3DB
  8
0
 10
74.29499816894531
 20
17.55299949645996
 30
146.5480041503906
 70
   192
  0
VERTEX
  5
3DC
  8
0
 10
81.06999969482422
 20
14.17199993133545
 30
147.4290008544922
 70
   192
  0
VERTEX
  5
3DD
  8
0
 10
79.79199981689453
 20
15.10700035095215
 30
147.2630004882812
 70
   192
  0
VERTEX
  5
3DE
  8
0
 10
82.71800231933594
 20
12.47999954223633
 30
147.6360015869141
 70
   192
  0
VERTEX
  5
3DF
  8
0
 10
86.47000122070312
 20
6.704999923706055
 30
148.0809936523438
 70
   192
  0
VERTEX
  5
3E0
  8
0
 10
85.10399627685547
 20
9.638999938964844
 30
147.9299926757812
 70
   192
  0
VERTEX
  5
3E1
  8
0
 10
84.177001953125
 20
10.98099994659424
 30
147.8190002441406
 70
   192
  0
VERTEX
  5
3E2
  8
0
 10
87.822998046875
 20
-0.0040000001899898
 30
148.2230072021484
 70
   192
  0
VERTEX
  5
3E3
  8
0
 10
87.41999816894531
 20
4.01800012588501
 30
148.1829986572266
 70
   192
  0
VERTEX
  5
3E4
  8
0
 10
86.98799896240234
 20
5.592999935150146
 30
148.1390075683594
 70
   192
  0
VERTEX
  5
3E5
  8
0
 10
87.75399780273438
 20
-2.045000076293945
 30
148.2169952392578
 70
   192
  0
VERTEX
  5
3E6
  8
0
 10
87.86499786376953
 20
-0.4269999861717224
 30
148.2270050048828
 70
   192
  0
VERTEX
  5
3E7
  8
0
 10
86.70899963378906
 20
-6.38700008392334
 30
148.1130065917969
 70
   192
  0
VERTEX
  5
3E8
  8
0
 10
86.55699920654297
 20
-6.74399995803833
 30
148.0959930419922
 70
   192
  0
VERTEX
  5
3E9
  8
0
 10
83.66100311279297
 20
-11.62800025939941
 30
147.7590026855469
 70
   192
  0
VERTEX
  5
3EA
  8
0
 10
86.072998046875
 20
-7.875999927520752
 30
148.0429992675781
 70
   192
  0
VERTEX
  5
3EB
  8
0
 10
82.80699920654297
 20
-12.5649995803833
 30
147.6519927978516
 70
   192
  0
VERTEX
  5
3EC
  8
0
 10
77.00900268554688
 20
-16.54299926757812
 30
146.8999938964844
 70
   192
  0
VERTEX
  5
3ED
  8
0
 10
77.6510009765625
 20
-16.32600021362305
 30
146.9830017089844
 70
   192
  0
VERTEX
  5
3EE
  8
0
 10
79.06800079345703
 20
-15.5620002746582
 30
147.1679992675781
 70
   192
  0
VERTEX
  5
3EF
  8
0
 10
82.57499694824219
 20
-12.81999969482422
 30
147.6230010986328
 70
   192
  0
VERTEX
  5
3F0
  8
0
 10
71.83999633789062
 20
-17.9950008392334
 30
146.2409973144531
 70
   192
  0
VERTEX
  5
3F1
  8
0
 10
73.4540023803711
 20
-17.74300003051758
 30
146.4420013427734
 70
   192
  0
VERTEX
  5
3F2
  8
0
 10
69.90599822998047
 20
-18.10000038146973
 30
146.0079956054688
 70
   192
  0
VERTEX
  5
3F3
  8
0
 10
-12.03899955749512
 20
-4.260000228881836
 30
136.156005859375
 70
   192
  0
VERTEX
  5
3F4
  8
0
 10
-6.089000225067139
 20
-17.09600067138672
 30
136.6660003662109
 70
   192
  0
VERTEX
  5
3F5
  8
0
 10
-4.559999942779541
 20
-17.55900001525879
 30
136.8459930419922
 70
   192
  0
VERTEX
  5
3F6
  8
0
 10
-7.25
 20
-16.51499938964844
 30
136.5319976806641
 70
   192
  0
VERTEX
  5
3F7
  8
0
 10
-0.1729999929666519
 20
-18.10600090026855
 30
137.3849945068359
 70
   192
  0
VERTEX
  5
3F8
  8
0
 10
-16.82699966430664
 20
6.747000217437744
 30
135.3919982910156
 70
   192
  0
VERTEX
  5
3F9
  8
0
 10
-11.3430004119873
 20
-14.17199993133545
 30
136.0599975585938
 70
   192
  0
VERTEX
  5
3FA
  8
0
 10
-10.06099987030029
 20
-15.10999965667725
 30
136.2079925537109
 70
   192
  0
VERTEX
  5
3FB
  8
0
 10
-12.98700046539307
 20
-12.48099994659424
 30
135.8659973144531
 70
   192
  0
VERTEX
  5
3FC
  8
0
 10
-15.36499977111816
 20
-9.651000022888184
 30
135.5820007324219
 70
   192
  0
VERTEX
  5
3FD
  8
0
 10
-14.45499992370605
 20
-10.97000026702881
 30
135.6929931640625
 70
   192
  0
VERTEX
  5
3FE
  8
0
 10
-16.73900032043457
 20
-6.704999923706055
 30
135.4049987792969
 70
   192
  0
VERTEX
  5
3FF
  8
0
 10
-18.0930004119873
 20
0.0049999998882413
 30
135.2220001220703
 70
   192
  0
VERTEX
  5
400
  8
0
 10
-17.69099998474121
 20
-4.011000156402588
 30
135.2790069580078
 70
   192
  0
VERTEX
  5
401
  8
0
 10
-17.25300025939941
 20
-5.604000091552734
 30
135.3390045166016
 70
   192
  0
VERTEX
  5
402
  8
0
 10
-18.02099990844727
 20
2.072999954223633
 30
135.2310028076172
 70
   192
  0
VERTEX
  5
403
  8
0
 10
-18.13400077819824
 20
0.4230000078678131
 30
135.2160034179688
 70
   192
  0
VERTEX
  5
404
  8
0
 10
-16.97100067138672
 20
6.409999847412109
 30
135.3730010986328
 70
   192
  0
VERTEX
  5
405
  8
0
 10
-13.92700004577637
 20
11.63599967956543
 30
135.7550048828125
 70
   192
  0
VERTEX
  5
406
  8
0
 10
-16.3439998626709
 20
7.875
 30
135.4550018310547
 70
   192
  0
VERTEX
  5
407
  8
0
 10
-12.85000038146973
 20
12.81900024414062
 30
135.8829956054688
 70
   192
  0
VERTEX
  5
408
  8
0
 10
-7.278999805450439
 20
16.55200004577637
 30
136.5290069580078
 70
   192
  0
VERTEX
  5
409
  8
0
 10
-7.894000053405762
 20
16.34600067138672
 30
136.4570007324219
 70
   192
  0
VERTEX
  5
40A
  8
0
 10
-9.343999862670898
 20
15.56400012969971
 30
136.2899932861328
 70
   192
  0
VERTEX
  5
40B
  8
0
 10
-2.075999975204468
 20
18.00600051879883
 30
137.1470031738281
 70
   192
  0
VERTEX
  5
40C
  8
0
 10
-3.696000099182129
 20
17.75600051879883
 30
136.9499969482422
 70
   192
  0
VERTEX
  5
40D
  8
0
 62
     9
 10
0.0
 20
0.0
 30
0.0
 70
   128
 71
     3
 72
     2
 73
     1
  0
VERTEX
  5
40E
  8
0
 62
     9
 10
0.0
 20
0.0
 30
0.0
 70
   128
 71
     6
 72
     5
 73
     4
  0
VERTEX
  5
40F
  8
0
 62
     9
 10
0.0
 20
0.0
 30
0.0
 70
   128
 71
     4
 72
     7
 73
     6
  0
VERTEX
  5
410
  8
0
 62
     9
 10
0.0
 20
0.0
 30
0.0
 70
   128
 71
     9
 72
     8
 73
     1
  0
VERTEX
  5
411
  8
0
 62
     9
 10
0.0
 20
0.0
 30
0.0
 70
   128
 71
     8
 72
    10
 73
     1
  0
VERTEX
  5
412
  8
0
 62
     9
 10
0.0
 20
0.0
 30
0.0
 70
   128
 71
     1
 72
     5
 73
     9
  0
VERTEX
  5
413
  8
0
 62
     9
 10
0.0
 20
0.0
 30
0.0
 70
   128
 71
    12
 72
    11
 73
     1
  0
VERTEX
  5
414
  8
0
 62
     9
 10
0.0
 20
0.0
 30
0.0
 70
   128
 71
     1
 72
    13
 73
    12
  0
VERTEX
  5
415
  8
0
 62
     9
 10
0.0
 20
0.0
 30
0.0
 70
   128
 71
    15
 72
    14
 73
     1
  0
VERTEX
  5
416
  8
0
 62
     9
 10
0.0
 20
0.0
 30
0.0
 70
   128
 71
     1
 72
    16
 73
    15
  0
VERTEX
  5
417
  8
0
 62
     9
 10
0.0
 20
0.0
 30
0.0
 70
   128
 71
     1
 72
    11
 73
    16
  0
VERTEX
  5
418
  8
0
 62
     9
 10
0.0
 20
0.0
 30
0.0
 70
   128
 71
     1
 72
    10
 73
    13
  0
VERTEX
  5
419
  8
0
 62
     9
 10
0.0
 20
0.0
 30
0.0
 70
   128
 71
    18
 72
    17
 73
     1
  0
VERTEX
  5
41A
  8
0
 62
     9
 10
0.0
 20
0.0
 30
0.0
 70
   128
 71
    17
 72
    19
 73
     1
  0
VERTEX
  5
41B
  8
0
 62
     9
 10
0.0
 20
0.0
 30
0.0
 70
   128
 71
    19
 72
    20
 73
     1
  0
VERTEX
  5
41C
  8
0
 62
     9
 10
0.0
 20
0.0
 30
0.0
 70
   128
 71
    22
 72
    21
 73
     1
  0
VERTEX
  5
41D
  8
0
 62
     9
 10
0.0
 20
0.0
 30
0.0
 70
   128
 71
    21
 72
    23
 73
     1
  0
VERTEX
  5
41E
  8
0
 62
     9
 10
0.0
 20
0.0
 30
0.0
 70
   128
 71
    25
 72
    24
 73
     1
  0
VERTEX
  5
41F
  8
0
 62
     9
 10
0.0
 20
0.0
 30
0.0
 70
   128
 71
     1
 72
    26
 73
    25
  0
VERTEX
  5
420
  8
0
 62
     9
 10
0.0
 20
0.0
 30
0.0
 70
   128
 71
     1
 72
    27
 73
    26
  0
VERTEX
  5
421
  8
0
 62
     9
 10
0.0
 20
0.0
 30
0.0
 70
   128
 71
     1
 72
    23
 73
    27
  0
VERTEX
  5
422
  8
0
 62
     9
 10
0.0
 20
0.0
 30
0.0
 70
   128
 71
     1
 72
    20
 73
    22
  0
VERTEX
  5
423
  8
0
 62
     9
 10
0.0
 20
0.0
 30
0.0
 70
   128
 71
    29
 72
    28
 73
     1
  0
VERTEX
  5
424
  8
0
 62
     9
 10
0.0
 20
0.0
 30
0.0
 70
   128
 71
    28
 72
    30
 73
     1
  0
VERTEX
  5
425
  8
0
 62
     9
 10
0.0
 20
0.0
 30
0.0
 70
   128
 71
     1
 72
    24
 73
    29
  0
VERTEX
  5
426
  8
0
 62
     9
 10
0.0
 20
0.0
 30
0.0
 70
   128
 71
     1
 72
    14
 73
    18
  0
VERTEX
  5
427
  8
0
 62
     9
 10
0.0
 20
0.0
 30
0.0
 70
   128
 71
     5
 72
     1
 73
     4
  0
VERTEX
  5
428
  8
0
 62
     9
 10
0.0
 20
0.0
 30
0.0
 70
   128
 71
    33
 72
    32
 73
    31
  0
VERTEX
  5
429
  8
0
 62
     9
 10
0.0
 20
0.0
 30
0.0
 70
   128
 71
    32
 72
    34
 73
    31
  0
VERTEX
  5
42A
  8
0
 62
     9
 10
0.0
 20
0.0
 30
0.0
 70
   128
 71
    31
 72
    35
 73
    33
  0
VERTEX
  5
42B
  8
0
 62
     9
 10
0.0
 20
0.0
 30
0.0
 70
   128
 71
    31
 72
    36
 73
     3
  0
VERTEX
  5
42C
  8
0
 62
     9
 10
0.0
 20
0.0
 30
0.0
 70
   128
 71
    38
 72
    37
 73
    31
  0
VERTEX
  5
42D
  8
0
 62
     9
 10
0.0
 20
0.0
 30
0.0
 70
   128
 71
    37
 72
    39
 73
    31
  0
VERTEX
  5
42E
  8
0
 62
     9
 10
0.0
 20
0.0
 30
0.0
 70
   128
 71
    41
 72
    40
 73
    31
  0
VERTEX
  5
42F
  8
0
 62
     9
 10
0.0
 20
0.0
 30
0.0
 70
   128
 71
    40
 72
    42
 73
    31
  0
VERTEX
  5
430
  8
0
 62
     9
 10
0.0
 20
0.0
 30
0.0
 70
   128
 71
    44
 72
    43
 73
    31
  0
VERTEX
  5
431
  8
0
 62
     9
 10
0.0
 20
0.0
 30
0.0
 70
   128
 71
    31
 72
    45
 73
    44
  0
VERTEX
  5
432
  8
0
 62
     9
 10
0.0
 20
0.0
 30
0.0
 70
   128
 71
    31
 72
    42
 73
    45
  0
VERTEX
  5
433
  8
0
 62
     9
 10
0.0
 20
0.0
 30
0.0
 70
   128
 71
    47
 72
    46
 73
    31
  0
VERTEX
  5
434
  8
0
 62
     9
 10
0.0
 20
0.0
 30
0.0
 70
   128
 71
    46
 72
    48
 73
    31
  0
VERTEX
  5
435
  8
0
 62
     9
 10
0.0
 20
0.0
 30
0.0
 70
   128
 71
    48
 72
    36
 73
    31
  0
VERTEX
  5
436
  8
0
 62
     9
 10
0.0
 20
0.0
 30
0.0
 70
   128
 71
    31
 72
    43
 73
    47
  0
VERTEX
  5
437
  8
0
 62
     9
 10
0.0
 20
0.0
 30
0.0
 70
   128
 71
    31
 72
    39
 73
    41
  0
VERTEX
  5
438
  8
0
 62
     9
 10
0.0
 20
0.0
 30
0.0
 70
   128
 71
    31
 72
    34
 73
    38
  0
VERTEX
  5
439
  8
0
 62
     9
 10
0.0
 20
0.0
 30
0.0
 70
   128
 71
    50
 72
    49
 73
     3
  0
VERTEX
  5
43A
  8
0
 62
     9
 10
0.0
 20
0.0
 30
0.0
 70
   128
 71
    49
 72
    51
 73
     3
  0
VERTEX
  5
43B
  8
0
 62
     9
 10
0.0
 20
0.0
 30
0.0
 70
   128
 71
    53
 72
    52
 73
     3
  0
VERTEX
  5
43C
  8
0
 62
     9
 10
0.0
 20
0.0
 30
0.0
 70
   128
 71
     3
 72
    54
 73
    53
  0
VERTEX
  5
43D
  8
0
 62
     9
 10
0.0
 20
0.0
 30
0.0
 70
   128
 71
     3
 72
    51
 73
    54
  0
VERTEX
  5
43E
  8
0
 62
     9
 10
0.0
 20
0.0
 30
0.0
 70
   128
 71
    56
 72
    55
 73
     3
  0
VERTEX
  5
43F
  8
0
 62
     9
 10
0.0
 20
0.0
 30
0.0
 70
   128
 71
    55
 72
     2
 73
     3
  0
VERTEX
  5
440
  8
0
 62
     9
 10
0.0
 20
0.0
 30
0.0
 70
   128
 71
     3
 72
    52
 73
    56
  0
VERTEX
  5
441
  8
0
 62
     9
 10
0.0
 20
0.0
 30
0.0
 70
   128
 71
     3
 72
    36
 73
    50
  0
VERTEX
  5
442
  8
0
 62
     9
 10
0.0
 20
0.0
 30
0.0
 70
   128
 71
    31
 72
     3
 73
    35
  0
VERTEX
  5
443
  8
0
 62
     9
 10
0.0
 20
0.0
 30
0.0
 70
   128
 71
     1
 72
    30
 73
     3
  0
SEQEND
  5
444
  8
0
 62
     9
  0
ENDBLK
  5
447
  8
0
  0
BLOCK
  8
0
  2
E3_NODE_15_
 70
     0
 10
0.0
 20
0.0
 30
0.0
  3
E3_NODE_15_
  1

  0
POLYLINE
  5
449
  8
0
 62
     9
 66
     1
 10
0.0
 20
0.0
 30
0.0
 70
    64
 71
    60
 72
    65
  0
VERTEX
  5
44A
  8
0
 10
77.0739974975586
 20
16.81800079345703
 30
145.4040069580078
 70
   192
  0
VERTEX
  5
44B
  8
0
 10
74.29499816894531
 20
17.55299949645996
 30
146.5480041503906
 70
   192
  0
VERTEX
  5
44C
  8
0
 10
75.81700134277344
 20
17.09199905395508
 30
146.7440032958984
 70
   192
  0
VERTEX
  5
44D
  8
0
 10
69.87000274658203
 20
18.31800079345703
 30
144.5579986572266
 70
   192
  0
VERTEX
  5
44E
  8
0
 10
69.90599822998047
 20
18.10199928283691
 30
146.0079956054688
 70
   192
  0
VERTEX
  5
44F
  8
0
 10
82.93499755859375
 20
12.74100017547607
 30
146.0919952392578
 70
   192
  0
VERTEX
  5
450
  8
0
 10
79.79199981689453
 20
15.10700035095215
 30
147.2630004882812
 70
   192
  0
VERTEX
  5
451
  8
0
 10
81.06999969482422
 20
14.17199993133545
 30
147.4290008544922
 70
   192
  0
VERTEX
  5
452
  8
0
 10
76.98100280761719
 20
16.51099967956543
 30
146.89599609375
 70
   192
  0
VERTEX
  5
453
  8
0
 10
84.177001953125
 20
10.98099994659424
 30
147.8190002441406
 70
   192
  0
VERTEX
  5
454
  8
0
 10
85.10399627685547
 20
9.638999938964844
 30
147.9299926757812
 70
   192
  0
VERTEX
  5
455
  8
0
 10
82.71800231933594
 20
12.47999954223633
 30
147.6360015869141
 70
   192
  0
VERTEX
  5
456
  8
0
 10
86.73999786376953
 20
6.842000007629395
 30
146.5370025634766
 70
   192
  0
VERTEX
  5
457
  8
0
 10
88.05599975585938
 20
0.0010000000474975
 30
146.6909942626953
 70
   192
  0
VERTEX
  5
458
  8
0
 10
87.41999816894531
 20
4.01800012588501
 30
148.1829986572266
 70
   192
  0
VERTEX
  5
459
  8
0
 10
86.47000122070312
 20
6.704999923706055
 30
148.0809936523438
 70
   192
  0
VERTEX
  5
45A
  8
0
 10
86.98799896240234
 20
5.592999935150146
 30
148.1390075683594
 70
   192
  0
VERTEX
  5
45B
  8
0
 10
86.73999786376953
 20
-6.839000225067139
 30
146.5370025634766
 70
   192
  0
VERTEX
  5
45C
  8
0
 10
87.75399780273438
 20
-2.045000076293945
 30
148.2169952392578
 70
   192
  0
VERTEX
  5
45D
  8
0
 10
86.70899963378906
 20
-6.38700008392334
 30
148.1130065917969
 70
   192
  0
VERTEX
  5
45E
  8
0
 10
87.86499786376953
 20
-0.4269999861717224
 30
148.2270050048828
 70
   192
  0
VERTEX
  5
45F
  8
0
 10
87.822998046875
 20
-0.0040000001899898
 30
148.2230072021484
 70
   192
  0
VERTEX
  5
460
  8
0
 10
86.072998046875
 20
-7.875999927520752
 30
148.0429992675781
 70
   192
  0
VERTEX
  5
461
  8
0
 10
83.66100311279297
 20
-11.62800025939941
 30
147.7590026855469
 70
   192
  0
VERTEX
  5
462
  8
0
 10
82.93499755859375
 20
-12.73799991607666
 30
146.0919952392578
 70
   192
  0
VERTEX
  5
463
  8
0
 10
86.55699920654297
 20
-6.74399995803833
 30
148.0959930419922
 70
   192
  0
VERTEX
  5
464
  8
0
 10
82.57499694824219
 20
-12.81999969482422
 30
147.6230010986328
 70
   192
  0
VERTEX
  5
465
  8
0
 10
79.06800079345703
 20
-15.5620002746582
 30
147.1679992675781
 70
   192
  0
VERTEX
  5
466
  8
0
 10
82.80699920654297
 20
-12.5649995803833
 30
147.6519927978516
 70
   192
  0
VERTEX
  5
467
  8
0
 10
77.0739974975586
 20
-16.81599998474121
 30
145.4040069580078
 70
   192
  0
VERTEX
  5
468
  8
0
 10
77.6510009765625
 20
-16.32600021362305
 30
146.9830017089844
 70
   192
  0
VERTEX
  5
469
  8
0
 10
69.87000274658203
 20
-18.31500053405762
 30
144.5579986572266
 70
   192
  0
VERTEX
  5
46A
  8
0
 10
73.4540023803711
 20
-17.74300003051758
 30
146.4420013427734
 70
   192
  0
VERTEX
  5
46B
  8
0
 10
71.83999633789062
 20
-17.9950008392334
 30
146.2409973144531
 70
   192
  0
VERTEX
  5
46C
  8
0
 10
77.00900268554688
 20
-16.54299926757812
 30
146.8999938964844
 70
   192
  0
VERTEX
  5
46D
  8
0
 10
69.83300018310547
 20
-18.54000091552734
 30
143.0440063476562
 70
   192
  0
VERTEX
  5
46E
  8
0
 10
75.4010009765625
 20
-17.66600036621094
 30
143.7100067138672
 70
   192
  0
VERTEX
  5
46F
  8
0
 10
76.06099700927734
 20
-17.44000053405762
 30
143.7899932861328
 70
   192
  0
VERTEX
  5
470
  8
0
 10
80.89900207519531
 20
-14.80399990081787
 30
144.3710021972656
 70
   192
  0
VERTEX
  5
471
  8
0
 10
81.44000244140625
 20
-14.37600040435791
 30
144.4360046386719
 70
   192
  0
VERTEX
  5
472
  8
0
 10
77.0510025024414
 20
-16.89999961853027
 30
143.9089965820312
 70
   192
  0
VERTEX
  5
473
  8
0
 10
85.14099884033203
 20
-10.27799987792969
 30
144.8760070800781
 70
   192
  0
VERTEX
  5
474
  8
0
 10
85.51399993896484
 20
-9.690999984741211
 30
144.9199981689453
 70
   192
  0
VERTEX
  5
475
  8
0
 10
82.9000015258789
 20
-12.76000022888184
 30
144.6089935302734
 70
   192
  0
VERTEX
  5
476
  8
0
 10
87.81600189208984
 20
-3.915999889373779
 30
145.1950073242188
 70
   192
  0
VERTEX
  5
477
  8
0
 10
86.71099853515625
 20
-6.842999935150146
 30
145.0630035400391
 70
   192
  0
VERTEX
  5
478
  8
0
 10
87.65699768066406
 20
-4.593999862670898
 30
145.1759948730469
 70
   192
  0
VERTEX
  5
479
  8
0
 10
88.08899688720703
 20
2.306999921798706
 30
145.22900390625
 70
   192
  0
VERTEX
  5
47A
  8
0
 10
88.16300201416016
 20
1.605999946594238
 30
145.2380065917969
 70
   192
  0
VERTEX
  5
47B
  8
0
 10
88.06199645996094
 20
0.0120000001043081
 30
145.2259979248047
 70
   192
  0
VERTEX
  5
47C
  8
0
 10
86.29900360107422
 20
8.267000198364258
 30
145.0169982910156
 70
   192
  0
VERTEX
  5
47D
  8
0
 10
86.8030014038086
 20
6.89900016784668
 30
145.0769958496094
 70
   192
  0
VERTEX
  5
47E
  8
0
 10
86.5979995727539
 20
7.632999897003174
 30
145.052001953125
 70
   192
  0
VERTEX
  5
47F
  8
0
 10
80.11799621582031
 20
15.36600017547607
 30
144.2830047607422
 70
   192
  0
VERTEX
  5
480
  8
0
 10
79.53099822998047
 20
15.74899959564209
 30
144.2129974365234
 70
   192
  0
VERTEX
  5
481
  8
0
 10
83.13800048828125
 20
12.79800033569336
 30
144.6430053710938
 70
   192
  0
VERTEX
  5
482
  8
0
 10
74.47699737548828
 20
17.9370002746582
 30
143.6069946289062
 70
   192
  0
VERTEX
  5
483
  8
0
 10
77.03399658203125
 20
16.82999992370605
 30
143.9140014648438
 70
   192
  0
VERTEX
  5
484
  8
0
 10
69.83399963378906
 20
18.54199981689453
 30
143.0509948730469
 70
   192
  0
VERTEX
  5
485
  8
0
 10
69.90599822998047
 20
-18.10000038146973
 30
146.0079956054688
 70
   192
  0
VERTEX
  5
486
  8
0
 62
     9
 10
0.0
 20
0.0
 30
0.0
 70
   128
 71
     3
 72
     2
 73
     1
  0
VERTEX
  5
487
  8
0
 62
     9
 10
0.0
 20
0.0
 30
0.0
 70
   128
 71
     2
 72
     5
 73
     4
  0
VERTEX
  5
488
  8
0
 62
     9
 10
0.0
 20
0.0
 30
0.0
 70
   128
 71
     4
 72
     1
 73
     2
  0
VERTEX
  5
489
  8
0
 62
     9
 10
0.0
 20
0.0
 30
0.0
 70
   128
 71
     7
 72
     1
 73
     6
  0
VERTEX
  5
48A
  8
0
 62
     9
 10
0.0
 20
0.0
 30
0.0
 70
   128
 71
     6
 72
     8
 73
     7
  0
VERTEX
  5
48B
  8
0
 62
     9
 10
0.0
 20
0.0
 30
0.0
 70
   128
 71
     7
 72
     9
 73
     1
  0
VERTEX
  5
48C
  8
0
 62
     9
 10
0.0
 20
0.0
 30
0.0
 70
   128
 71
    11
 72
    10
 73
     6
  0
VERTEX
  5
48D
  8
0
 62
     9
 10
0.0
 20
0.0
 30
0.0
 70
   128
 71
    10
 72
    12
 73
     6
  0
VERTEX
  5
48E
  8
0
 62
     9
 10
0.0
 20
0.0
 30
0.0
 70
   128
 71
     6
 72
    13
 73
    11
  0
VERTEX
  5
48F
  8
0
 62
     9
 10
0.0
 20
0.0
 30
0.0
 70
   128
 71
    15
 72
    13
 73
    14
  0
VERTEX
  5
490
  8
0
 62
     9
 10
0.0
 20
0.0
 30
0.0
 70
   128
 71
    17
 72
    16
 73
    13
  0
VERTEX
  5
491
  8
0
 62
     9
 10
0.0
 20
0.0
 30
0.0
 70
   128
 71
    13
 72
    15
 73
    17
  0
VERTEX
  5
492
  8
0
 62
     9
 10
0.0
 20
0.0
 30
0.0
 70
   128
 71
    19
 72
    14
 73
    18
  0
VERTEX
  5
493
  8
0
 62
     9
 10
0.0
 20
0.0
 30
0.0
 70
   128
 71
    18
 72
    20
 73
    19
  0
VERTEX
  5
494
  8
0
 62
     9
 10
0.0
 20
0.0
 30
0.0
 70
   128
 71
    19
 72
    21
 73
    14
  0
VERTEX
  5
495
  8
0
 62
     9
 10
0.0
 20
0.0
 30
0.0
 70
   128
 71
    21
 72
    22
 73
    14
  0
VERTEX
  5
496
  8
0
 62
     9
 10
0.0
 20
0.0
 30
0.0
 70
   128
 71
    24
 72
    23
 73
    18
  0
VERTEX
  5
497
  8
0
 62
     9
 10
0.0
 20
0.0
 30
0.0
 70
   128
 71
    18
 72
    25
 73
    24
  0
VERTEX
  5
498
  8
0
 62
     9
 10
0.0
 20
0.0
 30
0.0
 70
   128
 71
    23
 72
    26
 73
    18
  0
VERTEX
  5
499
  8
0
 62
     9
 10
0.0
 20
0.0
 30
0.0
 70
   128
 71
    28
 72
    27
 73
    25
  0
VERTEX
  5
49A
  8
0
 62
     9
 10
0.0
 20
0.0
 30
0.0
 70
   128
 71
    27
 72
    29
 73
    25
  0
VERTEX
  5
49B
  8
0
 62
     9
 10
0.0
 20
0.0
 30
0.0
 70
   128
 71
    25
 72
    30
 73
    28
  0
VERTEX
  5
49C
  8
0
 62
     9
 10
0.0
 20
0.0
 30
0.0
 70
   128
 71
    30
 72
    31
 73
    28
  0
VERTEX
  5
49D
  8
0
 62
     9
 10
0.0
 20
0.0
 30
0.0
 70
   128
 71
    33
 72
    30
 73
    32
  0
VERTEX
  5
49E
  8
0
 62
     9
 10
0.0
 20
0.0
 30
0.0
 70
   128
 71
    32
 72
    34
 73
    33
  0
VERTEX
  5
49F
  8
0
 62
     9
 10
0.0
 20
0.0
 30
0.0
 70
   128
 71
    33
 72
    35
 73
    30
  0
VERTEX
  5
4A0
  8
0
 62
     9
 10
0.0
 20
0.0
 30
0.0
 70
   128
 71
    37
 72
    36
 73
    32
  0
VERTEX
  5
4A1
  8
0
 62
     9
 10
0.0
 20
0.0
 30
0.0
 70
   128
 71
    32
 72
    30
 73
    37
  0
VERTEX
  5
4A2
  8
0
 62
     9
 10
0.0
 20
0.0
 30
0.0
 70
   128
 71
    30
 72
    38
 73
    37
  0
VERTEX
  5
4A3
  8
0
 62
     9
 10
0.0
 20
0.0
 30
0.0
 70
   128
 71
    40
 72
    39
 73
    25
  0
VERTEX
  5
4A4
  8
0
 62
     9
 10
0.0
 20
0.0
 30
0.0
 70
   128
 71
    39
 72
    41
 73
    30
  0
VERTEX
  5
4A5
  8
0
 62
     9
 10
0.0
 20
0.0
 30
0.0
 70
   128
 71
    30
 72
    25
 73
    39
  0
VERTEX
  5
4A6
  8
0
 62
     9
 10
0.0
 20
0.0
 30
0.0
 70
   128
 71
    42
 72
    25
 73
    18
  0
VERTEX
  5
4A7
  8
0
 62
     9
 10
0.0
 20
0.0
 30
0.0
 70
   128
 71
    18
 72
    43
 73
    42
  0
VERTEX
  5
4A8
  8
0
 62
     9
 10
0.0
 20
0.0
 30
0.0
 70
   128
 71
    42
 72
    44
 73
    25
  0
VERTEX
  5
4A9
  8
0
 62
     9
 10
0.0
 20
0.0
 30
0.0
 70
   128
 71
    45
 72
    18
 73
    14
  0
VERTEX
  5
4AA
  8
0
 62
     9
 10
0.0
 20
0.0
 30
0.0
 70
   128
 71
    47
 72
    46
 73
    18
  0
VERTEX
  5
4AB
  8
0
 62
     9
 10
0.0
 20
0.0
 30
0.0
 70
   128
 71
    18
 72
    45
 73
    47
  0
VERTEX
  5
4AC
  8
0
 62
     9
 10
0.0
 20
0.0
 30
0.0
 70
   128
 71
    48
 72
    14
 73
    13
  0
VERTEX
  5
4AD
  8
0
 62
     9
 10
0.0
 20
0.0
 30
0.0
 70
   128
 71
    48
 72
    49
 73
    14
  0
VERTEX
  5
4AE
  8
0
 62
     9
 10
0.0
 20
0.0
 30
0.0
 70
   128
 71
    49
 72
    50
 73
    14
  0
VERTEX
  5
4AF
  8
0
 62
     9
 10
0.0
 20
0.0
 30
0.0
 70
   128
 71
    51
 72
    13
 73
     6
  0
VERTEX
  5
4B0
  8
0
 62
     9
 10
0.0
 20
0.0
 30
0.0
 70
   128
 71
    53
 72
    52
 73
    13
  0
VERTEX
  5
4B1
  8
0
 62
     9
 10
0.0
 20
0.0
 30
0.0
 70
   128
 71
    13
 72
    51
 73
    53
  0
VERTEX
  5
4B2
  8
0
 62
     9
 10
0.0
 20
0.0
 30
0.0
 70
   128
 71
    55
 72
    54
 73
     1
  0
VERTEX
  5
4B3
  8
0
 62
     9
 10
0.0
 20
0.0
 30
0.0
 70
   128
 71
    54
 72
    56
 73
     6
  0
VERTEX
  5
4B4
  8
0
 62
     9
 10
0.0
 20
0.0
 30
0.0
 70
   128
 71
     6
 72
     1
 73
    54
  0
VERTEX
  5
4B5
  8
0
 62
     9
 10
0.0
 20
0.0
 30
0.0
 70
   128
 71
    57
 72
     1
 73
     4
  0
VERTEX
  5
4B6
  8
0
 62
     9
 10
0.0
 20
0.0
 30
0.0
 70
   128
 71
    57
 72
    58
 73
     1
  0
VERTEX
  5
4B7
  8
0
 62
     9
 10
0.0
 20
0.0
 30
0.0
 70
   128
 71
     4
 72
    59
 73
    57
  0
VERTEX
  5
4B8
  8
0
 62
     9
 10
0.0
 20
0.0
 30
0.0
 70
   128
 71
     1
 72
    58
 73
    55
  0
VERTEX
  5
4B9
  8
0
 62
     9
 10
0.0
 20
0.0
 30
0.0
 70
   128
 71
     6
 72
    56
 73
    51
  0
VERTEX
  5
4BA
  8
0
 62
     9
 10
0.0
 20
0.0
 30
0.0
 70
   128
 71
    13
 72
    52
 73
    48
  0
VERTEX
  5
4BB
  8
0
 62
     9
 10
0.0
 20
0.0
 30
0.0
 70
   128
 71
    14
 72
    50
 73
    45
  0
VERTEX
  5
4BC
  8
0
 62
     9
 10
0.0
 20
0.0
 30
0.0
 70
   128
 71
    18
 72
    46
 73
    43
  0
VERTEX
  5
4BD
  8
0
 62
     9
 10
0.0
 20
0.0
 30
0.0
 70
   128
 71
    25
 72
    44
 73
    40
  0
VERTEX
  5
4BE
  8
0
 62
     9
 10
0.0
 20
0.0
 30
0.0
 70
   128
 71
    30
 72
    41
 73
    38
  0
VERTEX
  5
4BF
  8
0
 62
     9
 10
0.0
 20
0.0
 30
0.0
 70
   128
 71
    32
 72
    60
 73
    34
  0
VERTEX
  5
4C0
  8
0
 62
     9
 10
0.0
 20
0.0
 30
0.0
 70
   128
 71
    30
 72
    35
 73
    31
  0
VERTEX
  5
4C1
  8
0
 62
     9
 10
0.0
 20
0.0
 30
0.0
 70
   128
 71
    25
 72
    29
 73
    24
  0
VERTEX
  5
4C2
  8
0
 62
     9
 10
0.0
 20
0.0
 30
0.0
 70
   128
 71
    18
 72
    26
 73
    20
  0
VERTEX
  5
4C3
  8
0
 62
     9
 10
0.0
 20
0.0
 30
0.0
 70
   128
 71
    14
 72
    22
 73
    15
  0
VERTEX
  5
4C4
  8
0
 62
     9
 10
0.0
 20
0.0
 30
0.0
 70
   128
 71
    13
 72
    16
 73
    11
  0
VERTEX
  5
4C5
  8
0
 62
     9
 10
0.0
 20
0.0
 30
0.0
 70
   128
 71
     6
 72
    12
 73
     8
  0
VERTEX
  5
4C6
  8
0
 62
     9
 10
0.0
 20
0.0
 30
0.0
 70
   128
 71
     1
 72
     9
 73
     3
  0
SEQEND
  5
4C7
  8
0
 62
     9
  0
ENDBLK
  5
4CA
  8
0
  0
BLOCK
  8
0
  2
E3_NODE_16_
 70
     0
 10
0.0
 20
0.0
 30
0.0
  3
E3_NODE_16_
  1

  0
POLYLINE
  5
4CC
  8
0
 62
     9
 66
     1
 10
0.0
 20
0.0
 30
0.0
 70
    64
 71
     4
 72
     2
  0
VERTEX
  5
4CD
  8
0
 10
69.82099914550781
 20
18.125
 30
142.4770050048828
 70
   192
  0
VERTEX
  5
4CE
  8
0
 10
69.75299835205078
 20
18.54199981689453
 30
143.0410003662109
 70
   192
  0
VERTEX
  5
4CF
  8
0
 10
69.83399963378906
 20
18.54199981689453
 30
143.0509948730469
 70
   192
  0
VERTEX
  5
4D0
  8
0
 10
69.90299987792969
 20
18.125
 30
142.4869995117188
 70
   192
  0
VERTEX
  5
4D1
  8
0
 62
     9
 10
0.0
 20
0.0
 30
0.0
 70
   128
 71
     3
 72
     2
 73
     1
  0
VERTEX
  5
4D2
  8
0
 62
     9
 10
0.0
 20
0.0
 30
0.0
 70
   128
 71
     1
 72
     4
 73
     3
  0
SEQEND
  5
4D3
  8
0
 62
     9
  0
ENDBLK
  5
4D6
  8
0
  0
BLOCK
  8
0
  2
E3_NODE_17_
 70
     0
 10
0.0
 20
0.0
 30
0.0
  3
E3_NODE_17_
  1

  0
POLYLINE
  5
4D8
  8
0
 62
     9
 66
     1
 10
0.0
 20
0.0
 30
0.0
 70
    64
 71
    31
 72
    29
  0
VERTEX
  5
4D9
  8
0
 10
28.09199905395508
 20
18.17900085449219
 30
137.3520050048828
 70
   192
  0
VERTEX
  5
4DA
  8
0
 10
19.47200012207031
 20
16.7549991607666
 30
136.0760040283203
 70
   192
  0
VERTEX
  5
4DB
  8
0
 10
18.9680004119873
 20
17.59000015258789
 30
136.1380004882812
 70
   192
  0
VERTEX
  5
4DC
  8
0
 10
20.28000068664551
 20
15.31599998474121
 30
135.9759979248047
 70
   192
  0
VERTEX
  5
4DD
  8
0
 10
22.68099975585938
 20
9.824000358581543
 30
135.6790008544922
 70
   192
  0
VERTEX
  5
4DE
  8
0
 10
20.66799926757812
 20
14.43000030517578
 30
135.9279937744141
 70
   192
  0
VERTEX
  5
4DF
  8
0
 10
22.73999977111816
 20
9.6899995803833
 30
135.6719970703125
 70
   192
  0
VERTEX
  5
4E0
  8
0
 10
24.04400062561035
 20
4.361999988555908
 30
135.5110015869141
 70
   192
  0
VERTEX
  5
4E1
  8
0
 10
23.89500045776367
 20
4.96999979019165
 30
135.5290069580078
 70
   192
  0
VERTEX
  5
4E2
  8
0
 10
24.375
 20
0.0
 30
135.4700012207031
 70
   192
  0
VERTEX
  5
4E3
  8
0
 10
69.82099914550781
 20
-0.0350000001490116
 30
141.0570068359375
 70
   192
  0
VERTEX
  5
4E4
  8
0
 10
24.375
 20
-0.003000000026077
 30
135.4700012207031
 70
   192
  0
VERTEX
  5
4E5
  8
0
 10
69.82099914550781
 20
0.5009999871253967
 30
141.0570068359375
 70
   192
  0
VERTEX
  5
4E6
  8
0
 10
69.82099914550781
 20
0.0040000001899898
 30
141.0570068359375
 70
   192
  0
VERTEX
  5
4E7
  8
0
 10
69.82099914550781
 20
6.236999988555908
 30
141.2239990234375
 70
   192
  0
VERTEX
  5
4E8
  8
0
 10
47.10400009155273
 20
18.15299987792969
 30
139.6869964599609
 70
   192
  0
VERTEX
  5
4E9
  8
0
 10
66.11599731445312
 20
18.12899971008301
 30
142.0220031738281
 70
   192
  0
VERTEX
  5
4EA
  8
0
 10
69.82099914550781
 20
18.125
 30
142.4770050048828
 70
   192
  0
VERTEX
  5
4EB
  8
0
 10
18.58600044250488
 20
18.19300079345703
 30
136.1849975585938
 70
   192
  0
VERTEX
  5
4EC
  8
0
 10
69.8219985961914
 20
-12.44799995422363
 30
141.7200012207031
 70
   192
  0
VERTEX
  5
4ED
  8
0
 10
23.89500045776367
 20
-4.97700023651123
 30
135.5299987792969
 70
   192
  0
VERTEX
  5
4EE
  8
0
 10
23.84099960327148
 20
-5.538000106811523
 30
135.5370025634766
 70
   192
  0
VERTEX
  5
4EF
  8
0
 10
69.82099914550781
 20
-0.4990000128746033
 30
141.0570068359375
 70
   192
  0
VERTEX
  5
4F0
  8
0
 10
47.10400009155273
 20
-18.15099906921387
 30
139.6849975585938
 70
   192
  0
VERTEX
  5
4F1
  8
0
 10
66.11599731445312
 20
-18.12700080871582
 30
142.0160064697266
 70
   192
  0
VERTEX
  5
4F2
  8
0
 10
21.94300079345703
 20
-11.81099987030029
 30
135.7720031738281
 70
   192
  0
VERTEX
  5
4F3
  8
0
 10
22.55599975585938
 20
-9.78600025177002
 30
135.6959991455078
 70
   192
  0
VERTEX
  5
4F4
  8
0
 10
69.8219985961914
 20
-18.12299919128418
 30
142.4700012207031
 70
   192
  0
VERTEX
  5
4F5
  8
0
 10
28.09199905395508
 20
-18.17799949645996
 30
137.35400390625
 70
   192
  0
VERTEX
  5
4F6
  8
0
 10
18.58799934387207
 20
-18.19300079345703
 30
136.1849975585938
 70
   192
  0
VERTEX
  5
4F7
  8
0
 10
20.59099960327148
 20
-14.38199996948242
 30
135.9389953613281
 70
   192
  0
VERTEX
  5
4F8
  8
0
 62
     9
 10
0.0
 20
0.0
 30
0.0
 70
   128
 71
     3
 72
     2
 73
     1
  0
VERTEX
  5
4F9
  8
0
 62
     9
 10
0.0
 20
0.0
 30
0.0
 70
   128
 71
     2
 72
     4
 73
     1
  0
VERTEX
  5
4FA
  8
0
 62
     9
 10
0.0
 20
0.0
 30
0.0
 70
   128
 71
     6
 72
     5
 73
     1
  0
VERTEX
  5
4FB
  8
0
 62
     9
 10
0.0
 20
0.0
 30
0.0
 70
   128
 71
     5
 72
     7
 73
     1
  0
VERTEX
  5
4FC
  8
0
 62
     9
 10
0.0
 20
0.0
 30
0.0
 70
   128
 71
     1
 72
     4
 73
     6
  0
VERTEX
  5
4FD
  8
0
 62
     9
 10
0.0
 20
0.0
 30
0.0
 70
   128
 71
     9
 72
     8
 73
     1
  0
VERTEX
  5
4FE
  8
0
 62
     9
 10
0.0
 20
0.0
 30
0.0
 70
   128
 71
     8
 72
    10
 73
     1
  0
VERTEX
  5
4FF
  8
0
 62
     9
 10
0.0
 20
0.0
 30
0.0
 70
   128
 71
     1
 72
     7
 73
     9
  0
VERTEX
  5
500
  8
0
 62
     9
 10
0.0
 20
0.0
 30
0.0
 70
   128
 71
    10
 72
    12
 73
    11
  0
VERTEX
  5
501
  8
0
 62
     9
 10
0.0
 20
0.0
 30
0.0
 70
   128
 71
    14
 72
    13
 73
    10
  0
VERTEX
  5
502
  8
0
 62
     9
 10
0.0
 20
0.0
 30
0.0
 70
   128
 71
    13
 72
    15
 73
    10
  0
VERTEX
  5
503
  8
0
 62
     9
 10
0.0
 20
0.0
 30
0.0
 70
   128
 71
    16
 72
    10
 73
    15
  0
VERTEX
  5
504
  8
0
 62
     9
 10
0.0
 20
0.0
 30
0.0
 70
   128
 71
    15
 72
    17
 73
    16
  0
VERTEX
  5
505
  8
0
 62
     9
 10
0.0
 20
0.0
 30
0.0
 70
   128
 71
    16
 72
     1
 73
    10
  0
VERTEX
  5
506
  8
0
 62
     9
 10
0.0
 20
0.0
 30
0.0
 70
   128
 71
    15
 72
    18
 73
    17
  0
VERTEX
  5
507
  8
0
 62
     9
 10
0.0
 20
0.0
 30
0.0
 70
   128
 71
    11
 72
    14
 73
    10
  0
VERTEX
  5
508
  8
0
 62
     9
 10
0.0
 20
0.0
 30
0.0
 70
   128
 71
     1
 72
    19
 73
     3
  0
VERTEX
  5
509
  8
0
 62
     9
 10
0.0
 20
0.0
 30
0.0
 70
   128
 71
    12
 72
    21
 73
    20
  0
VERTEX
  5
50A
  8
0
 62
     9
 10
0.0
 20
0.0
 30
0.0
 70
   128
 71
    21
 72
    22
 73
    20
  0
VERTEX
  5
50B
  8
0
 62
     9
 10
0.0
 20
0.0
 30
0.0
 70
   128
 71
    23
 72
    11
 73
    12
  0
VERTEX
  5
50C
  8
0
 62
     9
 10
0.0
 20
0.0
 30
0.0
 70
   128
 71
    24
 72
    20
 73
    22
  0
VERTEX
  5
50D
  8
0
 62
     9
 10
0.0
 20
0.0
 30
0.0
 70
   128
 71
    24
 72
    25
 73
    20
  0
VERTEX
  5
50E
  8
0
 62
     9
 10
0.0
 20
0.0
 30
0.0
 70
   128
 71
    27
 72
    26
 73
    24
  0
VERTEX
  5
50F
  8
0
 62
     9
 10
0.0
 20
0.0
 30
0.0
 70
   128
 71
    25
 72
    28
 73
    20
  0
VERTEX
  5
510
  8
0
 62
     9
 10
0.0
 20
0.0
 30
0.0
 70
   128
 71
    31
 72
    30
 73
    29
  0
VERTEX
  5
511
  8
0
 62
     9
 10
0.0
 20
0.0
 30
0.0
 70
   128
 71
    29
 72
    24
 73
    26
  0
VERTEX
  5
512
  8
0
 62
     9
 10
0.0
 20
0.0
 30
0.0
 70
   128
 71
    29
 72
    26
 73
    31
  0
VERTEX
  5
513
  8
0
 62
     9
 10
0.0
 20
0.0
 30
0.0
 70
   128
 71
    22
 72
    27
 73
    24
  0
VERTEX
  5
514
  8
0
 62
     9
 10
0.0
 20
0.0
 30
0.0
 70
   128
 71
    20
 72
    23
 73
    12
  0
SEQEND
  5
515
  8
0
 62
     9
  0
ENDBLK
  5
518
  8
0
  0
BLOCK
  8
0
  2
E3_NODE_18_
 70
     0
 10
0.0
 20
0.0
 30
0.0
  3
E3_NODE_18_
  1

  0
POLYLINE
  5
51A
  8
0
 62
     9
 66
     1
 10
0.0
 20
0.0
 30
0.0
 70
    64
 71
    12
 72
    10
  0
VERTEX
  5
51B
  8
0
 10
13.77099990844727
 20
-18.62400054931641
 30
136.1269989013672
 70
   192
  0
VERTEX
  5
51C
  8
0
 10
9.03499984741211
 20
-18.65399932861328
 30
135.4199981689453
 70
   192
  0
VERTEX
  5
51D
  8
0
 10
9.538999557495117
 20
-18.42700004577637
 30
134.9819946289062
 70
   192
  0
VERTEX
  5
51E
  8
0
 10
9.109999656677246
 20
-18.44300079345703
 30
134.9250030517578
 70
   192
  0
VERTEX
  5
51F
  8
0
 10
4.455999851226807
 20
-18.69099998474121
 30
134.7019958496094
 70
   192
  0
VERTEX
  5
520
  8
0
 10
4.50600004196167
 20
-18.64399909973145
 30
134.3890075683594
 70
   192
  0
VERTEX
  5
521
  8
0
 10
-0.1209999993443489
 20
-18.73100090026855
 30
133.968994140625
 70
   192
  0
VERTEX
  5
522
  8
0
 10
-0.119999997317791
 20
-18.73100090026855
 30
133.9660034179688
 70
   192
  0
VERTEX
  5
523
  8
0
 10
18.51799964904785
 20
-18.60799980163574
 30
136.7599945068359
 70
   192
  0
VERTEX
  5
524
  8
0
 10
13.85000038146973
 20
-18.26600074768066
 30
135.5650024414062
 70
   192
  0
VERTEX
  5
525
  8
0
 10
18.58799934387207
 20
-18.19300079345703
 30
136.1849975585938
 70
   192
  0
VERTEX
  5
526
  8
0
 10
-0.1609999984502792
 20
-18.73100090026855
 30
133.9629974365234
 70
   192
  0
VERTEX
  5
527
  8
0
 62
     9
 10
0.0
 20
0.0
 30
0.0
 70
   128
 71
     3
 72
     2
 73
     1
  0
VERTEX
  5
528
  8
0
 62
     9
 10
0.0
 20
0.0
 30
0.0
 70
   128
 71
     3
 72
     4
 73
     2
  0
VERTEX
  5
529
  8
0
 62
     9
 10
0.0
 20
0.0
 30
0.0
 70
   128
 71
     6
 72
     5
 73
     2
  0
VERTEX
  5
52A
  8
0
 62
     9
 10
0.0
 20
0.0
 30
0.0
 70
   128
 71
     8
 72
     7
 73
     5
  0
VERTEX
  5
52B
  8
0
 62
     9
 10
0.0
 20
0.0
 30
0.0
 70
   128
 71
    10
 72
     1
 73
     9
  0
VERTEX
  5
52C
  8
0
 62
     9
 10
0.0
 20
0.0
 30
0.0
 70
   128
 71
     9
 72
    11
 73
    10
  0
VERTEX
  5
52D
  8
0
 62
     9
 10
0.0
 20
0.0
 30
0.0
 70
   128
 71
    12
 72
     7
 73
     8
  0
VERTEX
  5
52E
  8
0
 62
     9
 10
0.0
 20
0.0
 30
0.0
 70
   128
 71
     5
 72
     6
 73
     8
  0
VERTEX
  5
52F
  8
0
 62
     9
 10
0.0
 20
0.0
 30
0.0
 70
   128
 71
     2
 72
     4
 73
     6
  0
VERTEX
  5
530
  8
0
 62
     9
 10
0.0
 20
0.0
 30
0.0
 70
   128
 71
     1
 72
    10
 73
     3
  0
SEQEND
  5
531
  8
0
 62
     9
  0
ENDBLK
  5
534
  8
0
  0
BLOCK
  8
0
  2
E3_NODE_19_
 70
     0
 10
0.0
 20
0.0
 30
0.0
  3
E3_NODE_19_
  1

  0
POLYLINE
  5
536
  8
0
 62
     9
 66
     1
 10
0.0
 20
0.0
 30
0.0
 70
    64
 71
    15
 72
    13
  0
VERTEX
  5
537
  8
0
 10
69.87000274658203
 20
-18.31500053405762
 30
144.5579986572266
 70
   192
  0
VERTEX
  5
538
  8
0
 10
66.0479965209961
 20
-18.54500007629395
 30
142.5800018310547
 70
   192
  0
VERTEX
  5
539
  8
0
 10
69.75399780273438
 20
-18.54000091552734
 30
143.0339965820312
 70
   192
  0
VERTEX
  5
53A
  8
0
 10
22.94000053405762
 20
-18.09499931335449
 30
140.2799987792969
 70
   192
  0
VERTEX
  5
53B
  8
0
 10
47.03499984741211
 20
-18.56800079345703
 30
140.2530059814453
 70
   192
  0
VERTEX
  5
53C
  8
0
 10
28.02199935913086
 20
-18.5930004119873
 30
137.927001953125
 70
   192
  0
VERTEX
  5
53D
  8
0
 10
69.83300018310547
 20
-18.54000091552734
 30
143.0440063476562
 70
   192
  0
VERTEX
  5
53E
  8
0
 10
18.51799964904785
 20
-18.60799980163574
 30
136.7599945068359
 70
   192
  0
VERTEX
  5
53F
  8
0
 10
13.77099990844727
 20
-18.62400054931641
 30
136.1269989013672
 70
   192
  0
VERTEX
  5
540
  8
0
 10
-0.1729999929666519
 20
-18.10600090026855
 30
137.3849945068359
 70
   192
  0
VERTEX
  5
541
  8
0
 10
9.03499984741211
 20
-18.65399932861328
 30
135.4199981689453
 70
   192
  0
VERTEX
  5
542
  8
0
 10
-0.1609999984502792
 20
-18.73100090026855
 30
133.9629974365234
 70
   192
  0
VERTEX
  5
543
  8
0
 10
-0.1209999993443489
 20
-18.73100090026855
 30
133.968994140625
 70
   192
  0
VERTEX
  5
544
  8
0
 10
4.455999851226807
 20
-18.69099998474121
 30
134.7019958496094
 70
   192
  0
VERTEX
  5
545
  8
0
 10
69.90599822998047
 20
-18.10000038146973
 30
146.0079956054688
 70
   192
  0
VERTEX
  5
546
  8
0
 62
     9
 10
0.0
 20
0.0
 30
0.0
 70
   128
 71
     3
 72
     2
 73
     1
  0
VERTEX
  5
547
  8
0
 62
     9
 10
0.0
 20
0.0
 30
0.0
 70
   128
 71
     5
 72
     4
 73
     1
  0
VERTEX
  5
548
  8
0
 62
     9
 10
0.0
 20
0.0
 30
0.0
 70
   128
 71
     5
 72
     6
 73
     4
  0
VERTEX
  5
549
  8
0
 62
     9
 10
0.0
 20
0.0
 30
0.0
 70
   128
 71
     1
 72
     2
 73
     5
  0
VERTEX
  5
54A
  8
0
 62
     9
 10
0.0
 20
0.0
 30
0.0
 70
   128
 71
     1
 72
     7
 73
     3
  0
VERTEX
  5
54B
  8
0
 62
     9
 10
0.0
 20
0.0
 30
0.0
 70
   128
 71
     6
 72
     8
 73
     4
  0
VERTEX
  5
54C
  8
0
 62
     9
 10
0.0
 20
0.0
 30
0.0
 70
   128
 71
     8
 72
     9
 73
     4
  0
VERTEX
  5
54D
  8
0
 62
     9
 10
0.0
 20
0.0
 30
0.0
 70
   128
 71
     9
 72
    11
 73
    10
  0
VERTEX
  5
54E
  8
0
 62
     9
 10
0.0
 20
0.0
 30
0.0
 70
   128
 71
    13
 72
    12
 73
    10
  0
VERTEX
  5
54F
  8
0
 62
     9
 10
0.0
 20
0.0
 30
0.0
 70
   128
 71
    10
 72
    14
 73
    13
  0
VERTEX
  5
550
  8
0
 62
     9
 10
0.0
 20
0.0
 30
0.0
 70
   128
 71
    10
 72
    11
 73
    14
  0
VERTEX
  5
551
  8
0
 62
     9
 10
0.0
 20
0.0
 30
0.0
 70
   128
 71
    10
 72
     4
 73
     9
  0
VERTEX
  5
552
  8
0
 62
     9
 10
0.0
 20
0.0
 30
0.0
 70
   128
 71
     4
 72
    15
 73
     1
  0
SEQEND
  5
553
  8
0
 62
     9
  0
ENDBLK
  5
556
  8
0
  0
BLOCK
  8
0
  2
E3_NODE_20_
 70
     0
 10
0.0
 20
0.0
 30
0.0
  3
E3_NODE_20_
  1

  0
POLYLINE
  5
558
  8
0
 62
     9
 66
     1
 10
0.0
 20
0.0
 30
0.0
 70
    64
 71
    27
 72
    25
  0
VERTEX
  5
559
  8
0
 10
69.82099914550781
 20
6.236999988555908
 30
141.2239990234375
 70
   192
  0
VERTEX
  5
55A
  8
0
 10
79.947998046875
 20
15.01700019836426
 30
143.7330017089844
 70
   192
  0
VERTEX
  5
55B
  8
0
 10
82.89800262451172
 20
12.50699996948242
 30
144.0959930419922
 70
   192
  0
VERTEX
  5
55C
  8
0
 10
85.98400115966797
 20
8.07800006866455
 30
144.4730072021484
 70
   192
  0
VERTEX
  5
55D
  8
0
 10
69.90299987792969
 20
18.125
 30
142.4869995117188
 70
   192
  0
VERTEX
  5
55E
  8
0
 10
74.43900299072266
 20
17.5310001373291
 30
143.0489959716797
 70
   192
  0
VERTEX
  5
55F
  8
0
 10
79.375
 20
15.39099979400635
 30
143.6620025634766
 70
   192
  0
VERTEX
  5
560
  8
0
 10
69.82099914550781
 20
18.125
 30
142.4770050048828
 70
   192
  0
VERTEX
  5
561
  8
0
 10
69.82099914550781
 20
0.5009999871253967
 30
141.0570068359375
 70
   192
  0
VERTEX
  5
562
  8
0
 10
87.73200225830078
 20
2.253999948501587
 30
144.6880035400391
 70
   192
  0
VERTEX
  5
563
  8
0
 10
87.80400085449219
 20
1.570000052452087
 30
144.6970062255859
 70
   192
  0
VERTEX
  5
564
  8
0
 10
86.2760009765625
 20
7.459000110626221
 30
144.5090026855469
 70
   192
  0
VERTEX
  5
565
  8
0
 10
87.70600128173828
 20
0.0049999998882413
 30
144.6840057373047
 70
   192
  0
VERTEX
  5
566
  8
0
 10
69.82099914550781
 20
0.0040000001899898
 30
141.0570068359375
 70
   192
  0
VERTEX
  5
567
  8
0
 10
69.82099914550781
 20
-0.4990000128746033
 30
141.0570068359375
 70
   192
  0
VERTEX
  5
568
  8
0
 10
85.21700286865234
 20
-9.468999862670898
 30
144.3760070800781
 70
   192
  0
VERTEX
  5
569
  8
0
 10
84.85299682617188
 20
-10.04300022125244
 30
144.3309936523438
 70
   192
  0
VERTEX
  5
56A
  8
0
 10
87.46600341796875
 20
-3.825999975204468
 30
144.6540069580078
 70
   192
  0
VERTEX
  5
56B
  8
0
 10
87.31099700927734
 20
-4.48799991607666
 30
144.6340026855469
 70
   192
  0
VERTEX
  5
56C
  8
0
 10
69.8219985961914
 20
-12.44799995422363
 30
141.7200012207031
 70
   192
  0
VERTEX
  5
56D
  8
0
 10
75.98600006103516
 20
-17.04500007629395
 30
143.2339935302734
 70
   192
  0
VERTEX
  5
56E
  8
0
 10
75.34100341796875
 20
-17.26499938964844
 30
143.1540069580078
 70
   192
  0
VERTEX
  5
56F
  8
0
 10
80.71099853515625
 20
-14.46700000762939
 30
143.8209991455078
 70
   192
  0
VERTEX
  5
570
  8
0
 10
81.23899841308594
 20
-14.04899978637695
 30
143.8860015869141
 70
   192
  0
VERTEX
  5
571
  8
0
 10
69.9020004272461
 20
-18.12299919128418
 30
142.4799957275391
 70
   192
  0
VERTEX
  5
572
  8
0
 10
69.8219985961914
 20
-18.12299919128418
 30
142.4700012207031
 70
   192
  0
VERTEX
  5
573
  8
0
 10
69.82099914550781
 20
-0.0350000001490116
 30
141.0570068359375
 70
   192
  0
VERTEX
  5
574
  8
0
 62
     9
 10
0.0
 20
0.0
 30
0.0
 70
   128
 71
     3
 72
     2
 73
     1
  0
VERTEX
  5
575
  8
0
 62
     9
 10
0.0
 20
0.0
 30
0.0
 70
   128
 71
     1
 72
     4
 73
     3
  0
VERTEX
  5
576
  8
0
 62
     9
 10
0.0
 20
0.0
 30
0.0
 70
   128
 71
     6
 72
     5
 73
     1
  0
VERTEX
  5
577
  8
0
 62
     9
 10
0.0
 20
0.0
 30
0.0
 70
   128
 71
     1
 72
     7
 73
     6
  0
VERTEX
  5
578
  8
0
 62
     9
 10
0.0
 20
0.0
 30
0.0
 70
   128
 71
     5
 72
     8
 73
     1
  0
VERTEX
  5
579
  8
0
 62
     9
 10
0.0
 20
0.0
 30
0.0
 70
   128
 71
     1
 72
     2
 73
     7
  0
VERTEX
  5
57A
  8
0
 62
     9
 10
0.0
 20
0.0
 30
0.0
 70
   128
 71
    11
 72
    10
 73
     9
  0
VERTEX
  5
57B
  8
0
 62
     9
 10
0.0
 20
0.0
 30
0.0
 70
   128
 71
    12
 72
     1
 73
     9
  0
VERTEX
  5
57C
  8
0
 62
     9
 10
0.0
 20
0.0
 30
0.0
 70
   128
 71
     9
 72
    10
 73
    12
  0
VERTEX
  5
57D
  8
0
 62
     9
 10
0.0
 20
0.0
 30
0.0
 70
   128
 71
     9
 72
    13
 73
    11
  0
VERTEX
  5
57E
  8
0
 62
     9
 10
0.0
 20
0.0
 30
0.0
 70
   128
 71
     9
 72
    14
 73
    13
  0
VERTEX
  5
57F
  8
0
 62
     9
 10
0.0
 20
0.0
 30
0.0
 70
   128
 71
    17
 72
    16
 73
    15
  0
VERTEX
  5
580
  8
0
 62
     9
 10
0.0
 20
0.0
 30
0.0
 70
   128
 71
    18
 72
    13
 73
    15
  0
VERTEX
  5
581
  8
0
 62
     9
 10
0.0
 20
0.0
 30
0.0
 70
   128
 71
    15
 72
    19
 73
    18
  0
VERTEX
  5
582
  8
0
 62
     9
 10
0.0
 20
0.0
 30
0.0
 70
   128
 71
    15
 72
    16
 73
    19
  0
VERTEX
  5
583
  8
0
 62
     9
 10
0.0
 20
0.0
 30
0.0
 70
   128
 71
    22
 72
    21
 73
    20
  0
VERTEX
  5
584
  8
0
 62
     9
 10
0.0
 20
0.0
 30
0.0
 70
   128
 71
    21
 72
    23
 73
    20
  0
VERTEX
  5
585
  8
0
 62
     9
 10
0.0
 20
0.0
 30
0.0
 70
   128
 71
    24
 72
    17
 73
    20
  0
VERTEX
  5
586
  8
0
 62
     9
 10
0.0
 20
0.0
 30
0.0
 70
   128
 71
    20
 72
    23
 73
    24
  0
VERTEX
  5
587
  8
0
 62
     9
 10
0.0
 20
0.0
 30
0.0
 70
   128
 71
    20
 72
    25
 73
    22
  0
VERTEX
  5
588
  8
0
 62
     9
 10
0.0
 20
0.0
 30
0.0
 70
   128
 71
    20
 72
    26
 73
    25
  0
VERTEX
  5
589
  8
0
 62
     9
 10
0.0
 20
0.0
 30
0.0
 70
   128
 71
    15
 72
    20
 73
    17
  0
VERTEX
  5
58A
  8
0
 62
     9
 10
0.0
 20
0.0
 30
0.0
 70
   128
 71
    13
 72
    27
 73
    15
  0
VERTEX
  5
58B
  8
0
 62
     9
 10
0.0
 20
0.0
 30
0.0
 70
   128
 71
    13
 72
    14
 73
    27
  0
VERTEX
  5
58C
  8
0
 62
     9
 10
0.0
 20
0.0
 30
0.0
 70
   128
 71
     1
 72
    12
 73
     4
  0
SEQEND
  5
58D
  8
0
 62
     9
  0
ENDBLK
  5
590
  8
0
  0
BLOCK
  8
0
  2
E3_NODE_21_
 70
     0
 10
0.0
 20
0.0
 30
0.0
  3
E3_NODE_21_
  1

  0
POLYLINE
  5
592
  8
0
 62
     9
 66
     1
 10
0.0
 20
0.0
 30
0.0
 70
    64
 71
    43
 72
    41
  0
VERTEX
  5
593
  8
0
 10
69.83399963378906
 20
18.54199981689453
 30
143.0509948730469
 70
   192
  0
VERTEX
  5
594
  8
0
 10
74.47699737548828
 20
17.9370002746582
 30
143.6069946289062
 70
   192
  0
VERTEX
  5
595
  8
0
 10
74.43900299072266
 20
17.5310001373291
 30
143.0489959716797
 70
   192
  0
VERTEX
  5
596
  8
0
 10
79.375
 20
15.39099979400635
 30
143.6620025634766
 70
   192
  0
VERTEX
  5
597
  8
0
 10
77.03399658203125
 20
16.82999992370605
 30
143.9140014648438
 70
   192
  0
VERTEX
  5
598
  8
0
 10
79.53099822998047
 20
15.74899959564209
 30
144.2129974365234
 70
   192
  0
VERTEX
  5
599
  8
0
 10
80.11799621582031
 20
15.36600017547607
 30
144.2830047607422
 70
   192
  0
VERTEX
  5
59A
  8
0
 10
79.947998046875
 20
15.01700019836426
 30
143.7330017089844
 70
   192
  0
VERTEX
  5
59B
  8
0
 10
83.13800048828125
 20
12.79800033569336
 30
144.6430053710938
 70
   192
  0
VERTEX
  5
59C
  8
0
 10
82.89800262451172
 20
12.50699996948242
 30
144.0959930419922
 70
   192
  0
VERTEX
  5
59D
  8
0
 10
86.29900360107422
 20
8.267000198364258
 30
145.0169982910156
 70
   192
  0
VERTEX
  5
59E
  8
0
 10
85.98400115966797
 20
8.07800006866455
 30
144.4730072021484
 70
   192
  0
VERTEX
  5
59F
  8
0
 10
86.5979995727539
 20
7.632999897003174
 30
145.052001953125
 70
   192
  0
VERTEX
  5
5A0
  8
0
 10
86.2760009765625
 20
7.459000110626221
 30
144.5090026855469
 70
   192
  0
VERTEX
  5
5A1
  8
0
 10
87.73200225830078
 20
2.253999948501587
 30
144.6880035400391
 70
   192
  0
VERTEX
  5
5A2
  8
0
 10
86.8030014038086
 20
6.89900016784668
 30
145.0769958496094
 70
   192
  0
VERTEX
  5
5A3
  8
0
 10
88.08899688720703
 20
2.306999921798706
 30
145.22900390625
 70
   192
  0
VERTEX
  5
5A4
  8
0
 10
88.16300201416016
 20
1.605999946594238
 30
145.2380065917969
 70
   192
  0
VERTEX
  5
5A5
  8
0
 10
87.80400085449219
 20
1.570000052452087
 30
144.6970062255859
 70
   192
  0
VERTEX
  5
5A6
  8
0
 10
88.06199645996094
 20
0.0120000001043081
 30
145.2259979248047
 70
   192
  0
VERTEX
  5
5A7
  8
0
 10
87.70600128173828
 20
0.0049999998882413
 30
144.6840057373047
 70
   192
  0
VERTEX
  5
5A8
  8
0
 10
87.81600189208984
 20
-3.915999889373779
 30
145.1950073242188
 70
   192
  0
VERTEX
  5
5A9
  8
0
 10
87.46600341796875
 20
-3.825999975204468
 30
144.6540069580078
 70
   192
  0
VERTEX
  5
5AA
  8
0
 10
87.65699768066406
 20
-4.593999862670898
 30
145.1759948730469
 70
   192
  0
VERTEX
  5
5AB
  8
0
 10
87.31099700927734
 20
-4.48799991607666
 30
144.6340026855469
 70
   192
  0
VERTEX
  5
5AC
  8
0
 10
85.21700286865234
 20
-9.468999862670898
 30
144.3760070800781
 70
   192
  0
VERTEX
  5
5AD
  8
0
 10
86.71099853515625
 20
-6.842999935150146
 30
145.0630035400391
 70
   192
  0
VERTEX
  5
5AE
  8
0
 10
85.51399993896484
 20
-9.690999984741211
 30
144.9199981689453
 70
   192
  0
VERTEX
  5
5AF
  8
0
 10
85.14099884033203
 20
-10.27799987792969
 30
144.8760070800781
 70
   192
  0
VERTEX
  5
5B0
  8
0
 10
84.85299682617188
 20
-10.04300022125244
 30
144.3309936523438
 70
   192
  0
VERTEX
  5
5B1
  8
0
 10
82.9000015258789
 20
-12.76000022888184
 30
144.6089935302734
 70
   192
  0
VERTEX
  5
5B2
  8
0
 10
81.23899841308594
 20
-14.04899978637695
 30
143.8860015869141
 70
   192
  0
VERTEX
  5
5B3
  8
0
 10
81.44000244140625
 20
-14.37600040435791
 30
144.4360046386719
 70
   192
  0
VERTEX
  5
5B4
  8
0
 10
80.89900207519531
 20
-14.80399990081787
 30
144.3710021972656
 70
   192
  0
VERTEX
  5
5B5
  8
0
 10
80.71099853515625
 20
-14.46700000762939
 30
143.8209991455078
 70
   192
  0
VERTEX
  5
5B6
  8
0
 10
77.0510025024414
 20
-16.89999961853027
 30
143.9089965820312
 70
   192
  0
VERTEX
  5
5B7
  8
0
 10
75.98600006103516
 20
-17.04500007629395
 30
143.2339935302734
 70
   192
  0
VERTEX
  5
5B8
  8
0
 10
75.4010009765625
 20
-17.66600036621094
 30
143.7100067138672
 70
   192
  0
VERTEX
  5
5B9
  8
0
 10
75.34100341796875
 20
-17.26499938964844
 30
143.1540069580078
 70
   192
  0
VERTEX
  5
5BA
  8
0
 10
69.83300018310547
 20
-18.54000091552734
 30
143.0440063476562
 70
   192
  0
VERTEX
  5
5BB
  8
0
 10
69.9020004272461
 20
-18.12299919128418
 30
142.4799957275391
 70
   192
  0
VERTEX
  5
5BC
  8
0
 10
76.06099700927734
 20
-17.44000053405762
 30
143.7899932861328
 70
   192
  0
VERTEX
  5
5BD
  8
0
 10
69.90299987792969
 20
18.125
 30
142.4869995117188
 70
   192
  0
VERTEX
  5
5BE
  8
0
 62
     9
 10
0.0
 20
0.0
 30
0.0
 70
   128
 71
     3
 72
     2
 73
     1
  0
VERTEX
  5
5BF
  8
0
 62
     9
 10
0.0
 20
0.0
 30
0.0
 70
   128
 71
     5
 72
     3
 73
     4
  0
VERTEX
  5
5C0
  8
0
 62
     9
 10
0.0
 20
0.0
 30
0.0
 70
   128
 71
     5
 72
     2
 73
     3
  0
VERTEX
  5
5C1
  8
0
 62
     9
 10
0.0
 20
0.0
 30
0.0
 70
   128
 71
     8
 72
     7
 73
     6
  0
VERTEX
  5
5C2
  8
0
 62
     9
 10
0.0
 20
0.0
 30
0.0
 70
   128
 71
    10
 72
     9
 73
     7
  0
VERTEX
  5
5C3
  8
0
 62
     9
 10
0.0
 20
0.0
 30
0.0
 70
   128
 71
    12
 72
    11
 73
     9
  0
VERTEX
  5
5C4
  8
0
 62
     9
 10
0.0
 20
0.0
 30
0.0
 70
   128
 71
    12
 72
    14
 73
    13
  0
VERTEX
  5
5C5
  8
0
 62
     9
 10
0.0
 20
0.0
 30
0.0
 70
   128
 71
    16
 72
    14
 73
    15
  0
VERTEX
  5
5C6
  8
0
 62
     9
 10
0.0
 20
0.0
 30
0.0
 70
   128
 71
    16
 72
    13
 73
    14
  0
VERTEX
  5
5C7
  8
0
 62
     9
 10
0.0
 20
0.0
 30
0.0
 70
   128
 71
    19
 72
    18
 73
    17
  0
VERTEX
  5
5C8
  8
0
 62
     9
 10
0.0
 20
0.0
 30
0.0
 70
   128
 71
    19
 72
    21
 73
    20
  0
VERTEX
  5
5C9
  8
0
 62
     9
 10
0.0
 20
0.0
 30
0.0
 70
   128
 71
    23
 72
    22
 73
    20
  0
VERTEX
  5
5CA
  8
0
 62
     9
 10
0.0
 20
0.0
 30
0.0
 70
   128
 71
    20
 72
    21
 73
    23
  0
VERTEX
  5
5CB
  8
0
 62
     9
 10
0.0
 20
0.0
 30
0.0
 70
   128
 71
    23
 72
    25
 73
    24
  0
VERTEX
  5
5CC
  8
0
 62
     9
 10
0.0
 20
0.0
 30
0.0
 70
   128
 71
    27
 72
    25
 73
    26
  0
VERTEX
  5
5CD
  8
0
 62
     9
 10
0.0
 20
0.0
 30
0.0
 70
   128
 71
    27
 72
    24
 73
    25
  0
VERTEX
  5
5CE
  8
0
 62
     9
 10
0.0
 20
0.0
 30
0.0
 70
   128
 71
    30
 72
    29
 73
    28
  0
VERTEX
  5
5CF
  8
0
 62
     9
 10
0.0
 20
0.0
 30
0.0
 70
   128
 71
    31
 72
    29
 73
    30
  0
VERTEX
  5
5D0
  8
0
 62
     9
 10
0.0
 20
0.0
 30
0.0
 70
   128
 71
    30
 72
    32
 73
    31
  0
VERTEX
  5
5D1
  8
0
 62
     9
 10
0.0
 20
0.0
 30
0.0
 70
   128
 71
    35
 72
    34
 73
    33
  0
VERTEX
  5
5D2
  8
0
 62
     9
 10
0.0
 20
0.0
 30
0.0
 70
   128
 71
    36
 72
    34
 73
    35
  0
VERTEX
  5
5D3
  8
0
 62
     9
 10
0.0
 20
0.0
 30
0.0
 70
   128
 71
    35
 72
    37
 73
    36
  0
VERTEX
  5
5D4
  8
0
 62
     9
 10
0.0
 20
0.0
 30
0.0
 70
   128
 71
    37
 72
    39
 73
    38
  0
VERTEX
  5
5D5
  8
0
 62
     9
 10
0.0
 20
0.0
 30
0.0
 70
   128
 71
    39
 72
    41
 73
    40
  0
VERTEX
  5
5D6
  8
0
 62
     9
 10
0.0
 20
0.0
 30
0.0
 70
   128
 71
    40
 72
    38
 73
    39
  0
VERTEX
  5
5D7
  8
0
 62
     9
 10
0.0
 20
0.0
 30
0.0
 70
   128
 71
    38
 72
    42
 73
    37
  0
VERTEX
  5
5D8
  8
0
 62
     9
 10
0.0
 20
0.0
 30
0.0
 70
   128
 71
    37
 72
    42
 73
    36
  0
VERTEX
  5
5D9
  8
0
 62
     9
 10
0.0
 20
0.0
 30
0.0
 70
   128
 71
    33
 72
    32
 73
    35
  0
VERTEX
  5
5DA
  8
0
 62
     9
 10
0.0
 20
0.0
 30
0.0
 70
   128
 71
    32
 72
    33
 73
    31
  0
VERTEX
  5
5DB
  8
0
 62
     9
 10
0.0
 20
0.0
 30
0.0
 70
   128
 71
    28
 72
    26
 73
    30
  0
VERTEX
  5
5DC
  8
0
 62
     9
 10
0.0
 20
0.0
 30
0.0
 70
   128
 71
    26
 72
    28
 73
    27
  0
VERTEX
  5
5DD
  8
0
 62
     9
 10
0.0
 20
0.0
 30
0.0
 70
   128
 71
    24
 72
    22
 73
    23
  0
VERTEX
  5
5DE
  8
0
 62
     9
 10
0.0
 20
0.0
 30
0.0
 70
   128
 71
    20
 72
    18
 73
    19
  0
VERTEX
  5
5DF
  8
0
 62
     9
 10
0.0
 20
0.0
 30
0.0
 70
   128
 71
    17
 72
    15
 73
    19
  0
VERTEX
  5
5E0
  8
0
 62
     9
 10
0.0
 20
0.0
 30
0.0
 70
   128
 71
    15
 72
    17
 73
    16
  0
VERTEX
  5
5E1
  8
0
 62
     9
 10
0.0
 20
0.0
 30
0.0
 70
   128
 71
    13
 72
    11
 73
    12
  0
VERTEX
  5
5E2
  8
0
 62
     9
 10
0.0
 20
0.0
 30
0.0
 70
   128
 71
     9
 72
    10
 73
    12
  0
VERTEX
  5
5E3
  8
0
 62
     9
 10
0.0
 20
0.0
 30
0.0
 70
   128
 71
     7
 72
     8
 73
    10
  0
VERTEX
  5
5E4
  8
0
 62
     9
 10
0.0
 20
0.0
 30
0.0
 70
   128
 71
     6
 72
     4
 73
     8
  0
VERTEX
  5
5E5
  8
0
 62
     9
 10
0.0
 20
0.0
 30
0.0
 70
   128
 71
     4
 72
     6
 73
     5
  0
VERTEX
  5
5E6
  8
0
 62
     9
 10
0.0
 20
0.0
 30
0.0
 70
   128
 71
     1
 72
    43
 73
     3
  0
SEQEND
  5
5E7
  8
0
 62
     9
  0
ENDBLK
  5
5EA
  8
0
  0
BLOCK
  8
0
  2
E3_NODE_22_
 70
     0
 10
0.0
 20
0.0
 30
0.0
  3
E3_NODE_22_
  1

  0
POLYLINE
  5
5EC
  8
0
 62
     9
 66
     1
 10
0.0
 20
0.0
 30
0.0
 70
    64
 71
     4
 72
     2
  0
VERTEX
  5
5ED
  8
0
 10
69.8219985961914
 20
-18.12299919128418
 30
142.4700012207031
 70
   192
  0
VERTEX
  5
5EE
  8
0
 10
69.9020004272461
 20
-18.12299919128418
 30
142.4799957275391
 70
   192
  0
VERTEX
  5
5EF
  8
0
 10
69.83300018310547
 20
-18.54000091552734
 30
143.0440063476562
 70
   192
  0
VERTEX
  5
5F0
  8
0
 10
69.75399780273438
 20
-18.54000091552734
 30
143.0339965820312
 70
   192
  0
VERTEX
  5
5F1
  8
0
 62
     9
 10
0.0
 20
0.0
 30
0.0
 70
   128
 71
     3
 72
     2
 73
     1
  0
VERTEX
  5
5F2
  8
0
 62
     9
 10
0.0
 20
0.0
 30
0.0
 70
   128
 71
     1
 72
     4
 73
     3
  0
SEQEND
  5
5F3
  8
0
 62
     9
  0
ENDBLK
  5
5F6
  8
0
  0
BLOCK
  8
0
  2
E3_NODE_23_
 70
     0
 10
0.0
 20
0.0
 30
0.0
  3
E3_NODE_23_
  1

  0
POLYLINE
  5
5F8
  8
0
 62
     9
 66
     1
 10
0.0
 20
0.0
 30
0.0
 70
    64
 71
    10
 72
     8
  0
VERTEX
  5
5F9
  8
0
 10
28.09199905395508
 20
-18.17799949645996
 30
137.35400390625
 70
   192
  0
VERTEX
  5
5FA
  8
0
 10
28.02199935913086
 20
-18.5930004119873
 30
137.927001953125
 70
   192
  0
VERTEX
  5
5FB
  8
0
 10
18.51799964904785
 20
-18.60799980163574
 30
136.7599945068359
 70
   192
  0
VERTEX
  5
5FC
  8
0
 10
47.10400009155273
 20
-18.15099906921387
 30
139.6849975585938
 70
   192
  0
VERTEX
  5
5FD
  8
0
 10
47.03499984741211
 20
-18.56800079345703
 30
140.2530059814453
 70
   192
  0
VERTEX
  5
5FE
  8
0
 10
66.11599731445312
 20
-18.12700080871582
 30
142.0160064697266
 70
   192
  0
VERTEX
  5
5FF
  8
0
 10
66.0479965209961
 20
-18.54500007629395
 30
142.5800018310547
 70
   192
  0
VERTEX
  5
600
  8
0
 10
69.8219985961914
 20
-18.12299919128418
 30
142.4700012207031
 70
   192
  0
VERTEX
  5
601
  8
0
 10
69.75399780273438
 20
-18.54000091552734
 30
143.0339965820312
 70
   192
  0
VERTEX
  5
602
  8
0
 10
18.58799934387207
 20
-18.19300079345703
 30
136.1849975585938
 70
   192
  0
VERTEX
  5
603
  8
0
 62
     9
 10
0.0
 20
0.0
 30
0.0
 70
   128
 71
     3
 72
     2
 73
     1
  0
VERTEX
  5
604
  8
0
 62
     9
 10
0.0
 20
0.0
 30
0.0
 70
   128
 71
     5
 72
     4
 73
     1
  0
VERTEX
  5
605
  8
0
 62
     9
 10
0.0
 20
0.0
 30
0.0
 70
   128
 71
     7
 72
     6
 73
     4
  0
VERTEX
  5
606
  8
0
 62
     9
 10
0.0
 20
0.0
 30
0.0
 70
   128
 71
     9
 72
     8
 73
     6
  0
VERTEX
  5
607
  8
0
 62
     9
 10
0.0
 20
0.0
 30
0.0
 70
   128
 71
     6
 72
     7
 73
     9
  0
VERTEX
  5
608
  8
0
 62
     9
 10
0.0
 20
0.0
 30
0.0
 70
   128
 71
     4
 72
     5
 73
     7
  0
VERTEX
  5
609
  8
0
 62
     9
 10
0.0
 20
0.0
 30
0.0
 70
   128
 71
     1
 72
     2
 73
     5
  0
VERTEX
  5
60A
  8
0
 62
     9
 10
0.0
 20
0.0
 30
0.0
 70
   128
 71
     1
 72
    10
 73
     3
  0
SEQEND
  5
60B
  8
0
 62
     9
  0
ENDBLK
  5
60E
  8
0
  0
BLOCK
  8
0
  2
E3_NODE_24_
 70
     0
 10
0.0
 20
0.0
 30
0.0
  3
E3_NODE_24_
  1

  0
POLYLINE
  5
610
  8
0
 62
     9
 66
     1
 10
0.0
 20
0.0
 30
0.0
 70
    64
 71
    37
 72
    36
  0
VERTEX
  5
611
  8
0
 10
19.86599922180176
 20
0.0
 30
0.0
 70
   192
  0
VERTEX
  5
612
  8
0
 10
15.63000011444092
 20
-19.68199920654297
 30
0.0
 70
   192
  0
VERTEX
  5
613
  8
0
 10
6.494999885559082
 20
-24.27099990844727
 30
0.0
 70
   192
  0
VERTEX
  5
614
  8
0
 10
19.86599922180176
 20
-15.37399959564209
 30
0.0
 70
   192
  0
VERTEX
  5
615
  8
0
 10
0.4180000126361847
 20
-24.99200057983398
 30
0.0
 70
   192
  0
VERTEX
  5
616
  8
0
 10
19.86599922180176
 20
15.37399959564209
 30
0.0
 70
   192
  0
VERTEX
  5
617
  8
0
 10
22.3430004119873
 20
11.39599990844727
 30
0.0
 70
   192
  0
VERTEX
  5
618
  8
0
 10
24.99699974060059
 20
-0.1030000001192093
 30
0.0
 70
   192
  0
VERTEX
  5
619
  8
0
 10
22.68000030517578
 20
-10.69200038909912
 30
0.0
 70
   192
  0
VERTEX
  5
61A
  8
0
 10
1.485999941825867
 20
24.99600028991699
 30
0.0
 70
   192
  0
VERTEX
  5
61B
  8
0
 10
10.42199993133545
 20
22.86400032043457
 30
0.0
 70
   192
  0
VERTEX
  5
61C
  8
0
 10
19.16399955749512
 20
16.25
 30
0.0
 70
   192
  0
VERTEX
  5
61D
  8
0
 10
0.4490000009536743
 20
24.99200057983398
 30
0.0
 70
   192
  0
VERTEX
  5
61E
  8
0
 10
-0.0020000000949949
 20
-24.96199989318848
 30
0.0
 70
   192
  0
VERTEX
  5
61F
  8
0
 10
-0.0020000000949949
 20
24.96100044250488
 30
0.0
 70
   192
  0
VERTEX
  5
620
  8
0
 10
-18.0319995880127
 20
-17.29500007629395
 30
0.0
 70
   192
  0
VERTEX
  5
621
  8
0
 10
-10.92000007629395
 20
22.3390007019043
 30
0.0
 70
   192
  0
VERTEX
  5
622
  8
0
 10
-9.208000183105469
 20
23.23900032043457
 30
0.0
 70
   192
  0
VERTEX
  5
623
  8
0
 10
-3.918999910354614
 20
24.68600082397461
 30
0.0
 70
   192
  0
VERTEX
  5
624
  8
0
 10
-12.72200012207031
 20
21.39200019836426
 30
0.0
 70
   192
  0
VERTEX
  5
625
  8
0
 10
-20.05699920654297
 20
14.91600036621094
 30
0.0
 70
   192
  0
VERTEX
  5
626
  8
0
 10
-18.11800003051758
 20
17.22200012207031
 30
0.0
 70
   192
  0
VERTEX
  5
627
  8
0
 10
-20.76899909973145
 20
13.71000003814697
 30
0.0
 70
   192
  0
VERTEX
  5
628
  8
0
 10
-24.56500053405762
 20
3.914999961853027
 30
0.0
 70
   192
  0
VERTEX
  5
629
  8
0
 10
-24.39299964904785
 20
5.464000225067139
 30
0.0
 70
   192
  0
VERTEX
  5
62A
  8
0
 10
-22.73399925231934
 20
10.38599967956543
 30
0.0
 70
   192
  0
VERTEX
  5
62B
  8
0
 10
-24.82900047302246
 20
-2.914000034332275
 30
0.0
 70
   192
  0
VERTEX
  5
62C
  8
0
 10
-25.0
 20
0.0
 30
0.0
 70
   192
  0
VERTEX
  5
62D
  8
0
 10
-23.76199913024902
 20
-7.636000156402588
 30
0.0
 70
   192
  0
VERTEX
  5
62E
  8
0
 10
-18.11800003051758
 20
-17.22200012207031
 30
0.0
 70
   192
  0
VERTEX
  5
62F
  8
0
 10
-21.48399925231934
 20
-12.77299976348877
 30
0.0
 70
   192
  0
VERTEX
  5
630
  8
0
 10
-23.67799949645996
 20
-8.010000228881836
 30
0.0
 70
   192
  0
VERTEX
  5
631
  8
0
 10
-13.92700004577637
 20
20.75900077819824
 30
0.0
 70
   192
  0
VERTEX
  5
632
  8
0
 10
-8.512999534606934
 20
-23.42000007629395
 30
0.0
 70
   192
  0
VERTEX
  5
633
  8
0
 10
-9.293999671936035
 20
-23.20400047302246
 30
0.0
 70
   192
  0
VERTEX
  5
634
  8
0
 10
-14.33199977874756
 20
-20.48100090026855
 30
0.0
 70
   192
  0
VERTEX
  5
635
  8
0
 10
-3.918999910354614
 20
-24.68600082397461
 30
0.0
 70
   192
  0
VERTEX
  5
636
  8
0
 62
     9
 10
0.0
 20
0.0
 30
0.0
 70
   128
 71
     3
 72
     2
 73
     1
  0
VERTEX
  5
637
  8
0
 62
     9
 10
0.0
 20
0.0
 30
0.0
 70
   128
 71
     2
 72
     4
 73
     1
  0
VERTEX
  5
638
  8
0
 62
     9
 10
0.0
 20
0.0
 30
0.0
 70
   128
 71
     1
 72
     6
 73
     5
  0
VERTEX
  5
639
  8
0
 62
     9
 10
0.0
 20
0.0
 30
0.0
 70
   128
 71
     7
 72
     6
 73
     1
  0
VERTEX
  5
63A
  8
0
 62
     9
 10
0.0
 20
0.0
 30
0.0
 70
   128
 71
     9
 72
     8
 73
     1
  0
VERTEX
  5
63B
  8
0
 62
     9
 10
0.0
 20
0.0
 30
0.0
 70
   128
 71
     1
 72
     4
 73
     9
  0
VERTEX
  5
63C
  8
0
 62
     9
 10
0.0
 20
0.0
 30
0.0
 70
   128
 71
     1
 72
     8
 73
     7
  0
VERTEX
  5
63D
  8
0
 62
     9
 10
0.0
 20
0.0
 30
0.0
 70
   128
 71
    11
 72
    10
 73
     5
  0
VERTEX
  5
63E
  8
0
 62
     9
 10
0.0
 20
0.0
 30
0.0
 70
   128
 71
     5
 72
    12
 73
    11
  0
VERTEX
  5
63F
  8
0
 62
     9
 10
0.0
 20
0.0
 30
0.0
 70
   128
 71
    10
 72
    13
 73
     5
  0
VERTEX
  5
640
  8
0
 62
     9
 10
0.0
 20
0.0
 30
0.0
 70
   128
 71
     5
 72
     6
 73
    12
  0
VERTEX
  5
641
  8
0
 62
     9
 10
0.0
 20
0.0
 30
0.0
 70
   128
 71
    14
 72
     5
 73
    13
  0
VERTEX
  5
642
  8
0
 62
     9
 10
0.0
 20
0.0
 30
0.0
 70
   128
 71
    13
 72
    15
 73
    14
  0
VERTEX
  5
643
  8
0
 62
     9
 10
0.0
 20
0.0
 30
0.0
 70
   128
 71
    18
 72
    17
 73
    16
  0
VERTEX
  5
644
  8
0
 62
     9
 10
0.0
 20
0.0
 30
0.0
 70
   128
 71
    16
 72
    19
 73
    18
  0
VERTEX
  5
645
  8
0
 62
     9
 10
0.0
 20
0.0
 30
0.0
 70
   128
 71
    17
 72
    20
 73
    16
  0
VERTEX
  5
646
  8
0
 62
     9
 10
0.0
 20
0.0
 30
0.0
 70
   128
 71
    22
 72
    21
 73
    20
  0
VERTEX
  5
647
  8
0
 62
     9
 10
0.0
 20
0.0
 30
0.0
 70
   128
 71
    21
 72
    23
 73
    20
  0
VERTEX
  5
648
  8
0
 62
     9
 10
0.0
 20
0.0
 30
0.0
 70
   128
 71
    25
 72
    24
 73
    20
  0
VERTEX
  5
649
  8
0
 62
     9
 10
0.0
 20
0.0
 30
0.0
 70
   128
 71
    20
 72
    26
 73
    25
  0
VERTEX
  5
64A
  8
0
 62
     9
 10
0.0
 20
0.0
 30
0.0
 70
   128
 71
    20
 72
    23
 73
    26
  0
VERTEX
  5
64B
  8
0
 62
     9
 10
0.0
 20
0.0
 30
0.0
 70
   128
 71
    28
 72
    27
 73
    20
  0
VERTEX
  5
64C
  8
0
 62
     9
 10
0.0
 20
0.0
 30
0.0
 70
   128
 71
    27
 72
    29
 73
    20
  0
VERTEX
  5
64D
  8
0
 62
     9
 10
0.0
 20
0.0
 30
0.0
 70
   128
 71
    31
 72
    30
 73
    20
  0
VERTEX
  5
64E
  8
0
 62
     9
 10
0.0
 20
0.0
 30
0.0
 70
   128
 71
    30
 72
    16
 73
    20
  0
VERTEX
  5
64F
  8
0
 62
     9
 10
0.0
 20
0.0
 30
0.0
 70
   128
 71
    20
 72
    32
 73
    31
  0
VERTEX
  5
650
  8
0
 62
     9
 10
0.0
 20
0.0
 30
0.0
 70
   128
 71
    20
 72
    29
 73
    32
  0
VERTEX
  5
651
  8
0
 62
     9
 10
0.0
 20
0.0
 30
0.0
 70
   128
 71
    20
 72
    24
 73
    28
  0
VERTEX
  5
652
  8
0
 62
     9
 10
0.0
 20
0.0
 30
0.0
 70
   128
 71
    20
 72
    33
 73
    22
  0
VERTEX
  5
653
  8
0
 62
     9
 10
0.0
 20
0.0
 30
0.0
 70
   128
 71
    35
 72
    34
 73
    15
  0
VERTEX
  5
654
  8
0
 62
     9
 10
0.0
 20
0.0
 30
0.0
 70
   128
 71
    15
 72
    36
 73
    35
  0
VERTEX
  5
655
  8
0
 62
     9
 10
0.0
 20
0.0
 30
0.0
 70
   128
 71
    15
 72
    16
 73
    36
  0
VERTEX
  5
656
  8
0
 62
     9
 10
0.0
 20
0.0
 30
0.0
 70
   128
 71
    37
 72
    14
 73
    15
  0
VERTEX
  5
657
  8
0
 62
     9
 10
0.0
 20
0.0
 30
0.0
 70
   128
 71
    15
 72
    34
 73
    37
  0
VERTEX
  5
658
  8
0
 62
     9
 10
0.0
 20
0.0
 30
0.0
 70
   128
 71
    16
 72
    15
 73
    19
  0
VERTEX
  5
659
  8
0
 62
     9
 10
0.0
 20
0.0
 30
0.0
 70
   128
 71
     1
 72
     5
 73
     3
  0
SEQEND
  5
65A
  8
0
 62
     9
  0
ENDBLK
  5
65D
  8
0
  0
BLOCK
  8
0
  2
E3_NODE_25_
 70
     0
 10
0.0
 20
0.0
 30
0.0
  3
E3_NODE_25_
  1

  0
POLYLINE
  5
65F
  8
0
 62
     9
 66
     1
 10
0.0
 20
0.0
 30
0.0
 70
    64
 71
    39
 72
    37
  0
VERTEX
  5
660
  8
0
 10
-10.98200035095215
 20
22.45499992370605
 30
100.0
 70
   192
  0
VERTEX
  5
661
  8
0
 10
-0.0020000000949949
 20
24.96100044250488
 30
0.0
 70
   192
  0
VERTEX
  5
662
  8
0
 10
-3.918999910354614
 20
24.68600082397461
 30
0.0
 70
   192
  0
VERTEX
  5
663
  8
0
 10
-9.208000183105469
 20
23.23900032043457
 30
0.0
 70
   192
  0
VERTEX
  5
664
  8
0
 10
0.4490000009536743
 20
24.99200057983398
 30
90.00499725341797
 70
   192
  0
VERTEX
  5
665
  8
0
 10
0.4490000009536743
 20
24.99200057983398
 30
100.0
 70
   192
  0
VERTEX
  5
666
  8
0
 10
0.4490000009536743
 20
24.99200057983398
 30
0.0
 70
   192
  0
VERTEX
  5
667
  8
0
 10
-10.92000007629395
 20
22.3390007019043
 30
0.0
 70
   192
  0
VERTEX
  5
668
  8
0
 10
-12.77299976348877
 20
21.48800086975098
 30
100.0
 70
   192
  0
VERTEX
  5
669
  8
0
 10
-20.86199951171875
 20
13.76500034332275
 30
100.0
 70
   192
  0
VERTEX
  5
66A
  8
0
 10
-18.11800003051758
 20
17.22200012207031
 30
0.0
 70
   192
  0
VERTEX
  5
66B
  8
0
 10
-20.05699920654297
 20
14.91600036621094
 30
0.0
 70
   192
  0
VERTEX
  5
66C
  8
0
 10
-13.92700004577637
 20
20.75900077819824
 30
0.0
 70
   192
  0
VERTEX
  5
66D
  8
0
 10
-12.72200012207031
 20
21.39200019836426
 30
0.0
 70
   192
  0
VERTEX
  5
66E
  8
0
 10
-24.6879997253418
 20
3.927999973297119
 30
100.0
 70
   192
  0
VERTEX
  5
66F
  8
0
 10
-22.73399925231934
 20
10.38599967956543
 30
0.0
 70
   192
  0
VERTEX
  5
670
  8
0
 10
-24.39299964904785
 20
5.464000225067139
 30
0.0
 70
   192
  0
VERTEX
  5
671
  8
0
 10
-20.76899909973145
 20
13.71000003814697
 30
0.0
 70
   192
  0
VERTEX
  5
672
  8
0
 10
-23.79800033569336
 20
-7.644000053405762
 30
100.0
 70
   192
  0
VERTEX
  5
673
  8
0
 10
-24.38699913024902
 20
0.0060000000521541
 30
100.0
 70
   192
  0
VERTEX
  5
674
  8
0
 10
-24.82900047302246
 20
-2.914000034332275
 30
0.0
 70
   192
  0
VERTEX
  5
675
  8
0
 10
-25.0
 20
0.0
 30
0.0
 70
   192
  0
VERTEX
  5
676
  8
0
 10
-24.56500053405762
 20
3.914999961853027
 30
0.0
 70
   192
  0
VERTEX
  5
677
  8
0
 10
-18.03899955749512
 20
-17.30400085449219
 30
100.0
 70
   192
  0
VERTEX
  5
678
  8
0
 10
-21.48399925231934
 20
-12.77299976348877
 30
0.0
 70
   192
  0
VERTEX
  5
679
  8
0
 10
-18.11800003051758
 20
-17.22200012207031
 30
0.0
 70
   192
  0
VERTEX
  5
67A
  8
0
 10
-23.76199913024902
 20
-7.636000156402588
 30
0.0
 70
   192
  0
VERTEX
  5
67B
  8
0
 10
-23.67799949645996
 20
-8.010000228881836
 30
0.0
 70
   192
  0
VERTEX
  5
67C
  8
0
 10
-8.532999992370605
 20
-23.49399948120117
 30
100.0
 70
   192
  0
VERTEX
  5
67D
  8
0
 10
-14.33199977874756
 20
-20.48100090026855
 30
0.0
 70
   192
  0
VERTEX
  5
67E
  8
0
 10
-9.293999671936035
 20
-23.20400047302246
 30
0.0
 70
   192
  0
VERTEX
  5
67F
  8
0
 10
-18.0319995880127
 20
-17.29500007629395
 30
0.0
 70
   192
  0
VERTEX
  5
680
  8
0
 10
0.4180000126361847
 20
-24.99200057983398
 30
90.00499725341797
 70
   192
  0
VERTEX
  5
681
  8
0
 10
0.4180000126361847
 20
-24.99200057983398
 30
100.0
 70
   192
  0
VERTEX
  5
682
  8
0
 10
0.0
 20
-24.9950008392334
 30
100.0
 70
   192
  0
VERTEX
  5
683
  8
0
 10
-3.918999910354614
 20
-24.68600082397461
 30
0.0
 70
   192
  0
VERTEX
  5
684
  8
0
 10
-0.0020000000949949
 20
-24.96199989318848
 30
0.0
 70
   192
  0
VERTEX
  5
685
  8
0
 10
-8.512999534606934
 20
-23.42000007629395
 30
0.0
 70
   192
  0
VERTEX
  5
686
  8
0
 10
0.4180000126361847
 20
-24.99200057983398
 30
0.0
 70
   192
  0
VERTEX
  5
687
  8
0
 62
     9
 10
0.0
 20
0.0
 30
0.0
 70
   128
 71
     3
 72
     2
 73
     1
  0
VERTEX
  5
688
  8
0
 62
     9
 10
0.0
 20
0.0
 30
0.0
 70
   128
 71
     1
 72
     4
 73
     3
  0
VERTEX
  5
689
  8
0
 62
     9
 10
0.0
 20
0.0
 30
0.0
 70
   128
 71
     5
 72
     1
 73
     2
  0
VERTEX
  5
68A
  8
0
 62
     9
 10
0.0
 20
0.0
 30
0.0
 70
   128
 71
     5
 72
     6
 73
     1
  0
VERTEX
  5
68B
  8
0
 62
     9
 10
0.0
 20
0.0
 30
0.0
 70
   128
 71
     2
 72
     7
 73
     5
  0
VERTEX
  5
68C
  8
0
 62
     9
 10
0.0
 20
0.0
 30
0.0
 70
   128
 71
     1
 72
     8
 73
     4
  0
VERTEX
  5
68D
  8
0
 62
     9
 10
0.0
 20
0.0
 30
0.0
 70
   128
 71
     8
 72
     1
 73
     9
  0
VERTEX
  5
68E
  8
0
 62
     9
 10
0.0
 20
0.0
 30
0.0
 70
   128
 71
    12
 72
    11
 73
    10
  0
VERTEX
  5
68F
  8
0
 62
     9
 10
0.0
 20
0.0
 30
0.0
 70
   128
 71
    11
 72
    13
 73
     9
  0
VERTEX
  5
690
  8
0
 62
     9
 10
0.0
 20
0.0
 30
0.0
 70
   128
 71
    13
 72
    14
 73
     9
  0
VERTEX
  5
691
  8
0
 62
     9
 10
0.0
 20
0.0
 30
0.0
 70
   128
 71
     9
 72
    10
 73
    11
  0
VERTEX
  5
692
  8
0
 62
     9
 10
0.0
 20
0.0
 30
0.0
 70
   128
 71
    16
 72
    10
 73
    15
  0
VERTEX
  5
693
  8
0
 62
     9
 10
0.0
 20
0.0
 30
0.0
 70
   128
 71
    15
 72
    17
 73
    16
  0
VERTEX
  5
694
  8
0
 62
     9
 10
0.0
 20
0.0
 30
0.0
 70
   128
 71
    16
 72
    18
 73
    10
  0
VERTEX
  5
695
  8
0
 62
     9
 10
0.0
 20
0.0
 30
0.0
 70
   128
 71
    21
 72
    20
 73
    19
  0
VERTEX
  5
696
  8
0
 62
     9
 10
0.0
 20
0.0
 30
0.0
 70
   128
 71
    21
 72
    22
 73
    20
  0
VERTEX
  5
697
  8
0
 62
     9
 10
0.0
 20
0.0
 30
0.0
 70
   128
 71
    20
 72
    22
 73
    23
  0
VERTEX
  5
698
  8
0
 62
     9
 10
0.0
 20
0.0
 30
0.0
 70
   128
 71
    23
 72
    15
 73
    20
  0
VERTEX
  5
699
  8
0
 62
     9
 10
0.0
 20
0.0
 30
0.0
 70
   128
 71
    25
 72
    19
 73
    24
  0
VERTEX
  5
69A
  8
0
 62
     9
 10
0.0
 20
0.0
 30
0.0
 70
   128
 71
    24
 72
    26
 73
    25
  0
VERTEX
  5
69B
  8
0
 62
     9
 10
0.0
 20
0.0
 30
0.0
 70
   128
 71
    28
 72
    27
 73
    19
  0
VERTEX
  5
69C
  8
0
 62
     9
 10
0.0
 20
0.0
 30
0.0
 70
   128
 71
    19
 72
    25
 73
    28
  0
VERTEX
  5
69D
  8
0
 62
     9
 10
0.0
 20
0.0
 30
0.0
 70
   128
 71
    30
 72
    24
 73
    29
  0
VERTEX
  5
69E
  8
0
 62
     9
 10
0.0
 20
0.0
 30
0.0
 70
   128
 71
    29
 72
    31
 73
    30
  0
VERTEX
  5
69F
  8
0
 62
     9
 10
0.0
 20
0.0
 30
0.0
 70
   128
 71
    30
 72
    32
 73
    24
  0
VERTEX
  5
6A0
  8
0
 62
     9
 10
0.0
 20
0.0
 30
0.0
 70
   128
 71
    35
 72
    34
 73
    33
  0
VERTEX
  5
6A1
  8
0
 62
     9
 10
0.0
 20
0.0
 30
0.0
 70
   128
 71
    33
 72
    37
 73
    36
  0
VERTEX
  5
6A2
  8
0
 62
     9
 10
0.0
 20
0.0
 30
0.0
 70
   128
 71
    36
 72
    38
 73
    29
  0
VERTEX
  5
6A3
  8
0
 62
     9
 10
0.0
 20
0.0
 30
0.0
 70
   128
 71
    36
 72
    29
 73
    33
  0
VERTEX
  5
6A4
  8
0
 62
     9
 10
0.0
 20
0.0
 30
0.0
 70
   128
 71
    33
 72
    39
 73
    37
  0
VERTEX
  5
6A5
  8
0
 62
     9
 10
0.0
 20
0.0
 30
0.0
 70
   128
 71
    33
 72
    29
 73
    35
  0
VERTEX
  5
6A6
  8
0
 62
     9
 10
0.0
 20
0.0
 30
0.0
 70
   128
 71
    29
 72
    38
 73
    31
  0
VERTEX
  5
6A7
  8
0
 62
     9
 10
0.0
 20
0.0
 30
0.0
 70
   128
 71
    24
 72
    32
 73
    26
  0
VERTEX
  5
6A8
  8
0
 62
     9
 10
0.0
 20
0.0
 30
0.0
 70
   128
 71
    19
 72
    27
 73
    21
  0
VERTEX
  5
6A9
  8
0
 62
     9
 10
0.0
 20
0.0
 30
0.0
 70
   128
 71
    15
 72
    23
 73
    17
  0
VERTEX
  5
6AA
  8
0
 62
     9
 10
0.0
 20
0.0
 30
0.0
 70
   128
 71
    10
 72
    18
 73
    12
  0
VERTEX
  5
6AB
  8
0
 62
     9
 10
0.0
 20
0.0
 30
0.0
 70
   128
 71
     9
 72
    14
 73
     8
  0
SEQEND
  5
6AC
  8
0
 62
     9
  0
ENDBLK
  5
6AF
  8
0
  0
BLOCK
  8
0
  2
E3_NODE_26_
 70
     0
 10
0.0
 20
0.0
 30
0.0
  3
E3_NODE_26_
  1

  0
POLYLINE
  5
6B1
  8
0
 62
     9
 66
     1
 10
0.0
 20
0.0
 30
0.0
 70
    64
 71
    11
 72
     9
  0
VERTEX
  5
6B2
  8
0
 10
0.4180000126361847
 20
-24.99200057983398
 30
100.0
 70
   192
  0
VERTEX
  5
6B3
  8
0
 10
0.4180000126361847
 20
-24.99200057983398
 30
90.00499725341797
 70
   192
  0
VERTEX
  5
6B4
  8
0
 10
2.848999977111816
 20
-24.70400047302246
 30
90.00499725341797
 70
   192
  0
VERTEX
  5
6B5
  8
0
 10
5.302000045776367
 20
-24.55500030517578
 30
100.0
 70
   192
  0
VERTEX
  5
6B6
  8
0
 10
2.875999927520752
 20
-24.92399978637695
 30
100.0
 70
   192
  0
VERTEX
  5
6B7
  8
0
 10
5.284999847412109
 20
-24.41500091552734
 30
90.00499725341797
 70
   192
  0
VERTEX
  5
6B8
  8
0
 10
6.494999885559082
 20
-24.27099990844727
 30
90.00499725341797
 70
   192
  0
VERTEX
  5
6B9
  8
0
 10
7.467999935150146
 20
-23.99099922180176
 30
100.0
 70
   192
  0
VERTEX
  5
6BA
  8
0
 10
8.616000175476074
 20
-23.60300064086914
 30
100.0
 70
   192
  0
VERTEX
  5
6BB
  8
0
 10
7.460000038146973
 20
-23.96699905395508
 30
90.00499725341797
 70
   192
  0
VERTEX
  5
6BC
  8
0
 10
8.616000175476074
 20
-23.60300064086914
 30
90.00499725341797
 70
   192
  0
VERTEX
  5
6BD
  8
0
 62
     9
 10
0.0
 20
0.0
 30
0.0
 70
   128
 71
     3
 72
     2
 73
     1
  0
VERTEX
  5
6BE
  8
0
 62
     9
 10
0.0
 20
0.0
 30
0.0
 70
   128
 71
     3
 72
     5
 73
     4
  0
VERTEX
  5
6BF
  8
0
 62
     9
 10
0.0
 20
0.0
 30
0.0
 70
   128
 71
     7
 72
     6
 73
     4
  0
VERTEX
  5
6C0
  8
0
 62
     9
 10
0.0
 20
0.0
 30
0.0
 70
   128
 71
     4
 72
     8
 73
     7
  0
VERTEX
  5
6C1
  8
0
 62
     9
 10
0.0
 20
0.0
 30
0.0
 70
   128
 71
    10
 72
     8
 73
     9
  0
VERTEX
  5
6C2
  8
0
 62
     9
 10
0.0
 20
0.0
 30
0.0
 70
   128
 71
     9
 72
    11
 73
    10
  0
VERTEX
  5
6C3
  8
0
 62
     9
 10
0.0
 20
0.0
 30
0.0
 70
   128
 71
     8
 72
    10
 73
     7
  0
VERTEX
  5
6C4
  8
0
 62
     9
 10
0.0
 20
0.0
 30
0.0
 70
   128
 71
     4
 72
     6
 73
     3
  0
VERTEX
  5
6C5
  8
0
 62
     9
 10
0.0
 20
0.0
 30
0.0
 70
   128
 71
     1
 72
     5
 73
     3
  0
SEQEND
  5
6C6
  8
0
 62
     9
  0
ENDBLK
  5
6C9
  8
0
  0
BLOCK
  8
0
  2
E3_NODE_27_
 70
     0
 10
0.0
 20
0.0
 30
0.0
  3
E3_NODE_27_
  1

  0
POLYLINE
  5
6CB
  8
0
 62
     9
 66
     1
 10
0.0
 20
0.0
 30
0.0
 70
    64
 71
     7
 72
     5
  0
VERTEX
  5
6CC
  8
0
 10
8.616000175476074
 20
23.60300064086914
 30
100.0
 70
   192
  0
VERTEX
  5
6CD
  8
0
 10
8.616000175476074
 20
23.60300064086914
 30
90.00499725341797
 70
   192
  0
VERTEX
  5
6CE
  8
0
 10
2.878999948501587
 20
24.72400093078613
 30
90.00499725341797
 70
   192
  0
VERTEX
  5
6CF
  8
0
 10
2.917999982833862
 20
24.92000007629395
 30
100.0
 70
   192
  0
VERTEX
  5
6D0
  8
0
 10
1.485999941825867
 20
24.99600028991699
 30
90.00499725341797
 70
   192
  0
VERTEX
  5
6D1
  8
0
 10
0.4490000009536743
 20
24.99200057983398
 30
100.0
 70
   192
  0
VERTEX
  5
6D2
  8
0
 10
0.4490000009536743
 20
24.99200057983398
 30
90.00499725341797
 70
   192
  0
VERTEX
  5
6D3
  8
0
 62
     9
 10
0.0
 20
0.0
 30
0.0
 70
   128
 71
     3
 72
     2
 73
     1
  0
VERTEX
  5
6D4
  8
0
 62
     9
 10
0.0
 20
0.0
 30
0.0
 70
   128
 71
     5
 72
     3
 73
     4
  0
VERTEX
  5
6D5
  8
0
 62
     9
 10
0.0
 20
0.0
 30
0.0
 70
   128
 71
     4
 72
     6
 73
     5
  0
VERTEX
  5
6D6
  8
0
 62
     9
 10
0.0
 20
0.0
 30
0.0
 70
   128
 71
     6
 72
     7
 73
     5
  0
VERTEX
  5
6D7
  8
0
 62
     9
 10
0.0
 20
0.0
 30
0.0
 70
   128
 71
     1
 72
     4
 73
     3
  0
SEQEND
  5
6D8
  8
0
 62
     9
  0
ENDBLK
  5
6DB
  8
0
  0
BLOCK
  8
0
  2
E3_NODE_28_
 70
     0
 10
0.0
 20
0.0
 30
0.0
  3
E3_NODE_28_
  1

  0
POLYLINE
  5
6DD
  8
0
 62
     9
 66
     1
 10
0.0
 20
0.0
 30
0.0
 70
    64
 71
    35
 72
    37
  0
VERTEX
  5
6DE
  8
0
 10
93.53600311279297
 20
-9.541999816894531
 30
100.0
 70
   192
  0
VERTEX
  5
6DF
  8
0
 10
84.28700256347656
 20
-19.09099960327148
 30
100.0
 70
   192
  0
VERTEX
  5
6E0
  8
0
 10
91.44599914550781
 20
-17.83399963378906
 30
100.0
 70
   192
  0
VERTEX
  5
6E1
  8
0
 10
99.19300079345703
 20
-12.02600002288818
 30
100.0
 70
   192
  0
VERTEX
  5
6E2
  8
0
 10
103.1080017089844
 20
-3.224999904632568
 30
100.0
 70
   192
  0
VERTEX
  5
6E3
  8
0
 10
102.7839965820312
 20
0.0060000000521541
 30
100.0
 70
   192
  0
VERTEX
  5
6E4
  8
0
 10
-24.38699913024902
 20
0.0060000000521541
 30
100.0
 70
   192
  0
VERTEX
  5
6E5
  8
0
 10
20.11899948120117
 20
-19.95999908447266
 30
100.0
 70
   192
  0
VERTEX
  5
6E6
  8
0
 10
16.57699966430664
 20
-20.5310001373291
 30
100.0
 70
   192
  0
VERTEX
  5
6E7
  8
0
 10
0.4180000126361847
 20
-24.99200057983398
 30
100.0
 70
   192
  0
VERTEX
  5
6E8
  8
0
 10
2.875999927520752
 20
-24.92399978637695
 30
100.0
 70
   192
  0
VERTEX
  5
6E9
  8
0
 10
5.302000045776367
 20
-24.55500030517578
 30
100.0
 70
   192
  0
VERTEX
  5
6EA
  8
0
 10
7.467999935150146
 20
-23.99099922180176
 30
100.0
 70
   192
  0
VERTEX
  5
6EB
  8
0
 10
8.616000175476074
 20
-23.60300064086914
 30
100.0
 70
   192
  0
VERTEX
  5
6EC
  8
0
 10
-12.19299983978271
 20
-12.49400043487549
 30
100.0
 70
   192
  0
VERTEX
  5
6ED
  8
0
 10
-23.79800033569336
 20
-7.644000053405762
 30
100.0
 70
   192
  0
VERTEX
  5
6EE
  8
0
 10
-18.03899955749512
 20
-17.30400085449219
 30
100.0
 70
   192
  0
VERTEX
  5
6EF
  8
0
 10
-8.532999992370605
 20
-23.49399948120117
 30
100.0
 70
   192
  0
VERTEX
  5
6F0
  8
0
 10
0.0
 20
-24.9950008392334
 30
100.0
 70
   192
  0
VERTEX
  5
6F1
  8
0
 10
-11.9689998626709
 20
12.49899959564209
 30
100.0
 70
   192
  0
VERTEX
  5
6F2
  8
0
 10
0.4490000009536743
 20
24.99200057983398
 30
100.0
 70
   192
  0
VERTEX
  5
6F3
  8
0
 10
-10.98200035095215
 20
22.45499992370605
 30
100.0
 70
   192
  0
VERTEX
  5
6F4
  8
0
 10
-12.77299976348877
 20
21.48800086975098
 30
100.0
 70
   192
  0
VERTEX
  5
6F5
  8
0
 10
-20.86199951171875
 20
13.76500034332275
 30
100.0
 70
   192
  0
VERTEX
  5
6F6
  8
0
 10
-24.6879997253418
 20
3.927999973297119
 30
100.0
 70
   192
  0
VERTEX
  5
6F7
  8
0
 10
2.917999982833862
 20
24.92000007629395
 30
100.0
 70
   192
  0
VERTEX
  5
6F8
  8
0
 10
8.616000175476074
 20
23.60300064086914
 30
100.0
 70
   192
  0
VERTEX
  5
6F9
  8
0
 10
16.93000030517578
 20
20.45499992370605
 30
100.0
 70
   192
  0
VERTEX
  5
6FA
  8
0
 10
93.53600311279297
 20
9.548999786376953
 30
100.0
 70
   192
  0
VERTEX
  5
6FB
  8
0
 10
84.28700256347656
 20
19.09099960327148
 30
100.0
 70
   192
  0
VERTEX
  5
6FC
  8
0
 10
31.63699913024902
 20
19.32999992370605
 30
100.0
 70
   192
  0
VERTEX
  5
6FD
  8
0
 10
102.0869979858398
 20
6.961999893188477
 30
100.0
 70
   192
  0
VERTEX
  5
6FE
  8
0
 10
94.95800018310547
 20
15.95699977874756
 30
100.0
 70
   192
  0
VERTEX
  5
6FF
  8
0
 10
87.0270004272461
 20
18.96500015258789
 30
100.0
 70
   192
  0
VERTEX
  5
700
  8
0
 10
96.35199737548828
 20
14.91399955749512
 30
100.0
 70
   192
  0
VERTEX
  5
701
  8
0
 62
     9
 10
0.0
 20
0.0
 30
0.0
 70
   128
 71
     3
 72
     2
 73
     1
  0
VERTEX
  5
702
  8
0
 62
     9
 10
0.0
 20
0.0
 30
0.0
 70
   128
 71
     5
 72
     4
 73
     1
  0
VERTEX
  5
703
  8
0
 62
     9
 10
0.0
 20
0.0
 30
0.0
 70
   128
 71
     1
 72
     6
 73
     5
  0
VERTEX
  5
704
  8
0
 62
     9
 10
0.0
 20
0.0
 30
0.0
 70
   128
 71
     8
 72
     7
 73
     1
  0
VERTEX
  5
705
  8
0
 62
     9
 10
0.0
 20
0.0
 30
0.0
 70
   128
 71
     1
 72
     2
 73
     8
  0
VERTEX
  5
706
  8
0
 62
     9
 10
0.0
 20
0.0
 30
0.0
 70
   128
 71
     7
 72
     6
 73
     1
  0
VERTEX
  5
707
  8
0
 62
     9
 10
0.0
 20
0.0
 30
0.0
 70
   128
 71
     8
 72
     9
 73
     7
  0
VERTEX
  5
708
  8
0
 62
     9
 10
0.0
 20
0.0
 30
0.0
 70
   128
 71
    11
 72
    10
 73
     7
  0
VERTEX
  5
709
  8
0
 62
     9
 10
0.0
 20
0.0
 30
0.0
 70
   128
 71
     7
 72
    12
 73
    11
  0
VERTEX
  5
70A
  8
0
 62
     9
 10
0.0
 20
0.0
 30
0.0
 70
   128
 71
     7
 72
    13
 73
    12
  0
VERTEX
  5
70B
  8
0
 62
     9
 10
0.0
 20
0.0
 30
0.0
 70
   128
 71
     7
 72
    14
 73
    13
  0
VERTEX
  5
70C
  8
0
 62
     9
 10
0.0
 20
0.0
 30
0.0
 70
   128
 71
    15
 72
     7
 73
    10
  0
VERTEX
  5
70D
  8
0
 62
     9
 10
0.0
 20
0.0
 30
0.0
 70
   128
 71
    16
 72
     7
 73
    15
  0
VERTEX
  5
70E
  8
0
 62
     9
 10
0.0
 20
0.0
 30
0.0
 70
   128
 71
    18
 72
    17
 73
    15
  0
VERTEX
  5
70F
  8
0
 62
     9
 10
0.0
 20
0.0
 30
0.0
 70
   128
 71
    15
 72
    19
 73
    18
  0
VERTEX
  5
710
  8
0
 62
     9
 10
0.0
 20
0.0
 30
0.0
 70
   128
 71
    15
 72
    17
 73
    16
  0
VERTEX
  5
711
  8
0
 62
     9
 10
0.0
 20
0.0
 30
0.0
 70
   128
 71
    10
 72
    19
 73
    15
  0
VERTEX
  5
712
  8
0
 62
     9
 10
0.0
 20
0.0
 30
0.0
 70
   128
 71
     7
 72
     9
 73
    14
  0
VERTEX
  5
713
  8
0
 62
     9
 10
0.0
 20
0.0
 30
0.0
 70
   128
 71
    22
 72
    21
 73
    20
  0
VERTEX
  5
714
  8
0
 62
     9
 10
0.0
 20
0.0
 30
0.0
 70
   128
 71
    20
 72
    23
 73
    22
  0
VERTEX
  5
715
  8
0
 62
     9
 10
0.0
 20
0.0
 30
0.0
 70
   128
 71
    25
 72
    24
 73
    20
  0
VERTEX
  5
716
  8
0
 62
     9
 10
0.0
 20
0.0
 30
0.0
 70
   128
 71
    20
 72
     7
 73
    25
  0
VERTEX
  5
717
  8
0
 62
     9
 10
0.0
 20
0.0
 30
0.0
 70
   128
 71
    20
 72
    21
 73
    26
  0
VERTEX
  5
718
  8
0
 62
     9
 10
0.0
 20
0.0
 30
0.0
 70
   128
 71
    26
 72
     7
 73
    20
  0
VERTEX
  5
719
  8
0
 62
     9
 10
0.0
 20
0.0
 30
0.0
 70
   128
 71
    26
 72
    27
 73
     7
  0
VERTEX
  5
71A
  8
0
 62
     9
 10
0.0
 20
0.0
 30
0.0
 70
   128
 71
    27
 72
    28
 73
     7
  0
VERTEX
  5
71B
  8
0
 62
     9
 10
0.0
 20
0.0
 30
0.0
 70
   128
 71
    31
 72
    30
 73
    29
  0
VERTEX
  5
71C
  8
0
 62
     9
 10
0.0
 20
0.0
 30
0.0
 70
   128
 71
    29
 72
     6
 73
     7
  0
VERTEX
  5
71D
  8
0
 62
     9
 10
0.0
 20
0.0
 30
0.0
 70
   128
 71
    32
 72
     6
 73
    29
  0
VERTEX
  5
71E
  8
0
 62
     9
 10
0.0
 20
0.0
 30
0.0
 70
   128
 71
    34
 72
    33
 73
    29
  0
VERTEX
  5
71F
  8
0
 62
     9
 10
0.0
 20
0.0
 30
0.0
 70
   128
 71
    33
 72
    35
 73
    29
  0
VERTEX
  5
720
  8
0
 62
     9
 10
0.0
 20
0.0
 30
0.0
 70
   128
 71
    29
 72
    30
 73
    34
  0
VERTEX
  5
721
  8
0
 62
     9
 10
0.0
 20
0.0
 30
0.0
 70
   128
 71
    29
 72
    35
 73
    32
  0
VERTEX
  5
722
  8
0
 62
     9
 10
0.0
 20
0.0
 30
0.0
 70
   128
 71
    29
 72
     7
 73
    31
  0
VERTEX
  5
723
  8
0
 62
     9
 10
0.0
 20
0.0
 30
0.0
 70
   128
 71
     7
 72
    28
 73
    31
  0
VERTEX
  5
724
  8
0
 62
     9
 10
0.0
 20
0.0
 30
0.0
 70
   128
 71
    20
 72
    24
 73
    23
  0
VERTEX
  5
725
  8
0
 62
     9
 10
0.0
 20
0.0
 30
0.0
 70
   128
 71
     1
 72
     4
 73
     3
  0
SEQEND
  5
726
  8
0
 62
     9
  0
ENDBLK
  5
729
  8
0
  0
BLOCK
  8
0
  2
E3_NODE_29_
 70
     0
 10
0.0
 20
0.0
 30
0.0
  3
E3_NODE_29_
  1

  0
POLYLINE
  5
72B
  8
0
 62
     9
 66
     1
 10
0.0
 20
0.0
 30
0.0
 70
    64
 71
    14
 72
    12
  0
VERTEX
  5
72C
  8
0
 10
84.28700256347656
 20
-19.09099960327148
 30
100.0
 70
   192
  0
VERTEX
  5
72D
  8
0
 10
20.11899948120117
 20
-19.95999908447266
 30
100.0
 70
   192
  0
VERTEX
  5
72E
  8
0
 10
50.16600036621094
 20
-19.55299949645996
 30
90.00499725341797
 70
   192
  0
VERTEX
  5
72F
  8
0
 10
31.64299964904785
 20
-19.80299949645996
 30
90.00499725341797
 70
   192
  0
VERTEX
  5
730
  8
0
 10
20.11899948120117
 20
-19.95999908447266
 30
90.00499725341797
 70
   192
  0
VERTEX
  5
731
  8
0
 10
21.98100090026855
 20
-19.93400001525879
 30
90.00499725341797
 70
   192
  0
VERTEX
  5
732
  8
0
 10
16.57699966430664
 20
-20.5310001373291
 30
100.0
 70
   192
  0
VERTEX
  5
733
  8
0
 10
16.9330005645752
 20
-20.47400093078613
 30
90.00499725341797
 70
   192
  0
VERTEX
  5
734
  8
0
 10
16.57699966430664
 20
-20.5310001373291
 30
90.00499725341797
 70
   192
  0
VERTEX
  5
735
  8
0
 10
8.616000175476074
 20
-23.60300064086914
 30
100.0
 70
   192
  0
VERTEX
  5
736
  8
0
 10
11.97999954223633
 20
-22.16799926757812
 30
90.00499725341797
 70
   192
  0
VERTEX
  5
737
  8
0
 10
11.79599952697754
 20
-22.23399925231934
 30
90.00499725341797
 70
   192
  0
VERTEX
  5
738
  8
0
 10
8.616000175476074
 20
-23.60300064086914
 30
90.00499725341797
 70
   192
  0
VERTEX
  5
739
  8
0
 10
84.28700256347656
 20
-19.09099960327148
 30
90.00499725341797
 70
   192
  0
VERTEX
  5
73A
  8
0
 62
     9
 10
0.0
 20
0.0
 30
0.0
 70
   128
 71
     3
 72
     2
 73
     1
  0
VERTEX
  5
73B
  8
0
 62
     9
 10
0.0
 20
0.0
 30
0.0
 70
   128
 71
     3
 72
     4
 73
     2
  0
VERTEX
  5
73C
  8
0
 62
     9
 10
0.0
 20
0.0
 30
0.0
 70
   128
 71
     6
 72
     5
 73
     2
  0
VERTEX
  5
73D
  8
0
 62
     9
 10
0.0
 20
0.0
 30
0.0
 70
   128
 71
     2
 72
     4
 73
     6
  0
VERTEX
  5
73E
  8
0
 62
     9
 10
0.0
 20
0.0
 30
0.0
 70
   128
 71
     8
 72
     7
 73
     2
  0
VERTEX
  5
73F
  8
0
 62
     9
 10
0.0
 20
0.0
 30
0.0
 70
   128
 71
     8
 72
     9
 73
     7
  0
VERTEX
  5
740
  8
0
 62
     9
 10
0.0
 20
0.0
 30
0.0
 70
   128
 71
    11
 72
    10
 73
     7
  0
VERTEX
  5
741
  8
0
 62
     9
 10
0.0
 20
0.0
 30
0.0
 70
   128
 71
    11
 72
    12
 73
    10
  0
VERTEX
  5
742
  8
0
 62
     9
 10
0.0
 20
0.0
 30
0.0
 70
   128
 71
    12
 72
    13
 73
    10
  0
VERTEX
  5
743
  8
0
 62
     9
 10
0.0
 20
0.0
 30
0.0
 70
   128
 71
     7
 72
     9
 73
    11
  0
VERTEX
  5
744
  8
0
 62
     9
 10
0.0
 20
0.0
 30
0.0
 70
   128
 71
     2
 72
     5
 73
     8
  0
VERTEX
  5
745
  8
0
 62
     9
 10
0.0
 20
0.0
 30
0.0
 70
   128
 71
     1
 72
    14
 73
     3
  0
SEQEND
  5
746
  8
0
 62
     9
  0
ENDBLK
  5
749
  8
0
  0
BLOCK
  8
0
  2
E3_NODE_30_
 70
     0
 10
0.0
 20
0.0
 30
0.0
  3
E3_NODE_30_
  1

  0
POLYLINE
  5
74B
  8
0
 62
     9
 66
     1
 10
0.0
 20
0.0
 30
0.0
 70
    64
 71
    53
 72
    51
  0
VERTEX
  5
74C
  8
0
 10
6.494999885559082
 20
-24.27099990844727
 30
0.0
 70
   192
  0
VERTEX
  5
74D
  8
0
 10
5.284999847412109
 20
-24.41500091552734
 30
90.00499725341797
 70
   192
  0
VERTEX
  5
74E
  8
0
 10
2.848999977111816
 20
-24.70400047302246
 30
90.00499725341797
 70
   192
  0
VERTEX
  5
74F
  8
0
 10
6.494999885559082
 20
-24.27099990844727
 30
90.00499725341797
 70
   192
  0
VERTEX
  5
750
  8
0
 10
0.4180000126361847
 20
-24.99200057983398
 30
0.0
 70
   192
  0
VERTEX
  5
751
  8
0
 10
1.485999941825867
 20
24.99600028991699
 30
90.00499725341797
 70
   192
  0
VERTEX
  5
752
  8
0
 10
1.485999941825867
 20
24.99600028991699
 30
0.0
 70
   192
  0
VERTEX
  5
753
  8
0
 10
0.4490000009536743
 20
24.99200057983398
 30
0.0
 70
   192
  0
VERTEX
  5
754
  8
0
 10
2.878999948501587
 20
24.72400093078613
 30
90.00499725341797
 70
   192
  0
VERTEX
  5
755
  8
0
 10
10.43599987030029
 20
22.69899940490723
 30
86.23100280761719
 70
   192
  0
VERTEX
  5
756
  8
0
 10
8.616000175476074
 20
23.60300064086914
 30
90.00499725341797
 70
   192
  0
VERTEX
  5
757
  8
0
 10
10.42199993133545
 20
22.86400032043457
 30
0.0
 70
   192
  0
VERTEX
  5
758
  8
0
 10
18.45899963378906
 20
16.91900062561035
 30
69.00299835205078
 70
   192
  0
VERTEX
  5
759
  8
0
 10
19.10600090026855
 20
16.18000030517578
 30
67.58799743652344
 70
   192
  0
VERTEX
  5
75A
  8
0
 10
17.34700012207031
 20
18.1870002746582
 30
71.43299865722656
 70
   192
  0
VERTEX
  5
75B
  8
0
 10
13.63000011444092
 20
21.11300086975098
 30
79.61000061035156
 70
   192
  0
VERTEX
  5
75C
  8
0
 10
13.7480001449585
 20
21.02000045776367
 30
79.35099792480469
 70
   192
  0
VERTEX
  5
75D
  8
0
 10
19.86599922180176
 20
15.37399959564209
 30
0.0
 70
   192
  0
VERTEX
  5
75E
  8
0
 10
22.26399993896484
 20
11.55300045013428
 30
60.75699996948242
 70
   192
  0
VERTEX
  5
75F
  8
0
 10
22.33200073242188
 20
11.39099979400635
 30
60.61299896240234
 70
   192
  0
VERTEX
  5
760
  8
0
 10
22.3430004119873
 20
11.39599990844727
 30
0.0
 70
   192
  0
VERTEX
  5
761
  8
0
 10
19.16399955749512
 20
16.25
 30
0.0
 70
   192
  0
VERTEX
  5
762
  8
0
 10
20.17399978637695
 20
14.96300029754639
 30
65.25700378417969
 70
   192
  0
VERTEX
  5
763
  8
0
 10
20.69099998474121
 20
14.11999988555908
 30
64.1449966430664
 70
   192
  0
VERTEX
  5
764
  8
0
 10
24.99699974060059
 20
-0.1030000001192093
 30
0.0
 70
   192
  0
VERTEX
  5
765
  8
0
 10
24.98900032043457
 20
0.6159999966621399
 30
55.01499938964844
 70
   192
  0
VERTEX
  5
766
  8
0
 10
24.62700080871582
 20
4.368000030517578
 30
55.76800155639648
 70
   192
  0
VERTEX
  5
767
  8
0
 10
24.99699974060059
 20
0.0
 30
55.0
 70
   192
  0
VERTEX
  5
768
  8
0
 10
23.66300010681152
 20
8.208000183105469
 30
57.79100036621094
 70
   192
  0
VERTEX
  5
769
  8
0
 10
24.28700065612793
 20
5.724999904632568
 30
56.48300170898438
 70
   192
  0
VERTEX
  5
76A
  8
0
 10
22.71699905395508
 20
10.4709997177124
 30
59.79700088500977
 70
   192
  0
VERTEX
  5
76B
  8
0
 10
22.68000030517578
 20
-10.69200038909912
 30
0.0
 70
   192
  0
VERTEX
  5
76C
  8
0
 10
22.75799942016602
 20
-10.51900005340576
 30
59.70399856567383
 70
   192
  0
VERTEX
  5
76D
  8
0
 10
22.74600028991699
 20
-10.54199981689453
 30
59.73099899291992
 70
   192
  0
VERTEX
  5
76E
  8
0
 10
23.97599983215332
 20
-7.209000110626221
 30
57.13299942016602
 70
   192
  0
VERTEX
  5
76F
  8
0
 10
24.72900009155273
 20
-3.723000049591064
 30
55.55599975585938
 70
   192
  0
VERTEX
  5
770
  8
0
 10
24.29199981689453
 20
-5.743000030517578
 30
56.47000122070312
 70
   192
  0
VERTEX
  5
771
  8
0
 10
24.98900032043457
 20
-0.1030000001192093
 30
55.01499938964844
 70
   192
  0
VERTEX
  5
772
  8
0
 10
15.63000011444092
 20
-19.68199920654297
 30
0.0
 70
   192
  0
VERTEX
  5
773
  8
0
 10
20.7140007019043
 20
-14.19499969482422
 30
64.08799743652344
 70
   192
  0
VERTEX
  5
774
  8
0
 10
20.71100044250488
 20
-14.19900035858154
 30
64.09400177001953
 70
   192
  0
VERTEX
  5
775
  8
0
 10
18.4640007019043
 20
-16.95800018310547
 30
68.98799896240234
 70
   192
  0
VERTEX
  5
776
  8
0
 10
17.94499969482422
 20
-17.59499931335449
 30
70.11900329589844
 70
   192
  0
VERTEX
  5
777
  8
0
 10
19.86599922180176
 20
-15.37399959564209
 30
0.0
 70
   192
  0
VERTEX
  5
778
  8
0
 10
22.66699981689453
 20
-10.68400001525879
 30
59.9010009765625
 70
   192
  0
VERTEX
  5
779
  8
0
 10
7.460000038146973
 20
-23.96699905395508
 30
90.00499725341797
 70
   192
  0
VERTEX
  5
77A
  8
0
 10
10.09000015258789
 20
-23.01199913024902
 30
86.95999908447266
 70
   192
  0
VERTEX
  5
77B
  8
0
 10
8.616000175476074
 20
-23.60300064086914
 30
90.00499725341797
 70
   192
  0
VERTEX
  5
77C
  8
0
 10
14.2790002822876
 20
-20.68099975585938
 30
78.22200012207031
 70
   192
  0
VERTEX
  5
77D
  8
0
 10
13.73600006103516
 20
-20.98299980163574
 30
79.35399627685547
 70
   192
  0
VERTEX
  5
77E
  8
0
 10
15.58300018310547
 20
-19.58300018310547
 30
75.33799743652344
 70
   192
  0
VERTEX
  5
77F
  8
0
 10
0.4490000009536743
 20
24.99200057983398
 30
90.00499725341797
 70
   192
  0
VERTEX
  5
780
  8
0
 10
0.4180000126361847
 20
-24.99200057983398
 30
90.00499725341797
 70
   192
  0
VERTEX
  5
781
  8
0
 62
     9
 10
0.0
 20
0.0
 30
0.0
 70
   128
 71
     3
 72
     2
 73
     1
  0
VERTEX
  5
782
  8
0
 62
     9
 10
0.0
 20
0.0
 30
0.0
 70
   128
 71
     2
 72
     4
 73
     1
  0
VERTEX
  5
783
  8
0
 62
     9
 10
0.0
 20
0.0
 30
0.0
 70
   128
 71
     1
 72
     5
 73
     3
  0
VERTEX
  5
784
  8
0
 62
     9
 10
0.0
 20
0.0
 30
0.0
 70
   128
 71
     8
 72
     7
 73
     6
  0
VERTEX
  5
785
  8
0
 62
     9
 10
0.0
 20
0.0
 30
0.0
 70
   128
 71
    10
 72
     9
 73
     7
  0
VERTEX
  5
786
  8
0
 62
     9
 10
0.0
 20
0.0
 30
0.0
 70
   128
 71
    10
 72
    11
 73
     9
  0
VERTEX
  5
787
  8
0
 62
     9
 10
0.0
 20
0.0
 30
0.0
 70
   128
 71
     9
 72
     6
 73
     7
  0
VERTEX
  5
788
  8
0
 62
     9
 10
0.0
 20
0.0
 30
0.0
 70
   128
 71
    14
 72
    13
 73
    12
  0
VERTEX
  5
789
  8
0
 62
     9
 10
0.0
 20
0.0
 30
0.0
 70
   128
 71
    13
 72
    15
 73
    12
  0
VERTEX
  5
78A
  8
0
 62
     9
 10
0.0
 20
0.0
 30
0.0
 70
   128
 71
    17
 72
    16
 73
    12
  0
VERTEX
  5
78B
  8
0
 62
     9
 10
0.0
 20
0.0
 30
0.0
 70
   128
 71
    16
 72
    10
 73
    12
  0
VERTEX
  5
78C
  8
0
 62
     9
 10
0.0
 20
0.0
 30
0.0
 70
   128
 71
    12
 72
    15
 73
    17
  0
VERTEX
  5
78D
  8
0
 62
     9
 10
0.0
 20
0.0
 30
0.0
 70
   128
 71
    20
 72
    19
 73
    18
  0
VERTEX
  5
78E
  8
0
 62
     9
 10
0.0
 20
0.0
 30
0.0
 70
   128
 71
    18
 72
    21
 73
    20
  0
VERTEX
  5
78F
  8
0
 62
     9
 10
0.0
 20
0.0
 30
0.0
 70
   128
 71
    24
 72
    23
 73
    22
  0
VERTEX
  5
790
  8
0
 62
     9
 10
0.0
 20
0.0
 30
0.0
 70
   128
 71
    23
 72
    14
 73
    22
  0
VERTEX
  5
791
  8
0
 62
     9
 10
0.0
 20
0.0
 30
0.0
 70
   128
 71
    22
 72
    19
 73
    24
  0
VERTEX
  5
792
  8
0
 62
     9
 10
0.0
 20
0.0
 30
0.0
 70
   128
 71
    26
 72
    21
 73
    25
  0
VERTEX
  5
793
  8
0
 62
     9
 10
0.0
 20
0.0
 30
0.0
 70
   128
 71
    26
 72
    27
 73
    21
  0
VERTEX
  5
794
  8
0
 62
     9
 10
0.0
 20
0.0
 30
0.0
 70
   128
 71
    25
 72
    28
 73
    26
  0
VERTEX
  5
795
  8
0
 62
     9
 10
0.0
 20
0.0
 30
0.0
 70
   128
 71
    30
 72
    29
 73
    21
  0
VERTEX
  5
796
  8
0
 62
     9
 10
0.0
 20
0.0
 30
0.0
 70
   128
 71
    31
 72
    20
 73
    21
  0
VERTEX
  5
797
  8
0
 62
     9
 10
0.0
 20
0.0
 30
0.0
 70
   128
 71
    21
 72
    29
 73
    31
  0
VERTEX
  5
798
  8
0
 62
     9
 10
0.0
 20
0.0
 30
0.0
 70
   128
 71
    21
 72
    27
 73
    30
  0
VERTEX
  5
799
  8
0
 62
     9
 10
0.0
 20
0.0
 30
0.0
 70
   128
 71
    34
 72
    33
 73
    32
  0
VERTEX
  5
79A
  8
0
 62
     9
 10
0.0
 20
0.0
 30
0.0
 70
   128
 71
    33
 72
    35
 73
    32
  0
VERTEX
  5
79B
  8
0
 62
     9
 10
0.0
 20
0.0
 30
0.0
 70
   128
 71
    37
 72
    36
 73
    32
  0
VERTEX
  5
79C
  8
0
 62
     9
 10
0.0
 20
0.0
 30
0.0
 70
   128
 71
    32
 72
    35
 73
    37
  0
VERTEX
  5
79D
  8
0
 62
     9
 10
0.0
 20
0.0
 30
0.0
 70
   128
 71
    38
 72
    25
 73
    32
  0
VERTEX
  5
79E
  8
0
 62
     9
 10
0.0
 20
0.0
 30
0.0
 70
   128
 71
    32
 72
    36
 73
    38
  0
VERTEX
  5
79F
  8
0
 62
     9
 10
0.0
 20
0.0
 30
0.0
 70
   128
 71
    41
 72
    40
 73
    39
  0
VERTEX
  5
7A0
  8
0
 62
     9
 10
0.0
 20
0.0
 30
0.0
 70
   128
 71
    39
 72
    42
 73
    41
  0
VERTEX
  5
7A1
  8
0
 62
     9
 10
0.0
 20
0.0
 30
0.0
 70
   128
 71
    39
 72
    43
 73
    42
  0
VERTEX
  5
7A2
  8
0
 62
     9
 10
0.0
 20
0.0
 30
0.0
 70
   128
 71
    45
 72
    32
 73
    44
  0
VERTEX
  5
7A3
  8
0
 62
     9
 10
0.0
 20
0.0
 30
0.0
 70
   128
 71
    44
 72
    39
 73
    40
  0
VERTEX
  5
7A4
  8
0
 62
     9
 10
0.0
 20
0.0
 30
0.0
 70
   128
 71
    44
 72
    40
 73
    45
  0
VERTEX
  5
7A5
  8
0
 62
     9
 10
0.0
 20
0.0
 30
0.0
 70
   128
 71
    47
 72
     1
 73
    46
  0
VERTEX
  5
7A6
  8
0
 62
     9
 10
0.0
 20
0.0
 30
0.0
 70
   128
 71
    46
 72
    48
 73
    47
  0
VERTEX
  5
7A7
  8
0
 62
     9
 10
0.0
 20
0.0
 30
0.0
 70
   128
 71
    50
 72
    49
 73
     1
  0
VERTEX
  5
7A8
  8
0
 62
     9
 10
0.0
 20
0.0
 30
0.0
 70
   128
 71
    51
 72
    39
 73
     1
  0
VERTEX
  5
7A9
  8
0
 62
     9
 10
0.0
 20
0.0
 30
0.0
 70
   128
 71
     1
 72
    49
 73
    51
  0
VERTEX
  5
7AA
  8
0
 62
     9
 10
0.0
 20
0.0
 30
0.0
 70
   128
 71
     1
 72
    47
 73
    50
  0
VERTEX
  5
7AB
  8
0
 62
     9
 10
0.0
 20
0.0
 30
0.0
 70
   128
 71
     1
 72
     4
 73
    46
  0
VERTEX
  5
7AC
  8
0
 62
     9
 10
0.0
 20
0.0
 30
0.0
 70
   128
 71
    39
 72
    51
 73
    43
  0
VERTEX
  5
7AD
  8
0
 62
     9
 10
0.0
 20
0.0
 30
0.0
 70
   128
 71
    32
 72
    45
 73
    34
  0
VERTEX
  5
7AE
  8
0
 62
     9
 10
0.0
 20
0.0
 30
0.0
 70
   128
 71
    25
 72
    38
 73
    28
  0
VERTEX
  5
7AF
  8
0
 62
     9
 10
0.0
 20
0.0
 30
0.0
 70
   128
 71
    19
 72
    22
 73
    18
  0
VERTEX
  5
7B0
  8
0
 62
     9
 10
0.0
 20
0.0
 30
0.0
 70
   128
 71
    12
 72
    22
 73
    14
  0
VERTEX
  5
7B1
  8
0
 62
     9
 10
0.0
 20
0.0
 30
0.0
 70
   128
 71
     7
 72
    12
 73
    10
  0
VERTEX
  5
7B2
  8
0
 62
     9
 10
0.0
 20
0.0
 30
0.0
 70
   128
 71
     6
 72
    52
 73
     8
  0
VERTEX
  5
7B3
  8
0
 62
     9
 10
0.0
 20
0.0
 30
0.0
 70
   128
 71
     5
 72
    53
 73
     3
  0
SEQEND
  5
7B4
  8
0
 62
     9
  0
ENDBLK
  5
7B7
  8
0
  0
BLOCK
  8
0
  2
E3_NODE_31_
 70
     0
 10
0.0
 20
0.0
 30
0.0
  3
E3_NODE_31_
  1

  0
POLYLINE
  5
7B9
  8
0
 62
     9
 66
     1
 10
0.0
 20
0.0
 30
0.0
 70
    64
 71
    16
 72
    14
  0
VERTEX
  5
7BA
  8
0
 10
8.616000175476074
 20
23.60300064086914
 30
100.0
 70
   192
  0
VERTEX
  5
7BB
  8
0
 10
11.88199996948242
 20
22.19400024414062
 30
90.00499725341797
 70
   192
  0
VERTEX
  5
7BC
  8
0
 10
11.8129997253418
 20
22.22599983215332
 30
90.00499725341797
 70
   192
  0
VERTEX
  5
7BD
  8
0
 10
11.80000019073486
 20
22.23200035095215
 30
90.00499725341797
 70
   192
  0
VERTEX
  5
7BE
  8
0
 10
16.93000030517578
 20
20.45499992370605
 30
100.0
 70
   192
  0
VERTEX
  5
7BF
  8
0
 10
16.93000030517578
 20
20.45499992370605
 30
90.00499725341797
 70
   192
  0
VERTEX
  5
7C0
  8
0
 10
12.0
 20
22.15299987792969
 30
90.00499725341797
 70
   192
  0
VERTEX
  5
7C1
  8
0
 10
22.20700073242188
 20
20.05100059509277
 30
90.00499725341797
 70
   192
  0
VERTEX
  5
7C2
  8
0
 10
17.02000045776367
 20
20.44799995422363
 30
90.00499725341797
 70
   192
  0
VERTEX
  5
7C3
  8
0
 10
31.63699913024902
 20
19.32999992370605
 30
100.0
 70
   192
  0
VERTEX
  5
7C4
  8
0
 10
31.63699913024902
 20
19.32999992370605
 30
90.00499725341797
 70
   192
  0
VERTEX
  5
7C5
  8
0
 10
51.22299957275391
 20
19.24099922180176
 30
90.00499725341797
 70
   192
  0
VERTEX
  5
7C6
  8
0
 10
32.11800003051758
 20
19.32699966430664
 30
90.00499725341797
 70
   192
  0
VERTEX
  5
7C7
  8
0
 10
84.28700256347656
 20
19.09099960327148
 30
100.0
 70
   192
  0
VERTEX
  5
7C8
  8
0
 10
84.28700256347656
 20
19.09099960327148
 30
90.00499725341797
 70
   192
  0
VERTEX
  5
7C9
  8
0
 10
8.616000175476074
 20
23.60300064086914
 30
90.00499725341797
 70
   192
  0
VERTEX
  5
7CA
  8
0
 62
     9
 10
0.0
 20
0.0
 30
0.0
 70
   128
 71
     3
 72
     2
 73
     1
  0
VERTEX
  5
7CB
  8
0
 62
     9
 10
0.0
 20
0.0
 30
0.0
 70
   128
 71
     1
 72
     4
 73
     3
  0
VERTEX
  5
7CC
  8
0
 62
     9
 10
0.0
 20
0.0
 30
0.0
 70
   128
 71
     7
 72
     6
 73
     5
  0
VERTEX
  5
7CD
  8
0
 62
     9
 10
0.0
 20
0.0
 30
0.0
 70
   128
 71
     5
 72
     1
 73
     7
  0
VERTEX
  5
7CE
  8
0
 62
     9
 10
0.0
 20
0.0
 30
0.0
 70
   128
 71
     1
 72
     2
 73
     7
  0
VERTEX
  5
7CF
  8
0
 62
     9
 10
0.0
 20
0.0
 30
0.0
 70
   128
 71
     9
 72
     8
 73
     5
  0
VERTEX
  5
7D0
  8
0
 62
     9
 10
0.0
 20
0.0
 30
0.0
 70
   128
 71
     8
 72
    11
 73
    10
  0
VERTEX
  5
7D1
  8
0
 62
     9
 10
0.0
 20
0.0
 30
0.0
 70
   128
 71
    10
 72
     5
 73
     8
  0
VERTEX
  5
7D2
  8
0
 62
     9
 10
0.0
 20
0.0
 30
0.0
 70
   128
 71
    13
 72
    12
 73
    10
  0
VERTEX
  5
7D3
  8
0
 62
     9
 10
0.0
 20
0.0
 30
0.0
 70
   128
 71
    12
 72
    15
 73
    14
  0
VERTEX
  5
7D4
  8
0
 62
     9
 10
0.0
 20
0.0
 30
0.0
 70
   128
 71
    14
 72
    10
 73
    12
  0
VERTEX
  5
7D5
  8
0
 62
     9
 10
0.0
 20
0.0
 30
0.0
 70
   128
 71
    10
 72
    11
 73
    13
  0
VERTEX
  5
7D6
  8
0
 62
     9
 10
0.0
 20
0.0
 30
0.0
 70
   128
 71
     5
 72
     6
 73
     9
  0
VERTEX
  5
7D7
  8
0
 62
     9
 10
0.0
 20
0.0
 30
0.0
 70
   128
 71
     1
 72
    16
 73
     4
  0
SEQEND
  5
7D8
  8
0
 62
     9
  0
ENDBLK
  5
7DB
  8
0
  0
BLOCK
  8
0
  2
E3_NODE_32_
 70
     0
 10
0.0
 20
0.0
 30
0.0
  3
E3_NODE_32_
  1

  0
POLYLINE
  5
7DD
  8
0
 62
     9
 66
     1
 10
0.0
 20
0.0
 30
0.0
 70
    64
 71
    87
 72
   112
  0
VERTEX
  5
7DE
  8
0
 10
30.46599960327148
 20
8.366000175476074
 30
75.9990005493164
 70
   192
  0
VERTEX
  5
7DF
  8
0
 10
26.71699905395508
 20
13.79699993133545
 30
79.52799987792969
 70
   192
  0
VERTEX
  5
7E0
  8
0
 10
32.41600036621094
 20
13.07100009918213
 30
81.43099975585938
 70
   192
  0
VERTEX
  5
7E1
  8
0
 10
21.20599937438965
 20
13.65799999237061
 30
67.74400329589844
 70
   192
  0
VERTEX
  5
7E2
  8
0
 10
19.10600090026855
 20
16.18000030517578
 30
67.58799743652344
 70
   192
  0
VERTEX
  5
7E3
  8
0
 10
18.45899963378906
 20
16.91900062561035
 30
69.00299835205078
 70
   192
  0
VERTEX
  5
7E4
  8
0
 10
20.69099998474121
 20
14.11999988555908
 30
64.1449966430664
 70
   192
  0
VERTEX
  5
7E5
  8
0
 10
20.17399978637695
 20
14.96300029754639
 30
65.25700378417969
 70
   192
  0
VERTEX
  5
7E6
  8
0
 10
22.22800064086914
 20
17.58499908447266
 30
84.10700225830078
 70
   192
  0
VERTEX
  5
7E7
  8
0
 10
17.02000045776367
 20
20.44799995422363
 30
90.00499725341797
 70
   192
  0
VERTEX
  5
7E8
  8
0
 10
22.20700073242188
 20
20.05100059509277
 30
90.00499725341797
 70
   192
  0
VERTEX
  5
7E9
  8
0
 10
13.63000011444092
 20
21.11300086975098
 30
79.61000061035156
 70
   192
  0
VERTEX
  5
7EA
  8
0
 10
11.88199996948242
 20
22.19400024414062
 30
90.00499725341797
 70
   192
  0
VERTEX
  5
7EB
  8
0
 10
12.0
 20
22.15299987792969
 30
90.00499725341797
 70
   192
  0
VERTEX
  5
7EC
  8
0
 10
16.68000030517578
 20
19.31900024414062
 30
81.4990005493164
 70
   192
  0
VERTEX
  5
7ED
  8
0
 10
13.7480001449585
 20
21.02000045776367
 30
79.35099792480469
 70
   192
  0
VERTEX
  5
7EE
  8
0
 10
11.80000019073486
 20
22.23200035095215
 30
90.00499725341797
 70
   192
  0
VERTEX
  5
7EF
  8
0
 10
11.8129997253418
 20
22.22599983215332
 30
90.00499725341797
 70
   192
  0
VERTEX
  5
7F0
  8
0
 10
10.43599987030029
 20
22.69899940490723
 30
86.23100280761719
 70
   192
  0
VERTEX
  5
7F1
  8
0
 10
8.616000175476074
 20
23.60300064086914
 30
90.00499725341797
 70
   192
  0
VERTEX
  5
7F2
  8
0
 10
31.84499931335449
 20
4.604000091552734
 30
74.77300262451172
 70
   192
  0
VERTEX
  5
7F3
  8
0
 10
36.28099822998047
 20
7.75
 30
78.57599639892578
 70
   192
  0
VERTEX
  5
7F4
  8
0
 10
57.87400054931641
 20
12.24600028991699
 30
83.31600189208984
 70
   192
  0
VERTEX
  5
7F5
  8
0
 10
60.30799865722656
 20
6.971000194549561
 30
80.9260025024414
 70
   192
  0
VERTEX
  5
7F6
  8
0
 10
45.34600067138672
 20
7.26200008392334
 30
80.2030029296875
 70
   192
  0
VERTEX
  5
7F7
  8
0
 10
41.76399993896484
 20
12.53800010681152
 30
82.6969985961914
 70
   192
  0
VERTEX
  5
7F8
  8
0
 10
37.63899993896484
 20
4.22599983215332
 30
77.61799621582031
 70
   192
  0
VERTEX
  5
7F9
  8
0
 10
38.08200073242188
 20
0.0
 30
77.03399658203125
 70
   192
  0
VERTEX
  5
7FA
  8
0
 10
34.90200042724609
 20
0.0
 30
75.8290023803711
 70
   192
  0
VERTEX
  5
7FB
  8
0
 10
38.28799819946289
 20
0.0
 30
77.11299896240234
 70
   192
  0
VERTEX
  5
7FC
  8
0
 10
46.55400085449219
 20
3.918999910354614
 30
79.3949966430664
 70
   192
  0
VERTEX
  5
7FD
  8
0
 10
46.6870002746582
 20
0.0
 30
79.03900146484375
 70
   192
  0
VERTEX
  5
7FE
  8
0
 10
40.25299835205078
 20
0.0
 30
77.85800170898438
 70
   192
  0
VERTEX
  5
7FF
  8
0
 10
47.08100128173828
 20
0.0
 30
79.06600189208984
 70
   192
  0
VERTEX
  5
800
  8
0
 10
20.64100074768066
 20
15.51399993896484
 30
74.427001953125
 70
   192
  0
VERTEX
  5
801
  8
0
 10
23.03400039672852
 20
14.64000034332275
 30
77.125
 70
   192
  0
VERTEX
  5
802
  8
0
 10
26.61499977111816
 20
9.034000396728516
 30
72.60199737548828
 70
   192
  0
VERTEX
  5
803
  8
0
 10
24.54700088500977
 20
5.64900016784668
 30
61.57400131225586
 70
   192
  0
VERTEX
  5
804
  8
0
 10
23.66300010681152
 20
8.208000183105469
 30
57.79100036621094
 70
   192
  0
VERTEX
  5
805
  8
0
 10
22.71699905395508
 20
10.4709997177124
 30
59.79700088500977
 70
   192
  0
VERTEX
  5
806
  8
0
 10
24.28700065612793
 20
5.724999904632568
 30
56.48300170898438
 70
   192
  0
VERTEX
  5
807
  8
0
 10
24.22200012207031
 20
9.670000076293945
 30
68.61000061035156
 70
   192
  0
VERTEX
  5
808
  8
0
 10
23.05599975585938
 20
10.19699954986572
 30
64.26100158691406
 70
   192
  0
VERTEX
  5
809
  8
0
 10
22.26399993896484
 20
11.55300045013428
 30
60.75699996948242
 70
   192
  0
VERTEX
  5
80A
  8
0
 10
22.33200073242188
 20
11.39099979400635
 30
60.61299896240234
 70
   192
  0
VERTEX
  5
80B
  8
0
 10
25.62899971008301
 20
5.368000030517578
 30
66.50900268554688
 70
   192
  0
VERTEX
  5
80C
  8
0
 10
25.22400093078613
 20
0.0
 30
60.44900131225586
 70
   192
  0
VERTEX
  5
80D
  8
0
 10
24.62700080871582
 20
4.368000030517578
 30
55.76800155639648
 70
   192
  0
VERTEX
  5
80E
  8
0
 10
24.98900032043457
 20
0.6159999966621399
 30
55.01499938964844
 70
   192
  0
VERTEX
  5
80F
  8
0
 10
24.99699974060059
 20
0.0
 30
55.0
 70
   192
  0
VERTEX
  5
810
  8
0
 10
25.22500038146973
 20
0.0
 30
60.48099899291992
 70
   192
  0
VERTEX
  5
811
  8
0
 10
26.25
 20
0.0
 30
65.59600067138672
 70
   192
  0
VERTEX
  5
812
  8
0
 10
26.32200050354004
 20
0.0
 30
65.91699981689453
 70
   192
  0
VERTEX
  5
813
  8
0
 10
25.25399971008301
 20
0.0
 30
61.18999862670898
 70
   192
  0
VERTEX
  5
814
  8
0
 10
27.99099922180176
 20
5.001999855041504
 30
70.99199676513672
 70
   192
  0
VERTEX
  5
815
  8
0
 10
28.53400039672852
 20
0.0
 30
70.2760009765625
 70
   192
  0
VERTEX
  5
816
  8
0
 10
28.59700012207031
 20
0.0
 30
70.34700012207031
 70
   192
  0
VERTEX
  5
817
  8
0
 10
31.4379997253418
 20
0.0
 30
73.48999786376953
 70
   192
  0
VERTEX
  5
818
  8
0
 10
32.50699996948242
 20
0.0
 30
74.21199798583984
 70
   192
  0
VERTEX
  5
819
  8
0
 10
32.39099884033203
 20
0.0
 30
74.13400268554688
 70
   192
  0
VERTEX
  5
81A
  8
0
 10
19.22400093078613
 20
16.33200073242188
 30
71.64700317382812
 70
   192
  0
VERTEX
  5
81B
  8
0
 10
17.34700012207031
 20
18.1870002746582
 30
71.43299865722656
 70
   192
  0
VERTEX
  5
81C
  8
0
 10
16.93000030517578
 20
20.45499992370605
 30
90.00499725341797
 70
   192
  0
VERTEX
  5
81D
  8
0
 10
18.92600059509277
 20
18.41600036621094
 30
82.81999969482422
 70
   192
  0
VERTEX
  5
81E
  8
0
 10
51.22299957275391
 20
19.24099922180176
 30
90.00499725341797
 70
   192
  0
VERTEX
  5
81F
  8
0
 10
54.69499969482422
 20
16.22999954223633
 30
86.4530029296875
 70
   192
  0
VERTEX
  5
820
  8
0
 10
37.18899917602539
 20
16.45499992370605
 30
86.01100158691406
 70
   192
  0
VERTEX
  5
821
  8
0
 10
27.61700057983398
 20
16.9109992980957
 30
85.20999908447266
 70
   192
  0
VERTEX
  5
822
  8
0
 10
31.63699913024902
 20
19.32999992370605
 30
90.00499725341797
 70
   192
  0
VERTEX
  5
823
  8
0
 10
32.11800003051758
 20
19.32699966430664
 30
90.00499725341797
 70
   192
  0
VERTEX
  5
824
  8
0
 10
57.49399948120117
 20
0.0
 30
79.7760009765625
 70
   192
  0
VERTEX
  5
825
  8
0
 10
61.43199920654297
 20
0.0
 30
79.80899810791016
 70
   192
  0
VERTEX
  5
826
  8
0
 10
60.67300033569336
 20
0.0
 30
79.8030014038086
 70
   192
  0
VERTEX
  5
827
  8
0
 10
84.28700256347656
 20
18.11499977111816
 30
88.69599914550781
 70
   192
  0
VERTEX
  5
828
  8
0
 10
84.28700256347656
 20
16.07699966430664
 30
86.67400360107422
 70
   192
  0
VERTEX
  5
829
  8
0
 10
84.28700256347656
 20
19.09099960327148
 30
90.00499725341797
 70
   192
  0
VERTEX
  5
82A
  8
0
 10
84.28700256347656
 20
14.38300037384033
 30
84.99299621582031
 70
   192
  0
VERTEX
  5
82B
  8
0
 10
84.28700256347656
 20
12.12399959564209
 30
83.59700012207031
 70
   192
  0
VERTEX
  5
82C
  8
0
 10
84.28700256347656
 20
15.52400016784668
 30
86.125
 70
   192
  0
VERTEX
  5
82D
  8
0
 10
84.28700256347656
 20
9.86400032043457
 30
82.20099639892578
 70
   192
  0
VERTEX
  5
82E
  8
0
 10
84.28700256347656
 20
6.883999824523926
 30
81.1780014038086
 70
   192
  0
VERTEX
  5
82F
  8
0
 10
84.28700256347656
 20
10.54699993133545
 30
82.62300109863281
 70
   192
  0
VERTEX
  5
830
  8
0
 10
84.28700256347656
 20
0.5
 30
80.00599670410156
 70
   192
  0
VERTEX
  5
831
  8
0
 10
84.28700256347656
 20
0.1459999978542328
 30
80.0009994506836
 70
   192
  0
VERTEX
  5
832
  8
0
 10
84.28700256347656
 20
5.118000030517578
 30
80.5719985961914
 70
   192
  0
VERTEX
  5
833
  8
0
 10
84.28700256347656
 20
5.053999900817871
 30
80.56400299072266
 70
   192
  0
VERTEX
  5
834
  8
0
 10
84.28700256347656
 20
0.0
 30
80.0
 70
   192
  0
VERTEX
  5
835
  8
0
 62
     9
 10
0.0
 20
0.0
 30
0.0
 70
   128
 71
     3
 72
     2
 73
     1
  0
VERTEX
  5
836
  8
0
 62
     9
 10
0.0
 20
0.0
 30
0.0
 70
   128
 71
     6
 72
     5
 73
     4
  0
VERTEX
  5
837
  8
0
 62
     9
 10
0.0
 20
0.0
 30
0.0
 70
   128
 71
     8
 72
     7
 73
     4
  0
VERTEX
  5
838
  8
0
 62
     9
 10
0.0
 20
0.0
 30
0.0
 70
   128
 71
     4
 72
     5
 73
     8
  0
VERTEX
  5
839
  8
0
 62
     9
 10
0.0
 20
0.0
 30
0.0
 70
   128
 71
    11
 72
    10
 73
     9
  0
VERTEX
  5
83A
  8
0
 62
     9
 10
0.0
 20
0.0
 30
0.0
 70
   128
 71
    14
 72
    13
 73
    12
  0
VERTEX
  5
83B
  8
0
 62
     9
 10
0.0
 20
0.0
 30
0.0
 70
   128
 71
    12
 72
    16
 73
    15
  0
VERTEX
  5
83C
  8
0
 62
     9
 10
0.0
 20
0.0
 30
0.0
 70
   128
 71
    18
 72
    17
 73
    12
  0
VERTEX
  5
83D
  8
0
 62
     9
 10
0.0
 20
0.0
 30
0.0
 70
   128
 71
    19
 72
    12
 73
    17
  0
VERTEX
  5
83E
  8
0
 62
     9
 10
0.0
 20
0.0
 30
0.0
 70
   128
 71
    17
 72
    20
 73
    19
  0
VERTEX
  5
83F
  8
0
 62
     9
 10
0.0
 20
0.0
 30
0.0
 70
   128
 71
    12
 72
    13
 73
    18
  0
VERTEX
  5
840
  8
0
 62
     9
 10
0.0
 20
0.0
 30
0.0
 70
   128
 71
    22
 72
     1
 73
    21
  0
VERTEX
  5
841
  8
0
 62
     9
 10
0.0
 20
0.0
 30
0.0
 70
   128
 71
    25
 72
    24
 73
    23
  0
VERTEX
  5
842
  8
0
 62
     9
 10
0.0
 20
0.0
 30
0.0
 70
   128
 71
    26
 72
     3
 73
    22
  0
VERTEX
  5
843
  8
0
 62
     9
 10
0.0
 20
0.0
 30
0.0
 70
   128
 71
    29
 72
    28
 73
    27
  0
VERTEX
  5
844
  8
0
 62
     9
 10
0.0
 20
0.0
 30
0.0
 70
   128
 71
    28
 72
    30
 73
    27
  0
VERTEX
  5
845
  8
0
 62
     9
 10
0.0
 20
0.0
 30
0.0
 70
   128
 71
    27
 72
    21
 73
    29
  0
VERTEX
  5
846
  8
0
 62
     9
 10
0.0
 20
0.0
 30
0.0
 70
   128
 71
    25
 72
    22
 73
    27
  0
VERTEX
  5
847
  8
0
 62
     9
 10
0.0
 20
0.0
 30
0.0
 70
   128
 71
    33
 72
    32
 73
    31
  0
VERTEX
  5
848
  8
0
 62
     9
 10
0.0
 20
0.0
 30
0.0
 70
   128
 71
    32
 72
    34
 73
    31
  0
VERTEX
  5
849
  8
0
 62
     9
 10
0.0
 20
0.0
 30
0.0
 70
   128
 71
    31
 72
    27
 73
    33
  0
VERTEX
  5
84A
  8
0
 62
     9
 10
0.0
 20
0.0
 30
0.0
 70
   128
 71
    37
 72
    36
 73
    35
  0
VERTEX
  5
84B
  8
0
 62
     9
 10
0.0
 20
0.0
 30
0.0
 70
   128
 71
    40
 72
    39
 73
    38
  0
VERTEX
  5
84C
  8
0
 62
     9
 10
0.0
 20
0.0
 30
0.0
 70
   128
 71
    39
 72
    41
 73
    38
  0
VERTEX
  5
84D
  8
0
 62
     9
 10
0.0
 20
0.0
 30
0.0
 70
   128
 71
     4
 72
    42
 73
    35
  0
VERTEX
  5
84E
  8
0
 62
     9
 10
0.0
 20
0.0
 30
0.0
 70
   128
 71
     4
 72
    43
 73
    42
  0
VERTEX
  5
84F
  8
0
 62
     9
 10
0.0
 20
0.0
 30
0.0
 70
   128
 71
     7
 72
    44
 73
    43
  0
VERTEX
  5
850
  8
0
 62
     9
 10
0.0
 20
0.0
 30
0.0
 70
   128
 71
    44
 72
    45
 73
    43
  0
VERTEX
  5
851
  8
0
 62
     9
 10
0.0
 20
0.0
 30
0.0
 70
   128
 71
    45
 72
    40
 73
    43
  0
VERTEX
  5
852
  8
0
 62
     9
 10
0.0
 20
0.0
 30
0.0
 70
   128
 71
    43
 72
    38
 73
    46
  0
VERTEX
  5
853
  8
0
 62
     9
 10
0.0
 20
0.0
 30
0.0
 70
   128
 71
    41
 72
    48
 73
    47
  0
VERTEX
  5
854
  8
0
 62
     9
 10
0.0
 20
0.0
 30
0.0
 70
   128
 71
    48
 72
    49
 73
    47
  0
VERTEX
  5
855
  8
0
 62
     9
 10
0.0
 20
0.0
 30
0.0
 70
   128
 71
    49
 72
    50
 73
    47
  0
VERTEX
  5
856
  8
0
 62
     9
 10
0.0
 20
0.0
 30
0.0
 70
   128
 71
    47
 72
    51
 73
    38
  0
VERTEX
  5
857
  8
0
 62
     9
 10
0.0
 20
0.0
 30
0.0
 70
   128
 71
    52
 72
    46
 73
    38
  0
VERTEX
  5
858
  8
0
 62
     9
 10
0.0
 20
0.0
 30
0.0
 70
   128
 71
    52
 72
    53
 73
    46
  0
VERTEX
  5
859
  8
0
 62
     9
 10
0.0
 20
0.0
 30
0.0
 70
   128
 71
    38
 72
    54
 73
    52
  0
VERTEX
  5
85A
  8
0
 62
     9
 10
0.0
 20
0.0
 30
0.0
 70
   128
 71
    55
 72
    37
 73
    42
  0
VERTEX
  5
85B
  8
0
 62
     9
 10
0.0
 20
0.0
 30
0.0
 70
   128
 71
     2
 72
    36
 73
    37
  0
VERTEX
  5
85C
  8
0
 62
     9
 10
0.0
 20
0.0
 30
0.0
 70
   128
 71
     1
 72
    37
 73
    55
  0
VERTEX
  5
85D
  8
0
 62
     9
 10
0.0
 20
0.0
 30
0.0
 70
   128
 71
    56
 72
    55
 73
    46
  0
VERTEX
  5
85E
  8
0
 62
     9
 10
0.0
 20
0.0
 30
0.0
 70
   128
 71
    56
 72
    57
 73
    55
  0
VERTEX
  5
85F
  8
0
 62
     9
 10
0.0
 20
0.0
 30
0.0
 70
   128
 71
    58
 72
    21
 73
    55
  0
VERTEX
  5
860
  8
0
 62
     9
 10
0.0
 20
0.0
 30
0.0
 70
   128
 71
    60
 72
    59
 73
    21
  0
VERTEX
  5
861
  8
0
 62
     9
 10
0.0
 20
0.0
 30
0.0
 70
   128
 71
    21
 72
    58
 73
    60
  0
VERTEX
  5
862
  8
0
 62
     9
 10
0.0
 20
0.0
 30
0.0
 70
   128
 71
    62
 72
     6
 73
    61
  0
VERTEX
  5
863
  8
0
 62
     9
 10
0.0
 20
0.0
 30
0.0
 70
   128
 71
    35
 72
    15
 73
    16
  0
VERTEX
  5
864
  8
0
 62
     9
 10
0.0
 20
0.0
 30
0.0
 70
   128
 71
    16
 72
    61
 73
    35
  0
VERTEX
  5
865
  8
0
 62
     9
 10
0.0
 20
0.0
 30
0.0
 70
   128
 71
    63
 72
    14
 73
    15
  0
VERTEX
  5
866
  8
0
 62
     9
 10
0.0
 20
0.0
 30
0.0
 70
   128
 71
    10
 72
    63
 73
    64
  0
VERTEX
  5
867
  8
0
 62
     9
 10
0.0
 20
0.0
 30
0.0
 70
   128
 71
    64
 72
     9
 73
    10
  0
VERTEX
  5
868
  8
0
 62
     9
 10
0.0
 20
0.0
 30
0.0
 70
   128
 71
    64
 72
    15
 73
    35
  0
VERTEX
  5
869
  8
0
 62
     9
 10
0.0
 20
0.0
 30
0.0
 70
   128
 71
     9
 72
    64
 73
    36
  0
VERTEX
  5
86A
  8
0
 62
     9
 10
0.0
 20
0.0
 30
0.0
 70
   128
 71
    67
 72
    66
 73
    65
  0
VERTEX
  5
86B
  8
0
 62
     9
 10
0.0
 20
0.0
 30
0.0
 70
   128
 71
    68
 72
     9
 73
     2
  0
VERTEX
  5
86C
  8
0
 62
     9
 10
0.0
 20
0.0
 30
0.0
 70
   128
 71
    70
 72
    69
 73
    68
  0
VERTEX
  5
86D
  8
0
 62
     9
 10
0.0
 20
0.0
 30
0.0
 70
   128
 71
    69
 72
    11
 73
    68
  0
VERTEX
  5
86E
  8
0
 62
     9
 10
0.0
 20
0.0
 30
0.0
 70
   128
 71
    67
 72
    68
 73
     3
  0
VERTEX
  5
86F
  8
0
 62
     9
 10
0.0
 20
0.0
 30
0.0
 70
   128
 71
    26
 72
    23
 73
    66
  0
VERTEX
  5
870
  8
0
 62
     9
 10
0.0
 20
0.0
 30
0.0
 70
   128
 71
    71
 72
    24
 73
    31
  0
VERTEX
  5
871
  8
0
 62
     9
 10
0.0
 20
0.0
 30
0.0
 70
   128
 71
    73
 72
    72
 73
    24
  0
VERTEX
  5
872
  8
0
 62
     9
 10
0.0
 20
0.0
 30
0.0
 70
   128
 71
    24
 72
    71
 73
    73
  0
VERTEX
  5
873
  8
0
 62
     9
 10
0.0
 20
0.0
 30
0.0
 70
   128
 71
    31
 72
    34
 73
    71
  0
VERTEX
  5
874
  8
0
 62
     9
 10
0.0
 20
0.0
 30
0.0
 70
   128
 71
    66
 72
    75
 73
    74
  0
VERTEX
  5
875
  8
0
 62
     9
 10
0.0
 20
0.0
 30
0.0
 70
   128
 71
    74
 72
    76
 73
    65
  0
VERTEX
  5
876
  8
0
 62
     9
 10
0.0
 20
0.0
 30
0.0
 70
   128
 71
    23
 72
    78
 73
    77
  0
VERTEX
  5
877
  8
0
 62
     9
 10
0.0
 20
0.0
 30
0.0
 70
   128
 71
    79
 72
    75
 73
    66
  0
VERTEX
  5
878
  8
0
 62
     9
 10
0.0
 20
0.0
 30
0.0
 70
   128
 71
    66
 72
    77
 73
    79
  0
VERTEX
  5
879
  8
0
 62
     9
 10
0.0
 20
0.0
 30
0.0
 70
   128
 71
    24
 72
    81
 73
    80
  0
VERTEX
  5
87A
  8
0
 62
     9
 10
0.0
 20
0.0
 30
0.0
 70
   128
 71
    82
 72
    78
 73
    23
  0
VERTEX
  5
87B
  8
0
 62
     9
 10
0.0
 20
0.0
 30
0.0
 70
   128
 71
    23
 72
    80
 73
    82
  0
VERTEX
  5
87C
  8
0
 62
     9
 10
0.0
 20
0.0
 30
0.0
 70
   128
 71
    84
 72
    83
 73
    72
  0
VERTEX
  5
87D
  8
0
 62
     9
 10
0.0
 20
0.0
 30
0.0
 70
   128
 71
    86
 72
    85
 73
    24
  0
VERTEX
  5
87E
  8
0
 62
     9
 10
0.0
 20
0.0
 30
0.0
 70
   128
 71
    24
 72
    72
 73
    86
  0
VERTEX
  5
87F
  8
0
 62
     9
 10
0.0
 20
0.0
 30
0.0
 70
   128
 71
    72
 72
    83
 73
    86
  0
VERTEX
  5
880
  8
0
 62
     9
 10
0.0
 20
0.0
 30
0.0
 70
   128
 71
    85
 72
    81
 73
    24
  0
VERTEX
  5
881
  8
0
 62
     9
 10
0.0
 20
0.0
 30
0.0
 70
   128
 71
    72
 72
    87
 73
    84
  0
VERTEX
  5
882
  8
0
 62
     9
 10
0.0
 20
0.0
 30
0.0
 70
   128
 71
    80
 72
    23
 73
    24
  0
VERTEX
  5
883
  8
0
 62
     9
 10
0.0
 20
0.0
 30
0.0
 70
   128
 71
    77
 72
    66
 73
    23
  0
VERTEX
  5
884
  8
0
 62
     9
 10
0.0
 20
0.0
 30
0.0
 70
   128
 71
    74
 72
    65
 73
    66
  0
VERTEX
  5
885
  8
0
 62
     9
 10
0.0
 20
0.0
 30
0.0
 70
   128
 71
    24
 72
    25
 73
    31
  0
VERTEX
  5
886
  8
0
 62
     9
 10
0.0
 20
0.0
 30
0.0
 70
   128
 71
    66
 72
    67
 73
    26
  0
VERTEX
  5
887
  8
0
 62
     9
 10
0.0
 20
0.0
 30
0.0
 70
   128
 71
     3
 72
    26
 73
    67
  0
VERTEX
  5
888
  8
0
 62
     9
 10
0.0
 20
0.0
 30
0.0
 70
   128
 71
    68
 72
    67
 73
    70
  0
VERTEX
  5
889
  8
0
 62
     9
 10
0.0
 20
0.0
 30
0.0
 70
   128
 71
     2
 72
     3
 73
    68
  0
VERTEX
  5
88A
  8
0
 62
     9
 10
0.0
 20
0.0
 30
0.0
 70
   128
 71
    65
 72
    70
 73
    67
  0
VERTEX
  5
88B
  8
0
 62
     9
 10
0.0
 20
0.0
 30
0.0
 70
   128
 71
    36
 72
     2
 73
     9
  0
VERTEX
  5
88C
  8
0
 62
     9
 10
0.0
 20
0.0
 30
0.0
 70
   128
 71
    35
 72
    36
 73
    64
  0
VERTEX
  5
88D
  8
0
 62
     9
 10
0.0
 20
0.0
 30
0.0
 70
   128
 71
    15
 72
    64
 73
    63
  0
VERTEX
  5
88E
  8
0
 62
     9
 10
0.0
 20
0.0
 30
0.0
 70
   128
 71
    61
 72
    16
 73
    62
  0
VERTEX
  5
88F
  8
0
 62
     9
 10
0.0
 20
0.0
 30
0.0
 70
   128
 71
    55
 72
    57
 73
    58
  0
VERTEX
  5
890
  8
0
 62
     9
 10
0.0
 20
0.0
 30
0.0
 70
   128
 71
    46
 72
    53
 73
    56
  0
VERTEX
  5
891
  8
0
 62
     9
 10
0.0
 20
0.0
 30
0.0
 70
   128
 71
    55
 72
    21
 73
     1
  0
VERTEX
  5
892
  8
0
 62
     9
 10
0.0
 20
0.0
 30
0.0
 70
   128
 71
    37
 72
     1
 73
     2
  0
VERTEX
  5
893
  8
0
 62
     9
 10
0.0
 20
0.0
 30
0.0
 70
   128
 71
    42
 72
    46
 73
    55
  0
VERTEX
  5
894
  8
0
 62
     9
 10
0.0
 20
0.0
 30
0.0
 70
   128
 71
    38
 72
    51
 73
    54
  0
VERTEX
  5
895
  8
0
 62
     9
 10
0.0
 20
0.0
 30
0.0
 70
   128
 71
    47
 72
    38
 73
    41
  0
VERTEX
  5
896
  8
0
 62
     9
 10
0.0
 20
0.0
 30
0.0
 70
   128
 71
    46
 72
    42
 73
    43
  0
VERTEX
  5
897
  8
0
 62
     9
 10
0.0
 20
0.0
 30
0.0
 70
   128
 71
    43
 72
     4
 73
     7
  0
VERTEX
  5
898
  8
0
 62
     9
 10
0.0
 20
0.0
 30
0.0
 70
   128
 71
    35
 72
    61
 73
     4
  0
VERTEX
  5
899
  8
0
 62
     9
 10
0.0
 20
0.0
 30
0.0
 70
   128
 71
    38
 72
    43
 73
    40
  0
VERTEX
  5
89A
  8
0
 62
     9
 10
0.0
 20
0.0
 30
0.0
 70
   128
 71
    35
 72
    42
 73
    37
  0
VERTEX
  5
89B
  8
0
 62
     9
 10
0.0
 20
0.0
 30
0.0
 70
   128
 71
    27
 72
    30
 73
    33
  0
VERTEX
  5
89C
  8
0
 62
     9
 10
0.0
 20
0.0
 30
0.0
 70
   128
 71
    27
 72
    31
 73
    25
  0
VERTEX
  5
89D
  8
0
 62
     9
 10
0.0
 20
0.0
 30
0.0
 70
   128
 71
    21
 72
    59
 73
    29
  0
VERTEX
  5
89E
  8
0
 62
     9
 10
0.0
 20
0.0
 30
0.0
 70
   128
 71
    22
 72
    25
 73
    26
  0
VERTEX
  5
89F
  8
0
 62
     9
 10
0.0
 20
0.0
 30
0.0
 70
   128
 71
    23
 72
    26
 73
    25
  0
VERTEX
  5
8A0
  8
0
 62
     9
 10
0.0
 20
0.0
 30
0.0
 70
   128
 71
    21
 72
    27
 73
    22
  0
VERTEX
  5
8A1
  8
0
 62
     9
 10
0.0
 20
0.0
 30
0.0
 70
   128
 71
    12
 72
    15
 73
    14
  0
VERTEX
  5
8A2
  8
0
 62
     9
 10
0.0
 20
0.0
 30
0.0
 70
   128
 71
     9
 72
    68
 73
    11
  0
VERTEX
  5
8A3
  8
0
 62
     9
 10
0.0
 20
0.0
 30
0.0
 70
   128
 71
     4
 72
    61
 73
     6
  0
VERTEX
  5
8A4
  8
0
 62
     9
 10
0.0
 20
0.0
 30
0.0
 70
   128
 71
     1
 72
    22
 73
     3
  0
SEQEND
  5
8A5
  8
0
 62
     9
  0
ENDBLK
  5
8A8
  8
0
  0
BLOCK
  8
0
  2
E3_NODE_33_
 70
     0
 10
0.0
 20
0.0
 30
0.0
  3
E3_NODE_33_
  1

  0
POLYLINE
  5
8AA
  8
0
 62
     9
 66
     1
 10
0.0
 20
0.0
 30
0.0
 70
    64
 71
    44
 72
    42
  0
VERTEX
  5
8AB
  8
0
 10
91.44599914550781
 20
-17.83399963378906
 30
100.0
 70
   192
  0
VERTEX
  5
8AC
  8
0
 10
88.6729965209961
 20
-18.69099998474121
 30
90.00499725341797
 70
   192
  0
VERTEX
  5
8AD
  8
0
 10
89.21900177001953
 20
-18.5620002746582
 30
90.00499725341797
 70
   192
  0
VERTEX
  5
8AE
  8
0
 10
84.28700256347656
 20
-19.09099960327148
 30
100.0
 70
   192
  0
VERTEX
  5
8AF
  8
0
 10
84.28700256347656
 20
-19.09099960327148
 30
90.00499725341797
 70
   192
  0
VERTEX
  5
8B0
  8
0
 10
99.19300079345703
 20
-12.02600002288818
 30
100.0
 70
   192
  0
VERTEX
  5
8B1
  8
0
 10
97.77799987792969
 20
-13.48200035095215
 30
90.00499725341797
 70
   192
  0
VERTEX
  5
8B2
  8
0
 10
98.53299713134766
 20
-12.8120002746582
 30
90.00499725341797
 70
   192
  0
VERTEX
  5
8B3
  8
0
 10
95.08799743652344
 20
-15.86800003051758
 30
90.00499725341797
 70
   192
  0
VERTEX
  5
8B4
  8
0
 10
91.39600372314453
 20
-17.70599937438965
 30
90.00499725341797
 70
   192
  0
VERTEX
  5
8B5
  8
0
 10
91.46299743652344
 20
-17.67900085449219
 30
90.00499725341797
 70
   192
  0
VERTEX
  5
8B6
  8
0
 10
93.3479995727539
 20
-16.9379997253418
 30
90.00499725341797
 70
   192
  0
VERTEX
  5
8B7
  8
0
 10
103.1080017089844
 20
-3.224999904632568
 30
100.0
 70
   192
  0
VERTEX
  5
8B8
  8
0
 10
101.984001159668
 20
-7.210000038146973
 30
90.00499725341797
 70
   192
  0
VERTEX
  5
8B9
  8
0
 10
102.5849990844727
 20
-5.494999885559082
 30
90.00499725341797
 70
   192
  0
VERTEX
  5
8BA
  8
0
 10
99.70700073242188
 20
-11.35000038146973
 30
90.00499725341797
 70
   192
  0
VERTEX
  5
8BB
  8
0
 10
101.9440002441406
 20
-7.323999881744385
 30
90.00499725341797
 70
   192
  0
VERTEX
  5
8BC
  8
0
 10
99.17500305175781
 20
-12.01200008392334
 30
90.00499725341797
 70
   192
  0
VERTEX
  5
8BD
  8
0
 10
102.0869979858398
 20
6.961999893188477
 30
100.0
 70
   192
  0
VERTEX
  5
8BE
  8
0
 10
102.8280029296875
 20
4.592000007629395
 30
90.00499725341797
 70
   192
  0
VERTEX
  5
8BF
  8
0
 10
102.5849990844727
 20
5.494999885559082
 30
90.00499725341797
 70
   192
  0
VERTEX
  5
8C0
  8
0
 10
102.7839965820312
 20
0.0060000000521541
 30
100.0
 70
   192
  0
VERTEX
  5
8C1
  8
0
 10
103.3769989013672
 20
0.0
 30
90.00499725341797
 70
   192
  0
VERTEX
  5
8C2
  8
0
 10
102.9720001220703
 20
-3.20199990272522
 30
90.00499725341797
 70
   192
  0
VERTEX
  5
8C3
  8
0
 10
103.3550033569336
 20
-0.9340000152587891
 30
90.00499725341797
 70
   192
  0
VERTEX
  5
8C4
  8
0
 10
96.35199737548828
 20
14.91399955749512
 30
100.0
 70
   192
  0
VERTEX
  5
8C5
  8
0
 10
97.80899810791016
 20
13.39599990844727
 30
90.00499725341797
 70
   192
  0
VERTEX
  5
8C6
  8
0
 10
96.57599639892578
 20
14.72700023651123
 30
90.00499725341797
 70
   192
  0
VERTEX
  5
8C7
  8
0
 10
99.70700073242188
 20
11.35000038146973
 30
90.00499725341797
 70
   192
  0
VERTEX
  5
8C8
  8
0
 10
100.7639999389648
 20
9.72599983215332
 30
90.00499725341797
 70
   192
  0
VERTEX
  5
8C9
  8
0
 10
101.9739990234375
 20
6.913000106811523
 30
90.00499725341797
 70
   192
  0
VERTEX
  5
8CA
  8
0
 10
101.8880004882812
 20
7.114999771118164
 30
90.00499725341797
 70
   192
  0
VERTEX
  5
8CB
  8
0
 10
96.34400177001953
 20
14.9040002822876
 30
90.00499725341797
 70
   192
  0
VERTEX
  5
8CC
  8
0
 10
95.08899688720703
 20
15.86800003051758
 30
90.00499725341797
 70
   192
  0
VERTEX
  5
8CD
  8
0
 10
94.95800018310547
 20
15.95699977874756
 30
100.0
 70
   192
  0
VERTEX
  5
8CE
  8
0
 10
91.61399841308594
 20
17.70700073242188
 30
90.00399780273438
 70
   192
  0
VERTEX
  5
8CF
  8
0
 10
91.16699981689453
 20
17.94400024414062
 30
90.00399780273438
 70
   192
  0
VERTEX
  5
8D0
  8
0
 10
87.0270004272461
 20
18.96500015258789
 30
100.0
 70
   192
  0
VERTEX
  5
8D1
  8
0
 10
94.94999694824219
 20
15.94099998474121
 30
90.00499725341797
 70
   192
  0
VERTEX
  5
8D2
  8
0
 10
89.21900177001953
 20
18.5620002746582
 30
90.00499725341797
 70
   192
  0
VERTEX
  5
8D3
  8
0
 10
87.01100158691406
 20
18.82799911499023
 30
90.00499725341797
 70
   192
  0
VERTEX
  5
8D4
  8
0
 10
84.84100341796875
 20
19.0890007019043
 30
90.00499725341797
 70
   192
  0
VERTEX
  5
8D5
  8
0
 10
84.28700256347656
 20
19.09099960327148
 30
100.0
 70
   192
  0
VERTEX
  5
8D6
  8
0
 10
84.28700256347656
 20
19.09099960327148
 30
90.00499725341797
 70
   192
  0
VERTEX
  5
8D7
  8
0
 62
     9
 10
0.0
 20
0.0
 30
0.0
 70
   128
 71
     3
 72
     2
 73
     1
  0
VERTEX
  5
8D8
  8
0
 62
     9
 10
0.0
 20
0.0
 30
0.0
 70
   128
 71
     2
 72
     5
 73
     4
  0
VERTEX
  5
8D9
  8
0
 62
     9
 10
0.0
 20
0.0
 30
0.0
 70
   128
 71
     4
 72
     1
 73
     2
  0
VERTEX
  5
8DA
  8
0
 62
     9
 10
0.0
 20
0.0
 30
0.0
 70
   128
 71
     8
 72
     7
 73
     6
  0
VERTEX
  5
8DB
  8
0
 62
     9
 10
0.0
 20
0.0
 30
0.0
 70
   128
 71
     9
 72
     1
 73
     6
  0
VERTEX
  5
8DC
  8
0
 62
     9
 10
0.0
 20
0.0
 30
0.0
 70
   128
 71
     6
 72
     7
 73
     9
  0
VERTEX
  5
8DD
  8
0
 62
     9
 10
0.0
 20
0.0
 30
0.0
 70
   128
 71
    11
 72
    10
 73
     1
  0
VERTEX
  5
8DE
  8
0
 62
     9
 10
0.0
 20
0.0
 30
0.0
 70
   128
 71
     1
 72
    12
 73
    11
  0
VERTEX
  5
8DF
  8
0
 62
     9
 10
0.0
 20
0.0
 30
0.0
 70
   128
 71
     1
 72
     9
 73
    12
  0
VERTEX
  5
8E0
  8
0
 62
     9
 10
0.0
 20
0.0
 30
0.0
 70
   128
 71
    15
 72
    14
 73
    13
  0
VERTEX
  5
8E1
  8
0
 62
     9
 10
0.0
 20
0.0
 30
0.0
 70
   128
 71
    17
 72
    16
 73
     6
  0
VERTEX
  5
8E2
  8
0
 62
     9
 10
0.0
 20
0.0
 30
0.0
 70
   128
 71
     6
 72
    13
 73
    17
  0
VERTEX
  5
8E3
  8
0
 62
     9
 10
0.0
 20
0.0
 30
0.0
 70
   128
 71
    13
 72
    14
 73
    17
  0
VERTEX
  5
8E4
  8
0
 62
     9
 10
0.0
 20
0.0
 30
0.0
 70
   128
 71
    16
 72
    18
 73
     6
  0
VERTEX
  5
8E5
  8
0
 62
     9
 10
0.0
 20
0.0
 30
0.0
 70
   128
 71
    21
 72
    20
 73
    19
  0
VERTEX
  5
8E6
  8
0
 62
     9
 10
0.0
 20
0.0
 30
0.0
 70
   128
 71
    20
 72
    23
 73
    22
  0
VERTEX
  5
8E7
  8
0
 62
     9
 10
0.0
 20
0.0
 30
0.0
 70
   128
 71
    25
 72
    24
 73
    13
  0
VERTEX
  5
8E8
  8
0
 62
     9
 10
0.0
 20
0.0
 30
0.0
 70
   128
 71
    13
 72
    22
 73
    25
  0
VERTEX
  5
8E9
  8
0
 62
     9
 10
0.0
 20
0.0
 30
0.0
 70
   128
 71
    22
 72
    23
 73
    25
  0
VERTEX
  5
8EA
  8
0
 62
     9
 10
0.0
 20
0.0
 30
0.0
 70
   128
 71
    22
 72
    19
 73
    20
  0
VERTEX
  5
8EB
  8
0
 62
     9
 10
0.0
 20
0.0
 30
0.0
 70
   128
 71
    28
 72
    27
 73
    26
  0
VERTEX
  5
8EC
  8
0
 62
     9
 10
0.0
 20
0.0
 30
0.0
 70
   128
 71
    27
 72
    29
 73
    26
  0
VERTEX
  5
8ED
  8
0
 62
     9
 10
0.0
 20
0.0
 30
0.0
 70
   128
 71
    29
 72
    30
 73
    19
  0
VERTEX
  5
8EE
  8
0
 62
     9
 10
0.0
 20
0.0
 30
0.0
 70
   128
 71
    32
 72
    31
 73
    19
  0
VERTEX
  5
8EF
  8
0
 62
     9
 10
0.0
 20
0.0
 30
0.0
 70
   128
 71
    19
 72
    30
 73
    32
  0
VERTEX
  5
8F0
  8
0
 62
     9
 10
0.0
 20
0.0
 30
0.0
 70
   128
 71
    19
 72
    26
 73
    29
  0
VERTEX
  5
8F1
  8
0
 62
     9
 10
0.0
 20
0.0
 30
0.0
 70
   128
 71
    34
 72
    33
 73
    26
  0
VERTEX
  5
8F2
  8
0
 62
     9
 10
0.0
 20
0.0
 30
0.0
 70
   128
 71
    26
 72
    35
 73
    34
  0
VERTEX
  5
8F3
  8
0
 62
     9
 10
0.0
 20
0.0
 30
0.0
 70
   128
 71
    37
 72
    36
 73
    35
  0
VERTEX
  5
8F4
  8
0
 62
     9
 10
0.0
 20
0.0
 30
0.0
 70
   128
 71
    35
 72
    38
 73
    37
  0
VERTEX
  5
8F5
  8
0
 62
     9
 10
0.0
 20
0.0
 30
0.0
 70
   128
 71
    36
 72
    39
 73
    35
  0
VERTEX
  5
8F6
  8
0
 62
     9
 10
0.0
 20
0.0
 30
0.0
 70
   128
 71
    38
 72
    40
 73
    37
  0
VERTEX
  5
8F7
  8
0
 62
     9
 10
0.0
 20
0.0
 30
0.0
 70
   128
 71
    42
 72
    41
 73
    38
  0
VERTEX
  5
8F8
  8
0
 62
     9
 10
0.0
 20
0.0
 30
0.0
 70
   128
 71
    38
 72
    43
 73
    42
  0
VERTEX
  5
8F9
  8
0
 62
     9
 10
0.0
 20
0.0
 30
0.0
 70
   128
 71
    43
 72
    44
 73
    42
  0
VERTEX
  5
8FA
  8
0
 62
     9
 10
0.0
 20
0.0
 30
0.0
 70
   128
 71
    38
 72
    41
 73
    40
  0
VERTEX
  5
8FB
  8
0
 62
     9
 10
0.0
 20
0.0
 30
0.0
 70
   128
 71
    35
 72
    39
 73
    34
  0
VERTEX
  5
8FC
  8
0
 62
     9
 10
0.0
 20
0.0
 30
0.0
 70
   128
 71
    26
 72
    33
 73
    28
  0
VERTEX
  5
8FD
  8
0
 62
     9
 10
0.0
 20
0.0
 30
0.0
 70
   128
 71
    19
 72
    31
 73
    21
  0
VERTEX
  5
8FE
  8
0
 62
     9
 10
0.0
 20
0.0
 30
0.0
 70
   128
 71
    13
 72
    24
 73
    15
  0
VERTEX
  5
8FF
  8
0
 62
     9
 10
0.0
 20
0.0
 30
0.0
 70
   128
 71
     6
 72
    18
 73
     8
  0
VERTEX
  5
900
  8
0
 62
     9
 10
0.0
 20
0.0
 30
0.0
 70
   128
 71
     1
 72
    10
 73
     3
  0
SEQEND
  5
901
  8
0
 62
     9
  0
ENDBLK
  5
904
  8
0
  0
BLOCK
  8
0
  2
E3_NODE_34_
 70
     0
 10
0.0
 20
0.0
 30
0.0
  3
E3_NODE_34_
  1

  0
POLYLINE
  5
906
  8
0
 62
     9
 66
     1
 10
0.0
 20
0.0
 30
0.0
 70
    64
 71
    85
 72
   109
  0
VERTEX
  5
907
  8
0
 10
26.61000061035156
 20
-13.81599998474121
 30
79.47599792480469
 70
   192
  0
VERTEX
  5
908
  8
0
 10
32.20500183105469
 20
-13.09000015258789
 30
81.38300323486328
 70
   192
  0
VERTEX
  5
909
  8
0
 10
27.40999984741211
 20
-16.92700004577637
 30
85.18099975585938
 70
   192
  0
VERTEX
  5
90A
  8
0
 10
20.61899948120117
 20
-15.52400016784668
 30
74.39299774169922
 70
   192
  0
VERTEX
  5
90B
  8
0
 10
15.58300018310547
 20
-19.58300018310547
 30
75.33799743652344
 70
   192
  0
VERTEX
  5
90C
  8
0
 10
17.94499969482422
 20
-17.59499931335449
 30
70.11900329589844
 70
   192
  0
VERTEX
  5
90D
  8
0
 10
16.65800094604492
 20
-19.32999992370605
 30
81.48300170898438
 70
   192
  0
VERTEX
  5
90E
  8
0
 10
14.2790002822876
 20
-20.68099975585938
 30
78.22200012207031
 70
   192
  0
VERTEX
  5
90F
  8
0
 10
13.73600006103516
 20
-20.98299980163574
 30
79.35399627685547
 70
   192
  0
VERTEX
  5
910
  8
0
 10
31.73399925231934
 20
-4.61299991607666
 30
74.69400024414062
 70
   192
  0
VERTEX
  5
911
  8
0
 10
32.50699996948242
 20
0.0
 30
74.21199798583984
 70
   192
  0
VERTEX
  5
912
  8
0
 10
34.90200042724609
 20
0.0
 30
75.8290023803711
 70
   192
  0
VERTEX
  5
913
  8
0
 10
32.39099884033203
 20
0.0
 30
74.13400268554688
 70
   192
  0
VERTEX
  5
914
  8
0
 10
37.42900085449219
 20
-4.236000061035156
 30
77.5479965209961
 70
   192
  0
VERTEX
  5
915
  8
0
 10
25.22400093078613
 20
0.0
 30
60.44900131225586
 70
   192
  0
VERTEX
  5
916
  8
0
 10
24.54400062561035
 20
-5.650000095367432
 30
61.54199981689453
 70
   192
  0
VERTEX
  5
917
  8
0
 10
24.29199981689453
 20
-5.743000030517578
 30
56.47000122070312
 70
   192
  0
VERTEX
  5
918
  8
0
 10
24.72900009155273
 20
-3.723000049591064
 30
55.55599975585938
 70
   192
  0
VERTEX
  5
919
  8
0
 10
24.98900032043457
 20
-0.1030000001192093
 30
55.01499938964844
 70
   192
  0
VERTEX
  5
91A
  8
0
 10
22.13100051879883
 20
-17.60199928283691
 30
84.0780029296875
 70
   192
  0
VERTEX
  5
91B
  8
0
 10
21.98100090026855
 20
-19.93400001525879
 30
90.00499725341797
 70
   192
  0
VERTEX
  5
91C
  8
0
 10
20.11899948120117
 20
-19.95999908447266
 30
90.00499725341797
 70
   192
  0
VERTEX
  5
91D
  8
0
 10
53.73500061035156
 20
-16.23399925231934
 30
86.44100189208984
 70
   192
  0
VERTEX
  5
91E
  8
0
 10
36.73799896240234
 20
-16.46699905395508
 30
85.98799896240234
 70
   192
  0
VERTEX
  5
91F
  8
0
 10
41.33700180053711
 20
-12.55300045013428
 30
82.66200256347656
 70
   192
  0
VERTEX
  5
920
  8
0
 10
84.28700256347656
 20
-15.39999961853027
 30
85.84400177001953
 70
   192
  0
VERTEX
  5
921
  8
0
 10
84.28700256347656
 20
-15.58899974822998
 30
86.05699920654297
 70
   192
  0
VERTEX
  5
922
  8
0
 10
57.00600051879883
 20
-12.2519998550415
 30
83.30000305175781
 70
   192
  0
VERTEX
  5
923
  8
0
 10
84.28700256347656
 20
-12.14999961853027
 30
83.54199981689453
 70
   192
  0
VERTEX
  5
924
  8
0
 10
50.16600036621094
 20
-19.55299949645996
 30
90.00499725341797
 70
   192
  0
VERTEX
  5
925
  8
0
 10
31.64299964904785
 20
-19.80299949645996
 30
90.00499725341797
 70
   192
  0
VERTEX
  5
926
  8
0
 10
84.28700256347656
 20
-19.09099960327148
 30
90.00499725341797
 70
   192
  0
VERTEX
  5
927
  8
0
 10
22.98100090026855
 20
-14.6560001373291
 30
77.0790023803711
 70
   192
  0
VERTEX
  5
928
  8
0
 10
18.87800025939941
 20
-18.43199920654297
 30
82.7969970703125
 70
   192
  0
VERTEX
  5
929
  8
0
 10
11.79599952697754
 20
-22.23399925231934
 30
90.00499725341797
 70
   192
  0
VERTEX
  5
92A
  8
0
 10
8.616000175476074
 20
-23.60300064086914
 30
90.00499725341797
 70
   192
  0
VERTEX
  5
92B
  8
0
 10
10.09000015258789
 20
-23.01199913024902
 30
86.95999908447266
 70
   192
  0
VERTEX
  5
92C
  8
0
 10
11.97999954223633
 20
-22.16799926757812
 30
90.00499725341797
 70
   192
  0
VERTEX
  5
92D
  8
0
 10
16.9330005645752
 20
-20.47400093078613
 30
90.00499725341797
 70
   192
  0
VERTEX
  5
92E
  8
0
 10
16.57699966430664
 20
-20.5310001373291
 30
90.00499725341797
 70
   192
  0
VERTEX
  5
92F
  8
0
 10
20.71100044250488
 20
-14.19900035858154
 30
64.09400177001953
 70
   192
  0
VERTEX
  5
930
  8
0
 10
23.05200004577637
 20
-10.19999980926514
 30
64.23300170898438
 70
   192
  0
VERTEX
  5
931
  8
0
 10
24.20199966430664
 20
-9.678000450134277
 30
68.55899810791016
 70
   192
  0
VERTEX
  5
932
  8
0
 10
20.7140007019043
 20
-14.19499969482422
 30
64.08799743652344
 70
   192
  0
VERTEX
  5
933
  8
0
 10
22.66699981689453
 20
-10.68400001525879
 30
59.9010009765625
 70
   192
  0
VERTEX
  5
934
  8
0
 10
22.74600028991699
 20
-10.54199981689453
 30
59.73099899291992
 70
   192
  0
VERTEX
  5
935
  8
0
 10
25.61000061035156
 20
-5.372000217437744
 30
66.4520034790039
 70
   192
  0
VERTEX
  5
936
  8
0
 10
26.32200050354004
 20
0.0
 30
65.91699981689453
 70
   192
  0
VERTEX
  5
937
  8
0
 10
28.53400039672852
 20
0.0
 30
70.2760009765625
 70
   192
  0
VERTEX
  5
938
  8
0
 10
26.25
 20
0.0
 30
65.59600067138672
 70
   192
  0
VERTEX
  5
939
  8
0
 10
22.75799942016602
 20
-10.51900005340576
 30
59.70399856567383
 70
   192
  0
VERTEX
  5
93A
  8
0
 10
23.97599983215332
 20
-7.209000110626221
 30
57.13299942016602
 70
   192
  0
VERTEX
  5
93B
  8
0
 10
25.25399971008301
 20
0.0
 30
61.18999862670898
 70
   192
  0
VERTEX
  5
93C
  8
0
 10
25.22500038146973
 20
0.0
 30
60.48099899291992
 70
   192
  0
VERTEX
  5
93D
  8
0
 10
27.93600082397461
 20
-5.008999824523926
 30
70.91799926757812
 70
   192
  0
VERTEX
  5
93E
  8
0
 10
28.59700012207031
 20
0.0
 30
70.34700012207031
 70
   192
  0
VERTEX
  5
93F
  8
0
 10
31.4379997253418
 20
0.0
 30
73.48999786376953
 70
   192
  0
VERTEX
  5
940
  8
0
 10
30.35400009155273
 20
-8.380999565124512
 30
75.9280014038086
 70
   192
  0
VERTEX
  5
941
  8
0
 10
22.47100067138672
 20
-12.96300029754639
 30
71.2959976196289
 70
   192
  0
VERTEX
  5
942
  8
0
 10
26.56100082397461
 20
-9.045999526977539
 30
72.53600311279297
 70
   192
  0
VERTEX
  5
943
  8
0
 10
18.4640007019043
 20
-16.95800018310547
 30
68.98799896240234
 70
   192
  0
VERTEX
  5
944
  8
0
 10
46.15700149536133
 20
-3.927999973297119
 30
79.3489990234375
 70
   192
  0
VERTEX
  5
945
  8
0
 10
47.08100128173828
 20
0.0
 30
79.06600189208984
 70
   192
  0
VERTEX
  5
946
  8
0
 10
57.49399948120117
 20
0.0
 30
79.7760009765625
 70
   192
  0
VERTEX
  5
947
  8
0
 10
46.6870002746582
 20
0.0
 30
79.03900146484375
 70
   192
  0
VERTEX
  5
948
  8
0
 10
59.51300048828125
 20
-6.978000164031982
 30
80.90899658203125
 70
   192
  0
VERTEX
  5
949
  8
0
 10
44.94100189208984
 20
-7.276000022888184
 30
80.16000366210938
 70
   192
  0
VERTEX
  5
94A
  8
0
 10
36.06999969482422
 20
-7.765999794006348
 30
78.51300048828125
 70
   192
  0
VERTEX
  5
94B
  8
0
 10
40.25299835205078
 20
0.0
 30
77.85800170898438
 70
   192
  0
VERTEX
  5
94C
  8
0
 10
38.08200073242188
 20
0.0
 30
77.03399658203125
 70
   192
  0
VERTEX
  5
94D
  8
0
 10
38.28799819946289
 20
0.0
 30
77.11299896240234
 70
   192
  0
VERTEX
  5
94E
  8
0
 10
84.28700256347656
 20
-5.035999774932861
 30
80.66799926757812
 70
   192
  0
VERTEX
  5
94F
  8
0
 10
60.67300033569336
 20
0.0
 30
79.8030014038086
 70
   192
  0
VERTEX
  5
950
  8
0
 10
84.28700256347656
 20
-1.345000028610229
 30
80.03900146484375
 70
   192
  0
VERTEX
  5
951
  8
0
 10
84.28700256347656
 20
-0.3030000030994415
 30
80.00299835205078
 70
   192
  0
VERTEX
  5
952
  8
0
 10
84.28700256347656
 20
-0.4399999976158142
 30
80.00499725341797
 70
   192
  0
VERTEX
  5
953
  8
0
 10
61.43199920654297
 20
0.0
 30
79.80899810791016
 70
   192
  0
VERTEX
  5
954
  8
0
 10
84.28700256347656
 20
0.0
 30
80.0
 70
   192
  0
VERTEX
  5
955
  8
0
 10
84.28700256347656
 20
-0.5
 30
80.00599670410156
 70
   192
  0
VERTEX
  5
956
  8
0
 10
84.28700256347656
 20
-6.406000137329102
 30
80.9010009765625
 70
   192
  0
VERTEX
  5
957
  8
0
 10
84.28700256347656
 20
-10.5600004196167
 30
82.6259994506836
 70
   192
  0
VERTEX
  5
958
  8
0
 10
84.28700256347656
 20
-6.903999805450439
 30
81.10800170898438
 70
   192
  0
VERTEX
  5
959
  8
0
 10
84.28700256347656
 20
-11.27799987792969
 30
82.92400360107422
 70
   192
  0
VERTEX
  5
95A
  8
0
 10
84.28700256347656
 20
-16.10400009155273
 30
86.63700103759766
 70
   192
  0
VERTEX
  5
95B
  8
0
 10
24.99699974060059
 20
0.0
 30
55.0
 70
   192
  0
VERTEX
  5
95C
  8
0
 62
     9
 10
0.0
 20
0.0
 30
0.0
 70
   128
 71
     3
 72
     2
 73
     1
  0
VERTEX
  5
95D
  8
0
 62
     9
 10
0.0
 20
0.0
 30
0.0
 70
   128
 71
     6
 72
     5
 73
     4
  0
VERTEX
  5
95E
  8
0
 62
     9
 10
0.0
 20
0.0
 30
0.0
 70
   128
 71
     5
 72
     8
 73
     7
  0
VERTEX
  5
95F
  8
0
 62
     9
 10
0.0
 20
0.0
 30
0.0
 70
   128
 71
     8
 72
     9
 73
     7
  0
VERTEX
  5
960
  8
0
 62
     9
 10
0.0
 20
0.0
 30
0.0
 70
   128
 71
     7
 72
     4
 73
     5
  0
VERTEX
  5
961
  8
0
 62
     9
 10
0.0
 20
0.0
 30
0.0
 70
   128
 71
    12
 72
    11
 73
    10
  0
VERTEX
  5
962
  8
0
 62
     9
 10
0.0
 20
0.0
 30
0.0
 70
   128
 71
    11
 72
    13
 73
    10
  0
VERTEX
  5
963
  8
0
 62
     9
 10
0.0
 20
0.0
 30
0.0
 70
   128
 71
    10
 72
    14
 73
    12
  0
VERTEX
  5
964
  8
0
 62
     9
 10
0.0
 20
0.0
 30
0.0
 70
   128
 71
    17
 72
    16
 73
    15
  0
VERTEX
  5
965
  8
0
 62
     9
 10
0.0
 20
0.0
 30
0.0
 70
   128
 71
    15
 72
    18
 73
    17
  0
VERTEX
  5
966
  8
0
 62
     9
 10
0.0
 20
0.0
 30
0.0
 70
   128
 71
    15
 72
    19
 73
    18
  0
VERTEX
  5
967
  8
0
 62
     9
 10
0.0
 20
0.0
 30
0.0
 70
   128
 71
    21
 72
     3
 73
    20
  0
VERTEX
  5
968
  8
0
 62
     9
 10
0.0
 20
0.0
 30
0.0
 70
   128
 71
    20
 72
    22
 73
    21
  0
VERTEX
  5
969
  8
0
 62
     9
 10
0.0
 20
0.0
 30
0.0
 70
   128
 71
    25
 72
    24
 73
    23
  0
VERTEX
  5
96A
  8
0
 62
     9
 10
0.0
 20
0.0
 30
0.0
 70
   128
 71
    24
 72
    25
 73
     2
  0
VERTEX
  5
96B
  8
0
 62
     9
 10
0.0
 20
0.0
 30
0.0
 70
   128
 71
    27
 72
    26
 73
    23
  0
VERTEX
  5
96C
  8
0
 62
     9
 10
0.0
 20
0.0
 30
0.0
 70
   128
 71
    28
 72
    23
 73
    26
  0
VERTEX
  5
96D
  8
0
 62
     9
 10
0.0
 20
0.0
 30
0.0
 70
   128
 71
    26
 72
    29
 73
    28
  0
VERTEX
  5
96E
  8
0
 62
     9
 10
0.0
 20
0.0
 30
0.0
 70
   128
 71
    24
 72
    31
 73
    30
  0
VERTEX
  5
96F
  8
0
 62
     9
 10
0.0
 20
0.0
 30
0.0
 70
   128
 71
    31
 72
    24
 73
     3
  0
VERTEX
  5
970
  8
0
 62
     9
 10
0.0
 20
0.0
 30
0.0
 70
   128
 71
    23
 72
    30
 73
    32
  0
VERTEX
  5
971
  8
0
 62
     9
 10
0.0
 20
0.0
 30
0.0
 70
   128
 71
    34
 72
    33
 73
     4
  0
VERTEX
  5
972
  8
0
 62
     9
 10
0.0
 20
0.0
 30
0.0
 70
   128
 71
    37
 72
    36
 73
    35
  0
VERTEX
  5
973
  8
0
 62
     9
 10
0.0
 20
0.0
 30
0.0
 70
   128
 71
    38
 72
     7
 73
     9
  0
VERTEX
  5
974
  8
0
 62
     9
 10
0.0
 20
0.0
 30
0.0
 70
   128
 71
     9
 72
    35
 73
    38
  0
VERTEX
  5
975
  8
0
 62
     9
 10
0.0
 20
0.0
 30
0.0
 70
   128
 71
    39
 72
    20
 73
    34
  0
VERTEX
  5
976
  8
0
 62
     9
 10
0.0
 20
0.0
 30
0.0
 70
   128
 71
    40
 72
    34
 73
     7
  0
VERTEX
  5
977
  8
0
 62
     9
 10
0.0
 20
0.0
 30
0.0
 70
   128
 71
     7
 72
    38
 73
    40
  0
VERTEX
  5
978
  8
0
 62
     9
 10
0.0
 20
0.0
 30
0.0
 70
   128
 71
    20
 72
     1
 73
    33
  0
VERTEX
  5
979
  8
0
 62
     9
 10
0.0
 20
0.0
 30
0.0
 70
   128
 71
    43
 72
    42
 73
    41
  0
VERTEX
  5
97A
  8
0
 62
     9
 10
0.0
 20
0.0
 30
0.0
 70
   128
 71
    44
 72
    41
 73
    42
  0
VERTEX
  5
97B
  8
0
 62
     9
 10
0.0
 20
0.0
 30
0.0
 70
   128
 71
    42
 72
    45
 73
    44
  0
VERTEX
  5
97C
  8
0
 62
     9
 10
0.0
 20
0.0
 30
0.0
 70
   128
 71
    42
 72
    46
 73
    45
  0
VERTEX
  5
97D
  8
0
 62
     9
 10
0.0
 20
0.0
 30
0.0
 70
   128
 71
    49
 72
    48
 73
    47
  0
VERTEX
  5
97E
  8
0
 62
     9
 10
0.0
 20
0.0
 30
0.0
 70
   128
 71
    48
 72
    50
 73
    47
  0
VERTEX
  5
97F
  8
0
 62
     9
 10
0.0
 20
0.0
 30
0.0
 70
   128
 71
    52
 72
    51
 73
    16
  0
VERTEX
  5
980
  8
0
 62
     9
 10
0.0
 20
0.0
 30
0.0
 70
   128
 71
    46
 72
    42
 73
    16
  0
VERTEX
  5
981
  8
0
 62
     9
 10
0.0
 20
0.0
 30
0.0
 70
   128
 71
    16
 72
    51
 73
    46
  0
VERTEX
  5
982
  8
0
 62
     9
 10
0.0
 20
0.0
 30
0.0
 70
   128
 71
    50
 72
    53
 73
    16
  0
VERTEX
  5
983
  8
0
 62
     9
 10
0.0
 20
0.0
 30
0.0
 70
   128
 71
    54
 72
    15
 73
    16
  0
VERTEX
  5
984
  8
0
 62
     9
 10
0.0
 20
0.0
 30
0.0
 70
   128
 71
    16
 72
    53
 73
    54
  0
VERTEX
  5
985
  8
0
 62
     9
 10
0.0
 20
0.0
 30
0.0
 70
   128
 71
    42
 72
    43
 73
    47
  0
VERTEX
  5
986
  8
0
 62
     9
 10
0.0
 20
0.0
 30
0.0
 70
   128
 71
    55
 72
    47
 73
    43
  0
VERTEX
  5
987
  8
0
 62
     9
 10
0.0
 20
0.0
 30
0.0
 70
   128
 71
    57
 72
    56
 73
    55
  0
VERTEX
  5
988
  8
0
 62
     9
 10
0.0
 20
0.0
 30
0.0
 70
   128
 71
    56
 72
    49
 73
    55
  0
VERTEX
  5
989
  8
0
 62
     9
 10
0.0
 20
0.0
 30
0.0
 70
   128
 71
    55
 72
    10
 73
    57
  0
VERTEX
  5
98A
  8
0
 62
     9
 10
0.0
 20
0.0
 30
0.0
 70
   128
 71
    58
 72
    10
 73
    55
  0
VERTEX
  5
98B
  8
0
 62
     9
 10
0.0
 20
0.0
 30
0.0
 70
   128
 71
    59
 72
     4
 73
    33
  0
VERTEX
  5
98C
  8
0
 62
     9
 10
0.0
 20
0.0
 30
0.0
 70
   128
 71
    33
 72
    60
 73
    59
  0
VERTEX
  5
98D
  8
0
 62
     9
 10
0.0
 20
0.0
 30
0.0
 70
   128
 71
    61
 72
     4
 73
    59
  0
VERTEX
  5
98E
  8
0
 62
     9
 10
0.0
 20
0.0
 30
0.0
 70
   128
 71
     1
 72
    58
 73
    60
  0
VERTEX
  5
98F
  8
0
 62
     9
 10
0.0
 20
0.0
 30
0.0
 70
   128
 71
    64
 72
    63
 73
    62
  0
VERTEX
  5
990
  8
0
 62
     9
 10
0.0
 20
0.0
 30
0.0
 70
   128
 71
    63
 72
    65
 73
    62
  0
VERTEX
  5
991
  8
0
 62
     9
 10
0.0
 20
0.0
 30
0.0
 70
   128
 71
    62
 72
    66
 73
    64
  0
VERTEX
  5
992
  8
0
 62
     9
 10
0.0
 20
0.0
 30
0.0
 70
   128
 71
    62
 72
    67
 73
    66
  0
VERTEX
  5
993
  8
0
 62
     9
 10
0.0
 20
0.0
 30
0.0
 70
   128
 71
     2
 72
    68
 73
    58
  0
VERTEX
  5
994
  8
0
 62
     9
 10
0.0
 20
0.0
 30
0.0
 70
   128
 71
    69
 72
    14
 73
    62
  0
VERTEX
  5
995
  8
0
 62
     9
 10
0.0
 20
0.0
 30
0.0
 70
   128
 71
    71
 72
    70
 73
    14
  0
VERTEX
  5
996
  8
0
 62
     9
 10
0.0
 20
0.0
 30
0.0
 70
   128
 71
    14
 72
    69
 73
    71
  0
VERTEX
  5
997
  8
0
 62
     9
 10
0.0
 20
0.0
 30
0.0
 70
   128
 71
    68
 72
    14
 73
    10
  0
VERTEX
  5
998
  8
0
 62
     9
 10
0.0
 20
0.0
 30
0.0
 70
   128
 71
    67
 72
    62
 73
    14
  0
VERTEX
  5
999
  8
0
 62
     9
 10
0.0
 20
0.0
 30
0.0
 70
   128
 71
    25
 72
    67
 73
    68
  0
VERTEX
  5
99A
  8
0
 62
     9
 10
0.0
 20
0.0
 30
0.0
 70
   128
 71
    67
 72
    25
 73
    28
  0
VERTEX
  5
99B
  8
0
 62
     9
 10
0.0
 20
0.0
 30
0.0
 70
   128
 71
    73
 72
    66
 73
    72
  0
VERTEX
  5
99C
  8
0
 62
     9
 10
0.0
 20
0.0
 30
0.0
 70
   128
 71
    72
 72
    74
 73
    73
  0
VERTEX
  5
99D
  8
0
 62
     9
 10
0.0
 20
0.0
 30
0.0
 70
   128
 71
    76
 72
    75
 73
    73
  0
VERTEX
  5
99E
  8
0
 62
     9
 10
0.0
 20
0.0
 30
0.0
 70
   128
 71
    77
 72
    73
 73
    75
  0
VERTEX
  5
99F
  8
0
 62
     9
 10
0.0
 20
0.0
 30
0.0
 70
   128
 71
    75
 72
    78
 73
    77
  0
VERTEX
  5
9A0
  8
0
 62
     9
 10
0.0
 20
0.0
 30
0.0
 70
   128
 71
    73
 72
    79
 73
    76
  0
VERTEX
  5
9A1
  8
0
 62
     9
 10
0.0
 20
0.0
 30
0.0
 70
   128
 71
    73
 72
    74
 73
    79
  0
VERTEX
  5
9A2
  8
0
 62
     9
 10
0.0
 20
0.0
 30
0.0
 70
   128
 71
    66
 72
    80
 73
    72
  0
VERTEX
  5
9A3
  8
0
 62
     9
 10
0.0
 20
0.0
 30
0.0
 70
   128
 71
    66
 72
    28
 73
    81
  0
VERTEX
  5
9A4
  8
0
 62
     9
 10
0.0
 20
0.0
 30
0.0
 70
   128
 71
    81
 72
    82
 73
    66
  0
VERTEX
  5
9A5
  8
0
 62
     9
 10
0.0
 20
0.0
 30
0.0
 70
   128
 71
    28
 72
    83
 73
    81
  0
VERTEX
  5
9A6
  8
0
 62
     9
 10
0.0
 20
0.0
 30
0.0
 70
   128
 71
    28
 72
    29
 73
    83
  0
VERTEX
  5
9A7
  8
0
 62
     9
 10
0.0
 20
0.0
 30
0.0
 70
   128
 71
    66
 72
    82
 73
    80
  0
VERTEX
  5
9A8
  8
0
 62
     9
 10
0.0
 20
0.0
 30
0.0
 70
   128
 71
    28
 72
    66
 73
    67
  0
VERTEX
  5
9A9
  8
0
 62
     9
 10
0.0
 20
0.0
 30
0.0
 70
   128
 71
    68
 72
     2
 73
    25
  0
VERTEX
  5
9AA
  8
0
 62
     9
 10
0.0
 20
0.0
 30
0.0
 70
   128
 71
    14
 72
    68
 73
    67
  0
VERTEX
  5
9AB
  8
0
 62
     9
 10
0.0
 20
0.0
 30
0.0
 70
   128
 71
    10
 72
    58
 73
    68
  0
VERTEX
  5
9AC
  8
0
 62
     9
 10
0.0
 20
0.0
 30
0.0
 70
   128
 71
    62
 72
    65
 73
    69
  0
VERTEX
  5
9AD
  8
0
 62
     9
 10
0.0
 20
0.0
 30
0.0
 70
   128
 71
    58
 72
     1
 73
     2
  0
VERTEX
  5
9AE
  8
0
 62
     9
 10
0.0
 20
0.0
 30
0.0
 70
   128
 71
    66
 72
    73
 73
    64
  0
VERTEX
  5
9AF
  8
0
 62
     9
 10
0.0
 20
0.0
 30
0.0
 70
   128
 71
    60
 72
    33
 73
     1
  0
VERTEX
  5
9B0
  8
0
 62
     9
 10
0.0
 20
0.0
 30
0.0
 70
   128
 71
    59
 72
    41
 73
    61
  0
VERTEX
  5
9B1
  8
0
 62
     9
 10
0.0
 20
0.0
 30
0.0
 70
   128
 71
    60
 72
    43
 73
    59
  0
VERTEX
  5
9B2
  8
0
 62
     9
 10
0.0
 20
0.0
 30
0.0
 70
   128
 71
    55
 72
    60
 73
    58
  0
VERTEX
  5
9B3
  8
0
 62
     9
 10
0.0
 20
0.0
 30
0.0
 70
   128
 71
    10
 72
    13
 73
    57
  0
VERTEX
  5
9B4
  8
0
 62
     9
 10
0.0
 20
0.0
 30
0.0
 70
   128
 71
    43
 72
    60
 73
    55
  0
VERTEX
  5
9B5
  8
0
 62
     9
 10
0.0
 20
0.0
 30
0.0
 70
   128
 71
    47
 72
    16
 73
    42
  0
VERTEX
  5
9B6
  8
0
 62
     9
 10
0.0
 20
0.0
 30
0.0
 70
   128
 71
    16
 72
    47
 73
    50
  0
VERTEX
  5
9B7
  8
0
 62
     9
 10
0.0
 20
0.0
 30
0.0
 70
   128
 71
    16
 72
    17
 73
    52
  0
VERTEX
  5
9B8
  8
0
 62
     9
 10
0.0
 20
0.0
 30
0.0
 70
   128
 71
    47
 72
    55
 73
    49
  0
VERTEX
  5
9B9
  8
0
 62
     9
 10
0.0
 20
0.0
 30
0.0
 70
   128
 71
    41
 72
    59
 73
    43
  0
VERTEX
  5
9BA
  8
0
 62
     9
 10
0.0
 20
0.0
 30
0.0
 70
   128
 71
    33
 72
    34
 73
    20
  0
VERTEX
  5
9BB
  8
0
 62
     9
 10
0.0
 20
0.0
 30
0.0
 70
   128
 71
    34
 72
    40
 73
    39
  0
VERTEX
  5
9BC
  8
0
 62
     9
 10
0.0
 20
0.0
 30
0.0
 70
   128
 71
    35
 72
     9
 73
    37
  0
VERTEX
  5
9BD
  8
0
 62
     9
 10
0.0
 20
0.0
 30
0.0
 70
   128
 71
     4
 72
     7
 73
    34
  0
VERTEX
  5
9BE
  8
0
 62
     9
 10
0.0
 20
0.0
 30
0.0
 70
   128
 71
    32
 72
    84
 73
    23
  0
VERTEX
  5
9BF
  8
0
 62
     9
 10
0.0
 20
0.0
 30
0.0
 70
   128
 71
     3
 72
    21
 73
    31
  0
VERTEX
  5
9C0
  8
0
 62
     9
 10
0.0
 20
0.0
 30
0.0
 70
   128
 71
    30
 72
    23
 73
    24
  0
VERTEX
  5
9C1
  8
0
 62
     9
 10
0.0
 20
0.0
 30
0.0
 70
   128
 71
    23
 72
    84
 73
    27
  0
VERTEX
  5
9C2
  8
0
 62
     9
 10
0.0
 20
0.0
 30
0.0
 70
   128
 71
     2
 72
     3
 73
    24
  0
VERTEX
  5
9C3
  8
0
 62
     9
 10
0.0
 20
0.0
 30
0.0
 70
   128
 71
    23
 72
    28
 73
    25
  0
VERTEX
  5
9C4
  8
0
 62
     9
 10
0.0
 20
0.0
 30
0.0
 70
   128
 71
    20
 72
    39
 73
    22
  0
VERTEX
  5
9C5
  8
0
 62
     9
 10
0.0
 20
0.0
 30
0.0
 70
   128
 71
    15
 72
    85
 73
    19
  0
VERTEX
  5
9C6
  8
0
 62
     9
 10
0.0
 20
0.0
 30
0.0
 70
   128
 71
    14
 72
    70
 73
    12
  0
VERTEX
  5
9C7
  8
0
 62
     9
 10
0.0
 20
0.0
 30
0.0
 70
   128
 71
     4
 72
    61
 73
     6
  0
VERTEX
  5
9C8
  8
0
 62
     9
 10
0.0
 20
0.0
 30
0.0
 70
   128
 71
     1
 72
    20
 73
     3
  0
SEQEND
  5
9C9
  8
0
 62
     9
  0
ENDBLK
  5
9CC
  8
0
  0
BLOCK
  8
0
  2
E3_NODE_35_
 70
     0
 10
0.0
 20
0.0
 30
0.0
  3
E3_NODE_35_
  1

  0
POLYLINE
  5
9CE
  8
0
 62
     9
 66
     1
 10
0.0
 20
0.0
 30
0.0
 70
    64
 71
    51
 72
    58
  0
VERTEX
  5
9CF
  8
0
 10
95.1729965209961
 20
-10.85200023651123
 30
86.00199890136719
 70
   192
  0
VERTEX
  5
9D0
  8
0
 10
90.06800079345703
 20
-14.36800003051758
 30
86.01499938964844
 70
   192
  0
VERTEX
  5
9D1
  8
0
 10
88.19499969482422
 20
-9.736000061035156
 30
82.54900360107422
 70
   192
  0
VERTEX
  5
9D2
  8
0
 10
91.64700317382812
 20
-7.35099983215332
 30
82.54499816894531
 70
   192
  0
VERTEX
  5
9D3
  8
0
 10
86.20999908447266
 20
-4.722000122070312
 30
80.54299926757812
 70
   192
  0
VERTEX
  5
9D4
  8
0
 10
93.98600006103516
 20
-3.891000032424927
 30
82.54000091552734
 70
   192
  0
VERTEX
  5
9D5
  8
0
 10
87.89099884033203
 20
-3.595999956130981
 30
80.5250015258789
 70
   192
  0
VERTEX
  5
9D6
  8
0
 10
84.7509994506836
 20
-0.1850000023841858
 30
80.0009994506836
 70
   192
  0
VERTEX
  5
9D7
  8
0
 10
84.89199829101562
 20
0.0
 30
80.0009994506836
 70
   192
  0
VERTEX
  5
9D8
  8
0
 10
87.46600341796875
 20
0.0
 30
80.16200256347656
 70
   192
  0
VERTEX
  5
9D9
  8
0
 10
88.99299621582031
 20
-1.914000034332275
 30
80.50800323486328
 70
   192
  0
VERTEX
  5
9DA
  8
0
 10
84.7490005493164
 20
-0.1879999935626984
 30
80.0009994506836
 70
   192
  0
VERTEX
  5
9DB
  8
0
 10
89.3280029296875
 20
0.0
 30
80.62000274658203
 70
   192
  0
VERTEX
  5
9DC
  8
0
 10
84.78700256347656
 20
0.0
 30
80.0009994506836
 70
   192
  0
VERTEX
  5
9DD
  8
0
 10
92.08799743652344
 20
0.0
 30
81.30000305175781
 70
   192
  0
VERTEX
  5
9DE
  8
0
 10
94.8290023803711
 20
0.0
 30
82.66500091552734
 70
   192
  0
VERTEX
  5
9DF
  8
0
 10
96.98400115966797
 20
0.0
 30
83.73799896240234
 70
   192
  0
VERTEX
  5
9E0
  8
0
 10
98.63200378417969
 20
-5.744999885559082
 30
85.98699951171875
 70
   192
  0
VERTEX
  5
9E1
  8
0
 10
99.89900207519531
 20
0.0
 30
86.06300354003906
 70
   192
  0
VERTEX
  5
9E2
  8
0
 10
102.9720001220703
 20
-3.20199990272522
 30
90.00499725341797
 70
   192
  0
VERTEX
  5
9E3
  8
0
 10
102.5849990844727
 20
-5.494999885559082
 30
90.00499725341797
 70
   192
  0
VERTEX
  5
9E4
  8
0
 10
101.0139999389648
 20
0.0
 30
86.9520034790039
 70
   192
  0
VERTEX
  5
9E5
  8
0
 10
103.3769989013672
 20
0.0
 30
90.00499725341797
 70
   192
  0
VERTEX
  5
9E6
  8
0
 10
103.3550033569336
 20
-0.9340000152587891
 30
90.00499725341797
 70
   192
  0
VERTEX
  5
9E7
  8
0
 10
99.17500305175781
 20
-12.01200008392334
 30
90.00499725341797
 70
   192
  0
VERTEX
  5
9E8
  8
0
 10
98.53299713134766
 20
-12.8120002746582
 30
90.00499725341797
 70
   192
  0
VERTEX
  5
9E9
  8
0
 10
101.9440002441406
 20
-7.323999881744385
 30
90.00499725341797
 70
   192
  0
VERTEX
  5
9EA
  8
0
 10
99.70700073242188
 20
-11.35000038146973
 30
90.00499725341797
 70
   192
  0
VERTEX
  5
9EB
  8
0
 10
101.984001159668
 20
-7.210000038146973
 30
90.00499725341797
 70
   192
  0
VERTEX
  5
9EC
  8
0
 10
95.08799743652344
 20
-15.86800003051758
 30
90.00499725341797
 70
   192
  0
VERTEX
  5
9ED
  8
0
 10
93.3479995727539
 20
-16.9379997253418
 30
90.00499725341797
 70
   192
  0
VERTEX
  5
9EE
  8
0
 10
97.77799987792969
 20
-13.48200035095215
 30
90.00499725341797
 70
   192
  0
VERTEX
  5
9EF
  8
0
 10
84.28700256347656
 20
-16.10400009155273
 30
86.63700103759766
 70
   192
  0
VERTEX
  5
9F0
  8
0
 10
88.6729965209961
 20
-18.69099998474121
 30
90.00499725341797
 70
   192
  0
VERTEX
  5
9F1
  8
0
 10
91.39600372314453
 20
-17.70599937438965
 30
90.00499725341797
 70
   192
  0
VERTEX
  5
9F2
  8
0
 10
89.21900177001953
 20
-18.5620002746582
 30
90.00499725341797
 70
   192
  0
VERTEX
  5
9F3
  8
0
 10
84.28700256347656
 20
-19.09099960327148
 30
90.00499725341797
 70
   192
  0
VERTEX
  5
9F4
  8
0
 10
91.46299743652344
 20
-17.67900085449219
 30
90.00499725341797
 70
   192
  0
VERTEX
  5
9F5
  8
0
 10
84.28700256347656
 20
-12.14999961853027
 30
83.54199981689453
 70
   192
  0
VERTEX
  5
9F6
  8
0
 10
84.28700256347656
 20
-11.27799987792969
 30
82.92400360107422
 70
   192
  0
VERTEX
  5
9F7
  8
0
 10
84.28700256347656
 20
-15.58899974822998
 30
86.05699920654297
 70
   192
  0
VERTEX
  5
9F8
  8
0
 10
84.28700256347656
 20
-15.39999961853027
 30
85.84400177001953
 70
   192
  0
VERTEX
  5
9F9
  8
0
 10
84.28700256347656
 20
-6.903999805450439
 30
81.10800170898438
 70
   192
  0
VERTEX
  5
9FA
  8
0
 10
84.28700256347656
 20
-6.406000137329102
 30
80.9010009765625
 70
   192
  0
VERTEX
  5
9FB
  8
0
 10
84.28700256347656
 20
-10.5600004196167
 30
82.6259994506836
 70
   192
  0
VERTEX
  5
9FC
  8
0
 10
84.48600006103516
 20
-0.4639999866485596
 30
80.00499725341797
 70
   192
  0
VERTEX
  5
9FD
  8
0
 10
84.28700256347656
 20
-1.345000028610229
 30
80.03900146484375
 70
   192
  0
VERTEX
  5
9FE
  8
0
 10
84.28700256347656
 20
-5.035999774932861
 30
80.66799926757812
 70
   192
  0
VERTEX
  5
9FF
  8
0
 10
84.28700256347656
 20
-0.5
 30
80.00599670410156
 70
   192
  0
VERTEX
  5
A00
  8
0
 10
84.63899993896484
 20
-0.3529999852180481
 30
80.00299835205078
 70
   192
  0
VERTEX
  5
A01
  8
0
 10
84.6510009765625
 20
-0.3440000116825104
 30
80.00299835205078
 70
   192
  0
VERTEX
  5
A02
  8
0
 62
     9
 10
0.0
 20
0.0
 30
0.0
 70
   128
 71
     3
 72
     2
 73
     1
  0
VERTEX
  5
A03
  8
0
 62
     9
 10
0.0
 20
0.0
 30
0.0
 70
   128
 71
     5
 72
     3
 73
     4
  0
VERTEX
  5
A04
  8
0
 62
     9
 10
0.0
 20
0.0
 30
0.0
 70
   128
 71
     7
 72
     4
 73
     6
  0
VERTEX
  5
A05
  8
0
 62
     9
 10
0.0
 20
0.0
 30
0.0
 70
   128
 71
     6
 72
     4
 73
     1
  0
VERTEX
  5
A06
  8
0
 62
     9
 10
0.0
 20
0.0
 30
0.0
 70
   128
 71
    10
 72
     9
 73
     8
  0
VERTEX
  5
A07
  8
0
 62
     9
 10
0.0
 20
0.0
 30
0.0
 70
   128
 71
     8
 72
    12
 73
    11
  0
VERTEX
  5
A08
  8
0
 62
     9
 10
0.0
 20
0.0
 30
0.0
 70
   128
 71
     8
 72
    11
 73
    10
  0
VERTEX
  5
A09
  8
0
 62
     9
 10
0.0
 20
0.0
 30
0.0
 70
   128
 71
    11
 72
    13
 73
    10
  0
VERTEX
  5
A0A
  8
0
 62
     9
 10
0.0
 20
0.0
 30
0.0
 70
   128
 71
     9
 72
    14
 73
     8
  0
VERTEX
  5
A0B
  8
0
 62
     9
 10
0.0
 20
0.0
 30
0.0
 70
   128
 71
    15
 72
    13
 73
    11
  0
VERTEX
  5
A0C
  8
0
 62
     9
 10
0.0
 20
0.0
 30
0.0
 70
   128
 71
    11
 72
     6
 73
    15
  0
VERTEX
  5
A0D
  8
0
 62
     9
 10
0.0
 20
0.0
 30
0.0
 70
   128
 71
    17
 72
    16
 73
     6
  0
VERTEX
  5
A0E
  8
0
 62
     9
 10
0.0
 20
0.0
 30
0.0
 70
   128
 71
     6
 72
    18
 73
    17
  0
VERTEX
  5
A0F
  8
0
 62
     9
 10
0.0
 20
0.0
 30
0.0
 70
   128
 71
    20
 72
    19
 73
    18
  0
VERTEX
  5
A10
  8
0
 62
     9
 10
0.0
 20
0.0
 30
0.0
 70
   128
 71
    18
 72
    21
 73
    20
  0
VERTEX
  5
A11
  8
0
 62
     9
 10
0.0
 20
0.0
 30
0.0
 70
   128
 71
    24
 72
    23
 73
    22
  0
VERTEX
  5
A12
  8
0
 62
     9
 10
0.0
 20
0.0
 30
0.0
 70
   128
 71
    22
 72
    19
 73
    20
  0
VERTEX
  5
A13
  8
0
 62
     9
 10
0.0
 20
0.0
 30
0.0
 70
   128
 71
    22
 72
    20
 73
    24
  0
VERTEX
  5
A14
  8
0
 62
     9
 10
0.0
 20
0.0
 30
0.0
 70
   128
 71
    26
 72
    25
 73
     1
  0
VERTEX
  5
A15
  8
0
 62
     9
 10
0.0
 20
0.0
 30
0.0
 70
   128
 71
    28
 72
    27
 73
    18
  0
VERTEX
  5
A16
  8
0
 62
     9
 10
0.0
 20
0.0
 30
0.0
 70
   128
 71
    27
 72
    29
 73
    18
  0
VERTEX
  5
A17
  8
0
 62
     9
 10
0.0
 20
0.0
 30
0.0
 70
   128
 71
    18
 72
     1
 73
    28
  0
VERTEX
  5
A18
  8
0
 62
     9
 10
0.0
 20
0.0
 30
0.0
 70
   128
 71
     1
 72
    25
 73
    28
  0
VERTEX
  5
A19
  8
0
 62
     9
 10
0.0
 20
0.0
 30
0.0
 70
   128
 71
    30
 72
     1
 73
     2
  0
VERTEX
  5
A1A
  8
0
 62
     9
 10
0.0
 20
0.0
 30
0.0
 70
   128
 71
     2
 72
    31
 73
    30
  0
VERTEX
  5
A1B
  8
0
 62
     9
 10
0.0
 20
0.0
 30
0.0
 70
   128
 71
    30
 72
    32
 73
     1
  0
VERTEX
  5
A1C
  8
0
 62
     9
 10
0.0
 20
0.0
 30
0.0
 70
   128
 71
    34
 72
     2
 73
    33
  0
VERTEX
  5
A1D
  8
0
 62
     9
 10
0.0
 20
0.0
 30
0.0
 70
   128
 71
    36
 72
    35
 73
     2
  0
VERTEX
  5
A1E
  8
0
 62
     9
 10
0.0
 20
0.0
 30
0.0
 70
   128
 71
     2
 72
    34
 73
    36
  0
VERTEX
  5
A1F
  8
0
 62
     9
 10
0.0
 20
0.0
 30
0.0
 70
   128
 71
    33
 72
    37
 73
    34
  0
VERTEX
  5
A20
  8
0
 62
     9
 10
0.0
 20
0.0
 30
0.0
 70
   128
 71
    35
 72
    38
 73
     2
  0
VERTEX
  5
A21
  8
0
 62
     9
 10
0.0
 20
0.0
 30
0.0
 70
   128
 71
    39
 72
     2
 73
     3
  0
VERTEX
  5
A22
  8
0
 62
     9
 10
0.0
 20
0.0
 30
0.0
 70
   128
 71
     3
 72
    40
 73
    39
  0
VERTEX
  5
A23
  8
0
 62
     9
 10
0.0
 20
0.0
 30
0.0
 70
   128
 71
    42
 72
    41
 73
     2
  0
VERTEX
  5
A24
  8
0
 62
     9
 10
0.0
 20
0.0
 30
0.0
 70
   128
 71
     2
 72
    39
 73
    42
  0
VERTEX
  5
A25
  8
0
 62
     9
 10
0.0
 20
0.0
 30
0.0
 70
   128
 71
    44
 72
    43
 73
     3
  0
VERTEX
  5
A26
  8
0
 62
     9
 10
0.0
 20
0.0
 30
0.0
 70
   128
 71
     3
 72
     5
 73
    44
  0
VERTEX
  5
A27
  8
0
 62
     9
 10
0.0
 20
0.0
 30
0.0
 70
   128
 71
    43
 72
    45
 73
     3
  0
VERTEX
  5
A28
  8
0
 62
     9
 10
0.0
 20
0.0
 30
0.0
 70
   128
 71
    46
 72
     5
 73
     7
  0
VERTEX
  5
A29
  8
0
 62
     9
 10
0.0
 20
0.0
 30
0.0
 70
   128
 71
    47
 72
     5
 73
    46
  0
VERTEX
  5
A2A
  8
0
 62
     9
 10
0.0
 20
0.0
 30
0.0
 70
   128
 71
    47
 72
    48
 73
     5
  0
VERTEX
  5
A2B
  8
0
 62
     9
 10
0.0
 20
0.0
 30
0.0
 70
   128
 71
    46
 72
    49
 73
    47
  0
VERTEX
  5
A2C
  8
0
 62
     9
 10
0.0
 20
0.0
 30
0.0
 70
   128
 71
    51
 72
    50
 73
     7
  0
VERTEX
  5
A2D
  8
0
 62
     9
 10
0.0
 20
0.0
 30
0.0
 70
   128
 71
     7
 72
    11
 73
    51
  0
VERTEX
  5
A2E
  8
0
 62
     9
 10
0.0
 20
0.0
 30
0.0
 70
   128
 71
    11
 72
    12
 73
    51
  0
VERTEX
  5
A2F
  8
0
 62
     9
 10
0.0
 20
0.0
 30
0.0
 70
   128
 71
     7
 72
    50
 73
    46
  0
VERTEX
  5
A30
  8
0
 62
     9
 10
0.0
 20
0.0
 30
0.0
 70
   128
 71
     5
 72
    48
 73
    44
  0
VERTEX
  5
A31
  8
0
 62
     9
 10
0.0
 20
0.0
 30
0.0
 70
   128
 71
     3
 72
    45
 73
    40
  0
VERTEX
  5
A32
  8
0
 62
     9
 10
0.0
 20
0.0
 30
0.0
 70
   128
 71
     2
 72
    41
 73
    33
  0
VERTEX
  5
A33
  8
0
 62
     9
 10
0.0
 20
0.0
 30
0.0
 70
   128
 71
     2
 72
    38
 73
    31
  0
VERTEX
  5
A34
  8
0
 62
     9
 10
0.0
 20
0.0
 30
0.0
 70
   128
 71
     1
 72
    32
 73
    26
  0
VERTEX
  5
A35
  8
0
 62
     9
 10
0.0
 20
0.0
 30
0.0
 70
   128
 71
    18
 72
    29
 73
    21
  0
VERTEX
  5
A36
  8
0
 62
     9
 10
0.0
 20
0.0
 30
0.0
 70
   128
 71
    18
 72
    19
 73
    17
  0
VERTEX
  5
A37
  8
0
 62
     9
 10
0.0
 20
0.0
 30
0.0
 70
   128
 71
     6
 72
    16
 73
    15
  0
VERTEX
  5
A38
  8
0
 62
     9
 10
0.0
 20
0.0
 30
0.0
 70
   128
 71
     1
 72
    18
 73
     6
  0
VERTEX
  5
A39
  8
0
 62
     9
 10
0.0
 20
0.0
 30
0.0
 70
   128
 71
     6
 72
    11
 73
     7
  0
VERTEX
  5
A3A
  8
0
 62
     9
 10
0.0
 20
0.0
 30
0.0
 70
   128
 71
     4
 72
     7
 73
     5
  0
VERTEX
  5
A3B
  8
0
 62
     9
 10
0.0
 20
0.0
 30
0.0
 70
   128
 71
     1
 72
     4
 73
     3
  0
SEQEND
  5
A3C
  8
0
 62
     9
  0
ENDBLK
  5
A3F
  8
0
  0
BLOCK
  8
0
  2
E3_NODE_36_
 70
     0
 10
0.0
 20
0.0
 30
0.0
  3
E3_NODE_36_
  1

  0
POLYLINE
  5
A41
  8
0
 62
     9
 66
     1
 10
0.0
 20
0.0
 30
0.0
 70
    64
 71
    51
 72
    58
  0
VERTEX
  5
A42
  8
0
 10
95.22699737548828
 20
10.79699993133545
 30
86.00199890136719
 70
   192
  0
VERTEX
  5
A43
  8
0
 10
91.68299865722656
 20
7.314000129699707
 30
82.54499816894531
 70
   192
  0
VERTEX
  5
A44
  8
0
 10
88.26399993896484
 20
9.706000328063965
 30
82.54900360107422
 70
   192
  0
VERTEX
  5
A45
  8
0
 10
90.16899871826172
 20
14.32299995422363
 30
86.01499938964844
 70
   192
  0
VERTEX
  5
A46
  8
0
 10
84.28700256347656
 20
12.12399959564209
 30
83.59700012207031
 70
   192
  0
VERTEX
  5
A47
  8
0
 10
84.28700256347656
 20
14.38300037384033
 30
84.99299621582031
 70
   192
  0
VERTEX
  5
A48
  8
0
 10
84.28700256347656
 20
10.54699993133545
 30
82.62300109863281
 70
   192
  0
VERTEX
  5
A49
  8
0
 10
98.64800262451172
 20
5.709000110626221
 30
85.98699951171875
 70
   192
  0
VERTEX
  5
A4A
  8
0
 10
93.99700164794922
 20
3.865999937057495
 30
82.54000091552734
 70
   192
  0
VERTEX
  5
A4B
  8
0
 10
88.99800109863281
 20
1.901999950408936
 30
80.50800323486328
 70
   192
  0
VERTEX
  5
A4C
  8
0
 10
87.90899658203125
 20
3.578000068664551
 30
80.5250015258789
 70
   192
  0
VERTEX
  5
A4D
  8
0
 10
86.24299621582031
 20
4.709000110626221
 30
80.54299926757812
 70
   192
  0
VERTEX
  5
A4E
  8
0
 10
84.28700256347656
 20
6.883999824523926
 30
81.1780014038086
 70
   192
  0
VERTEX
  5
A4F
  8
0
 10
84.28700256347656
 20
9.86400032043457
 30
82.20099639892578
 70
   192
  0
VERTEX
  5
A50
  8
0
 10
84.28700256347656
 20
5.118000030517578
 30
80.5719985961914
 70
   192
  0
VERTEX
  5
A51
  8
0
 10
84.28700256347656
 20
5.053999900817871
 30
80.56400299072266
 70
   192
  0
VERTEX
  5
A52
  8
0
 10
84.43399810791016
 20
0.4819999933242798
 30
80.00499725341797
 70
   192
  0
VERTEX
  5
A53
  8
0
 10
84.4739990234375
 20
0.4569999873638153
 30
80.00499725341797
 70
   192
  0
VERTEX
  5
A54
  8
0
 10
84.28700256347656
 20
16.07699966430664
 30
86.67400360107422
 70
   192
  0
VERTEX
  5
A55
  8
0
 10
87.01100158691406
 20
18.82799911499023
 30
90.00499725341797
 70
   192
  0
VERTEX
  5
A56
  8
0
 10
89.21900177001953
 20
18.5620002746582
 30
90.00499725341797
 70
   192
  0
VERTEX
  5
A57
  8
0
 10
91.16699981689453
 20
17.94400024414062
 30
90.00399780273438
 70
   192
  0
VERTEX
  5
A58
  8
0
 10
84.28700256347656
 20
18.11499977111816
 30
88.69599914550781
 70
   192
  0
VERTEX
  5
A59
  8
0
 10
84.28700256347656
 20
19.09099960327148
 30
90.00499725341797
 70
   192
  0
VERTEX
  5
A5A
  8
0
 10
84.84100341796875
 20
19.0890007019043
 30
90.00499725341797
 70
   192
  0
VERTEX
  5
A5B
  8
0
 10
84.28700256347656
 20
15.52400016784668
 30
86.125
 70
   192
  0
VERTEX
  5
A5C
  8
0
 10
96.34400177001953
 20
14.9040002822876
 30
90.00499725341797
 70
   192
  0
VERTEX
  5
A5D
  8
0
 10
96.57599639892578
 20
14.72700023651123
 30
90.00499725341797
 70
   192
  0
VERTEX
  5
A5E
  8
0
 10
94.94999694824219
 20
15.94099998474121
 30
90.00499725341797
 70
   192
  0
VERTEX
  5
A5F
  8
0
 10
95.08899688720703
 20
15.86800003051758
 30
90.00499725341797
 70
   192
  0
VERTEX
  5
A60
  8
0
 10
91.61399841308594
 20
17.70700073242188
 30
90.00399780273438
 70
   192
  0
VERTEX
  5
A61
  8
0
 10
99.70700073242188
 20
11.35000038146973
 30
90.00499725341797
 70
   192
  0
VERTEX
  5
A62
  8
0
 10
100.7639999389648
 20
9.72599983215332
 30
90.00499725341797
 70
   192
  0
VERTEX
  5
A63
  8
0
 10
97.80899810791016
 20
13.39599990844727
 30
90.00499725341797
 70
   192
  0
VERTEX
  5
A64
  8
0
 10
102.8280029296875
 20
4.592000007629395
 30
90.00499725341797
 70
   192
  0
VERTEX
  5
A65
  8
0
 10
103.3769989013672
 20
0.0
 30
90.00499725341797
 70
   192
  0
VERTEX
  5
A66
  8
0
 10
101.0139999389648
 20
0.0
 30
86.9520034790039
 70
   192
  0
VERTEX
  5
A67
  8
0
 10
101.9739990234375
 20
6.913000106811523
 30
90.00499725341797
 70
   192
  0
VERTEX
  5
A68
  8
0
 10
102.5849990844727
 20
5.494999885559082
 30
90.00499725341797
 70
   192
  0
VERTEX
  5
A69
  8
0
 10
101.8880004882812
 20
7.114999771118164
 30
90.00499725341797
 70
   192
  0
VERTEX
  5
A6A
  8
0
 10
96.98400115966797
 20
0.0
 30
83.73799896240234
 70
   192
  0
VERTEX
  5
A6B
  8
0
 10
99.89900207519531
 20
0.0
 30
86.06300354003906
 70
   192
  0
VERTEX
  5
A6C
  8
0
 10
92.08799743652344
 20
0.0
 30
81.30000305175781
 70
   192
  0
VERTEX
  5
A6D
  8
0
 10
94.8290023803711
 20
0.0
 30
82.66500091552734
 70
   192
  0
VERTEX
  5
A6E
  8
0
 10
87.46600341796875
 20
0.0
 30
80.16200256347656
 70
   192
  0
VERTEX
  5
A6F
  8
0
 10
84.89199829101562
 20
0.0
 30
80.0009994506836
 70
   192
  0
VERTEX
  5
A70
  8
0
 10
89.3280029296875
 20
0.0
 30
80.62000274658203
 70
   192
  0
VERTEX
  5
A71
  8
0
 10
84.64199829101562
 20
0.3529999852180481
 30
80.00299835205078
 70
   192
  0
VERTEX
  5
A72
  8
0
 10
84.64099884033203
 20
0.3540000021457672
 30
80.00299835205078
 70
   192
  0
VERTEX
  5
A73
  8
0
 10
84.78700256347656
 20
0.0
 30
80.0009994506836
 70
   192
  0
VERTEX
  5
A74
  8
0
 10
84.28700256347656
 20
0.5
 30
80.00599670410156
 70
   192
  0
VERTEX
  5
A75
  8
0
 62
     9
 10
0.0
 20
0.0
 30
0.0
 70
   128
 71
     3
 72
     2
 73
     1
  0
VERTEX
  5
A76
  8
0
 62
     9
 10
0.0
 20
0.0
 30
0.0
 70
   128
 71
     6
 72
     5
 73
     4
  0
VERTEX
  5
A77
  8
0
 62
     9
 10
0.0
 20
0.0
 30
0.0
 70
   128
 71
     5
 72
     7
 73
     3
  0
VERTEX
  5
A78
  8
0
 62
     9
 10
0.0
 20
0.0
 30
0.0
 70
   128
 71
     3
 72
     4
 73
     5
  0
VERTEX
  5
A79
  8
0
 62
     9
 10
0.0
 20
0.0
 30
0.0
 70
   128
 71
     9
 72
     8
 73
     1
  0
VERTEX
  5
A7A
  8
0
 62
     9
 10
0.0
 20
0.0
 30
0.0
 70
   128
 71
    11
 72
    10
 73
     9
  0
VERTEX
  5
A7B
  8
0
 62
     9
 10
0.0
 20
0.0
 30
0.0
 70
   128
 71
    12
 72
    11
 73
     2
  0
VERTEX
  5
A7C
  8
0
 62
     9
 10
0.0
 20
0.0
 30
0.0
 70
   128
 71
    14
 72
    13
 73
     3
  0
VERTEX
  5
A7D
  8
0
 62
     9
 10
0.0
 20
0.0
 30
0.0
 70
   128
 71
    13
 72
    15
 73
    12
  0
VERTEX
  5
A7E
  8
0
 62
     9
 10
0.0
 20
0.0
 30
0.0
 70
   128
 71
    15
 72
    16
 73
    12
  0
VERTEX
  5
A7F
  8
0
 62
     9
 10
0.0
 20
0.0
 30
0.0
 70
   128
 71
    12
 72
     3
 73
    13
  0
VERTEX
  5
A80
  8
0
 62
     9
 10
0.0
 20
0.0
 30
0.0
 70
   128
 71
    17
 72
    12
 73
    16
  0
VERTEX
  5
A81
  8
0
 62
     9
 10
0.0
 20
0.0
 30
0.0
 70
   128
 71
    17
 72
    18
 73
    12
  0
VERTEX
  5
A82
  8
0
 62
     9
 10
0.0
 20
0.0
 30
0.0
 70
   128
 71
    20
 72
    19
 73
     4
  0
VERTEX
  5
A83
  8
0
 62
     9
 10
0.0
 20
0.0
 30
0.0
 70
   128
 71
     4
 72
    21
 73
    20
  0
VERTEX
  5
A84
  8
0
 62
     9
 10
0.0
 20
0.0
 30
0.0
 70
   128
 71
     4
 72
    22
 73
    21
  0
VERTEX
  5
A85
  8
0
 62
     9
 10
0.0
 20
0.0
 30
0.0
 70
   128
 71
    25
 72
    24
 73
    23
  0
VERTEX
  5
A86
  8
0
 62
     9
 10
0.0
 20
0.0
 30
0.0
 70
   128
 71
    23
 72
    19
 73
    20
  0
VERTEX
  5
A87
  8
0
 62
     9
 10
0.0
 20
0.0
 30
0.0
 70
   128
 71
    23
 72
    20
 73
    25
  0
VERTEX
  5
A88
  8
0
 62
     9
 10
0.0
 20
0.0
 30
0.0
 70
   128
 71
    19
 72
    26
 73
     4
  0
VERTEX
  5
A89
  8
0
 62
     9
 10
0.0
 20
0.0
 30
0.0
 70
   128
 71
    28
 72
    27
 73
     1
  0
VERTEX
  5
A8A
  8
0
 62
     9
 10
0.0
 20
0.0
 30
0.0
 70
   128
 71
    30
 72
    29
 73
     1
  0
VERTEX
  5
A8B
  8
0
 62
     9
 10
0.0
 20
0.0
 30
0.0
 70
   128
 71
    29
 72
    31
 73
     4
  0
VERTEX
  5
A8C
  8
0
 62
     9
 10
0.0
 20
0.0
 30
0.0
 70
   128
 71
     4
 72
     1
 73
    29
  0
VERTEX
  5
A8D
  8
0
 62
     9
 10
0.0
 20
0.0
 30
0.0
 70
   128
 71
     1
 72
    27
 73
    30
  0
VERTEX
  5
A8E
  8
0
 62
     9
 10
0.0
 20
0.0
 30
0.0
 70
   128
 71
    33
 72
    32
 73
     1
  0
VERTEX
  5
A8F
  8
0
 62
     9
 10
0.0
 20
0.0
 30
0.0
 70
   128
 71
     1
 72
     8
 73
    33
  0
VERTEX
  5
A90
  8
0
 62
     9
 10
0.0
 20
0.0
 30
0.0
 70
   128
 71
    32
 72
    34
 73
     1
  0
VERTEX
  5
A91
  8
0
 62
     9
 10
0.0
 20
0.0
 30
0.0
 70
   128
 71
    37
 72
    36
 73
    35
  0
VERTEX
  5
A92
  8
0
 62
     9
 10
0.0
 20
0.0
 30
0.0
 70
   128
 71
    39
 72
    38
 73
     8
  0
VERTEX
  5
A93
  8
0
 62
     9
 10
0.0
 20
0.0
 30
0.0
 70
   128
 71
     8
 72
    35
 73
    39
  0
VERTEX
  5
A94
  8
0
 62
     9
 10
0.0
 20
0.0
 30
0.0
 70
   128
 71
    35
 72
     8
 73
    37
  0
VERTEX
  5
A95
  8
0
 62
     9
 10
0.0
 20
0.0
 30
0.0
 70
   128
 71
    38
 72
    40
 73
     8
  0
VERTEX
  5
A96
  8
0
 62
     9
 10
0.0
 20
0.0
 30
0.0
 70
   128
 71
    41
 72
     8
 73
     9
  0
VERTEX
  5
A97
  8
0
 62
     9
 10
0.0
 20
0.0
 30
0.0
 70
   128
 71
    41
 72
    42
 73
     8
  0
VERTEX
  5
A98
  8
0
 62
     9
 10
0.0
 20
0.0
 30
0.0
 70
   128
 71
    43
 72
     9
 73
    10
  0
VERTEX
  5
A99
  8
0
 62
     9
 10
0.0
 20
0.0
 30
0.0
 70
   128
 71
    43
 72
    44
 73
     9
  0
VERTEX
  5
A9A
  8
0
 62
     9
 10
0.0
 20
0.0
 30
0.0
 70
   128
 71
    46
 72
    45
 73
    11
  0
VERTEX
  5
A9B
  8
0
 62
     9
 10
0.0
 20
0.0
 30
0.0
 70
   128
 71
    10
 72
    11
 73
    45
  0
VERTEX
  5
A9C
  8
0
 62
     9
 10
0.0
 20
0.0
 30
0.0
 70
   128
 71
    45
 72
    47
 73
    10
  0
VERTEX
  5
A9D
  8
0
 62
     9
 10
0.0
 20
0.0
 30
0.0
 70
   128
 71
    11
 72
    48
 73
    46
  0
VERTEX
  5
A9E
  8
0
 62
     9
 10
0.0
 20
0.0
 30
0.0
 70
   128
 71
    49
 72
    48
 73
    11
  0
VERTEX
  5
A9F
  8
0
 62
     9
 10
0.0
 20
0.0
 30
0.0
 70
   128
 71
    11
 72
    12
 73
    49
  0
VERTEX
  5
AA0
  8
0
 62
     9
 10
0.0
 20
0.0
 30
0.0
 70
   128
 71
    12
 72
    18
 73
    49
  0
VERTEX
  5
AA1
  8
0
 62
     9
 10
0.0
 20
0.0
 30
0.0
 70
   128
 71
    48
 72
    50
 73
    46
  0
VERTEX
  5
AA2
  8
0
 62
     9
 10
0.0
 20
0.0
 30
0.0
 70
   128
 71
    10
 72
    47
 73
    43
  0
VERTEX
  5
AA3
  8
0
 62
     9
 10
0.0
 20
0.0
 30
0.0
 70
   128
 71
     9
 72
    44
 73
    41
  0
VERTEX
  5
AA4
  8
0
 62
     9
 10
0.0
 20
0.0
 30
0.0
 70
   128
 71
     8
 72
    42
 73
    37
  0
VERTEX
  5
AA5
  8
0
 62
     9
 10
0.0
 20
0.0
 30
0.0
 70
   128
 71
     8
 72
    40
 73
    33
  0
VERTEX
  5
AA6
  8
0
 62
     9
 10
0.0
 20
0.0
 30
0.0
 70
   128
 71
     1
 72
    34
 73
    28
  0
VERTEX
  5
AA7
  8
0
 62
     9
 10
0.0
 20
0.0
 30
0.0
 70
   128
 71
     4
 72
    31
 73
    22
  0
VERTEX
  5
AA8
  8
0
 62
     9
 10
0.0
 20
0.0
 30
0.0
 70
   128
 71
    16
 72
    51
 73
    17
  0
VERTEX
  5
AA9
  8
0
 62
     9
 10
0.0
 20
0.0
 30
0.0
 70
   128
 71
     3
 72
     7
 73
    14
  0
VERTEX
  5
AAA
  8
0
 62
     9
 10
0.0
 20
0.0
 30
0.0
 70
   128
 71
     2
 72
     3
 73
    12
  0
VERTEX
  5
AAB
  8
0
 62
     9
 10
0.0
 20
0.0
 30
0.0
 70
   128
 71
     9
 72
     2
 73
    11
  0
VERTEX
  5
AAC
  8
0
 62
     9
 10
0.0
 20
0.0
 30
0.0
 70
   128
 71
     1
 72
     2
 73
     9
  0
VERTEX
  5
AAD
  8
0
 62
     9
 10
0.0
 20
0.0
 30
0.0
 70
   128
 71
     4
 72
    26
 73
     6
  0
VERTEX
  5
AAE
  8
0
 62
     9
 10
0.0
 20
0.0
 30
0.0
 70
   128
 71
     1
 72
     4
 73
     3
  0
SEQEND
  5
AAF
  8
0
 62
     9
  0
ENDBLK
  5
AB2
  8
0
  0
BLOCK
  8
0
  2
E3_NODE_37_
 70
     0
 10
0.0
 20
0.0
 30
0.0
  3
E3_NODE_37_
  1

  0
POLYLINE
  5
AB4
  8
0
 62
     9
 66
     1
 10
0.0
 20
0.0
 30
0.0
 70
    64
 71
    16
 72
    16
  0
VERTEX
  5
AB5
  8
0
 10
97.43800354003906
 20
-8.343999862670898
 30
79.15799713134766
 70
   192
  0
VERTEX
  5
AB6
  8
0
 10
93.61499786376953
 20
-8.343999862670898
 30
91.58300018310547
 70
   192
  0
VERTEX
  5
AB7
  8
0
 10
85.63999938964844
 20
-11.80000019073486
 30
89.12999725341797
 70
   192
  0
VERTEX
  5
AB8
  8
0
 10
96.91799926757812
 20
0.0
 30
92.5999984741211
 70
   192
  0
VERTEX
  5
AB9
  8
0
 10
97.43800354003906
 20
8.343999862670898
 30
79.15799713134766
 70
   192
  0
VERTEX
  5
ABA
  8
0
 10
93.61499786376953
 20
8.343999862670898
 30
91.58300018310547
 70
   192
  0
VERTEX
  5
ABB
  8
0
 10
89.46299743652344
 20
11.80000019073486
 30
76.70500183105469
 70
   192
  0
VERTEX
  5
ABC
  8
0
 10
85.63999938964844
 20
11.80000019073486
 30
89.12999725341797
 70
   192
  0
VERTEX
  5
ABD
  8
0
 10
77.66500091552734
 20
8.343999862670898
 30
86.677001953125
 70
   192
  0
VERTEX
  5
ABE
  8
0
 10
78.18399810791016
 20
0.0
 30
73.23500061035156
 70
   192
  0
VERTEX
  5
ABF
  8
0
 10
74.36199951171875
 20
0.0
 30
85.66000366210938
 70
   192
  0
VERTEX
  5
AC0
  8
0
 10
77.66500091552734
 20
-8.343999862670898
 30
86.677001953125
 70
   192
  0
VERTEX
  5
AC1
  8
0
 10
81.48799896240234
 20
-8.343999862670898
 30
74.2509994506836
 70
   192
  0
VERTEX
  5
AC2
  8
0
 10
89.46299743652344
 20
-11.80000019073486
 30
76.70500183105469
 70
   192
  0
VERTEX
  5
AC3
  8
0
 10
81.48799896240234
 20
8.343999862670898
 30
74.2509994506836
 70
   192
  0
VERTEX
  5
AC4
  8
0
 10
100.7409973144531
 20
0.0
 30
80.17400360107422
 70
   192
  0
VERTEX
  5
AC5
  8
0
 62
     9
 10
0.0
 20
0.0
 30
0.0
 70
   128
 71
     3
 72
     2
 73
     1
  0
VERTEX
  5
AC6
  8
0
 62
     9
 10
0.0
 20
0.0
 30
0.0
 70
   128
 71
     1
 72
     2
 73
     4
  0
VERTEX
  5
AC7
  8
0
 62
     9
 10
0.0
 20
0.0
 30
0.0
 70
   128
 71
     4
 72
     6
 73
     5
  0
VERTEX
  5
AC8
  8
0
 62
     9
 10
0.0
 20
0.0
 30
0.0
 70
   128
 71
     6
 72
     8
 73
     7
  0
VERTEX
  5
AC9
  8
0
 62
     9
 10
0.0
 20
0.0
 30
0.0
 70
   128
 71
     7
 72
     8
 73
     9
  0
VERTEX
  5
ACA
  8
0
 62
     9
 10
0.0
 20
0.0
 30
0.0
 70
   128
 71
     9
 72
    11
 73
    10
  0
VERTEX
  5
ACB
  8
0
 62
     9
 10
0.0
 20
0.0
 30
0.0
 70
   128
 71
    10
 72
    11
 73
    12
  0
VERTEX
  5
ACC
  8
0
 62
     9
 10
0.0
 20
0.0
 30
0.0
 70
   128
 71
    13
 72
    12
 73
     3
  0
VERTEX
  5
ACD
  8
0
 62
     9
 10
0.0
 20
0.0
 30
0.0
 70
   128
 71
     3
 72
    14
 73
    13
  0
VERTEX
  5
ACE
  8
0
 62
     9
 10
0.0
 20
0.0
 30
0.0
 70
   128
 71
    12
 72
    13
 73
    10
  0
VERTEX
  5
ACF
  8
0
 62
     9
 10
0.0
 20
0.0
 30
0.0
 70
   128
 71
    10
 72
    15
 73
     9
  0
VERTEX
  5
AD0
  8
0
 62
     9
 10
0.0
 20
0.0
 30
0.0
 70
   128
 71
     9
 72
    15
 73
     7
  0
VERTEX
  5
AD1
  8
0
 62
     9
 10
0.0
 20
0.0
 30
0.0
 70
   128
 71
     7
 72
     5
 73
     6
  0
VERTEX
  5
AD2
  8
0
 62
     9
 10
0.0
 20
0.0
 30
0.0
 70
   128
 71
     5
 72
    16
 73
     4
  0
VERTEX
  5
AD3
  8
0
 62
     9
 10
0.0
 20
0.0
 30
0.0
 70
   128
 71
     4
 72
    16
 73
     1
  0
VERTEX
  5
AD4
  8
0
 62
     9
 10
0.0
 20
0.0
 30
0.0
 70
   128
 71
     1
 72
    14
 73
     3
  0
SEQEND
  5
AD5
  8
0
 62
     9
  0
ENDBLK
  5
AD8
  8
0
  0
BLOCK
  8
0
  2
E3_NODE_38_
 70
     0
 10
0.0
 20
0.0
 30
0.0
  3
E3_NODE_38_
  1

  0
POLYLINE
  5
ADA
  8
0
 62
     9
 66
     1
 10
0.0
 20
0.0
 30
0.0
 70
    64
 71
     8
 72
     6
  0
VERTEX
  5
ADB
  8
0
 10
78.18399810791016
 20
0.0
 30
73.23500061035156
 70
   192
  0
VERTEX
  5
ADC
  8
0
 10
81.48799896240234
 20
8.343999862670898
 30
74.2509994506836
 70
   192
  0
VERTEX
  5
ADD
  8
0
 10
89.46299743652344
 20
11.80000019073486
 30
76.70500183105469
 70
   192
  0
VERTEX
  5
ADE
  8
0
 10
100.7409973144531
 20
0.0
 30
80.17400360107422
 70
   192
  0
VERTEX
  5
ADF
  8
0
 10
97.43800354003906
 20
-8.343999862670898
 30
79.15799713134766
 70
   192
  0
VERTEX
  5
AE0
  8
0
 10
97.43800354003906
 20
8.343999862670898
 30
79.15799713134766
 70
   192
  0
VERTEX
  5
AE1
  8
0
 10
89.46299743652344
 20
-11.80000019073486
 30
76.70500183105469
 70
   192
  0
VERTEX
  5
AE2
  8
0
 10
81.48799896240234
 20
-8.343999862670898
 30
74.2509994506836
 70
   192
  0
VERTEX
  5
AE3
  8
0
 62
     9
 10
0.0
 20
0.0
 30
0.0
 70
   128
 71
     3
 72
     2
 73
     1
  0
VERTEX
  5
AE4
  8
0
 62
     9
 10
0.0
 20
0.0
 30
0.0
 70
   128
 71
     5
 72
     4
 73
     1
  0
VERTEX
  5
AE5
  8
0
 62
     9
 10
0.0
 20
0.0
 30
0.0
 70
   128
 71
     1
 72
     6
 73
     3
  0
VERTEX
  5
AE6
  8
0
 62
     9
 10
0.0
 20
0.0
 30
0.0
 70
   128
 71
     1
 72
     7
 73
     5
  0
VERTEX
  5
AE7
  8
0
 62
     9
 10
0.0
 20
0.0
 30
0.0
 70
   128
 71
     1
 72
     8
 73
     7
  0
VERTEX
  5
AE8
  8
0
 62
     9
 10
0.0
 20
0.0
 30
0.0
 70
   128
 71
     1
 72
     4
 73
     6
  0
SEQEND
  5
AE9
  8
0
 62
     9
  0
ENDBLK
  5
AEC
  8
0
  0
ENDSEC
  0
SECTION
  2
ENTITIES
  0
INSERT
  5
44
  8
LAYER_1
  2
E3_NODE
 10
0.0
 20
0.0
 30
0.0
  0
INSERT
  5
63
  8
LAYER_1
  2
E3_NODE_1_
 10
0.0
 20
0.0
 30
0.0
  0
INSERT
  5
98
  8
LAYER_1
  2
E3_NODE_2_
 10
0.0
 20
0.0
 30
0.0
  0
INSERT
  5
B6
  8
LAYER_1
  2
E3_NODE_3_
 10
0.0
 20
0.0
 30
0.0
  0
INSERT
  5
12C
  8
LAYER_1
  2
E3_NODE_4_
 10
0.0
 20
0.0
 30
0.0
  0
INSERT
  5
162
  8
LAYER_1
  2
E3_NODE_5_
 10
0.0
 20
0.0
 30
0.0
  0
INSERT
  5
1A2
  8
LAYER_1
  2
E3_NODE_6_
 10
0.0
 20
0.0
 30
0.0
  0
INSERT
  5
233
  8
LAYER_1
  2
E3_NODE_7_
 10
0.0
 20
0.0
 30
0.0
  0
INSERT
  5
292
  8
LAYER_1
  2
E3_NODE_8_
 10
0.0
 20
0.0
 30
0.0
  0
INSERT
  5
2ED
  8
LAYER_1
  2
E3_NODE_9_
 10
0.0
 20
0.0
 30
0.0
  0
INSERT
  5
309
  8
LAYER_1
  2
E3_NODE_10_
 10
0.0
 20
0.0
 30
0.0
  0
INSERT
  5
321
  8
LAYER_1
  2
E3_NODE_11_
 10
0.0
 20
0.0
 30
0.0
  0
INSERT
  5
343
  8
LAYER_1
  2
E3_NODE_12_
 10
0.0
 20
0.0
 30
0.0
  0
INSERT
  5
3D0
  8
LAYER_1
  2
E3_NODE_13_
 10
0.0
 20
0.0
 30
0.0
  0
INSERT
  5
445
  8
LAYER_1
  2
E3_NODE_14_
 10
0.0
 20
0.0
 30
0.0
  0
INSERT
  5
4C8
  8
LAYER_1
  2
E3_NODE_15_
 10
0.0
 20
0.0
 30
0.0
  0
INSERT
  5
4D4
  8
LAYER_1
  2
E3_NODE_16_
 10
0.0
 20
0.0
 30
0.0
  0
INSERT
  5
516
  8
LAYER_1
  2
E3_NODE_17_
 10
0.0
 20
0.0
 30
0.0
  0
INSERT
  5
532
  8
LAYER_1
  2
E3_NODE_18_
 10
0.0
 20
0.0
 30
0.0
  0
INSERT
  5
554
  8
LAYER_1
  2
E3_NODE_19_
 10
0.0
 20
0.0
 30
0.0
  0
INSERT
  5
58E
  8
LAYER_1
  2
E3_NODE_20_
 10
0.0
 20
0.0
 30
0.0
  0
INSERT
  5
5E8
  8
LAYER_1
  2
E3_NODE_21_
 10
0.0
 20
0.0
 30
0.0
  0
INSERT
  5
5F4
  8
LAYER_1
  2
E3_NODE_22_
 10
0.0
 20
0.0
 30
0.0
  0
INSERT
  5
60C
  8
LAYER_1
  2
E3_NODE_23_
 10
0.0
 20
0.0
 30
0.0
  0
INSERT
  5
65B
  8
LAYER_1
  2
E3_NODE_24_
 10
0.0
 20
0.0
 30
0.0
  0
INSERT
  5
6AD
  8
LAYER_1
  2
E3_NODE_25_
 10
0.0
 20
0.0
 30
0.0
  0
INSERT
  5
6C7
  8
LAYER_1
  2
E3_NODE_26_
 10
0.0
 20
0.0
 30
0.0
  0
INSERT
  5
6D9
  8
LAYER_1
  2
E3_NODE_27_
 10
0.0
 20
0.0
 30
0.0
  0
INSERT
  5
727
  8
LAYER_1
  2
E3_NODE_28_
 10
0.0
 20
0.0
 30
0.0
  0
INSERT
  5
747
  8
LAYER_1
  2
E3_NODE_29_
 10
0.0
 20
0.0
 30
0.0
  0
INSERT
  5
7B5
  8
LAYER_1
  2
E3_NODE_30_
 10
0.0
 20
0.0
 30
0.0
  0
INSERT
  5
7D9
  8
LAYER_1
  2
E3_NODE_31_
 10
0.0
 20
0.0
 30
0.0
  0
INSERT
  5
8A6
  8
LAYER_1
  2
E3_NODE_32_
 10
0.0
 20
0.0
 30
0.0
  0
INSERT
  5
902
  8
LAYER_1
  2
E3_NODE_33_
 10
0.0
 20
0.0
 30
0.0
  0
INSERT
  5
9CA
  8
LAYER_1
  2
E3_NODE_34_
 10
0.0
 20
0.0
 30
0.0
  0
INSERT
  5
A3D
  8
LAYER_1
  2
E3_NODE_35_
 10
0.0
 20
0.0
 30
0.0
  0
INSERT
  5
AB0
  8
LAYER_1
  2
E3_NODE_36_
 10
0.0
 20
0.0
 30
0.0
  0
INSERT
  5
AD6
  8
LAYER_1
  2
E3_NODE_37_
 10
0.0
 20
0.0
 30
0.0
  0
INSERT
  5
AEA
  8
LAYER_1
  2
E3_NODE_38_
 10
0.0
 20
0.0
 30
0.0
  0
ENDSEC
  0
EOF
