  0
SECTION
  2
HEADER
  9
$ACADVER
  1
AC1009
  9
$DWGCODEPAGE
  3
ansi_1252
  9
$INSBASE
 10
0.0
 20
0.0
 30
0.0
  9
$EXTMIN
 10
1.000000000000000E+20
 20
1.000000000000000E+20
 30
1.000000000000000E+20
  9
$EXTMAX
 10
-1.000000000000000E+20
 20
-1.000000000000000E+20
 30
-1.000000000000000E+20
  9
$LIMMIN
 10
0.0
 20
0.0
  9
$LIMMAX
 10
12.0
 20
9.0
  9
$ORTHOMODE
 70
     0
  9
$REGENMODE
 70
     1
  9
$FILLMODE
 70
     1
  9
$QTEXTMODE
 70
     0
  9
$MIRRTEXT
 70
     1
  9
$DRAGMODE
 70
     2
  9
$LTSCALE
 40
1.0
  9
$OSMODE
 70
    37
  9
$ATTMODE
 70
     1
  9
$TEXTSIZE
 40
0.2
  9
$TRACEWID
 40
0.05
  9
$TEXTSTYLE
  7
STANDARD
  9
$CLAYER
  8
0
  9
$CELTYPE
  6
BYLAYER
  9
$CECOLOR
 62
   256
  9
$DIMSCALE
 40
1.0
  9
$DIMASZ
 40
0.18
  9
$DIMEXO
 40
0.0625
  9
$DIMDLI
 40
0.38
  9
$DIMRND
 40
0.0
  9
$DIMDLE
 40
0.0
  9
$DIMEXE
 40
0.18
  9
$DIMTP
 40
0.0
  9
$DIMTM
 40
0.0
  9
$DIMTXT
 40
0.18
  9
$DIMCEN
 40
0.09
  9
$DIMTSZ
 40
0.0
  9
$DIMTOL
 70
     0
  9
$DIMLIM
 70
     0
  9
$DIMTIH
 70
     1
  9
$DIMTOH
 70
     1
  9
$DIMSE1
 70
     0
  9
$DIMSE2
 70
     0
  9
$DIMTAD
 70
     0
  9
$DIMZIN
 70
     0
  9
$DIMBLK
  1

  9
$DIMASO
 70
     1
  9
$DIMSHO
 70
     1
  9
$DIMPOST
  1

  9
$DIMAPOST
  1

  9
$DIMALT
 70
     0
  9
$DIMALTD
 70
     2
  9
$DIMALTF
 40
25.4
  9
$DIMLFAC
 40
1.0
  9
$DIMTOFL
 70
     0
  9
$DIMTVP
 40
0.0
  9
$DIMTIX
 70
     0
  9
$DIMSOXD
 70
     0
  9
$DIMSAH
 70
     0
  9
$DIMBLK1
  1

  9
$DIMBLK2
  1

  9
$DIMSTYLE
  2
STANDARD
  9
$DIMCLRD
 70
     0
  9
$DIMCLRE
 70
     0
  9
$DIMCLRT
 70
     0
  9
$DIMTFAC
 40
1.0
  9
$DIMGAP
 40
0.09
  9
$LUNITS
 70
     2
  9
$LUPREC
 70
     4
  9
$SKETCHINC
 40
0.1
  9
$FILLETRAD
 40
0.5
  9
$AUNITS
 70
     0
  9
$AUPREC
 70
     0
  9
$MENU
  1
.
  9
$ELEVATION
 40
0.0
  9
$PELEVATION
 40
0.0
  9
$THICKNESS
 40
0.0
  9
$LIMCHECK
 70
     0
  9
$CHAMFERA
 40
0.5
  9
$CHAMFERB
 40
0.5
  9
$SKPOLY
 70
     0
  9
$TDCREATE
 40
2455441.805091863
  9
$TDUPDATE
 40
2455441.805091863
  9
$TDINDWG
 40
0.0000000116
  9
$TDUSRTIMER
 40
0.0000000116
  9
$USRTIMER
 70
     1
  9
$ANGBASE
 50
0.0
  9
$ANGDIR
 70
     0
  9
$PDMODE
 70
     0
  9
$PDSIZE
 40
0.0
  9
$PLINEWID
 40
0.0
  9
$COORDS
 70
     1
  9
$SPLFRAME
 70
     0
  9
$SPLINETYPE
 70
     6
  9
$SPLINESEGS
 70
     8
  9
$ATTDIA
 70
     0
  9
$ATTREQ
 70
     1
  9
$HANDLING
 70
     1
  9
$HANDSEED
  5
6C1
  9
$SURFTAB1
 70
     6
  9
$SURFTAB2
 70
     6
  9
$SURFTYPE
 70
     6
  9
$SURFU
 70
     6
  9
$SURFV
 70
     6
  9
$UCSNAME
  2

  9
$UCSORG
 10
0.0
 20
0.0
 30
0.0
  9
$UCSXDIR
 10
1.0
 20
0.0
 30
0.0
  9
$UCSYDIR
 10
0.0
 20
1.0
 30
0.0
  9
$PUCSNAME
  2

  9
$PUCSORG
 10
0.0
 20
0.0
 30
0.0
  9
$PUCSXDIR
 10
1.0
 20
0.0
 30
0.0
  9
$PUCSYDIR
 10
0.0
 20
1.0
 30
0.0
  9
$USERI1
 70
     0
  9
$USERI2
 70
     0
  9
$USERI3
 70
     0
  9
$USERI4
 70
     0
  9
$USERI5
 70
     0
  9
$USERR1
 40
0.0
  9
$USERR2
 40
0.0
  9
$USERR3
 40
0.0
  9
$USERR4
 40
0.0
  9
$USERR5
 40
0.0
  9
$WORLDVIEW
 70
     1
  9
$SHADEDGE
 70
     3
  9
$SHADEDIF
 70
    70
  9
$TILEMODE
 70
     1
  9
$MAXACTVP
 70
    64
  9
$PLIMCHECK
 70
     0
  9
$PEXTMIN
 10
1.000000000000000E+20
 20
1.000000000000000E+20
 30
1.000000000000000E+20
  9
$PEXTMAX
 10
-1.000000000000000E+20
 20
-1.000000000000000E+20
 30
-1.000000000000000E+20
  9
$PLIMMIN
 10
0.0
 20
0.0
  9
$PLIMMAX
 10
12.0
 20
9.0
  9
$UNITMODE
 70
     0
  9
$VISRETAIN
 70
     1
  9
$PLINEGEN
 70
     0
  9
$PSLTSCALE
 70
     1
  0
ENDSEC
  0
SECTION
  2
TABLES
  0
TABLE
  2
VPORT
 70
     1
  0
VPORT
  2
*ACTIVE
 70
     0
 10
0.0
 20
0.0
 11
1.0
 21
1.0
 12
0.0
 22
0.0
 13
0.0
 23
0.0
 14
0.5
 24
0.5
 15
0.5
 25
0.5
 16
324.2325134277344
 26
185.259765625
 36
324.2325439453125
 17
107.406494140625
 27
0.0
 37
-4.414520263671875
 40
177.4315369598737
 41
1.972972972850329
 42
50.0
 43
0.0
 44
0.0
 50
0.0
 51
0.0
 71
     0
 72
   100
 73
     1
 74
     3
 75
     0
 76
     0
 77
     0
 78
     0
  0
ENDTAB
  0
TABLE
  2
LTYPE
 70
     1
  0
LTYPE
  2
CONTINUOUS
 70
     0
  3
Solid line
 72
    65
 73
     0
 40
0.0
  0
ENDTAB
  0
TABLE
  2
LAYER
 70
     2
  0
LAYER
  2
0
 70
     0
 62
     7
  6
CONTINUOUS
  0
LAYER
  2
LAYER_1
 70
     0
 62
     7
  6
CONTINUOUS
  0
ENDTAB
  0
TABLE
  2
STYLE
 70
     1
  0
STYLE
  2
STANDARD
 70
     0
 40
0.0
 41
1.0
 50
0.0
 71
     0
 42
0.2
  3
txt
  4

  0
ENDTAB
  0
TABLE
  2
VIEW
 70
     0
  0
ENDTAB
  0
TABLE
  2
UCS
 70
     0
  0
ENDTAB
  0
TABLE
  2
APPID
 70
     1
  0
APPID
  2
ACAD
 70
     0
  0
ENDTAB
  0
TABLE
  2
DIMSTYLE
 70
     1
  0
DIMSTYLE
  2
STANDARD
 70
     0
  3

  4

  5

  6

  7

 40
1.0
 41
0.18
 42
0.0625
 43
0.38
 44
0.18
 45
0.0
 46
0.0
 47
0.0
 48
0.0
140
0.18
141
0.09
142
0.0
143
25.4
144
1.0
145
0.0
146
1.0
147
0.09
 71
     0
 72
     0
 73
     1
 74
     1
 75
     0
 76
     0
 77
     0
 78
     0
170
     0
171
     2
172
     0
173
     0
174
     0
175
     0
176
     0
177
     0
178
     0
  0
ENDTAB
  0
ENDSEC
  0
SECTION
  2
BLOCKS
  0
BLOCK
  8
0
  2
$MODEL_SPACE
 70
     0
 10
0.0
 20
0.0
 30
0.0
  3
$MODEL_SPACE
  1

  0
ENDBLK
  5
21
  8
0
  0
BLOCK
 67
     1
  8
0
  2
$PAPER_SPACE
 70
     0
 10
0.0
 20
0.0
 30
0.0
  3
$PAPER_SPACE
  1

  0
ENDBLK
  5
1D
 67
     1
  8
0
  0
BLOCK
  8
0
  2
E3_NODE
 70
     0
 10
0.0
 20
0.0
 30
0.0
  3
E3_NODE
  1

  0
POLYLINE
  5
3C
  8
0
 62
     9
 66
     1
 10
0.0
 20
0.0
 30
0.0
 70
    64
 71
     7
 72
     5
  0
VERTEX
  5
3D
  8
0
 10
141.8520050048828
 20
0.0
 30
-73.6969985961914
 70
   192
  0
VERTEX
  5
3E
  8
0
 10
141.9770050048828
 20
-1.241999983787537
 30
-74.66300201416016
 70
   192
  0
VERTEX
  5
3F
  8
0
 10
141.9179992675781
 20
-1.585000038146973
 30
-74.15799713134766
 70
   192
  0
VERTEX
  5
40
  8
0
 10
142.0249938964844
 20
-0.7080000042915344
 30
-75.06999969482422
 70
   192
  0
VERTEX
  5
41
  8
0
 10
142.0110015869141
 20
-1.047999978065491
 30
-74.9489974975586
 70
   192
  0
VERTEX
  5
42
  8
0
 10
142.0540008544922
 20
0.0
 30
-75.3219985961914
 70
   192
  0
VERTEX
  5
43
  8
0
 10
141.8619995117188
 20
-1.63699996471405
 30
-73.6969985961914
 70
   192
  0
VERTEX
  5
44
  8
0
 62
     9
 10
0.0
 20
0.0
 30
0.0
 70
   128
 71
     3
 72
     2
 73
     1
  0
VERTEX
  5
45
  8
0
 62
     9
 10
0.0
 20
0.0
 30
0.0
 70
   128
 71
     5
 72
     4
 73
     1
  0
VERTEX
  5
46
  8
0
 62
     9
 10
0.0
 20
0.0
 30
0.0
 70
   128
 71
     4
 72
     6
 73
     1
  0
VERTEX
  5
47
  8
0
 62
     9
 10
0.0
 20
0.0
 30
0.0
 70
   128
 71
     1
 72
     2
 73
     5
  0
VERTEX
  5
48
  8
0
 62
     9
 10
0.0
 20
0.0
 30
0.0
 70
   128
 71
     1
 72
     7
 73
     3
  0
SEQEND
  5
49
  8
0
 62
     9
  0
ENDBLK
  5
4D
  8
0
  0
BLOCK
  8
0
  2
E3_NODE_1_
 70
     0
 10
0.0
 20
0.0
 30
0.0
  3
E3_NODE_1_
  1

  0
POLYLINE
  5
4F
  8
0
 62
     9
 66
     1
 10
0.0
 20
0.0
 30
0.0
 70
    64
 71
     7
 72
     5
  0
VERTEX
  5
50
  8
0
 10
141.8520050048828
 20
0.0
 30
-73.6969985961914
 70
   192
  0
VERTEX
  5
51
  8
0
 10
142.0260009765625
 20
0.6930000185966492
 30
-75.08000183105469
 70
   192
  0
VERTEX
  5
52
  8
0
 10
142.0489959716797
 20
0.3799999952316284
 30
-75.2770004272461
 70
   192
  0
VERTEX
  5
53
  8
0
 10
141.9129943847656
 20
1.491999983787537
 30
-74.1259994506836
 70
   192
  0
VERTEX
  5
54
  8
0
 10
141.9819946289062
 20
1.297999978065491
 30
-74.70099639892578
 70
   192
  0
VERTEX
  5
55
  8
0
 10
141.8619995117188
 20
1.63699996471405
 30
-73.6969985961914
 70
   192
  0
VERTEX
  5
56
  8
0
 10
142.0540008544922
 20
0.0
 30
-75.3219985961914
 70
   192
  0
VERTEX
  5
57
  8
0
 62
     9
 10
0.0
 20
0.0
 30
0.0
 70
   128
 71
     3
 72
     2
 73
     1
  0
VERTEX
  5
58
  8
0
 62
     9
 10
0.0
 20
0.0
 30
0.0
 70
   128
 71
     5
 72
     4
 73
     1
  0
VERTEX
  5
59
  8
0
 62
     9
 10
0.0
 20
0.0
 30
0.0
 70
   128
 71
     4
 72
     6
 73
     1
  0
VERTEX
  5
5A
  8
0
 62
     9
 10
0.0
 20
0.0
 30
0.0
 70
   128
 71
     1
 72
     2
 73
     5
  0
VERTEX
  5
5B
  8
0
 62
     9
 10
0.0
 20
0.0
 30
0.0
 70
   128
 71
     1
 72
     7
 73
     3
  0
SEQEND
  5
5C
  8
0
 62
     9
  0
ENDBLK
  5
5F
  8
0
  0
BLOCK
  8
0
  2
E3_NODE_2_
 70
     0
 10
0.0
 20
0.0
 30
0.0
  3
E3_NODE_2_
  1

  0
POLYLINE
  5
61
  8
0
 62
     9
 66
     1
 10
0.0
 20
0.0
 30
0.0
 70
    64
 71
    32
 72
    34
  0
VERTEX
  5
62
  8
0
 10
141.9179992675781
 20
-1.585000038146973
 30
-74.15699768066406
 70
   192
  0
VERTEX
  5
63
  8
0
 10
143.0749969482422
 20
-8.562000274658203
 30
-80.30000305175781
 70
   192
  0
VERTEX
  5
64
  8
0
 10
142.6380004882812
 20
-10.43000030517578
 30
-76.7229995727539
 70
   192
  0
VERTEX
  5
65
  8
0
 10
141.9770050048828
 20
-1.241999983787537
 30
-74.66300201416016
 70
   192
  0
VERTEX
  5
66
  8
0
 10
143.5339965820312
 20
-2.529999971389771
 30
-84.0739974975586
 70
   192
  0
VERTEX
  5
67
  8
0
 10
142.0249938964844
 20
-0.7080000042915344
 30
-75.06999969482422
 70
   192
  0
VERTEX
  5
68
  8
0
 10
142.0540008544922
 20
0.0
 30
-75.3219985961914
 70
   192
  0
VERTEX
  5
69
  8
0
 10
143.5570068359375
 20
0.0
 30
-84.3030014038086
 70
   192
  0
VERTEX
  5
6A
  8
0
 10
143.4329986572266
 20
-4.876999855041504
 30
-83.23600006103516
 70
   192
  0
VERTEX
  5
6B
  8
0
 10
142.0110015869141
 20
-1.047999978065491
 30
-74.9489974975586
 70
   192
  0
VERTEX
  5
6C
  8
0
 10
145.8240051269531
 20
-0.0070000002160668
 30
-93.8280029296875
 70
   192
  0
VERTEX
  5
6D
  8
0
 10
145.7550048828125
 20
-4.695000171661377
 30
-93.2699966430664
 70
   192
  0
VERTEX
  5
6E
  8
0
 10
143.5740051269531
 20
0.0
 30
-84.3759994506836
 70
   192
  0
VERTEX
  5
6F
  8
0
 10
145.8240051269531
 20
0.0
 30
-93.8290023803711
 70
   192
  0
VERTEX
  5
70
  8
0
 10
145.7550048828125
 20
-4.701000213623047
 30
-93.26799774169922
 70
   192
  0
VERTEX
  5
71
  8
0
 10
143.5700073242188
 20
0.0
 30
-84.35800170898438
 70
   192
  0
VERTEX
  5
72
  8
0
 10
145.6190032958984
 20
-7.732999801635742
 30
-92.16100311279297
 70
   192
  0
VERTEX
  5
73
  8
0
 10
145.5410003662109
 20
-9.043999671936035
 30
-91.52899932861328
 70
   192
  0
VERTEX
  5
74
  8
0
 10
145.6880035400391
 20
-6.566999912261963
 30
-92.72200012207031
 70
   192
  0
VERTEX
  5
75
  8
0
 10
145.3029937744141
 20
-12.42199993133545
 30
-89.58599853515625
 70
   192
  0
VERTEX
  5
76
  8
0
 10
145.0839996337891
 20
-14.29599952697754
 30
-87.802001953125
 70
   192
  0
VERTEX
  5
77
  8
0
 10
145.4299926757812
 20
-10.92399978637695
 30
-90.6240005493164
 70
   192
  0
VERTEX
  5
78
  8
0
 10
144.2969970703125
 20
-18.83099937438965
 30
-81.39399719238281
 70
   192
  0
VERTEX
  5
79
  8
0
 10
144.1929931640625
 20
-19.26399993896484
 30
-80.54499816894531
 70
   192
  0
VERTEX
  5
7A
  8
0
 10
144.6750030517578
 20
-17.25900077819824
 30
-84.4739990234375
 70
   192
  0
VERTEX
  5
7B
  8
0
 10
144.8930053710938
 20
-15.93099975585938
 30
-86.24600219726562
 70
   192
  0
VERTEX
  5
7C
  8
0
 10
143.5879974365234
 20
-20.24799919128418
 30
-75.61799621582031
 70
   192
  0
VERTEX
  5
7D
  8
0
 10
142.3600006103516
 20
-10.71700000762939
 30
-74.42400360107422
 70
   192
  0
VERTEX
  5
7E
  8
0
 10
144.0509948730469
 20
-19.62299919128418
 30
-79.38999938964844
 70
   192
  0
VERTEX
  5
7F
  8
0
 10
144.0030059814453
 20
-19.74200057983398
 30
-79.00299835205078
 70
   192
  0
VERTEX
  5
80
  8
0
 10
142.3569946289062
 20
-10.69200038909912
 30
-74.4209976196289
 70
   192
  0
VERTEX
  5
81
  8
0
 10
141.8619995117188
 20
-1.63699996471405
 30
-73.6969985961914
 70
   192
  0
VERTEX
  5
82
  8
0
 62
     9
 10
0.0
 20
0.0
 30
0.0
 70
   128
 71
     3
 72
     2
 73
     1
  0
VERTEX
  5
83
  8
0
 62
     9
 10
0.0
 20
0.0
 30
0.0
 70
   128
 71
     2
 72
     4
 73
     1
  0
VERTEX
  5
84
  8
0
 62
     9
 10
0.0
 20
0.0
 30
0.0
 70
   128
 71
     7
 72
     6
 73
     5
  0
VERTEX
  5
85
  8
0
 62
     9
 10
0.0
 20
0.0
 30
0.0
 70
   128
 71
     5
 72
     8
 73
     7
  0
VERTEX
  5
86
  8
0
 62
     9
 10
0.0
 20
0.0
 30
0.0
 70
   128
 71
     6
 72
     9
 73
     5
  0
VERTEX
  5
87
  8
0
 62
     9
 10
0.0
 20
0.0
 30
0.0
 70
   128
 71
    10
 72
     4
 73
     2
  0
VERTEX
  5
88
  8
0
 62
     9
 10
0.0
 20
0.0
 30
0.0
 70
   128
 71
     2
 72
     9
 73
    10
  0
VERTEX
  5
89
  8
0
 62
     9
 10
0.0
 20
0.0
 30
0.0
 70
   128
 71
    12
 72
    11
 73
     5
  0
VERTEX
  5
8A
  8
0
 62
     9
 10
0.0
 20
0.0
 30
0.0
 70
   128
 71
    11
 72
    14
 73
    13
  0
VERTEX
  5
8B
  8
0
 62
     9
 10
0.0
 20
0.0
 30
0.0
 70
   128
 71
    13
 72
     5
 73
    11
  0
VERTEX
  5
8C
  8
0
 62
     9
 10
0.0
 20
0.0
 30
0.0
 70
   128
 71
     5
 72
    15
 73
    12
  0
VERTEX
  5
8D
  8
0
 62
     9
 10
0.0
 20
0.0
 30
0.0
 70
   128
 71
    13
 72
    16
 73
     5
  0
VERTEX
  5
8E
  8
0
 62
     9
 10
0.0
 20
0.0
 30
0.0
 70
   128
 71
     9
 72
    18
 73
    17
  0
VERTEX
  5
8F
  8
0
 62
     9
 10
0.0
 20
0.0
 30
0.0
 70
   128
 71
    19
 72
    15
 73
     5
  0
VERTEX
  5
90
  8
0
 62
     9
 10
0.0
 20
0.0
 30
0.0
 70
   128
 71
     5
 72
    17
 73
    19
  0
VERTEX
  5
91
  8
0
 62
     9
 10
0.0
 20
0.0
 30
0.0
 70
   128
 71
    21
 72
    20
 73
     9
  0
VERTEX
  5
92
  8
0
 62
     9
 10
0.0
 20
0.0
 30
0.0
 70
   128
 71
    22
 72
    18
 73
     9
  0
VERTEX
  5
93
  8
0
 62
     9
 10
0.0
 20
0.0
 30
0.0
 70
   128
 71
     9
 72
    20
 73
    22
  0
VERTEX
  5
94
  8
0
 62
     9
 10
0.0
 20
0.0
 30
0.0
 70
   128
 71
     9
 72
     2
 73
    21
  0
VERTEX
  5
95
  8
0
 62
     9
 10
0.0
 20
0.0
 30
0.0
 70
   128
 71
    24
 72
    23
 73
     3
  0
VERTEX
  5
96
  8
0
 62
     9
 10
0.0
 20
0.0
 30
0.0
 70
   128
 71
    23
 72
    25
 73
     2
  0
VERTEX
  5
97
  8
0
 62
     9
 10
0.0
 20
0.0
 30
0.0
 70
   128
 71
    25
 72
    26
 73
     2
  0
VERTEX
  5
98
  8
0
 62
     9
 10
0.0
 20
0.0
 30
0.0
 70
   128
 71
     2
 72
     3
 73
    23
  0
VERTEX
  5
99
  8
0
 62
     9
 10
0.0
 20
0.0
 30
0.0
 70
   128
 71
     3
 72
    28
 73
    27
  0
VERTEX
  5
9A
  8
0
 62
     9
 10
0.0
 20
0.0
 30
0.0
 70
   128
 71
    30
 72
    29
 73
     3
  0
VERTEX
  5
9B
  8
0
 62
     9
 10
0.0
 20
0.0
 30
0.0
 70
   128
 71
     1
 72
    32
 73
    31
  0
VERTEX
  5
9C
  8
0
 62
     9
 10
0.0
 20
0.0
 30
0.0
 70
   128
 71
    31
 72
    28
 73
     3
  0
VERTEX
  5
9D
  8
0
 62
     9
 10
0.0
 20
0.0
 30
0.0
 70
   128
 71
    31
 72
     3
 73
     1
  0
VERTEX
  5
9E
  8
0
 62
     9
 10
0.0
 20
0.0
 30
0.0
 70
   128
 71
    27
 72
    30
 73
     3
  0
VERTEX
  5
9F
  8
0
 62
     9
 10
0.0
 20
0.0
 30
0.0
 70
   128
 71
     3
 72
    29
 73
    24
  0
VERTEX
  5
A0
  8
0
 62
     9
 10
0.0
 20
0.0
 30
0.0
 70
   128
 71
     2
 72
    26
 73
    21
  0
VERTEX
  5
A1
  8
0
 62
     9
 10
0.0
 20
0.0
 30
0.0
 70
   128
 71
    17
 72
     5
 73
     9
  0
VERTEX
  5
A2
  8
0
 62
     9
 10
0.0
 20
0.0
 30
0.0
 70
   128
 71
     9
 72
     6
 73
    10
  0
VERTEX
  5
A3
  8
0
 62
     9
 10
0.0
 20
0.0
 30
0.0
 70
   128
 71
     5
 72
    16
 73
     8
  0
SEQEND
  5
A4
  8
0
 62
     9
  0
ENDBLK
  5
A7
  8
0
  0
BLOCK
  8
0
  2
E3_NODE_3_
 70
     0
 10
0.0
 20
0.0
 30
0.0
  3
E3_NODE_3_
  1

  0
POLYLINE
  5
A9
  8
0
 62
     9
 66
     1
 10
0.0
 20
0.0
 30
0.0
 70
    64
 71
    33
 72
    35
  0
VERTEX
  5
AA
  8
0
 10
142.6399993896484
 20
10.44799995422363
 30
-76.72799682617188
 70
   192
  0
VERTEX
  5
AB
  8
0
 10
143.0780029296875
 20
8.576000213623047
 30
-80.31099700927734
 70
   192
  0
VERTEX
  5
AC
  8
0
 10
141.9819946289062
 20
1.297999978065491
 30
-74.70099639892578
 70
   192
  0
VERTEX
  5
AD
  8
0
 10
143.4360046386719
 20
4.885000228881836
 30
-83.25299835205078
 70
   192
  0
VERTEX
  5
AE
  8
0
 10
143.5379943847656
 20
2.533999919891357
 30
-84.09200286865234
 70
   192
  0
VERTEX
  5
AF
  8
0
 10
142.0489959716797
 20
0.3799999952316284
 30
-75.2770004272461
 70
   192
  0
VERTEX
  5
B0
  8
0
 10
143.5570068359375
 20
0.0
 30
-84.3030014038086
 70
   192
  0
VERTEX
  5
B1
  8
0
 10
142.0540008544922
 20
0.0
 30
-75.3219985961914
 70
   192
  0
VERTEX
  5
B2
  8
0
 10
143.5700073242188
 20
0.0
 30
-84.35800170898438
 70
   192
  0
VERTEX
  5
B3
  8
0
 10
143.5740051269531
 20
0.0
 30
-84.3759994506836
 70
   192
  0
VERTEX
  5
B4
  8
0
 10
142.0260009765625
 20
0.6930000185966492
 30
-75.08000183105469
 70
   192
  0
VERTEX
  5
B5
  8
0
 10
141.9129943847656
 20
1.491999983787537
 30
-74.1259994506836
 70
   192
  0
VERTEX
  5
B6
  8
0
 10
141.8619995117188
 20
1.63699996471405
 30
-73.6969985961914
 70
   192
  0
VERTEX
  5
B7
  8
0
 10
142.0449981689453
 20
7.257999897003174
 30
-73.6969985961914
 70
   192
  0
VERTEX
  5
B8
  8
0
 10
143.4199981689453
 20
20.28300094604492
 30
-74.25499725341797
 70
   192
  0
VERTEX
  5
B9
  8
0
 10
144.0039978027344
 20
19.74200057983398
 30
-79.00499725341797
 70
   192
  0
VERTEX
  5
BA
  8
0
 10
142.3919982910156
 20
10.70899963378906
 30
-73.697998046875
 70
   192
  0
VERTEX
  5
BB
  8
0
 10
143.3580017089844
 20
20.29299926757812
 30
-73.70099639892578
 70
   192
  0
VERTEX
  5
BC
  8
0
 10
144.2960052490234
 20
18.78499984741211
 30
-81.38899993896484
 70
   192
  0
VERTEX
  5
BD
  8
0
 10
144.5050048828125
 20
18.10199928283691
 30
-83.09100341796875
 70
   192
  0
VERTEX
  5
BE
  8
0
 10
144.6540069580078
 20
17.37100028991699
 30
-84.30500030517578
 70
   192
  0
VERTEX
  5
BF
  8
0
 10
144.0489959716797
 20
19.5930004119873
 30
-79.37699890136719
 70
   192
  0
VERTEX
  5
C0
  8
0
 10
145.1900024414062
 20
13.55700016021729
 30
-88.66500091552734
 70
   192
  0
VERTEX
  5
C1
  8
0
 10
145.5279998779297
 20
9.553999900817871
 30
-91.41999816894531
 70
   192
  0
VERTEX
  5
C2
  8
0
 10
144.8639984130859
 20
15.94299983978271
 30
-86.01599884033203
 70
   192
  0
VERTEX
  5
C3
  8
0
 10
145.1080017089844
 20
14.28400039672852
 30
-88.00299835205078
 70
   192
  0
VERTEX
  5
C4
  8
0
 10
145.6300048828125
 20
7.765999794006348
 30
-92.25199890136719
 70
   192
  0
VERTEX
  5
C5
  8
0
 10
145.6439971923828
 20
7.526999950408936
 30
-92.36399841308594
 70
   192
  0
VERTEX
  5
C6
  8
0
 10
145.5540008544922
 20
9.095000267028809
 30
-91.63300323486328
 70
   192
  0
VERTEX
  5
C7
  8
0
 10
145.7969970703125
 20
2.957000017166138
 30
-93.60900115966797
 70
   192
  0
VERTEX
  5
C8
  8
0
 10
145.7400054931641
 20
4.665999889373779
 30
-93.14299774169922
 70
   192
  0
VERTEX
  5
C9
  8
0
 10
145.822998046875
 20
0.5249999761581421
 30
-93.8219985961914
 70
   192
  0
VERTEX
  5
CA
  8
0
 10
145.8240051269531
 20
0.0
 30
-93.8290023803711
 70
   192
  0
VERTEX
  5
CB
  8
0
 62
     9
 10
0.0
 20
0.0
 30
0.0
 70
   128
 71
     3
 72
     2
 73
     1
  0
VERTEX
  5
CC
  8
0
 62
     9
 10
0.0
 20
0.0
 30
0.0
 70
   128
 71
     6
 72
     5
 73
     4
  0
VERTEX
  5
CD
  8
0
 62
     9
 10
0.0
 20
0.0
 30
0.0
 70
   128
 71
     8
 72
     7
 73
     5
  0
VERTEX
  5
CE
  8
0
 62
     9
 10
0.0
 20
0.0
 30
0.0
 70
   128
 71
     7
 72
     9
 73
     5
  0
VERTEX
  5
CF
  8
0
 62
     9
 10
0.0
 20
0.0
 30
0.0
 70
   128
 71
     9
 72
    10
 73
     5
  0
VERTEX
  5
D0
  8
0
 62
     9
 10
0.0
 20
0.0
 30
0.0
 70
   128
 71
     5
 72
     6
 73
     8
  0
VERTEX
  5
D1
  8
0
 62
     9
 10
0.0
 20
0.0
 30
0.0
 70
   128
 71
     3
 72
    11
 73
     4
  0
VERTEX
  5
D2
  8
0
 62
     9
 10
0.0
 20
0.0
 30
0.0
 70
   128
 71
    14
 72
    13
 73
    12
  0
VERTEX
  5
D3
  8
0
 62
     9
 10
0.0
 20
0.0
 30
0.0
 70
   128
 71
    12
 72
     1
 73
    14
  0
VERTEX
  5
D4
  8
0
 62
     9
 10
0.0
 20
0.0
 30
0.0
 70
   128
 71
     1
 72
    16
 73
    15
  0
VERTEX
  5
D5
  8
0
 62
     9
 10
0.0
 20
0.0
 30
0.0
 70
   128
 71
    15
 72
    17
 73
     1
  0
VERTEX
  5
D6
  8
0
 62
     9
 10
0.0
 20
0.0
 30
0.0
 70
   128
 71
    15
 72
    18
 73
    17
  0
VERTEX
  5
D7
  8
0
 62
     9
 10
0.0
 20
0.0
 30
0.0
 70
   128
 71
    19
 72
     1
 73
     2
  0
VERTEX
  5
D8
  8
0
 62
     9
 10
0.0
 20
0.0
 30
0.0
 70
   128
 71
     2
 72
    20
 73
    19
  0
VERTEX
  5
D9
  8
0
 62
     9
 10
0.0
 20
0.0
 30
0.0
 70
   128
 71
     2
 72
    21
 73
    20
  0
VERTEX
  5
DA
  8
0
 62
     9
 10
0.0
 20
0.0
 30
0.0
 70
   128
 71
    19
 72
    22
 73
     1
  0
VERTEX
  5
DB
  8
0
 62
     9
 10
0.0
 20
0.0
 30
0.0
 70
   128
 71
     4
 72
    24
 73
    23
  0
VERTEX
  5
DC
  8
0
 62
     9
 10
0.0
 20
0.0
 30
0.0
 70
   128
 71
    23
 72
     2
 73
     4
  0
VERTEX
  5
DD
  8
0
 62
     9
 10
0.0
 20
0.0
 30
0.0
 70
   128
 71
    26
 72
    25
 73
     2
  0
VERTEX
  5
DE
  8
0
 62
     9
 10
0.0
 20
0.0
 30
0.0
 70
   128
 71
     2
 72
    23
 73
    26
  0
VERTEX
  5
DF
  8
0
 62
     9
 10
0.0
 20
0.0
 30
0.0
 70
   128
 71
    28
 72
    27
 73
     5
  0
VERTEX
  5
E0
  8
0
 62
     9
 10
0.0
 20
0.0
 30
0.0
 70
   128
 71
    27
 72
    29
 73
     4
  0
VERTEX
  5
E1
  8
0
 62
     9
 10
0.0
 20
0.0
 30
0.0
 70
   128
 71
     4
 72
     5
 73
    27
  0
VERTEX
  5
E2
  8
0
 62
     9
 10
0.0
 20
0.0
 30
0.0
 70
   128
 71
     5
 72
    10
 73
    30
  0
VERTEX
  5
E3
  8
0
 62
     9
 10
0.0
 20
0.0
 30
0.0
 70
   128
 71
    30
 72
    31
 73
     5
  0
VERTEX
  5
E4
  8
0
 62
     9
 10
0.0
 20
0.0
 30
0.0
 70
   128
 71
    10
 72
    32
 73
    30
  0
VERTEX
  5
E5
  8
0
 62
     9
 10
0.0
 20
0.0
 30
0.0
 70
   128
 71
    10
 72
    33
 73
    32
  0
VERTEX
  5
E6
  8
0
 62
     9
 10
0.0
 20
0.0
 30
0.0
 70
   128
 71
     5
 72
    31
 73
    28
  0
VERTEX
  5
E7
  8
0
 62
     9
 10
0.0
 20
0.0
 30
0.0
 70
   128
 71
     4
 72
    29
 73
    24
  0
VERTEX
  5
E8
  8
0
 62
     9
 10
0.0
 20
0.0
 30
0.0
 70
   128
 71
     2
 72
    25
 73
    21
  0
VERTEX
  5
E9
  8
0
 62
     9
 10
0.0
 20
0.0
 30
0.0
 70
   128
 71
     1
 72
    22
 73
    16
  0
VERTEX
  5
EA
  8
0
 62
     9
 10
0.0
 20
0.0
 30
0.0
 70
   128
 71
     1
 72
    17
 73
    14
  0
VERTEX
  5
EB
  8
0
 62
     9
 10
0.0
 20
0.0
 30
0.0
 70
   128
 71
     4
 72
     2
 73
     3
  0
VERTEX
  5
EC
  8
0
 62
     9
 10
0.0
 20
0.0
 30
0.0
 70
   128
 71
     4
 72
    11
 73
     6
  0
VERTEX
  5
ED
  8
0
 62
     9
 10
0.0
 20
0.0
 30
0.0
 70
   128
 71
     1
 72
    12
 73
     3
  0
SEQEND
  5
EE
  8
0
 62
     9
  0
ENDBLK
  5
F1
  8
0
  0
BLOCK
  8
0
  2
E3_NODE_4_
 70
     0
 10
0.0
 20
0.0
 30
0.0
  3
E3_NODE_4_
  1

  0
POLYLINE
  5
F3
  8
0
 62
     9
 66
     1
 10
0.0
 20
0.0
 30
0.0
 70
    64
 71
    74
 72
    79
  0
VERTEX
  5
F4
  8
0
 10
146.1419982910156
 20
-18.55299949645996
 30
-81.28900146484375
 70
   192
  0
VERTEX
  5
F5
  8
0
 10
144.0509948730469
 20
-19.62299919128418
 30
-79.38999938964844
 70
   192
  0
VERTEX
  5
F6
  8
0
 10
144.1929931640625
 20
-19.26399993896484
 30
-80.54499816894531
 70
   192
  0
VERTEX
  5
F7
  8
0
 10
145.2100067138672
 20
-19.89800071716309
 30
-73.697998046875
 70
   192
  0
VERTEX
  5
F8
  8
0
 10
143.5879974365234
 20
-20.24799919128418
 30
-75.61799621582031
 70
   192
  0
VERTEX
  5
F9
  8
0
 10
144.0030059814453
 20
-19.74200057983398
 30
-79.00299835205078
 70
   192
  0
VERTEX
  5
FA
  8
0
 10
143.3549957275391
 20
-20.28300094604492
 30
-73.6969985961914
 70
   192
  0
VERTEX
  5
FB
  8
0
 10
146.9210052490234
 20
-14.11699962615967
 30
-87.63099670410156
 70
   192
  0
VERTEX
  5
FC
  8
0
 10
144.6750030517578
 20
-17.25900077819824
 30
-84.4739990234375
 70
   192
  0
VERTEX
  5
FD
  8
0
 10
144.2969970703125
 20
-18.83099937438965
 30
-81.39399719238281
 70
   192
  0
VERTEX
  5
FE
  8
0
 10
144.8930053710938
 20
-15.93099975585938
 30
-86.24600219726562
 70
   192
  0
VERTEX
  5
FF
  8
0
 10
145.3029937744141
 20
-12.42199993133545
 30
-89.58599853515625
 70
   192
  0
VERTEX
  5
100
  8
0
 10
145.4299926757812
 20
-10.92399978637695
 30
-90.6240005493164
 70
   192
  0
VERTEX
  5
101
  8
0
 10
147.4459991455078
 20
-7.632999897003174
 30
-91.90799713134766
 70
   192
  0
VERTEX
  5
102
  8
0
 10
145.0839996337891
 20
-14.29599952697754
 30
-87.802001953125
 70
   192
  0
VERTEX
  5
103
  8
0
 10
145.5410003662109
 20
-9.043999671936035
 30
-91.52899932861328
 70
   192
  0
VERTEX
  5
104
  8
0
 10
147.6349945068359
 20
-0.0070000002160668
 30
-93.447998046875
 70
   192
  0
VERTEX
  5
105
  8
0
 10
145.7550048828125
 20
-4.695000171661377
 30
-93.2699966430664
 70
   192
  0
VERTEX
  5
106
  8
0
 10
145.7550048828125
 20
-4.701000213623047
 30
-93.26799774169922
 70
   192
  0
VERTEX
  5
107
  8
0
 10
145.6190032958984
 20
-7.732999801635742
 30
-92.16100311279297
 70
   192
  0
VERTEX
  5
108
  8
0
 10
145.6880035400391
 20
-6.566999912261963
 30
-92.72200012207031
 70
   192
  0
VERTEX
  5
109
  8
0
 10
147.4459991455078
 20
7.623000144958496
 30
-91.91200256347656
 70
   192
  0
VERTEX
  5
10A
  8
0
 10
145.7400054931641
 20
4.665999889373779
 30
-93.14299774169922
 70
   192
  0
VERTEX
  5
10B
  8
0
 10
145.6439971923828
 20
7.526999950408936
 30
-92.36399841308594
 70
   192
  0
VERTEX
  5
10C
  8
0
 10
145.7969970703125
 20
2.957000017166138
 30
-93.60900115966797
 70
   192
  0
VERTEX
  5
10D
  8
0
 10
145.822998046875
 20
0.5249999761581421
 30
-93.8219985961914
 70
   192
  0
VERTEX
  5
10E
  8
0
 10
145.8240051269531
 20
-0.0070000002160668
 30
-93.8280029296875
 70
   192
  0
VERTEX
  5
10F
  8
0
 10
145.8240051269531
 20
0.0
 30
-93.8290023803711
 70
   192
  0
VERTEX
  5
110
  8
0
 10
146.9210052490234
 20
14.11200046539307
 30
-87.63600158691406
 70
   192
  0
VERTEX
  5
111
  8
0
 10
145.5279998779297
 20
9.553999900817871
 30
-91.41999816894531
 70
   192
  0
VERTEX
  5
112
  8
0
 10
145.5540008544922
 20
9.095000267028809
 30
-91.63300323486328
 70
   192
  0
VERTEX
  5
113
  8
0
 10
145.1900024414062
 20
13.55700016021729
 30
-88.66500091552734
 70
   192
  0
VERTEX
  5
114
  8
0
 10
145.6300048828125
 20
7.765999794006348
 30
-92.25199890136719
 70
   192
  0
VERTEX
  5
115
  8
0
 10
146.1419982910156
 20
18.55100059509277
 30
-81.29299926757812
 70
   192
  0
VERTEX
  5
116
  8
0
 10
144.6540069580078
 20
17.37100028991699
 30
-84.30500030517578
 70
   192
  0
VERTEX
  5
117
  8
0
 10
144.5050048828125
 20
18.10199928283691
 30
-83.09100341796875
 70
   192
  0
VERTEX
  5
118
  8
0
 10
144.8639984130859
 20
15.94299983978271
 30
-86.01599884033203
 70
   192
  0
VERTEX
  5
119
  8
0
 10
145.1080017089844
 20
14.28400039672852
 30
-88.00299835205078
 70
   192
  0
VERTEX
  5
11A
  8
0
 10
145.2100067138672
 20
19.89800071716309
 30
-73.697998046875
 70
   192
  0
VERTEX
  5
11B
  8
0
 10
144.0039978027344
 20
19.74200057983398
 30
-79.00499725341797
 70
   192
  0
VERTEX
  5
11C
  8
0
 10
144.0489959716797
 20
19.5930004119873
 30
-79.37699890136719
 70
   192
  0
VERTEX
  5
11D
  8
0
 10
144.2960052490234
 20
18.78499984741211
 30
-81.38899993896484
 70
   192
  0
VERTEX
  5
11E
  8
0
 10
143.6139984130859
 20
20.22900009155273
 30
-73.6969985961914
 70
   192
  0
VERTEX
  5
11F
  8
0
 10
143.4199981689453
 20
20.28300094604492
 30
-74.25499725341797
 70
   192
  0
VERTEX
  5
120
  8
0
 10
143.3580017089844
 20
20.29299926757812
 30
-73.70099639892578
 70
   192
  0
VERTEX
  5
121
  8
0
 10
143.8760070800781
 20
20.17499923706055
 30
-73.6969985961914
 70
   192
  0
VERTEX
  5
122
  8
0
 10
147.4669952392578
 20
19.3129997253418
 30
-77.27400207519531
 70
   192
  0
VERTEX
  5
123
  8
0
 10
147.0390014648438
 20
19.51899909973145
 30
-73.697998046875
 70
   192
  0
VERTEX
  5
124
  8
0
 10
147.2510070800781
 20
19.48800086975098
 30
-75.48999786376953
 70
   192
  0
VERTEX
  5
125
  8
0
 10
147.6840057373047
 20
18.94099998474121
 30
-79.02799987792969
 70
   192
  0
VERTEX
  5
126
  8
0
 10
148.3320007324219
 20
16.5620002746582
 30
-84.13300323486328
 70
   192
  0
VERTEX
  5
127
  8
0
 10
148.1900024414062
 20
17.25799942016602
 30
-83.02100372314453
 70
   192
  0
VERTEX
  5
128
  8
0
 10
147.9459991455078
 20
18.06999969482422
 30
-81.09600067138672
 70
   192
  0
VERTEX
  5
129
  8
0
 10
148.8609924316406
 20
12.79899978637695
 30
-88.30599975585938
 70
   192
  0
VERTEX
  5
12A
  8
0
 10
148.7879943847656
 20
13.46399974822998
 30
-87.72100067138672
 70
   192
  0
VERTEX
  5
12B
  8
0
 10
148.7380065917969
 20
13.79899978637695
 30
-87.33300018310547
 70
   192
  0
VERTEX
  5
12C
  8
0
 10
149.1840057373047
 20
8.831000328063965
 30
-90.93499755859375
 70
   192
  0
VERTEX
  5
12D
  8
0
 10
149.2870025634766
 20
6.902999877929688
 30
-91.78900146484375
 70
   192
  0
VERTEX
  5
12E
  8
0
 10
149.4190063476562
 20
2.401000022888184
 30
-92.91699981689453
 70
   192
  0
VERTEX
  5
12F
  8
0
 10
149.2570037841797
 20
7.466000080108643
 30
-91.54000091552734
 70
   192
  0
VERTEX
  5
130
  8
0
 10
149.3760070800781
 20
-4.452000141143799
 30
-92.54499816894531
 70
   192
  0
VERTEX
  5
131
  8
0
 10
149.3150024414062
 20
-6.236000061035156
 30
-92.02999877929688
 70
   192
  0
VERTEX
  5
132
  8
0
 10
149.4369964599609
 20
0.153999999165535
 30
-93.06700134277344
 70
   192
  0
VERTEX
  5
133
  8
0
 10
149.0679931640625
 20
-10.51200008392334
 30
-89.9800033569336
 70
   192
  0
VERTEX
  5
134
  8
0
 10
148.947998046875
 20
-11.91699981689453
 30
-89.00900268554688
 70
   192
  0
VERTEX
  5
135
  8
0
 10
149.2460021972656
 20
-7.435999870300293
 30
-91.45500183105469
 70
   192
  0
VERTEX
  5
136
  8
0
 10
148.5359954833984
 20
-15.36200046539307
 30
-85.7300033569336
 70
   192
  0
VERTEX
  5
137
  8
0
 10
148.3280029296875
 20
-16.58200073242188
 30
-84.1050033569336
 70
   192
  0
VERTEX
  5
138
  8
0
 10
148.72900390625
 20
-13.75
 30
-87.26499938964844
 70
   192
  0
VERTEX
  5
139
  8
0
 10
147.6679992675781
 20
-18.97400093078613
 30
-78.90399932861328
 70
   192
  0
VERTEX
  5
13A
  8
0
 10
147.1419982910156
 20
-19.51600074768066
 30
-74.56500244140625
 70
   192
  0
VERTEX
  5
13B
  8
0
 10
147.9459991455078
 20
-18.11700057983398
 30
-81.10399627685547
 70
   192
  0
VERTEX
  5
13C
  8
0
 10
147.8370056152344
 20
-18.55299949645996
 30
-80.25299835205078
 70
   192
  0
VERTEX
  5
13D
  8
0
 10
147.0390014648438
 20
-19.51899909973145
 30
-73.697998046875
 70
   192
  0
VERTEX
  5
13E
  8
0
 62
     9
 10
0.0
 20
0.0
 30
0.0
 70
   128
 71
     3
 72
     2
 73
     1
  0
VERTEX
  5
13F
  8
0
 62
     9
 10
0.0
 20
0.0
 30
0.0
 70
   128
 71
     6
 72
     5
 73
     4
  0
VERTEX
  5
140
  8
0
 62
     9
 10
0.0
 20
0.0
 30
0.0
 70
   128
 71
     4
 72
     1
 73
     6
  0
VERTEX
  5
141
  8
0
 62
     9
 10
0.0
 20
0.0
 30
0.0
 70
   128
 71
     5
 72
     7
 73
     4
  0
VERTEX
  5
142
  8
0
 62
     9
 10
0.0
 20
0.0
 30
0.0
 70
   128
 71
     1
 72
     2
 73
     6
  0
VERTEX
  5
143
  8
0
 62
     9
 10
0.0
 20
0.0
 30
0.0
 70
   128
 71
     9
 72
     1
 73
     8
  0
VERTEX
  5
144
  8
0
 62
     9
 10
0.0
 20
0.0
 30
0.0
 70
   128
 71
     9
 72
    10
 73
     1
  0
VERTEX
  5
145
  8
0
 62
     9
 10
0.0
 20
0.0
 30
0.0
 70
   128
 71
     8
 72
    11
 73
     9
  0
VERTEX
  5
146
  8
0
 62
     9
 10
0.0
 20
0.0
 30
0.0
 70
   128
 71
    13
 72
    12
 73
     8
  0
VERTEX
  5
147
  8
0
 62
     9
 10
0.0
 20
0.0
 30
0.0
 70
   128
 71
     8
 72
    14
 73
    13
  0
VERTEX
  5
148
  8
0
 62
     9
 10
0.0
 20
0.0
 30
0.0
 70
   128
 71
    12
 72
    15
 73
     8
  0
VERTEX
  5
149
  8
0
 62
     9
 10
0.0
 20
0.0
 30
0.0
 70
   128
 71
    14
 72
    16
 73
    13
  0
VERTEX
  5
14A
  8
0
 62
     9
 10
0.0
 20
0.0
 30
0.0
 70
   128
 71
    18
 72
    14
 73
    17
  0
VERTEX
  5
14B
  8
0
 62
     9
 10
0.0
 20
0.0
 30
0.0
 70
   128
 71
    18
 72
    19
 73
    14
  0
VERTEX
  5
14C
  8
0
 62
     9
 10
0.0
 20
0.0
 30
0.0
 70
   128
 71
    21
 72
    20
 73
    14
  0
VERTEX
  5
14D
  8
0
 62
     9
 10
0.0
 20
0.0
 30
0.0
 70
   128
 71
    14
 72
    19
 73
    21
  0
VERTEX
  5
14E
  8
0
 62
     9
 10
0.0
 20
0.0
 30
0.0
 70
   128
 71
    24
 72
    23
 73
    22
  0
VERTEX
  5
14F
  8
0
 62
     9
 10
0.0
 20
0.0
 30
0.0
 70
   128
 71
    23
 72
    25
 73
    17
  0
VERTEX
  5
150
  8
0
 62
     9
 10
0.0
 20
0.0
 30
0.0
 70
   128
 71
    25
 72
    26
 73
    17
  0
VERTEX
  5
151
  8
0
 62
     9
 10
0.0
 20
0.0
 30
0.0
 70
   128
 71
    28
 72
    27
 73
    17
  0
VERTEX
  5
152
  8
0
 62
     9
 10
0.0
 20
0.0
 30
0.0
 70
   128
 71
    17
 72
    26
 73
    28
  0
VERTEX
  5
153
  8
0
 62
     9
 10
0.0
 20
0.0
 30
0.0
 70
   128
 71
    17
 72
    22
 73
    23
  0
VERTEX
  5
154
  8
0
 62
     9
 10
0.0
 20
0.0
 30
0.0
 70
   128
 71
    30
 72
    22
 73
    29
  0
VERTEX
  5
155
  8
0
 62
     9
 10
0.0
 20
0.0
 30
0.0
 70
   128
 71
    30
 72
    31
 73
    22
  0
VERTEX
  5
156
  8
0
 62
     9
 10
0.0
 20
0.0
 30
0.0
 70
   128
 71
    29
 72
    32
 73
    30
  0
VERTEX
  5
157
  8
0
 62
     9
 10
0.0
 20
0.0
 30
0.0
 70
   128
 71
    31
 72
    33
 73
    22
  0
VERTEX
  5
158
  8
0
 62
     9
 10
0.0
 20
0.0
 30
0.0
 70
   128
 71
    36
 72
    35
 73
    34
  0
VERTEX
  5
159
  8
0
 62
     9
 10
0.0
 20
0.0
 30
0.0
 70
   128
 71
    35
 72
    37
 73
    29
  0
VERTEX
  5
15A
  8
0
 62
     9
 10
0.0
 20
0.0
 30
0.0
 70
   128
 71
    29
 72
    34
 73
    35
  0
VERTEX
  5
15B
  8
0
 62
     9
 10
0.0
 20
0.0
 30
0.0
 70
   128
 71
    37
 72
    38
 73
    29
  0
VERTEX
  5
15C
  8
0
 62
     9
 10
0.0
 20
0.0
 30
0.0
 70
   128
 71
    40
 72
    34
 73
    39
  0
VERTEX
  5
15D
  8
0
 62
     9
 10
0.0
 20
0.0
 30
0.0
 70
   128
 71
    40
 72
    41
 73
    34
  0
VERTEX
  5
15E
  8
0
 62
     9
 10
0.0
 20
0.0
 30
0.0
 70
   128
 71
    41
 72
    42
 73
    34
  0
VERTEX
  5
15F
  8
0
 62
     9
 10
0.0
 20
0.0
 30
0.0
 70
   128
 71
    44
 72
    40
 73
    43
  0
VERTEX
  5
160
  8
0
 62
     9
 10
0.0
 20
0.0
 30
0.0
 70
   128
 71
    43
 72
    45
 73
    44
  0
VERTEX
  5
161
  8
0
 62
     9
 10
0.0
 20
0.0
 30
0.0
 70
   128
 71
    40
 72
    46
 73
    43
  0
VERTEX
  5
162
  8
0
 62
     9
 10
0.0
 20
0.0
 30
0.0
 70
   128
 71
    47
 72
    39
 73
    34
  0
VERTEX
  5
163
  8
0
 62
     9
 10
0.0
 20
0.0
 30
0.0
 70
   128
 71
    49
 72
    48
 73
    39
  0
VERTEX
  5
164
  8
0
 62
     9
 10
0.0
 20
0.0
 30
0.0
 70
   128
 71
    39
 72
    47
 73
    49
  0
VERTEX
  5
165
  8
0
 62
     9
 10
0.0
 20
0.0
 30
0.0
 70
   128
 71
    34
 72
    50
 73
    47
  0
VERTEX
  5
166
  8
0
 62
     9
 10
0.0
 20
0.0
 30
0.0
 70
   128
 71
    51
 72
    34
 73
    29
  0
VERTEX
  5
167
  8
0
 62
     9
 10
0.0
 20
0.0
 30
0.0
 70
   128
 71
    51
 72
    52
 73
    34
  0
VERTEX
  5
168
  8
0
 62
     9
 10
0.0
 20
0.0
 30
0.0
 70
   128
 71
    52
 72
    53
 73
    34
  0
VERTEX
  5
169
  8
0
 62
     9
 10
0.0
 20
0.0
 30
0.0
 70
   128
 71
    54
 72
    29
 73
    22
  0
VERTEX
  5
16A
  8
0
 62
     9
 10
0.0
 20
0.0
 30
0.0
 70
   128
 71
    54
 72
    55
 73
    29
  0
VERTEX
  5
16B
  8
0
 62
     9
 10
0.0
 20
0.0
 30
0.0
 70
   128
 71
    55
 72
    56
 73
    29
  0
VERTEX
  5
16C
  8
0
 62
     9
 10
0.0
 20
0.0
 30
0.0
 70
   128
 71
    22
 72
    57
 73
    54
  0
VERTEX
  5
16D
  8
0
 62
     9
 10
0.0
 20
0.0
 30
0.0
 70
   128
 71
    59
 72
    58
 73
    22
  0
VERTEX
  5
16E
  8
0
 62
     9
 10
0.0
 20
0.0
 30
0.0
 70
   128
 71
    58
 72
    60
 73
    22
  0
VERTEX
  5
16F
  8
0
 62
     9
 10
0.0
 20
0.0
 30
0.0
 70
   128
 71
    22
 72
    17
 73
    59
  0
VERTEX
  5
170
  8
0
 62
     9
 10
0.0
 20
0.0
 30
0.0
 70
   128
 71
    62
 72
    61
 73
    14
  0
VERTEX
  5
171
  8
0
 62
     9
 10
0.0
 20
0.0
 30
0.0
 70
   128
 71
    61
 72
    63
 73
    17
  0
VERTEX
  5
172
  8
0
 62
     9
 10
0.0
 20
0.0
 30
0.0
 70
   128
 71
    17
 72
    14
 73
    61
  0
VERTEX
  5
173
  8
0
 62
     9
 10
0.0
 20
0.0
 30
0.0
 70
   128
 71
    64
 72
    14
 73
     8
  0
VERTEX
  5
174
  8
0
 62
     9
 10
0.0
 20
0.0
 30
0.0
 70
   128
 71
     8
 72
    65
 73
    64
  0
VERTEX
  5
175
  8
0
 62
     9
 10
0.0
 20
0.0
 30
0.0
 70
   128
 71
    64
 72
    66
 73
    14
  0
VERTEX
  5
176
  8
0
 62
     9
 10
0.0
 20
0.0
 30
0.0
 70
   128
 71
    68
 72
    67
 73
     8
  0
VERTEX
  5
177
  8
0
 62
     9
 10
0.0
 20
0.0
 30
0.0
 70
   128
 71
    67
 72
    69
 73
     8
  0
VERTEX
  5
178
  8
0
 62
     9
 10
0.0
 20
0.0
 30
0.0
 70
   128
 71
     8
 72
     1
 73
    68
  0
VERTEX
  5
179
  8
0
 62
     9
 10
0.0
 20
0.0
 30
0.0
 70
   128
 71
    70
 72
     1
 73
     4
  0
VERTEX
  5
17A
  8
0
 62
     9
 10
0.0
 20
0.0
 30
0.0
 70
   128
 71
     4
 72
    71
 73
    70
  0
VERTEX
  5
17B
  8
0
 62
     9
 10
0.0
 20
0.0
 30
0.0
 70
   128
 71
    73
 72
    72
 73
     1
  0
VERTEX
  5
17C
  8
0
 62
     9
 10
0.0
 20
0.0
 30
0.0
 70
   128
 71
     1
 72
    70
 73
    73
  0
VERTEX
  5
17D
  8
0
 62
     9
 10
0.0
 20
0.0
 30
0.0
 70
   128
 71
     4
 72
    74
 73
    71
  0
VERTEX
  5
17E
  8
0
 62
     9
 10
0.0
 20
0.0
 30
0.0
 70
   128
 71
     1
 72
    72
 73
    68
  0
VERTEX
  5
17F
  8
0
 62
     9
 10
0.0
 20
0.0
 30
0.0
 70
   128
 71
     8
 72
    69
 73
    65
  0
VERTEX
  5
180
  8
0
 62
     9
 10
0.0
 20
0.0
 30
0.0
 70
   128
 71
    14
 72
    66
 73
    62
  0
VERTEX
  5
181
  8
0
 62
     9
 10
0.0
 20
0.0
 30
0.0
 70
   128
 71
    17
 72
    63
 73
    59
  0
VERTEX
  5
182
  8
0
 62
     9
 10
0.0
 20
0.0
 30
0.0
 70
   128
 71
    22
 72
    60
 73
    57
  0
VERTEX
  5
183
  8
0
 62
     9
 10
0.0
 20
0.0
 30
0.0
 70
   128
 71
    29
 72
    56
 73
    51
  0
VERTEX
  5
184
  8
0
 62
     9
 10
0.0
 20
0.0
 30
0.0
 70
   128
 71
    34
 72
    53
 73
    50
  0
VERTEX
  5
185
  8
0
 62
     9
 10
0.0
 20
0.0
 30
0.0
 70
   128
 71
    39
 72
    46
 73
    40
  0
VERTEX
  5
186
  8
0
 62
     9
 10
0.0
 20
0.0
 30
0.0
 70
   128
 71
    34
 72
    42
 73
    36
  0
VERTEX
  5
187
  8
0
 62
     9
 10
0.0
 20
0.0
 30
0.0
 70
   128
 71
    29
 72
    38
 73
    32
  0
VERTEX
  5
188
  8
0
 62
     9
 10
0.0
 20
0.0
 30
0.0
 70
   128
 71
    22
 72
    33
 73
    24
  0
VERTEX
  5
189
  8
0
 62
     9
 10
0.0
 20
0.0
 30
0.0
 70
   128
 71
    17
 72
    27
 73
    18
  0
VERTEX
  5
18A
  8
0
 62
     9
 10
0.0
 20
0.0
 30
0.0
 70
   128
 71
    14
 72
    20
 73
    16
  0
VERTEX
  5
18B
  8
0
 62
     9
 10
0.0
 20
0.0
 30
0.0
 70
   128
 71
     8
 72
    15
 73
    11
  0
VERTEX
  5
18C
  8
0
 62
     9
 10
0.0
 20
0.0
 30
0.0
 70
   128
 71
     1
 72
    10
 73
     3
  0
SEQEND
  5
18D
  8
0
 62
     9
  0
ENDBLK
  5
190
  8
0
  0
BLOCK
  8
0
  2
E3_NODE_5_
 70
     0
 10
0.0
 20
0.0
 30
0.0
  3
E3_NODE_5_
  1

  0
POLYLINE
  5
192
  8
0
 62
     9
 66
     1
 10
0.0
 20
0.0
 30
0.0
 70
    64
 71
    25
 72
    23
  0
VERTEX
  5
193
  8
0
 10
136.0980072021484
 20
6.968999862670898
 30
-25.39299964904785
 70
   192
  0
VERTEX
  5
194
  8
0
 10
136.2469940185547
 20
10.47700023651123
 30
-24.45599937438965
 70
   192
  0
VERTEX
  5
195
  8
0
 10
141.2550048828125
 20
20.26399993896484
 30
-56.58499908447266
 70
   192
  0
VERTEX
  5
196
  8
0
 10
142.3919982910156
 20
10.70899963378906
 30
-73.697998046875
 70
   192
  0
VERTEX
  5
197
  8
0
 10
143.3580017089844
 20
20.29299926757812
 30
-73.70099639892578
 70
   192
  0
VERTEX
  5
198
  8
0
 10
136.3780059814453
 20
13.58399963378906
 30
-23.625
 70
   192
  0
VERTEX
  5
199
  8
0
 10
142.0449981689453
 20
7.257999897003174
 30
-73.6969985961914
 70
   192
  0
VERTEX
  5
19A
  8
0
 10
141.8619995117188
 20
1.63699996471405
 30
-73.6969985961914
 70
   192
  0
VERTEX
  5
19B
  8
0
 10
135.9989929199219
 20
0.0160000007599592
 30
-26.02199935913086
 70
   192
  0
VERTEX
  5
19C
  8
0
 10
136.0740051269531
 20
5.295000076293945
 30
-25.54400062561035
 70
   192
  0
VERTEX
  5
19D
  8
0
 10
141.8520050048828
 20
0.0
 30
-73.6969985961914
 70
   192
  0
VERTEX
  5
19E
  8
0
 10
136.0959930419922
 20
-6.875999927520752
 30
-25.40999984741211
 70
   192
  0
VERTEX
  5
19F
  8
0
 10
142.3569946289062
 20
-10.69200038909912
 30
-74.4209976196289
 70
   192
  0
VERTEX
  5
1A0
  8
0
 10
142.3600006103516
 20
-10.71700000762939
 30
-74.42400360107422
 70
   192
  0
VERTEX
  5
1A1
  8
0
 10
136.072998046875
 20
-5.285999774932861
 30
-25.55200004577637
 70
   192
  0
VERTEX
  5
1A2
  8
0
 10
141.8619995117188
 20
-1.63699996471405
 30
-73.6969985961914
 70
   192
  0
VERTEX
  5
1A3
  8
0
 10
135.9980010986328
 20
0.0
 30
-26.02300071716309
 70
   192
  0
VERTEX
  5
1A4
  8
0
 10
143.5879974365234
 20
-20.24799919128418
 30
-75.61799621582031
 70
   192
  0
VERTEX
  5
1A5
  8
0
 10
143.3549957275391
 20
-20.28300094604492
 30
-73.6969985961914
 70
   192
  0
VERTEX
  5
1A6
  8
0
 10
136.3789978027344
 20
-13.60000038146973
 30
-23.61899948120117
 70
   192
  0
VERTEX
  5
1A7
  8
0
 10
136.2469940185547
 20
-10.46100044250488
 30
-24.45499992370605
 70
   192
  0
VERTEX
  5
1A8
  8
0
 10
138.3999938964844
 20
-20.23500061035156
 30
-33.36199951171875
 70
   192
  0
VERTEX
  5
1A9
  8
0
 10
136.843994140625
 20
-20.23399925231934
 30
-20.6879997253418
 70
   192
  0
VERTEX
  5
1AA
  8
0
 10
136.5110015869141
 20
-15.48999977111816
 30
-22.78499984741211
 70
   192
  0
VERTEX
  5
1AB
  8
0
 10
136.8410034179688
 20
20.23399925231934
 30
-20.68000030517578
 70
   192
  0
VERTEX
  5
1AC
  8
0
 62
     9
 10
0.0
 20
0.0
 30
0.0
 70
   128
 71
     3
 72
     2
 73
     1
  0
VERTEX
  5
1AD
  8
0
 62
     9
 10
0.0
 20
0.0
 30
0.0
 70
   128
 71
     1
 72
     4
 73
     3
  0
VERTEX
  5
1AE
  8
0
 62
     9
 10
0.0
 20
0.0
 30
0.0
 70
   128
 71
     4
 72
     5
 73
     3
  0
VERTEX
  5
1AF
  8
0
 62
     9
 10
0.0
 20
0.0
 30
0.0
 70
   128
 71
     3
 72
     6
 73
     2
  0
VERTEX
  5
1B0
  8
0
 62
     9
 10
0.0
 20
0.0
 30
0.0
 70
   128
 71
     9
 72
     8
 73
     7
  0
VERTEX
  5
1B1
  8
0
 62
     9
 10
0.0
 20
0.0
 30
0.0
 70
   128
 71
     7
 72
    10
 73
     9
  0
VERTEX
  5
1B2
  8
0
 62
     9
 10
0.0
 20
0.0
 30
0.0
 70
   128
 71
     7
 72
     1
 73
    10
  0
VERTEX
  5
1B3
  8
0
 62
     9
 10
0.0
 20
0.0
 30
0.0
 70
   128
 71
     7
 72
     4
 73
     1
  0
VERTEX
  5
1B4
  8
0
 62
     9
 10
0.0
 20
0.0
 30
0.0
 70
   128
 71
     9
 72
    11
 73
     8
  0
VERTEX
  5
1B5
  8
0
 62
     9
 10
0.0
 20
0.0
 30
0.0
 70
   128
 71
    14
 72
    13
 73
    12
  0
VERTEX
  5
1B6
  8
0
 62
     9
 10
0.0
 20
0.0
 30
0.0
 70
   128
 71
    15
 72
    12
 73
    13
  0
VERTEX
  5
1B7
  8
0
 62
     9
 10
0.0
 20
0.0
 30
0.0
 70
   128
 71
    13
 72
    16
 73
    15
  0
VERTEX
  5
1B8
  8
0
 62
     9
 10
0.0
 20
0.0
 30
0.0
 70
   128
 71
    17
 72
    15
 73
    11
  0
VERTEX
  5
1B9
  8
0
 62
     9
 10
0.0
 20
0.0
 30
0.0
 70
   128
 71
    15
 72
    16
 73
    11
  0
VERTEX
  5
1BA
  8
0
 62
     9
 10
0.0
 20
0.0
 30
0.0
 70
   128
 71
    19
 72
    18
 73
    12
  0
VERTEX
  5
1BB
  8
0
 62
     9
 10
0.0
 20
0.0
 30
0.0
 70
   128
 71
    21
 72
    20
 73
    19
  0
VERTEX
  5
1BC
  8
0
 62
     9
 10
0.0
 20
0.0
 30
0.0
 70
   128
 71
    24
 72
    23
 73
    22
  0
VERTEX
  5
1BD
  8
0
 62
     9
 10
0.0
 20
0.0
 30
0.0
 70
   128
 71
    22
 72
    19
 73
    20
  0
VERTEX
  5
1BE
  8
0
 62
     9
 10
0.0
 20
0.0
 30
0.0
 70
   128
 71
    22
 72
    20
 73
    24
  0
VERTEX
  5
1BF
  8
0
 62
     9
 10
0.0
 20
0.0
 30
0.0
 70
   128
 71
    12
 72
    21
 73
    19
  0
VERTEX
  5
1C0
  8
0
 62
     9
 10
0.0
 20
0.0
 30
0.0
 70
   128
 71
    12
 72
    18
 73
    14
  0
VERTEX
  5
1C1
  8
0
 62
     9
 10
0.0
 20
0.0
 30
0.0
 70
   128
 71
    11
 72
     9
 73
    17
  0
VERTEX
  5
1C2
  8
0
 62
     9
 10
0.0
 20
0.0
 30
0.0
 70
   128
 71
     3
 72
    25
 73
     6
  0
SEQEND
  5
1C3
  8
0
 62
     9
  0
ENDBLK
  5
1C6
  8
0
  0
BLOCK
  8
0
  2
E3_NODE_6_
 70
     0
 10
0.0
 20
0.0
 30
0.0
  3
E3_NODE_6_
  1

  0
POLYLINE
  5
1C8
  8
0
 62
     9
 66
     1
 10
0.0
 20
0.0
 30
0.0
 70
    64
 71
    14
 72
    12
  0
VERTEX
  5
1C9
  8
0
 10
138.0030059814453
 20
19.51899909973145
 30
-0.1110000014305115
 70
   192
  0
VERTEX
  5
1CA
  8
0
 10
136.2120056152344
 20
20.23999977111816
 30
-15.54399967193604
 70
   192
  0
VERTEX
  5
1CB
  8
0
 10
135.5800018310547
 20
20.2549991607666
 30
-10.39900016784668
 70
   192
  0
VERTEX
  5
1CC
  8
0
 10
136.2729949951172
 20
20.23900032043457
 30
-16.04500007629395
 70
   192
  0
VERTEX
  5
1CD
  8
0
 10
134.3200073242188
 20
20.28300094604492
 30
-0.136000007390976
 70
   192
  0
VERTEX
  5
1CE
  8
0
 10
143.7420043945312
 20
19.5049991607666
 30
-46.1619987487793
 70
   192
  0
VERTEX
  5
1CF
  8
0
 10
141.2550048828125
 20
20.26399993896484
 30
-56.58499908447266
 70
   192
  0
VERTEX
  5
1D0
  8
0
 10
136.8410034179688
 20
20.23399925231934
 30
-20.68000030517578
 70
   192
  0
VERTEX
  5
1D1
  8
0
 10
143.6139984130859
 20
20.22900009155273
 30
-73.6969985961914
 70
   192
  0
VERTEX
  5
1D2
  8
0
 10
143.3580017089844
 20
20.29299926757812
 30
-73.70099639892578
 70
   192
  0
VERTEX
  5
1D3
  8
0
 10
145.2100067138672
 20
19.89800071716309
 30
-73.697998046875
 70
   192
  0
VERTEX
  5
1D4
  8
0
 10
143.8760070800781
 20
20.17499923706055
 30
-73.6969985961914
 70
   192
  0
VERTEX
  5
1D5
  8
0
 10
147.0390014648438
 20
19.51899909973145
 30
-73.697998046875
 70
   192
  0
VERTEX
  5
1D6
  8
0
 10
134.3159942626953
 20
20.28400039672852
 30
-0.1089999973773956
 70
   192
  0
VERTEX
  5
1D7
  8
0
 62
     9
 10
0.0
 20
0.0
 30
0.0
 70
   128
 71
     3
 72
     2
 73
     1
  0
VERTEX
  5
1D8
  8
0
 62
     9
 10
0.0
 20
0.0
 30
0.0
 70
   128
 71
     2
 72
     4
 73
     1
  0
VERTEX
  5
1D9
  8
0
 62
     9
 10
0.0
 20
0.0
 30
0.0
 70
   128
 71
     1
 72
     5
 73
     3
  0
VERTEX
  5
1DA
  8
0
 62
     9
 10
0.0
 20
0.0
 30
0.0
 70
   128
 71
     8
 72
     7
 73
     6
  0
VERTEX
  5
1DB
  8
0
 62
     9
 10
0.0
 20
0.0
 30
0.0
 70
   128
 71
     6
 72
     1
 73
     8
  0
VERTEX
  5
1DC
  8
0
 62
     9
 10
0.0
 20
0.0
 30
0.0
 70
   128
 71
     7
 72
    10
 73
     9
  0
VERTEX
  5
1DD
  8
0
 62
     9
 10
0.0
 20
0.0
 30
0.0
 70
   128
 71
     9
 72
     6
 73
     7
  0
VERTEX
  5
1DE
  8
0
 62
     9
 10
0.0
 20
0.0
 30
0.0
 70
   128
 71
     1
 72
     4
 73
     8
  0
VERTEX
  5
1DF
  8
0
 62
     9
 10
0.0
 20
0.0
 30
0.0
 70
   128
 71
    12
 72
    11
 73
     6
  0
VERTEX
  5
1E0
  8
0
 62
     9
 10
0.0
 20
0.0
 30
0.0
 70
   128
 71
    11
 72
    13
 73
     6
  0
VERTEX
  5
1E1
  8
0
 62
     9
 10
0.0
 20
0.0
 30
0.0
 70
   128
 71
     6
 72
     9
 73
    12
  0
VERTEX
  5
1E2
  8
0
 62
     9
 10
0.0
 20
0.0
 30
0.0
 70
   128
 71
     1
 72
    14
 73
     5
  0
SEQEND
  5
1E3
  8
0
 62
     9
  0
ENDBLK
  5
1E6
  8
0
  0
BLOCK
  8
0
  2
E3_NODE_7_
 70
     0
 10
0.0
 20
0.0
 30
0.0
  3
E3_NODE_7_
  1

  0
POLYLINE
  5
1E8
  8
0
 62
     9
 66
     1
 10
0.0
 20
0.0
 30
0.0
 70
    64
 71
    60
 72
    60
  0
VERTEX
  5
1E9
  8
0
 10
137.2929992675781
 20
18.81599998474121
 30
5.60200023651123
 70
   192
  0
VERTEX
  5
1EA
  8
0
 10
137.2940063476562
 20
-18.80500030517578
 30
5.598999977111816
 70
   192
  0
VERTEX
  5
1EB
  8
0
 10
137.4629974365234
 20
-19.18400001525879
 30
4.197000026702881
 70
   192
  0
VERTEX
  5
1EC
  8
0
 10
136.7559967041016
 20
-16.6879997253418
 30
10.13300037384033
 70
   192
  0
VERTEX
  5
1ED
  8
0
 10
137.2250061035156
 20
-18.65200042724609
 30
6.160999774932861
 70
   192
  0
VERTEX
  5
1EE
  8
0
 10
136.5670013427734
 20
-15.51599979400635
 30
11.73200035095215
 70
   192
  0
VERTEX
  5
1EF
  8
0
 10
136.5260009765625
 20
-15.16600036621094
 30
12.07100009918213
 70
   192
  0
VERTEX
  5
1F0
  8
0
 10
135.9019927978516
 20
-8.343999862670898
 30
17.2189998626709
 70
   192
  0
VERTEX
  5
1F1
  8
0
 10
136.072998046875
 20
-11.00800037384033
 30
15.8430004119873
 70
   192
  0
VERTEX
  5
1F2
  8
0
 10
136.1660003662109
 20
-12.06700038909912
 30
15.08100032806396
 70
   192
  0
VERTEX
  5
1F3
  8
0
 10
136.5700073242188
 20
11.50800037384033
 30
12.18099975585938
 70
   192
  0
VERTEX
  5
1F4
  8
0
 10
135.7100067138672
 20
-4.203000068664551
 30
18.73800086975098
 70
   192
  0
VERTEX
  5
1F5
  8
0
 10
135.7169952392578
 20
-4.63700008392334
 30
18.68499946594238
 70
   192
  0
VERTEX
  5
1F6
  8
0
 10
135.8040008544922
 20
-6.821000099182129
 30
18.00600051879883
 70
   192
  0
VERTEX
  5
1F7
  8
0
 10
135.7100067138672
 20
4.201000213623047
 30
18.74300003051758
 70
   192
  0
VERTEX
  5
1F8
  8
0
 10
135.6439971923828
 20
0.0
 30
19.25399971008301
 70
   192
  0
VERTEX
  5
1F9
  8
0
 10
135.7839965820312
 20
6.388999938964844
 30
18.16200065612793
 70
   192
  0
VERTEX
  5
1FA
  8
0
 10
135.7160034179688
 20
4.599999904632568
 30
18.69400024414062
 70
   192
  0
VERTEX
  5
1FB
  8
0
 10
135.9029998779297
 20
8.33899974822998
 30
17.20800018310547
 70
   192
  0
VERTEX
  5
1FC
  8
0
 10
136.1660003662109
 20
12.06799983978271
 30
15.07999992370605
 70
   192
  0
VERTEX
  5
1FD
  8
0
 10
136.0449981689453
 20
10.65499973297119
 30
16.07500076293945
 70
   192
  0
VERTEX
  5
1FE
  8
0
 10
136.5260009765625
 20
15.16899967193604
 30
12.07600021362305
 70
   192
  0
VERTEX
  5
1FF
  8
0
 10
137.2149963378906
 20
18.62100028991699
 30
6.251999855041504
 70
   192
  0
VERTEX
  5
200
  8
0
 10
136.7579956054688
 20
16.70400047302246
 30
10.10900020599365
 70
   192
  0
VERTEX
  5
201
  8
0
 10
136.5619964599609
 20
15.48099994659424
 30
11.77400016784668
 70
   192
  0
VERTEX
  5
202
  8
0
 10
138.0030059814453
 20
-19.51899909973145
 30
-0.1110000014305115
 70
   192
  0
VERTEX
  5
203
  8
0
 10
137.9160003662109
 20
19.51799964904785
 30
0.5770000219345093
 70
   192
  0
VERTEX
  5
204
  8
0
 10
137.3739929199219
 20
19.01799964904785
 30
4.928999900817871
 70
   192
  0
VERTEX
  5
205
  8
0
 10
138.0030059814453
 20
19.51899909973145
 30
-0.1110000014305115
 70
   192
  0
VERTEX
  5
206
  8
0
 10
142.0809936523438
 20
-19.5049991607666
 30
-32.60400009155273
 70
   192
  0
VERTEX
  5
207
  8
0
 10
143.7420043945312
 20
19.5049991607666
 30
-46.1619987487793
 70
   192
  0
VERTEX
  5
208
  8
0
 10
147.7830047607422
 20
-0.7250000238418579
 30
-77.36199951171875
 70
   192
  0
VERTEX
  5
209
  8
0
 10
147.9459991455078
 20
18.06999969482422
 30
-81.09600067138672
 70
   192
  0
VERTEX
  5
20A
  8
0
 10
147.6840057373047
 20
18.94099998474121
 30
-79.02799987792969
 70
   192
  0
VERTEX
  5
20B
  8
0
 10
147.4669952392578
 20
19.3129997253418
 30
-77.27400207519531
 70
   192
  0
VERTEX
  5
20C
  8
0
 10
147.2510070800781
 20
19.48800086975098
 30
-75.48999786376953
 70
   192
  0
VERTEX
  5
20D
  8
0
 10
147.0390014648438
 20
19.51899909973145
 30
-73.697998046875
 70
   192
  0
VERTEX
  5
20E
  8
0
 10
147.0390014648438
 20
-19.51899909973145
 30
-73.697998046875
 70
   192
  0
VERTEX
  5
20F
  8
0
 10
148.3320007324219
 20
16.5620002746582
 30
-84.13300323486328
 70
   192
  0
VERTEX
  5
210
  8
0
 10
148.1900024414062
 20
17.25799942016602
 30
-83.02100372314453
 70
   192
  0
VERTEX
  5
211
  8
0
 10
148.7380065917969
 20
13.79899978637695
 30
-87.33300018310547
 70
   192
  0
VERTEX
  5
212
  8
0
 10
148.8609924316406
 20
12.79899978637695
 30
-88.30599975585938
 70
   192
  0
VERTEX
  5
213
  8
0
 10
148.7879943847656
 20
13.46399974822998
 30
-87.72100067138672
 70
   192
  0
VERTEX
  5
214
  8
0
 10
149.2570037841797
 20
7.466000080108643
 30
-91.54000091552734
 70
   192
  0
VERTEX
  5
215
  8
0
 10
149.1840057373047
 20
8.831000328063965
 30
-90.93499755859375
 70
   192
  0
VERTEX
  5
216
  8
0
 10
149.3760070800781
 20
-4.452000141143799
 30
-92.54499816894531
 70
   192
  0
VERTEX
  5
217
  8
0
 10
149.4369964599609
 20
0.153999999165535
 30
-93.06700134277344
 70
   192
  0
VERTEX
  5
218
  8
0
 10
149.4190063476562
 20
2.401000022888184
 30
-92.91699981689453
 70
   192
  0
VERTEX
  5
219
  8
0
 10
149.2870025634766
 20
6.902999877929688
 30
-91.78900146484375
 70
   192
  0
VERTEX
  5
21A
  8
0
 10
149.3150024414062
 20
-6.236000061035156
 30
-92.02999877929688
 70
   192
  0
VERTEX
  5
21B
  8
0
 10
149.2460021972656
 20
-7.435999870300293
 30
-91.45500183105469
 70
   192
  0
VERTEX
  5
21C
  8
0
 10
148.947998046875
 20
-11.91699981689453
 30
-89.00900268554688
 70
   192
  0
VERTEX
  5
21D
  8
0
 10
149.0679931640625
 20
-10.51200008392334
 30
-89.9800033569336
 70
   192
  0
VERTEX
  5
21E
  8
0
 10
148.72900390625
 20
-13.75
 30
-87.26499938964844
 70
   192
  0
VERTEX
  5
21F
  8
0
 10
147.9459991455078
 20
-18.11700057983398
 30
-81.10399627685547
 70
   192
  0
VERTEX
  5
220
  8
0
 10
148.3280029296875
 20
-16.58200073242188
 30
-84.1050033569336
 70
   192
  0
VERTEX
  5
221
  8
0
 10
148.5359954833984
 20
-15.36200046539307
 30
-85.7300033569336
 70
   192
  0
VERTEX
  5
222
  8
0
 10
147.1419982910156
 20
-19.51600074768066
 30
-74.56500244140625
 70
   192
  0
VERTEX
  5
223
  8
0
 10
147.6679992675781
 20
-18.97400093078613
 30
-78.90399932861328
 70
   192
  0
VERTEX
  5
224
  8
0
 10
147.8370056152344
 20
-18.55299949645996
 30
-80.25299835205078
 70
   192
  0
VERTEX
  5
225
  8
0
 62
     9
 10
0.0
 20
0.0
 30
0.0
 70
   128
 71
     3
 72
     2
 73
     1
  0
VERTEX
  5
226
  8
0
 62
     9
 10
0.0
 20
0.0
 30
0.0
 70
   128
 71
     5
 72
     4
 73
     1
  0
VERTEX
  5
227
  8
0
 62
     9
 10
0.0
 20
0.0
 30
0.0
 70
   128
 71
     4
 72
     6
 73
     1
  0
VERTEX
  5
228
  8
0
 62
     9
 10
0.0
 20
0.0
 30
0.0
 70
   128
 71
     6
 72
     7
 73
     1
  0
VERTEX
  5
229
  8
0
 62
     9
 10
0.0
 20
0.0
 30
0.0
 70
   128
 71
     9
 72
     8
 73
     1
  0
VERTEX
  5
22A
  8
0
 62
     9
 10
0.0
 20
0.0
 30
0.0
 70
   128
 71
     1
 72
    10
 73
     9
  0
VERTEX
  5
22B
  8
0
 62
     9
 10
0.0
 20
0.0
 30
0.0
 70
   128
 71
     1
 72
     7
 73
    10
  0
VERTEX
  5
22C
  8
0
 62
     9
 10
0.0
 20
0.0
 30
0.0
 70
   128
 71
    13
 72
    12
 73
    11
  0
VERTEX
  5
22D
  8
0
 62
     9
 10
0.0
 20
0.0
 30
0.0
 70
   128
 71
    11
 72
    14
 73
    13
  0
VERTEX
  5
22E
  8
0
 62
     9
 10
0.0
 20
0.0
 30
0.0
 70
   128
 71
    16
 72
    15
 73
    11
  0
VERTEX
  5
22F
  8
0
 62
     9
 10
0.0
 20
0.0
 30
0.0
 70
   128
 71
    11
 72
    12
 73
    16
  0
VERTEX
  5
230
  8
0
 62
     9
 10
0.0
 20
0.0
 30
0.0
 70
   128
 71
    11
 72
     1
 73
     8
  0
VERTEX
  5
231
  8
0
 62
     9
 10
0.0
 20
0.0
 30
0.0
 70
   128
 71
    18
 72
    17
 73
    11
  0
VERTEX
  5
232
  8
0
 62
     9
 10
0.0
 20
0.0
 30
0.0
 70
   128
 71
    17
 72
    19
 73
    11
  0
VERTEX
  5
233
  8
0
 62
     9
 10
0.0
 20
0.0
 30
0.0
 70
   128
 71
    21
 72
    20
 73
    11
  0
VERTEX
  5
234
  8
0
 62
     9
 10
0.0
 20
0.0
 30
0.0
 70
   128
 71
    20
 72
    22
 73
    11
  0
VERTEX
  5
235
  8
0
 62
     9
 10
0.0
 20
0.0
 30
0.0
 70
   128
 71
    24
 72
    23
 73
    11
  0
VERTEX
  5
236
  8
0
 62
     9
 10
0.0
 20
0.0
 30
0.0
 70
   128
 71
    23
 72
     1
 73
    11
  0
VERTEX
  5
237
  8
0
 62
     9
 10
0.0
 20
0.0
 30
0.0
 70
   128
 71
    11
 72
    25
 73
    24
  0
VERTEX
  5
238
  8
0
 62
     9
 10
0.0
 20
0.0
 30
0.0
 70
   128
 71
    11
 72
    22
 73
    25
  0
VERTEX
  5
239
  8
0
 62
     9
 10
0.0
 20
0.0
 30
0.0
 70
   128
 71
    11
 72
    19
 73
    21
  0
VERTEX
  5
23A
  8
0
 62
     9
 10
0.0
 20
0.0
 30
0.0
 70
   128
 71
    11
 72
    15
 73
    18
  0
VERTEX
  5
23B
  8
0
 62
     9
 10
0.0
 20
0.0
 30
0.0
 70
   128
 71
    11
 72
     8
 73
    14
  0
VERTEX
  5
23C
  8
0
 62
     9
 10
0.0
 20
0.0
 30
0.0
 70
   128
 71
     1
 72
     2
 73
     5
  0
VERTEX
  5
23D
  8
0
 62
     9
 10
0.0
 20
0.0
 30
0.0
 70
   128
 71
    28
 72
    27
 73
    26
  0
VERTEX
  5
23E
  8
0
 62
     9
 10
0.0
 20
0.0
 30
0.0
 70
   128
 71
    27
 72
    29
 73
    26
  0
VERTEX
  5
23F
  8
0
 62
     9
 10
0.0
 20
0.0
 30
0.0
 70
   128
 71
    30
 72
    26
 73
    29
  0
VERTEX
  5
240
  8
0
 62
     9
 10
0.0
 20
0.0
 30
0.0
 70
   128
 71
    29
 72
    31
 73
    30
  0
VERTEX
  5
241
  8
0
 62
     9
 10
0.0
 20
0.0
 30
0.0
 70
   128
 71
    26
 72
     1
 73
    28
  0
VERTEX
  5
242
  8
0
 62
     9
 10
0.0
 20
0.0
 30
0.0
 70
   128
 71
    34
 72
    33
 73
    32
  0
VERTEX
  5
243
  8
0
 62
     9
 10
0.0
 20
0.0
 30
0.0
 70
   128
 71
    32
 72
    35
 73
    34
  0
VERTEX
  5
244
  8
0
 62
     9
 10
0.0
 20
0.0
 30
0.0
 70
   128
 71
    32
 72
    36
 73
    35
  0
VERTEX
  5
245
  8
0
 62
     9
 10
0.0
 20
0.0
 30
0.0
 70
   128
 71
    32
 72
    37
 73
    36
  0
VERTEX
  5
246
  8
0
 62
     9
 10
0.0
 20
0.0
 30
0.0
 70
   128
 71
    32
 72
    38
 73
    30
  0
VERTEX
  5
247
  8
0
 62
     9
 10
0.0
 20
0.0
 30
0.0
 70
   128
 71
    30
 72
    31
 73
    32
  0
VERTEX
  5
248
  8
0
 62
     9
 10
0.0
 20
0.0
 30
0.0
 70
   128
 71
    40
 72
    39
 73
    32
  0
VERTEX
  5
249
  8
0
 62
     9
 10
0.0
 20
0.0
 30
0.0
 70
   128
 71
    39
 72
    41
 73
    32
  0
VERTEX
  5
24A
  8
0
 62
     9
 10
0.0
 20
0.0
 30
0.0
 70
   128
 71
    43
 72
    42
 73
    32
  0
VERTEX
  5
24B
  8
0
 62
     9
 10
0.0
 20
0.0
 30
0.0
 70
   128
 71
    45
 72
    44
 73
    32
  0
VERTEX
  5
24C
  8
0
 62
     9
 10
0.0
 20
0.0
 30
0.0
 70
   128
 71
    32
 72
    42
 73
    45
  0
VERTEX
  5
24D
  8
0
 62
     9
 10
0.0
 20
0.0
 30
0.0
 70
   128
 71
    47
 72
    46
 73
    32
  0
VERTEX
  5
24E
  8
0
 62
     9
 10
0.0
 20
0.0
 30
0.0
 70
   128
 71
    32
 72
    48
 73
    47
  0
VERTEX
  5
24F
  8
0
 62
     9
 10
0.0
 20
0.0
 30
0.0
 70
   128
 71
    32
 72
    49
 73
    48
  0
VERTEX
  5
250
  8
0
 62
     9
 10
0.0
 20
0.0
 30
0.0
 70
   128
 71
    46
 72
    50
 73
    32
  0
VERTEX
  5
251
  8
0
 62
     9
 10
0.0
 20
0.0
 30
0.0
 70
   128
 71
    50
 72
    51
 73
    32
  0
VERTEX
  5
252
  8
0
 62
     9
 10
0.0
 20
0.0
 30
0.0
 70
   128
 71
    32
 72
    44
 73
    49
  0
VERTEX
  5
253
  8
0
 62
     9
 10
0.0
 20
0.0
 30
0.0
 70
   128
 71
    53
 72
    52
 73
    32
  0
VERTEX
  5
254
  8
0
 62
     9
 10
0.0
 20
0.0
 30
0.0
 70
   128
 71
    52
 72
    54
 73
    32
  0
VERTEX
  5
255
  8
0
 62
     9
 10
0.0
 20
0.0
 30
0.0
 70
   128
 71
    32
 72
    51
 73
    53
  0
VERTEX
  5
256
  8
0
 62
     9
 10
0.0
 20
0.0
 30
0.0
 70
   128
 71
    56
 72
    55
 73
    32
  0
VERTEX
  5
257
  8
0
 62
     9
 10
0.0
 20
0.0
 30
0.0
 70
   128
 71
    32
 72
    57
 73
    56
  0
VERTEX
  5
258
  8
0
 62
     9
 10
0.0
 20
0.0
 30
0.0
 70
   128
 71
    59
 72
    58
 73
    32
  0
VERTEX
  5
259
  8
0
 62
     9
 10
0.0
 20
0.0
 30
0.0
 70
   128
 71
    32
 72
    60
 73
    59
  0
VERTEX
  5
25A
  8
0
 62
     9
 10
0.0
 20
0.0
 30
0.0
 70
   128
 71
    58
 72
    38
 73
    32
  0
VERTEX
  5
25B
  8
0
 62
     9
 10
0.0
 20
0.0
 30
0.0
 70
   128
 71
    32
 72
    55
 73
    60
  0
VERTEX
  5
25C
  8
0
 62
     9
 10
0.0
 20
0.0
 30
0.0
 70
   128
 71
    32
 72
    54
 73
    57
  0
VERTEX
  5
25D
  8
0
 62
     9
 10
0.0
 20
0.0
 30
0.0
 70
   128
 71
    32
 72
    41
 73
    43
  0
VERTEX
  5
25E
  8
0
 62
     9
 10
0.0
 20
0.0
 30
0.0
 70
   128
 71
    32
 72
    33
 73
    40
  0
VERTEX
  5
25F
  8
0
 62
     9
 10
0.0
 20
0.0
 30
0.0
 70
   128
 71
    32
 72
    31
 73
    37
  0
VERTEX
  5
260
  8
0
 62
     9
 10
0.0
 20
0.0
 30
0.0
 70
   128
 71
     1
 72
    26
 73
     3
  0
SEQEND
  5
261
  8
0
 62
     9
  0
ENDBLK
  5
264
  8
0
  0
BLOCK
  8
0
  2
E3_NODE_8_
 70
     0
 10
0.0
 20
0.0
 30
0.0
  3
E3_NODE_8_
  1

  0
POLYLINE
  5
266
  8
0
 62
     9
 66
     1
 10
0.0
 20
0.0
 30
0.0
 70
    64
 71
    11
 72
     9
  0
VERTEX
  5
267
  8
0
 10
142.0809936523438
 20
-19.5049991607666
 30
-32.60400009155273
 70
   192
  0
VERTEX
  5
268
  8
0
 10
138.3999938964844
 20
-20.23500061035156
 30
-33.36199951171875
 70
   192
  0
VERTEX
  5
269
  8
0
 10
143.3549957275391
 20
-20.28300094604492
 30
-73.6969985961914
 70
   192
  0
VERTEX
  5
26A
  8
0
 10
145.2100067138672
 20
-19.89800071716309
 30
-73.697998046875
 70
   192
  0
VERTEX
  5
26B
  8
0
 10
136.843994140625
 20
-20.23399925231934
 30
-20.6879997253418
 70
   192
  0
VERTEX
  5
26C
  8
0
 10
138.0030059814453
 20
-19.51899909973145
 30
-0.1110000014305115
 70
   192
  0
VERTEX
  5
26D
  8
0
 10
135.5800018310547
 20
-20.25900077819824
 30
-10.39799976348877
 70
   192
  0
VERTEX
  5
26E
  8
0
 10
134.3249969482422
 20
-20.2819995880127
 30
-0.1089999973773956
 70
   192
  0
VERTEX
  5
26F
  8
0
 10
134.3269958496094
 20
-20.28300094604492
 30
-0.1920000016689301
 70
   192
  0
VERTEX
  5
270
  8
0
 10
147.0390014648438
 20
-19.51899909973145
 30
-73.697998046875
 70
   192
  0
VERTEX
  5
271
  8
0
 10
134.3159942626953
 20
-20.28400039672852
 30
-0.1049999967217445
 70
   192
  0
VERTEX
  5
272
  8
0
 62
     9
 10
0.0
 20
0.0
 30
0.0
 70
   128
 71
     3
 72
     2
 73
     1
  0
VERTEX
  5
273
  8
0
 62
     9
 10
0.0
 20
0.0
 30
0.0
 70
   128
 71
     1
 72
     4
 73
     3
  0
VERTEX
  5
274
  8
0
 62
     9
 10
0.0
 20
0.0
 30
0.0
 70
   128
 71
     2
 72
     5
 73
     1
  0
VERTEX
  5
275
  8
0
 62
     9
 10
0.0
 20
0.0
 30
0.0
 70
   128
 71
     5
 72
     7
 73
     6
  0
VERTEX
  5
276
  8
0
 62
     9
 10
0.0
 20
0.0
 30
0.0
 70
   128
 71
     9
 72
     8
 73
     6
  0
VERTEX
  5
277
  8
0
 62
     9
 10
0.0
 20
0.0
 30
0.0
 70
   128
 71
     6
 72
     7
 73
     9
  0
VERTEX
  5
278
  8
0
 62
     9
 10
0.0
 20
0.0
 30
0.0
 70
   128
 71
     6
 72
     1
 73
     5
  0
VERTEX
  5
279
  8
0
 62
     9
 10
0.0
 20
0.0
 30
0.0
 70
   128
 71
     1
 72
    10
 73
     4
  0
VERTEX
  5
27A
  8
0
 62
     9
 10
0.0
 20
0.0
 30
0.0
 70
   128
 71
     9
 72
    11
 73
     8
  0
SEQEND
  5
27B
  8
0
 62
     9
  0
ENDBLK
  5
27E
  8
0
  0
BLOCK
  8
0
  2
E3_NODE_9_
 70
     0
 10
0.0
 20
0.0
 30
0.0
  3
E3_NODE_9_
  1

  0
POLYLINE
  5
280
  8
0
 62
     9
 66
     1
 10
0.0
 20
0.0
 30
0.0
 70
    64
 71
    41
 72
    48
  0
VERTEX
  5
281
  8
0
 10
135.4490051269531
 20
10.89099979400635
 30
-21.07399940490723
 70
   192
  0
VERTEX
  5
282
  8
0
 10
135.4219970703125
 20
5.651000022888184
 30
-22.7810001373291
 70
   192
  0
VERTEX
  5
283
  8
0
 10
133.9799957275391
 20
6.432000160217285
 30
-20.75
 70
   192
  0
VERTEX
  5
284
  8
0
 10
129.4140014648438
 20
8.28600025177002
 30
-19.77099990844727
 70
   192
  0
VERTEX
  5
285
  8
0
 10
130.052001953125
 20
12.61200046539307
 30
-17.2140007019043
 70
   192
  0
VERTEX
  5
286
  8
0
 10
129.9470062255859
 20
11.86600017547607
 30
-17.75399971008301
 70
   192
  0
VERTEX
  5
287
  8
0
 10
129.4080047607422
 20
8.210000038146973
 30
-19.79500007629395
 70
   192
  0
VERTEX
  5
288
  8
0
 10
130.6150054931641
 20
14.89900016784668
 30
-14.95300006866455
 70
   192
  0
VERTEX
  5
289
  8
0
 10
131.8500061035156
 20
7.375999927520752
 30
-19.79199981689453
 70
   192
  0
VERTEX
  5
28A
  8
0
 10
129.4080047607422
 20
8.206999778747559
 30
-19.79599952697754
 70
   192
  0
VERTEX
  5
28B
  8
0
 10
132.2250061035156
 20
13.22799968719482
 30
-16.51700019836426
 70
   192
  0
VERTEX
  5
28C
  8
0
 10
133.9869995117188
 20
0.0
 30
-21.84099960327148
 70
   192
  0
VERTEX
  5
28D
  8
0
 10
135.3560028076172
 20
0.0
 30
-23.47999954223633
 70
   192
  0
VERTEX
  5
28E
  8
0
 10
135.22900390625
 20
0.0
 30
-22.97699928283691
 70
   192
  0
VERTEX
  5
28F
  8
0
 10
136.2469940185547
 20
10.47700023651123
 30
-24.45599937438965
 70
   192
  0
VERTEX
  5
290
  8
0
 10
136.0980072021484
 20
6.968999862670898
 30
-25.39299964904785
 70
   192
  0
VERTEX
  5
291
  8
0
 10
135.3630065917969
 20
0.0
 30
-23.50699996948242
 70
   192
  0
VERTEX
  5
292
  8
0
 10
136.0740051269531
 20
5.295000076293945
 30
-25.54400062561035
 70
   192
  0
VERTEX
  5
293
  8
0
 10
135.9989929199219
 20
0.0160000007599592
 30
-26.02199935913086
 70
   192
  0
VERTEX
  5
294
  8
0
 10
135.9980010986328
 20
0.0
 30
-26.02300071716309
 70
   192
  0
VERTEX
  5
295
  8
0
 10
134.0079956054688
 20
11.82400035858154
 30
-18.41900062561035
 70
   192
  0
VERTEX
  5
296
  8
0
 10
131.8419952392578
 20
0.0
 30
-21.48200035095215
 70
   192
  0
VERTEX
  5
297
  8
0
 10
131.8110046386719
 20
0.0
 30
-21.48200035095215
 70
   192
  0
VERTEX
  5
298
  8
0
 10
129.0829925537109
 20
4.073999881744385
 30
-21.09900093078613
 70
   192
  0
VERTEX
  5
299
  8
0
 10
128.9819946289062
 20
0.0
 30
-21.50600051879883
 70
   192
  0
VERTEX
  5
29A
  8
0
 10
133.5780029296875
 20
0.0
 30
-21.46699905395508
 70
   192
  0
VERTEX
  5
29B
  8
0
 10
134.5160064697266
 20
16.5319995880127
 30
-15.02499961853027
 70
   192
  0
VERTEX
  5
29C
  8
0
 10
130.9210052490234
 20
16.13899993896484
 30
-13.72700023651123
 70
   192
  0
VERTEX
  5
29D
  8
0
 10
131.9640045166016
 20
18.64900016784668
 30
-9.545000076293945
 70
   192
  0
VERTEX
  5
29E
  8
0
 10
130.6190032958984
 20
14.91499996185303
 30
-14.9370002746582
 70
   192
  0
VERTEX
  5
29F
  8
0
 10
132.3419952392578
 20
19.10300064086914
 30
-8.029999732971191
 70
   192
  0
VERTEX
  5
2A0
  8
0
 10
135.6920013427734
 20
15.81400012969971
 30
-18.60600090026855
 70
   192
  0
VERTEX
  5
2A1
  8
0
 10
133.1150054931641
 20
20.0310001373291
 30
-4.928999900817871
 70
   192
  0
VERTEX
  5
2A2
  8
0
 10
134.3159942626953
 20
20.28400039672852
 30
-0.1089999973773956
 70
   192
  0
VERTEX
  5
2A3
  8
0
 10
134.3200073242188
 20
20.28300094604492
 30
-0.136000007390976
 70
   192
  0
VERTEX
  5
2A4
  8
0
 10
135.5800018310547
 20
20.2549991607666
 30
-10.39900016784668
 70
   192
  0
VERTEX
  5
2A5
  8
0
 10
132.3580017089844
 20
19.12199974060059
 30
-7.964000225067139
 70
   192
  0
VERTEX
  5
2A6
  8
0
 10
136.2120056152344
 20
20.23999977111816
 30
-15.54399967193604
 70
   192
  0
VERTEX
  5
2A7
  8
0
 10
136.2729949951172
 20
20.23900032043457
 30
-16.04500007629395
 70
   192
  0
VERTEX
  5
2A8
  8
0
 10
136.3780059814453
 20
13.58399963378906
 30
-23.625
 70
   192
  0
VERTEX
  5
2A9
  8
0
 10
136.8410034179688
 20
20.23399925231934
 30
-20.68000030517578
 70
   192
  0
VERTEX
  5
2AA
  8
0
 62
     9
 10
0.0
 20
0.0
 30
0.0
 70
   128
 71
     3
 72
     2
 73
     1
  0
VERTEX
  5
2AB
  8
0
 62
     9
 10
0.0
 20
0.0
 30
0.0
 70
   128
 71
     6
 72
     5
 73
     4
  0
VERTEX
  5
2AC
  8
0
 62
     9
 10
0.0
 20
0.0
 30
0.0
 70
   128
 71
     4
 72
     7
 73
     6
  0
VERTEX
  5
2AD
  8
0
 62
     9
 10
0.0
 20
0.0
 30
0.0
 70
   128
 71
     6
 72
     8
 73
     5
  0
VERTEX
  5
2AE
  8
0
 62
     9
 10
0.0
 20
0.0
 30
0.0
 70
   128
 71
     6
 72
     7
 73
     9
  0
VERTEX
  5
2AF
  8
0
 62
     9
 10
0.0
 20
0.0
 30
0.0
 70
   128
 71
     7
 72
    10
 73
     9
  0
VERTEX
  5
2B0
  8
0
 62
     9
 10
0.0
 20
0.0
 30
0.0
 70
   128
 71
     9
 72
    11
 73
     6
  0
VERTEX
  5
2B1
  8
0
 62
     9
 10
0.0
 20
0.0
 30
0.0
 70
   128
 71
    11
 72
     8
 73
     6
  0
VERTEX
  5
2B2
  8
0
 62
     9
 10
0.0
 20
0.0
 30
0.0
 70
   128
 71
     2
 72
     3
 73
    12
  0
VERTEX
  5
2B3
  8
0
 62
     9
 10
0.0
 20
0.0
 30
0.0
 70
   128
 71
    14
 72
    13
 73
     2
  0
VERTEX
  5
2B4
  8
0
 62
     9
 10
0.0
 20
0.0
 30
0.0
 70
   128
 71
    15
 72
     1
 73
     2
  0
VERTEX
  5
2B5
  8
0
 62
     9
 10
0.0
 20
0.0
 30
0.0
 70
   128
 71
     2
 72
    16
 73
    15
  0
VERTEX
  5
2B6
  8
0
 62
     9
 10
0.0
 20
0.0
 30
0.0
 70
   128
 71
    18
 72
     2
 73
    17
  0
VERTEX
  5
2B7
  8
0
 62
     9
 10
0.0
 20
0.0
 30
0.0
 70
   128
 71
    17
 72
    19
 73
    18
  0
VERTEX
  5
2B8
  8
0
 62
     9
 10
0.0
 20
0.0
 30
0.0
 70
   128
 71
    17
 72
    20
 73
    19
  0
VERTEX
  5
2B9
  8
0
 62
     9
 10
0.0
 20
0.0
 30
0.0
 70
   128
 71
    21
 72
    11
 73
     9
  0
VERTEX
  5
2BA
  8
0
 62
     9
 10
0.0
 20
0.0
 30
0.0
 70
   128
 71
    23
 72
    22
 73
     9
  0
VERTEX
  5
2BB
  8
0
 62
     9
 10
0.0
 20
0.0
 30
0.0
 70
   128
 71
     9
 72
    24
 73
    23
  0
VERTEX
  5
2BC
  8
0
 62
     9
 10
0.0
 20
0.0
 30
0.0
 70
   128
 71
     9
 72
    10
 73
    24
  0
VERTEX
  5
2BD
  8
0
 62
     9
 10
0.0
 20
0.0
 30
0.0
 70
   128
 71
    24
 72
    25
 73
    23
  0
VERTEX
  5
2BE
  8
0
 62
     9
 10
0.0
 20
0.0
 30
0.0
 70
   128
 71
     3
 72
     9
 73
    22
  0
VERTEX
  5
2BF
  8
0
 62
     9
 10
0.0
 20
0.0
 30
0.0
 70
   128
 71
     3
 72
    26
 73
    12
  0
VERTEX
  5
2C0
  8
0
 62
     9
 10
0.0
 20
0.0
 30
0.0
 70
   128
 71
    29
 72
    28
 73
    27
  0
VERTEX
  5
2C1
  8
0
 62
     9
 10
0.0
 20
0.0
 30
0.0
 70
   128
 71
    30
 72
    11
 73
    27
  0
VERTEX
  5
2C2
  8
0
 62
     9
 10
0.0
 20
0.0
 30
0.0
 70
   128
 71
    11
 72
    21
 73
    27
  0
VERTEX
  5
2C3
  8
0
 62
     9
 10
0.0
 20
0.0
 30
0.0
 70
   128
 71
    27
 72
    28
 73
    30
  0
VERTEX
  5
2C4
  8
0
 62
     9
 10
0.0
 20
0.0
 30
0.0
 70
   128
 71
    27
 72
    31
 73
    29
  0
VERTEX
  5
2C5
  8
0
 62
     9
 10
0.0
 20
0.0
 30
0.0
 70
   128
 71
    21
 72
     1
 73
    32
  0
VERTEX
  5
2C6
  8
0
 62
     9
 10
0.0
 20
0.0
 30
0.0
 70
   128
 71
    35
 72
    34
 73
    33
  0
VERTEX
  5
2C7
  8
0
 62
     9
 10
0.0
 20
0.0
 30
0.0
 70
   128
 71
    37
 72
    27
 73
    36
  0
VERTEX
  5
2C8
  8
0
 62
     9
 10
0.0
 20
0.0
 30
0.0
 70
   128
 71
    36
 72
    33
 73
    37
  0
VERTEX
  5
2C9
  8
0
 62
     9
 10
0.0
 20
0.0
 30
0.0
 70
   128
 71
    27
 72
    32
 73
    38
  0
VERTEX
  5
2CA
  8
0
 62
     9
 10
0.0
 20
0.0
 30
0.0
 70
   128
 71
    39
 72
    38
 73
    32
  0
VERTEX
  5
2CB
  8
0
 62
     9
 10
0.0
 20
0.0
 30
0.0
 70
   128
 71
    32
 72
     1
 73
    40
  0
VERTEX
  5
2CC
  8
0
 62
     9
 10
0.0
 20
0.0
 30
0.0
 70
   128
 71
    40
 72
    41
 73
    32
  0
VERTEX
  5
2CD
  8
0
 62
     9
 10
0.0
 20
0.0
 30
0.0
 70
   128
 71
     1
 72
    15
 73
    40
  0
VERTEX
  5
2CE
  8
0
 62
     9
 10
0.0
 20
0.0
 30
0.0
 70
   128
 71
    32
 72
    41
 73
    39
  0
VERTEX
  5
2CF
  8
0
 62
     9
 10
0.0
 20
0.0
 30
0.0
 70
   128
 71
    38
 72
    36
 73
    27
  0
VERTEX
  5
2D0
  8
0
 62
     9
 10
0.0
 20
0.0
 30
0.0
 70
   128
 71
    33
 72
    36
 73
    35
  0
VERTEX
  5
2D1
  8
0
 62
     9
 10
0.0
 20
0.0
 30
0.0
 70
   128
 71
    32
 72
    27
 73
    21
  0
VERTEX
  5
2D2
  8
0
 62
     9
 10
0.0
 20
0.0
 30
0.0
 70
   128
 71
    27
 72
    37
 73
    31
  0
VERTEX
  5
2D3
  8
0
 62
     9
 10
0.0
 20
0.0
 30
0.0
 70
   128
 71
    22
 72
    26
 73
     3
  0
VERTEX
  5
2D4
  8
0
 62
     9
 10
0.0
 20
0.0
 30
0.0
 70
   128
 71
     9
 72
     3
 73
    21
  0
VERTEX
  5
2D5
  8
0
 62
     9
 10
0.0
 20
0.0
 30
0.0
 70
   128
 71
     2
 72
    13
 73
    17
  0
VERTEX
  5
2D6
  8
0
 62
     9
 10
0.0
 20
0.0
 30
0.0
 70
   128
 71
     2
 72
    18
 73
    16
  0
VERTEX
  5
2D7
  8
0
 62
     9
 10
0.0
 20
0.0
 30
0.0
 70
   128
 71
    12
 72
    14
 73
     2
  0
VERTEX
  5
2D8
  8
0
 62
     9
 10
0.0
 20
0.0
 30
0.0
 70
   128
 71
    11
 72
    30
 73
     8
  0
VERTEX
  5
2D9
  8
0
 62
     9
 10
0.0
 20
0.0
 30
0.0
 70
   128
 71
     1
 72
    21
 73
     3
  0
SEQEND
  5
2DA
  8
0
 62
     9
  0
ENDBLK
  5
2DD
  8
0
  0
BLOCK
  8
0
  2
E3_NODE_10_
 70
     0
 10
0.0
 20
0.0
 30
0.0
  3
E3_NODE_10_
  1

  0
POLYLINE
  5
2DF
  8
0
 62
     9
 66
     1
 10
0.0
 20
0.0
 30
0.0
 70
    64
 71
    38
 72
    44
  0
VERTEX
  5
2E0
  8
0
 10
135.7039947509766
 20
-15.80099964141846
 30
-18.65500068664551
 70
   192
  0
VERTEX
  5
2E1
  8
0
 10
134.5149993896484
 20
-16.52700042724609
 30
-15.02799987792969
 70
   192
  0
VERTEX
  5
2E2
  8
0
 10
134.0070037841797
 20
-11.81700038909912
 30
-18.42099952697754
 70
   192
  0
VERTEX
  5
2E3
  8
0
 10
135.4340057373047
 20
-5.636000156402588
 30
-22.8120002746582
 70
   192
  0
VERTEX
  5
2E4
  8
0
 10
135.22900390625
 20
0.0
 30
-22.97699928283691
 70
   192
  0
VERTEX
  5
2E5
  8
0
 10
135.3560028076172
 20
0.0
 30
-23.47999954223633
 70
   192
  0
VERTEX
  5
2E6
  8
0
 10
133.9869995117188
 20
0.0
 30
-21.84099960327148
 70
   192
  0
VERTEX
  5
2E7
  8
0
 10
133.9799957275391
 20
-6.427000045776367
 30
-20.75
 70
   192
  0
VERTEX
  5
2E8
  8
0
 10
131.8419952392578
 20
0.0
 30
-21.48200035095215
 70
   192
  0
VERTEX
  5
2E9
  8
0
 10
133.5780029296875
 20
0.0
 30
-21.46699905395508
 70
   192
  0
VERTEX
  5
2EA
  8
0
 10
131.8209991455078
 20
-7.385000228881836
 30
-19.78700065612793
 70
   192
  0
VERTEX
  5
2EB
  8
0
 10
131.8110046386719
 20
0.0
 30
-21.48200035095215
 70
   192
  0
VERTEX
  5
2EC
  8
0
 10
135.4620056152344
 20
-10.86999988555908
 30
-21.11499977111816
 70
   192
  0
VERTEX
  5
2ED
  8
0
 10
135.3630065917969
 20
0.0
 30
-23.50699996948242
 70
   192
  0
VERTEX
  5
2EE
  8
0
 10
135.9980010986328
 20
0.0
 30
-26.02300071716309
 70
   192
  0
VERTEX
  5
2EF
  8
0
 10
136.072998046875
 20
-5.285999774932861
 30
-25.55200004577637
 70
   192
  0
VERTEX
  5
2F0
  8
0
 10
136.0959930419922
 20
-6.875999927520752
 30
-25.40999984741211
 70
   192
  0
VERTEX
  5
2F1
  8
0
 10
136.2469940185547
 20
-10.46100044250488
 30
-24.45499992370605
 70
   192
  0
VERTEX
  5
2F2
  8
0
 10
136.3789978027344
 20
-13.60000038146973
 30
-23.61899948120117
 70
   192
  0
VERTEX
  5
2F3
  8
0
 10
136.5110015869141
 20
-15.48999977111816
 30
-22.78499984741211
 70
   192
  0
VERTEX
  5
2F4
  8
0
 10
136.843994140625
 20
-20.23399925231934
 30
-20.6879997253418
 70
   192
  0
VERTEX
  5
2F5
  8
0
 10
135.5800018310547
 20
-20.25900077819824
 30
-10.39799976348877
 70
   192
  0
VERTEX
  5
2F6
  8
0
 10
133.5350036621094
 20
-20.25099945068359
 30
-3.242000102996826
 70
   192
  0
VERTEX
  5
2F7
  8
0
 10
132.3489990234375
 20
-19.22699928283691
 30
-8.0
 70
   192
  0
VERTEX
  5
2F8
  8
0
 10
134.3269958496094
 20
-20.28300094604492
 30
-0.1920000016689301
 70
   192
  0
VERTEX
  5
2F9
  8
0
 10
134.3159942626953
 20
-20.28400039672852
 30
-0.1049999967217445
 70
   192
  0
VERTEX
  5
2FA
  8
0
 10
132.2019958496094
 20
-13.24400043487549
 30
-16.49900054931641
 70
   192
  0
VERTEX
  5
2FB
  8
0
 10
132.3329925537109
 20
-19.2140007019043
 30
-8.064000129699707
 70
   192
  0
VERTEX
  5
2FC
  8
0
 10
132.3049926757812
 20
-19.19000053405762
 30
-8.175000190734863
 70
   192
  0
VERTEX
  5
2FD
  8
0
 10
131.2200012207031
 20
-17.01000022888184
 30
-12.52799987792969
 70
   192
  0
VERTEX
  5
2FE
  8
0
 10
130.6170043945312
 20
-14.9060001373291
 30
-14.94699954986572
 70
   192
  0
VERTEX
  5
2FF
  8
0
 10
130.2910003662109
 20
-13.76799964904785
 30
-16.25300025939941
 70
   192
  0
VERTEX
  5
300
  8
0
 10
129.5780029296875
 20
-9.64900016784668
 30
-19.11599922180176
 70
   192
  0
VERTEX
  5
301
  8
0
 10
130.6130065917969
 20
-14.89299964904785
 30
-14.96100044250488
 70
   192
  0
VERTEX
  5
302
  8
0
 10
129.4369964599609
 20
-8.164999961853027
 30
-19.68000030517578
 70
   192
  0
VERTEX
  5
303
  8
0
 10
129.1320037841797
 20
-4.942999839782715
 30
-20.90399932861328
 70
   192
  0
VERTEX
  5
304
  8
0
 10
129.4360046386719
 20
-8.159000396728516
 30
-19.68199920654297
 70
   192
  0
VERTEX
  5
305
  8
0
 10
128.9819946289062
 20
0.0
 30
-21.50600051879883
 70
   192
  0
VERTEX
  5
306
  8
0
 62
     9
 10
0.0
 20
0.0
 30
0.0
 70
   128
 71
     3
 72
     2
 73
     1
  0
VERTEX
  5
307
  8
0
 62
     9
 10
0.0
 20
0.0
 30
0.0
 70
   128
 71
     6
 72
     5
 73
     4
  0
VERTEX
  5
308
  8
0
 62
     9
 10
0.0
 20
0.0
 30
0.0
 70
   128
 71
     4
 72
     5
 73
     7
  0
VERTEX
  5
309
  8
0
 62
     9
 10
0.0
 20
0.0
 30
0.0
 70
   128
 71
     7
 72
     8
 73
     4
  0
VERTEX
  5
30A
  8
0
 62
     9
 10
0.0
 20
0.0
 30
0.0
 70
   128
 71
     8
 72
    10
 73
     9
  0
VERTEX
  5
30B
  8
0
 62
     9
 10
0.0
 20
0.0
 30
0.0
 70
   128
 71
     9
 72
    12
 73
    11
  0
VERTEX
  5
30C
  8
0
 62
     9
 10
0.0
 20
0.0
 30
0.0
 70
   128
 71
     9
 72
    11
 73
     8
  0
VERTEX
  5
30D
  8
0
 62
     9
 10
0.0
 20
0.0
 30
0.0
 70
   128
 71
     3
 72
     8
 73
    11
  0
VERTEX
  5
30E
  8
0
 62
     9
 10
0.0
 20
0.0
 30
0.0
 70
   128
 71
     8
 72
     3
 73
    13
  0
VERTEX
  5
30F
  8
0
 62
     9
 10
0.0
 20
0.0
 30
0.0
 70
   128
 71
    16
 72
    15
 73
    14
  0
VERTEX
  5
310
  8
0
 62
     9
 10
0.0
 20
0.0
 30
0.0
 70
   128
 71
    18
 72
    17
 73
     4
  0
VERTEX
  5
311
  8
0
 62
     9
 10
0.0
 20
0.0
 30
0.0
 70
   128
 71
    17
 72
    16
 73
     4
  0
VERTEX
  5
312
  8
0
 62
     9
 10
0.0
 20
0.0
 30
0.0
 70
   128
 71
    20
 72
    19
 73
    13
  0
VERTEX
  5
313
  8
0
 62
     9
 10
0.0
 20
0.0
 30
0.0
 70
   128
 71
    19
 72
    18
 73
    13
  0
VERTEX
  5
314
  8
0
 62
     9
 10
0.0
 20
0.0
 30
0.0
 70
   128
 71
     2
 72
    22
 73
    21
  0
VERTEX
  5
315
  8
0
 62
     9
 10
0.0
 20
0.0
 30
0.0
 70
   128
 71
    21
 72
     1
 73
     2
  0
VERTEX
  5
316
  8
0
 62
     9
 10
0.0
 20
0.0
 30
0.0
 70
   128
 71
    24
 72
    23
 73
    22
  0
VERTEX
  5
317
  8
0
 62
     9
 10
0.0
 20
0.0
 30
0.0
 70
   128
 71
    25
 72
    22
 73
    23
  0
VERTEX
  5
318
  8
0
 62
     9
 10
0.0
 20
0.0
 30
0.0
 70
   128
 71
    23
 72
    26
 73
    25
  0
VERTEX
  5
319
  8
0
 62
     9
 10
0.0
 20
0.0
 30
0.0
 70
   128
 71
    29
 72
    28
 73
    27
  0
VERTEX
  5
31A
  8
0
 62
     9
 10
0.0
 20
0.0
 30
0.0
 70
   128
 71
    27
 72
    30
 73
    29
  0
VERTEX
  5
31B
  8
0
 62
     9
 10
0.0
 20
0.0
 30
0.0
 70
   128
 71
     2
 72
     3
 73
    27
  0
VERTEX
  5
31C
  8
0
 62
     9
 10
0.0
 20
0.0
 30
0.0
 70
   128
 71
    28
 72
    24
 73
     2
  0
VERTEX
  5
31D
  8
0
 62
     9
 10
0.0
 20
0.0
 30
0.0
 70
   128
 71
    27
 72
    28
 73
     2
  0
VERTEX
  5
31E
  8
0
 62
     9
 10
0.0
 20
0.0
 30
0.0
 70
   128
 71
    27
 72
    31
 73
    30
  0
VERTEX
  5
31F
  8
0
 62
     9
 10
0.0
 20
0.0
 30
0.0
 70
   128
 71
    33
 72
    32
 73
    27
  0
VERTEX
  5
320
  8
0
 62
     9
 10
0.0
 20
0.0
 30
0.0
 70
   128
 71
    32
 72
    34
 73
    27
  0
VERTEX
  5
321
  8
0
 62
     9
 10
0.0
 20
0.0
 30
0.0
 70
   128
 71
    27
 72
    11
 73
    33
  0
VERTEX
  5
322
  8
0
 62
     9
 10
0.0
 20
0.0
 30
0.0
 70
   128
 71
    11
 72
    35
 73
    33
  0
VERTEX
  5
323
  8
0
 62
     9
 10
0.0
 20
0.0
 30
0.0
 70
   128
 71
    34
 72
    31
 73
    27
  0
VERTEX
  5
324
  8
0
 62
     9
 10
0.0
 20
0.0
 30
0.0
 70
   128
 71
    36
 72
    11
 73
    12
  0
VERTEX
  5
325
  8
0
 62
     9
 10
0.0
 20
0.0
 30
0.0
 70
   128
 71
    36
 72
    37
 73
    11
  0
VERTEX
  5
326
  8
0
 62
     9
 10
0.0
 20
0.0
 30
0.0
 70
   128
 71
    12
 72
    38
 73
    36
  0
VERTEX
  5
327
  8
0
 62
     9
 10
0.0
 20
0.0
 30
0.0
 70
   128
 71
    11
 72
    37
 73
    35
  0
VERTEX
  5
328
  8
0
 62
     9
 10
0.0
 20
0.0
 30
0.0
 70
   128
 71
    22
 72
     2
 73
    24
  0
VERTEX
  5
329
  8
0
 62
     9
 10
0.0
 20
0.0
 30
0.0
 70
   128
 71
    21
 72
    20
 73
     1
  0
VERTEX
  5
32A
  8
0
 62
     9
 10
0.0
 20
0.0
 30
0.0
 70
   128
 71
    13
 72
     1
 73
    20
  0
VERTEX
  5
32B
  8
0
 62
     9
 10
0.0
 20
0.0
 30
0.0
 70
   128
 71
     4
 72
    13
 73
    18
  0
VERTEX
  5
32C
  8
0
 62
     9
 10
0.0
 20
0.0
 30
0.0
 70
   128
 71
    14
 72
     4
 73
    16
  0
VERTEX
  5
32D
  8
0
 62
     9
 10
0.0
 20
0.0
 30
0.0
 70
   128
 71
    13
 72
     4
 73
     8
  0
VERTEX
  5
32E
  8
0
 62
     9
 10
0.0
 20
0.0
 30
0.0
 70
   128
 71
    11
 72
    27
 73
     3
  0
VERTEX
  5
32F
  8
0
 62
     9
 10
0.0
 20
0.0
 30
0.0
 70
   128
 71
     8
 72
     7
 73
    10
  0
VERTEX
  5
330
  8
0
 62
     9
 10
0.0
 20
0.0
 30
0.0
 70
   128
 71
     4
 72
    14
 73
     6
  0
VERTEX
  5
331
  8
0
 62
     9
 10
0.0
 20
0.0
 30
0.0
 70
   128
 71
     1
 72
    13
 73
     3
  0
SEQEND
  5
332
  8
0
 62
     9
  0
ENDBLK
  5
335
  8
0
  0
BLOCK
  8
0
  2
E3_NODE_11_
 70
     0
 10
0.0
 20
0.0
 30
0.0
  3
E3_NODE_11_
  1

  0
POLYLINE
  5
337
  8
0
 62
     9
 66
     1
 10
0.0
 20
0.0
 30
0.0
 70
    64
 71
    68
 72
    75
  0
VERTEX
  5
338
  8
0
 10
118.2060012817383
 20
0.0
 30
-23.73600006103516
 70
   192
  0
VERTEX
  5
339
  8
0
 10
101.9010009765625
 20
-4.840000152587891
 30
-26.68000030517578
 70
   192
  0
VERTEX
  5
33A
  8
0
 10
101.9010009765625
 20
-1.171000003814697
 30
-27.08600044250488
 70
   192
  0
VERTEX
  5
33B
  8
0
 10
118.2060012817383
 20
-9.107999801635742
 30
-21.94499969482422
 70
   192
  0
VERTEX
  5
33C
  8
0
 10
101.9010009765625
 20
-10.19499969482422
 30
-25.15099906921387
 70
   192
  0
VERTEX
  5
33D
  8
0
 10
118.2060012817383
 20
23.62400054931641
 30
-0.1019999980926514
 70
   192
  0
VERTEX
  5
33E
  8
0
 10
118.2070007324219
 20
21.94899940490723
 30
-9.187000274658203
 70
   192
  0
VERTEX
  5
33F
  8
0
 10
101.9010009765625
 20
26.41600036621094
 30
-6.040999889373779
 70
   192
  0
VERTEX
  5
340
  8
0
 10
101.9010009765625
 20
24.98999977111816
 30
-10.4370002746582
 70
   192
  0
VERTEX
  5
341
  8
0
 10
101.9010009765625
 20
25.53499984741211
 30
-9.265000343322754
 70
   192
  0
VERTEX
  5
342
  8
0
 10
118.2070007324219
 20
-19.7859992980957
 30
-13.29399967193604
 70
   192
  0
VERTEX
  5
343
  8
0
 10
101.9010009765625
 20
-22.49799919128418
 30
-15.0959997177124
 70
   192
  0
VERTEX
  5
344
  8
0
 10
101.9010009765625
 20
-20.77300071716309
 30
-17.60700035095215
 70
   192
  0
VERTEX
  5
345
  8
0
 10
118.2070007324219
 20
-16.82699966430664
 30
-16.8700008392334
 70
   192
  0
VERTEX
  5
346
  8
0
 10
101.9010009765625
 20
-18.09099960327148
 30
-20.32399940490723
 70
   192
  0
VERTEX
  5
347
  8
0
 10
101.9010009765625
 20
-13.57900047302246
 30
-23.52700042724609
 70
   192
  0
VERTEX
  5
348
  8
0
 10
101.9010009765625
 20
-19.18499946594238
 30
-19.21599960327148
 70
   192
  0
VERTEX
  5
349
  8
0
 10
118.2070007324219
 20
-21.94899940490723
 30
-9.187000274658203
 70
   192
  0
VERTEX
  5
34A
  8
0
 10
118.2060012817383
 20
-23.62400054931641
 30
-0.1000000014901161
 70
   192
  0
VERTEX
  5
34B
  8
0
 10
101.9010009765625
 20
-26.63100051879883
 30
-4.875
 70
   192
  0
VERTEX
  5
34C
  8
0
 10
101.9010009765625
 20
-27.00399971008301
 30
-0.0949999988079071
 70
   192
  0
VERTEX
  5
34D
  8
0
 10
101.9010009765625
 20
-25.23900032043457
 30
-10.08399963378906
 70
   192
  0
VERTEX
  5
34E
  8
0
 10
101.9010009765625
 20
-25.0620002746582
 30
-10.47000026702881
 70
   192
  0
VERTEX
  5
34F
  8
0
 10
101.9010009765625
 20
-23.82900047302246
 30
-13.15900039672852
 70
   192
  0
VERTEX
  5
350
  8
0
 10
118.2070007324219
 20
16.82699966430664
 30
-16.8700008392334
 70
   192
  0
VERTEX
  5
351
  8
0
 10
118.2060012817383
 20
9.107999801635742
 30
-21.94499969482422
 70
   192
  0
VERTEX
  5
352
  8
0
 10
101.9010009765625
 20
14.98499965667725
 30
-22.67300033569336
 70
   192
  0
VERTEX
  5
353
  8
0
 10
101.9010009765625
 20
17.60799980163574
 30
-20.73699951171875
 70
   192
  0
VERTEX
  5
354
  8
0
 10
101.9010009765625
 20
10.39299964904785
 30
-25.03300094604492
 70
   192
  0
VERTEX
  5
355
  8
0
 10
118.2070007324219
 20
19.7859992980957
 30
-13.29399967193604
 70
   192
  0
VERTEX
  5
356
  8
0
 10
101.9010009765625
 20
23.26799964904785
 30
-14.14099979400635
 70
   192
  0
VERTEX
  5
357
  8
0
 10
101.9010009765625
 20
22.57200050354004
 30
-15.14599990844727
 70
   192
  0
VERTEX
  5
358
  8
0
 10
101.9010009765625
 20
19.13699913024902
 30
-19.16900062561035
 70
   192
  0
VERTEX
  5
359
  8
0
 10
101.9010009765625
 20
21.38199996948242
 30
-16.86700057983398
 70
   192
  0
VERTEX
  5
35A
  8
0
 10
101.9010009765625
 20
6.99399995803833
 30
-26.20499992370605
 70
   192
  0
VERTEX
  5
35B
  8
0
 10
101.9010009765625
 20
10.06099987030029
 30
-25.20400047302246
 70
   192
  0
VERTEX
  5
35C
  8
0
 10
101.9010009765625
 20
4.375
 30
-26.75900077819824
 70
   192
  0
VERTEX
  5
35D
  8
0
 10
101.9010009765625
 20
-0.0060000000521541
 30
-27.01700019836426
 70
   192
  0
VERTEX
  5
35E
  8
0
 10
133.1150054931641
 20
20.0310001373291
 30
-4.928999900817871
 70
   192
  0
VERTEX
  5
35F
  8
0
 10
132.3580017089844
 20
19.12199974060059
 30
-7.964000225067139
 70
   192
  0
VERTEX
  5
360
  8
0
 10
120.0849990844727
 20
23.23399925231934
 30
-0.1030000001192093
 70
   192
  0
VERTEX
  5
361
  8
0
 10
134.3159942626953
 20
20.28400039672852
 30
-0.1089999973773956
 70
   192
  0
VERTEX
  5
362
  8
0
 10
130.9210052490234
 20
16.13899993896484
 30
-13.72700023651123
 70
   192
  0
VERTEX
  5
363
  8
0
 10
130.6190032958984
 20
14.91499996185303
 30
-14.9370002746582
 70
   192
  0
VERTEX
  5
364
  8
0
 10
131.9640045166016
 20
18.64900016784668
 30
-9.545000076293945
 70
   192
  0
VERTEX
  5
365
  8
0
 10
132.3419952392578
 20
19.10300064086914
 30
-8.029999732971191
 70
   192
  0
VERTEX
  5
366
  8
0
 10
130.052001953125
 20
12.61200046539307
 30
-17.2140007019043
 70
   192
  0
VERTEX
  5
367
  8
0
 10
129.4140014648438
 20
8.28600025177002
 30
-19.77099990844727
 70
   192
  0
VERTEX
  5
368
  8
0
 10
130.6150054931641
 20
14.89900016784668
 30
-14.95300006866455
 70
   192
  0
VERTEX
  5
369
  8
0
 10
129.0829925537109
 20
4.073999881744385
 30
-21.09900093078613
 70
   192
  0
VERTEX
  5
36A
  8
0
 10
129.4080047607422
 20
8.210000038146973
 30
-19.79500007629395
 70
   192
  0
VERTEX
  5
36B
  8
0
 10
129.4080047607422
 20
8.206999778747559
 30
-19.79599952697754
 70
   192
  0
VERTEX
  5
36C
  8
0
 10
129.1320037841797
 20
-4.942999839782715
 30
-20.90399932861328
 70
   192
  0
VERTEX
  5
36D
  8
0
 10
129.4360046386719
 20
-8.159000396728516
 30
-19.68199920654297
 70
   192
  0
VERTEX
  5
36E
  8
0
 10
128.9819946289062
 20
0.0
 30
-21.50600051879883
 70
   192
  0
VERTEX
  5
36F
  8
0
 10
129.5780029296875
 20
-9.64900016784668
 30
-19.11599922180176
 70
   192
  0
VERTEX
  5
370
  8
0
 10
130.2910003662109
 20
-13.76799964904785
 30
-16.25300025939941
 70
   192
  0
VERTEX
  5
371
  8
0
 10
129.4369964599609
 20
-8.164999961853027
 30
-19.68000030517578
 70
   192
  0
VERTEX
  5
372
  8
0
 10
131.2200012207031
 20
-17.01000022888184
 30
-12.52799987792969
 70
   192
  0
VERTEX
  5
373
  8
0
 10
130.6130065917969
 20
-14.89299964904785
 30
-14.96100044250488
 70
   192
  0
VERTEX
  5
374
  8
0
 10
130.6170043945312
 20
-14.9060001373291
 30
-14.94699954986572
 70
   192
  0
VERTEX
  5
375
  8
0
 10
132.3049926757812
 20
-19.19000053405762
 30
-8.175000190734863
 70
   192
  0
VERTEX
  5
376
  8
0
 10
132.3329925537109
 20
-19.2140007019043
 30
-8.064000129699707
 70
   192
  0
VERTEX
  5
377
  8
0
 10
132.3489990234375
 20
-19.22699928283691
 30
-8.0
 70
   192
  0
VERTEX
  5
378
  8
0
 10
120.0849990844727
 20
-23.23399925231934
 30
-0.101000003516674
 70
   192
  0
VERTEX
  5
379
  8
0
 10
133.5350036621094
 20
-20.25099945068359
 30
-3.242000102996826
 70
   192
  0
VERTEX
  5
37A
  8
0
 10
134.3159942626953
 20
-20.28400039672852
 30
-0.1049999967217445
 70
   192
  0
VERTEX
  5
37B
  8
0
 10
101.9010009765625
 20
27.00399971008301
 30
-0.0949999988079071
 70
   192
  0
VERTEX
  5
37C
  8
0
 62
     9
 10
0.0
 20
0.0
 30
0.0
 70
   128
 71
     3
 72
     2
 73
     1
  0
VERTEX
  5
37D
  8
0
 62
     9
 10
0.0
 20
0.0
 30
0.0
 70
   128
 71
     2
 72
     5
 73
     4
  0
VERTEX
  5
37E
  8
0
 62
     9
 10
0.0
 20
0.0
 30
0.0
 70
   128
 71
     4
 72
     1
 73
     2
  0
VERTEX
  5
37F
  8
0
 62
     9
 10
0.0
 20
0.0
 30
0.0
 70
   128
 71
     8
 72
     7
 73
     6
  0
VERTEX
  5
380
  8
0
 62
     9
 10
0.0
 20
0.0
 30
0.0
 70
   128
 71
    10
 72
     9
 73
     7
  0
VERTEX
  5
381
  8
0
 62
     9
 10
0.0
 20
0.0
 30
0.0
 70
   128
 71
     7
 72
     8
 73
    10
  0
VERTEX
  5
382
  8
0
 62
     9
 10
0.0
 20
0.0
 30
0.0
 70
   128
 71
    13
 72
    12
 73
    11
  0
VERTEX
  5
383
  8
0
 62
     9
 10
0.0
 20
0.0
 30
0.0
 70
   128
 71
    11
 72
    14
 73
    13
  0
VERTEX
  5
384
  8
0
 62
     9
 10
0.0
 20
0.0
 30
0.0
 70
   128
 71
    16
 72
    15
 73
    14
  0
VERTEX
  5
385
  8
0
 62
     9
 10
0.0
 20
0.0
 30
0.0
 70
   128
 71
    15
 72
    17
 73
    14
  0
VERTEX
  5
386
  8
0
 62
     9
 10
0.0
 20
0.0
 30
0.0
 70
   128
 71
    14
 72
     4
 73
    16
  0
VERTEX
  5
387
  8
0
 62
     9
 10
0.0
 20
0.0
 30
0.0
 70
   128
 71
    20
 72
    19
 73
    18
  0
VERTEX
  5
388
  8
0
 62
     9
 10
0.0
 20
0.0
 30
0.0
 70
   128
 71
    20
 72
    21
 73
    19
  0
VERTEX
  5
389
  8
0
 62
     9
 10
0.0
 20
0.0
 30
0.0
 70
   128
 71
    18
 72
    22
 73
    20
  0
VERTEX
  5
38A
  8
0
 62
     9
 10
0.0
 20
0.0
 30
0.0
 70
   128
 71
    24
 72
    23
 73
    18
  0
VERTEX
  5
38B
  8
0
 62
     9
 10
0.0
 20
0.0
 30
0.0
 70
   128
 71
    18
 72
    11
 73
    24
  0
VERTEX
  5
38C
  8
0
 62
     9
 10
0.0
 20
0.0
 30
0.0
 70
   128
 71
    27
 72
    26
 73
    25
  0
VERTEX
  5
38D
  8
0
 62
     9
 10
0.0
 20
0.0
 30
0.0
 70
   128
 71
    25
 72
    28
 73
    27
  0
VERTEX
  5
38E
  8
0
 62
     9
 10
0.0
 20
0.0
 30
0.0
 70
   128
 71
    27
 72
    29
 73
    26
  0
VERTEX
  5
38F
  8
0
 62
     9
 10
0.0
 20
0.0
 30
0.0
 70
   128
 71
    31
 72
    30
 73
     7
  0
VERTEX
  5
390
  8
0
 62
     9
 10
0.0
 20
0.0
 30
0.0
 70
   128
 71
    31
 72
    32
 73
    30
  0
VERTEX
  5
391
  8
0
 62
     9
 10
0.0
 20
0.0
 30
0.0
 70
   128
 71
    34
 72
    33
 73
    25
  0
VERTEX
  5
392
  8
0
 62
     9
 10
0.0
 20
0.0
 30
0.0
 70
   128
 71
    25
 72
    30
 73
    34
  0
VERTEX
  5
393
  8
0
 62
     9
 10
0.0
 20
0.0
 30
0.0
 70
   128
 71
    36
 72
    35
 73
    26
  0
VERTEX
  5
394
  8
0
 62
     9
 10
0.0
 20
0.0
 30
0.0
 70
   128
 71
    37
 72
     1
 73
    26
  0
VERTEX
  5
395
  8
0
 62
     9
 10
0.0
 20
0.0
 30
0.0
 70
   128
 71
    37
 72
    38
 73
     1
  0
VERTEX
  5
396
  8
0
 62
     9
 10
0.0
 20
0.0
 30
0.0
 70
   128
 71
    26
 72
    35
 73
    37
  0
VERTEX
  5
397
  8
0
 62
     9
 10
0.0
 20
0.0
 30
0.0
 70
   128
 71
    40
 72
    39
 73
     6
  0
VERTEX
  5
398
  8
0
 62
     9
 10
0.0
 20
0.0
 30
0.0
 70
   128
 71
     6
 72
     7
 73
    40
  0
VERTEX
  5
399
  8
0
 62
     9
 10
0.0
 20
0.0
 30
0.0
 70
   128
 71
    41
 72
     6
 73
    39
  0
VERTEX
  5
39A
  8
0
 62
     9
 10
0.0
 20
0.0
 30
0.0
 70
   128
 71
    39
 72
    42
 73
    41
  0
VERTEX
  5
39B
  8
0
 62
     9
 10
0.0
 20
0.0
 30
0.0
 70
   128
 71
    44
 72
    43
 73
    30
  0
VERTEX
  5
39C
  8
0
 62
     9
 10
0.0
 20
0.0
 30
0.0
 70
   128
 71
    30
 72
    25
 73
    44
  0
VERTEX
  5
39D
  8
0
 62
     9
 10
0.0
 20
0.0
 30
0.0
 70
   128
 71
    30
 72
    43
 73
    45
  0
VERTEX
  5
39E
  8
0
 62
     9
 10
0.0
 20
0.0
 30
0.0
 70
   128
 71
    45
 72
    46
 73
     7
  0
VERTEX
  5
39F
  8
0
 62
     9
 10
0.0
 20
0.0
 30
0.0
 70
   128
 71
    45
 72
     7
 73
    30
  0
VERTEX
  5
3A0
  8
0
 62
     9
 10
0.0
 20
0.0
 30
0.0
 70
   128
 71
    47
 72
    25
 73
    26
  0
VERTEX
  5
3A1
  8
0
 62
     9
 10
0.0
 20
0.0
 30
0.0
 70
   128
 71
    26
 72
    48
 73
    47
  0
VERTEX
  5
3A2
  8
0
 62
     9
 10
0.0
 20
0.0
 30
0.0
 70
   128
 71
    47
 72
    49
 73
    25
  0
VERTEX
  5
3A3
  8
0
 62
     9
 10
0.0
 20
0.0
 30
0.0
 70
   128
 71
    50
 72
    26
 73
     1
  0
VERTEX
  5
3A4
  8
0
 62
     9
 10
0.0
 20
0.0
 30
0.0
 70
   128
 71
    52
 72
    51
 73
    26
  0
VERTEX
  5
3A5
  8
0
 62
     9
 10
0.0
 20
0.0
 30
0.0
 70
   128
 71
    26
 72
    50
 73
    52
  0
VERTEX
  5
3A6
  8
0
 62
     9
 10
0.0
 20
0.0
 30
0.0
 70
   128
 71
    54
 72
    53
 73
     4
  0
VERTEX
  5
3A7
  8
0
 62
     9
 10
0.0
 20
0.0
 30
0.0
 70
   128
 71
    53
 72
    55
 73
     1
  0
VERTEX
  5
3A8
  8
0
 62
     9
 10
0.0
 20
0.0
 30
0.0
 70
   128
 71
     1
 72
     4
 73
    53
  0
VERTEX
  5
3A9
  8
0
 62
     9
 10
0.0
 20
0.0
 30
0.0
 70
   128
 71
    56
 72
     4
 73
    14
  0
VERTEX
  5
3AA
  8
0
 62
     9
 10
0.0
 20
0.0
 30
0.0
 70
   128
 71
    14
 72
    57
 73
    56
  0
VERTEX
  5
3AB
  8
0
 62
     9
 10
0.0
 20
0.0
 30
0.0
 70
   128
 71
    56
 72
    58
 73
     4
  0
VERTEX
  5
3AC
  8
0
 62
     9
 10
0.0
 20
0.0
 30
0.0
 70
   128
 71
    59
 72
    11
 73
    18
  0
VERTEX
  5
3AD
  8
0
 62
     9
 10
0.0
 20
0.0
 30
0.0
 70
   128
 71
    60
 72
    14
 73
    11
  0
VERTEX
  5
3AE
  8
0
 62
     9
 10
0.0
 20
0.0
 30
0.0
 70
   128
 71
    11
 72
    61
 73
    60
  0
VERTEX
  5
3AF
  8
0
 62
     9
 10
0.0
 20
0.0
 30
0.0
 70
   128
 71
    11
 72
    59
 73
    61
  0
VERTEX
  5
3B0
  8
0
 62
     9
 10
0.0
 20
0.0
 30
0.0
 70
   128
 71
    18
 72
    62
 73
    59
  0
VERTEX
  5
3B1
  8
0
 62
     9
 10
0.0
 20
0.0
 30
0.0
 70
   128
 71
    64
 72
    63
 73
    18
  0
VERTEX
  5
3B2
  8
0
 62
     9
 10
0.0
 20
0.0
 30
0.0
 70
   128
 71
    18
 72
    65
 73
    64
  0
VERTEX
  5
3B3
  8
0
 62
     9
 10
0.0
 20
0.0
 30
0.0
 70
   128
 71
    18
 72
    19
 73
    65
  0
VERTEX
  5
3B4
  8
0
 62
     9
 10
0.0
 20
0.0
 30
0.0
 70
   128
 71
    65
 72
    66
 73
    64
  0
VERTEX
  5
3B5
  8
0
 62
     9
 10
0.0
 20
0.0
 30
0.0
 70
   128
 71
    65
 72
    67
 73
    66
  0
VERTEX
  5
3B6
  8
0
 62
     9
 10
0.0
 20
0.0
 30
0.0
 70
   128
 71
    18
 72
    63
 73
    62
  0
VERTEX
  5
3B7
  8
0
 62
     9
 10
0.0
 20
0.0
 30
0.0
 70
   128
 71
    14
 72
    60
 73
    57
  0
VERTEX
  5
3B8
  8
0
 62
     9
 10
0.0
 20
0.0
 30
0.0
 70
   128
 71
     4
 72
    58
 73
    54
  0
VERTEX
  5
3B9
  8
0
 62
     9
 10
0.0
 20
0.0
 30
0.0
 70
   128
 71
     1
 72
    55
 73
    50
  0
VERTEX
  5
3BA
  8
0
 62
     9
 10
0.0
 20
0.0
 30
0.0
 70
   128
 71
    26
 72
    51
 73
    48
  0
VERTEX
  5
3BB
  8
0
 62
     9
 10
0.0
 20
0.0
 30
0.0
 70
   128
 71
    25
 72
    49
 73
    44
  0
VERTEX
  5
3BC
  8
0
 62
     9
 10
0.0
 20
0.0
 30
0.0
 70
   128
 71
     7
 72
    46
 73
    40
  0
VERTEX
  5
3BD
  8
0
 62
     9
 10
0.0
 20
0.0
 30
0.0
 70
   128
 71
    26
 72
    29
 73
    36
  0
VERTEX
  5
3BE
  8
0
 62
     9
 10
0.0
 20
0.0
 30
0.0
 70
   128
 71
    30
 72
    32
 73
    34
  0
VERTEX
  5
3BF
  8
0
 62
     9
 10
0.0
 20
0.0
 30
0.0
 70
   128
 71
     7
 72
     9
 73
    31
  0
VERTEX
  5
3C0
  8
0
 62
     9
 10
0.0
 20
0.0
 30
0.0
 70
   128
 71
    25
 72
    33
 73
    28
  0
VERTEX
  5
3C1
  8
0
 62
     9
 10
0.0
 20
0.0
 30
0.0
 70
   128
 71
    11
 72
    12
 73
    24
  0
VERTEX
  5
3C2
  8
0
 62
     9
 10
0.0
 20
0.0
 30
0.0
 70
   128
 71
    18
 72
    23
 73
    22
  0
VERTEX
  5
3C3
  8
0
 62
     9
 10
0.0
 20
0.0
 30
0.0
 70
   128
 71
     4
 72
     5
 73
    16
  0
VERTEX
  5
3C4
  8
0
 62
     9
 10
0.0
 20
0.0
 30
0.0
 70
   128
 71
    14
 72
    17
 73
    13
  0
VERTEX
  5
3C5
  8
0
 62
     9
 10
0.0
 20
0.0
 30
0.0
 70
   128
 71
     6
 72
    68
 73
     8
  0
VERTEX
  5
3C6
  8
0
 62
     9
 10
0.0
 20
0.0
 30
0.0
 70
   128
 71
     1
 72
    38
 73
     3
  0
SEQEND
  5
3C7
  8
0
 62
     9
  0
ENDBLK
  5
3CA
  8
0
  0
BLOCK
  8
0
  2
E3_NODE_12_
 70
     0
 10
0.0
 20
0.0
 30
0.0
  3
E3_NODE_12_
  1

  0
POLYLINE
  5
3CC
  8
0
 62
     9
 66
     1
 10
0.0
 20
0.0
 30
0.0
 70
    64
 71
    40
 72
    43
  0
VERTEX
  5
3CD
  8
0
 10
119.7279968261719
 20
-21.88400077819824
 30
7.85099983215332
 70
   192
  0
VERTEX
  5
3CE
  8
0
 10
119.322998046875
 20
-17.18400001525879
 30
15.47000026702881
 70
   192
  0
VERTEX
  5
3CF
  8
0
 10
101.9010009765625
 20
-22.08600044250488
 30
15.41800022125244
 70
   192
  0
VERTEX
  5
3D0
  8
0
 10
101.9010009765625
 20
-24.78300094604492
 30
10.60799980163574
 70
   192
  0
VERTEX
  5
3D1
  8
0
 10
101.9010009765625
 20
-19.13800048828125
 30
18.8169994354248
 70
   192
  0
VERTEX
  5
3D2
  8
0
 10
101.9010009765625
 20
-19.83399963378906
 30
18.20400047302246
 70
   192
  0
VERTEX
  5
3D3
  8
0
 10
119.140998840332
 20
-13.60599994659424
 30
18.62599945068359
 70
   192
  0
VERTEX
  5
3D4
  8
0
 10
118.9980010986328
 20
-9.383000373840332
 30
21.04800033569336
 70
   192
  0
VERTEX
  5
3D5
  8
0
 10
101.9010009765625
 20
-12.64900016784668
 30
23.73600006103516
 70
   192
  0
VERTEX
  5
3D6
  8
0
 10
101.9010009765625
 20
-10.32199954986572
 30
24.67900085449219
 70
   192
  0
VERTEX
  5
3D7
  8
0
 10
118.9079971313477
 20
-4.697999954223633
 30
22.5580005645752
 70
   192
  0
VERTEX
  5
3D8
  8
0
 10
101.9010009765625
 20
-7.537000179290771
 30
25.80900001525879
 70
   192
  0
VERTEX
  5
3D9
  8
0
 10
101.9010009765625
 20
-5.190000057220459
 30
26.35000038146973
 70
   192
  0
VERTEX
  5
3DA
  8
0
 10
101.9010009765625
 20
-5.478000164031982
 30
26.31999969482422
 70
   192
  0
VERTEX
  5
3DB
  8
0
 10
101.9010009765625
 20
-15.07499980926514
 30
22.23600006103516
 70
   192
  0
VERTEX
  5
3DC
  8
0
 10
101.9010009765625
 20
-15.69499969482422
 30
21.85199928283691
 70
   192
  0
VERTEX
  5
3DD
  8
0
 10
118.8779983520508
 20
-0.0010000000474975
 30
23.04400062561035
 70
   192
  0
VERTEX
  5
3DE
  8
0
 10
101.9010009765625
 20
-25.98600006103516
 30
7.229000091552734
 70
   192
  0
VERTEX
  5
3DF
  8
0
 10
101.9010009765625
 20
-26.93600082397461
 30
1.807999968528748
 70
   192
  0
VERTEX
  5
3E0
  8
0
 10
118.2060012817383
 20
-23.62400054931641
 30
-0.1000000014901161
 70
   192
  0
VERTEX
  5
3E1
  8
0
 10
101.9010009765625
 20
-24.95599937438965
 30
10.12100028991699
 70
   192
  0
VERTEX
  5
3E2
  8
0
 10
101.9010009765625
 20
-27.00399971008301
 30
-0.0949999988079071
 70
   192
  0
VERTEX
  5
3E3
  8
0
 10
137.4629974365234
 20
-19.18400001525879
 30
4.197000026702881
 70
   192
  0
VERTEX
  5
3E4
  8
0
 10
134.3159942626953
 20
-20.28400039672852
 30
-0.1049999967217445
 70
   192
  0
VERTEX
  5
3E5
  8
0
 10
134.3249969482422
 20
-20.2819995880127
 30
-0.1089999973773956
 70
   192
  0
VERTEX
  5
3E6
  8
0
 10
138.0030059814453
 20
-19.51899909973145
 30
-0.1110000014305115
 70
   192
  0
VERTEX
  5
3E7
  8
0
 10
120.0849990844727
 20
-23.23399925231934
 30
-0.101000003516674
 70
   192
  0
VERTEX
  5
3E8
  8
0
 10
137.2940063476562
 20
-18.80500030517578
 30
5.598999977111816
 70
   192
  0
VERTEX
  5
3E9
  8
0
 10
136.7559967041016
 20
-16.6879997253418
 30
10.13300037384033
 70
   192
  0
VERTEX
  5
3EA
  8
0
 10
136.5670013427734
 20
-15.51599979400635
 30
11.73200035095215
 70
   192
  0
VERTEX
  5
3EB
  8
0
 10
137.2250061035156
 20
-18.65200042724609
 30
6.160999774932861
 70
   192
  0
VERTEX
  5
3EC
  8
0
 10
136.072998046875
 20
-11.00800037384033
 30
15.8430004119873
 70
   192
  0
VERTEX
  5
3ED
  8
0
 10
135.9019927978516
 20
-8.343999862670898
 30
17.2189998626709
 70
   192
  0
VERTEX
  5
3EE
  8
0
 10
136.1660003662109
 20
-12.06700038909912
 30
15.08100032806396
 70
   192
  0
VERTEX
  5
3EF
  8
0
 10
136.5260009765625
 20
-15.16600036621094
 30
12.07100009918213
 70
   192
  0
VERTEX
  5
3F0
  8
0
 10
135.8040008544922
 20
-6.821000099182129
 30
18.00600051879883
 70
   192
  0
VERTEX
  5
3F1
  8
0
 10
135.7169952392578
 20
-4.63700008392334
 30
18.68499946594238
 70
   192
  0
VERTEX
  5
3F2
  8
0
 10
135.7100067138672
 20
-4.203000068664551
 30
18.73800086975098
 70
   192
  0
VERTEX
  5
3F3
  8
0
 10
135.6439971923828
 20
0.0
 30
19.25399971008301
 70
   192
  0
VERTEX
  5
3F4
  8
0
 10
101.9010009765625
 20
-0.0020000000949949
 30
26.88100051879883
 70
   192
  0
VERTEX
  5
3F5
  8
0
 62
     9
 10
0.0
 20
0.0
 30
0.0
 70
   128
 71
     3
 72
     2
 73
     1
  0
VERTEX
  5
3F6
  8
0
 62
     9
 10
0.0
 20
0.0
 30
0.0
 70
   128
 71
     1
 72
     4
 73
     3
  0
VERTEX
  5
3F7
  8
0
 62
     9
 10
0.0
 20
0.0
 30
0.0
 70
   128
 71
     6
 72
     5
 73
     2
  0
VERTEX
  5
3F8
  8
0
 62
     9
 10
0.0
 20
0.0
 30
0.0
 70
   128
 71
     2
 72
     3
 73
     6
  0
VERTEX
  5
3F9
  8
0
 62
     9
 10
0.0
 20
0.0
 30
0.0
 70
   128
 71
     9
 72
     8
 73
     7
  0
VERTEX
  5
3FA
  8
0
 62
     9
 10
0.0
 20
0.0
 30
0.0
 70
   128
 71
     9
 72
    10
 73
     8
  0
VERTEX
  5
3FB
  8
0
 62
     9
 10
0.0
 20
0.0
 30
0.0
 70
   128
 71
    12
 72
    11
 73
     8
  0
VERTEX
  5
3FC
  8
0
 62
     9
 10
0.0
 20
0.0
 30
0.0
 70
   128
 71
    14
 72
    13
 73
    11
  0
VERTEX
  5
3FD
  8
0
 62
     9
 10
0.0
 20
0.0
 30
0.0
 70
   128
 71
    11
 72
    12
 73
    14
  0
VERTEX
  5
3FE
  8
0
 62
     9
 10
0.0
 20
0.0
 30
0.0
 70
   128
 71
     7
 72
     2
 73
     5
  0
VERTEX
  5
3FF
  8
0
 62
     9
 10
0.0
 20
0.0
 30
0.0
 70
   128
 71
    16
 72
    15
 73
     7
  0
VERTEX
  5
400
  8
0
 62
     9
 10
0.0
 20
0.0
 30
0.0
 70
   128
 71
    17
 72
    11
 73
    13
  0
VERTEX
  5
401
  8
0
 62
     9
 10
0.0
 20
0.0
 30
0.0
 70
   128
 71
    20
 72
    19
 73
    18
  0
VERTEX
  5
402
  8
0
 62
     9
 10
0.0
 20
0.0
 30
0.0
 70
   128
 71
    18
 72
    21
 73
     1
  0
VERTEX
  5
403
  8
0
 62
     9
 10
0.0
 20
0.0
 30
0.0
 70
   128
 71
    18
 72
     1
 73
    20
  0
VERTEX
  5
404
  8
0
 62
     9
 10
0.0
 20
0.0
 30
0.0
 70
   128
 71
    20
 72
    22
 73
    19
  0
VERTEX
  5
405
  8
0
 62
     9
 10
0.0
 20
0.0
 30
0.0
 70
   128
 71
    25
 72
    24
 73
    23
  0
VERTEX
  5
406
  8
0
 62
     9
 10
0.0
 20
0.0
 30
0.0
 70
   128
 71
    23
 72
    26
 73
    25
  0
VERTEX
  5
407
  8
0
 62
     9
 10
0.0
 20
0.0
 30
0.0
 70
   128
 71
    24
 72
    27
 73
     1
  0
VERTEX
  5
408
  8
0
 62
     9
 10
0.0
 20
0.0
 30
0.0
 70
   128
 71
     1
 72
    28
 73
    24
  0
VERTEX
  5
409
  8
0
 62
     9
 10
0.0
 20
0.0
 30
0.0
 70
   128
 71
    30
 72
    29
 73
     1
  0
VERTEX
  5
40A
  8
0
 62
     9
 10
0.0
 20
0.0
 30
0.0
 70
   128
 71
     1
 72
     2
 73
    30
  0
VERTEX
  5
40B
  8
0
 62
     9
 10
0.0
 20
0.0
 30
0.0
 70
   128
 71
    29
 72
    31
 73
     1
  0
VERTEX
  5
40C
  8
0
 62
     9
 10
0.0
 20
0.0
 30
0.0
 70
   128
 71
    31
 72
    28
 73
     1
  0
VERTEX
  5
40D
  8
0
 62
     9
 10
0.0
 20
0.0
 30
0.0
 70
   128
 71
    33
 72
    32
 73
     7
  0
VERTEX
  5
40E
  8
0
 62
     9
 10
0.0
 20
0.0
 30
0.0
 70
   128
 71
    34
 72
     2
 73
     7
  0
VERTEX
  5
40F
  8
0
 62
     9
 10
0.0
 20
0.0
 30
0.0
 70
   128
 71
    34
 72
    35
 73
     2
  0
VERTEX
  5
410
  8
0
 62
     9
 10
0.0
 20
0.0
 30
0.0
 70
   128
 71
     7
 72
    32
 73
    34
  0
VERTEX
  5
411
  8
0
 62
     9
 10
0.0
 20
0.0
 30
0.0
 70
   128
 71
    37
 72
    36
 73
     8
  0
VERTEX
  5
412
  8
0
 62
     9
 10
0.0
 20
0.0
 30
0.0
 70
   128
 71
    36
 72
    33
 73
     8
  0
VERTEX
  5
413
  8
0
 62
     9
 10
0.0
 20
0.0
 30
0.0
 70
   128
 71
     8
 72
    11
 73
    37
  0
VERTEX
  5
414
  8
0
 62
     9
 10
0.0
 20
0.0
 30
0.0
 70
   128
 71
    39
 72
    38
 73
    11
  0
VERTEX
  5
415
  8
0
 62
     9
 10
0.0
 20
0.0
 30
0.0
 70
   128
 71
    11
 72
    17
 73
    39
  0
VERTEX
  5
416
  8
0
 62
     9
 10
0.0
 20
0.0
 30
0.0
 70
   128
 71
    11
 72
    38
 73
    37
  0
VERTEX
  5
417
  8
0
 62
     9
 10
0.0
 20
0.0
 30
0.0
 70
   128
 71
     7
 72
     8
 73
    33
  0
VERTEX
  5
418
  8
0
 62
     9
 10
0.0
 20
0.0
 30
0.0
 70
   128
 71
     2
 72
    35
 73
    30
  0
VERTEX
  5
419
  8
0
 62
     9
 10
0.0
 20
0.0
 30
0.0
 70
   128
 71
    24
 72
    28
 73
    23
  0
VERTEX
  5
41A
  8
0
 62
     9
 10
0.0
 20
0.0
 30
0.0
 70
   128
 71
     1
 72
    27
 73
    20
  0
VERTEX
  5
41B
  8
0
 62
     9
 10
0.0
 20
0.0
 30
0.0
 70
   128
 71
    13
 72
    40
 73
    17
  0
VERTEX
  5
41C
  8
0
 62
     9
 10
0.0
 20
0.0
 30
0.0
 70
   128
 71
     5
 72
    16
 73
     7
  0
VERTEX
  5
41D
  8
0
 62
     9
 10
0.0
 20
0.0
 30
0.0
 70
   128
 71
     8
 72
    10
 73
    12
  0
VERTEX
  5
41E
  8
0
 62
     9
 10
0.0
 20
0.0
 30
0.0
 70
   128
 71
     7
 72
    15
 73
     9
  0
VERTEX
  5
41F
  8
0
 62
     9
 10
0.0
 20
0.0
 30
0.0
 70
   128
 71
     1
 72
    21
 73
     4
  0
SEQEND
  5
420
  8
0
 62
     9
  0
ENDBLK
  5
423
  8
0
  0
BLOCK
  8
0
  2
E3_NODE_13_
 70
     0
 10
0.0
 20
0.0
 30
0.0
  3
E3_NODE_13_
  1

  0
POLYLINE
  5
425
  8
0
 62
     9
 66
     1
 10
0.0
 20
0.0
 30
0.0
 70
    64
 71
    40
 72
    43
  0
VERTEX
  5
426
  8
0
 10
119.322998046875
 20
17.18199920654297
 30
15.47200012207031
 70
   192
  0
VERTEX
  5
427
  8
0
 10
119.7289962768555
 20
21.88400077819824
 30
7.85200023651123
 70
   192
  0
VERTEX
  5
428
  8
0
 10
101.9010009765625
 20
23.84799957275391
 30
12.55000019073486
 70
   192
  0
VERTEX
  5
429
  8
0
 10
101.9010009765625
 20
24.85300064086914
 30
10.07800006866455
 70
   192
  0
VERTEX
  5
42A
  8
0
 10
101.9010009765625
 20
21.96699905395508
 30
15.58600044250488
 70
   192
  0
VERTEX
  5
42B
  8
0
 10
101.9010009765625
 20
15.06900024414062
 30
22.22699928283691
 70
   192
  0
VERTEX
  5
42C
  8
0
 10
101.9010009765625
 20
10.72000026702881
 30
24.66300010681152
 70
   192
  0
VERTEX
  5
42D
  8
0
 10
118.9980010986328
 20
9.380000114440918
 30
21.04899978637695
 70
   192
  0
VERTEX
  5
42E
  8
0
 10
119.140998840332
 20
13.60400009155273
 30
18.62800025939941
 70
   192
  0
VERTEX
  5
42F
  8
0
 10
101.9010009765625
 20
10.36499977111816
 30
24.78899955749512
 70
   192
  0
VERTEX
  5
430
  8
0
 10
101.9010009765625
 20
7.342999935150146
 30
25.86400032043457
 70
   192
  0
VERTEX
  5
431
  8
0
 10
118.9079971313477
 20
4.695000171661377
 30
22.55900001525879
 70
   192
  0
VERTEX
  5
432
  8
0
 10
101.9010009765625
 20
18.31599998474121
 30
19.72100067138672
 70
   192
  0
VERTEX
  5
433
  8
0
 10
101.9010009765625
 20
15.53299999237061
 30
21.96699905395508
 70
   192
  0
VERTEX
  5
434
  8
0
 10
101.9010009765625
 20
19.11700057983398
 30
18.81399917602539
 70
   192
  0
VERTEX
  5
435
  8
0
 10
101.9010009765625
 20
26.43899917602539
 30
5.380000114440918
 70
   192
  0
VERTEX
  5
436
  8
0
 10
101.9010009765625
 20
25.92499923706055
 30
7.441999912261963
 70
   192
  0
VERTEX
  5
437
  8
0
 10
118.2060012817383
 20
23.62400054931641
 30
-0.1019999980926514
 70
   192
  0
VERTEX
  5
438
  8
0
 10
101.9010009765625
 20
27.00399971008301
 30
-0.0949999988079071
 70
   192
  0
VERTEX
  5
439
  8
0
 10
120.0849990844727
 20
23.23399925231934
 30
-0.1030000001192093
 70
   192
  0
VERTEX
  5
43A
  8
0
 10
101.9010009765625
 20
5.165999889373779
 30
26.2450008392334
 70
   192
  0
VERTEX
  5
43B
  8
0
 10
101.9010009765625
 20
1.907999992370605
 30
26.81399917602539
 70
   192
  0
VERTEX
  5
43C
  8
0
 10
118.8779983520508
 20
-0.0010000000474975
 30
23.04400062561035
 70
   192
  0
VERTEX
  5
43D
  8
0
 10
101.9010009765625
 20
-0.0020000000949949
 30
26.88100051879883
 70
   192
  0
VERTEX
  5
43E
  8
0
 10
135.6439971923828
 20
0.0
 30
19.25399971008301
 70
   192
  0
VERTEX
  5
43F
  8
0
 10
135.7160034179688
 20
4.599999904632568
 30
18.69400024414062
 70
   192
  0
VERTEX
  5
440
  8
0
 10
135.7839965820312
 20
6.388999938964844
 30
18.16200065612793
 70
   192
  0
VERTEX
  5
441
  8
0
 10
135.7100067138672
 20
4.201000213623047
 30
18.74300003051758
 70
   192
  0
VERTEX
  5
442
  8
0
 10
136.0449981689453
 20
10.65499973297119
 30
16.07500076293945
 70
   192
  0
VERTEX
  5
443
  8
0
 10
136.1660003662109
 20
12.06799983978271
 30
15.07999992370605
 70
   192
  0
VERTEX
  5
444
  8
0
 10
135.9029998779297
 20
8.33899974822998
 30
17.20800018310547
 70
   192
  0
VERTEX
  5
445
  8
0
 10
136.5619964599609
 20
15.48099994659424
 30
11.77400016784668
 70
   192
  0
VERTEX
  5
446
  8
0
 10
136.5260009765625
 20
15.16899967193604
 30
12.07600021362305
 70
   192
  0
VERTEX
  5
447
  8
0
 10
136.7579956054688
 20
16.70400047302246
 30
10.10900020599365
 70
   192
  0
VERTEX
  5
448
  8
0
 10
137.2149963378906
 20
18.62100028991699
 30
6.251999855041504
 70
   192
  0
VERTEX
  5
449
  8
0
 10
137.3739929199219
 20
19.01799964904785
 30
4.928999900817871
 70
   192
  0
VERTEX
  5
44A
  8
0
 10
137.9160003662109
 20
19.51799964904785
 30
0.5770000219345093
 70
   192
  0
VERTEX
  5
44B
  8
0
 10
134.3159942626953
 20
20.28400039672852
 30
-0.1089999973773956
 70
   192
  0
VERTEX
  5
44C
  8
0
 10
137.2929992675781
 20
18.81599998474121
 30
5.60200023651123
 70
   192
  0
VERTEX
  5
44D
  8
0
 10
138.0030059814453
 20
19.51899909973145
 30
-0.1110000014305115
 70
   192
  0
VERTEX
  5
44E
  8
0
 62
     9
 10
0.0
 20
0.0
 30
0.0
 70
   128
 71
     3
 72
     2
 73
     1
  0
VERTEX
  5
44F
  8
0
 62
     9
 10
0.0
 20
0.0
 30
0.0
 70
   128
 71
     3
 72
     4
 73
     2
  0
VERTEX
  5
450
  8
0
 62
     9
 10
0.0
 20
0.0
 30
0.0
 70
   128
 71
     1
 72
     5
 73
     3
  0
VERTEX
  5
451
  8
0
 62
     9
 10
0.0
 20
0.0
 30
0.0
 70
   128
 71
     8
 72
     7
 73
     6
  0
VERTEX
  5
452
  8
0
 62
     9
 10
0.0
 20
0.0
 30
0.0
 70
   128
 71
     6
 72
     9
 73
     8
  0
VERTEX
  5
453
  8
0
 62
     9
 10
0.0
 20
0.0
 30
0.0
 70
   128
 71
    11
 72
    10
 73
     8
  0
VERTEX
  5
454
  8
0
 62
     9
 10
0.0
 20
0.0
 30
0.0
 70
   128
 71
     8
 72
    12
 73
    11
  0
VERTEX
  5
455
  8
0
 62
     9
 10
0.0
 20
0.0
 30
0.0
 70
   128
 71
    13
 72
     1
 73
     9
  0
VERTEX
  5
456
  8
0
 62
     9
 10
0.0
 20
0.0
 30
0.0
 70
   128
 71
     9
 72
    14
 73
    13
  0
VERTEX
  5
457
  8
0
 62
     9
 10
0.0
 20
0.0
 30
0.0
 70
   128
 71
    13
 72
    15
 73
     1
  0
VERTEX
  5
458
  8
0
 62
     9
 10
0.0
 20
0.0
 30
0.0
 70
   128
 71
    17
 72
    16
 73
     2
  0
VERTEX
  5
459
  8
0
 62
     9
 10
0.0
 20
0.0
 30
0.0
 70
   128
 71
    18
 72
     2
 73
    16
  0
VERTEX
  5
45A
  8
0
 62
     9
 10
0.0
 20
0.0
 30
0.0
 70
   128
 71
    16
 72
    19
 73
    18
  0
VERTEX
  5
45B
  8
0
 62
     9
 10
0.0
 20
0.0
 30
0.0
 70
   128
 71
    18
 72
    20
 73
     2
  0
VERTEX
  5
45C
  8
0
 62
     9
 10
0.0
 20
0.0
 30
0.0
 70
   128
 71
    22
 72
    21
 73
    12
  0
VERTEX
  5
45D
  8
0
 62
     9
 10
0.0
 20
0.0
 30
0.0
 70
   128
 71
    12
 72
    23
 73
    22
  0
VERTEX
  5
45E
  8
0
 62
     9
 10
0.0
 20
0.0
 30
0.0
 70
   128
 71
    23
 72
    24
 73
    22
  0
VERTEX
  5
45F
  8
0
 62
     9
 10
0.0
 20
0.0
 30
0.0
 70
   128
 71
    25
 72
    23
 73
    12
  0
VERTEX
  5
460
  8
0
 62
     9
 10
0.0
 20
0.0
 30
0.0
 70
   128
 71
    26
 72
    12
 73
     8
  0
VERTEX
  5
461
  8
0
 62
     9
 10
0.0
 20
0.0
 30
0.0
 70
   128
 71
     8
 72
    27
 73
    26
  0
VERTEX
  5
462
  8
0
 62
     9
 10
0.0
 20
0.0
 30
0.0
 70
   128
 71
    26
 72
    28
 73
    12
  0
VERTEX
  5
463
  8
0
 62
     9
 10
0.0
 20
0.0
 30
0.0
 70
   128
 71
    30
 72
    29
 73
     9
  0
VERTEX
  5
464
  8
0
 62
     9
 10
0.0
 20
0.0
 30
0.0
 70
   128
 71
     9
 72
     1
 73
    30
  0
VERTEX
  5
465
  8
0
 62
     9
 10
0.0
 20
0.0
 30
0.0
 70
   128
 71
    31
 72
     8
 73
     9
  0
VERTEX
  5
466
  8
0
 62
     9
 10
0.0
 20
0.0
 30
0.0
 70
   128
 71
     9
 72
    29
 73
    31
  0
VERTEX
  5
467
  8
0
 62
     9
 10
0.0
 20
0.0
 30
0.0
 70
   128
 71
    32
 72
     1
 73
     2
  0
VERTEX
  5
468
  8
0
 62
     9
 10
0.0
 20
0.0
 30
0.0
 70
   128
 71
    32
 72
    33
 73
     1
  0
VERTEX
  5
469
  8
0
 62
     9
 10
0.0
 20
0.0
 30
0.0
 70
   128
 71
     2
 72
    34
 73
    32
  0
VERTEX
  5
46A
  8
0
 62
     9
 10
0.0
 20
0.0
 30
0.0
 70
   128
 71
     2
 72
    35
 73
    34
  0
VERTEX
  5
46B
  8
0
 62
     9
 10
0.0
 20
0.0
 30
0.0
 70
   128
 71
    38
 72
    37
 73
    36
  0
VERTEX
  5
46C
  8
0
 62
     9
 10
0.0
 20
0.0
 30
0.0
 70
   128
 71
    36
 72
    20
 73
    38
  0
VERTEX
  5
46D
  8
0
 62
     9
 10
0.0
 20
0.0
 30
0.0
 70
   128
 71
    36
 72
    39
 73
     2
  0
VERTEX
  5
46E
  8
0
 62
     9
 10
0.0
 20
0.0
 30
0.0
 70
   128
 71
     2
 72
    20
 73
    36
  0
VERTEX
  5
46F
  8
0
 62
     9
 10
0.0
 20
0.0
 30
0.0
 70
   128
 71
    38
 72
    40
 73
    37
  0
VERTEX
  5
470
  8
0
 62
     9
 10
0.0
 20
0.0
 30
0.0
 70
   128
 71
     2
 72
    39
 73
    35
  0
VERTEX
  5
471
  8
0
 62
     9
 10
0.0
 20
0.0
 30
0.0
 70
   128
 71
     1
 72
    33
 73
    30
  0
VERTEX
  5
472
  8
0
 62
     9
 10
0.0
 20
0.0
 30
0.0
 70
   128
 71
     8
 72
    31
 73
    27
  0
VERTEX
  5
473
  8
0
 62
     9
 10
0.0
 20
0.0
 30
0.0
 70
   128
 71
    12
 72
    28
 73
    25
  0
VERTEX
  5
474
  8
0
 62
     9
 10
0.0
 20
0.0
 30
0.0
 70
   128
 71
     2
 72
     4
 73
    17
  0
VERTEX
  5
475
  8
0
 62
     9
 10
0.0
 20
0.0
 30
0.0
 70
   128
 71
     9
 72
     6
 73
    14
  0
VERTEX
  5
476
  8
0
 62
     9
 10
0.0
 20
0.0
 30
0.0
 70
   128
 71
    12
 72
    21
 73
    11
  0
VERTEX
  5
477
  8
0
 62
     9
 10
0.0
 20
0.0
 30
0.0
 70
   128
 71
     8
 72
    10
 73
     7
  0
VERTEX
  5
478
  8
0
 62
     9
 10
0.0
 20
0.0
 30
0.0
 70
   128
 71
     1
 72
    15
 73
     5
  0
SEQEND
  5
479
  8
0
 62
     9
  0
ENDBLK
  5
47C
  8
0
  0
BLOCK
  8
0
  2
E3_NODE_14_
 70
     0
 10
0.0
 20
0.0
 30
0.0
  3
E3_NODE_14_
  1

  0
POLYLINE
  5
47E
  8
0
 62
     9
 66
     1
 10
0.0
 20
0.0
 30
0.0
 70
    64
 71
    45
 72
    60
  0
VERTEX
  5
47F
  8
0
 10
108.4749984741211
 20
0.0010000000474975
 30
21.39200019836426
 70
   192
  0
VERTEX
  5
480
  8
0
 10
114.4229965209961
 20
0.0010000000474975
 30
15.5
 70
   192
  0
VERTEX
  5
481
  8
0
 10
114.4229965209961
 20
6.304999828338623
 30
14.15999984741211
 70
   192
  0
VERTEX
  5
482
  8
0
 10
108.4749984741211
 20
15.89900016784668
 30
14.3129997253418
 70
   192
  0
VERTEX
  5
483
  8
0
 10
108.4749984741211
 20
8.70199966430664
 30
19.54199981689453
 70
   192
  0
VERTEX
  5
484
  8
0
 10
114.4229965209961
 20
11.51900005340576
 30
10.37100028991699
 70
   192
  0
VERTEX
  5
485
  8
0
 10
114.4229965209961
 20
14.74199962615967
 30
4.789000034332275
 70
   192
  0
VERTEX
  5
486
  8
0
 10
108.4749984741211
 20
20.34600067138672
 30
6.609000205993652
 70
   192
  0
VERTEX
  5
487
  8
0
 10
114.4229965209961
 20
15.41499996185303
 30
-1.621000051498413
 70
   192
  0
VERTEX
  5
488
  8
0
 10
108.4749984741211
 20
18.52599906921387
 30
-10.69699954986572
 70
   192
  0
VERTEX
  5
489
  8
0
 10
108.4749984741211
 20
21.27499961853027
 30
-2.236999988555908
 70
   192
  0
VERTEX
  5
48A
  8
0
 10
114.4229965209961
 20
13.42300033569336
 30
-7.750999927520752
 70
   192
  0
VERTEX
  5
48B
  8
0
 10
114.4229965209961
 20
9.109999656677246
 30
-12.53999996185303
 70
   192
  0
VERTEX
  5
48C
  8
0
 10
108.4749984741211
 20
4.447000026702881
 30
-20.92499923706055
 70
   192
  0
VERTEX
  5
48D
  8
0
 10
108.4749984741211
 20
12.57299995422363
 30
-17.3080005645752
 70
   192
  0
VERTEX
  5
48E
  8
0
 10
114.4229965209961
 20
3.221999883651733
 30
-15.16100025177002
 70
   192
  0
VERTEX
  5
48F
  8
0
 10
114.4229965209961
 20
-3.223999977111816
 30
-15.16100025177002
 70
   192
  0
VERTEX
  5
490
  8
0
 10
108.4749984741211
 20
-12.57499980926514
 30
-17.30599975585938
 70
   192
  0
VERTEX
  5
491
  8
0
 10
108.4749984741211
 20
-4.448999881744385
 30
-20.92499923706055
 70
   192
  0
VERTEX
  5
492
  8
0
 10
114.4229965209961
 20
-9.111000061035156
 30
-12.53899955749512
 70
   192
  0
VERTEX
  5
493
  8
0
 10
114.4229965209961
 20
-13.42399978637695
 30
-7.749000072479248
 70
   192
  0
VERTEX
  5
494
  8
0
 10
108.4749984741211
 20
-21.27499961853027
 30
-2.234999895095825
 70
   192
  0
VERTEX
  5
495
  8
0
 10
108.4749984741211
 20
-18.52700042724609
 30
-10.69499969482422
 70
   192
  0
VERTEX
  5
496
  8
0
 10
114.4229965209961
 20
-15.41499996185303
 30
-1.61899995803833
 70
   192
  0
VERTEX
  5
497
  8
0
 10
114.4229965209961
 20
-14.74100017547607
 30
4.790999889373779
 70
   192
  0
VERTEX
  5
498
  8
0
 10
108.4749984741211
 20
-15.89700031280518
 30
14.3149995803833
 70
   192
  0
VERTEX
  5
499
  8
0
 10
108.4749984741211
 20
-20.34499931335449
 30
6.611999988555908
 70
   192
  0
VERTEX
  5
49A
  8
0
 10
108.4749984741211
 20
-8.699999809265137
 30
19.54299926757812
 70
   192
  0
VERTEX
  5
49B
  8
0
 10
114.4229965209961
 20
-11.51799964904785
 30
10.37199974060059
 70
   192
  0
VERTEX
  5
49C
  8
0
 10
114.4229965209961
 20
-6.303999900817871
 30
14.15999984741211
 70
   192
  0
VERTEX
  5
49D
  8
0
 10
100.9759979248047
 20
10.21700000762939
 30
22.94499969482422
 70
   192
  0
VERTEX
  5
49E
  8
0
 10
100.9759979248047
 20
0.0010000000474975
 30
25.11700057983398
 70
   192
  0
VERTEX
  5
49F
  8
0
 10
100.9759979248047
 20
18.66600036621094
 30
16.80500030517578
 70
   192
  0
VERTEX
  5
4A0
  8
0
 10
100.9759979248047
 20
24.97900009155273
 30
-2.627000093460083
 70
   192
  0
VERTEX
  5
4A1
  8
0
 10
100.9759979248047
 20
23.88800048828125
 30
7.760000228881836
 70
   192
  0
VERTEX
  5
4A2
  8
0
 10
100.9759979248047
 20
21.75099945068359
 30
-12.5600004196167
 70
   192
  0
VERTEX
  5
4A3
  8
0
 10
100.9759979248047
 20
5.221000194549561
 30
-24.56800079345703
 70
   192
  0
VERTEX
  5
4A4
  8
0
 10
100.9759979248047
 20
14.76200008392334
 30
-20.32099914550781
 70
   192
  0
VERTEX
  5
4A5
  8
0
 10
100.9759979248047
 20
-5.223999977111816
 30
-24.56800079345703
 70
   192
  0
VERTEX
  5
4A6
  8
0
 10
100.9759979248047
 20
-21.75200080871582
 30
-12.55700016021729
 70
   192
  0
VERTEX
  5
4A7
  8
0
 10
100.9759979248047
 20
-14.76399993896484
 30
-20.31900024414062
 70
   192
  0
VERTEX
  5
4A8
  8
0
 10
100.9759979248047
 20
-24.97900009155273
 30
-2.624000072479248
 70
   192
  0
VERTEX
  5
4A9
  8
0
 10
100.9759979248047
 20
-18.66399955749512
 30
16.80699920654297
 70
   192
  0
VERTEX
  5
4AA
  8
0
 10
100.9759979248047
 20
-23.88699913024902
 30
7.763000011444092
 70
   192
  0
VERTEX
  5
4AB
  8
0
 10
100.9759979248047
 20
-10.21500015258789
 30
22.94599914550781
 70
   192
  0
VERTEX
  5
4AC
  8
0
 62
     9
 10
0.0
 20
0.0
 30
0.0
 70
   128
 71
     3
 72
     2
 73
     1
  0
VERTEX
  5
4AD
  8
0
 62
     9
 10
0.0
 20
0.0
 30
0.0
 70
   128
 71
     3
 72
     5
 73
     4
  0
VERTEX
  5
4AE
  8
0
 62
     9
 10
0.0
 20
0.0
 30
0.0
 70
   128
 71
     7
 72
     6
 73
     4
  0
VERTEX
  5
4AF
  8
0
 62
     9
 10
0.0
 20
0.0
 30
0.0
 70
   128
 71
     9
 72
     7
 73
     8
  0
VERTEX
  5
4B0
  8
0
 62
     9
 10
0.0
 20
0.0
 30
0.0
 70
   128
 71
     9
 72
    11
 73
    10
  0
VERTEX
  5
4B1
  8
0
 62
     9
 10
0.0
 20
0.0
 30
0.0
 70
   128
 71
    13
 72
    12
 73
    10
  0
VERTEX
  5
4B2
  8
0
 62
     9
 10
0.0
 20
0.0
 30
0.0
 70
   128
 71
    13
 72
    15
 73
    14
  0
VERTEX
  5
4B3
  8
0
 62
     9
 10
0.0
 20
0.0
 30
0.0
 70
   128
 71
    17
 72
    16
 73
    14
  0
VERTEX
  5
4B4
  8
0
 62
     9
 10
0.0
 20
0.0
 30
0.0
 70
   128
 71
    17
 72
    19
 73
    18
  0
VERTEX
  5
4B5
  8
0
 62
     9
 10
0.0
 20
0.0
 30
0.0
 70
   128
 71
    21
 72
    20
 73
    18
  0
VERTEX
  5
4B6
  8
0
 62
     9
 10
0.0
 20
0.0
 30
0.0
 70
   128
 71
    21
 72
    23
 73
    22
  0
VERTEX
  5
4B7
  8
0
 62
     9
 10
0.0
 20
0.0
 30
0.0
 70
   128
 71
    25
 72
    24
 73
    22
  0
VERTEX
  5
4B8
  8
0
 62
     9
 10
0.0
 20
0.0
 30
0.0
 70
   128
 71
    25
 72
    27
 73
    26
  0
VERTEX
  5
4B9
  8
0
 62
     9
 10
0.0
 20
0.0
 30
0.0
 70
   128
 71
    29
 72
    26
 73
    28
  0
VERTEX
  5
4BA
  8
0
 62
     9
 10
0.0
 20
0.0
 30
0.0
 70
   128
 71
     2
 72
    30
 73
    28
  0
VERTEX
  5
4BB
  8
0
 62
     9
 10
0.0
 20
0.0
 30
0.0
 70
   128
 71
     1
 72
    32
 73
    31
  0
VERTEX
  5
4BC
  8
0
 62
     9
 10
0.0
 20
0.0
 30
0.0
 70
   128
 71
     5
 72
    31
 73
    33
  0
VERTEX
  5
4BD
  8
0
 62
     9
 10
0.0
 20
0.0
 30
0.0
 70
   128
 71
     8
 72
     4
 73
    33
  0
VERTEX
  5
4BE
  8
0
 62
     9
 10
0.0
 20
0.0
 30
0.0
 70
   128
 71
     8
 72
    35
 73
    34
  0
VERTEX
  5
4BF
  8
0
 62
     9
 10
0.0
 20
0.0
 30
0.0
 70
   128
 71
    11
 72
    34
 73
    36
  0
VERTEX
  5
4C0
  8
0
 62
     9
 10
0.0
 20
0.0
 30
0.0
 70
   128
 71
    15
 72
    10
 73
    36
  0
VERTEX
  5
4C1
  8
0
 62
     9
 10
0.0
 20
0.0
 30
0.0
 70
   128
 71
    15
 72
    38
 73
    37
  0
VERTEX
  5
4C2
  8
0
 62
     9
 10
0.0
 20
0.0
 30
0.0
 70
   128
 71
    19
 72
    14
 73
    37
  0
VERTEX
  5
4C3
  8
0
 62
     9
 10
0.0
 20
0.0
 30
0.0
 70
   128
 71
    18
 72
    19
 73
    39
  0
VERTEX
  5
4C4
  8
0
 62
     9
 10
0.0
 20
0.0
 30
0.0
 70
   128
 71
    18
 72
    41
 73
    40
  0
VERTEX
  5
4C5
  8
0
 62
     9
 10
0.0
 20
0.0
 30
0.0
 70
   128
 71
    23
 72
    40
 73
    42
  0
VERTEX
  5
4C6
  8
0
 62
     9
 10
0.0
 20
0.0
 30
0.0
 70
   128
 71
    27
 72
    22
 73
    42
  0
VERTEX
  5
4C7
  8
0
 62
     9
 10
0.0
 20
0.0
 30
0.0
 70
   128
 71
    27
 72
    44
 73
    43
  0
VERTEX
  5
4C8
  8
0
 62
     9
 10
0.0
 20
0.0
 30
0.0
 70
   128
 71
    28
 72
    26
 73
    43
  0
VERTEX
  5
4C9
  8
0
 62
     9
 10
0.0
 20
0.0
 30
0.0
 70
   128
 71
     1
 72
    28
 73
    45
  0
VERTEX
  5
4CA
  8
0
 62
     9
 10
0.0
 20
0.0
 30
0.0
 70
   128
 71
    45
 72
    32
 73
     1
  0
VERTEX
  5
4CB
  8
0
 62
     9
 10
0.0
 20
0.0
 30
0.0
 70
   128
 71
    43
 72
    45
 73
    28
  0
VERTEX
  5
4CC
  8
0
 62
     9
 10
0.0
 20
0.0
 30
0.0
 70
   128
 71
    43
 72
    26
 73
    27
  0
VERTEX
  5
4CD
  8
0
 62
     9
 10
0.0
 20
0.0
 30
0.0
 70
   128
 71
    42
 72
    44
 73
    27
  0
VERTEX
  5
4CE
  8
0
 62
     9
 10
0.0
 20
0.0
 30
0.0
 70
   128
 71
    42
 72
    22
 73
    23
  0
VERTEX
  5
4CF
  8
0
 62
     9
 10
0.0
 20
0.0
 30
0.0
 70
   128
 71
    40
 72
    23
 73
    18
  0
VERTEX
  5
4D0
  8
0
 62
     9
 10
0.0
 20
0.0
 30
0.0
 70
   128
 71
    39
 72
    41
 73
    18
  0
VERTEX
  5
4D1
  8
0
 62
     9
 10
0.0
 20
0.0
 30
0.0
 70
   128
 71
    37
 72
    39
 73
    19
  0
VERTEX
  5
4D2
  8
0
 62
     9
 10
0.0
 20
0.0
 30
0.0
 70
   128
 71
    37
 72
    14
 73
    15
  0
VERTEX
  5
4D3
  8
0
 62
     9
 10
0.0
 20
0.0
 30
0.0
 70
   128
 71
    36
 72
    38
 73
    15
  0
VERTEX
  5
4D4
  8
0
 62
     9
 10
0.0
 20
0.0
 30
0.0
 70
   128
 71
    36
 72
    10
 73
    11
  0
VERTEX
  5
4D5
  8
0
 62
     9
 10
0.0
 20
0.0
 30
0.0
 70
   128
 71
    34
 72
    11
 73
     8
  0
VERTEX
  5
4D6
  8
0
 62
     9
 10
0.0
 20
0.0
 30
0.0
 70
   128
 71
    33
 72
    35
 73
     8
  0
VERTEX
  5
4D7
  8
0
 62
     9
 10
0.0
 20
0.0
 30
0.0
 70
   128
 71
    33
 72
     4
 73
     5
  0
VERTEX
  5
4D8
  8
0
 62
     9
 10
0.0
 20
0.0
 30
0.0
 70
   128
 71
    31
 72
     5
 73
     1
  0
VERTEX
  5
4D9
  8
0
 62
     9
 10
0.0
 20
0.0
 30
0.0
 70
   128
 71
    28
 72
     1
 73
     2
  0
VERTEX
  5
4DA
  8
0
 62
     9
 10
0.0
 20
0.0
 30
0.0
 70
   128
 71
    28
 72
    30
 73
    29
  0
VERTEX
  5
4DB
  8
0
 62
     9
 10
0.0
 20
0.0
 30
0.0
 70
   128
 71
    26
 72
    29
 73
    25
  0
VERTEX
  5
4DC
  8
0
 62
     9
 10
0.0
 20
0.0
 30
0.0
 70
   128
 71
    22
 72
    27
 73
    25
  0
VERTEX
  5
4DD
  8
0
 62
     9
 10
0.0
 20
0.0
 30
0.0
 70
   128
 71
    22
 72
    24
 73
    21
  0
VERTEX
  5
4DE
  8
0
 62
     9
 10
0.0
 20
0.0
 30
0.0
 70
   128
 71
    18
 72
    23
 73
    21
  0
VERTEX
  5
4DF
  8
0
 62
     9
 10
0.0
 20
0.0
 30
0.0
 70
   128
 71
    18
 72
    20
 73
    17
  0
VERTEX
  5
4E0
  8
0
 62
     9
 10
0.0
 20
0.0
 30
0.0
 70
   128
 71
    14
 72
    19
 73
    17
  0
VERTEX
  5
4E1
  8
0
 62
     9
 10
0.0
 20
0.0
 30
0.0
 70
   128
 71
    14
 72
    16
 73
    13
  0
VERTEX
  5
4E2
  8
0
 62
     9
 10
0.0
 20
0.0
 30
0.0
 70
   128
 71
    10
 72
    15
 73
    13
  0
VERTEX
  5
4E3
  8
0
 62
     9
 10
0.0
 20
0.0
 30
0.0
 70
   128
 71
    10
 72
    12
 73
     9
  0
VERTEX
  5
4E4
  8
0
 62
     9
 10
0.0
 20
0.0
 30
0.0
 70
   128
 71
     8
 72
    11
 73
     9
  0
VERTEX
  5
4E5
  8
0
 62
     9
 10
0.0
 20
0.0
 30
0.0
 70
   128
 71
     4
 72
     8
 73
     7
  0
VERTEX
  5
4E6
  8
0
 62
     9
 10
0.0
 20
0.0
 30
0.0
 70
   128
 71
     4
 72
     6
 73
     3
  0
VERTEX
  5
4E7
  8
0
 62
     9
 10
0.0
 20
0.0
 30
0.0
 70
   128
 71
     1
 72
     5
 73
     3
  0
SEQEND
  5
4E8
  8
0
 62
     9
  0
ENDBLK
  5
4EB
  8
0
  0
BLOCK
  8
0
  2
E3_NODE_15_
 70
     0
 10
0.0
 20
0.0
 30
0.0
  3
E3_NODE_15_
  1

  0
POLYLINE
  5
4ED
  8
0
 62
     9
 66
     1
 10
0.0
 20
0.0
 30
0.0
 70
    64
 71
    26
 72
    26
  0
VERTEX
  5
4EE
  8
0
 10
100.9759979248047
 20
-24.87800025939941
 30
11.36299991607666
 70
   192
  0
VERTEX
  5
4EF
  8
0
 10
100.9759979248047
 20
-23.88699913024902
 30
7.763000011444092
 70
   192
  0
VERTEX
  5
4F0
  8
0
 10
100.9759979248047
 20
-18.66399955749512
 30
16.80699920654297
 70
   192
  0
VERTEX
  5
4F1
  8
0
 10
100.9759979248047
 20
-14.78499984741211
 30
23.00900077819824
 70
   192
  0
VERTEX
  5
4F2
  8
0
 10
100.9759979248047
 20
-27.07200050354004
 30
-3.891000032424927
 70
   192
  0
VERTEX
  5
4F3
  8
0
 10
100.9759979248047
 20
-24.97900009155273
 30
-2.624000072479248
 70
   192
  0
VERTEX
  5
4F4
  8
0
 10
100.9759979248047
 20
0.0020000000949949
 30
27.35000038146973
 70
   192
  0
VERTEX
  5
4F5
  8
0
 10
100.9759979248047
 20
0.0010000000474975
 30
25.11700057983398
 70
   192
  0
VERTEX
  5
4F6
  8
0
 10
100.9759979248047
 20
10.21700000762939
 30
22.94499969482422
 70
   192
  0
VERTEX
  5
4F7
  8
0
 10
100.9759979248047
 20
-10.21500015258789
 30
22.94599914550781
 70
   192
  0
VERTEX
  5
4F8
  8
0
 10
100.9759979248047
 20
-20.67099952697754
 30
-17.90900039672852
 70
   192
  0
VERTEX
  5
4F9
  8
0
 10
100.9759979248047
 20
-21.75200080871582
 30
-12.55700016021729
 70
   192
  0
VERTEX
  5
4FA
  8
0
 10
100.9759979248047
 20
-7.706999778747559
 30
-26.24200057983398
 70
   192
  0
VERTEX
  5
4FB
  8
0
 10
100.9759979248047
 20
-5.223999977111816
 30
-24.56800079345703
 70
   192
  0
VERTEX
  5
4FC
  8
0
 10
100.9759979248047
 20
-14.76399993896484
 30
-20.31900024414062
 70
   192
  0
VERTEX
  5
4FD
  8
0
 10
100.9759979248047
 20
7.703999996185303
 30
-26.24300003051758
 70
   192
  0
VERTEX
  5
4FE
  8
0
 10
100.9759979248047
 20
5.221000194549561
 30
-24.56800079345703
 70
   192
  0
VERTEX
  5
4FF
  8
0
 10
100.9759979248047
 20
27.07099914550781
 30
-3.894000053405762
 70
   192
  0
VERTEX
  5
500
  8
0
 10
100.9759979248047
 20
24.97900009155273
 30
-2.627000093460083
 70
   192
  0
VERTEX
  5
501
  8
0
 10
100.9759979248047
 20
21.75099945068359
 30
-12.5600004196167
 70
   192
  0
VERTEX
  5
502
  8
0
 10
100.9759979248047
 20
24.87899971008301
 30
11.35999965667725
 70
   192
  0
VERTEX
  5
503
  8
0
 10
100.9759979248047
 20
23.88800048828125
 30
7.760000228881836
 70
   192
  0
VERTEX
  5
504
  8
0
 10
100.9759979248047
 20
14.78800010681152
 30
23.00699996948242
 70
   192
  0
VERTEX
  5
505
  8
0
 10
100.9759979248047
 20
18.66600036621094
 30
16.80500030517578
 70
   192
  0
VERTEX
  5
506
  8
0
 10
100.9759979248047
 20
20.66900062561035
 30
-17.91200065612793
 70
   192
  0
VERTEX
  5
507
  8
0
 10
100.9759979248047
 20
14.76200008392334
 30
-20.32099914550781
 70
   192
  0
VERTEX
  5
508
  8
0
 62
     9
 10
0.0
 20
0.0
 30
0.0
 70
   128
 71
     3
 72
     2
 73
     1
  0
VERTEX
  5
509
  8
0
 62
     9
 10
0.0
 20
0.0
 30
0.0
 70
   128
 71
     1
 72
     4
 73
     3
  0
VERTEX
  5
50A
  8
0
 62
     9
 10
0.0
 20
0.0
 30
0.0
 70
   128
 71
     2
 72
     6
 73
     5
  0
VERTEX
  5
50B
  8
0
 62
     9
 10
0.0
 20
0.0
 30
0.0
 70
   128
 71
     9
 72
     8
 73
     7
  0
VERTEX
  5
50C
  8
0
 62
     9
 10
0.0
 20
0.0
 30
0.0
 70
   128
 71
    10
 72
     4
 73
     7
  0
VERTEX
  5
50D
  8
0
 62
     9
 10
0.0
 20
0.0
 30
0.0
 70
   128
 71
     5
 72
     1
 73
     2
  0
VERTEX
  5
50E
  8
0
 62
     9
 10
0.0
 20
0.0
 30
0.0
 70
   128
 71
    12
 72
    11
 73
     5
  0
VERTEX
  5
50F
  8
0
 62
     9
 10
0.0
 20
0.0
 30
0.0
 70
   128
 71
    15
 72
    14
 73
    13
  0
VERTEX
  5
510
  8
0
 62
     9
 10
0.0
 20
0.0
 30
0.0
 70
   128
 71
     7
 72
     8
 73
    10
  0
VERTEX
  5
511
  8
0
 62
     9
 10
0.0
 20
0.0
 30
0.0
 70
   128
 71
     5
 72
     6
 73
    12
  0
VERTEX
  5
512
  8
0
 62
     9
 10
0.0
 20
0.0
 30
0.0
 70
   128
 71
    13
 72
    11
 73
    15
  0
VERTEX
  5
513
  8
0
 62
     9
 10
0.0
 20
0.0
 30
0.0
 70
   128
 71
    17
 72
    16
 73
    13
  0
VERTEX
  5
514
  8
0
 62
     9
 10
0.0
 20
0.0
 30
0.0
 70
   128
 71
    20
 72
    19
 73
    18
  0
VERTEX
  5
515
  8
0
 62
     9
 10
0.0
 20
0.0
 30
0.0
 70
   128
 71
    22
 72
    21
 73
    18
  0
VERTEX
  5
516
  8
0
 62
     9
 10
0.0
 20
0.0
 30
0.0
 70
   128
 71
    24
 72
    23
 73
    21
  0
VERTEX
  5
517
  8
0
 62
     9
 10
0.0
 20
0.0
 30
0.0
 70
   128
 71
     4
 72
    10
 73
     3
  0
VERTEX
  5
518
  8
0
 62
     9
 10
0.0
 20
0.0
 30
0.0
 70
   128
 71
    13
 72
    14
 73
    17
  0
VERTEX
  5
519
  8
0
 62
     9
 10
0.0
 20
0.0
 30
0.0
 70
   128
 71
    26
 72
    25
 73
    16
  0
VERTEX
  5
51A
  8
0
 62
     9
 10
0.0
 20
0.0
 30
0.0
 70
   128
 71
    18
 72
    25
 73
    20
  0
VERTEX
  5
51B
  8
0
 62
     9
 10
0.0
 20
0.0
 30
0.0
 70
   128
 71
    21
 72
    22
 73
    24
  0
VERTEX
  5
51C
  8
0
 62
     9
 10
0.0
 20
0.0
 30
0.0
 70
   128
 71
    11
 72
    12
 73
    15
  0
VERTEX
  5
51D
  8
0
 62
     9
 10
0.0
 20
0.0
 30
0.0
 70
   128
 71
    25
 72
    26
 73
    20
  0
VERTEX
  5
51E
  8
0
 62
     9
 10
0.0
 20
0.0
 30
0.0
 70
   128
 71
    24
 72
     9
 73
    23
  0
VERTEX
  5
51F
  8
0
 62
     9
 10
0.0
 20
0.0
 30
0.0
 70
   128
 71
    16
 72
    17
 73
    26
  0
VERTEX
  5
520
  8
0
 62
     9
 10
0.0
 20
0.0
 30
0.0
 70
   128
 71
     7
 72
    23
 73
     9
  0
VERTEX
  5
521
  8
0
 62
     9
 10
0.0
 20
0.0
 30
0.0
 70
   128
 71
    18
 72
    19
 73
    22
  0
SEQEND
  5
522
  8
0
 62
     9
  0
ENDBLK
  5
525
  8
0
  0
BLOCK
  8
0
  2
E3_NODE_16_
 70
     0
 10
0.0
 20
0.0
 30
0.0
  3
E3_NODE_16_
  1

  0
POLYLINE
  5
527
  8
0
 62
     9
 66
     1
 10
0.0
 20
0.0
 30
0.0
 70
    64
 71
    23
 72
    23
  0
VERTEX
  5
528
  8
0
 10
100.9759979248047
 20
14.78800010681152
 30
23.00699996948242
 70
   192
  0
VERTEX
  5
529
  8
0
 10
67.2959976196289
 20
14.78800010681152
 30
23.00699996948242
 70
   192
  0
VERTEX
  5
52A
  8
0
 10
67.2959976196289
 20
0.0020000000949949
 30
27.35000038146973
 70
   192
  0
VERTEX
  5
52B
  8
0
 10
100.9759979248047
 20
24.87899971008301
 30
11.35999965667725
 70
   192
  0
VERTEX
  5
52C
  8
0
 10
67.2959976196289
 20
24.87899971008301
 30
11.35999965667725
 70
   192
  0
VERTEX
  5
52D
  8
0
 10
100.9759979248047
 20
27.07099914550781
 30
-3.894000053405762
 70
   192
  0
VERTEX
  5
52E
  8
0
 10
67.2959976196289
 20
27.07099914550781
 30
-3.894000053405762
 70
   192
  0
VERTEX
  5
52F
  8
0
 10
67.2959976196289
 20
20.66900062561035
 30
-17.91200065612793
 70
   192
  0
VERTEX
  5
530
  8
0
 10
67.2959976196289
 20
7.703999996185303
 30
-26.24300003051758
 70
   192
  0
VERTEX
  5
531
  8
0
 10
100.9759979248047
 20
20.66900062561035
 30
-17.91200065612793
 70
   192
  0
VERTEX
  5
532
  8
0
 10
100.9759979248047
 20
7.703999996185303
 30
-26.24300003051758
 70
   192
  0
VERTEX
  5
533
  8
0
 10
100.9759979248047
 20
-7.706999778747559
 30
-26.24200057983398
 70
   192
  0
VERTEX
  5
534
  8
0
 10
67.2959976196289
 20
-0.0020000000949949
 30
-27.35000038146973
 70
   192
  0
VERTEX
  5
535
  8
0
 10
67.2959976196289
 20
-7.706999778747559
 30
-26.24200057983398
 70
   192
  0
VERTEX
  5
536
  8
0
 10
67.2959976196289
 20
-20.67099952697754
 30
-17.90900039672852
 70
   192
  0
VERTEX
  5
537
  8
0
 10
67.2959976196289
 20
-27.07200050354004
 30
-3.891000032424927
 70
   192
  0
VERTEX
  5
538
  8
0
 10
100.9759979248047
 20
-20.67099952697754
 30
-17.90900039672852
 70
   192
  0
VERTEX
  5
539
  8
0
 10
100.9759979248047
 20
-24.87800025939941
 30
11.36299991607666
 70
   192
  0
VERTEX
  5
53A
  8
0
 10
67.2959976196289
 20
-24.87800025939941
 30
11.36299991607666
 70
   192
  0
VERTEX
  5
53B
  8
0
 10
67.2959976196289
 20
-14.78499984741211
 30
23.00900077819824
 70
   192
  0
VERTEX
  5
53C
  8
0
 10
100.9759979248047
 20
-14.78499984741211
 30
23.00900077819824
 70
   192
  0
VERTEX
  5
53D
  8
0
 10
100.9759979248047
 20
0.0020000000949949
 30
27.35000038146973
 70
   192
  0
VERTEX
  5
53E
  8
0
 10
100.9759979248047
 20
-27.07200050354004
 30
-3.891000032424927
 70
   192
  0
VERTEX
  5
53F
  8
0
 62
     9
 10
0.0
 20
0.0
 30
0.0
 70
   128
 71
     3
 72
     2
 73
     1
  0
VERTEX
  5
540
  8
0
 62
     9
 10
0.0
 20
0.0
 30
0.0
 70
   128
 71
     2
 72
     5
 73
     4
  0
VERTEX
  5
541
  8
0
 62
     9
 10
0.0
 20
0.0
 30
0.0
 70
   128
 71
     5
 72
     7
 73
     6
  0
VERTEX
  5
542
  8
0
 62
     9
 10
0.0
 20
0.0
 30
0.0
 70
   128
 71
     6
 72
     7
 73
     8
  0
VERTEX
  5
543
  8
0
 62
     9
 10
0.0
 20
0.0
 30
0.0
 70
   128
 71
    10
 72
     8
 73
     9
  0
VERTEX
  5
544
  8
0
 62
     9
 10
0.0
 20
0.0
 30
0.0
 70
   128
 71
    13
 72
    12
 73
    11
  0
VERTEX
  5
545
  8
0
 62
     9
 10
0.0
 20
0.0
 30
0.0
 70
   128
 71
    13
 72
    14
 73
    12
  0
VERTEX
  5
546
  8
0
 62
     9
 10
0.0
 20
0.0
 30
0.0
 70
   128
 71
    12
 72
    14
 73
    15
  0
VERTEX
  5
547
  8
0
 62
     9
 10
0.0
 20
0.0
 30
0.0
 70
   128
 71
    17
 72
    15
 73
    16
  0
VERTEX
  5
548
  8
0
 62
     9
 10
0.0
 20
0.0
 30
0.0
 70
   128
 71
    16
 72
    19
 73
    18
  0
VERTEX
  5
549
  8
0
 62
     9
 10
0.0
 20
0.0
 30
0.0
 70
   128
 71
    18
 72
    19
 73
    20
  0
VERTEX
  5
54A
  8
0
 62
     9
 10
0.0
 20
0.0
 30
0.0
 70
   128
 71
    21
 72
    20
 73
     3
  0
VERTEX
  5
54B
  8
0
 62
     9
 10
0.0
 20
0.0
 30
0.0
 70
   128
 71
     3
 72
    22
 73
    21
  0
VERTEX
  5
54C
  8
0
 62
     9
 10
0.0
 20
0.0
 30
0.0
 70
   128
 71
    20
 72
    21
 73
    18
  0
VERTEX
  5
54D
  8
0
 62
     9
 10
0.0
 20
0.0
 30
0.0
 70
   128
 71
    18
 72
    23
 73
    16
  0
VERTEX
  5
54E
  8
0
 62
     9
 10
0.0
 20
0.0
 30
0.0
 70
   128
 71
    16
 72
    23
 73
    17
  0
VERTEX
  5
54F
  8
0
 62
     9
 10
0.0
 20
0.0
 30
0.0
 70
   128
 71
    15
 72
    17
 73
    12
  0
VERTEX
  5
550
  8
0
 62
     9
 10
0.0
 20
0.0
 30
0.0
 70
   128
 71
    11
 72
     9
 73
    13
  0
VERTEX
  5
551
  8
0
 62
     9
 10
0.0
 20
0.0
 30
0.0
 70
   128
 71
     9
 72
    11
 73
    10
  0
VERTEX
  5
552
  8
0
 62
     9
 10
0.0
 20
0.0
 30
0.0
 70
   128
 71
     8
 72
    10
 73
     6
  0
VERTEX
  5
553
  8
0
 62
     9
 10
0.0
 20
0.0
 30
0.0
 70
   128
 71
     6
 72
     4
 73
     5
  0
VERTEX
  5
554
  8
0
 62
     9
 10
0.0
 20
0.0
 30
0.0
 70
   128
 71
     4
 72
     1
 73
     2
  0
VERTEX
  5
555
  8
0
 62
     9
 10
0.0
 20
0.0
 30
0.0
 70
   128
 71
     1
 72
    22
 73
     3
  0
SEQEND
  5
556
  8
0
 62
     9
  0
ENDBLK
  5
559
  8
0
  0
BLOCK
  8
0
  2
E3_NODE_17_
 70
     0
 10
0.0
 20
0.0
 30
0.0
  3
E3_NODE_17_
  1

  0
POLYLINE
  5
55B
  8
0
 62
     9
 66
     1
 10
0.0
 20
0.0
 30
0.0
 70
    64
 71
    19
 72
    17
  0
VERTEX
  5
55C
  8
0
 10
65.3759994506836
 20
71.15899658203125
 30
46.49100112915039
 70
   192
  0
VERTEX
  5
55D
  8
0
 10
65.3759994506836
 20
62.5369987487793
 30
-57.56900024414062
 70
   192
  0
VERTEX
  5
55E
  8
0
 10
65.3759994506836
 20
40.45600128173828
 30
-74.75499725341797
 70
   192
  0
VERTEX
  5
55F
  8
0
 10
65.3759994506836
 20
-62.5369987487793
 30
-57.56900024414062
 70
   192
  0
VERTEX
  5
560
  8
0
 10
65.3759994506836
 20
-82.39900207519531
 30
20.86599922180176
 70
   192
  0
VERTEX
  5
561
  8
0
 10
65.3759994506836
 20
-71.15899658203125
 30
46.49100112915039
 70
   192
  0
VERTEX
  5
562
  8
0
 10
65.3759994506836
 20
77.84100341796875
 30
-34.14400100708008
 70
   192
  0
VERTEX
  5
563
  8
0
 10
65.3759994506836
 20
82.39900207519531
 30
20.86599922180176
 70
   192
  0
VERTEX
  5
564
  8
0
 10
65.3759994506836
 20
13.99100017547607
 30
-83.84100341796875
 70
   192
  0
VERTEX
  5
565
  8
0
 10
65.3759994506836
 20
27.59900093078613
 30
80.39399719238281
 70
   192
  0
VERTEX
  5
566
  8
0
 10
65.3759994506836
 20
52.20800018310547
 30
67.0770034790039
 70
   192
  0
VERTEX
  5
567
  8
0
 10
65.3759994506836
 20
-52.20800018310547
 30
67.0770034790039
 70
   192
  0
VERTEX
  5
568
  8
0
 10
65.3759994506836
 20
-77.84100341796875
 30
-34.14400100708008
 70
   192
  0
VERTEX
  5
569
  8
0
 10
65.3759994506836
 20
-27.59900093078613
 30
80.39399719238281
 70
   192
  0
VERTEX
  5
56A
  8
0
 10
65.3759994506836
 20
-13.99100017547607
 30
-83.84100341796875
 70
   192
  0
VERTEX
  5
56B
  8
0
 10
65.3759994506836
 20
-40.45600128173828
 30
-74.75499725341797
 70
   192
  0
VERTEX
  5
56C
  8
0
 10
65.3759994506836
 20
84.70999908447266
 30
-7.019000053405762
 70
   192
  0
VERTEX
  5
56D
  8
0
 10
65.3759994506836
 20
0.0
 30
85.0
 70
   192
  0
VERTEX
  5
56E
  8
0
 10
65.3759994506836
 20
-84.70999908447266
 30
-7.019000053405762
 70
   192
  0
VERTEX
  5
56F
  8
0
 62
     9
 10
0.0
 20
0.0
 30
0.0
 70
   128
 71
     3
 72
     2
 73
     1
  0
VERTEX
  5
570
  8
0
 62
     9
 10
0.0
 20
0.0
 30
0.0
 70
   128
 71
     6
 72
     5
 73
     4
  0
VERTEX
  5
571
  8
0
 62
     9
 10
0.0
 20
0.0
 30
0.0
 70
   128
 71
     2
 72
     7
 73
     1
  0
VERTEX
  5
572
  8
0
 62
     9
 10
0.0
 20
0.0
 30
0.0
 70
   128
 71
     8
 72
     1
 73
     7
  0
VERTEX
  5
573
  8
0
 62
     9
 10
0.0
 20
0.0
 30
0.0
 70
   128
 71
    11
 72
    10
 73
     9
  0
VERTEX
  5
574
  8
0
 62
     9
 10
0.0
 20
0.0
 30
0.0
 70
   128
 71
     4
 72
    12
 73
     6
  0
VERTEX
  5
575
  8
0
 62
     9
 10
0.0
 20
0.0
 30
0.0
 70
   128
 71
    13
 72
     4
 73
     5
  0
VERTEX
  5
576
  8
0
 62
     9
 10
0.0
 20
0.0
 30
0.0
 70
   128
 71
    16
 72
    15
 73
    14
  0
VERTEX
  5
577
  8
0
 62
     9
 10
0.0
 20
0.0
 30
0.0
 70
   128
 71
     7
 72
    17
 73
     8
  0
VERTEX
  5
578
  8
0
 62
     9
 10
0.0
 20
0.0
 30
0.0
 70
   128
 71
    10
 72
    18
 73
     9
  0
VERTEX
  5
579
  8
0
 62
     9
 10
0.0
 20
0.0
 30
0.0
 70
   128
 71
     5
 72
    19
 73
    13
  0
VERTEX
  5
57A
  8
0
 62
     9
 10
0.0
 20
0.0
 30
0.0
 70
   128
 71
    15
 72
     9
 73
    14
  0
VERTEX
  5
57B
  8
0
 62
     9
 10
0.0
 20
0.0
 30
0.0
 70
   128
 71
     9
 72
     1
 73
    11
  0
VERTEX
  5
57C
  8
0
 62
     9
 10
0.0
 20
0.0
 30
0.0
 70
   128
 71
    14
 72
     4
 73
    16
  0
VERTEX
  5
57D
  8
0
 62
     9
 10
0.0
 20
0.0
 30
0.0
 70
   128
 71
    18
 72
    14
 73
     9
  0
VERTEX
  5
57E
  8
0
 62
     9
 10
0.0
 20
0.0
 30
0.0
 70
   128
 71
     1
 72
     9
 73
     3
  0
VERTEX
  5
57F
  8
0
 62
     9
 10
0.0
 20
0.0
 30
0.0
 70
   128
 71
     4
 72
    14
 73
    12
  0
SEQEND
  5
580
  8
0
 62
     9
  0
ENDBLK
  5
583
  8
0
  0
BLOCK
  8
0
  2
E3_NODE_18_
 70
     0
 10
0.0
 20
0.0
 30
0.0
  3
E3_NODE_18_
  1

  0
POLYLINE
  5
585
  8
0
 62
     9
 66
     1
 10
0.0
 20
0.0
 30
0.0
 70
    64
 71
    39
 72
    39
  0
VERTEX
  5
586
  8
0
 10
72.6760025024414
 20
27.59900093078613
 30
80.39399719238281
 70
   192
  0
VERTEX
  5
587
  8
0
 10
65.3759994506836
 20
27.59900093078613
 30
80.39399719238281
 70
   192
  0
VERTEX
  5
588
  8
0
 10
65.3759994506836
 20
0.0
 30
85.0
 70
   192
  0
VERTEX
  5
589
  8
0
 10
72.6760025024414
 20
52.20800018310547
 30
67.0770034790039
 70
   192
  0
VERTEX
  5
58A
  8
0
 10
65.3759994506836
 20
52.20800018310547
 30
67.0770034790039
 70
   192
  0
VERTEX
  5
58B
  8
0
 10
72.6760025024414
 20
71.15899658203125
 30
46.49100112915039
 70
   192
  0
VERTEX
  5
58C
  8
0
 10
65.3759994506836
 20
71.15899658203125
 30
46.49100112915039
 70
   192
  0
VERTEX
  5
58D
  8
0
 10
72.6760025024414
 20
82.39900207519531
 30
20.86599922180176
 70
   192
  0
VERTEX
  5
58E
  8
0
 10
65.3759994506836
 20
82.39900207519531
 30
20.86599922180176
 70
   192
  0
VERTEX
  5
58F
  8
0
 10
72.6760025024414
 20
84.70999908447266
 30
-7.019000053405762
 70
   192
  0
VERTEX
  5
590
  8
0
 10
65.3759994506836
 20
84.70999908447266
 30
-7.019000053405762
 70
   192
  0
VERTEX
  5
591
  8
0
 10
72.6760025024414
 20
77.84100341796875
 30
-34.14400100708008
 70
   192
  0
VERTEX
  5
592
  8
0
 10
65.3759994506836
 20
77.84100341796875
 30
-34.14400100708008
 70
   192
  0
VERTEX
  5
593
  8
0
 10
72.6760025024414
 20
62.5369987487793
 30
-57.56900024414062
 70
   192
  0
VERTEX
  5
594
  8
0
 10
65.3759994506836
 20
62.5369987487793
 30
-57.56900024414062
 70
   192
  0
VERTEX
  5
595
  8
0
 10
72.6760025024414
 20
40.45600128173828
 30
-74.75499725341797
 70
   192
  0
VERTEX
  5
596
  8
0
 10
65.3759994506836
 20
40.45600128173828
 30
-74.75499725341797
 70
   192
  0
VERTEX
  5
597
  8
0
 10
72.6760025024414
 20
13.99100017547607
 30
-83.84100341796875
 70
   192
  0
VERTEX
  5
598
  8
0
 10
65.3759994506836
 20
13.99100017547607
 30
-83.84100341796875
 70
   192
  0
VERTEX
  5
599
  8
0
 10
65.3759994506836
 20
-13.99100017547607
 30
-83.84100341796875
 70
   192
  0
VERTEX
  5
59A
  8
0
 10
72.6760025024414
 20
0.0
 30
-85.0
 70
   192
  0
VERTEX
  5
59B
  8
0
 10
72.6760025024414
 20
-40.45600128173828
 30
-74.75499725341797
 70
   192
  0
VERTEX
  5
59C
  8
0
 10
65.3759994506836
 20
-40.45600128173828
 30
-74.75499725341797
 70
   192
  0
VERTEX
  5
59D
  8
0
 10
72.6760025024414
 20
-62.5369987487793
 30
-57.56900024414062
 70
   192
  0
VERTEX
  5
59E
  8
0
 10
65.3759994506836
 20
-62.5369987487793
 30
-57.56900024414062
 70
   192
  0
VERTEX
  5
59F
  8
0
 10
72.6760025024414
 20
-77.84100341796875
 30
-34.14400100708008
 70
   192
  0
VERTEX
  5
5A0
  8
0
 10
65.3759994506836
 20
-77.84100341796875
 30
-34.14400100708008
 70
   192
  0
VERTEX
  5
5A1
  8
0
 10
72.6760025024414
 20
-84.70999908447266
 30
-7.019000053405762
 70
   192
  0
VERTEX
  5
5A2
  8
0
 10
65.3759994506836
 20
-84.70999908447266
 30
-7.019000053405762
 70
   192
  0
VERTEX
  5
5A3
  8
0
 10
72.6760025024414
 20
-82.39900207519531
 30
20.86599922180176
 70
   192
  0
VERTEX
  5
5A4
  8
0
 10
65.3759994506836
 20
-82.39900207519531
 30
20.86599922180176
 70
   192
  0
VERTEX
  5
5A5
  8
0
 10
72.6760025024414
 20
-71.15899658203125
 30
46.49100112915039
 70
   192
  0
VERTEX
  5
5A6
  8
0
 10
65.3759994506836
 20
-71.15899658203125
 30
46.49100112915039
 70
   192
  0
VERTEX
  5
5A7
  8
0
 10
72.6760025024414
 20
-52.20800018310547
 30
67.0770034790039
 70
   192
  0
VERTEX
  5
5A8
  8
0
 10
65.3759994506836
 20
-52.20800018310547
 30
67.0770034790039
 70
   192
  0
VERTEX
  5
5A9
  8
0
 10
72.6760025024414
 20
-27.59900093078613
 30
80.39399719238281
 70
   192
  0
VERTEX
  5
5AA
  8
0
 10
65.3759994506836
 20
-27.59900093078613
 30
80.39399719238281
 70
   192
  0
VERTEX
  5
5AB
  8
0
 10
72.6760025024414
 20
0.0
 30
85.0
 70
   192
  0
VERTEX
  5
5AC
  8
0
 10
72.6760025024414
 20
-13.99100017547607
 30
-83.84100341796875
 70
   192
  0
VERTEX
  5
5AD
  8
0
 62
     9
 10
0.0
 20
0.0
 30
0.0
 70
   128
 71
     3
 72
     2
 73
     1
  0
VERTEX
  5
5AE
  8
0
 62
     9
 10
0.0
 20
0.0
 30
0.0
 70
   128
 71
     2
 72
     5
 73
     4
  0
VERTEX
  5
5AF
  8
0
 62
     9
 10
0.0
 20
0.0
 30
0.0
 70
   128
 71
     5
 72
     7
 73
     6
  0
VERTEX
  5
5B0
  8
0
 62
     9
 10
0.0
 20
0.0
 30
0.0
 70
   128
 71
     7
 72
     9
 73
     8
  0
VERTEX
  5
5B1
  8
0
 62
     9
 10
0.0
 20
0.0
 30
0.0
 70
   128
 71
     9
 72
    11
 73
    10
  0
VERTEX
  5
5B2
  8
0
 62
     9
 10
0.0
 20
0.0
 30
0.0
 70
   128
 71
    11
 72
    13
 73
    12
  0
VERTEX
  5
5B3
  8
0
 62
     9
 10
0.0
 20
0.0
 30
0.0
 70
   128
 71
    13
 72
    15
 73
    14
  0
VERTEX
  5
5B4
  8
0
 62
     9
 10
0.0
 20
0.0
 30
0.0
 70
   128
 71
    15
 72
    17
 73
    16
  0
VERTEX
  5
5B5
  8
0
 62
     9
 10
0.0
 20
0.0
 30
0.0
 70
   128
 71
    17
 72
    19
 73
    18
  0
VERTEX
  5
5B6
  8
0
 62
     9
 10
0.0
 20
0.0
 30
0.0
 70
   128
 71
    21
 72
    19
 73
    20
  0
VERTEX
  5
5B7
  8
0
 62
     9
 10
0.0
 20
0.0
 30
0.0
 70
   128
 71
    21
 72
    18
 73
    19
  0
VERTEX
  5
5B8
  8
0
 62
     9
 10
0.0
 20
0.0
 30
0.0
 70
   128
 71
    20
 72
    23
 73
    22
  0
VERTEX
  5
5B9
  8
0
 62
     9
 10
0.0
 20
0.0
 30
0.0
 70
   128
 71
    23
 72
    25
 73
    24
  0
VERTEX
  5
5BA
  8
0
 62
     9
 10
0.0
 20
0.0
 30
0.0
 70
   128
 71
    25
 72
    27
 73
    26
  0
VERTEX
  5
5BB
  8
0
 62
     9
 10
0.0
 20
0.0
 30
0.0
 70
   128
 71
    27
 72
    29
 73
    28
  0
VERTEX
  5
5BC
  8
0
 62
     9
 10
0.0
 20
0.0
 30
0.0
 70
   128
 71
    29
 72
    31
 73
    30
  0
VERTEX
  5
5BD
  8
0
 62
     9
 10
0.0
 20
0.0
 30
0.0
 70
   128
 71
    31
 72
    33
 73
    32
  0
VERTEX
  5
5BE
  8
0
 62
     9
 10
0.0
 20
0.0
 30
0.0
 70
   128
 71
    33
 72
    35
 73
    34
  0
VERTEX
  5
5BF
  8
0
 62
     9
 10
0.0
 20
0.0
 30
0.0
 70
   128
 71
    35
 72
    37
 73
    36
  0
VERTEX
  5
5C0
  8
0
 62
     9
 10
0.0
 20
0.0
 30
0.0
 70
   128
 71
    37
 72
     3
 73
    38
  0
VERTEX
  5
5C1
  8
0
 62
     9
 10
0.0
 20
0.0
 30
0.0
 70
   128
 71
    38
 72
    36
 73
    37
  0
VERTEX
  5
5C2
  8
0
 62
     9
 10
0.0
 20
0.0
 30
0.0
 70
   128
 71
    36
 72
    34
 73
    35
  0
VERTEX
  5
5C3
  8
0
 62
     9
 10
0.0
 20
0.0
 30
0.0
 70
   128
 71
    34
 72
    32
 73
    33
  0
VERTEX
  5
5C4
  8
0
 62
     9
 10
0.0
 20
0.0
 30
0.0
 70
   128
 71
    32
 72
    30
 73
    31
  0
VERTEX
  5
5C5
  8
0
 62
     9
 10
0.0
 20
0.0
 30
0.0
 70
   128
 71
    30
 72
    28
 73
    29
  0
VERTEX
  5
5C6
  8
0
 62
     9
 10
0.0
 20
0.0
 30
0.0
 70
   128
 71
    28
 72
    26
 73
    27
  0
VERTEX
  5
5C7
  8
0
 62
     9
 10
0.0
 20
0.0
 30
0.0
 70
   128
 71
    26
 72
    24
 73
    25
  0
VERTEX
  5
5C8
  8
0
 62
     9
 10
0.0
 20
0.0
 30
0.0
 70
   128
 71
    24
 72
    22
 73
    23
  0
VERTEX
  5
5C9
  8
0
 62
     9
 10
0.0
 20
0.0
 30
0.0
 70
   128
 71
    22
 72
    39
 73
    20
  0
VERTEX
  5
5CA
  8
0
 62
     9
 10
0.0
 20
0.0
 30
0.0
 70
   128
 71
    20
 72
    39
 73
    21
  0
VERTEX
  5
5CB
  8
0
 62
     9
 10
0.0
 20
0.0
 30
0.0
 70
   128
 71
    18
 72
    16
 73
    17
  0
VERTEX
  5
5CC
  8
0
 62
     9
 10
0.0
 20
0.0
 30
0.0
 70
   128
 71
    16
 72
    14
 73
    15
  0
VERTEX
  5
5CD
  8
0
 62
     9
 10
0.0
 20
0.0
 30
0.0
 70
   128
 71
    14
 72
    12
 73
    13
  0
VERTEX
  5
5CE
  8
0
 62
     9
 10
0.0
 20
0.0
 30
0.0
 70
   128
 71
    12
 72
    10
 73
    11
  0
VERTEX
  5
5CF
  8
0
 62
     9
 10
0.0
 20
0.0
 30
0.0
 70
   128
 71
    10
 72
     8
 73
     9
  0
VERTEX
  5
5D0
  8
0
 62
     9
 10
0.0
 20
0.0
 30
0.0
 70
   128
 71
     8
 72
     6
 73
     7
  0
VERTEX
  5
5D1
  8
0
 62
     9
 10
0.0
 20
0.0
 30
0.0
 70
   128
 71
     6
 72
     4
 73
     5
  0
VERTEX
  5
5D2
  8
0
 62
     9
 10
0.0
 20
0.0
 30
0.0
 70
   128
 71
     4
 72
     1
 73
     2
  0
VERTEX
  5
5D3
  8
0
 62
     9
 10
0.0
 20
0.0
 30
0.0
 70
   128
 71
     1
 72
    38
 73
     3
  0
SEQEND
  5
5D4
  8
0
 62
     9
  0
ENDBLK
  5
5D7
  8
0
  0
BLOCK
  8
0
  2
E3_NODE_19_
 70
     0
 10
0.0
 20
0.0
 30
0.0
  3
E3_NODE_19_
  1

  0
POLYLINE
  5
5D9
  8
0
 62
     9
 66
     1
 10
0.0
 20
0.0
 30
0.0
 70
    64
 71
    45
 72
    45
  0
VERTEX
  5
5DA
  8
0
 10
72.6760025024414
 20
77.84100341796875
 30
-34.14400100708008
 70
   192
  0
VERTEX
  5
5DB
  8
0
 10
72.6760025024414
 20
67.86199951171875
 30
-31.9330005645752
 70
   192
  0
VERTEX
  5
5DC
  8
0
 10
72.6760025024414
 20
57.78799819946289
 30
-47.80699920654297
 70
   192
  0
VERTEX
  5
5DD
  8
0
 10
72.6760025024414
 20
84.70999908447266
 30
-7.019000053405762
 70
   192
  0
VERTEX
  5
5DE
  8
0
 10
72.6760025024414
 20
73.6719970703125
 30
-14.05399990081787
 70
   192
  0
VERTEX
  5
5DF
  8
0
 10
72.6760025024414
 20
82.39900207519531
 30
20.86599922180176
 70
   192
  0
VERTEX
  5
5E0
  8
0
 10
72.6760025024414
 20
71.3290023803711
 30
23.17600059509277
 70
   192
  0
VERTEX
  5
5E1
  8
0
 10
72.6760025024414
 20
74.85199737548828
 30
4.709000110626221
 70
   192
  0
VERTEX
  5
5E2
  8
0
 10
72.6760025024414
 20
71.15899658203125
 30
46.49100112915039
 70
   192
  0
VERTEX
  5
5E3
  8
0
 10
72.6760025024414
 20
63.32500076293945
 30
40.1870002746582
 70
   192
  0
VERTEX
  5
5E4
  8
0
 10
72.6760025024414
 20
52.20800018310547
 30
67.0770034790039
 70
   192
  0
VERTEX
  5
5E5
  8
0
 10
72.6760025024414
 20
51.34099960327148
 30
54.67300033569336
 70
   192
  0
VERTEX
  5
5E6
  8
0
 10
72.6760025024414
 20
0.0
 30
85.0
 70
   192
  0
VERTEX
  5
5E7
  8
0
 10
72.6760025024414
 20
0.0
 30
75.0
 70
   192
  0
VERTEX
  5
5E8
  8
0
 10
72.6760025024414
 20
18.65200042724609
 30
72.64399719238281
 70
   192
  0
VERTEX
  5
5E9
  8
0
 10
72.6760025024414
 20
-27.59900093078613
 30
80.39399719238281
 70
   192
  0
VERTEX
  5
5EA
  8
0
 10
72.6760025024414
 20
-18.65200042724609
 30
72.64399719238281
 70
   192
  0
VERTEX
  5
5EB
  8
0
 10
72.6760025024414
 20
-52.20800018310547
 30
67.0770034790039
 70
   192
  0
VERTEX
  5
5EC
  8
0
 10
72.6760025024414
 20
-36.13199996948242
 30
65.7229995727539
 70
   192
  0
VERTEX
  5
5ED
  8
0
 10
72.6760025024414
 20
-77.84100341796875
 30
-34.14400100708008
 70
   192
  0
VERTEX
  5
5EE
  8
0
 10
72.6760025024414
 20
-62.5369987487793
 30
-57.56900024414062
 70
   192
  0
VERTEX
  5
5EF
  8
0
 10
72.6760025024414
 20
-57.78799819946289
 30
-47.80699920654297
 70
   192
  0
VERTEX
  5
5F0
  8
0
 10
72.6760025024414
 20
-40.45600128173828
 30
-74.75499725341797
 70
   192
  0
VERTEX
  5
5F1
  8
0
 10
72.6760025024414
 20
-44.08399963378906
 30
-60.67599868774414
 70
   192
  0
VERTEX
  5
5F2
  8
0
 10
72.6760025024414
 20
27.59900093078613
 30
80.39399719238281
 70
   192
  0
VERTEX
  5
5F3
  8
0
 10
72.6760025024414
 20
36.13199996948242
 30
65.7229995727539
 70
   192
  0
VERTEX
  5
5F4
  8
0
 10
72.6760025024414
 20
-67.86199951171875
 30
-31.9330005645752
 70
   192
  0
VERTEX
  5
5F5
  8
0
 10
72.6760025024414
 20
-73.6719970703125
 30
-14.05399990081787
 70
   192
  0
VERTEX
  5
5F6
  8
0
 10
72.6760025024414
 20
9.399999618530273
 30
-74.40899658203125
 70
   192
  0
VERTEX
  5
5F7
  8
0
 10
72.6760025024414
 20
-9.399999618530273
 30
-74.40899658203125
 70
   192
  0
VERTEX
  5
5F8
  8
0
 10
72.6760025024414
 20
0.0
 30
-85.0
 70
   192
  0
VERTEX
  5
5F9
  8
0
 10
72.6760025024414
 20
-71.15899658203125
 30
46.49100112915039
 70
   192
  0
VERTEX
  5
5FA
  8
0
 10
72.6760025024414
 20
-63.32500076293945
 30
40.1870002746582
 70
   192
  0
VERTEX
  5
5FB
  8
0
 10
72.6760025024414
 20
-51.34099960327148
 30
54.67300033569336
 70
   192
  0
VERTEX
  5
5FC
  8
0
 10
72.6760025024414
 20
-84.70999908447266
 30
-7.019000053405762
 70
   192
  0
VERTEX
  5
5FD
  8
0
 10
72.6760025024414
 20
-27.60899925231934
 30
-69.73300170898438
 70
   192
  0
VERTEX
  5
5FE
  8
0
 10
72.6760025024414
 20
-13.99100017547607
 30
-83.84100341796875
 70
   192
  0
VERTEX
  5
5FF
  8
0
 10
72.6760025024414
 20
40.45600128173828
 30
-74.75499725341797
 70
   192
  0
VERTEX
  5
600
  8
0
 10
72.6760025024414
 20
44.08399963378906
 30
-60.67599868774414
 70
   192
  0
VERTEX
  5
601
  8
0
 10
72.6760025024414
 20
27.60899925231934
 30
-69.73300170898438
 70
   192
  0
VERTEX
  5
602
  8
0
 10
72.6760025024414
 20
62.5369987487793
 30
-57.56900024414062
 70
   192
  0
VERTEX
  5
603
  8
0
 10
72.6760025024414
 20
-82.39900207519531
 30
20.86599922180176
 70
   192
  0
VERTEX
  5
604
  8
0
 10
72.6760025024414
 20
-71.3290023803711
 30
23.17600059509277
 70
   192
  0
VERTEX
  5
605
  8
0
 10
72.6760025024414
 20
-74.85199737548828
 30
4.709000110626221
 70
   192
  0
VERTEX
  5
606
  8
0
 10
72.6760025024414
 20
13.99100017547607
 30
-83.84100341796875
 70
   192
  0
VERTEX
  5
607
  8
0
 62
     9
 10
0.0
 20
0.0
 30
0.0
 70
   128
 71
     3
 72
     2
 73
     1
  0
VERTEX
  5
608
  8
0
 62
     9
 10
0.0
 20
0.0
 30
0.0
 70
   128
 71
     5
 72
     4
 73
     1
  0
VERTEX
  5
609
  8
0
 62
     9
 10
0.0
 20
0.0
 30
0.0
 70
   128
 71
     8
 72
     7
 73
     6
  0
VERTEX
  5
60A
  8
0
 62
     9
 10
0.0
 20
0.0
 30
0.0
 70
   128
 71
     7
 72
    10
 73
     9
  0
VERTEX
  5
60B
  8
0
 62
     9
 10
0.0
 20
0.0
 30
0.0
 70
   128
 71
     1
 72
     2
 73
     5
  0
VERTEX
  5
60C
  8
0
 62
     9
 10
0.0
 20
0.0
 30
0.0
 70
   128
 71
     9
 72
     6
 73
     7
  0
VERTEX
  5
60D
  8
0
 62
     9
 10
0.0
 20
0.0
 30
0.0
 70
   128
 71
    12
 72
    11
 73
     9
  0
VERTEX
  5
60E
  8
0
 62
     9
 10
0.0
 20
0.0
 30
0.0
 70
   128
 71
    15
 72
    14
 73
    13
  0
VERTEX
  5
60F
  8
0
 62
     9
 10
0.0
 20
0.0
 30
0.0
 70
   128
 71
    17
 72
    16
 73
    13
  0
VERTEX
  5
610
  8
0
 62
     9
 10
0.0
 20
0.0
 30
0.0
 70
   128
 71
     5
 72
     8
 73
     4
  0
VERTEX
  5
611
  8
0
 62
     9
 10
0.0
 20
0.0
 30
0.0
 70
   128
 71
     9
 72
    10
 73
    12
  0
VERTEX
  5
612
  8
0
 62
     9
 10
0.0
 20
0.0
 30
0.0
 70
   128
 71
    13
 72
    14
 73
    17
  0
VERTEX
  5
613
  8
0
 62
     9
 10
0.0
 20
0.0
 30
0.0
 70
   128
 71
    19
 72
    18
 73
    16
  0
VERTEX
  5
614
  8
0
 62
     9
 10
0.0
 20
0.0
 30
0.0
 70
   128
 71
    22
 72
    21
 73
    20
  0
VERTEX
  5
615
  8
0
 62
     9
 10
0.0
 20
0.0
 30
0.0
 70
   128
 71
    24
 72
    23
 73
    21
  0
VERTEX
  5
616
  8
0
 62
     9
 10
0.0
 20
0.0
 30
0.0
 70
   128
 71
     6
 72
     4
 73
     8
  0
VERTEX
  5
617
  8
0
 62
     9
 10
0.0
 20
0.0
 30
0.0
 70
   128
 71
    26
 72
    15
 73
    25
  0
VERTEX
  5
618
  8
0
 62
     9
 10
0.0
 20
0.0
 30
0.0
 70
   128
 71
    16
 72
    17
 73
    19
  0
VERTEX
  5
619
  8
0
 62
     9
 10
0.0
 20
0.0
 30
0.0
 70
   128
 71
    28
 72
    27
 73
    20
  0
VERTEX
  5
61A
  8
0
 62
     9
 10
0.0
 20
0.0
 30
0.0
 70
   128
 71
    21
 72
    22
 73
    24
  0
VERTEX
  5
61B
  8
0
 62
     9
 10
0.0
 20
0.0
 30
0.0
 70
   128
 71
    31
 72
    30
 73
    29
  0
VERTEX
  5
61C
  8
0
 62
     9
 10
0.0
 20
0.0
 30
0.0
 70
   128
 71
    12
 72
    26
 73
    11
  0
VERTEX
  5
61D
  8
0
 62
     9
 10
0.0
 20
0.0
 30
0.0
 70
   128
 71
    13
 72
    25
 73
    15
  0
VERTEX
  5
61E
  8
0
 62
     9
 10
0.0
 20
0.0
 30
0.0
 70
   128
 71
    34
 72
    33
 73
    32
  0
VERTEX
  5
61F
  8
0
 62
     9
 10
0.0
 20
0.0
 30
0.0
 70
   128
 71
    20
 72
    35
 73
    28
  0
VERTEX
  5
620
  8
0
 62
     9
 10
0.0
 20
0.0
 30
0.0
 70
   128
 71
    24
 72
    36
 73
    23
  0
VERTEX
  5
621
  8
0
 62
     9
 10
0.0
 20
0.0
 30
0.0
 70
   128
 71
    36
 72
    30
 73
    37
  0
VERTEX
  5
622
  8
0
 62
     9
 10
0.0
 20
0.0
 30
0.0
 70
   128
 71
    31
 72
    37
 73
    30
  0
VERTEX
  5
623
  8
0
 62
     9
 10
0.0
 20
0.0
 30
0.0
 70
   128
 71
    40
 72
    39
 73
    38
  0
VERTEX
  5
624
  8
0
 62
     9
 10
0.0
 20
0.0
 30
0.0
 70
   128
 71
    39
 72
     3
 73
    41
  0
VERTEX
  5
625
  8
0
 62
     9
 10
0.0
 20
0.0
 30
0.0
 70
   128
 71
    25
 72
    11
 73
    26
  0
VERTEX
  5
626
  8
0
 62
     9
 10
0.0
 20
0.0
 30
0.0
 70
   128
 71
    32
 72
    18
 73
    34
  0
VERTEX
  5
627
  8
0
 62
     9
 10
0.0
 20
0.0
 30
0.0
 70
   128
 71
    43
 72
    42
 73
    32
  0
VERTEX
  5
628
  8
0
 62
     9
 10
0.0
 20
0.0
 30
0.0
 70
   128
 71
    44
 72
    35
 73
    42
  0
VERTEX
  5
629
  8
0
 62
     9
 10
0.0
 20
0.0
 30
0.0
 70
   128
 71
    20
 72
    27
 73
    22
  0
VERTEX
  5
62A
  8
0
 62
     9
 10
0.0
 20
0.0
 30
0.0
 70
   128
 71
    29
 72
    45
 73
    31
  0
VERTEX
  5
62B
  8
0
 62
     9
 10
0.0
 20
0.0
 30
0.0
 70
   128
 71
    41
 72
    38
 73
    39
  0
VERTEX
  5
62C
  8
0
 62
     9
 10
0.0
 20
0.0
 30
0.0
 70
   128
 71
    18
 72
    19
 73
    34
  0
VERTEX
  5
62D
  8
0
 62
     9
 10
0.0
 20
0.0
 30
0.0
 70
   128
 71
    42
 72
    43
 73
    44
  0
VERTEX
  5
62E
  8
0
 62
     9
 10
0.0
 20
0.0
 30
0.0
 70
   128
 71
    37
 72
    23
 73
    36
  0
VERTEX
  5
62F
  8
0
 62
     9
 10
0.0
 20
0.0
 30
0.0
 70
   128
 71
     1
 72
    41
 73
     3
  0
VERTEX
  5
630
  8
0
 62
     9
 10
0.0
 20
0.0
 30
0.0
 70
   128
 71
    35
 72
    44
 73
    28
  0
VERTEX
  5
631
  8
0
 62
     9
 10
0.0
 20
0.0
 30
0.0
 70
   128
 71
    32
 72
    33
 73
    43
  0
VERTEX
  5
632
  8
0
 62
     9
 10
0.0
 20
0.0
 30
0.0
 70
   128
 71
    38
 72
    29
 73
    40
  0
VERTEX
  5
633
  8
0
 62
     9
 10
0.0
 20
0.0
 30
0.0
 70
   128
 71
    38
 72
    45
 73
    29
  0
SEQEND
  5
634
  8
0
 62
     9
  0
ENDBLK
  5
637
  8
0
  0
BLOCK
  8
0
  2
E3_NODE_20_
 70
     0
 10
0.0
 20
0.0
 30
0.0
  3
E3_NODE_20_
  1

  0
POLYLINE
  5
639
  8
0
 62
     9
 66
     1
 10
0.0
 20
0.0
 30
0.0
 70
    64
 71
    51
 72
    75
  0
VERTEX
  5
63A
  8
0
 10
72.6760025024414
 20
18.65200042724609
 30
72.64399719238281
 70
   192
  0
VERTEX
  5
63B
  8
0
 10
72.6760025024414
 20
0.0
 30
75.0
 70
   192
  0
VERTEX
  5
63C
  8
0
 10
76.99500274658203
 20
0.0
 30
37.6150016784668
 70
   192
  0
VERTEX
  5
63D
  8
0
 10
72.6760025024414
 20
36.13199996948242
 30
65.7229995727539
 70
   192
  0
VERTEX
  5
63E
  8
0
 10
76.99500274658203
 20
9.354000091552734
 30
36.43299865722656
 70
   192
  0
VERTEX
  5
63F
  8
0
 10
72.6760025024414
 20
51.34099960327148
 30
54.67300033569336
 70
   192
  0
VERTEX
  5
640
  8
0
 10
76.99500274658203
 20
18.12100028991699
 30
32.96200180053711
 70
   192
  0
VERTEX
  5
641
  8
0
 10
76.99500274658203
 20
25.74900054931641
 30
27.42000007629395
 70
   192
  0
VERTEX
  5
642
  8
0
 10
76.99500274658203
 20
31.75900077819824
 30
20.15500068664551
 70
   192
  0
VERTEX
  5
643
  8
0
 10
72.6760025024414
 20
71.3290023803711
 30
23.17600059509277
 70
   192
  0
VERTEX
  5
644
  8
0
 10
72.6760025024414
 20
63.32500076293945
 30
40.1870002746582
 70
   192
  0
VERTEX
  5
645
  8
0
 10
72.6760025024414
 20
74.85199737548828
 30
4.709000110626221
 70
   192
  0
VERTEX
  5
646
  8
0
 10
76.99500274658203
 20
35.77399826049805
 30
11.62399959564209
 70
   192
  0
VERTEX
  5
647
  8
0
 10
72.6760025024414
 20
73.6719970703125
 30
-14.05399990081787
 70
   192
  0
VERTEX
  5
648
  8
0
 10
76.99500274658203
 20
37.54100036621094
 30
2.361999988555908
 70
   192
  0
VERTEX
  5
649
  8
0
 10
76.99500274658203
 20
36.94900131225586
 30
-7.047999858856201
 70
   192
  0
VERTEX
  5
64A
  8
0
 10
76.99500274658203
 20
34.03499984741211
 30
-16.01600074768066
 70
   192
  0
VERTEX
  5
64B
  8
0
 10
72.6760025024414
 20
57.78799819946289
 30
-47.80699920654297
 70
   192
  0
VERTEX
  5
64C
  8
0
 10
72.6760025024414
 20
67.86199951171875
 30
-31.9330005645752
 70
   192
  0
VERTEX
  5
64D
  8
0
 10
72.6760025024414
 20
44.08399963378906
 30
-60.67599868774414
 70
   192
  0
VERTEX
  5
64E
  8
0
 10
76.99500274658203
 20
28.98299980163574
 30
-23.97699928283691
 70
   192
  0
VERTEX
  5
64F
  8
0
 10
72.6760025024414
 20
27.60899925231934
 30
-69.73300170898438
 70
   192
  0
VERTEX
  5
650
  8
0
 10
76.99500274658203
 20
22.11000061035156
 30
-30.43099975585938
 70
   192
  0
VERTEX
  5
651
  8
0
 10
72.6760025024414
 20
9.399999618530273
 30
-74.40899658203125
 70
   192
  0
VERTEX
  5
652
  8
0
 10
76.99500274658203
 20
13.84700012207031
 30
-34.9739990234375
 70
   192
  0
VERTEX
  5
653
  8
0
 10
72.6760025024414
 20
-9.399999618530273
 30
-74.40899658203125
 70
   192
  0
VERTEX
  5
654
  8
0
 10
76.99500274658203
 20
4.714000225067139
 30
-37.31800079345703
 70
   192
  0
VERTEX
  5
655
  8
0
 10
72.6760025024414
 20
-27.60899925231934
 30
-69.73300170898438
 70
   192
  0
VERTEX
  5
656
  8
0
 10
76.99500274658203
 20
-4.714000225067139
 30
-37.31800079345703
 70
   192
  0
VERTEX
  5
657
  8
0
 10
72.6760025024414
 20
-44.08399963378906
 30
-60.67599868774414
 70
   192
  0
VERTEX
  5
658
  8
0
 10
76.99500274658203
 20
-13.84700012207031
 30
-34.9739990234375
 70
   192
  0
VERTEX
  5
659
  8
0
 10
72.6760025024414
 20
-57.78799819946289
 30
-47.80699920654297
 70
   192
  0
VERTEX
  5
65A
  8
0
 10
76.99500274658203
 20
-22.11000061035156
 30
-30.43099975585938
 70
   192
  0
VERTEX
  5
65B
  8
0
 10
72.6760025024414
 20
-67.86199951171875
 30
-31.9330005645752
 70
   192
  0
VERTEX
  5
65C
  8
0
 10
76.99500274658203
 20
-28.98299980163574
 30
-23.97699928283691
 70
   192
  0
VERTEX
  5
65D
  8
0
 10
72.6760025024414
 20
-73.6719970703125
 30
-14.05399990081787
 70
   192
  0
VERTEX
  5
65E
  8
0
 10
76.99500274658203
 20
-34.03499984741211
 30
-16.01600074768066
 70
   192
  0
VERTEX
  5
65F
  8
0
 10
76.99500274658203
 20
-36.94900131225586
 30
-7.047999858856201
 70
   192
  0
VERTEX
  5
660
  8
0
 10
76.99500274658203
 20
-37.54100036621094
 30
2.361999988555908
 70
   192
  0
VERTEX
  5
661
  8
0
 10
72.6760025024414
 20
-74.85199737548828
 30
4.709000110626221
 70
   192
  0
VERTEX
  5
662
  8
0
 10
76.99500274658203
 20
-35.77399826049805
 30
11.62399959564209
 70
   192
  0
VERTEX
  5
663
  8
0
 10
72.6760025024414
 20
-63.32500076293945
 30
40.1870002746582
 70
   192
  0
VERTEX
  5
664
  8
0
 10
72.6760025024414
 20
-71.3290023803711
 30
23.17600059509277
 70
   192
  0
VERTEX
  5
665
  8
0
 10
76.99500274658203
 20
-31.75900077819824
 30
20.15500068664551
 70
   192
  0
VERTEX
  5
666
  8
0
 10
76.99500274658203
 20
-25.74900054931641
 30
27.42000007629395
 70
   192
  0
VERTEX
  5
667
  8
0
 10
72.6760025024414
 20
-36.13199996948242
 30
65.7229995727539
 70
   192
  0
VERTEX
  5
668
  8
0
 10
72.6760025024414
 20
-51.34099960327148
 30
54.67300033569336
 70
   192
  0
VERTEX
  5
669
  8
0
 10
76.99500274658203
 20
-18.12100028991699
 30
32.96200180053711
 70
   192
  0
VERTEX
  5
66A
  8
0
 10
76.99500274658203
 20
-9.354000091552734
 30
36.43299865722656
 70
   192
  0
VERTEX
  5
66B
  8
0
 10
72.6760025024414
 20
-18.65200042724609
 30
72.64399719238281
 70
   192
  0
VERTEX
  5
66C
  8
0
 10
78.17400360107422
 20
0.0
 30
0.0
 70
   192
  0
VERTEX
  5
66D
  8
0
 62
     9
 10
0.0
 20
0.0
 30
0.0
 70
   128
 71
     3
 72
     2
 73
     1
  0
VERTEX
  5
66E
  8
0
 62
     9
 10
0.0
 20
0.0
 30
0.0
 70
   128
 71
     5
 72
     1
 73
     4
  0
VERTEX
  5
66F
  8
0
 62
     9
 10
0.0
 20
0.0
 30
0.0
 70
   128
 71
     7
 72
     4
 73
     6
  0
VERTEX
  5
670
  8
0
 62
     9
 10
0.0
 20
0.0
 30
0.0
 70
   128
 71
     9
 72
     8
 73
     6
  0
VERTEX
  5
671
  8
0
 62
     9
 10
0.0
 20
0.0
 30
0.0
 70
   128
 71
     9
 72
    11
 73
    10
  0
VERTEX
  5
672
  8
0
 62
     9
 10
0.0
 20
0.0
 30
0.0
 70
   128
 71
    13
 72
    10
 73
    12
  0
VERTEX
  5
673
  8
0
 62
     9
 10
0.0
 20
0.0
 30
0.0
 70
   128
 71
    15
 72
    12
 73
    14
  0
VERTEX
  5
674
  8
0
 62
     9
 10
0.0
 20
0.0
 30
0.0
 70
   128
 71
    17
 72
    16
 73
    14
  0
VERTEX
  5
675
  8
0
 62
     9
 10
0.0
 20
0.0
 30
0.0
 70
   128
 71
    17
 72
    19
 73
    18
  0
VERTEX
  5
676
  8
0
 62
     9
 10
0.0
 20
0.0
 30
0.0
 70
   128
 71
    21
 72
    18
 73
    20
  0
VERTEX
  5
677
  8
0
 62
     9
 10
0.0
 20
0.0
 30
0.0
 70
   128
 71
    23
 72
    20
 73
    22
  0
VERTEX
  5
678
  8
0
 62
     9
 10
0.0
 20
0.0
 30
0.0
 70
   128
 71
    25
 72
    22
 73
    24
  0
VERTEX
  5
679
  8
0
 62
     9
 10
0.0
 20
0.0
 30
0.0
 70
   128
 71
    27
 72
    24
 73
    26
  0
VERTEX
  5
67A
  8
0
 62
     9
 10
0.0
 20
0.0
 30
0.0
 70
   128
 71
    29
 72
    26
 73
    28
  0
VERTEX
  5
67B
  8
0
 62
     9
 10
0.0
 20
0.0
 30
0.0
 70
   128
 71
    31
 72
    28
 73
    30
  0
VERTEX
  5
67C
  8
0
 62
     9
 10
0.0
 20
0.0
 30
0.0
 70
   128
 71
    33
 72
    30
 73
    32
  0
VERTEX
  5
67D
  8
0
 62
     9
 10
0.0
 20
0.0
 30
0.0
 70
   128
 71
    35
 72
    32
 73
    34
  0
VERTEX
  5
67E
  8
0
 62
     9
 10
0.0
 20
0.0
 30
0.0
 70
   128
 71
    37
 72
    34
 73
    36
  0
VERTEX
  5
67F
  8
0
 62
     9
 10
0.0
 20
0.0
 30
0.0
 70
   128
 71
    39
 72
    38
 73
    36
  0
VERTEX
  5
680
  8
0
 62
     9
 10
0.0
 20
0.0
 30
0.0
 70
   128
 71
    41
 72
    39
 73
    40
  0
VERTEX
  5
681
  8
0
 62
     9
 10
0.0
 20
0.0
 30
0.0
 70
   128
 71
    41
 72
    43
 73
    42
  0
VERTEX
  5
682
  8
0
 62
     9
 10
0.0
 20
0.0
 30
0.0
 70
   128
 71
    45
 72
    44
 73
    42
  0
VERTEX
  5
683
  8
0
 62
     9
 10
0.0
 20
0.0
 30
0.0
 70
   128
 71
    45
 72
    47
 73
    46
  0
VERTEX
  5
684
  8
0
 62
     9
 10
0.0
 20
0.0
 30
0.0
 70
   128
 71
    49
 72
    48
 73
    46
  0
VERTEX
  5
685
  8
0
 62
     9
 10
0.0
 20
0.0
 30
0.0
 70
   128
 71
     3
 72
    49
 73
    50
  0
VERTEX
  5
686
  8
0
 62
     9
 10
0.0
 20
0.0
 30
0.0
 70
   128
 71
    50
 72
     2
 73
     3
  0
VERTEX
  5
687
  8
0
 62
     9
 10
0.0
 20
0.0
 30
0.0
 70
   128
 71
    46
 72
    50
 73
    49
  0
VERTEX
  5
688
  8
0
 62
     9
 10
0.0
 20
0.0
 30
0.0
 70
   128
 71
    46
 72
    48
 73
    45
  0
VERTEX
  5
689
  8
0
 62
     9
 10
0.0
 20
0.0
 30
0.0
 70
   128
 71
    42
 72
    47
 73
    45
  0
VERTEX
  5
68A
  8
0
 62
     9
 10
0.0
 20
0.0
 30
0.0
 70
   128
 71
    42
 72
    44
 73
    41
  0
VERTEX
  5
68B
  8
0
 62
     9
 10
0.0
 20
0.0
 30
0.0
 70
   128
 71
    40
 72
    43
 73
    41
  0
VERTEX
  5
68C
  8
0
 62
     9
 10
0.0
 20
0.0
 30
0.0
 70
   128
 71
    36
 72
    40
 73
    39
  0
VERTEX
  5
68D
  8
0
 62
     9
 10
0.0
 20
0.0
 30
0.0
 70
   128
 71
    36
 72
    38
 73
    37
  0
VERTEX
  5
68E
  8
0
 62
     9
 10
0.0
 20
0.0
 30
0.0
 70
   128
 71
    34
 72
    37
 73
    35
  0
VERTEX
  5
68F
  8
0
 62
     9
 10
0.0
 20
0.0
 30
0.0
 70
   128
 71
    32
 72
    35
 73
    33
  0
VERTEX
  5
690
  8
0
 62
     9
 10
0.0
 20
0.0
 30
0.0
 70
   128
 71
    30
 72
    33
 73
    31
  0
VERTEX
  5
691
  8
0
 62
     9
 10
0.0
 20
0.0
 30
0.0
 70
   128
 71
    28
 72
    31
 73
    29
  0
VERTEX
  5
692
  8
0
 62
     9
 10
0.0
 20
0.0
 30
0.0
 70
   128
 71
    26
 72
    29
 73
    27
  0
VERTEX
  5
693
  8
0
 62
     9
 10
0.0
 20
0.0
 30
0.0
 70
   128
 71
    24
 72
    27
 73
    25
  0
VERTEX
  5
694
  8
0
 62
     9
 10
0.0
 20
0.0
 30
0.0
 70
   128
 71
    22
 72
    25
 73
    23
  0
VERTEX
  5
695
  8
0
 62
     9
 10
0.0
 20
0.0
 30
0.0
 70
   128
 71
    20
 72
    23
 73
    21
  0
VERTEX
  5
696
  8
0
 62
     9
 10
0.0
 20
0.0
 30
0.0
 70
   128
 71
    18
 72
    21
 73
    17
  0
VERTEX
  5
697
  8
0
 62
     9
 10
0.0
 20
0.0
 30
0.0
 70
   128
 71
    14
 72
    19
 73
    17
  0
VERTEX
  5
698
  8
0
 62
     9
 10
0.0
 20
0.0
 30
0.0
 70
   128
 71
    14
 72
    16
 73
    15
  0
VERTEX
  5
699
  8
0
 62
     9
 10
0.0
 20
0.0
 30
0.0
 70
   128
 71
    12
 72
    15
 73
    13
  0
VERTEX
  5
69A
  8
0
 62
     9
 10
0.0
 20
0.0
 30
0.0
 70
   128
 71
    10
 72
    13
 73
     9
  0
VERTEX
  5
69B
  8
0
 62
     9
 10
0.0
 20
0.0
 30
0.0
 70
   128
 71
     6
 72
    11
 73
     9
  0
VERTEX
  5
69C
  8
0
 62
     9
 10
0.0
 20
0.0
 30
0.0
 70
   128
 71
     6
 72
     8
 73
     7
  0
VERTEX
  5
69D
  8
0
 62
     9
 10
0.0
 20
0.0
 30
0.0
 70
   128
 71
     4
 72
     7
 73
     5
  0
VERTEX
  5
69E
  8
0
 62
     9
 10
0.0
 20
0.0
 30
0.0
 70
   128
 71
     1
 72
     5
 73
     3
  0
VERTEX
  5
69F
  8
0
 62
     9
 10
0.0
 20
0.0
 30
0.0
 70
   128
 71
    51
 72
    49
 73
     3
  0
VERTEX
  5
6A0
  8
0
 62
     9
 10
0.0
 20
0.0
 30
0.0
 70
   128
 71
    51
 72
    48
 73
    49
  0
VERTEX
  5
6A1
  8
0
 62
     9
 10
0.0
 20
0.0
 30
0.0
 70
   128
 71
    51
 72
    45
 73
    48
  0
VERTEX
  5
6A2
  8
0
 62
     9
 10
0.0
 20
0.0
 30
0.0
 70
   128
 71
    51
 72
    44
 73
    45
  0
VERTEX
  5
6A3
  8
0
 62
     9
 10
0.0
 20
0.0
 30
0.0
 70
   128
 71
    51
 72
    41
 73
    44
  0
VERTEX
  5
6A4
  8
0
 62
     9
 10
0.0
 20
0.0
 30
0.0
 70
   128
 71
    51
 72
    39
 73
    41
  0
VERTEX
  5
6A5
  8
0
 62
     9
 10
0.0
 20
0.0
 30
0.0
 70
   128
 71
    51
 72
    38
 73
    39
  0
VERTEX
  5
6A6
  8
0
 62
     9
 10
0.0
 20
0.0
 30
0.0
 70
   128
 71
    51
 72
    37
 73
    38
  0
VERTEX
  5
6A7
  8
0
 62
     9
 10
0.0
 20
0.0
 30
0.0
 70
   128
 71
    51
 72
    35
 73
    37
  0
VERTEX
  5
6A8
  8
0
 62
     9
 10
0.0
 20
0.0
 30
0.0
 70
   128
 71
    51
 72
    33
 73
    35
  0
VERTEX
  5
6A9
  8
0
 62
     9
 10
0.0
 20
0.0
 30
0.0
 70
   128
 71
    51
 72
    31
 73
    33
  0
VERTEX
  5
6AA
  8
0
 62
     9
 10
0.0
 20
0.0
 30
0.0
 70
   128
 71
    51
 72
    29
 73
    31
  0
VERTEX
  5
6AB
  8
0
 62
     9
 10
0.0
 20
0.0
 30
0.0
 70
   128
 71
    51
 72
    27
 73
    29
  0
VERTEX
  5
6AC
  8
0
 62
     9
 10
0.0
 20
0.0
 30
0.0
 70
   128
 71
    51
 72
    25
 73
    27
  0
VERTEX
  5
6AD
  8
0
 62
     9
 10
0.0
 20
0.0
 30
0.0
 70
   128
 71
    51
 72
    23
 73
    25
  0
VERTEX
  5
6AE
  8
0
 62
     9
 10
0.0
 20
0.0
 30
0.0
 70
   128
 71
    51
 72
    21
 73
    23
  0
VERTEX
  5
6AF
  8
0
 62
     9
 10
0.0
 20
0.0
 30
0.0
 70
   128
 71
    51
 72
    17
 73
    21
  0
VERTEX
  5
6B0
  8
0
 62
     9
 10
0.0
 20
0.0
 30
0.0
 70
   128
 71
    51
 72
    16
 73
    17
  0
VERTEX
  5
6B1
  8
0
 62
     9
 10
0.0
 20
0.0
 30
0.0
 70
   128
 71
    51
 72
    15
 73
    16
  0
VERTEX
  5
6B2
  8
0
 62
     9
 10
0.0
 20
0.0
 30
0.0
 70
   128
 71
    51
 72
    13
 73
    15
  0
VERTEX
  5
6B3
  8
0
 62
     9
 10
0.0
 20
0.0
 30
0.0
 70
   128
 71
    51
 72
     9
 73
    13
  0
VERTEX
  5
6B4
  8
0
 62
     9
 10
0.0
 20
0.0
 30
0.0
 70
   128
 71
    51
 72
     8
 73
     9
  0
VERTEX
  5
6B5
  8
0
 62
     9
 10
0.0
 20
0.0
 30
0.0
 70
   128
 71
    51
 72
     7
 73
     8
  0
VERTEX
  5
6B6
  8
0
 62
     9
 10
0.0
 20
0.0
 30
0.0
 70
   128
 71
    51
 72
     5
 73
     7
  0
VERTEX
  5
6B7
  8
0
 62
     9
 10
0.0
 20
0.0
 30
0.0
 70
   128
 71
    51
 72
     3
 73
     5
  0
SEQEND
  5
6B8
  8
0
 62
     9
  0
ENDBLK
  5
6BB
  8
0
  0
ENDSEC
  0
SECTION
  2
ENTITIES
  0
INSERT
  5
4A
  8
LAYER_1
  2
E3_NODE
 10
0.0
 20
0.0
 30
0.0
  0
INSERT
  5
5D
  8
LAYER_1
  2
E3_NODE_1_
 10
0.0
 20
0.0
 30
0.0
  0
INSERT
  5
A5
  8
LAYER_1
  2
E3_NODE_2_
 10
0.0
 20
0.0
 30
0.0
  0
INSERT
  5
EF
  8
LAYER_1
  2
E3_NODE_3_
 10
0.0
 20
0.0
 30
0.0
  0
INSERT
  5
18E
  8
LAYER_1
  2
E3_NODE_4_
 10
0.0
 20
0.0
 30
0.0
  0
INSERT
  5
1C4
  8
LAYER_1
  2
E3_NODE_5_
 10
0.0
 20
0.0
 30
0.0
  0
INSERT
  5
1E4
  8
LAYER_1
  2
E3_NODE_6_
 10
0.0
 20
0.0
 30
0.0
  0
INSERT
  5
262
  8
LAYER_1
  2
E3_NODE_7_
 10
0.0
 20
0.0
 30
0.0
  0
INSERT
  5
27C
  8
LAYER_1
  2
E3_NODE_8_
 10
0.0
 20
0.0
 30
0.0
  0
INSERT
  5
2DB
  8
LAYER_1
  2
E3_NODE_9_
 10
0.0
 20
0.0
 30
0.0
  0
INSERT
  5
333
  8
LAYER_1
  2
E3_NODE_10_
 10
0.0
 20
0.0
 30
0.0
  0
INSERT
  5
3C8
  8
LAYER_1
  2
E3_NODE_11_
 10
0.0
 20
0.0
 30
0.0
  0
INSERT
  5
421
  8
LAYER_1
  2
E3_NODE_12_
 10
0.0
 20
0.0
 30
0.0
  0
INSERT
  5
47A
  8
LAYER_1
  2
E3_NODE_13_
 10
0.0
 20
0.0
 30
0.0
  0
INSERT
  5
4E9
  8
LAYER_1
  2
E3_NODE_14_
 10
0.0
 20
0.0
 30
0.0
  0
INSERT
  5
523
  8
LAYER_1
  2
E3_NODE_15_
 10
0.0
 20
0.0
 30
0.0
  0
INSERT
  5
557
  8
LAYER_1
  2
E3_NODE_16_
 10
0.0
 20
0.0
 30
0.0
  0
INSERT
  5
581
  8
LAYER_1
  2
E3_NODE_17_
 10
0.0
 20
0.0
 30
0.0
  0
INSERT
  5
5D5
  8
LAYER_1
  2
E3_NODE_18_
 10
0.0
 20
0.0
 30
0.0
  0
INSERT
  5
635
  8
LAYER_1
  2
E3_NODE_19_
 10
0.0
 20
0.0
 30
0.0
  0
INSERT
  5
6B9
  8
LAYER_1
  2
E3_NODE_20_
 10
0.0
 20
0.0
 30
0.0
  0
ENDSEC
  0
EOF
