  0
SECTION
  2
HEADER
  9
$ACADVER
  1
AC1015
  9
$ACADMAINTVER
 70
     6
  9
$DWGCODEPAGE
  3
ANSI_1252
  9
$INSBASE
 10
0.0
 20
0.0
 30
0.0
  9
$EXTMIN
 10
0.0
 20
0.0
 30
0.0
  9
$EXTMAX
 10
1682.0
 20
2378.0
 30
0.0
  9
$LIMMIN
 10
0.0
 20
0.0
  9
$LIMMAX
 10
1682.0
 20
2378.0
  9
$ORTHOMODE
 70
     0
  9
$REGENMODE
 70
     1
  9
$FILLMODE
 70
     1
  9
$QTEXTMODE
 70
     0
  9
$MIRRTEXT
 70
     1
  9
$LTSCALE
 40
1.0
  9
$ATTMODE
 70
     1
  9
$TEXTSIZE
 40
2.5
  9
$TRACEWID
 40
1.0
  9
$TEXTSTYLE
  7
Standard
  9
$CLAYER
  8
0
  9
$CELTYPE
  6
ByLayer
  9
$CECOLOR
 62
   256
  9
$CELTSCALE
 40
1.0
  9
$DISPSILH
 70
     0
  9
$DIMSCALE
 40
1.0
  9
$DIMASZ
 40
2.5
  9
$DIMEXO
 40
0.625
  9
$DIMDLI
 40
3.75
  9
$DIMRND
 40
0.0
  9
$DIMDLE
 40
0.0
  9
$DIMEXE
 40
1.25
  9
$DIMTP
 40
0.0
  9
$DIMTM
 40
0.0
  9
$DIMTXT
 40
2.5
  9
$DIMCEN
 40
2.5
  9
$DIMTSZ
 40
0.0
  9
$DIMTOL
 70
     0
  9
$DIMLIM
 70
     0
  9
$DIMTIH
 70
     0
  9
$DIMTOH
 70
     0
  9
$DIMSE1
 70
     0
  9
$DIMSE2
 70
     0
  9
$DIMTAD
 70
     1
  9
$DIMZIN
 70
     8
  9
$DIMBLK
  1

  9
$DIMASO
 70
     1
  9
$DIMSHO
 70
     1
  9
$DIMPOST
  1

  9
$DIMAPOST
  1

  9
$DIMALT
 70
     0
  9
$DIMALTD
 70
     3
  9
$DIMALTF
 40
0.0393700787
  9
$DIMLFAC
 40
1.0
  9
$DIMTOFL
 70
     1
  9
$DIMTVP
 40
0.0
  9
$DIMTIX
 70
     0
  9
$DIMSOXD
 70
     0
  9
$DIMSAH
 70
     0
  9
$DIMBLK1
  1

  9
$DIMBLK2
  1

  9
$DIMSTYLE
  2
ISO-25
  9
$DIMCLRD
 70
     0
  9
$DIMCLRE
 70
     0
  9
$DIMCLRT
 70
     0
  9
$DIMTFAC
 40
1.0
  9
$DIMGAP
 40
0.625
  9
$DIMJUST
 70
     0
  9
$DIMSD1
 70
     0
  9
$DIMSD2
 70
     0
  9
$DIMTOLJ
 70
     0
  9
$DIMTZIN
 70
     8
  9
$DIMALTZ
 70
     0
  9
$DIMALTTZ
 70
     0
  9
$DIMUPT
 70
     0
  9
$DIMDEC
 70
     2
  9
$DIMTDEC
 70
     2
  9
$DIMALTU
 70
     2
  9
$DIMALTTD
 70
     3
  9
$DIMTXSTY
  7
Standard
  9
$DIMAUNIT
 70
     0
  9
$DIMADEC
 70
     0
  9
$DIMALTRND
 40
0.0
  9
$DIMAZIN
 70
     0
  9
$DIMDSEP
 70
    44
  9
$DIMATFIT
 70
     3
  9
$DIMFRAC
 70
     0
  9
$DIMLDRBLK
  1

  9
$DIMLUNIT
 70
     2
  9
$DIMLWD
 70
    -2
  9
$DIMLWE
 70
    -2
  9
$DIMTMOVE
 70
     0
  9
$LUNITS
 70
     2
  9
$LUPREC
 70
     4
  9
$SKETCHINC
 40
1.0
  9
$FILLETRAD
 40
10.0
  9
$AUNITS
 70
     0
  9
$AUPREC
 70
     0
  9
$MENU
  1
.
  9
$ELEVATION
 40
0.0
  9
$PELEVATION
 40
0.0
  9
$THICKNESS
 40
0.0
  9
$LIMCHECK
 70
     0
  9
$CHAMFERA
 40
10.0
  9
$CHAMFERB
 40
10.0
  9
$CHAMFERC
 40
20.0
  9
$CHAMFERD
 40
0.0
  9
$SKPOLY
 70
     0
  9
$TDCREATE
 40
2455453.424590012
  9
$TDUCREATE
 40
2455453.341256678
  9
$TDUPDATE
 40
2455453.424590023
  9
$TDUUPDATE
 40
2455453.34125669
  9
$TDINDWG
 40
0.0000000116
  9
$TDUSRTIMER
 40
0.0000000116
  9
$USRTIMER
 70
     1
  9
$ANGBASE
 50
0.0
  9
$ANGDIR
 70
     0
  9
$PDMODE
 70
     0
  9
$PDSIZE
 40
0.0
  9
$PLINEWID
 40
0.0
  9
$SPLFRAME
 70
     0
  9
$SPLINETYPE
 70
     6
  9
$SPLINESEGS
 70
     8
  9
$HANDSEED
  5
267
  9
$SURFTAB1
 70
     6
  9
$SURFTAB2
 70
     6
  9
$SURFTYPE
 70
     6
  9
$SURFU
 70
     6
  9
$SURFV
 70
     6
  9
$UCSBASE
  2

  9
$UCSNAME
  2

  9
$UCSORG
 10
0.0
 20
0.0
 30
0.0
  9
$UCSXDIR
 10
1.0
 20
0.0
 30
0.0
  9
$UCSYDIR
 10
0.0
 20
1.0
 30
0.0
  9
$UCSORTHOREF
  2

  9
$UCSORTHOVIEW
 70
     0
  9
$UCSORGTOP
 10
0.0
 20
0.0
 30
0.0
  9
$UCSORGBOTTOM
 10
0.0
 20
0.0
 30
0.0
  9
$UCSORGLEFT
 10
0.0
 20
0.0
 30
0.0
  9
$UCSORGRIGHT
 10
0.0
 20
0.0
 30
0.0
  9
$UCSORGFRONT
 10
0.0
 20
0.0
 30
0.0
  9
$UCSORGBACK
 10
0.0
 20
0.0
 30
0.0
  9
$PUCSBASE
  2

  9
$PUCSNAME
  2

  9
$PUCSORG
 10
0.0
 20
0.0
 30
0.0
  9
$PUCSXDIR
 10
1.0
 20
0.0
 30
0.0
  9
$PUCSYDIR
 10
0.0
 20
1.0
 30
0.0
  9
$PUCSORTHOREF
  2

  9
$PUCSORTHOVIEW
 70
     0
  9
$PUCSORGTOP
 10
0.0
 20
0.0
 30
0.0
  9
$PUCSORGBOTTOM
 10
0.0
 20
0.0
 30
0.0
  9
$PUCSORGLEFT
 10
0.0
 20
0.0
 30
0.0
  9
$PUCSORGRIGHT
 10
0.0
 20
0.0
 30
0.0
  9
$PUCSORGFRONT
 10
0.0
 20
0.0
 30
0.0
  9
$PUCSORGBACK
 10
0.0
 20
0.0
 30
0.0
  9
$USERI1
 70
     0
  9
$USERI2
 70
     0
  9
$USERI3
 70
     0
  9
$USERI4
 70
     0
  9
$USERI5
 70
     0
  9
$USERR1
 40
0.0
  9
$USERR2
 40
0.0
  9
$USERR3
 40
0.0
  9
$USERR4
 40
0.0
  9
$USERR5
 40
0.0
  9
$WORLDVIEW
 70
     1
  9
$SHADEDGE
 70
     3
  9
$SHADEDIF
 70
    70
  9
$TILEMODE
 70
     1
  9
$MAXACTVP
 70
    64
  9
$PINSBASE
 10
0.0
 20
0.0
 30
0.0
  9
$PLIMCHECK
 70
     0
  9
$PEXTMIN
 10
0.0
 20
0.0
 30
0.0
  9
$PEXTMAX
 10
1682.0
 20
2378.0
 30
0.0
  9
$PLIMMIN
 10
0.0
 20
0.0
  9
$PLIMMAX
 10
1682.0
 20
2378.0
  9
$UNITMODE
 70
     0
  9
$VISRETAIN
 70
     1
  9
$PLINEGEN
 70
     0
  9
$PSLTSCALE
 70
     1
  9
$TREEDEPTH
 70
  3020
  9
$CMLSTYLE
  2
Standard
  9
$CMLJUST
 70
     0
  9
$CMLSCALE
 40
20.0
  9
$PROXYGRAPHICS
 70
     1
  9
$MEASUREMENT
 70
     1
  9
$CELWEIGHT
370
    -1
  9
$ENDCAPS
280
     0
  9
$JOINSTYLE
280
     0
  9
$LWDISPLAY
290
     0
  9
$INSUNITS
 70
     4
  9
$HYPERLINKBASE
  1

  9
$STYLESHEET
  1

  9
$XEDIT
290
     1
  9
$CEPSNTYPE
380
     0
  9
$PSTYLEMODE
290
     1
  9
$FINGERPRINTGUID
  2
{A0C9F9AB-EA57-496B-9620-0D1F0D844172}
  9
$VERSIONGUID
  2
{FAEB1C32-E019-11D5-929B-00C0DF256EC4}
  9
$EXTNAMES
290
     1
  9
$PSVPSCALE
 40
0.0
  9
$OLESTARTUP
290
     0
  0
ENDSEC
  0
SECTION
  2
CLASSES
  0
CLASS
  1
ACDBDICTIONARYWDFLT
  2
AcDbDictionaryWithDefault
  3
ObjectDBX Classes
 90
        0
280
     0
281
     0
  0
CLASS
  1
VISUALSTYLE
  2
AcDbVisualStyle
  3
ObjectDBX Classes
 90
     4095
280
     0
281
     0
  0
CLASS
  1
SCALE
  2
AcDbScale
  3
ObjectDBX Classes
 90
     1153
280
     0
281
     0
  0
CLASS
  1
DICTIONARYVAR
  2
AcDbDictionaryVar
  3
ObjectDBX Classes
 90
        0
280
     0
281
     0
  0
CLASS
  1
ACDBPLACEHOLDER
  2
AcDbPlaceHolder
  3
ObjectDBX Classes
 90
        0
280
     0
281
     0
  0
CLASS
  1
LAYOUT
  2
AcDbLayout
  3
ObjectDBX Classes
 90
        0
280
     0
281
     0
  0
ENDSEC
  0
SECTION
  2
TABLES
  0
TABLE
  2
VPORT
  5
8
330
0
100
AcDbSymbolTable
 70
     1
  0
VPORT
  5
29
330
8
100
AcDbSymbolTableRecord
100
AcDbViewportTableRecord
  2
*Active
 70
     0
 10
0.0
 20
0.0
 11
1.0
 21
1.0
 12
344.1869158879
 22
148.5
 13
0.0
 23
0.0
 14
10.0
 24
10.0
 15
10.0
 25
10.0
 16
0.0
 26
0.0
 36
1.0
 17
0.0
 27
0.0
 37
0.0
 40
297.0
 41
1.9729729729
 42
50.0
 43
0.0
 44
0.0
 50
0.0
 51
0.0
 71
     0
 72
   100
 73
     1
 74
     3
 75
     0
 76
     0
 77
     0
 78
     0
281
     0
 65
     1
110
0.0
120
0.0
130
0.0
111
1.0
121
0.0
131
0.0
112
0.0
122
1.0
132
0.0
 79
     0
146
0.0
  0
ENDTAB
  0
TABLE
  2
LTYPE
  5
5
330
0
100
AcDbSymbolTable
 70
     2
  0
LTYPE
  5
14
330
5
100
AcDbSymbolTableRecord
100
AcDbLinetypeTableRecord
  2
ByBlock
 70
     0
  3

 72
    65
 73
     0
 40
0.0
  0
LTYPE
  5
15
330
5
100
AcDbSymbolTableRecord
100
AcDbLinetypeTableRecord
  2
ByLayer
 70
     0
  3

 72
    65
 73
     0
 40
0.0
  0
LTYPE
  5
16
330
5
100
AcDbSymbolTableRecord
100
AcDbLinetypeTableRecord
  2
Continuous
 70
     0
  3
Solid line
 72
    65
 73
     0
 40
0.0
  0
LTYPE
  5
60
330
5
100
AcDbSymbolTableRecord
100
AcDbLinetypeTableRecord
  2
CENTER2
 70
     0
  3
Center (.5x) ___ _ ___ _ ___ _ ___ _ ___ _ ___
 72
    65
 73
     4
 40
28.575
 49
19.05
 74
     4
 75
     0
340
0
 46
0.0
 50
0.0
 44
0.0
 45
0.0
 49
-3.175
 74
     4
 75
     0
340
0
 46
0.0
 50
0.0
 44
0.0
 45
0.0
 49
3.175
 74
     4
 75
     0
340
0
 46
0.0
 50
0.0
 44
0.0
 45
0.0
 49
-3.175
 74
     4
 75
     0
340
0
 46
0.0
 50
0.0
 44
0.0
 45
0.0
  0
ENDTAB
  0
TABLE
  2
LAYER
  5
2
330
0
100
AcDbSymbolTable
 70
     9
  0
LAYER
  5
10
330
2
100
AcDbSymbolTableRecord
100
AcDbLayerTableRecord
  2
0
 70
     0
 62
     7
  6
Continuous
370
    -3
390
F
  0
LAYER
  5
5D
330
2
100
AcDbSymbolTableRecord
100
AcDbLayerTableRecord
  2
Default
 70
     0
 62
     7
  6
Continuous
370
    -3
390
F
  0
LAYER
  5
77
330
2
100
AcDbSymbolTableRecord
100
AcDbLayerTableRecord
  2
02285038_ROSETTE
 70
     0
 62
     7
  6
Continuous
370
    -3
390
F
  0
LAYER
  5
7F
330
2
100
AcDbSymbolTableRecord
100
AcDbLayerTableRecord
  2
$DDT_AUDIT_GENERATED_(7F)
 70
     0
 62
     7
  6
Continuous
370
    -3
390
F
  0
LAYER
  5
81
330
2
100
AcDbSymbolTableRecord
100
AcDbLayerTableRecord
  2
04679V31_DICHTUN
 70
     0
 62
     7
  6
Continuous
370
    -3
390
F
  0
LAYER
  5
87
330
2
100
AcDbSymbolTableRecord
100
AcDbLayerTableRecord
  2
02700V31_DICHTUN
 70
     0
 62
     7
  6
Continuous
370
    -3
390
F
  0
LAYER
  5
8C
330
2
100
AcDbSymbolTableRecord
100
AcDbLayerTableRecord
  2
10976038_HEBEL_E
 70
     0
 62
     7
  6
Continuous
370
    -3
390
F
  0
LAYER
  5
133
330
2
100
AcDbSymbolTableRecord
100
AcDbLayerTableRecord
  2
$DDT_AUDIT_GENERATED_(133)
 70
     0
 62
     7
  6
Continuous
370
    -3
390
F
  0
LAYER
  5
139
330
2
100
AcDbSymbolTableRecord
100
AcDbLayerTableRecord
  2
02693038_KAPPE__
 70
     0
 62
     7
  6
Continuous
370
    -3
390
F
  0
ENDTAB
  0
TABLE
  2
STYLE
  5
3
330
0
100
AcDbSymbolTable
 70
     2
  0
STYLE
  5
11
330
3
100
AcDbSymbolTableRecord
100
AcDbTextStyleTableRecord
  2
Standard
 70
     0
 40
0.0
 41
1.0
 50
0.0
 71
     0
 42
2.5
  3
txt
  4

  0
STYLE
  5
256
330
3
100
AcDbSymbolTableRecord
100
AcDbTextStyleTableRecord
  2
SEACAD_seiso_ttf
 70
     0
 40
0.0
 41
1.0
 50
0.0
 71
     0
 42
0.2
  3
seiso.ttf
  4

  0
ENDTAB
  0
TABLE
  2
VIEW
  5
6
330
0
100
AcDbSymbolTable
 70
     0
  0
ENDTAB
  0
TABLE
  2
UCS
  5
7
330
0
100
AcDbSymbolTable
 70
     0
  0
ENDTAB
  0
TABLE
  2
APPID
  5
9
330
0
100
AcDbSymbolTable
 70
     1
  0
APPID
  5
12
330
9
100
AcDbSymbolTableRecord
100
AcDbRegAppTableRecord
  2
ACAD
 70
     0
  0
ENDTAB
  0
TABLE
  2
DIMSTYLE
  5
A
330
0
100
AcDbSymbolTable
 70
     1
100
AcDbDimStyleTable
  0
DIMSTYLE
105
27
330
A
100
AcDbSymbolTableRecord
100
AcDbDimStyleTableRecord
  2
ISO-25
 70
     0
 41
2.5
 42
0.625
 43
3.75
 44
1.25
 73
     0
 74
     0
 77
     1
 78
     8
140
2.5
141
2.5
143
0.0393700787
147
0.625
171
     3
172
     1
271
     2
272
     2
274
     3
278
    44
283
     0
284
     8
340
11
  0
ENDTAB
  0
TABLE
  2
BLOCK_RECORD
  5
1
330
0
100
AcDbSymbolTable
 70
     7
  0
BLOCK_RECORD
  5
1F
330
1
100
AcDbSymbolTableRecord
100
AcDbBlockTableRecord
  2
*Model_Space
340
22
  0
BLOCK_RECORD
  5
1B
330
1
100
AcDbSymbolTableRecord
100
AcDbBlockTableRecord
  2
*Paper_Space
340
1E
  0
BLOCK_RECORD
  5
5E
330
1
100
AcDbSymbolTableRecord
100
AcDbBlockTableRecord
  2
SEANNOT_GROUP
340
0
102
{BLKREFS
331
5F
102
}
  0
BLOCK_RECORD
  5
69
330
1
100
AcDbSymbolTableRecord
100
AcDbBlockTableRecord
  2
SEANNOT_GROUP1
340
0
102
{BLKREFS
331
6A
102
}
  0
BLOCK_RECORD
  5
6F
330
1
100
AcDbSymbolTableRecord
100
AcDbBlockTableRecord
  2
SEANNOT_GROUP2
340
0
102
{BLKREFS
331
70
102
}
  0
BLOCK_RECORD
  5
75
330
1
100
AcDbSymbolTableRecord
100
AcDbBlockTableRecord
  2
SE
340
0
102
{BLKREFS
331
76
102
}
  0
BLOCK_RECORD
  5
119
330
1
100
AcDbSymbolTableRecord
100
AcDbBlockTableRecord
  2
SE1
340
0
102
{BLKREFS
331
11A
102
}
  0
BLOCK_RECORD
  5
1A3
330
1
100
AcDbSymbolTableRecord
100
AcDbBlockTableRecord
  2
SE2
340
0
102
{BLKREFS
331
1A4
102
}
  0
ENDTAB
  0
ENDSEC
  0
SECTION
  2
BLOCKS
  0
BLOCK
  5
20
330
1F
100
AcDbEntity
  8
0
100
AcDbBlockBegin
  2
*Model_Space
 70
     0
 10
0.0
 20
0.0
 30
0.0
  3
*Model_Space
  1

  0
ENDBLK
  5
21
330
1F
100
AcDbEntity
  8
0
100
AcDbBlockEnd
  0
BLOCK
  5
1C
330
1B
100
AcDbEntity
 67
     1
  8
0
100
AcDbBlockBegin
  2
*Paper_Space
 70
     0
 10
0.0
 20
0.0
 30
0.0
  3
*Paper_Space
  1

  0
ENDBLK
  5
1D
330
1B
100
AcDbEntity
 67
     1
  8
0
100
AcDbBlockEnd
  0
BLOCK
  5
67
330
5E
100
AcDbEntity
  8
0
100
AcDbBlockBegin
  2
SEANNOT_GROUP
 70
     0
 10
0.0
 20
0.0
 30
0.0
  3
SEANNOT_GROUP
  1

  0
LINE
  5
61
330
5E
100
AcDbEntity
  8
Default
  6
CENTER2
 62
     7
100
AcDbLine
 10
165.4742497775
 20
447.7845076508
 30
0.0
 11
125.4742506716
 21
447.7845076508
 31
0.0
  0
LINE
  5
62
330
5E
100
AcDbEntity
  8
Default
  6
CENTER2
 62
     7
100
AcDbLine
 10
145.4742502246
 20
467.7845072037
 30
0.0
 11
145.4742502246
 21
427.7845080978
 31
0.0
  0
LINE
  5
63
330
5E
100
AcDbEntity
  8
Default
  6
CENTER2
 62
     7
100
AcDbLine
 10
170.4742496658
 20
447.7845076508
 30
0.0
 11
223.9742502246
 21
447.7845076508
 31
0.0
  0
LINE
  5
64
330
5E
100
AcDbEntity
  8
Default
  6
CENTER2
 62
     7
100
AcDbLine
 10
145.4742502246
 20
472.784507092
 30
0.0
 11
145.4742502246
 21
526.2845076508
 31
0.0
  0
LINE
  5
65
330
5E
100
AcDbEntity
  8
Default
  6
CENTER2
 62
     7
100
AcDbLine
 10
120.4742507833
 20
447.7845076508
 30
0.0
 11
66.9742502246
 21
447.7845076508
 31
0.0
  0
LINE
  5
66
330
5E
100
AcDbEntity
  8
Default
  6
CENTER2
 62
     7
100
AcDbLine
 10
145.4742502246
 20
422.7845082096
 30
0.0
 11
145.4742502246
 21
369.2845076508
 31
0.0
  0
ENDBLK
  5
68
330
5E
100
AcDbEntity
  8
0
100
AcDbBlockEnd
  0
BLOCK
  5
6D
330
69
100
AcDbEntity
  8
0
100
AcDbBlockBegin
  2
SEANNOT_GROUP1
 70
     0
 10
0.0
 20
0.0
 30
0.0
  3
SEANNOT_GROUP1
  1

  0
LINE
  5
6B
330
69
100
AcDbEntity
  8
Default
  6
CENTER2
 62
     7
100
AcDbLine
 10
405.6280627242
 20
447.8145196604
 30
0.0
 11
365.6280636183
 21
447.8145196604
 31
0.0
  0
LINE
  5
6C
330
69
100
AcDbEntity
  8
Default
  6
CENTER2
 62
     7
100
AcDbLine
 10
385.6280631713
 20
467.8145192133
 30
0.0
 11
385.6280631713
 21
427.8145201074
 31
0.0
  0
ENDBLK
  5
6E
330
69
100
AcDbEntity
  8
0
100
AcDbBlockEnd
  0
BLOCK
  5
73
330
6F
100
AcDbEntity
  8
0
100
AcDbBlockBegin
  2
SEANNOT_GROUP2
 70
     0
 10
0.0
 20
0.0
 30
0.0
  3
SEANNOT_GROUP2
  1

  0
LINE
  5
71
330
6F
100
AcDbEntity
  8
Default
  6
CENTER2
 62
     7
100
AcDbLine
 10
165.4742497775
 20
172.0937113197
 30
0.0
 11
125.4742506716
 21
172.0937113197
 31
0.0
  0
LINE
  5
72
330
6F
100
AcDbEntity
  8
Default
  6
CENTER2
 62
     7
100
AcDbLine
 10
145.4742502246
 20
192.0937108727
 30
0.0
 11
145.4742502246
 21
152.0937117667
 31
0.0
  0
ENDBLK
  5
74
330
6F
100
AcDbEntity
  8
0
100
AcDbBlockEnd
  0
BLOCK
  5
117
330
75
100
AcDbEntity
  8
0
100
AcDbBlockBegin
  2
SE
 70
     0
 10
0.0
 20
0.0
 30
0.0
  3
SE
  1

  0
ARC
  5
78
330
75
100
AcDbEntity
  8
02285038_ROSETTE
  6
Continuous
 62
     7
100
AcDbCircle
 10
145.4742502246
 20
447.7845076508
 30
0.0
 40
60.33561234973714
100
AcDbArc
 50
285.1988393478
 51
0.0
  0
ARC
  5
79
330
75
100
AcDbEntity
  8
02285038_ROSETTE
  6
Continuous
 62
     7
100
AcDbCircle
 10
145.4742502246
 20
447.7845076508
 30
0.0
 40
60.33561234973714
100
AcDbArc
 50
0.0
 51
254.8702851295
  0
ARC
  5
7A
330
75
100
AcDbEntity
  8
02285038_ROSETTE
  6
Continuous
 62
     7
100
AcDbCircle
 10
145.4742502246
 20
447.7845076508
 30
0.0
 40
73.94996121069389
100
AcDbArc
 50
281.3336599607
 51
0.0
  0
ARC
  5
7B
330
75
100
AcDbEntity
  8
02285038_ROSETTE
  6
Continuous
 62
     7
100
AcDbCircle
 10
145.4742502246
 20
447.7845076508
 30
0.0
 40
73.94996121069389
100
AcDbArc
 50
0.0
 51
258.7032186943
  0
CIRCLE
  5
7C
330
75
100
AcDbEntity
  8
02285038_ROSETTE
  6
Continuous
 62
     7
100
AcDbCircle
 10
181.4742502246
 20
444.7845076508
 30
0.0
 40
2.600000000005738
  0
CIRCLE
  5
7D
330
75
100
AcDbEntity
  8
02285038_ROSETTE
  6
Continuous
 62
     7
100
AcDbCircle
 10
109.4742502246
 20
444.7845076508
 30
0.0
 40
2.600000000005738
  0
ARC
  5
7E
330
75
100
AcDbEntity
  8
02285038_ROSETTE
  6
Continuous
 62
     7
100
AcDbCircle
 10
145.4742502246
 20
447.7845076508
 30
0.0
 40
74.99999999999989
100
AcDbArc
 50
281.1131743295
 51
258.9330480019
  0
CIRCLE
  5
80
330
75
100
AcDbEntity
  8
$DDT_AUDIT_GENERATED_(7F)
  6
Continuous
 62
     7
100
AcDbCircle
 10
145.4742502246
 20
489.7845076508
 30
0.0
 40
6.0
  0
ELLIPSE
  5
82
330
75
100
AcDbEntity
  8
04679V31_DICHTUN
  6
Continuous
 62
     7
100
AcDbEllipse
 10
145.4742502246
 20
489.4520742905
 30
0.0
 11
-5.750000000000015
 21
6.522560269672795E-13
 31
0.0
210
0.0
220
0.0
230
1.0
 40
0.9862856015
 41
1.362662563698095
 42
1.77893008989174
  0
ELLIPSE
  5
83
330
75
100
AcDbEntity
  8
04679V31_DICHTUN
  6
Continuous
 62
     7
100
AcDbEllipse
 10
145.4742502246
 20
489.7326552205
 30
0.0
 11
9.999999999999988
 21
7.147060721024445E-13
 31
0.0
210
0.0
220
0.0
230
1.0
 40
0.9862856015
 41
0.0
 42
6.283185307179586
  0
ELLIPSE
  5
84
330
75
100
AcDbEntity
  8
04679V31_DICHTUN
  6
Continuous
 62
     7
100
AcDbEllipse
 10
145.4742502246
 20
489.7821695022
 30
0.0
 11
9.999999999999984
 21
7.147060721024445E-13
 31
0.0
210
0.0
220
0.0
230
1.0
 40
0.9862856015
 41
0.0000000000000025
 42
3.141592653589793
  0
LINE
  5
85
330
75
100
AcDbEntity
  8
04679V31_DICHTUN
  6
Continuous
 62
     7
100
AcDbLine
 10
155.4742502246
 20
489.7326552205
 30
0.0
 11
155.4742502246
 21
489.7821695022
 31
0.0
  0
LINE
  5
86
330
75
100
AcDbEntity
  8
04679V31_DICHTUN
  6
Continuous
 62
     7
100
AcDbLine
 10
135.4742502246
 20
489.7821695022
 30
0.0
 11
135.4742502246
 21
489.7326552205
 31
0.0
  0
ELLIPSE
  5
88
330
75
100
AcDbEntity
  8
02700V31_DICHTUN
  6
Continuous
 62
     7
100
AcDbEllipse
 10
145.4742502246
 20
434.1865038458
 30
0.0
 11
-30.00000000000101
 21
4.169321138336457E-10
 31
0.0
210
0.0
220
0.0
230
1.0
 40
0.9986295348
 41
0.0
 42
0.8870699494742676
  0
ELLIPSE
  5
89
330
75
100
AcDbEntity
  8
02700V31_DICHTUN
  6
Continuous
 62
     7
100
AcDbEllipse
 10
145.4742502246
 20
434.1865038458
 30
0.0
 11
-30.00000000000101
 21
4.169321138336457E-10
 31
0.0
210
0.0
220
0.0
230
1.0
 40
0.9986295348
 41
2.257738727583131
 42
6.283185307179586
  0
LINE
  5
8A
330
75
100
AcDbEntity
  8
02700V31_DICHTUN
  6
Continuous
 62
     7
100
AcDbLine
 10
115.4742502246
 20
434.1865038458
 30
0.0
 11
115.4742502246
 21
434.170803059
 31
0.0
  0
LINE
  5
8B
330
75
100
AcDbEntity
  8
02700V31_DICHTUN
  6
Continuous
 62
     7
100
AcDbLine
 10
175.4742502246
 20
434.170803059
 30
0.0
 11
175.4742502246
 21
434.1865038458
 31
0.0
  0
SPLINE
  5
8D
330
75
100
AcDbEntity
  8
10976038_HEBEL_E
  6
Continuous
 62
     7
100
AcDbSpline
210
0.0
220
0.0
230
1.0
 70
     8
 71
     3
 72
    20
 73
    16
 74
     0
 42
0.0000000002240206
 43
0.0000000001
 40
0.0
 40
0.0
 40
0.0
 40
0.0
 40
0.125
 40
0.125
 40
0.25
 40
0.25
 40
0.375
 40
0.375
 40
0.4999999999999999
 40
0.4999999999999999
 40
0.625
 40
0.625
 40
0.75
 40
0.75
 40
1.0
 40
1.0
 40
1.0
 40
1.0
 10
145.4955394396688
 20
461.6695928744853
 30
0.0
 10
143.3281084021556
 20
461.661897653326
 30
0.0
 10
141.2095533568288
 20
461.379378955113
 30
0.0
 10
137.1413139599915
 20
460.2475435335725
 30
0.0
 10
135.3285688078013
 20
459.4423610724793
 30
0.0
 10
132.0375121214423
 20
457.4804688002204
 30
0.0
 10
130.6173627067139
 20
456.3629406639928
 30
0.0
 10
128.0577193213329
 20
453.8959171897471
 30
0.0
 10
126.9198882617864
 20
452.5383060520463
 30
0.0
 10
124.9403418024693
 20
449.6825097567381
 30
0.0
 10
124.0874298411848
 20
448.1741600795644
 30
0.0
 10
122.6361587931821
 20
444.9979511648904
 30
0.0
 10
122.0346395631045
 20
443.3158840114659
 30
0.0
 10
120.6730323517711
 20
438.1488228622608
 30
0.0
 10
120.3313820982258
 20
434.5514093426128
 30
0.0
 10
120.6497857428249
 20
430.8453847838038
 30
0.0
  0
SPLINE
  5
8E
330
75
100
AcDbEntity
  8
10976038_HEBEL_E
  6
Continuous
 62
     7
100
AcDbSpline
210
0.0
220
0.0
230
1.0
 70
     8
 71
     3
 72
    20
 73
    16
 74
     0
 42
0.0000000002234951
 43
0.0000000001
 40
0.0
 40
0.0
 40
0.0
 40
0.0
 40
0.2500000000000001
 40
0.2500000000000001
 40
0.5000000000000001
 40
0.5000000000000001
 40
0.6250000000000001
 40
0.6250000000000001
 40
0.7500000000000002
 40
0.7500000000000002
 40
0.8125000000000002
 40
0.8125000000000002
 40
0.8750000000000002
 40
0.8750000000000002
 40
1.0
 40
1.0
 40
1.0
 40
1.0
 10
170.2776871419472
 20
430.7685533290659
 30
0.0
 10
170.6062677231567
 20
434.4759126571123
 30
0.0
 10
170.2730188865288
 20
438.1017415543958
 30
0.0
 10
168.465257994204
 20
445.0355103196705
 30
0.0
 10
167.0373490344918
 20
448.2147651073209
 30
0.0
 10
164.0691550711964
 20
452.5429406530461
 30
0.0
 10
162.9408862515591
 20
453.9015414026069
 30
0.0
 10
160.3887964645354
 20
456.3817615912325
 30
0.0
 10
158.9388120481412
 20
457.5265252986866
 30
0.0
 10
156.4864149252584
 20
458.9925778785018
 30
0.0
 10
155.6244523835392
 20
459.4392838762824
 30
0.0
 10
153.7884304222787
 20
460.234928351121
 30
0.0
 10
152.8090014448566
 20
460.5828261879895
 30
0.0
 10
149.8101925071411
 20
461.4062066008264
 30
0.0
 10
147.6612729832109
 20
461.6750357480128
 30
0.0
 10
145.4955394396688
 20
461.6695928744853
 30
0.0
  0
ARC
  5
8F
330
75
100
AcDbEntity
  8
10976038_HEBEL_E
  6
Continuous
 62
     7
100
AcDbCircle
 10
150.7006535959
 20
433.2635154733
 30
0.0
 40
30.14800183680141
100
AcDbArc
 50
184.6005593496
 51
210.1535776513
  0
ARC
  5
90
330
75
100
AcDbEntity
  8
10976038_HEBEL_E
  6
Continuous
 62
     7
100
AcDbCircle
 10
139.9236945408
 20
433.3468025945
 30
0.0
 40
30.46329325770961
100
AcDbArc
 50
330.4233929445
 51
355.1449855418
  0
ARC
  5
91
330
75
100
AcDbEntity
  8
10976038_HEBEL_E
  6
Continuous
 62
     7
100
AcDbCircle
 10
98.2896290433
 20
402.0101393897
 30
0.0
 40
30.87792384345304
100
AcDbArc
 50
9.5446288452
 51
31.4472956052
  0
ARC
  5
92
330
75
100
AcDbEntity
  8
10976038_HEBEL_E
  6
Continuous
 62
     7
100
AcDbCircle
 10
193.7019615344
 20
401.9069001564
 30
0.0
 40
31.83582658223006
100
AcDbArc
 50
148.9853867466
 51
170.2752115937
  0
ARC
  5
93
330
75
100
AcDbEntity
  8
10976038_HEBEL_E
  6
Continuous
 62
     7
100
AcDbCircle
 10
-465.3063875613
 20
325.8825325436
 30
0.0
 40
599.5768615674677
100
AcDbArc
 50
1.5552960733
 51
7.7880146926
  0
ARC
  5
94
330
75
100
AcDbEntity
  8
10976038_HEBEL_E
  6
Continuous
 62
     7
100
AcDbCircle
 10
744.7876233808
 20
326.0872905546
 30
0.0
 40
588.0963532883802
100
AcDbArc
 50
172.0639450133
 51
178.4346327814
  0
ARC
  5
95
330
75
100
AcDbEntity
  8
10976038_HEBEL_E
  6
Continuous
 62
     7
100
AcDbCircle
 10
145.4828609449
 20
359.723070812
 30
0.0
 40
20.95994402979661
100
AcDbArc
 50
236.942388088
 51
303.0400258191
  0
ARC
  5
96
330
75
100
AcDbEntity
  8
10976038_HEBEL_E
  6
Continuous
 62
     7
100
AcDbCircle
 10
145.4684964905
 20
434.7413996707
 30
0.0
 40
27.24405615979032
100
AcDbArc
 50
179.9522749342
 51
181.6552322906
  0
ARC
  5
97
330
75
100
AcDbEntity
  8
10976038_HEBEL_E
  6
Continuous
 62
     7
100
AcDbCircle
 10
145.4960048765
 20
434.7429612958
 30
0.0
 40
27.2715632815083
100
AcDbArc
 50
89.9767490354
 51
179.9556039455
  0
ARC
  5
98
330
75
100
AcDbEntity
  8
10976038_HEBEL_E
  6
Continuous
 62
     7
100
AcDbCircle
 10
145.4798522285
 20
434.7414338623
 30
0.0
 40
27.24410402899088
100
AcDbArc
 50
358.2079116415
 51
359.9095018982
  0
ARC
  5
99
330
75
100
AcDbEntity
  8
10976038_HEBEL_E
  6
Continuous
 62
     7
100
AcDbCircle
 10
145.4561749204
 20
434.7467795652
 30
0.0
 40
27.26779026765121
100
AcDbArc
 50
359.8983479658
 51
89.8930540326
  0
SPLINE
  5
9A
330
75
100
AcDbEntity
  8
10976038_HEBEL_E
  6
Continuous
 62
     7
100
AcDbSpline
210
0.0
220
0.0
230
1.0
 70
     8
 71
     3
 72
    20
 73
    16
 74
     0
 42
0.0000000054510212
 43
0.0000000001
 40
0.0
 40
0.0
 40
0.0
 40
0.0
 40
0.1249999999999997
 40
0.1249999999999997
 40
0.2499999999999994
 40
0.2499999999999994
 40
0.3749999999999992
 40
0.3749999999999992
 40
0.4999999999999989
 40
0.4999999999999989
 40
0.6249999999999987
 40
0.6249999999999987
 40
0.7499999999999983
 40
0.7499999999999983
 40
1.0
 40
1.0
 40
1.0
 40
1.0
 10
139.3343963645254
 20
424.0333731465672
 30
0.0
 10
139.3345022864038
 20
423.9583572868615
 30
0.0
 10
139.340173803368
 20
423.8842614094825
 30
0.0
 10
139.3667217327949
 20
423.7386130446511
 30
0.0
 10
139.3882156986278
 20
423.666190482204
 30
0.0
 10
139.4479677693593
 20
423.5305239869253
 30
0.0
 10
139.4864219187284
 20
423.4672760965395
 30
0.0
 10
139.5717381371221
 20
423.3452133676785
 30
0.0
 10
139.6197201458895
 20
423.285914912226
 30
0.0
 10
139.7330805410224
 20
423.1873960580862
 30
0.0
 10
139.7992821798171
 20
423.1471516740796
 30
0.0
 10
139.9388729969787
 20
423.0807685129064
 30
0.0
 10
140.0117156736997
 20
423.0547803884812
 30
0.0
 10
140.2380995779103
 20
422.9953315381159
 30
0.0
 10
140.3980042500167
 20
422.9813541359533
 30
0.0
 10
140.5578617298864
 20
422.9877170011903
 30
0.0
  0
ARC
  5
9B
330
75
100
AcDbEntity
  8
10976038_HEBEL_E
  6
Continuous
 62
     7
100
AcDbCircle
 10
140.5226002415
 20
425.1956966768
 30
0.0
 40
2.20826122110567
100
AcDbArc
 50
270.9149371964
 51
297.9011233415
  0
LINE
  5
9C
330
75
100
AcDbEntity
  8
10976038_HEBEL_E
  6
Continuous
 62
     7
100
AcDbLine
 10
141.5559497671
 20
423.2441315669
 30
0.0
 11
141.5559497671
 21
424.0705297665
 31
0.0
  0
LINE
  5
9D
330
75
100
AcDbEntity
  8
10976038_HEBEL_E
  6
Continuous
 62
     7
100
AcDbLine
 10
141.5559497671
 20
424.0705297665
 30
0.0
 11
140.9892933331
 21
424.0625209679
 31
0.0
  0
LINE
  5
9E
330
75
100
AcDbEntity
  8
10976038_HEBEL_E
  6
Continuous
 62
     7
100
AcDbLine
 10
140.9892933331
 20
424.0625209679
 30
0.0
 11
140.9892933331
 21
423.4703577743
 31
0.0
  0
ARC
  5
9F
330
75
100
AcDbEntity
  8
10976038_HEBEL_E
  6
Continuous
 62
     7
100
AcDbCircle
 10
140.49852783
 20
424.4927460839
 30
0.0
 40
1.13407611502913
100
AcDbArc
 50
270.8855443603
 51
295.6418764271
  0
SPLINE
  5
A0
330
75
100
AcDbEntity
  8
10976038_HEBEL_E
  6
Continuous
 62
     7
100
AcDbSpline
210
0.0
220
0.0
230
1.0
 70
     8
 71
     3
 72
    16
 73
    12
 74
     0
 42
0.0000000096153125
 43
0.0000000001
 40
0.0
 40
0.0
 40
0.0
 40
0.0
 40
0.2499999999999989
 40
0.2499999999999989
 40
0.4999999999999979
 40
0.4999999999999979
 40
0.6249999999999973
 40
0.6249999999999973
 40
0.7499999999999969
 40
0.7499999999999969
 40
1.0
 40
1.0
 40
1.0
 40
1.0
 10
140.5160550324061
 20
423.3588054188542
 30
0.0
 10
140.4248985675485
 20
423.3544353276871
 30
0.0
 10
140.334095502216
 20
423.3690738605982
 30
0.0
 10
140.1735385011307
 20
423.4390780250851
 30
0.0
 10
140.1033594833328
 20
423.4941889444595
 30
0.0
 10
140.0324480405882
 20
423.5999622024414
 30
0.0
 10
140.0127725747169
 20
423.6376933289167
 30
0.0
 10
139.9772193493183
 20
423.7136885947371
 30
0.0
 10
139.9624814297854
 20
423.7528107055297
 30
0.0
 10
139.9289068066866
 20
423.8741253390449
 30
0.0
 10
139.920472146378
 20
423.9594895609026
 30
0.0
 10
139.9203732416038
 20
424.0446160999762
 30
0.0
  0
SPLINE
  5
A1
330
75
100
AcDbEntity
  8
10976038_HEBEL_E
  6
Continuous
 62
     7
100
AcDbSpline
210
0.0
220
0.0
230
1.0
 70
     8
 71
     3
 72
    16
 73
    12
 74
     0
 42
0.000000008434048
 43
0.0000000001
 40
0.0
 40
0.0
 40
0.0
 40
0.0
 40
0.2499999999999952
 40
0.2499999999999952
 40
0.3749999999999959
 40
0.3749999999999959
 40
0.4999999999999966
 40
0.4999999999999966
 40
0.7499999999999983
 40
0.7499999999999983
 40
1.0
 40
1.0
 40
1.0
 40
1.0
 10
139.9203732416038
 20
424.0446160999762
 30
0.0
 10
139.9205148133942
 20
424.1393358387398
 30
0.0
 10
139.9341536544136
 20
424.2344593861382
 30
0.0
 10
139.9881379622654
 20
424.3681540081724
 30
0.0
 10
140.0115094008713
 20
424.4101935852381
 30
0.0
 10
140.0640735494115
 20
424.4915229366675
 30
0.0
 10
140.0934817987116
 20
424.53174123473
 30
0.0
 10
140.1994255710411
 20
424.634801750022
 30
0.0
 10
140.2924734741361
 20
424.6810709306681
 30
0.0
 10
140.4842537697979
 20
424.7410386990097
 30
0.0
 10
140.5857997173486
 20
424.7537744860917
 30
0.0
 10
140.6867098156638
 20
424.7529387623819
 30
0.0
  0
ARC
  5
A2
330
75
100
AcDbEntity
  8
10976038_HEBEL_E
  6
Continuous
 62
     7
100
AcDbCircle
 10
140.7146148284
 20
423.2653352987
 30
0.0
 40
1.487865166858267
100
AcDbArc
 50
58.8328502859
 51
91.074649261
  0
LINE
  5
A3
330
75
100
AcDbEntity
  8
10976038_HEBEL_E
  6
Continuous
 62
     7
100
AcDbLine
 10
141.4846393665
 20
424.5384436859
 30
0.0
 11
141.4846393665
 21
424.9341737431
 31
0.0
  0
ARC
  5
A4
330
75
100
AcDbEntity
  8
10976038_HEBEL_E
  6
Continuous
 62
     7
100
AcDbCircle
 10
140.5974059598
 20
422.925951973
 30
0.0
 40
2.195481221934707
100
AcDbArc
 50
66.1641338173
 51
91.032047088
  0
SPLINE
  5
A5
330
75
100
AcDbEntity
  8
10976038_HEBEL_E
  6
Continuous
 62
     7
100
AcDbSpline
210
0.0
220
0.0
230
1.0
 70
     8
 71
     3
 72
    20
 73
    16
 74
     0
 42
0.0000000053981805
 43
0.0000000001
 40
0.0
 40
0.0
 40
0.0
 40
0.0
 40
0.2499999999999996
 40
0.2499999999999996
 40
0.3749999999999997
 40
0.3749999999999997
 40
0.4999999999999998
 40
0.4999999999999998
 40
0.6249999999999999
 40
0.6249999999999999
 40
0.7499999999999999
 40
0.7499999999999999
 40
0.875
 40
0.875
 40
1.0
 40
1.0
 40
1.0
 40
1.0
 10
140.5578617299136
 20
425.1210770377188
 30
0.0
 10
140.3998356133388
 20
425.1221566581211
 30
0.0
 10
140.2444070528262
 20
425.1039750867441
 30
0.0
 10
140.0165610069313
 20
425.037267445269
 30
0.0
 10
139.9419735246012
 20
425.008338598533
 30
0.0
 10
139.8014784086906
 20
424.9370451426369
 30
0.0
 10
139.7337576334496
 20
424.8937094735072
 30
0.0
 10
139.619289592779
 20
424.790258371041
 30
0.0
 10
139.5717390614412
 20
424.729723271098
 30
0.0
 10
139.4854857998868
 20
424.6031708940374
 30
0.0
 10
139.4469777910812
 20
424.5380588001868
 30
0.0
 10
139.3877767450348
 20
424.4008379395287
 30
0.0
 10
139.3664791839217
 20
424.3280860393656
 30
0.0
 10
139.3400554176318
 20
424.1814162141219
 30
0.0
 10
139.3345118667808
 20
424.1075784831177
 30
0.0
 10
139.3343963645254
 20
424.0333731465672
 30
0.0
  0
SPLINE
  5
A6
330
75
100
AcDbEntity
  8
10976038_HEBEL_E
  6
Continuous
 62
     7
100
AcDbSpline
210
0.0
220
0.0
230
1.0
 70
     8
 71
     3
 72
    20
 73
    16
 74
     0
 42
0.0000000053983118
 43
0.0000000001
 40
0.0
 40
0.0
 40
0.0
 40
0.0
 40
0.2500000000000016
 40
0.2500000000000016
 40
0.3750000000000013
 40
0.3750000000000013
 40
0.5000000000000011
 40
0.5000000000000011
 40
0.6250000000000009
 40
0.6250000000000009
 40
0.7500000000000006
 40
0.7500000000000006
 40
0.8750000000000003
 40
0.8750000000000003
 40
1.0
 40
1.0
 40
1.0
 40
1.0
 10
140.5578617299208
 20
425.0818168496144
 30
0.0
 10
140.3998372517018
 20
425.0828847431993
 30
0.0
 10
140.2444079252564
 20
425.0646939080257
 30
0.0
 10
140.0165560957151
 20
424.9979732738119
 30
0.0
 10
139.9419668354994
 20
424.9690405484508
 30
0.0
 10
139.8014673696536
 20
424.8977396671801
 30
0.0
 10
139.7337450195193
 20
424.8544003956905
 30
0.0
 10
139.6192773774692
 20
424.7509464781511
 30
0.0
 10
139.5717262410831
 20
424.6904100421221
 30
0.0
 10
139.4854745695498
 20
424.5638629350591
 30
0.0
 10
139.4469681591367
 20
424.498754071715
 30
0.0
 10
139.3877708314161
 20
424.3615433292438
 30
0.0
 10
139.366475274004
 20
424.2887982462943
 30
0.0
 10
139.3400546125866
 20
424.1421481631408
 30
0.0
 10
139.3345118587317
 20
424.0683219794935
 30
0.0
 10
139.3343963645326
 20
423.994129335246
 30
0.0
  0
ARC
  5
A7
330
75
100
AcDbEntity
  8
10976038_HEBEL_E
  6
Continuous
 62
     7
100
AcDbCircle
 10
140.5975736055
 20
422.8866373548
 30
0.0
 40
2.195538669075757
100
AcDbArc
 50
66.169578943
 51
91.0363957523
  0
LINE
  5
A8
330
75
100
AcDbEntity
  8
10976038_HEBEL_E
  6
Continuous
 62
     7
100
AcDbLine
 10
140.5578617299
 20
425.0818168496
 30
0.0
 11
140.5578617299
 21
425.1210770377
 31
0.0
  0
SPLINE
  5
A9
330
75
100
AcDbEntity
  8
10976038_HEBEL_E
  6
Continuous
 62
     7
100
AcDbSpline
210
0.0
220
0.0
230
1.0
 70
     8
 71
     3
 72
    16
 73
    12
 74
     0
 42
0.0000000096160358
 43
0.0000000001
 40
0.0
 40
0.0
 40
0.0
 40
0.0
 40
0.2499999999999948
 40
0.2499999999999948
 40
0.4999999999999897
 40
0.4999999999999897
 40
0.6249999999999925
 40
0.6249999999999925
 40
0.7499999999999951
 40
0.7499999999999951
 40
1.0
 40
1.0
 40
1.0
 40
1.0
 10
140.5160550324133
 20
423.3197211208124
 30
0.0
 10
140.4248912014126
 20
423.3153445723224
 30
0.0
 10
140.3340841847878
 20
423.3299780918796
 30
0.0
 10
140.1735269313285
 20
423.3999682725062
 30
0.0
 10
140.1033521709017
 20
423.4550695476815
 30
0.0
 10
140.0324443630869
 20
423.5608256139607
 30
0.0
 10
140.0127697544437
 20
423.5985502400556
 30
0.0
 10
139.977217984166
 20
423.6745333081826
 30
0.0
 10
139.9624806321936
 20
423.7136494790099
 30
0.0
 10
139.928907042322
 20
423.8349468716132
 30
0.0
 10
139.9204721469769
 20
423.9203015394441
 30
0.0
 10
139.920373241611
 20
424.005420012508
 30
0.0
  0
LINE
  5
AA
330
75
100
AcDbEntity
  8
10976038_HEBEL_E
  6
Continuous
 62
     7
100
AcDbLine
 10
139.9203732416
 20
424.0054200125
 30
0.0
 11
139.9203732416
 21
424.0446161
 31
0.0
  0
ARC
  5
AB
330
75
100
AcDbEntity
  8
10976038_HEBEL_E
  6
Continuous
 62
     7
100
AcDbCircle
 10
140.4984437152
 20
424.4538175771
 30
0.0
 40
1.13423319055029
100
AcDbArc
 50
270.8896712842
 51
295.642780877
  0
LINE
  5
AC
330
75
100
AcDbEntity
  8
10976038_HEBEL_E
  6
Continuous
 62
     7
100
AcDbLine
 10
140.5160550324
 20
423.3197211208
 30
0.0
 11
140.5160550324
 21
423.3588054189
 31
0.0
  0
LINE
  5
AD
330
75
100
AcDbEntity
  8
10976038_HEBEL_E
  6
Continuous
 62
     7
100
AcDbLine
 10
140.9892933331
 20
423.4312954095
 30
0.0
 11
140.9892933331
 21
423.4703577743
 31
0.0
  0
LINE
  5
AE
330
75
100
AcDbEntity
  8
10976038_HEBEL_E
  6
Continuous
 62
     7
100
AcDbLine
 10
141.5559497671
 20
424.0314447864
 30
0.0
 11
140.9892933331
 21
424.0234012856
 31
0.0
  0
ARC
  5
AF
330
75
100
AcDbEntity
  8
10976038_HEBEL_E
  6
Continuous
 62
     7
100
AcDbCircle
 10
143.2191997765
 20
424.4567567708
 30
0.0
 40
0.6002241973244109
100
AcDbArc
 50
289.3215811883
 51
1.1125497042
  0
SPLINE
  5
B0
330
75
100
AcDbEntity
  8
10976038_HEBEL_E
  6
Continuous
 62
     7
100
AcDbSpline
210
0.0
220
0.0
230
1.0
 70
     8
 71
     3
 72
    16
 73
    12
 74
     0
 42
0.000000008826446
 43
0.0000000001
 40
0.0
 40
0.0
 40
0.0
 40
0.0
 40
0.2500000000000003
 40
0.2500000000000003
 40
0.3749999999999986
 40
0.3749999999999986
 40
0.4999999999999968
 40
0.4999999999999968
 40
0.7499999999999984
 40
0.7499999999999984
 40
1.0
 40
1.0
 40
1.0
 40
1.0
 10
143.8193108214934
 20
424.4684109850916
 30
0.0
 10
143.8191588957428
 20
424.5596807776515
 30
0.0
 10
143.803694402501
 20
424.6490346114016
 30
0.0
 10
143.7435328015214
 20
424.7733501297541
 30
0.0
 10
143.7180632755618
 20
424.8115621379857
 30
0.0
 10
143.662291474631
 20
424.8850825867719
 30
0.0
 10
143.63051840642
 20
424.9202696238464
 30
0.0
 10
143.519972620871
 20
425.0061799303575
 30
0.0
 10
143.4281496089366
 20
425.0423226188645
 30
0.0
 10
143.241506743828
 20
425.087823482223
 30
0.0
 10
143.1432630922063
 20
425.096169402625
 30
0.0
 10
143.0454117273144
 20
425.0932021319329
 30
0.0
  0
LINE
  5
B1
330
75
100
AcDbEntity
  8
10976038_HEBEL_E
  6
Continuous
 62
     7
100
AcDbLine
 10
143.0454117273
 20
425.0932021319
 30
0.0
 11
142.0163581198
 21
425.0827751795
 31
0.0
  0
LINE
  5
B2
330
75
100
AcDbEntity
  8
10976038_HEBEL_E
  6
Continuous
 62
     7
100
AcDbLine
 10
142.0163581198
 20
425.0827751795
 30
0.0
 11
142.0163581198
 21
423.0673941545
 31
0.0
  0
LINE
  5
B3
330
75
100
AcDbEntity
  8
10976038_HEBEL_E
  6
Continuous
 62
     7
100
AcDbLine
 10
142.0163581198
 20
423.0673941545
 30
0.0
 11
142.579794915
 21
423.073432458
 31
0.0
  0
LINE
  5
B4
330
75
100
AcDbEntity
  8
10976038_HEBEL_E
  6
Continuous
 62
     7
100
AcDbLine
 10
142.579794915
 20
423.073432458
 30
0.0
 11
142.579794915
 21
424.7043760901
 31
0.0
  0
LINE
  5
B5
330
75
100
AcDbEntity
  8
10976038_HEBEL_E
  6
Continuous
 62
     7
100
AcDbLine
 10
142.579794915
 20
424.7043760901
 30
0.0
 11
142.9447980234
 21
424.7077842
 31
0.0
  0
SPLINE
  5
B6
330
75
100
AcDbEntity
  8
10976038_HEBEL_E
  6
Continuous
 62
     7
100
AcDbSpline
210
0.0
220
0.0
230
1.0
 70
     8
 71
     3
 72
    12
 73
     8
 74
     0
 42
0.0000000190900861
 43
0.0000000001
 40
0.0
 40
0.0
 40
0.0
 40
0.0
 40
0.2499999999999991
 40
0.2499999999999991
 40
0.4999999999999981
 40
0.4999999999999981
 40
1.0
 40
1.0
 40
1.0
 40
1.0
 10
142.9447980233636
 20
424.7077841999267
 30
0.0
 10
142.9898812720429
 20
424.7093755583068
 30
0.0
 10
143.0349161226544
 20
424.7039559557472
 30
0.0
 10
143.118543815996
 20
424.6760034670152
 30
0.0
 10
143.1578221136938
 20
424.6539240412484
 30
0.0
 10
143.2431598960546
 20
424.5585593430973
 30
0.0
 10
143.2688400277604
 20
424.4743415716747
 30
0.0
 10
143.2689555064195
 20
424.3902334566891
 30
0.0
  0
ARC
  5
B7
330
75
100
AcDbEntity
  8
10976038_HEBEL_E
  6
Continuous
 62
     7
100
AcDbCircle
 10
142.9697936714
 20
424.3676015776
 30
0.0
 40
0.3000166753760281
100
AcDbArc
 50
270.8664228607
 51
4.3262399872
  0
LINE
  5
B8
330
75
100
AcDbEntity
  8
10976038_HEBEL_E
  6
Continuous
 62
     7
100
AcDbLine
 10
142.9743303301
 20
424.0676192044
 30
0.0
 11
142.6506269693
 21
424.0646671481
 31
0.0
  0
LINE
  5
B9
330
75
100
AcDbEntity
  8
10976038_HEBEL_E
  6
Continuous
 62
     7
100
AcDbLine
 10
142.6506269693
 20
424.0646671481
 30
0.0
 11
143.4297795661
 21
423.080582346
 31
0.0
  0
LINE
  5
BA
330
75
100
AcDbEntity
  8
10976038_HEBEL_E
  6
Continuous
 62
     7
100
AcDbLine
 10
143.4297795661
 20
423.080582346
 30
0.0
 11
144.1284515522
 21
423.0846784312
 31
0.0
  0
LINE
  5
BB
330
75
100
AcDbEntity
  8
10976038_HEBEL_E
  6
Continuous
 62
     7
100
AcDbLine
 10
144.1284515522
 20
423.0846784312
 30
0.0
 11
143.417795875
 21
423.8903393658
 31
0.0
  0
LINE
  5
BC
330
75
100
AcDbEntity
  8
10976038_HEBEL_E
  6
Continuous
 62
     7
100
AcDbLine
 10
144.1284515522
 20
423.0457898333
 30
0.0
 11
143.417795875
 21
423.8513574663
 31
0.0
  0
LINE
  5
BD
330
75
100
AcDbEntity
  8
10976038_HEBEL_E
  6
Continuous
 62
     7
100
AcDbLine
 10
143.417795875
 20
423.8513574663
 30
0.0
 11
143.417795875
 21
423.8903393658
 31
0.0
  0
LINE
  5
BE
330
75
100
AcDbEntity
  8
10976038_HEBEL_E
  6
Continuous
 62
     7
100
AcDbLine
 10
142.9743303301
 20
424.0286042784
 30
0.0
 11
142.6506269693
 21
424.0256390541
 31
0.0
  0
ARC
  5
BF
330
75
100
AcDbEntity
  8
10976038_HEBEL_E
  6
Continuous
 62
     7
100
AcDbCircle
 10
142.9697986562
 20
424.3285806425
 30
0.0
 40
0.3000105915925648
100
AcDbArc
 50
270.8654883213
 51
4.3235008367
  0
LINE
  5
C0
330
75
100
AcDbEntity
  8
10976038_HEBEL_E
  6
Continuous
 62
     7
100
AcDbLine
 10
142.9743303301
 20
424.0286042784
 30
0.0
 11
142.9743303301
 21
424.0676192044
 31
0.0
  0
LINE
  5
C1
330
75
100
AcDbEntity
  8
10976038_HEBEL_E
  6
Continuous
 62
     7
100
AcDbLine
 10
143.2689555064
 20
424.3511977608
 30
0.0
 11
143.2689555064
 21
424.3902334567
 31
0.0
  0
LINE
  5
C2
330
75
100
AcDbEntity
  8
10976038_HEBEL_E
  6
Continuous
 62
     7
100
AcDbLine
 10
143.0454117273
 20
425.054085803
 30
0.0
 11
142.0163581198
 21
425.0436120712
 31
0.0
  0
SPLINE
  5
C3
330
75
100
AcDbEntity
  8
10976038_HEBEL_E
  6
Continuous
 62
     7
100
AcDbSpline
210
0.0
220
0.0
230
1.0
 70
     8
 71
     3
 72
    16
 73
    12
 74
     0
 42
0.0000000088269065
 43
0.0000000001
 40
0.0
 40
0.0
 40
0.0
 40
0.0
 40
0.2499999999999993
 40
0.2499999999999993
 40
0.3750000000000002
 40
0.3750000000000002
 40
0.5000000000000012
 40
0.5000000000000012
 40
0.7500000000000006
 40
0.7500000000000006
 40
1.0
 40
1.0
 40
1.0
 40
1.0
 10
143.8193108215006
 20
424.4293846897558
 30
0.0
 10
143.8191589009872
 20
424.5206422087601
 30
0.0
 10
143.803695076148
 20
424.6099845732298
 30
0.0
 10
143.7435386680118
 20
424.7342806013563
 30
0.0
 10
143.7180708797991
 20
424.7724868877551
 30
0.0
 10
143.6623023547643
 20
424.8459963252532
 30
0.0
 10
143.6305316930946
 20
424.8811789714407
 30
0.0
 10
143.5199908457471
 20
424.9670806281093
 30
0.0
 10
143.4281667278789
 20
425.0032198873932
 30
0.0
 10
143.2415180529526
 20
425.0487140038071
 30
0.0
 10
143.1432691009999
 20
425.0570567717683
 30
0.0
 10
143.0454117273216
 20
425.0540858030138
 30
0.0
  0
LINE
  5
C4
330
75
100
AcDbEntity
  8
10976038_HEBEL_E
  6
Continuous
 62
     7
100
AcDbLine
 10
143.0454117273
 20
425.054085803
 30
0.0
 11
143.0454117273
 21
425.0932021319
 31
0.0
  0
SPLINE
  5
C5
330
75
100
AcDbEntity
  8
10976038_HEBEL_E
  6
Continuous
 62
     7
100
AcDbSpline
210
0.0
220
0.0
230
1.0
 70
    11
 71
     3
 72
    62
 73
    58
 74
     0
 42
0.0000000013109406
 43
0.0000000001
 40
0.0
 40
0.0
 40
0.0
 40
0.0
 40
0.0471789914874823
 40
0.0471789914874823
 40
0.0471789914874823
 40
0.0942363547024502
 40
0.0942363547024502
 40
0.0942363547024502
 40
0.1434439079481527
 40
0.1434439079481527
 40
0.1434439079481527
 40
0.1970747790606938
 40
0.1970747790606938
 40
0.1970747790606938
 40
0.2554918407796158
 40
0.2554918407796158
 40
0.2554918407796158
 40
0.3171578837183785
 40
0.3171578837183785
 40
0.3171578837183785
 40
0.3786113276363149
 40
0.3786113276363149
 40
0.3786113276363149
 40
0.4359884726249879
 40
0.4359884726249879
 40
0.4359884726249879
 40
0.4876140618032368
 40
0.4876140618032368
 40
0.4876140618032368
 40
0.5349737567747124
 40
0.5349737567747124
 40
0.5349737567747124
 40
0.5811468964002181
 40
0.5811468964002181
 40
0.5811468964002181
 40
0.6291107662734593
 40
0.6291107662734593
 40
0.6291107662734593
 40
0.6810795087595043
 40
0.6810795087595043
 40
0.6810795087595043
 40
0.7380877315823164
 40
0.7380877315823164
 40
0.7380877315823164
 40
0.7992933544685786
 40
0.7992933544685786
 40
0.7992933544685786
 40
0.8615213161951641
 40
0.8615213161951641
 40
0.8615213161951641
 40
0.9203987320546899
 40
0.9203987320546899
 40
0.9203987320546899
 40
0.9733408599570533
 40
0.9733408599570533
 40
0.9733408599570533
 40
1.0
 40
1.0
 40
1.0
 40
1.0
 10
146.7766593757699
 20
424.0924624376189
 30
0.0
 10
146.77649185774
 20
423.9781521763393
 30
0.0
 10
146.7545492156225
 20
423.8624081884064
 30
0.0
 10
146.7133389852549
 20
423.7548991973903
 30
0.0
 10
146.6721885591584
 20
423.6475462233822
 30
0.0
 10
146.6108986362775
 20
423.5455495487052
 30
0.0
 10
146.5353669684455
 20
423.4559168501684
 30
0.0
 10
146.4563582131076
 20
423.362157925571
 30
0.0
 10
146.3599304990151
 20
423.2795234671156
 30
0.0
 10
146.2539783409863
 20
423.2125616083641
 30
0.0
 10
146.1385825409087
 20
423.1396313593813
 30
0.0
 10
146.0091057147509
 20
423.0834242363014
 30
0.0
 10
145.8752578661519
 20
423.0465544346365
 30
0.0
 10
145.7296453788899
 20
423.0064439391637
 30
0.0
 10
145.5751209309435
 20
422.9881617612423
 30
0.0
 10
145.4233022640383
 20
422.9924997735619
 30
0.0
 10
145.2632895738905
 20
422.9970719189727
 30
0.0
 10
145.1018036712563
 20
423.0269736379361
 30
0.0
 10
144.9526035392203
 20
423.0806839243107
 30
0.0
 10
144.8041156055588
 20
423.1341378276773
 30
0.0
 10
144.6633057673433
 20
423.2130053620681
 30
0.0
 10
144.5449881122478
 20
423.311939697797
 30
0.0
 10
144.434525788952
 20
423.4043055967791
 30
0.0
 10
144.3403020358396
 20
423.5173219537355
 30
0.0
 10
144.2741173028685
 20
423.6410760633844
 30
0.0
 10
144.2144650482124
 20
423.7526155579496
 30
0.0
 10
144.175868173383
 20
423.8763789265517
 30
0.0
 10
144.1633507107337
 20
424.0006300429212
 30
0.0
 10
144.1518414689799
 20
424.1148733345965
 30
0.0
 10
144.1619981013764
 20
424.2327641473672
 30
0.0
 10
144.1927057676426
 20
424.3441013819034
 30
0.0
 10
144.2226880314837
 20
424.4528085142612
 30
0.0
 10
144.2729108301671
 20
424.5581401414162
 30
0.0
 10
144.3384228976002
 20
424.652464949994
 30
0.0
 10
144.4065035668079
 20
424.7504880523397
 30
0.0
 10
144.4926567482599
 20
424.8391225136734
 30
0.0
 10
144.5895388451588
 20
424.9131454753287
 30
0.0
 10
144.6944644370944
 20
424.9933140855995
 30
0.0
 10
144.8144540070344
 20
425.0583819420415
 30
0.0
 10
144.940364432606
 20
425.1052092715731
 30
0.0
 10
145.078332480684
 20
425.1565209498781
 30
0.0
 10
145.226855067568
 20
425.1872718235802
 30
0.0
 10
145.3749889774305
 20
425.1961539284351
 30
0.0
 10
145.5337764782018
 20
425.205674822286
 30
0.0
 10
145.6964434532223
 20
425.190284775226
 30
0.0
 10
145.8498124051108
 20
425.1507085922013
 30
0.0
 10
146.0054901457215
 20
425.1105366364083
 30
0.0
 10
146.1562413699734
 20
425.0440541468911
 30
0.0
 10
146.2869718341097
 20
424.9554099490776
 30
0.0
 10
146.4105972204601
 20
424.8715834800537
 30
0.0
 10
146.5201284978014
 20
424.7650118735235
 30
0.0
 10
146.6021446009375
 20
424.6447227089357
 30
0.0
 10
146.6760012705878
 20
424.5364006020351
 30
0.0
 10
146.729711344307
 20
424.4134632010487
 30
0.0
 10
146.7563157216289
 20
424.2876771130022
 30
0.0
 10
146.7698882041475
 20
424.2235061136047
 30
0.0
 10
146.7767551421524
 20
424.1578111061049
 30
0.0
 10
146.7766593757699
 20
424.0924624376189
 30
0.0
  0
SPLINE
  5
C6
330
75
100
AcDbEntity
  8
10976038_HEBEL_E
  6
Continuous
 62
     7
100
AcDbSpline
210
0.0
220
0.0
230
1.0
 70
    11
 71
     3
 72
    62
 73
    58
 74
     0
 42
0.0000000021955932
 43
0.0000000001
 40
0.0
 40
0.0
 40
0.0
 40
0.0
 40
0.0523487553257781
 40
0.0523487553257781
 40
0.0523487553257781
 40
0.1046674930530116
 40
0.1046674930530116
 40
0.1046674930530116
 40
0.1574588615991986
 40
0.1574588615991986
 40
0.1574588615991986
 40
0.2112877166905835
 40
0.2112877166905835
 40
0.2112877166905835
 40
0.2660974761613477
 40
0.2660974761613477
 40
0.2660974761613477
 40
0.3213969995974484
 40
0.3213969995974484
 40
0.3213969995974484
 40
0.3764726656506948
 40
0.3764726656506948
 40
0.3764726656506948
 40
0.4307254429515864
 40
0.4307254429515864
 40
0.4307254429515864
 40
0.4839469637186511
 40
0.4839469637186511
 40
0.4839469637186511
 40
0.5363806543523157
 40
0.5363806543523157
 40
0.5363806543523157
 40
0.588574322014932
 40
0.588574322014932
 40
0.588574322014932
 40
0.6411490146586524
 40
0.6411490146586524
 40
0.6411490146586524
 40
0.6945751793495056
 40
0.6945751793495056
 40
0.6945751793495056
 40
0.7489991192902927
 40
0.7489991192902927
 40
0.7489991192902927
 40
0.8041557271772272
 40
0.8041557271772272
 40
0.8041557271772272
 40
0.8594277389881569
 40
0.8594277389881569
 40
0.8594277389881569
 40
0.9140953525903529
 40
0.9140953525903529
 40
0.9140953525903529
 40
0.967697137073682
 40
0.967697137073682
 40
0.967697137073682
 40
1.0
 40
1.0
 40
1.0
 40
1.0
 10
145.4707914109684
 20
423.3915800282415
 30
0.0
 10
145.5523382920527
 20
423.3915970654212
 30
0.0
 10
145.6350122456023
 20
423.4047854061797
 30
0.0
 10
145.7119399379512
 20
423.4299687488508
 30
0.0
 10
145.7888430666599
 20
423.4551440502751
 30
0.0
 10
145.8621072284237
 20
423.492973895893
 30
0.0
 10
145.9258888972595
 20
423.5402106801507
 30
0.0
 10
145.9902539523617
 20
423.5878795210119
 30
0.0
 10
146.0467090612386
 20
423.6463922919696
 30
0.0
 10
146.0909509729148
 20
423.710938123492
 30
0.0
 10
146.1360530636583
 20
423.7767388956588
 30
0.0
 10
146.169688635906
 20
423.8505746409527
 30
0.0
 10
146.1893404337949
 20
423.9264846035248
 30
0.0
 10
146.2093434866376
 20
424.003751375817
 30
0.0
 10
146.215403745033
 20
424.0852755032345
 30
0.0
 10
146.2070542647268
 20
424.1644173257049
 30
0.0
 10
146.1986330106683
 20
424.2442394666336
 30
0.0
 10
146.1753040728424
 20
424.3238540474472
 30
0.0
 10
146.1388711442903
 20
424.3965632498707
 30
0.0
 10
146.1025921980976
 20
424.4689651496706
 30
0.0
 10
146.0522754320467
 20
424.5365511323203
 30
0.0
 10
145.9920021357279
 20
424.5933985988175
 30
0.0
 10
145.9326254473587
 20
424.6494004190088
 30
0.0
 10
145.8618891267177
 20
424.6965523252697
 30
0.0
 10
145.7857323733942
 20
424.7305953466488
 30
0.0
 10
145.7110024885428
 20
424.7640005399723
 30
0.0
 10
145.6289469941816
 20
424.7857145822747
 30
0.0
 10
145.5465236842381
 20
424.7937601261295
 30
0.0
 10
145.4652918835735
 20
424.8016893638064
 30
0.0
 10
145.3814515186537
 20
424.796566921618
 30
0.0
 10
145.3020001919825
 20
424.7788481928929
 30
0.0
 10
145.222890798107
 20
424.7612057198415
 30
0.0
 10
145.1459712846531
 20
424.7306090307628
 30
0.0
 10
145.077449130941
 20
424.6897062447435
 30
0.0
 10
145.0084198683445
 20
424.6485007512778
 30
0.0
 10
144.9460404951662
 20
424.5957419210812
 30
0.0
 10
144.8951507017888
 20
424.5358387492444
 30
0.0
 10
144.8434420319991
 20
424.4749716651733
 30
0.0
 10
144.8021914646328
 20
424.4051023450684
 30
0.0
 10
144.7744979309517
 20
424.3319194937047
 30
0.0
 10
144.7462947799897
 20
424.2573899292
 30
0.0
 10
144.7313807224648
 20
424.1774062098594
 30
0.0
 10
144.7308543549328
 20
424.0984445567798
 30
0.0
 10
144.7303210843972
 20
424.0184473676203
 30
0.0
 10
144.7445478455657
 20
423.937295250571
 30
0.0
 10
144.7724318671108
 20
423.8616945615007
 30
0.0
 10
144.8003664595063
 20
423.785956761966
 30
0.0
 10
144.8428115461978
 20
423.7136719675437
 30
0.0
 10
144.8963794336932
 20
423.6510582811879
 30
0.0
 10
144.9493580627978
 20
423.589133358974
 30
0.0
 10
145.0147394711165
 20
423.5349264563524
 30
0.0
 10
145.0870874306119
 20
423.4932967549586
 30
0.0
 10
145.1580396045218
 20
423.4524702018157
 30
0.0
 10
145.2377094623497
 20
423.4225987372907
 30
0.0
 10
145.3193245136387
 20
423.4064179391214
 30
0.0
 10
145.3689739147883
 20
423.3965745716721
 30
0.0
 10
145.4200203275021
 20
423.3915694208944
 30
0.0
 10
145.4707914109684
 20
423.3915800282415
 30
0.0
  0
SPLINE
  5
C7
330
75
100
AcDbEntity
  8
10976038_HEBEL_E
  6
Continuous
 62
     7
100
AcDbSpline
210
0.0
220
0.0
230
1.0
 70
     8
 71
     3
 72
    20
 73
    16
 74
     0
 42
0.0000000021971066
 43
0.0000000001
 40
0.0
 40
0.0
 40
0.0
 40
0.0
 40
0.0523417079657474
 40
0.0523417079657474
 40
0.0523417079657474
 40
0.1046532455277292
 40
0.1046532455277292
 40
0.1046532455277292
 40
0.1574397922764818
 40
0.1574397922764818
 40
0.1574397922764818
 40
0.2112691812289891
 40
0.2112691812289891
 40
0.2112691812289891
 40
0.2501514381096532
 40
0.2501514381096532
 40
0.2501514381096532
 40
0.2501514381096532
 10
145.4707914109755
 20
423.3526797612247
 30
0.0
 10
145.5523315738124
 20
423.3526969113515
 30
0.0
 10
145.6349987456037
 20
423.3658819241379
 30
0.0
 10
145.7119200016599
 20
423.3910583657389
 30
0.0
 10
145.7888165677151
 20
423.4162267262658
 30
0.0
 10
145.8620742684504
 20
423.4540456950048
 30
0.0
 10
145.925851241355
 20
423.5012680260488
 30
0.0
 10
145.9902145741567
 20
423.5489245150641
 30
0.0
 10
146.0466686637547
 20
423.6074216068185
 30
0.0
 10
146.0909122219988
 20
423.671949920186
 30
0.0
 10
146.1360205120445
 20
423.7377394269769
 30
0.0
 10
146.1696625837129
 20
423.8115626973487
 30
0.0
 10
146.189322039486
 20
423.8874607756149
 30
0.0
 10
146.2035176475906
 20
423.9422649058715
 30
0.0
 10
146.210697322256
 20
423.9992115014427
 30
0.0
 10
146.2106942364374
 20
424.0559312037062
 30
0.0
  0
SPLINE
  5
C8
330
75
100
AcDbEntity
  8
10976038_HEBEL_E
  6
Continuous
 62
     7
100
AcDbSpline
210
0.0
220
0.0
230
1.0
 70
     8
 71
     3
 72
    20
 73
    16
 74
     0
 42
0.0000000021965354
 43
0.0000000001
 40
0.74999263122243
 40
0.74999263122243
 40
0.74999263122243
 40
0.74999263122243
 40
0.8041479545887493
 40
0.8041479545887493
 40
0.8041479545887493
 40
0.8594283016765902
 40
0.8594283016765902
 40
0.8594283016765902
 40
0.9141013260709038
 40
0.9141013260709038
 40
0.9141013260709038
 40
0.9677028503413804
 40
0.9677028503413804
 40
0.9677028503413804
 40
1.0
 40
1.0
 40
1.0
 40
1.0
 10
144.7308399087506
 20
424.0551456336052
 30
0.0
 10
144.730838678468
 20
423.9765729506193
 30
0.0
 10
144.7450453967411
 20
423.8970045223641
 30
0.0
 10
144.772417389941
 20
423.8227853241608
 30
0.0
 10
144.8003501951537
 20
423.7470454833932
 30
0.0
 10
144.8427970452062
 20
423.6747575299012
 30
0.0
 10
144.8963708325822
 20
423.6121409401515
 30
0.0
 10
144.9493525222595
 20
423.5502163891861
 30
0.0
 10
145.0147403303843
 20
423.4960089460836
 30
0.0
 10
145.0870974250603
 20
423.4543798069816
 30
0.0
 10
145.1580512667013
 20
423.413558000126
 30
0.0
 10
145.2377244327771
 20
423.3836899092256
 30
0.0
 10
145.3193431846393
 20
423.3675122347681
 30
0.0
 10
145.3689864848957
 20
423.3576724230554
 30
0.0
 10
145.4200265823864
 20
423.3526690839926
 30
0.0
 10
145.4707914109755
 20
423.3526797612247
 30
0.0
  0
SPLINE
  5
C9
330
75
100
AcDbEntity
  8
10976038_HEBEL_E
  6
Continuous
 62
     7
100
AcDbSpline
210
0.0
220
0.0
230
1.0
 70
     8
 71
     3
 72
    35
 73
    31
 74
     0
 42
0.0000000013091334
 43
0.0000000001
 40
0.5002953814653343
 40
0.5002953814653343
 40
0.5002953814653343
 40
0.5002953814653343
 40
0.5349766018564782
 40
0.5349766018564782
 40
0.5349766018564782
 40
0.5811566900535133
 40
0.5811566900535133
 40
0.5811566900535133
 40
0.6291249411053403
 40
0.6291249411053403
 40
0.6291249411053403
 40
0.681094509496258
 40
0.681094509496258
 40
0.681094509496258
 40
0.7380995984003232
 40
0.7380995984003232
 40
0.7380995984003232
 40
0.7992986495010339
 40
0.7992986495010339
 40
0.7992986495010339
 40
0.8615187823394965
 40
0.8615187823394965
 40
0.8615187823394965
 40
0.9203907655801403
 40
0.9203907655801403
 40
0.9203907655801403
 40
0.9733328309445614
 40
0.9733328309445614
 40
0.9733328309445614
 40
1.0
 40
1.0
 40
1.0
 40
1.0
 10
144.1587442401757
 20
424.0539965986766
 30
0.0
 10
144.1587530484471
 20
424.1385381890722
 30
0.0
 10
144.1702188507194
 20
424.2235712873422
 30
0.0
 10
144.1927044376804
 20
424.3050917037491
 30
0.0
 10
144.222689248544
 20
424.413800196515
 30
0.0
 10
144.2729192884204
 20
424.5191345314433
 30
0.0
 10
144.3384432291933
 20
424.6134615232149
 30
0.0
 10
144.406532228938
 20
424.711481124034
 30
0.0
 10
144.4926972245752
 20
424.8001130010597
 30
0.0
 10
144.5895936638238
 20
424.8741323863953
 30
0.0
 10
144.6945269354458
 20
424.9542911241873
 30
0.0
 10
144.8145257167584
 20
425.019350403095
 30
0.0
 10
144.9404456565428
 20
425.0661690307441
 30
0.0
 10
145.0784144533742
 20
425.1174675759714
 30
0.0
 10
145.2269374275617
 20
425.1482079716994
 30
0.0
 10
145.3750704574044
 20
425.1570817109814
 30
0.0
 10
145.5338488448006
 20
425.1665931482001
 30
0.0
 10
145.6965051310243
 20
425.1511984120394
 30
0.0
 10
145.8498622500986
 20
425.1116231051618
 30
0.0
 10
146.0055253060495
 20
425.0714527286841
 30
0.0
 10
146.1562602517886
 20
425.0049786724239
 30
0.0
 10
146.2869761947331
 20
424.9163512018756
 30
0.0
 10
146.4105921189969
 20
424.8325376559514
 30
0.0
 10
146.5201135288954
 20
424.7259861385242
 30
0.0
 10
146.6021248026109
 20
424.6057232565766
 30
0.0
 10
146.6759837695714
 20
424.4974150713489
 30
0.0
 10
146.7296961834678
 20
424.3744957136497
 30
0.0
 10
146.7563057271718
 20
424.2487286143385
 30
0.0
 10
146.7698848728405
 20
424.1845482668338
 30
0.0
 10
146.776755165291
 20
424.1188434126472
 30
0.0
 10
146.7766593757771
 20
424.0534852498706
 30
0.0
  0
LINE
  5
CA
330
75
100
AcDbEntity
  8
10976038_HEBEL_E
  6
Continuous
 62
     7
100
AcDbLine
 10
147.719883914
 20
425.0956231371
 30
0.0
 11
147.1713494471
 21
425.0991933981
 31
0.0
  0
LINE
  5
CB
330
75
100
AcDbEntity
  8
10976038_HEBEL_E
  6
Continuous
 62
     7
100
AcDbLine
 10
147.1713494471
 20
425.0991933981
 30
0.0
 11
147.1713494471
 21
423.0834493664
 31
0.0
  0
LINE
  5
CC
330
75
100
AcDbEntity
  8
10976038_HEBEL_E
  6
Continuous
 62
     7
100
AcDbLine
 10
147.1713494471
 20
423.0834493664
 30
0.0
 11
147.719883914
 21
423.0799244742
 31
0.0
  0
LINE
  5
CD
330
75
100
AcDbEntity
  8
10976038_HEBEL_E
  6
Continuous
 62
     7
100
AcDbLine
 10
147.719883914
 20
423.0799244742
 30
0.0
 11
147.719883914
 21
423.9374309382
 31
0.0
  0
LINE
  5
CE
330
75
100
AcDbEntity
  8
10976038_HEBEL_E
  6
Continuous
 62
     7
100
AcDbLine
 10
147.719883914
 20
423.9374309382
 30
0.0
 11
148.6981757719
 21
423.9286327673
 31
0.0
  0
LINE
  5
CF
330
75
100
AcDbEntity
  8
10976038_HEBEL_E
  6
Continuous
 62
     7
100
AcDbLine
 10
148.6981757719
 20
423.9286327673
 30
0.0
 11
148.6981757719
 21
423.0711757538
 31
0.0
  0
LINE
  5
D0
330
75
100
AcDbEntity
  8
10976038_HEBEL_E
  6
Continuous
 62
     7
100
AcDbLine
 10
148.6981757719
 20
423.0711757538
 30
0.0
 11
149.2501690508
 21
423.0648598559
 31
0.0
  0
LINE
  5
D1
330
75
100
AcDbEntity
  8
10976038_HEBEL_E
  6
Continuous
 62
     7
100
AcDbLine
 10
149.2501690508
 20
423.0648598559
 30
0.0
 11
149.2501690508
 21
425.0803527585
 31
0.0
  0
LINE
  5
D2
330
75
100
AcDbEntity
  8
10976038_HEBEL_E
  6
Continuous
 62
     7
100
AcDbLine
 10
149.2501690508
 20
425.0803527585
 30
0.0
 11
148.6981757719
 21
425.0867557966
 31
0.0
  0
LINE
  5
D3
330
75
100
AcDbEntity
  8
10976038_HEBEL_E
  6
Continuous
 62
     7
100
AcDbLine
 10
148.6981757719
 20
425.0867557966
 30
0.0
 11
148.6981757719
 21
424.3444987987
 31
0.0
  0
LINE
  5
D4
330
75
100
AcDbEntity
  8
10976038_HEBEL_E
  6
Continuous
 62
     7
100
AcDbLine
 10
148.6981757719
 20
424.3444987987
 30
0.0
 11
147.719883914
 21
424.3533214865
 31
0.0
  0
LINE
  5
D5
330
75
100
AcDbEntity
  8
10976038_HEBEL_E
  6
Continuous
 62
     7
100
AcDbLine
 10
147.719883914
 20
424.3533214864
 30
0.0
 11
147.719883914
 21
425.0956231371
 31
0.0
  0
LINE
  5
D6
330
75
100
AcDbEntity
  8
10976038_HEBEL_E
  6
Continuous
 62
     7
100
AcDbLine
 10
148.6981757719
 20
424.3054324652
 30
0.0
 11
147.719883914
 21
424.3142940142
 31
0.0
  0
LINE
  5
D7
330
75
100
AcDbEntity
  8
10976038_HEBEL_E
  6
Continuous
 62
     7
100
AcDbLine
 10
147.719883914
 20
424.3142940142
 30
0.0
 11
147.719883914
 21
424.3533214864
 31
0.0
  0
LINE
  5
D8
330
75
100
AcDbEntity
  8
10976038_HEBEL_E
  6
Continuous
 62
     7
100
AcDbLine
 10
148.6981757719
 20
424.3054324652
 30
0.0
 11
148.6981757719
 21
424.3444987987
 31
0.0
  0
LINE
  5
D9
330
75
100
AcDbEntity
  8
10976038_HEBEL_E
  6
Continuous
 62
     7
100
AcDbLine
 10
149.2501690508
 20
425.0411819935
 30
0.0
 11
148.6981757719
 21
425.0476131777
 31
0.0
  0
LINE
  5
DA
330
75
100
AcDbEntity
  8
10976038_HEBEL_E
  6
Continuous
 62
     7
100
AcDbLine
 10
147.719883914
 20
425.0565198745
 30
0.0
 11
147.1713494471
 21
425.0601061024
 31
0.0
  0
LINE
  5
DB
330
75
100
AcDbEntity
  8
10976038_HEBEL_E
  6
Continuous
 62
     7
100
AcDbLine
 10
151.4402409746
 20
423.4161186538
 30
0.0
 11
151.4402409746
 21
423.0301588392
 31
0.0
  0
LINE
  5
DC
330
75
100
AcDbEntity
  8
10976038_HEBEL_E
  6
Continuous
 62
     7
100
AcDbLine
 10
150.3982738596
 20
423.3955021893
 30
0.0
 11
150.3982738596
 21
423.434580661
 31
0.0
  0
LINE
  5
DD
330
75
100
AcDbEntity
  8
10976038_HEBEL_E
  6
Continuous
 62
     7
100
AcDbLine
 10
150.3982738596
 20
423.434580661
 30
0.0
 11
151.4402409746
 21
423.4161186537
 31
0.0
  0
LINE
  5
DE
330
75
100
AcDbEntity
  8
10976038_HEBEL_E
  6
Continuous
 62
     7
100
AcDbLine
 10
150.3982738596
 20
423.9303714508
 30
0.0
 11
150.3982738596
 21
423.434580661
 31
0.0
  0
LINE
  5
DF
330
75
100
AcDbEntity
  8
10976038_HEBEL_E
  6
Continuous
 62
     7
100
AcDbLine
 10
151.1536931187
 20
423.9172860799
 30
0.0
 11
150.3982738596
 21
423.9303714509
 31
0.0
  0
LINE
  5
E0
330
75
100
AcDbEntity
  8
10976038_HEBEL_E
  6
Continuous
 62
     7
100
AcDbLine
 10
151.1536931187
 20
424.2902489777
 30
0.0
 11
151.1536931187
 21
423.9172860799
 31
0.0
  0
LINE
  5
E1
330
75
100
AcDbEntity
  8
10976038_HEBEL_E
  6
Continuous
 62
     7
100
AcDbLine
 10
150.3982738596
 20
424.2642042648
 30
0.0
 11
150.3982738596
 21
424.3033672869
 31
0.0
  0
LINE
  5
E2
330
75
100
AcDbEntity
  8
10976038_HEBEL_E
  6
Continuous
 62
     7
100
AcDbLine
 10
150.3982738596
 20
424.3033672869
 30
0.0
 11
151.1536931187
 21
424.2902489777
 31
0.0
  0
LINE
  5
E3
330
75
100
AcDbEntity
  8
10976038_HEBEL_E
  6
Continuous
 62
     7
100
AcDbLine
 10
150.3982738596
 20
424.6793056001
 30
0.0
 11
150.3982738596
 21
424.3033672869
 31
0.0
  0
LINE
  5
E4
330
75
100
AcDbEntity
  8
10976038_HEBEL_E
  6
Continuous
 62
     7
100
AcDbLine
 10
151.2985768661
 20
424.6634230583
 30
0.0
 11
150.3982738596
 21
424.6793056001
 31
0.0
  0
LINE
  5
E5
330
75
100
AcDbEntity
  8
10976038_HEBEL_E
  6
Continuous
 62
     7
100
AcDbLine
 10
151.2985768661
 20
425.0479178141
 30
0.0
 11
151.2985768661
 21
424.6634230583
 31
0.0
  0
LINE
  5
E6
330
75
100
AcDbEntity
  8
10976038_HEBEL_E
  6
Continuous
 62
     7
100
AcDbLine
 10
149.8497393927
 20
425.0722655233
 30
0.0
 11
151.2985768661
 21
425.0479178141
 31
0.0
  0
LINE
  5
E7
330
75
100
AcDbEntity
  8
10976038_HEBEL_E
  6
Continuous
 62
     7
100
AcDbLine
 10
149.8497393927
 20
423.0568828656
 30
0.0
 11
149.8497393927
 21
425.0722655233
 31
0.0
  0
LINE
  5
E8
330
75
100
AcDbEntity
  8
10976038_HEBEL_E
  6
Continuous
 62
     7
100
AcDbLine
 10
151.4402409746
 20
423.0301588392
 30
0.0
 11
149.8497393926
 21
423.0568828656
 31
0.0
  0
LINE
  5
E9
330
75
100
AcDbEntity
  8
10976038_HEBEL_E
  6
Continuous
 62
     7
100
AcDbLine
 10
149.8497393927
 20
425.0330595096
 30
0.0
 11
151.2985768661
 21
425.0086074564
 31
0.0
  0
LINE
  5
EA
330
75
100
AcDbEntity
  8
10976038_HEBEL_E
  6
Continuous
 62
     7
100
AcDbLine
 10
150.3982738596
 20
424.2642042649
 30
0.0
 11
151.1536931187
 21
424.2510302979
 31
0.0
  0
LINE
  5
EB
330
75
100
AcDbEntity
  8
10976038_HEBEL_E
  6
Continuous
 62
     7
100
AcDbLine
 10
150.3982738596
 20
423.3955021893
 30
0.0
 11
151.4402409746
 21
423.3769626632
 31
0.0
  0
SPLINE
  5
EC
330
75
100
AcDbEntity
  8
10976038_HEBEL_E
  6
Continuous
 62
     7
100
AcDbSpline
210
0.0
220
0.0
230
1.0
 70
     8
 71
     3
 72
    22
 73
    18
 74
     0
 42
0.000000001780342
 43
0.0000000001
 40
0.0
 40
0.0
 40
0.0
 40
0.0
 40
0.1249999999999999
 40
0.1249999999999999
 40
0.2499999999999998
 40
0.2499999999999998
 40
0.3749999999999999
 40
0.3749999999999999
 40
0.5
 40
0.5
 40
0.6250000000000001
 40
0.6250000000000001
 40
0.7500000000000001
 40
0.7500000000000001
 40
0.8750000000000001
 40
0.8750000000000001
 40
1.0
 40
1.0
 40
1.0
 40
1.0
 10
150.9322555589711
 20
421.8335689995021
 30
0.0
 10
150.6978742091244
 20
421.8141568413459
 30
0.0
 10
150.4675142176458
 20
421.8344099794541
 30
0.0
 10
150.0121338819071
 20
421.9280028264907
 30
0.0
 10
149.7867843924104
 20
421.9985636531979
 30
0.0
 10
149.3411843061031
 20
422.1465444383476
 30
0.0
 10
149.1197317196621
 20
422.2246836319585
 30
0.0
 10
148.6687180687236
 20
422.3546049127478
 30
0.0
 10
148.4359266844996
 20
422.4068934638913
 30
0.0
 10
147.971437392807
 20
422.437645035832
 30
0.0
 10
147.7373823181107
 20
422.4109578617202
 30
0.0
 10
147.2802949089168
 20
422.3127991475077
 30
0.0
 10
147.0580697056877
 20
422.2435818047064
 30
0.0
 10
146.6142466582786
 20
422.1019211422216
 30
0.0
 10
146.3925421963438
 20
422.0288581560059
 30
0.0
 10
145.9416645360646
 20
421.9143202086348
 30
0.0
 10
145.712623046743
 20
421.872195603395
 30
0.0
 10
145.4742502229501
 20
421.8701274378172
 30
0.0
  0
LINE
  5
ED
330
75
100
AcDbEntity
  8
10976038_HEBEL_E
  6
Continuous
 62
     7
100
AcDbLine
 10
151.115572595
 20
422.0775629153
 30
0.0
 11
150.932255559
 21
421.8335689995
 31
0.0
  0
SPLINE
  5
EE
330
75
100
AcDbEntity
  8
10976038_HEBEL_E
  6
Continuous
 62
     7
100
AcDbSpline
210
0.0
220
0.0
230
1.0
 70
     8
 71
     3
 72
    20
 73
    16
 74
     0
 42
0.0000000008482777
 43
0.0000000001
 40
0.0
 40
0.0
 40
0.0
 40
0.0
 40
0.1249999999999999
 40
0.1249999999999999
 40
0.2499999999999998
 40
0.2499999999999998
 40
0.4999999999999999
 40
0.4999999999999999
 40
0.6249999999999999
 40
0.6249999999999999
 40
0.7499999999999999
 40
0.7499999999999999
 40
0.875
 40
0.875
 40
1.0
 40
1.0
 40
1.0
 40
1.0
 10
139.832927850963
 20
422.0757722840802
 30
0.0
 10
140.3095562808117
 20
422.0069892679507
 30
0.0
 10
140.7929401004728
 20
422.1100601030449
 30
0.0
 10
141.715371105138
 20
422.4080435291143
 30
0.0
 10
142.1683105892857
 20
422.591518316318
 30
0.0
 10
143.6163259008908
 20
422.7362557151212
 30
0.0
 10
144.5064730828885
 20
422.0999426666921
 30
0.0
 10
145.9431619426248
 20
422.0931870927421
 30
0.0
 10
146.4048266982872
 20
422.2548868459854
 30
0.0
 10
147.3188118916455
 20
422.5461441416937
 30
0.0
 10
147.7971357689587
 20
422.6858917429074
 30
0.0
 10
148.7526351749283
 20
422.5999070109434
 30
0.0
 10
149.214111732009
 20
422.416270093084
 30
0.0
 10
150.1397514224494
 20
422.1159003270802
 30
0.0
 10
150.6314784334624
 20
422.0075601759839
 30
0.0
 10
151.1155725949826
 20
422.077562915309
 30
0.0
  0
LINE
  5
EF
330
75
100
AcDbEntity
  8
10976038_HEBEL_E
  6
Continuous
 62
     7
100
AcDbLine
 10
140.0162448869
 20
421.8318547746
 30
0.0
 11
139.832927851
 21
422.0757722841
 31
0.0
  0
SPLINE
  5
F0
330
75
100
AcDbEntity
  8
10976038_HEBEL_E
  6
Continuous
 62
     7
100
AcDbSpline
210
0.0
220
0.0
230
1.0
 70
     8
 71
     3
 72
    22
 73
    18
 74
     0
 42
0.000000001780318
 43
0.0000000001
 40
0.0
 40
0.0
 40
0.0
 40
0.0
 40
0.1250000000000001
 40
0.1250000000000001
 40
0.2500000000000002
 40
0.2500000000000002
 40
0.3750000000000002
 40
0.3750000000000002
 40
0.5000000000000002
 40
0.5000000000000002
 40
0.6250000000000002
 40
0.6250000000000002
 40
0.7500000000000001
 40
0.7500000000000001
 40
0.8750000000000001
 40
0.8750000000000001
 40
1.0
 40
1.0
 40
1.0
 40
1.0
 10
145.4742502229501
 20
421.8701274378172
 30
0.0
 10
145.2376530250281
 20
421.8720957445929
 30
0.0
 10
145.0100696136314
 20
421.9135686037206
 30
0.0
 10
144.5619560945032
 20
422.0267828192658
 30
0.0
 10
144.341553916172
 20
422.0991387161597
 30
0.0
 10
143.9005347024378
 20
422.2398536160869
 30
0.0
 10
143.6797931402641
 20
422.3087921557582
 30
0.0
 10
143.2267690874358
 20
422.4076454146544
 30
0.0
 10
142.9904814906619
 20
422.4360702025466
 30
0.0
 10
142.5286949157199
 20
422.4084441618992
 30
0.0
 10
142.2999901910377
 20
422.3584238174303
 30
0.0
 10
141.8484434242336
 20
422.2299764403347
 30
0.0
 10
141.6258630692641
 20
422.1516628019676
 30
0.0
 10
141.1789839772922
 20
422.0026815170101
 30
0.0
 10
140.9547852512609
 20
421.931571674067
 30
0.0
 10
140.4961213352442
 20
421.8347867473905
 30
0.0
 10
140.2610826275618
 20
421.8116465579727
 30
0.0
 10
140.0162448869389
 20
421.8318547746196
 30
0.0
  0
SPLINE
  5
F1
330
75
100
AcDbEntity
  8
10976038_HEBEL_E
  6
Continuous
 62
     7
100
AcDbSpline
210
0.0
220
0.0
230
1.0
 70
     8
 71
     3
 72
    20
 73
    16
 74
     0
 42
0.0000000008482803
 43
0.0000000001
 40
0.0
 40
0.0
 40
0.0
 40
0.0
 40
0.1249999999999998
 40
0.1249999999999998
 40
0.2499999999999998
 40
0.2499999999999998
 40
0.4999999999999998
 40
0.4999999999999998
 40
0.6249999999999998
 40
0.6249999999999998
 40
0.7499999999999999
 40
0.7499999999999999
 40
0.8749999999999999
 40
0.8749999999999999
 40
1.0
 40
1.0
 40
1.0
 40
1.0
 10
139.8329278509574
 20
422.036751452311
 30
0.0
 10
140.3095331149021
 20
421.9680148303399
 30
0.0
 10
140.7929241550914
 20
422.0711024412253
 30
0.0
 10
141.7153682999314
 20
422.3691201099124
 30
0.0
 10
142.1683167898482
 20
422.5526077732458
 30
0.0
 10
143.6163552869992
 20
422.6973881668988
 30
0.0
 10
144.5064811592041
 20
422.0611450482215
 30
0.0
 10
145.9431775442408
 20
422.0544011048638
 30
0.0
 10
146.4048590970656
 20
422.2160911032921
 30
0.0
 10
147.3188469571385
 20
422.507306014224
 30
0.0
 10
147.7971766219155
 20
422.6470218585636
 30
0.0
 10
148.7526807549626
 20
422.5609877289992
 30
0.0
 10
149.2141573571926
 20
422.3773391877625
 30
0.0
 10
150.1398040735923
 20
422.0769420998235
 30
0.0
 10
150.6315292682186
 20
421.968599956817
 30
0.0
 10
151.1155725949697
 20
422.03855231715
 30
0.0
  0
SPLINE
  5
F2
330
75
100
AcDbEntity
  8
10976038_HEBEL_E
  6
Continuous
 62
     7
100
AcDbSpline
210
0.0
220
0.0
230
1.0
 70
     8
 71
     3
 72
    20
 73
    16
 74
     0
 42
0.0000000021228779
 43
0.0000000001
 40
0.0
 40
0.0
 40
0.0
 40
0.0
 40
0.1250000000000008
 40
0.1250000000000008
 40
0.2500000000000013
 40
0.2500000000000013
 40
0.3750000000000018
 40
0.3750000000000018
 40
0.4375000000000019
 40
0.4375000000000019
 40
0.5000000000000019
 40
0.5000000000000019
 40
0.750000000000001
 40
0.750000000000001
 40
1.0
 40
1.0
 40
1.0
 40
1.0
 10
140.9086183829486
 20
421.152307346972
 30
0.0
 10
141.0999433830863
 20
421.210039677936
 30
0.0
 10
141.2912926504102
 20
421.2675999176165
 30
0.0
 10
141.6740402358085
 20
421.3823725525134
 30
0.0
 10
141.8650327163749
 20
421.4410683717254
 30
0.0
 10
142.2488208453366
 20
421.5516986804536
 30
0.0
 10
142.4432715035509
 20
421.5975846473923
 30
0.0
 10
142.7446605989186
 20
421.6307703727519
 30
0.0
 10
142.8450312361359
 20
421.6352793909786
 30
0.0
 10
143.0409886841316
 20
421.6297540374193
 30
0.0
 10
143.1373764838804
 20
421.6203204083452
 30
0.0
 10
143.6137501910597
 20
421.5496547870358
 30
0.0
 10
143.9777264045439
 20
421.4207715522761
 30
0.0
 10
144.7128449209413
 20
421.1885667753205
 30
0.0
 10
145.0827555187601
 20
421.0796253001709
 30
0.0
 10
145.474250222941
 20
421.0763590968456
 30
0.0
  0
SPLINE
  5
F3
330
75
100
AcDbEntity
  8
10976038_HEBEL_E
  6
Continuous
 62
     7
100
AcDbSpline
210
0.0
220
0.0
230
1.0
 70
     8
 71
     3
 72
    20
 73
    16
 74
     0
 42
0.0000000021249306
 43
0.0000000001
 40
0.0
 40
0.0
 40
0.0
 40
0.0
 40
0.1250000000000002
 40
0.1250000000000002
 40
0.2500000000000003
 40
0.2500000000000003
 40
0.5000000000000003
 40
0.5000000000000003
 40
0.5625000000000003
 40
0.5625000000000003
 40
0.6250000000000002
 40
0.6250000000000002
 40
0.7500000000000001
 40
0.7500000000000001
 40
1.0
 40
1.0
 40
1.0
 40
1.0
 10
145.474250222941
 20
421.0763590968456
 30
0.0
 10
145.6762277558067
 20
421.0781126137143
 30
0.0
 10
145.8704205610128
 20
421.1087598560957
 30
0.0
 10
146.2517298799917
 20
421.1959340027185
 30
0.0
 10
146.4387470451504
 20
421.2528306258915
 30
0.0
 10
146.9976975759986
 20
421.4302478374297
 30
0.0
 10
147.3670747412503
 20
421.5603706592486
 30
0.0
 10
147.8518431681549
 20
421.6254807058044
 30
0.0
 10
147.9507564918293
 20
421.6334151264609
 30
0.0
 10
148.1484437812822
 20
421.6348852632641
 30
0.0
 10
148.2460155658729
 20
421.6282445396099
 30
0.0
 10
148.5358982849859
 20
421.5918934433662
 30
0.0
 10
148.7254291174413
 20
421.5460586945219
 30
0.0
 10
149.2893330763191
 20
421.381341507619
 30
0.0
 10
149.6644856674157
 20
421.2668915072855
 30
0.0
 10
150.0398820629522
 20
421.1537102236895
 30
0.0
  0
LINE
  5
F4
330
75
100
AcDbEntity
  8
10976038_HEBEL_E
  6
Continuous
 62
     7
100
AcDbLine
 10
150.039882063
 20
421.1537102237
 30
0.0
 11
150.247410783
 21
421.32555595
 31
0.0
  0
SPLINE
  5
F5
330
75
100
AcDbEntity
  8
10976038_HEBEL_E
  6
Continuous
 62
     7
100
AcDbSpline
210
0.0
220
0.0
230
1.0
 70
     8
 71
     3
 72
    18
 73
    14
 74
     0
 42
0.0000000010023731
 43
0.0000000001
 40
0.0
 40
0.0
 40
0.0
 40
0.0
 40
0.1250000000000001
 40
0.1250000000000001
 40
0.2500000000000001
 40
0.2500000000000001
 40
0.5000000000000001
 40
0.5000000000000001
 40
0.7500000000000002
 40
0.7500000000000002
 40
0.8750000000000001
 40
0.8750000000000001
 40
1.0
 40
1.0
 40
1.0
 40
1.0
 10
150.247410782951
 20
421.3255559500133
 30
0.0
 10
149.8562372424825
 20
421.4425324801048
 30
0.0
 10
149.4649665710143
 20
421.5587857973095
 30
0.0
 10
148.6822265616208
 20
421.789813211434
 30
0.0
 10
148.2762729581704
 20
421.8868199180594
 30
0.0
 10
147.0768331592078
 20
421.7752312124674
 30
0.0
 10
146.3229176012794
 20
421.3153463301884
 30
0.0
 10
144.6906984152592
 20
421.2892552179248
 30
0.0
 10
143.9506204762534
 20
421.7456590701319
 30
0.0
 10
142.7283547032822
 20
421.8902925692444
 30
0.0
 10
142.3018053118533
 20
421.7992158046791
 30
0.0
 10
141.5012733482124
 20
421.5627865190235
 30
0.0
 10
141.1011243226853
 20
421.4438073066419
 30
0.0
 10
140.7010896629512
 20
421.3240804594095
 30
0.0
  0
LINE
  5
F6
330
75
100
AcDbEntity
  8
10976038_HEBEL_E
  6
Continuous
 62
     7
100
AcDbLine
 10
140.7010896629
 20
421.3240804594
 30
0.0
 11
140.908618383
 21
421.152307347
 31
0.0
  0
SPLINE
  5
F7
330
75
100
AcDbEntity
  8
10976038_HEBEL_E
  6
Continuous
 62
     7
100
AcDbSpline
210
0.0
220
0.0
230
1.0
 70
     8
 71
     3
 72
    18
 73
    14
 74
     0
 42
0.0000000010023585
 43
0.0000000001
 40
0.0
 40
0.0
 40
0.0
 40
0.0
 40
0.1249999999999999
 40
0.1249999999999999
 40
0.2499999999999999
 40
0.2499999999999999
 40
0.5
 40
0.5
 40
0.7500000000000002
 40
0.7500000000000002
 40
0.8750000000000001
 40
0.8750000000000001
 40
1.0
 40
1.0
 40
1.0
 40
1.0
 10
150.2474107829581
 20
421.2866675716611
 30
0.0
 10
149.8561429545533
 20
421.4036887649924
 30
0.0
 10
149.4647768468079
 20
421.5199839223377
 30
0.0
 10
148.6818435738085
 20
421.7510889301223
 30
0.0
 10
148.2757780331424
 20
421.8480431850686
 30
0.0
 10
147.0760713018229
 20
421.7361896090886
 30
0.0
 10
146.3218790660763
 20
421.2761488771451
 30
0.0
 10
144.6894264303443
 20
421.2509596310488
 30
0.0
 10
143.9492574256263
 20
421.7076472090501
 30
0.0
 10
142.7261889835011
 20
421.8514149642644
 30
0.0
 10
142.3002316873715
 20
421.7599100912811
 30
0.0
 10
141.5004845400982
 20
421.5236868156978
 30
0.0
 10
141.1007292704875
 20
421.4048094994836
 30
0.0
 10
140.70108966295
 20
421.2851836037122
 30
0.0
  0
SPLINE
  5
F8
330
75
100
AcDbEntity
  8
10976038_HEBEL_E
  6
Continuous
 62
     7
100
AcDbSpline
210
0.0
220
0.0
230
1.0
 70
     8
 71
     3
 72
    16
 73
    12
 74
     0
 42
0.0000000027512202
 43
0.0000000001
 40
0.0
 40
0.0
 40
0.0
 40
0.0
 40
0.2499999999999999
 40
0.2499999999999999
 40
0.3749999999999999
 40
0.3749999999999999
 40
0.5
 40
0.5
 40
0.7500000000000001
 40
0.7500000000000001
 40
1.0
 40
1.0
 40
1.0
 40
1.0
 10
141.9376149529405
 20
420.6664351861997
 30
0.0
 10
142.2275460863687
 20
420.7560325208487
 30
0.0
 10
142.5203499218073
 20
420.8294926372006
 30
0.0
 10
142.9768001242356
 20
420.8428610540748
 30
0.0
 10
143.1292924163868
 20
420.8293997696716
 30
0.0
 10
143.4257830732717
 20
420.7806351016159
 30
0.0
 10
143.5716321685476
 20
420.7454334450244
 30
0.0
 10
144.0058422167393
 20
420.6242729144406
 30
0.0
 10
144.2905397657637
 20
420.5226949128535
 30
0.0
 10
144.8691226946269
 20
420.3536751349379
 30
0.0
 10
145.1625770236818
 20
420.2838462111195
 30
0.0
 10
145.4742502229321
 20
420.2812387927591
 30
0.0
  0
SPLINE
  5
F9
330
75
100
AcDbEntity
  8
10976038_HEBEL_E
  6
Continuous
 62
     7
100
AcDbSpline
210
0.0
220
0.0
230
1.0
 70
     8
 71
     3
 72
    16
 73
    12
 74
     0
 42
0.0000000027509197
 43
0.0000000001
 40
0.0
 40
0.0
 40
0.0
 40
0.0
 40
0.2499999999999999
 40
0.2499999999999999
 40
0.4999999999999998
 40
0.4999999999999998
 40
0.7499999999999999
 40
0.7499999999999999
 40
0.8749999999999999
 40
0.8749999999999999
 40
1.0
 40
1.0
 40
1.0
 40
1.0
 10
145.4742502229321
 20
420.2812387927591
 30
0.0
 10
145.7812583652996
 20
420.2839059213193
 30
0.0
 10
146.0741685327639
 20
420.3525663499786
 30
0.0
 10
146.6529836885647
 20
420.5213983773487
 30
0.0
 10
146.9370325407822
 20
420.6229154935533
 30
0.0
 10
147.5174759163891
 20
420.7855653796286
 30
0.0
 10
147.8147879523904
 20
420.8471471063144
 30
0.0
 10
148.2677196432886
 20
420.8355728562803
 30
0.0
 10
148.4206059002298
 20
420.8147241717284
 30
0.0
 10
148.7185106848216
 20
420.7531655496834
 30
0.0
 10
148.8651914135945
 20
420.712498923322
 30
0.0
 10
149.0108854929329
 20
420.6675132028612
 30
0.0
  0
LINE
  5
FA
330
75
100
AcDbEntity
  8
10976038_HEBEL_E
  6
Continuous
 62
     7
100
AcDbLine
 10
149.0108854929
 20
420.6675132029
 30
0.0
 11
149.3048845129
 21
420.8034328091
 31
0.0
  0
SPLINE
  5
FB
330
75
100
AcDbEntity
  8
10976038_HEBEL_E
  6
Continuous
 62
     7
100
AcDbSpline
210
0.0
220
0.0
230
1.0
 70
     8
 71
     3
 72
    18
 73
    14
 74
     0
 42
0.0000000012590969
 43
0.0000000001
 40
0.0
 40
0.0
 40
0.0
 40
0.0
 40
0.125
 40
0.125
 40
0.25
 40
0.25
 40
0.5000000000000002
 40
0.5000000000000002
 40
0.7500000000000004
 40
0.7500000000000004
 40
0.8750000000000002
 40
0.8750000000000002
 40
1.0
 40
1.0
 40
1.0
 40
1.0
 10
149.3048845129426
 20
420.8034328090907
 30
0.0
 10
148.9935927687977
 20
420.9077854045526
 30
0.0
 10
148.6813971928122
 20
421.0076732426846
 30
0.0
 10
148.0322131878206
 20
421.088364819808
 30
0.0
 10
147.6953181592817
 20
421.0459380060267
 30
0.0
 10
146.7447697553204
 20
420.8054626850736
 30
0.0
 10
146.14292890469
 20
420.5055701416225
 30
0.0
 10
144.7944422863256
 20
420.5090393053302
 30
0.0
 10
144.1959661869605
 20
420.8079568569453
 30
0.0
 10
143.247198206096
 20
421.0462569066163
 30
0.0
 10
142.9110616722676
 20
421.0873824998716
 30
0.0
 10
142.2647490726078
 20
421.0058803798728
 30
0.0
 10
141.9537324578588
 20
420.9063008606144
 30
0.0
 10
141.64361592593
 20
420.8022626561279
 30
0.0
  0
LINE
  5
FC
330
75
100
AcDbEntity
  8
10976038_HEBEL_E
  6
Continuous
 62
     7
100
AcDbLine
 10
141.6436159259
 20
420.8022626561
 30
0.0
 11
141.9376149529
 21
420.6664351862
 31
0.0
  0
SPLINE
  5
FD
330
75
100
AcDbEntity
  8
10976038_HEBEL_E
  6
Continuous
 62
     7
100
AcDbSpline
210
0.0
220
0.0
230
1.0
 70
     8
 71
     3
 72
    18
 73
    14
 74
     0
 42
0.0000000012591025
 43
0.0000000001
 40
0.0
 40
0.0
 40
0.0
 40
0.0
 40
0.1249999999999999
 40
0.1249999999999999
 40
0.2499999999999999
 40
0.2499999999999999
 40
0.5
 40
0.5
 40
0.7500000000000001
 40
0.7500000000000001
 40
0.875
 40
0.875
 40
1.0
 40
1.0
 40
1.0
 40
1.0
 10
149.30488451295
 20
420.7646391756402
 30
0.0
 10
148.9935920486961
 20
420.869000832328
 30
0.0
 10
148.6813951730969
 20
420.9688962240811
 30
0.0
 10
148.0322117510715
 20
421.0496075245859
 30
0.0
 10
147.6953203091974
 20
421.0071953121974
 30
0.0
 10
146.7447843219575
 20
420.7667673847347
 30
0.0
 10
146.1429486836466
 20
420.4669053504032
 30
0.0
 10
144.7944570433491
 20
420.4703613454591
 30
0.0
 10
144.1959897003038
 20
420.7692428207557
 30
0.0
 10
143.2472413285584
 20
421.007501319837
 30
0.0
 10
142.9111111465704
 20
421.0486217716459
 30
0.0
 10
142.2647704857889
 20
420.9671041301816
 30
0.0
 10
141.9537427949128
 20
420.8675130748218
 30
0.0
 10
141.6436159259388
 20
420.7634622240295
 30
0.0
  0
LINE
  5
FE
330
75
100
AcDbEntity
  8
10976038_HEBEL_E
  6
Continuous
 62
     7
100
AcDbLine
 10
129.7976996513
 20
415.0928401619
 30
0.0
 11
128.7448276023
 21
415.0424943503
 31
0.0
  0
LINE
  5
FF
330
75
100
AcDbEntity
  8
10976038_HEBEL_E
  6
Continuous
 62
     7
100
AcDbLine
 10
127.7611372248
 20
419.665981359
 30
0.0
 11
127.7611372247
 21
419.794730488
 31
0.0
  0
ARC
  5
100
330
75
100
AcDbEntity
  8
10976038_HEBEL_E
  6
Continuous
 62
     7
100
AcDbCircle
 10
99.5827832914
 20
404.7976438801
 30
0.0
 40
31.92071799186411
100
AcDbArc
 50
18.8156319833
 51
28.0228059048
  0
LINE
  5
101
330
75
100
AcDbEntity
  8
10976038_HEBEL_E
  6
Continuous
 62
     7
100
AcDbLine
 10
126.6414053048
 20
419.73400949
 30
0.0
 11
127.7611372248
 21
419.794730488
 31
0.0
  0
ARC
  5
102
330
75
100
AcDbEntity
  8
10976038_HEBEL_E
  6
Continuous
 62
     7
100
AcDbCircle
 10
99.5622524138
 20
404.7758900486
 30
0.0
 40
30.93583453728018
100
AcDbArc
 50
19.3821766343
 51
28.9156045822
  0
LINE
  5
103
330
75
100
AcDbEntity
  8
10976038_HEBEL_E
  6
Continuous
 62
     7
100
AcDbLine
 10
126.6414053048
 20
419.6046271689
 30
0.0
 11
127.7611372248
 21
419.665981359
 31
0.0
  0
ARC
  5
104
330
75
100
AcDbEntity
  8
10976038_HEBEL_E
  6
Continuous
 62
     7
100
AcDbCircle
 10
99.6207905022
 20
404.6806610115
 30
0.0
 40
31.88163953724524
100
AcDbArc
 50
19.062482418
 51
28.0362303077
  0
ARC
  5
105
330
75
100
AcDbEntity
  8
10976038_HEBEL_E
  6
Continuous
 62
     7
100
AcDbCircle
 10
191.3277099431
 20
404.6806610109
 30
0.0
 40
31.88163953679391
100
AcDbArc
 50
151.9637696907
 51
160.9317096138
  0
LINE
  5
106
330
75
100
AcDbEntity
  8
10976038_HEBEL_E
  6
Continuous
 62
     7
100
AcDbLine
 10
164.3070951413
 20
419.6046271689
 30
0.0
 11
163.1873632213
 21
419.665981359
 31
0.0
  0
ARC
  5
107
330
75
100
AcDbEntity
  8
10976038_HEBEL_E
  6
Continuous
 62
     7
100
AcDbCircle
 10
191.3999228606
 20
404.77618857
 30
0.0
 40
30.94970426169713
100
AcDbArc
 50
151.0902699596
 51
160.6211212849
  0
LINE
  5
108
330
75
100
AcDbEntity
  8
10976038_HEBEL_E
  6
Continuous
 62
     7
100
AcDbLine
 10
163.1873632213
 20
419.665981359
 30
0.0
 11
163.1873632213
 21
419.7987802083
 31
0.0
  0
LINE
  5
109
330
75
100
AcDbEntity
  8
10976038_HEBEL_E
  6
Continuous
 62
     7
100
AcDbLine
 10
164.3070951412
 20
419.73823656
 30
0.0
 11
163.1873632213
 21
419.7987802083
 31
0.0
  0
ARC
  5
10A
330
75
100
AcDbEntity
  8
10976038_HEBEL_E
  6
Continuous
 62
     7
100
AcDbCircle
 10
191.3804245567
 20
404.7975327775
 30
0.0
 40
31.93565612200398
100
AcDbArc
 50
151.9830013558
 51
161.1875253558
  0
LINE
  5
10B
330
75
100
AcDbEntity
  8
10976038_HEBEL_E
  6
Continuous
 62
     7
100
AcDbLine
 10
161.1508007946
 20
415.0958811472
 30
0.0
 11
162.2036728437
 21
415.0457152793
 31
0.0
  0
ARC
  5
10C
330
75
100
AcDbEntity
  8
10976038_HEBEL_E
  6
Continuous
 62
     7
100
AcDbCircle
 10
151.1832435194
 20
434.8461500975
 30
0.0
 40
32.95600871537972
100
AcDbArc
 50
181.5506048104
 51
217.1424093107
  0
ARC
  5
10D
330
75
100
AcDbEntity
  8
10976038_HEBEL_E
  6
Continuous
 62
     7
100
AcDbCircle
 10
139.8483351696
 20
434.8245323806
 30
0.0
 40
32.87211626927108
100
AcDbArc
 50
323.1725879473
 51
358.3688318324
  0
ARC
  5
10E
330
75
100
AcDbEntity
  8
10976038_HEBEL_E
  6
Continuous
 62
     7
100
AcDbCircle
 10
192.1670225121
 20
401.9805623189
 30
0.0
 40
29.14878608502217
100
AcDbArc
 50
149.7514692133
 51
170.5234136894
  0
ARC
  5
10F
330
75
100
AcDbEntity
  8
10976038_HEBEL_E
  6
Continuous
 62
     7
100
AcDbCircle
 10
99.5309791768
 20
401.9939968197
 30
0.0
 40
28.49430571662955
100
AcDbArc
 50
9.362155932
 51
30.605034947
  0
SPLINE
  5
110
330
75
100
AcDbEntity
  8
10976038_HEBEL_E
  6
Continuous
 62
     7
100
AcDbSpline
210
0.0
220
0.0
230
1.0
 70
     8
 71
     3
 72
    23
 73
    19
 74
     0
 42
0.0000000001543862
 43
0.0000000001
 40
0.0
 40
0.0
 40
0.0
 40
0.0
 40
0.0268689150203524
 40
0.1057519172801112
 40
0.1886173138963934
 40
0.2732287017608998
 40
0.3447857356194012
 40
0.412183841159887
 40
0.4757198453845764
 40
0.5350818698951954
 40
0.5978869714113604
 40
0.6593724687612276
 40
0.7194881595745408
 40
0.7782444582951779
 40
0.8356806285825601
 40
0.8918564375211553
 40
0.946828645165435
 40
1.0
 40
1.0
 40
1.0
 40
1.0
 10
158.147030843356
 20
342.2536594508512
 30
0.0
 10
158.1954557120506
 20
342.8884273351137
 30
0.0
 10
158.3578514538277
 20
345.0205056253851
 30
0.0
 10
158.5930024137672
 20
349.2005888555756
 30
0.0
 10
158.8682994004371
 20
354.4781245472241
 30
0.0
 10
159.1139325116161
 20
359.6605742964684
 30
0.0
 10
159.349237620885
 20
364.5010868046181
 30
0.0
 10
159.5811629866762
 20
368.8914831802558
 30
0.0
 10
159.8264960921557
 20
373.0175237639645
 30
0.0
 10
160.1072717916339
 20
377.0419267248991
 30
0.0
 10
160.4321953041464
 20
381.0167285689015
 30
0.0
 10
160.8000178291562
 20
384.9997170597113
 30
0.0
 10
161.1966315177665
 20
388.8850027943143
 30
0.0
 10
161.6155153538704
 20
392.667609217633
 30
0.0
 10
162.0529512586442
 20
396.3559931278276
 30
0.0
 10
162.4993290188492
 20
399.9195593997419
 30
0.0
 10
162.9670392273088
 20
403.45857650833
 30
0.0
 10
163.2534672888839
 20
405.5575029421162
 30
0.0
 10
163.4210436015274
 20
406.7808804011162
 30
0.0
  0
SPLINE
  5
111
330
75
100
AcDbEntity
  8
10976038_HEBEL_E
  6
Continuous
 62
     7
100
AcDbSpline
210
0.0
220
0.0
230
1.0
 70
     8
 71
     3
 72
    23
 73
    19
 74
     0
 42
0.0000000001547785
 43
0.0000000001
 40
0.0
 40
0.0
 40
0.0
 40
0.0
 40
0.0489828519091293
 40
0.1029261539744021
 40
0.1566022893369813
 40
0.2115969425134307
 40
0.2677524383725144
 40
0.3251330902940509
 40
0.3837880644849537
 40
0.443749913698619
 40
0.5050283967050885
 40
0.5676930025837589
 40
0.6334839563018928
 40
0.7040819569628021
 40
0.778960246681049
 40
0.8584482726696534
 40
0.9421494584577004
 40
1.0
 40
1.0
 40
1.0
 40
1.0
 10
127.6403176193676
 20
406.6299208032748
 30
0.0
 10
127.7923107749657
 20
405.5056859990889
 30
0.0
 10
128.0609468601913
 20
403.5114044745215
 30
0.0
 10
128.5012716228348
 20
400.1452483555055
 30
0.0
 10
128.926344763127
 20
396.7178669965973
 30
0.0
 10
129.3406909285272
 20
393.2012637753105
 30
0.0
 10
129.7389174330657
 20
389.5966178438194
 30
0.0
 10
130.1177254942199
 20
385.8987196077651
 30
0.0
 10
130.4720196345186
 20
382.1090282379062
 30
0.0
 10
130.7966212650515
 20
378.2271884600572
 30
0.0
 10
131.0854577145369
 20
374.2531013931322
 30
0.0
 10
131.3349555991806
 20
370.1498642577693
 30
0.0
 10
131.5658411622371
 20
365.8446242067058
 30
0.0
 10
131.7873424442839
 20
361.2802267334959
 30
0.0
 10
132.0136856836501
 20
356.4157838541713
 30
0.0
 10
132.262046855765
 20
351.3155163929276
 30
0.0
 10
132.5214077983113
 20
346.4502670102075
 30
0.0
 10
132.7160870991903
 20
343.6228076500954
 30
0.0
 10
132.8104098336325
 20
342.2580890113995
 30
0.0
  0
ARC
  5
112
330
75
100
AcDbEntity
  8
10976038_HEBEL_E
  6
Continuous
 62
     7
100
AcDbCircle
 10
156.6635727611
 20
342.3555434636
 30
0.0
 40
1.499999999999981
100
AcDbArc
 50
301.8060753781
 51
356.0320288253
  0
ARC
  5
113
330
75
100
AcDbEntity
  8
10976038_HEBEL_E
  6
Continuous
 62
     7
100
AcDbCircle
 10
134.2972716848
 20
342.359101461
 30
0.0
 40
1.499999999999991
100
AcDbArc
 50
183.9152200453
 51
238.1782809326
  0
ARC
  5
114
330
75
100
AcDbEntity
  8
10976038_HEBEL_E
  6
Continuous
 62
     7
100
AcDbCircle
 10
145.4824660064
 20
358.9695344558
 30
0.0
 40
21.50760925252701
100
AcDbArc
 50
236.1923283395
 51
303.7928569362
  0
LINE
  5
115
330
75
100
AcDbEntity
  8
10976038_HEBEL_E
  6
Continuous
 62
     7
100
AcDbLine
 10
144.7308395189
 20
424.0939897319
 30
0.0
 11
144.7308395189
 21
424.0550185201
 31
0.0
  0
LINE
  5
116
330
75
100
AcDbEntity
  8
10976038_HEBEL_E
  6
Continuous
 62
     7
100
AcDbLine
 10
146.2107433031
 20
424.0553263227
 30
0.0
 11
146.2107433031
 21
424.0942953862
 31
0.0
  0
ENDBLK
  5
118
330
75
100
AcDbEntity
  8
0
100
AcDbBlockEnd
  0
BLOCK
  5
1A1
330
119
100
AcDbEntity
  8
0
100
AcDbBlockBegin
  2
SE1
 70
     0
 10
0.0
 20
0.0
 30
0.0
  3
SE1
  1

  0
LINE
  5
11B
330
119
100
AcDbEntity
  8
02285038_ROSETTE
  6
Continuous
 62
     7
100
AcDbLine
 10
392.9597965703
 20
373.8345464401
 30
0.0
 11
392.9597965703
 21
521.7344688615
 31
0.0
  0
LINE
  5
11C
330
119
100
AcDbEntity
  8
02285038_ROSETTE
  6
Continuous
 62
     7
100
AcDbLine
 10
385.6280631713
 20
372.84453167
 30
0.0
 11
385.6280631713
 21
522.7845076508
 31
0.0
  0
SPLINE
  5
11D
330
119
100
AcDbEntity
  8
02285038_ROSETTE
  6
Continuous
 62
     7
100
AcDbSpline
210
0.0
220
0.0
230
1.0
 70
     8
 71
     3
 72
    10
 73
     6
 74
     0
 42
0.000000001664899
 43
0.0000000001
 40
0.5002192235732257
 40
0.5002192235732257
 40
0.5002192235732257
 40
0.5002192235732257
 40
0.75
 40
0.75
 40
1.0
 40
1.0
 40
1.0
 40
1.0
 10
388.6280631425727
 20
372.9417309915407
 30
0.0
 10
388.628040238907
 20
372.9417331939053
 30
0.0
 10
388.3097983778221
 20
372.9392250930513
 30
0.0
 10
387.1905775923013
 20
372.9122774679681
 30
0.0
 10
386.4199359916106
 20
372.8860652061089
 30
0.0
 10
385.6280631712727
 20
372.8445316699901
 30
0.0
  0
LINE
  5
11E
330
119
100
AcDbEntity
  8
02285038_ROSETTE
  6
Continuous
 62
     7
100
AcDbLine
 10
398.625599093
 20
387.4908468447
 30
0.0
 11
398.625599093
 21
508.0781684568
 31
0.0
  0
ARC
  5
11F
330
119
100
AcDbEntity
  8
02285038_ROSETTE
  6
Continuous
 62
     7
100
AcDbCircle
 10
391.1683298954
 20
375.5782915914
 30
0.0
 40
2.499999999999572
100
AcDbArc
 50
273.0
 51
315.7733838776
  0
ARC
  5
120
330
119
100
AcDbEntity
  8
02285038_ROSETTE
  6
Continuous
 62
     7
100
AcDbCircle
 10
391.1683298954
 20
519.9907237101
 30
0.0
 40
2.499999999999575
100
AcDbArc
 50
44.2266161224
 51
87.0
  0
ARC
  5
121
330
119
100
AcDbEntity
  8
02285038_ROSETTE
  6
Continuous
 62
     7
100
AcDbCircle
 10
378.6280631713
 20
387.7845076508
 30
0.0
 40
19.99999999999979
100
AcDbArc
 50
315.7733838776
 51
359.0384963119
  0
ARC
  5
122
330
119
100
AcDbEntity
  8
02285038_ROSETTE
  6
Continuous
 62
     7
100
AcDbCircle
 10
378.6280631713
 20
507.7845076508
 30
0.0
 40
19.99999999999961
100
AcDbArc
 50
0.9615036881
 51
44.2266161224
  0
LINE
  5
123
330
119
100
AcDbEntity
  8
02285038_ROSETTE
  6
Continuous
 62
     7
100
AcDbLine
 10
388.5897383603
 20
372.9397224704
 30
0.0
 11
391.299169786
 21
373.0817177545
 31
0.0
  0
LINE
  5
124
330
119
100
AcDbEntity
  8
02285038_ROSETTE
  6
Continuous
 62
     7
100
AcDbLine
 10
391.299169786
 20
522.487297547
 30
0.0
 11
385.6280631713
 21
522.7845076508
 31
0.0
  0
LINE
  5
125
330
119
100
AcDbEntity
  8
$DDT_AUDIT_GENERATED_(7F)
  6
Continuous
 62
     7
100
AcDbLine
 10
421.4963097386
 20
483.7845076508
 30
0.0
 11
421.4963097386
 21
495.7845076508
 31
0.0
  0
LINE
  5
126
330
119
100
AcDbEntity
  8
$DDT_AUDIT_GENERATED_(7F)
  6
Continuous
 62
     7
100
AcDbLine
 10
419.5598180655
 20
485.2845076508
 30
0.0
 11
419.5598180655
 21
494.2845076508
 31
0.0
  0
LINE
  5
127
330
119
100
AcDbEntity
  8
$DDT_AUDIT_GENERATED_(7F)
  6
Continuous
 62
     7
100
AcDbLine
 10
424.2722943299
 20
483.7845076508
 30
0.0
 11
424.2722943299
 21
495.7845076508
 31
0.0
  0
ARC
  5
128
330
119
100
AcDbEntity
  8
$DDT_AUDIT_GENERATED_(7F)
  6
Continuous
 62
     7
100
AcDbCircle
 10
375.5280639021
 20
489.7845076508
 30
0.0
 40
49.99999999999999
100
AcDbArc
 50
354.1432980901
 51
5.8567019099
  0
LINE
  5
129
330
119
100
AcDbEntity
  8
$DDT_AUDIT_GENERATED_(7F)
  6
Continuous
 62
     7
100
AcDbLine
 10
421.4963097386
 20
483.7845076508
 30
0.0
 11
424.2722943299
 21
483.7845076508
 31
0.0
  0
LINE
  5
12A
330
119
100
AcDbEntity
  8
$DDT_AUDIT_GENERATED_(7F)
  6
Continuous
 62
     7
100
AcDbLine
 10
424.2722943299
 20
495.7845076508
 30
0.0
 11
421.4963097386
 21
495.7845076508
 31
0.0
  0
ARC
  5
12B
330
119
100
AcDbEntity
  8
$DDT_AUDIT_GENERATED_(7F)
  6
Continuous
 62
     7
100
AcDbCircle
 10
421.4963097386
 20
484.7845076508
 30
0.0
 40
1.000000000000003
100
AcDbArc
 50
194.4775121859
 51
270.0
  0
ARC
  5
12C
330
119
100
AcDbEntity
  8
$DDT_AUDIT_GENERATED_(7F)
  6
Continuous
 62
     7
100
AcDbCircle
 10
421.4963097386
 20
494.7845076508
 30
0.0
 40
0.999999999999994
100
AcDbArc
 50
90.0
 51
165.5224878141
  0
ARC
  5
12D
330
119
100
AcDbEntity
  8
$DDT_AUDIT_GENERATED_(7F)
  6
Continuous
 62
     7
100
AcDbCircle
 10
419.5598180655
 20
484.2845076508
 30
0.0
 40
1.000000000000001
100
AcDbArc
 50
14.4775121859
 51
90.0
  0
ARC
  5
12E
330
119
100
AcDbEntity
  8
$DDT_AUDIT_GENERATED_(7F)
  6
Continuous
 62
     7
100
AcDbCircle
 10
419.5598180655
 20
495.2845076508
 30
0.0
 40
1.000000000000008
100
AcDbArc
 50
270.0
 51
345.5224878141
  0
LINE
  5
12F
330
119
100
AcDbEntity
  8
$DDT_AUDIT_GENERATED_(7F)
  6
Continuous
 62
     7
100
AcDbLine
 10
405.1280631713
 20
485.2845076508
 30
0.0
 11
419.5598180655
 21
485.2845076508
 31
0.0
  0
LINE
  5
130
330
119
100
AcDbEntity
  8
$DDT_AUDIT_GENERATED_(7F)
  6
Continuous
 62
     7
100
AcDbLine
 10
419.5598180655
 20
494.2845076508
 30
0.0
 11
405.1280631713
 21
494.2845076508
 31
0.0
  0
ARC
  5
131
330
119
100
AcDbEntity
  8
$DDT_AUDIT_GENERATED_(7F)
  6
Continuous
 62
     7
100
AcDbCircle
 10
424.2722943299
 20
484.7845076508
 30
0.0
 40
1.000000000000001
100
AcDbArc
 50
270.0
 51
354.1432980901
  0
ARC
  5
132
330
119
100
AcDbEntity
  8
$DDT_AUDIT_GENERATED_(7F)
  6
Continuous
 62
     7
100
AcDbCircle
 10
424.2722943299
 20
494.7845076508
 30
0.0
 40
0.9999999999999931
100
AcDbArc
 50
5.8567019099
 51
90.0
  0
LINE
  5
134
330
119
100
AcDbEntity
  8
$DDT_AUDIT_GENERATED_(133)
  6
Continuous
 62
     7
100
AcDbLine
 10
405.1280631713
 20
495.4845076508
 30
0.0
 11
405.1280631713
 21
484.0845076508
 31
0.0
  0
LINE
  5
135
330
119
100
AcDbEntity
  8
$DDT_AUDIT_GENERATED_(133)
  6
Continuous
 62
     7
100
AcDbLine
 10
398.625599093
 20
483.7845076508
 30
0.0
 11
404.8280631713
 21
483.7845076508
 31
0.0
  0
LINE
  5
136
330
119
100
AcDbEntity
  8
$DDT_AUDIT_GENERATED_(133)
  6
Continuous
 62
     7
100
AcDbLine
 10
404.8280631713
 20
495.7845076508
 30
0.0
 11
398.625599093
 21
495.7845076508
 31
0.0
  0
ARC
  5
137
330
119
100
AcDbEntity
  8
$DDT_AUDIT_GENERATED_(133)
  6
Continuous
 62
     7
100
AcDbCircle
 10
404.8280631713
 20
484.0845076508
 30
0.0
 40
0.3000000000000017
100
AcDbArc
 50
270.0
 51
0.0
  0
ARC
  5
138
330
119
100
AcDbEntity
  8
$DDT_AUDIT_GENERATED_(133)
  6
Continuous
 62
     7
100
AcDbCircle
 10
404.8280631713
 20
495.4845076508
 30
0.0
 40
0.3000000000000017
100
AcDbArc
 50
0.0
 51
90.0
  0
ARC
  5
13A
330
119
100
AcDbEntity
  8
02693038_KAPPE__
  6
Continuous
 62
     7
100
AcDbCircle
 10
409.7280631713
 20
434.7845076508
 30
0.0
 40
25.87500000000042
100
AcDbArc
 50
72.2220047802
 51
89.5
  0
ARC
  5
13B
330
119
100
AcDbEntity
  8
02693038_KAPPE__
  6
Continuous
 62
     7
100
AcDbCircle
 10
409.7280631713
 20
434.7845076508
 30
0.0
 40
25.87500000000077
100
AcDbArc
 50
270.5
 51
287.8186226715
  0
LINE
  5
13C
330
119
100
AcDbEntity
  8
02693038_KAPPE__
  6
Continuous
 62
     7
100
AcDbLine
 10
409.9538622773
 20
460.6585224101
 30
0.0
 11
398.625599093
 21
460.7573826652
 31
0.0
  0
LINE
  5
13D
330
119
100
AcDbEntity
  8
02693038_KAPPE__
  6
Continuous
 62
     7
100
AcDbLine
 10
398.7000946784
 20
408.8122827495
 30
0.0
 11
409.9538622773
 21
408.9104928915
 31
0.0
  0
LINE
  5
13E
330
119
100
AcDbEntity
  8
02700V31_DICHTUN
  6
Continuous
 62
     7
100
AcDbLine
 10
398.625599093
 20
410.2337431969
 30
0.0
 11
398.7496593363
 21
407.8665327362
 31
0.0
  0
LINE
  5
13F
330
119
100
AcDbEntity
  8
02700V31_DICHTUN
  6
Continuous
 62
     7
100
AcDbLine
 10
398.625599093
 20
407.8600310144
 30
0.0
 11
398.7496593363
 21
407.8665327362
 31
0.0
  0
LINE
  5
140
330
119
100
AcDbEntity
  8
10976038_HEBEL_E
  6
Continuous
 62
     7
100
AcDbLine
 10
439.9367114907
 20
405.0216391738
 30
0.0
 11
433.3517600008
 21
405.6126429832
 31
0.0
  0
SPLINE
  5
141
330
119
100
AcDbEntity
  8
10976038_HEBEL_E
  6
Continuous
 62
     7
100
AcDbSpline
210
0.0
220
0.0
230
1.0
 70
     8
 71
     3
 72
    14
 73
    10
 74
     0
 42
0.0000000008960036
 43
0.0000000001
 40
0.0
 40
0.0
 40
0.0
 40
0.0
 40
0.1250000000000001
 40
0.1250000000000001
 40
0.2500000000000001
 40
0.2500000000000001
 40
0.3750000000000001
 40
0.3750000000000001
 40
0.4990741532591664
 40
0.4990741532591664
 40
0.4990741532591664
 40
0.4990741532591664
 10
455.4095048093174
 20
341.5705960316942
 30
0.0
 10
454.8252046338017
 20
342.0858201183545
 30
0.0
 10
454.2802667513304
 20
342.5702407237252
 30
0.0
 10
453.2885592769358
 20
343.4570435160115
 30
0.0
 10
452.8382686757517
 20
343.8626383034922
 30
0.0
 10
452.0902828129123
 20
344.5393419511265
 30
0.0
 10
451.790922058478
 20
344.8118703480406
 30
0.0
 10
451.3775159261162
 20
345.1889647274695
 30
0.0
 10
451.2667262223981
 20
345.2904742427202
 30
0.0
 10
451.2651551091773
 20
345.2919305459797
 30
0.0
  0
ARC
  5
142
330
119
100
AcDbEntity
  8
10976038_HEBEL_E
  6
Continuous
 62
     7
100
AcDbCircle
 10
432.7880211385
 20
336.9863541563
 30
0.0
 40
23.08130839106456
100
AcDbArc
 50
2.8124051733
 51
11.4558474931
  0
ARC
  5
143
330
119
100
AcDbEntity
  8
10976038_HEBEL_E
  6
Continuous
 62
     7
100
AcDbCircle
 10
336.8724262601
 20
371.0173565206
 30
0.0
 40
123.6271671867345
100
AcDbArc
 50
28.9429928503
 51
47.1597823314
  0
ARC
  5
144
330
119
100
AcDbEntity
  8
10976038_HEBEL_E
  6
Continuous
 62
     7
100
AcDbCircle
 10
19.4754325504
 20
181.817319582
 30
0.0
 40
493.0883780683327
100
AcDbArc
 50
28.63506095
 51
30.3338341167
  0
ARC
  5
145
330
119
100
AcDbEntity
  8
10976038_HEBEL_E
  6
Continuous
 62
     7
100
AcDbCircle
 10
411.3823196082
 20
395.6859211876
 30
0.0
 40
46.62373780687319
100
AcDbArc
 50
14.2090236801
 51
28.7614524596
  0
ARC
  5
146
330
119
100
AcDbEntity
  8
10976038_HEBEL_E
  6
Continuous
 62
     7
100
AcDbCircle
 10
285.2009907971
 20
370.6408004504
 30
0.0
 40
175.2202375926037
100
AcDbArc
 50
350.6441731626
 51
12.0197412036
  0
SPLINE
  5
147
330
119
100
AcDbEntity
  8
10976038_HEBEL_E
  6
Continuous
 62
     7
100
AcDbSpline
210
0.0
220
0.0
230
1.0
 70
     8
 71
     3
 72
    12
 73
     8
 74
     0
 42
0.0000000014539881
 43
0.0000000001
 40
0.0
 40
0.0
 40
0.0
 40
0.0
 40
0.2499999999999998
 40
0.2499999999999998
 40
0.4999999999999999
 40
0.4999999999999999
 40
0.501470292086613
 40
0.501470292086613
 40
0.501470292086613
 40
0.501470292086613
 10
458.0904115265322
 20
342.1560701228303
 30
0.0
 10
458.2361445623749
 20
341.1011580359352
 30
0.0
 10
458.3544598035977
 20
340.2500730617763
 30
0.0
 10
458.5203089427583
 20
339.0611466734362
 30
0.0
 10
458.5651086015912
 20
338.7426628386626
 30
0.0
 10
458.5656841675487
 20
338.7400653989719
 30
0.0
 10
458.5656859790258
 20
338.7400613177456
 30
0.0
 10
458.5656862383103
 20
338.7400683316296
 30
0.0
  0
ARC
  5
148
330
119
100
AcDbEntity
  8
10976038_HEBEL_E
  6
Continuous
 62
     7
100
AcDbCircle
 10
277.1357007222
 20
370.7655114906
 30
0.0
 40
180.558815413889
100
AcDbArc
 50
350.9752217431
 51
11.3945630126
  0
ARC
  5
149
330
119
100
AcDbEntity
  8
10976038_HEBEL_E
  6
Continuous
 62
     7
100
AcDbCircle
 10
422.7859783191
 20
432.0140259918
 30
0.0
 40
31.98073440696369
100
AcDbArc
 50
302.4308802134
 51
302.4322744988
  0
ARC
  5
14A
330
119
100
AcDbEntity
  8
10976038_HEBEL_E
  6
Continuous
 62
     7
100
AcDbCircle
 10
397.8563063507
 20
395.2746700373
 30
0.0
 40
57.37575651798309
100
AcDbArc
 50
11.2188109848
 51
22.1774111027
  0
ARC
  5
14B
330
119
100
AcDbEntity
  8
10976038_HEBEL_E
  6
Continuous
 62
     7
100
AcDbCircle
 10
65.7542457303
 20
221.5889303838
 30
0.0
 40
431.9302290088815
100
AcDbArc
 50
26.8886167757
 51
28.8705856865
  0
ARC
  5
14C
330
119
100
AcDbEntity
  8
10976038_HEBEL_E
  6
Continuous
 62
     7
100
AcDbCircle
 10
334.9515340823
 20
373.496370196
 30
0.0
 40
122.8827433867359
100
AcDbArc
 50
27.4483603708
 51
45.9593692506
  0
LINE
  5
14D
330
119
100
AcDbEntity
  8
10976038_HEBEL_E
  6
Continuous
 62
     7
100
AcDbLine
 10
420.6341235221
 20
461.757499402
 30
0.0
 11
420.3780126835
 21
461.8316797191
 31
0.0
  0
ELLIPSE
  5
14E
330
119
100
AcDbEntity
  8
10976038_HEBEL_E
  6
Continuous
 62
     7
100
AcDbEllipse
 10
456.6250000331
 20
342.359101461
 30
0.0
 11
-0.9983823949331476
 21
-1.119478715066888
 31
0.0
210
0.0
220
0.0
230
1.0
 40
0.701542028
 41
5.208057594208773
 42
5.911355323044718
  0
ELLIPSE
  5
14F
330
119
100
AcDbEntity
  8
10976038_HEBEL_E
  6
Continuous
 62
     7
100
AcDbEllipse
 10
456.6250000331
 20
342.359101461
 30
0.0
 11
1.486746492853241
 21
0.1989594581528337
 31
0.0
210
0.0
220
0.0
230
1.0
 40
0.847585472
 41
3.651284181654192
 42
5.966766108487855
  0
LINE
  5
150
330
119
100
AcDbEntity
  8
10976038_HEBEL_E
  6
Continuous
 62
     7
100
AcDbLine
 10
426.6035152397
 20
406.3493055475
 30
0.0
 11
417.8851947119
 21
407.4973570258
 31
0.0
  0
LINE
  5
151
330
119
100
AcDbEntity
  8
10976038_HEBEL_E
  6
Continuous
 62
     7
100
AcDbLine
 10
433.3517600008
 20
405.6126429832
 30
0.0
 11
433.3512035485
 21
405.6125734993
 31
0.0
  0
ARC
  5
152
330
119
100
AcDbEntity
  8
10976038_HEBEL_E
  6
Continuous
 62
     7
100
AcDbCircle
 10
426.1576070801
 20
370.9960381684
 30
0.0
 40
35.35607937072734
100
AcDbArc
 50
78.2605558761
 51
89.2773708681
  0
LINE
  5
153
330
119
100
AcDbEntity
  8
10976038_HEBEL_E
  6
Continuous
 62
     7
100
AcDbLine
 10
417.6280631713
 20
434.7639056205
 30
0.0
 11
417.6280631713
 21
461.7151328041
 31
0.0
  0
LINE
  5
154
330
119
100
AcDbEntity
  8
10976038_HEBEL_E
  6
Continuous
 62
     7
100
AcDbLine
 10
417.6280631713
 20
407.7942782191
 30
0.0
 11
417.6280631713
 21
434.7639056205
 31
0.0
  0
LINE
  5
155
330
119
100
AcDbEntity
  8
10976038_HEBEL_E
  6
Continuous
 62
     7
100
AcDbLine
 10
418.1028977539
 20
462.0028105832
 30
0.0
 11
420.3780102121
 21
461.8316834429
 31
0.0
  0
ARC
  5
156
330
119
100
AcDbEntity
  8
10976038_HEBEL_E
  6
Continuous
 62
     7
100
AcDbCircle
 10
417.9280631611
 20
461.715132793
 30
0.0
 40
0.2999999898532517
100
AcDbArc
 50
86.3442532167
 51
179.9999978864
  0
ARC
  5
157
330
119
100
AcDbEntity
  8
10976038_HEBEL_E
  6
Continuous
 62
     7
100
AcDbCircle
 10
417.9280630555
 20
407.7942782875
 30
0.0
 40
0.2999998841848722
100
AcDbArc
 50
180.0000130645
 51
261.7846247606
  0
SPLINE
  5
158
330
119
100
AcDbEntity
  8
10976038_HEBEL_E
  6
Continuous
 62
     7
100
AcDbSpline
210
0.0
220
0.0
230
1.0
 70
     8
 71
     3
 72
    20
 73
    16
 74
     0
 42
0.0000000083459436
 43
0.0000000001
 40
0.0
 40
0.0
 40
0.0
 40
0.0
 40
0.1249999999999997
 40
0.1249999999999997
 40
0.2499999999999994
 40
0.2499999999999994
 40
0.3749999999999992
 40
0.3749999999999992
 40
0.4999999999999989
 40
0.4999999999999989
 40
0.6249999999999987
 40
0.6249999999999987
 40
0.7499999999999983
 40
0.7499999999999983
 40
1.0
 40
1.0
 40
1.0
 40
1.0
 10
453.7445726628608
 20
424.0333731465672
 30
0.0
 10
453.7741426601478
 20
423.9583572868615
 30
0.0
 10
453.8039157704822
 20
423.8842614094825
 30
0.0
 10
453.8640902067867
 20
423.7386130446511
 30
0.0
 10
453.8949035231872
 20
423.666190482204
 30
0.0
 10
453.9547357112556
 20
423.5305239869253
 30
0.0
 10
453.9837824573001
 20
423.4672760965395
 30
0.0
 10
454.040889245041
 20
423.3452133676785
 30
0.0
 10
454.0692663173688
 20
423.285914912226
 30
0.0
 10
454.120049771002
 20
423.1873960580862
 30
0.0
 10
454.1429406437314
 20
423.1471516740796
 30
0.0
 10
454.1838121339705
 20
423.0807685129064
 30
0.0
 10
454.20167956732
 20
423.0547803884812
 30
0.0
 10
454.2485824002751
 20
422.9953315381159
 30
0.0
 10
454.2703747239949
 20
422.9813541359533
 30
0.0
 10
454.2837245432659
 20
422.9877170011903
 30
0.0
  0
SPLINE
  5
159
330
119
100
AcDbEntity
  8
10976038_HEBEL_E
  6
Continuous
 62
     7
100
AcDbSpline
210
0.0
220
0.0
230
1.0
 70
     8
 71
     3
 72
    10
 73
     6
 74
     0
 42
0.0000000364911423
 43
0.0000000001
 40
0.0
 40
0.0
 40
0.0
 40
0.0
 40
0.5
 40
0.5
 40
1.0
 40
1.0
 40
1.0
 40
1.0
 10
454.2837245432659
 20
422.9877170011903
 30
0.0
 10
454.2998124991287
 20
422.9905537412807
 30
0.0
 10
454.3070737058136
 20
423.0136076583927
 30
0.0
 10
454.3043736707501
 20
423.0993558918655
 30
0.0
 10
454.2941638113641
 20
423.1625922739098
 30
0.0
 10
454.2753281998224
 20
423.244131566851
 30
0.0
  0
LINE
  5
15A
330
119
100
AcDbEntity
  8
10976038_HEBEL_E
  6
Continuous
 62
     7
100
AcDbLine
 10
454.2753281998
 20
423.2441315669
 30
0.0
 11
453.9559517642
 21
424.0705297665
 31
0.0
  0
LINE
  5
15B
330
119
100
AcDbEntity
  8
10976038_HEBEL_E
  6
Continuous
 62
     7
100
AcDbLine
 10
453.9559517642
 20
424.0705297665
 30
0.0
 11
453.9105316004
 21
424.0625209679
 31
0.0
  0
LINE
  5
15C
330
119
100
AcDbEntity
  8
10976038_HEBEL_E
  6
Continuous
 62
     7
100
AcDbLine
 10
453.9105316004
 20
424.0625209679
 30
0.0
 11
454.1405800585
 21
423.4703577743
 31
0.0
  0
SPLINE
  5
15D
330
119
100
AcDbEntity
  8
10976038_HEBEL_E
  6
Continuous
 62
     7
100
AcDbSpline
210
0.0
220
0.0
230
1.0
 70
     8
 71
     3
 72
     8
 73
     4
 74
     0
 42
0.0000000794589204
 43
0.0000000001
 40
0.0
 40
0.0
 40
0.0
 40
0.0
 40
1.0
 40
1.0
 40
1.0
 40
1.0
 10
454.1405800585494
 20
423.4703577742896
 30
0.0
 10
454.1544802202379
 20
423.3992722184782
 30
0.0
 10
454.1536822829273
 20
423.3614328289605
 30
0.0
 10
454.1383339897333
 20
423.3588054188542
 30
0.0
  0
SPLINE
  5
15E
330
119
100
AcDbEntity
  8
10976038_HEBEL_E
  6
Continuous
 62
     7
100
AcDbSpline
210
0.0
220
0.0
230
1.0
 70
     8
 71
     3
 72
    16
 73
    12
 74
     0
 42
0.0000000129428798
 43
0.0000000001
 40
0.0
 40
0.0
 40
0.0
 40
0.0
 40
0.2499999999999989
 40
0.2499999999999989
 40
0.4999999999999979
 40
0.4999999999999979
 40
0.6249999999999973
 40
0.6249999999999973
 40
0.7499999999999969
 40
0.7499999999999969
 40
1.0
 40
1.0
 40
1.0
 40
1.0
 10
454.1383339897333
 20
423.3588054188542
 30
0.0
 10
454.1309185467429
 20
423.3544353276871
 30
0.0
 10
454.1160061843241
 20
423.3690738605982
 30
0.0
 10
454.0722896193164
 20
423.4390780250851
 30
0.0
 10
454.0435377960919
 20
423.4941889444595
 30
0.0
 10
453.9949369093254
 20
423.5999622024414
 30
0.0
 10
453.9781665444777
 20
423.6376933289167
 30
0.0
 10
453.9447531143517
 20
423.7136885947371
 30
0.0
 10
453.9279027938371
 20
423.7528107055297
 30
0.0
 10
453.8768750999495
 20
423.8741253390449
 30
0.0
 10
453.8424965114963
 20
423.9594895609026
 30
0.0
 10
453.8089880274408
 20
424.0446160999762
 30
0.0
  0
SPLINE
  5
15F
330
119
100
AcDbEntity
  8
10976038_HEBEL_E
  6
Continuous
 62
     7
100
AcDbSpline
210
0.0
220
0.0
230
1.0
 70
     8
 71
     3
 72
    16
 73
    12
 74
     0
 42
0.0000000132290553
 43
0.0000000001
 40
0.0
 40
0.0
 40
0.0
 40
0.0
 40
0.2499999999999952
 40
0.2499999999999952
 40
0.3749999999999959
 40
0.3749999999999959
 40
0.4999999999999966
 40
0.4999999999999966
 40
0.7499999999999983
 40
0.7499999999999983
 40
1.0
 40
1.0
 40
1.0
 40
1.0
 10
453.8089880274408
 20
424.0446160999762
 30
0.0
 10
453.7717315097777
 20
424.1393358387398
 30
0.0
 10
453.7356358369668
 20
424.2344593861382
 30
0.0
 10
453.6885048794941
 20
424.3681540081724
 30
0.0
 10
453.6743471808212
 20
424.4101935852381
 30
0.0
 10
453.6476661181125
 20
424.4915229366675
 30
0.0
 10
453.6347949028666
 20
424.53174123473
 30
0.0
 10
453.6049798174343
 20
424.634801750022
 30
0.0
 10
453.5962844528208
 20
424.6810709306681
 30
0.0
 10
453.5920029426962
 20
424.7410386990097
 30
0.0
 10
453.5971078035768
 20
424.7537744860917
 30
0.0
 10
453.6073131868245
 20
424.7529387623819
 30
0.0
  0
SPLINE
  5
160
330
119
100
AcDbEntity
  8
10976038_HEBEL_E
  6
Continuous
 62
     7
100
AcDbSpline
210
0.0
220
0.0
230
1.0
 70
     8
 71
     3
 72
    10
 73
     6
 74
     0
 42
0.0000000363151899
 43
0.0000000001
 40
0.0
 40
0.0
 40
0.0
 40
0.0
 40
0.5
 40
0.5
 40
1.0
 40
1.0
 40
1.0
 40
1.0
 10
453.6073131868245
 20
424.7529387623819
 30
0.0
 10
453.6203452685238
 20
424.755230435536
 30
0.0
 10
453.6403265689788
 20
424.7378622267589
 30
0.0
 10
453.6936709133022
 20
424.6652878728046
 30
0.0
 10
453.72670573723
 20
424.6102979932346
 30
0.0
 10
453.7650392766095
 20
424.5384436858622
 30
0.0
  0
LINE
  5
161
330
119
100
AcDbEntity
  8
10976038_HEBEL_E
  6
Continuous
 62
     7
100
AcDbLine
 10
453.7650392766
 20
424.5384436859
 30
0.0
 11
453.6059936568
 21
424.9341737431
 31
0.0
  0
SPLINE
  5
162
330
119
100
AcDbEntity
  8
10976038_HEBEL_E
  6
Continuous
 62
     7
100
AcDbSpline
210
0.0
220
0.0
230
1.0
 70
     8
 71
     3
 72
    10
 73
     6
 74
     0
 42
0.0000000389912951
 43
0.0000000001
 40
0.0
 40
0.0
 40
0.0
 40
0.0
 40
0.5
 40
0.5
 40
1.0
 40
1.0
 40
1.0
 40
1.0
 10
453.6059936568328
 20
424.9341737430842
 30
0.0
 10
453.568178885067
 20
424.9982493272693
 30
0.0
 10
453.5358841576046
 20
425.0458053353804
 30
0.0
 10
453.4820020456625
 20
425.1086635484907
 30
0.0
 10
453.4603771791996
 20
425.1237545522688
 30
0.0
 10
453.4451922363254
 20
425.1210770377188
 30
0.0
  0
SPLINE
  5
163
330
119
100
AcDbEntity
  8
10976038_HEBEL_E
  6
Continuous
 62
     7
100
AcDbSpline
210
0.0
220
0.0
230
1.0
 70
     8
 71
     3
 72
    20
 73
    16
 74
     0
 42
0.0000000086221256
 43
0.0000000001
 40
0.0
 40
0.0
 40
0.0
 40
0.0
 40
0.2499999999999996
 40
0.2499999999999996
 40
0.3749999999999997
 40
0.3749999999999997
 40
0.4999999999999998
 40
0.4999999999999998
 40
0.6249999999999999
 40
0.6249999999999999
 40
0.7499999999999999
 40
0.7499999999999999
 40
0.875
 40
0.875
 40
1.0
 40
1.0
 40
1.0
 40
1.0
 10
453.4451922363254
 20
425.1210770377188
 30
0.0
 10
453.42883974529
 20
425.1221566581211
 30
0.0
 10
453.4198916143608
 20
425.1039750867441
 30
0.0
 10
453.4221182873257
 20
425.037267445269
 30
0.0
 10
453.4255645508928
 20
425.008338598533
 30
0.0
 10
453.4385831408916
 20
424.9370451426369
 30
0.0
 10
453.4483400817931
 20
424.8937094735072
 30
0.0
 10
453.4768212160449
 20
424.790258371041
 30
0.0
 10
453.4956296577124
 20
424.729723271098
 30
0.0
 10
453.5362585340942
 20
424.6031708940374
 30
0.0
 10
453.5577361922299
 20
424.5380588001868
 30
0.0
 10
453.6054261957482
 20
424.4008379395287
 30
0.0
 10
453.631820170178
 20
424.3280860393656
 30
0.0
 10
453.6868218920371
 20
424.1814162141219
 30
0.0
 10
453.7153492701628
 20
424.1075784831177
 30
0.0
 10
453.7445726628608
 20
424.0333731465672
 30
0.0
  0
LINE
  5
164
330
119
100
AcDbEntity
  8
10976038_HEBEL_E
  6
Continuous
 62
     7
100
AcDbLine
 10
453.383805497
 20
424.8949959839
 30
0.0
 11
453.6059936568
 21
424.9341737431
 31
0.0
  0
LINE
  5
165
330
119
100
AcDbEntity
  8
10976038_HEBEL_E
  6
Continuous
 62
     7
100
AcDbLine
 10
454.0541123529
 20
423.2051252526
 30
0.0
 11
454.2753281998
 21
423.2441315669
 31
0.0
  0
ARC
  5
166
330
119
100
AcDbEntity
  8
10976038_HEBEL_E
  6
Continuous
 62
     7
100
AcDbCircle
 10
447.0121201622
 20
421.6138356084
 30
0.0
 40
7.483665646637943
100
AcDbArc
 50
17.7098208033
 51
22.4229574298
  0
SPLINE
  5
167
330
119
100
AcDbEntity
  8
10976038_HEBEL_E
  6
Continuous
 62
     7
100
AcDbSpline
210
0.0
220
0.0
230
1.0
 70
     8
 71
     3
 72
    16
 73
    12
 74
     0
 42
0.0000000144164746
 43
0.0000000001
 40
0.0
 40
0.0
 40
0.0
 40
0.0
 40
0.2500000000000003
 40
0.2500000000000003
 40
0.3749999999999986
 40
0.3749999999999986
 40
0.4999999999999968
 40
0.4999999999999968
 40
0.7499999999999984
 40
0.7499999999999984
 40
1.0
 40
1.0
 40
1.0
 40
1.0
 10
453.9299703290001
 20
424.4684109850916
 30
0.0
 10
453.8937755258536
 20
424.5596807776515
 30
0.0
 10
453.8576305213264
 20
424.6490346114016
 30
0.0
 10
453.8056690401796
 20
424.7733501297541
 30
0.0
 10
453.7893922186846
 20
424.8115621379857
 30
0.0
 10
453.7577128854173
 20
424.8850825867719
 30
0.0
 10
453.7423023989612
 20
424.9202696238464
 30
0.0
 10
453.7032070587454
 20
425.0061799303575
 30
0.0
 10
453.6846886416426
 20
425.0423226188645
 30
0.0
 10
453.6577780035916
 20
425.087823482223
 30
0.0
 10
453.6496530430661
 20
425.096169402625
 30
0.0
 10
453.6458442403181
 20
425.0932021319329
 30
0.0
  0
LINE
  5
168
330
119
100
AcDbEntity
  8
10976038_HEBEL_E
  6
Continuous
 62
     7
100
AcDbLine
 10
453.6458442403
 20
425.0932021319
 30
0.0
 11
453.5867100424
 21
425.0827751795
 31
0.0
  0
LINE
  5
169
330
119
100
AcDbEntity
  8
10976038_HEBEL_E
  6
Continuous
 62
     7
100
AcDbLine
 10
453.7070244704
 20
424.7758965866
 30
0.0
 11
454.3768577455
 21
423.0673941545
 31
0.0
  0
LINE
  5
16A
330
119
100
AcDbEntity
  8
10976038_HEBEL_E
  6
Continuous
 62
     7
100
AcDbLine
 10
454.3768577455
 20
423.0673941545
 30
0.0
 11
454.4111026734
 21
423.073432458
 31
0.0
  0
LINE
  5
16B
330
119
100
AcDbEntity
  8
10976038_HEBEL_E
  6
Continuous
 62
     7
100
AcDbLine
 10
454.4111026734
 20
423.073432458
 30
0.0
 11
453.7766598812
 21
424.7043760901
 31
0.0
  0
LINE
  5
16C
330
119
100
AcDbEntity
  8
10976038_HEBEL_E
  6
Continuous
 62
     7
100
AcDbLine
 10
453.7766598812
 20
424.7043760901
 30
0.0
 11
453.7959882366
 21
424.7077842
 31
0.0
  0
SPLINE
  5
16D
330
119
100
AcDbEntity
  8
10976038_HEBEL_E
  6
Continuous
 62
     7
100
AcDbSpline
210
0.0
220
0.0
230
1.0
 70
     8
 71
     3
 72
    12
 73
     8
 74
     0
 42
0.0000000284355948
 43
0.0000000001
 40
0.0
 40
0.0
 40
0.0
 40
0.0
 40
0.2499999999999991
 40
0.2499999999999991
 40
0.4999999999999981
 40
0.4999999999999981
 40
1.0
 40
1.0
 40
1.0
 40
1.0
 10
453.7959882365462
 20
424.7077841999267
 30
0.0
 10
453.7977418451267
 20
424.7093755583068
 30
0.0
 10
453.8022374802739
 20
424.7039559557472
 30
0.0
 10
453.817632390251
 20
424.6760034670152
 30
0.0
 10
453.8283826349248
 20
424.6539240412484
 30
0.0
 10
453.8705425082587
 20
424.5585593430973
 30
0.0
 10
453.9052018732514
 20
424.4743415716747
 30
0.0
 10
453.9384853460281
 20
424.3902334566891
 30
0.0
  0
ARC
  5
16E
330
119
100
AcDbEntity
  8
10976038_HEBEL_E
  6
Continuous
 62
     7
100
AcDbCircle
 10
451.8786585146
 20
423.4914564667
 30
0.0
 40
2.247373278601371
100
AcDbArc
 50
14.8548755358
 51
23.5733851273
  0
LINE
  5
16F
330
119
100
AcDbEntity
  8
10976038_HEBEL_E
  6
Continuous
 62
     7
100
AcDbLine
 10
454.0509207347
 20
424.0676192044
 30
0.0
 11
454.034178788
 21
424.0646671481
 31
0.0
  0
LINE
  5
170
330
119
100
AcDbEntity
  8
10976038_HEBEL_E
  6
Continuous
 62
     7
100
AcDbLine
 10
454.034178788
 20
424.0646671481
 30
0.0
 11
454.4516517117
 21
423.080582346
 31
0.0
  0
LINE
  5
171
330
119
100
AcDbEntity
  8
10976038_HEBEL_E
  6
Continuous
 62
     7
100
AcDbLine
 10
454.4516517117
 20
423.080582346
 30
0.0
 11
454.4748817705
 21
423.0846784312
 31
0.0
  0
LINE
  5
172
330
119
100
AcDbEntity
  8
10976038_HEBEL_E
  6
Continuous
 62
     7
100
AcDbLine
 10
454.4748817704
 20
423.0846784312
 30
0.0
 11
454.1411300622
 21
423.8903393658
 31
0.0
  0
SPLINE
  5
173
330
119
100
AcDbEntity
  8
10976038_HEBEL_E
  6
Continuous
 62
     7
100
AcDbSpline
210
0.0
220
0.0
230
1.0
 70
     8
 71
     3
 72
    14
 73
    10
 74
     0
 42
0.0000000025359681
 43
0.0000000001
 40
0.107498250723449
 40
0.107498250723449
 40
0.107498250723449
 40
0.107498250723449
 40
0.1434439079481527
 40
0.1434439079481527
 40
0.1434439079481527
 40
0.1970747790606938
 40
0.1970747790606938
 40
0.1970747790606938
 40
0.2019722956963508
 40
0.2019722956963508
 40
0.2019722956963508
 40
0.2019722956963508
 10
454.3730615833081
 20
423.3826232481563
 30
0.0
 10
454.3986142283202
 20
423.3187547899659
 30
0.0
 10
454.421602413593
 20
423.2614766196387
 30
0.0
 10
454.4412608867372
 20
423.2125616083641
 30
0.0
 10
454.4705708532211
 20
423.1396313593813
 30
0.0
 10
454.4932239997361
 20
423.0834242363014
 30
0.0
 10
454.508038086887
 20
423.0465544346365
 30
0.0
 10
454.5093892206034
 20
423.0431916872976
 30
0.0
 10
454.5106780943824
 20
423.039982363741
 30
0.0
 10
454.5119044941957
 20
423.0369269305874
 30
0.0
  0
SPLINE
  5
174
330
119
100
AcDbEntity
  8
10976038_HEBEL_E
  6
Continuous
 62
     7
100
AcDbSpline
210
0.0
220
0.0
230
1.0
 70
     8
 71
     3
 72
    38
 73
    34
 74
     0
 42
0.0000000021093908
 43
0.0000000001
 40
0.2498559360701952
 40
0.2498559360701952
 40
0.2498559360701952
 40
0.2498559360701952
 40
0.2554918407796158
 40
0.2554918407796158
 40
0.2554918407796158
 40
0.3171578837183785
 40
0.3171578837183785
 40
0.3171578837183785
 40
0.3786113276363149
 40
0.3786113276363149
 40
0.3786113276363149
 40
0.4359884726249879
 40
0.4359884726249879
 40
0.4359884726249879
 40
0.4876140618032368
 40
0.4876140618032368
 40
0.4876140618032368
 40
0.5349737567747124
 40
0.5349737567747124
 40
0.5349737567747124
 40
0.5811468964002181
 40
0.5811468964002181
 40
0.5811468964002181
 40
0.6291107662734593
 40
0.6291107662734593
 40
0.6291107662734593
 40
0.6810795087595043
 40
0.6810795087595043
 40
0.6810795087595043
 40
0.7380877315823164
 40
0.7380877315823164
 40
0.7380877315823164
 40
0.749740005102198
 40
0.749740005102198
 40
0.749740005102198
 40
0.749740005102198
 10
454.5297603862147
 20
422.991875140629
 30
0.0
 10
454.5297423291029
 20
422.991873281064
 30
0.0
 10
454.529638768667
 20
422.9920812550102
 30
0.0
 10
454.5294493787444
 20
422.9924997735619
 30
0.0
 10
454.5273803706633
 20
422.9970719189727
 30
0.0
 10
454.5149821232953
 20
423.0269736379361
 30
0.0
 10
454.4929873044869
 20
423.0806839243107
 30
0.0
 10
454.4710974766994
 20
423.1341378276773
 30
0.0
 10
454.4389591119651
 20
423.2130053620681
 30
0.0
 10
454.3989831129741
 20
423.311939697797
 30
0.0
 10
454.3616611957924
 20
423.4043055967791
 30
0.0
 10
454.316244541339
 20
423.5173219537355
 30
0.0
 10
454.2669412845366
 20
423.6410760633844
 30
0.0
 10
454.2225042928299
 20
423.7526155579496
 30
0.0
 10
454.1735249860498
 20
423.8763789265517
 30
0.0
 10
454.1247492771866
 20
424.0006300429212
 30
0.0
 10
454.0799022150665
 20
424.1148733345965
 30
0.0
 10
454.0339574610393
 20
424.2327641473672
 30
0.0
 10
453.9908725360925
 20
424.3441013819034
 30
0.0
 10
453.948805399628
 20
424.4528085142612
 30
0.0
 10
453.9083477946729
 20
424.5581401414162
 30
0.0
 10
453.8723364041384
 20
424.652464949994
 30
0.0
 10
453.8349130764562
 20
424.7504880523397
 30
0.0
 10
453.8013307477759
 20
424.8391225136734
 30
0.0
 10
453.7734296363948
 20
424.9131454753287
 30
0.0
 10
453.7432120758648
 20
424.9933140855995
 30
0.0
 10
453.7188834747339
 20
425.0583819420415
 30
0.0
 10
453.7014693189548
 20
425.1052092715731
 30
0.0
 10
453.6823875227424
 20
425.1565209498781
 30
0.0
 10
453.6711038628584
 20
425.1872718235802
 30
0.0
 10
453.6679992646836
 20
425.1961539284351
 30
0.0
 10
453.6673657063999
 20
425.1979665079674
 30
0.0
 10
453.6670698674516
 20
425.1988762100038
 30
0.0
 10
453.6671100555435
 20
425.1988880358017
 30
0.0
  0
SPLINE
  5
175
330
119
100
AcDbEntity
  8
10976038_HEBEL_E
  6
Continuous
 62
     7
100
AcDbSpline
210
0.0
220
0.0
230
1.0
 70
     8
 71
     3
 72
    11
 73
     7
 74
     0
 42
0.0000000025328064
 43
0.0000000001
 40
0.7993304997473745
 40
0.7993304997473745
 40
0.7993304997473745
 40
0.7993304997473745
 40
0.8615213161951641
 40
0.8615213161951641
 40
0.8615213161951641
 40
0.8917327255030929
 40
0.8917327255030929
 40
0.8917327255030929
 40
0.8917327255030929
 10
453.6857514172707
 20
425.1506366254285
 30
0.0
 10
453.7010434646397
 20
425.1104572587062
 30
0.0
 10
453.7262053616814
 20
425.0440012331631
 30
0.0
 10
453.7598729676615
 20
424.9554099490776
 30
0.0
 10
453.7762194630615
 20
424.9123965842832
 30
0.0
 10
453.7948671480913
 20
424.8633945126296
 30
0.0
 10
453.815384061338
 20
424.8096233920703
 30
0.0
  0
SPLINE
  5
176
330
119
100
AcDbEntity
  8
10976038_HEBEL_E
  6
Continuous
 62
     7
100
AcDbSpline
210
0.0
220
0.0
230
1.0
 70
     8
 71
     3
 72
    26
 73
    22
 74
     0
 42
0.0000000030109079
 43
0.0000000001
 40
0.5000070651613746
 40
0.5000070651613746
 40
0.5000070651613746
 40
0.5000070651613746
 40
0.5363806543523157
 40
0.5363806543523157
 40
0.5363806543523157
 40
0.588574322014932
 40
0.588574322014932
 40
0.588574322014932
 40
0.6411490146586524
 40
0.6411490146586524
 40
0.6411490146586524
 40
0.6945751793495056
 40
0.6945751793495056
 40
0.6945751793495056
 40
0.7489991192902927
 40
0.7489991192902927
 40
0.7489991192902927
 40
0.8041557271772272
 40
0.8041557271772272
 40
0.8041557271772272
 40
0.8101978766820684
 40
0.8101978766820684
 40
0.8101978766820684
 40
0.8101978766820684
 10
453.8292121652792
 20
424.7973858760317
 30
0.0
 10
453.8291394693927
 20
424.7973696918059
 30
0.0
 10
453.8314564032485
 20
424.7911397892281
 30
0.0
 10
453.836110277574
 20
424.7788481928929
 30
0.0
 10
453.8427901139542
 20
424.7612057198415
 30
0.0
 10
453.8544614514864
 20
424.7306090307628
 30
0.0
 10
453.8701410501839
 20
424.6897062447435
 30
0.0
 10
453.8859366881965
 20
424.6485007512778
 30
0.0
 10
453.9062211506184
 20
424.5957419210812
 30
0.0
 10
453.9293354946606
 20
424.5358387492444
 30
0.0
 10
453.9528217755858
 20
424.4749716651733
 30
0.0
 10
453.9798588069494
 20
424.4051023450684
 30
0.0
 10
454.0082759198386
 20
424.3319194937047
 30
0.0
 10
454.0372159653362
 20
424.2573899292
 30
0.0
 10
454.0683717984585
 20
424.1774062098594
 30
0.0
 10
454.0992324566335
 20
424.0984445567798
 30
0.0
 10
454.1304978343622
 20
424.0184473676203
 30
0.0
 10
454.1623216744974
 20
423.937295250571
 30
0.0
 10
454.1920601285591
 20
423.8616945615007
 30
0.0
 10
454.1953169317283
 20
423.8534151612588
 30
0.0
 10
454.1985586700667
 20
423.845177024854
 30
0.0
 10
454.2017820920021
 20
423.8369882752871
 30
0.0
  0
SPLINE
  5
177
330
119
100
AcDbEntity
  8
10976038_HEBEL_E
  6
Continuous
 62
     7
100
AcDbSpline
210
0.0
220
0.0
230
1.0
 70
     8
 71
     3
 72
     8
 73
     4
 74
     0
 42
0.0000000190663014
 43
0.0000000001
 40
0.9361811166389735
 40
0.9361811166389735
 40
0.9361811166389735
 40
0.9361811166389735
 40
1.0
 40
1.0
 40
1.0
 40
1.0
 10
454.9302797710703
 20
421.901303437498
 30
0.0
 10
454.9377268084245
 20
421.882680453475
 30
0.0
 10
454.942182533392
 20
421.8711833419595
 30
0.0
 10
454.9424320544077
 20
421.8701274378172
 30
0.0
  0
SPLINE
  5
178
330
119
100
AcDbEntity
  8
10976038_HEBEL_E
  6
Continuous
 62
     7
100
AcDbSpline
210
0.0
220
0.0
230
1.0
 70
     8
 71
     3
 72
     8
 73
     4
 74
     0
 42
0.0000000058251633
 43
0.0000000001
 40
0.0
 40
0.0
 40
0.0
 40
0.0
 40
0.0339403113197549
 40
0.0339403113197549
 40
0.0339403113197549
 40
0.0339403113197549
 10
454.5469846138855
 20
422.0757722840802
 30
0.0
 10
454.568250946424
 20
422.0570961482326
 30
0.0
 10
454.5844458846188
 20
422.0510898452602
 30
0.0
 10
454.5964398415096
 20
422.0552324678218
 30
0.0
  0
SPLINE
  5
179
330
119
100
AcDbEntity
  8
10976038_HEBEL_E
  6
Continuous
 62
     7
100
AcDbSpline
210
0.0
220
0.0
230
1.0
 70
     8
 71
     3
 72
    14
 73
    10
 74
     0
 42
0.0000000032171528
 43
0.0000000001
 40
0.0706104596093294
 40
0.0706104596093294
 40
0.0706104596093294
 40
0.0706104596093294
 40
0.1249999999999999
 40
0.1249999999999999
 40
0.2499999999999998
 40
0.2499999999999998
 40
0.4999999999999999
 40
0.4999999999999999
 40
0.5005330504675295
 40
0.5005330504675295
 40
0.5005330504675295
 40
0.5005330504675295
 10
454.6217017384238
 20
422.101021938142
 30
0.0
 10
454.628003238339
 20
422.1380883893698
 30
0.0
 10
454.6259315395774
 20
422.1942230897278
 30
0.0
 10
454.6032960435888
 20
422.4080435291143
 30
0.0
 10
454.56784498314
 20
422.591518316318
 30
0.0
 10
454.597486722061
 20
422.7362557151212
 30
0.0
 10
454.8580081641526
 20
422.099942666699
 30
0.0
 10
454.8608913511705
 20
422.0954293478903
 30
0.0
 10
454.8608962765865
 20
422.0954227265416
 30
0.0
 10
454.8608999980551
 20
422.0954190727152
 30
0.0
  0
LINE
  5
17A
330
119
100
AcDbEntity
  8
10976038_HEBEL_E
  6
Continuous
 62
     7
100
AcDbLine
 10
454.656018119
 20
421.8318547746
 30
0.0
 11
454.5469846139
 21
422.0757722841
 31
0.0
  0
SPLINE
  5
17B
330
119
100
AcDbEntity
  8
10976038_HEBEL_E
  6
Continuous
 62
     7
100
AcDbSpline
210
0.0
220
0.0
230
1.0
 70
     8
 71
     3
 72
    22
 73
    18
 74
     0
 42
0.0000000074067645
 43
0.0000000001
 40
0.0
 40
0.0
 40
0.0
 40
0.0
 40
0.1250000000000001
 40
0.1250000000000001
 40
0.2500000000000002
 40
0.2500000000000002
 40
0.3750000000000002
 40
0.3750000000000002
 40
0.5000000000000002
 40
0.5000000000000002
 40
0.6250000000000002
 40
0.6250000000000002
 40
0.7500000000000001
 40
0.7500000000000001
 40
0.8750000000000001
 40
0.8750000000000001
 40
0.9003109896512402
 40
0.9003109896512402
 40
0.9003109896512402
 40
0.9003109896512402
 10
454.9424320544077
 20
421.8701274378172
 30
0.0
 10
454.9414680083743
 20
421.8720957445929
 30
0.0
 10
454.9246170393196
 20
421.9135686037206
 30
0.0
 10
454.8769589415573
 20
422.0267828192658
 30
0.0
 10
454.8459073143665
 20
422.0991387161597
 30
0.0
 10
454.7821195839908
 20
422.2398536160869
 30
0.0
 10
454.7491766596015
 20
422.3087921557582
 30
0.0
 10
454.6939928516652
 20
422.4076454146544
 30
0.0
 10
454.6720584511392
 20
422.4360702025466
 30
0.0
 10
454.6566802421054
 20
422.4084441618992
 30
0.0
 10
454.660893859818
 20
422.3584238174303
 30
0.0
 10
454.6770700963352
 20
422.2299764403347
 30
0.0
 10
454.6890170059087
 20
422.1516628019676
 30
0.0
 10
454.7069582185066
 20
422.0026815170101
 30
0.0
 10
454.7131270458943
 20
421.931571674067
 30
0.0
 10
454.7082328661709
 20
421.8733803216187
 30
0.0
 10
454.7069501545411
 20
421.8646168099971
 30
0.0
 10
454.7051484632556
 20
421.8570389150072
 30
0.0
  0
SPLINE
  5
17C
330
119
100
AcDbEntity
  8
10976038_HEBEL_E
  6
Continuous
 62
     7
100
AcDbSpline
210
0.0
220
0.0
230
1.0
 70
     8
 71
     3
 72
     8
 73
     4
 74
     0
 42
0.0000000136247008
 43
0.0000000001
 40
0.9616656135064722
 40
0.9616656135064722
 40
0.9616656135064722
 40
0.9616656135064722
 40
1.0
 40
1.0
 40
1.0
 40
1.0
 10
454.6820375932111
 20
421.8249714660116
 30
0.0
 10
454.6749606848682
 20
421.8235369619951
 30
0.0
 10
454.6663574747251
 20
421.8256574179213
 30
0.0
 10
454.6560181189811
 20
421.8318547746196
 30
0.0
  0
SPLINE
  5
17D
330
119
100
AcDbEntity
  8
10976038_HEBEL_E
  6
Continuous
 62
     7
100
AcDbSpline
210
0.0
220
0.0
230
1.0
 70
     8
 71
     3
 72
    20
 73
    16
 74
     0
 42
0.0000000089916702
 43
0.0000000001
 40
0.0
 40
0.0
 40
0.0
 40
0.0
 40
0.1250000000000008
 40
0.1250000000000008
 40
0.2500000000000013
 40
0.2500000000000013
 40
0.3750000000000018
 40
0.3750000000000018
 40
0.4375000000000019
 40
0.4375000000000019
 40
0.5000000000000019
 40
0.5000000000000019
 40
0.750000000000001
 40
0.750000000000001
 40
1.0
 40
1.0
 40
1.0
 40
1.0
 10
454.9876293733532
 20
421.152307346972
 30
0.0
 10
454.9845008862874
 20
421.210039677936
 30
0.0
 10
454.9803544953114
 20
421.2675999176165
 30
0.0
 10
454.9700042460816
 20
421.3823725525134
 30
0.0
 10
454.9632434328773
 20
421.4410683717254
 30
0.0
 10
454.9500488344811
 20
421.5516986804536
 30
0.0
 10
454.9458976227212
 20
421.5975846473923
 30
0.0
 10
454.9512394817525
 20
421.6307703727519
 30
0.0
 10
454.9550619105608
 20
421.6352793909786
 30
0.0
 10
454.9670968982547
 20
421.6297540374193
 30
0.0
 10
454.9751402636488
 20
421.6203204083452
 30
0.0
 10
455.0221449465307
 20
421.5496547870358
 30
0.0
 10
455.0805292983412
 20
421.4207715522761
 30
0.0
 10
455.1798668836571
 20
421.1885667753205
 30
0.0
 10
455.222825042982
 20
421.0796253001709
 30
0.0
 10
455.2243676753928
 20
421.0763590968456
 30
0.0
  0
SPLINE
  5
17E
330
119
100
AcDbEntity
  8
10976038_HEBEL_E
  6
Continuous
 62
     7
100
AcDbSpline
210
0.0
220
0.0
230
1.0
 70
     8
 71
     3
 72
     8
 73
     4
 74
     0
 42
0.0000000226886391
 43
0.0000000001
 40
0.0
 40
0.0
 40
0.0
 40
0.0
 40
0.0749368253037187
 40
0.0749368253037187
 40
0.0749368253037187
 40
0.0749368253037187
 10
455.2243676753928
 20
421.0763590968456
 30
0.0
 10
455.2241232389529
 20
421.0774103207436
 30
0.0
 10
455.219807182832
 20
421.0888457698241
 30
0.0
 10
455.2126507685082
 20
421.1072281036284
 30
0.0
  0
SPLINE
  5
17F
330
119
100
AcDbEntity
  8
10976038_HEBEL_E
  6
Continuous
 62
     7
100
AcDbSpline
210
0.0
220
0.0
230
1.0
 70
     8
 71
     3
 72
     8
 73
     4
 74
     0
 42
0.0000000069690865
 43
0.0000000001
 40
0.1622174751499639
 40
0.1622174751499639
 40
0.1622174751499639
 40
0.1622174751499639
 40
0.2387690571905645
 40
0.2387690571905645
 40
0.2387690571905645
 40
0.2387690571905645
 10
455.1779445626365
 20
421.1945272746785
 30
0.0
 10
455.1654294054231
 20
421.22547343625
 30
0.0
 10
455.1511878218221
 20
421.2601755035075
 30
0.0
 10
455.136109605701
 20
421.296091529954
 30
0.0
  0
SPLINE
  5
180
330
119
100
AcDbEntity
  8
10976038_HEBEL_E
  6
Continuous
 62
     7
100
AcDbSpline
210
0.0
220
0.0
230
1.0
 70
     8
 71
     3
 72
     8
 73
     4
 74
     0
 42
0.0000000079635122
 43
0.0000000001
 40
0.4667069541290876
 40
0.4667069541290876
 40
0.4667069541290876
 40
0.4667069541290876
 40
0.4808437572399999
 40
0.4808437572399999
 40
0.4808437572399999
 40
0.4808437572399999
 10
455.1345071310271
 20
421.3293207591938
 30
0.0
 10
455.1371289072048
 20
421.3226879164257
 30
0.0
 10
455.139308441278
 20
421.3171294498304
 30
0.0
 10
455.1409923727468
 20
421.3127958571754
 30
0.0
  0
SPLINE
  5
181
330
119
100
AcDbEntity
  8
10976038_HEBEL_E
  6
Continuous
 62
     7
100
AcDbSpline
210
0.0
220
0.0
230
1.0
 70
     8
 71
     3
 72
    12
 73
     8
 74
     0
 42
0.0000000040341247
 43
0.0000000001
 40
0.502880053254468
 40
0.502880053254468
 40
0.502880053254468
 40
0.502880053254468
 40
0.7500000000000004
 40
0.7500000000000004
 40
0.8750000000000003
 40
0.8750000000000003
 40
1.0
 40
1.0
 40
1.0
 40
1.0
 10
455.1450503605067
 20
421.3020355525607
 30
0.0
 10
455.1451276822224
 20
421.2997231820974
 30
0.0
 10
454.9680685317362
 20
421.7467698759448
 30
0.0
 10
454.858504656946
 20
421.8902925692444
 30
0.0
 10
454.8658427203055
 20
421.7992158046791
 30
0.0
 10
454.8934815906599
 20
421.5627865190235
 30
0.0
 10
454.902765000598
 20
421.4438073066419
 30
0.0
 10
454.9076128552479
 20
421.3240804594095
 30
0.0
  0
LINE
  5
182
330
119
100
AcDbEntity
  8
10976038_HEBEL_E
  6
Continuous
 62
     7
100
AcDbLine
 10
454.9076128552
 20
421.3240804594
 30
0.0
 11
454.9876293733
 21
421.152307347
 31
0.0
  0
SPLINE
  5
183
330
119
100
AcDbEntity
  8
10976038_HEBEL_E
  6
Continuous
 62
     7
100
AcDbSpline
210
0.0
220
0.0
230
1.0
 70
     8
 71
     3
 72
    16
 73
    12
 74
     0
 42
0.0000000123898203
 43
0.0000000001
 40
0.0
 40
0.0
 40
0.0
 40
0.0
 40
0.2499999999999999
 40
0.2499999999999999
 40
0.3749999999999999
 40
0.3749999999999999
 40
0.5
 40
0.5
 40
0.7500000000000001
 40
0.7500000000000001
 40
1.0
 40
1.0
 40
1.0
 40
1.0
 10
455.2400374872652
 20
420.6664351861997
 30
0.0
 10
455.2293817435986
 20
420.7560325208487
 30
0.0
 10
455.2220357904937
 20
420.8294926372006
 30
0.0
 10
455.2416713419355
 20
420.8428610540748
 30
0.0
 10
455.2537825335904
 20
420.8293997696716
 30
0.0
 10
455.2838682198725
 20
420.7806351016159
 30
0.0
 10
455.3019036674411
 20
420.7454334450244
 30
0.0
 10
455.3593134014659
 20
420.6242729144406
 30
0.0
 10
455.4020018390968
 20
420.5226949128535
 30
0.0
 10
455.4706336435218
 20
420.3536751349379
 30
0.0
 10
455.4974484211754
 20
420.2838462111195
 30
0.0
 10
455.4986359308269
 20
420.2812387927591
 30
0.0
  0
SPLINE
  5
184
330
119
100
AcDbEntity
  8
10976038_HEBEL_E
  6
Continuous
 62
     7
100
AcDbSpline
210
0.0
220
0.0
230
1.0
 70
     8
 71
     3
 72
     8
 73
     4
 74
     0
 42
0.000000030260575
 43
0.0000000001
 40
0.0
 40
0.0
 40
0.0
 40
0.0
 40
0.0973395564927806
 40
0.0973395564927806
 40
0.0973395564927806
 40
0.0973395564927806
 10
455.4986359308269
 20
420.2812387927591
 30
0.0
 10
455.498398512999
 20
420.2822772612037
 30
0.0
 10
455.4943428733719
 20
420.2933203026013
 30
0.0
 10
455.487488948478
 20
420.3114025534225
 30
0.0
  0
SPLINE
  5
185
330
119
100
AcDbEntity
  8
10976038_HEBEL_E
  6
Continuous
 62
     7
100
AcDbSpline
210
0.0
220
0.0
230
1.0
 70
     8
 71
     3
 72
    12
 73
     8
 74
     0
 42
0.0000000058480963
 43
0.0000000001
 40
0.4550572928579861
 40
0.4550572928579861
 40
0.4550572928579861
 40
0.4550572928579861
 40
0.5000000000000002
 40
0.5000000000000002
 40
0.7500000000000004
 40
0.7500000000000004
 40
0.8317419172636423
 40
0.8317419172636423
 40
0.8317419172636423
 40
0.8317419172636423
 10
455.4118096978836
 20
420.5330495124916
 30
0.0
 10
455.4181954191112
 20
420.5164289189881
 30
0.0
 10
455.4217091061365
 20
420.5069928962593
 30
0.0
 10
455.4201386649869
 20
420.5090393053302
 30
0.0
 10
455.3044395937998
 20
420.8079568569453
 30
0.0
 10
455.1982311252157
 20
421.0187678312436
 30
0.0
 10
455.1760500265431
 20
421.0543305051482
 30
0.0
 10
455.1625941017911
 20
421.0613278283495
 30
0.0
  0
SPLINE
  5
186
330
119
100
AcDbEntity
  8
10976038_HEBEL_E
  6
Continuous
 62
     7
100
AcDbSpline
210
0.0
220
0.0
230
1.0
 70
     8
 71
     3
 72
    10
 73
     6
 74
     0
 42
0.0000000059189336
 43
0.0000000001
 40
0.8414247631776485
 40
0.8414247631776485
 40
0.8414247631776485
 40
0.8414247631776485
 40
0.8750000000000002
 40
0.8750000000000002
 40
1.0
 40
1.0
 40
1.0
 40
1.0
 10
455.1581874489212
 20
421.0625917299747
 30
0.0
 10
455.1535368241663
 20
421.0626159106338
 30
0.0
 10
455.1504529047137
 20
421.0575772517942
 30
0.0
 10
455.1448372890871
 20
421.0058803798728
 30
0.0
 10
455.1587482074153
 20
420.9063008606144
 30
0.0
 10
455.1714126490435
 20
420.8022626561279
 30
0.0
  0
LINE
  5
187
330
119
100
AcDbEntity
  8
10976038_HEBEL_E
  6
Continuous
 62
     7
100
AcDbLine
 10
455.171412649
 20
420.8022626561
 30
0.0
 11
455.2400374873
 21
420.6664351862
 31
0.0
  0
LINE
  5
188
330
119
100
AcDbEntity
  8
10976038_HEBEL_E
  6
Continuous
 62
     7
100
AcDbLine
 10
454.8676172053
 20
415.0928401619
 30
0.0
 11
454.5820918594
 21
415.0424943503
 31
0.0
  0
ARC
  5
189
330
119
100
AcDbEntity
  8
10976038_HEBEL_E
  6
Continuous
 62
     7
100
AcDbCircle
 10
412.1315690337
 20
398.5827571104
 30
0.0
 40
45.81432806117196
100
AcDbArc
 50
21.1228853945
 51
27.5807767087
  0
LINE
  5
18A
330
119
100
AcDbEntity
  8
10976038_HEBEL_E
  6
Continuous
 62
     7
100
AcDbLine
 10
452.3951436864
 20
419.73400949
 30
0.0
 11
452.7395096504
 21
419.794730488
 31
0.0
  0
ARC
  5
18B
330
119
100
AcDbEntity
  8
10976038_HEBEL_E
  6
Continuous
 62
     7
100
AcDbCircle
 10
413.6562788149
 20
398.8204207796
 30
0.0
 40
44.02360553478468
100
AcDbArc
 50
21.6222630126
 51
28.3628642556
  0
LINE
  5
18C
330
119
100
AcDbEntity
  8
10976038_HEBEL_E
  6
Continuous
 62
     7
100
AcDbLine
 10
418.1070557009
 20
462.0041893083
 30
0.0
 11
417.9471989247
 21
462.0143959419
 31
0.0
  0
ARC
  5
18D
330
119
100
AcDbEntity
  8
10976038_HEBEL_E
  6
Continuous
 62
     7
100
AcDbCircle
 10
389.789411738
 20
400.8055640138
 30
0.0
 40
68.34618845554964
100
AcDbArc
 50
20.950138077
 51
62.8764290244
  0
LINE
  5
18E
330
119
100
AcDbEntity
  8
10976038_HEBEL_E
  6
Continuous
 62
     7
100
AcDbLine
 10
454.7960683557
 20
422.1526641889
 30
0.0
 11
454.4839871737
 21
423.0328084812
 31
0.0
  0
LINE
  5
18F
330
119
100
AcDbEntity
  8
10976038_HEBEL_E
  6
Continuous
 62
     7
100
AcDbLine
 10
455.0876336323
 20
421.330379704
 30
0.0
 11
454.8852946993
 21
421.9010243543
 31
0.0
  0
LINE
  5
190
330
119
100
AcDbEntity
  8
10976038_HEBEL_E
  6
Continuous
 62
     7
100
AcDbLine
 10
455.3666463593
 20
420.5434964401
 30
0.0
 11
455.1950035312
 21
421.0275706623
 31
0.0
  0
SPLINE
  5
191
330
119
100
AcDbEntity
  8
10976038_HEBEL_E
  6
Continuous
 62
     7
100
AcDbSpline
210
0.0
220
0.0
230
1.0
 70
     8
 71
     3
 72
    18
 73
    14
 74
     0
 42
0.000000000121343
 43
0.0000000001
 40
0.0
 40
0.0
 40
0.0
 40
0.0
 40
0.1079888603831489
 40
0.227120370966264
 40
0.3466059481511884
 40
0.4663219167419688
 40
0.5603491036758709
 40
0.6541279332890262
 40
0.7474535004459356
 40
0.8401475095247979
 40
0.9098808942673466
 40
0.979169475225897
 40
1.0
 40
1.0
 40
1.0
 40
1.0
 10
458.5567427175067
 20
338.7623606020322
 30
0.0
 10
459.0244407948819
 20
341.9906598037661
 30
0.0
 10
459.840181053828
 20
347.7215880383532
 30
0.0
 10
460.8487765188672
 20
357.3845435805147
 30
0.0
 10
461.5192650606396
 20
367.1495852869698
 30
0.0
 10
461.7601724300473
 20
376.3145500640971
 30
0.0
 10
461.608431756273
 20
384.7568705727139
 30
0.0
 10
461.129304784789
 20
392.4670250091364
 30
0.0
 10
460.2673750088228
 20
400.0999950482836
 30
0.0
 10
459.0838493394144
 20
407.0452955635791
 30
0.0
 10
457.6500790708178
 20
413.196426653447
 30
0.0
 10
456.4448525743815
 20
417.5547274210838
 30
0.0
 10
455.6552152765775
 20
419.742552177323
 30
0.0
 10
455.4408811893921
 20
420.3341362934635
 30
0.0
  0
LINE
  5
192
330
119
100
AcDbEntity
  8
10976038_HEBEL_E
  6
Continuous
 62
     7
100
AcDbLine
 10
420.3783359341
 20
461.7882132533
 30
0.0
 11
418.186172255
 21
461.9989874147
 31
0.0
  0
SPLINE
  5
193
330
119
100
AcDbEntity
  8
10976038_HEBEL_E
  6
Continuous
 62
     7
100
AcDbSpline
210
0.0
220
0.0
230
1.0
 70
     8
 71
     3
 72
     8
 73
     4
 74
     0
 42
0.0000000011528783
 43
0.0000000001
 40
0.0
 40
0.0
 40
0.0
 40
0.0
 40
1.0
 40
1.0
 40
1.0
 40
1.0
 10
451.2060409327874
 20
345.3908189908943
 30
0.0
 10
452.565053861466
 20
343.1009398735097
 30
0.0
 10
454.1197667871811
 20
340.6642198312168
 30
0.0
 10
455.8701797099327
 20
338.0806588640158
 30
0.0
  0
SPLINE
  5
194
330
119
100
AcDbEntity
  8
10976038_HEBEL_E
  6
Continuous
 62
     7
100
AcDbSpline
210
0.0
220
0.0
230
1.0
 70
     8
 71
     3
 72
    17
 73
    13
 74
     0
 42
0.0000000001901456
 43
0.0000000001
 40
0.0
 40
0.0
 40
0.0
 40
0.0
 40
0.053763189605271
 40
0.1374341527619391
 40
0.2234319075929553
 40
0.3123141338048861
 40
0.4046315198051813
 40
0.5206993863753201
 40
0.6433927834594486
 40
0.7735820111761507
 40
0.9121067887505652
 40
1.0
 40
1.0
 40
1.0
 40
1.0
 10
448.7555915587677
 20
398.2570213127107
 30
0.0
 10
449.110159429934
 20
397.2832979027962
 30
0.0
 10
449.8720765815285
 20
395.1705447941816
 30
0.0
 10
450.9189479907807
 20
391.2984163190262
 30
0.0
 10
451.844972080271
 20
386.8909370161473
 30
0.0
 10
452.5260882658973
 20
382.2477429050407
 30
0.0
 10
452.9932372178268
 20
377.0593919420111
 30
0.0
 10
453.1835182637193
 20
371.2594054968847
 30
0.0
 10
453.0389990156388
 20
364.78300208038
 30
0.0
 10
452.554344611086
 20
357.9822448889826
 30
0.0
 10
451.8547913906961
 20
351.6207650568193
 30
0.0
 10
451.2979267813996
 20
347.9640140883179
 30
0.0
 10
451.0392154558299
 20
346.2897679099406
 30
0.0
  0
ARC
  5
195
330
119
100
AcDbEntity
  8
10976038_HEBEL_E
  6
Continuous
 62
     7
100
AcDbCircle
 10
439.118527262
 20
394.7715589078
 30
0.0
 40
10.28105065198527
100
AcDbArc
 50
19.8720462804
 51
85.4286575192
  0
ARC
  5
196
330
119
100
AcDbEntity
  8
10976038_HEBEL_E
  6
Continuous
 62
     7
100
AcDbCircle
 10
420.4248627235
 20
460.8450503729
 30
0.0
 40
0.9627228861356397
100
AcDbArc
 50
62.1502361205
 51
76.9945292304
  0
ARC
  5
197
330
119
100
AcDbEntity
  8
10976038_HEBEL_E
  6
Continuous
 62
     7
100
AcDbCircle
 10
452.5310592027
 20
346.0596461393
 30
0.0
 40
1.478427008474855
100
AcDbArc
 50
171.2660683294
 51
211.6739548501
  0
ARC
  5
198
330
119
100
AcDbEntity
  8
10976038_HEBEL_E
  6
Continuous
 62
     7
100
AcDbCircle
 10
457.0824899897
 20
338.9607727799
 30
0.0
 40
1.498060666655917
100
AcDbArc
 50
213.6311469258
 51
352.3430499691
  0
LINE
  5
199
330
119
100
AcDbEntity
  8
10976038_HEBEL_E
  6
Continuous
 62
     7
100
AcDbLine
 10
433.3519230052
 20
405.6125401716
 30
0.0
 11
433.3522834635
 21
405.6133893582
 31
0.0
  0
LINE
  5
19A
330
119
100
AcDbEntity
  8
10976038_HEBEL_E
  6
Continuous
 62
     7
100
AcDbLine
 10
453.6052021791
 20
424.7529277428
 30
0.0
 11
453.4958431923
 21
424.7336448068
 31
0.0
  0
LINE
  5
19B
330
119
100
AcDbEntity
  8
10976038_HEBEL_E
  6
Continuous
 62
     7
100
AcDbLine
 10
454.0433367004
 20
423.3416936131
 30
0.0
 11
454.1358903155
 21
423.3580133092
 31
0.0
  0
LINE
  5
19C
330
119
100
AcDbEntity
  8
10976038_HEBEL_E
  6
Continuous
 62
     7
100
AcDbLine
 10
454.3819280485
 20
423.3829245181
 30
0.0
 11
454.3773877689
 21
423.3945416146
 31
0.0
  0
LINE
  5
19D
330
119
100
AcDbEntity
  8
10976038_HEBEL_E
  6
Continuous
 62
     7
100
AcDbLine
 10
453.8329262075
 20
424.7876413827
 30
0.0
 11
453.8240690922
 21
424.8103038554
 31
0.0
  0
LINE
  5
19E
330
119
100
AcDbEntity
  8
10976038_HEBEL_E
  6
Continuous
 62
     7
100
AcDbLine
 10
454.673863987
 20
422.4268595506
 30
0.0
 11
454.5991198635
 21
422.4136801477
 31
0.0
  0
LINE
  5
19F
330
119
100
AcDbEntity
  8
10976038_HEBEL_E
  6
Continuous
 62
     7
100
AcDbLine
 10
454.9603421084
 20
421.6338921748
 30
0.0
 11
454.8860114853
 21
421.6207856832
 31
0.0
  0
LINE
  5
1A0
330
119
100
AcDbEntity
  8
10976038_HEBEL_E
  6
Continuous
 62
     7
100
AcDbLine
 10
455.2379872258
 20
420.8393673024
 30
0.0
 11
455.1741176592
 21
420.828105377
 31
0.0
  0
ENDBLK
  5
1A2
330
119
100
AcDbEntity
  8
0
100
AcDbBlockEnd
  0
BLOCK
  5
254
330
1A3
100
AcDbEntity
  8
0
100
AcDbBlockBegin
  2
SE2
 70
     0
 10
0.0
 20
0.0
 30
0.0
  3
SE2
  1

  0
LINE
  5
1A5
330
1A3
100
AcDbEntity
  8
02285038_ROSETTE
  6
Continuous
 62
     7
100
AcDbLine
 10
219.4242114352
 20
164.7619779207
 30
0.0
 11
71.5242890139
 21
164.7619779207
 31
0.0
  0
LINE
  5
1A6
330
1A3
100
AcDbEntity
  8
02285038_ROSETTE
  6
Continuous
 62
     7
100
AcDbLine
 10
70.4742502246
 20
172.0937113197
 30
0.0
 11
220.4742502246
 21
172.0937113197
 31
0.0
  0
LINE
  5
1A7
330
1A3
100
AcDbEntity
  8
02285038_ROSETTE
  6
Continuous
 62
     7
100
AcDbLine
 10
85.1805894185
 20
159.096175398
 30
0.0
 11
205.7679110306
 21
159.096175398
 31
0.0
  0
ARC
  5
1A8
330
1A3
100
AcDbEntity
  8
02285038_ROSETTE
  6
Continuous
 62
     7
100
AcDbCircle
 10
73.2680341652
 20
166.5534445955
 30
0.0
 40
2.499999999999572
100
AcDbArc
 50
183.0
 51
225.7733838776
  0
ARC
  5
1A9
330
1A3
100
AcDbEntity
  8
02285038_ROSETTE
  6
Continuous
 62
     7
100
AcDbCircle
 10
217.6804662839
 20
166.5534445955
 30
0.0
 40
2.499999999999575
100
AcDbArc
 50
314.2266161224
 51
357.0
  0
ARC
  5
1AA
330
1A3
100
AcDbEntity
  8
02285038_ROSETTE
  6
Continuous
 62
     7
100
AcDbCircle
 10
85.4742502246
 20
179.0937113197
 30
0.0
 40
19.99999999999979
100
AcDbArc
 50
225.7733838776
 51
269.0384963119
  0
ARC
  5
1AB
330
1A3
100
AcDbEntity
  8
02285038_ROSETTE
  6
Continuous
 62
     7
100
AcDbCircle
 10
205.4742502246
 20
179.0937113197
 30
0.0
 40
19.99999999999961
100
AcDbArc
 50
270.9615036881
 51
314.2266161224
  0
LINE
  5
1AC
330
1A3
100
AcDbEntity
  8
02285038_ROSETTE
  6
Continuous
 62
     7
100
AcDbLine
 10
70.4742502246
 20
172.0937113197
 30
0.0
 11
70.7714603283
 21
166.4226047049
 31
0.0
  0
LINE
  5
1AD
330
1A3
100
AcDbEntity
  8
02285038_ROSETTE
  6
Continuous
 62
     7
100
AcDbLine
 10
220.1770401208
 20
166.4226047049
 30
0.0
 11
220.4742502246
 21
172.0937113197
 31
0.0
  0
LINE
  5
1AE
330
1A3
100
AcDbEntity
  8
$DDT_AUDIT_GENERATED_(7F)
  6
Continuous
 62
     7
100
AcDbLine
 10
151.4742502246
 20
136.2254647523
 30
0.0
 11
139.4742502246
 21
136.2254647523
 31
0.0
  0
LINE
  5
1AF
330
1A3
100
AcDbEntity
  8
$DDT_AUDIT_GENERATED_(7F)
  6
Continuous
 62
     7
100
AcDbLine
 10
149.9742502246
 20
138.1619564254
 30
0.0
 11
140.9742502246
 21
138.1619564254
 31
0.0
  0
LINE
  5
1B0
330
1A3
100
AcDbEntity
  8
$DDT_AUDIT_GENERATED_(7F)
  6
Continuous
 62
     7
100
AcDbLine
 10
151.4742502246
 20
133.4494801611
 30
0.0
 11
139.4742502246
 21
133.4494801611
 31
0.0
  0
ARC
  5
1B1
330
1A3
100
AcDbEntity
  8
$DDT_AUDIT_GENERATED_(7F)
  6
Continuous
 62
     7
100
AcDbCircle
 10
145.4742502246
 20
182.1937105889
 30
0.0
 40
49.99999999999999
100
AcDbArc
 50
264.1432980901
 51
270.0
  0
ARC
  5
1B2
330
1A3
100
AcDbEntity
  8
$DDT_AUDIT_GENERATED_(7F)
  6
Continuous
 62
     7
100
AcDbCircle
 10
145.4742502246
 20
182.1937105889
 30
0.0
 40
50.0
100
AcDbArc
 50
270.0
 51
275.8567019099
  0
LINE
  5
1B3
330
1A3
100
AcDbEntity
  8
$DDT_AUDIT_GENERATED_(7F)
  6
Continuous
 62
     7
100
AcDbLine
 10
139.4742502246
 20
136.2254647523
 30
0.0
 11
139.4742502246
 21
133.4494801611
 31
0.0
  0
LINE
  5
1B4
330
1A3
100
AcDbEntity
  8
$DDT_AUDIT_GENERATED_(7F)
  6
Continuous
 62
     7
100
AcDbLine
 10
151.4742502246
 20
133.4494801611
 30
0.0
 11
151.4742502246
 21
136.2254647523
 31
0.0
  0
ARC
  5
1B5
330
1A3
100
AcDbEntity
  8
$DDT_AUDIT_GENERATED_(7F)
  6
Continuous
 62
     7
100
AcDbCircle
 10
140.4742502246
 20
136.2254647523
 30
0.0
 40
0.9999999999999954
100
AcDbArc
 50
104.4775121859
 51
180.0
  0
ARC
  5
1B6
330
1A3
100
AcDbEntity
  8
$DDT_AUDIT_GENERATED_(7F)
  6
Continuous
 62
     7
100
AcDbCircle
 10
150.4742502246
 20
136.2254647523
 30
0.0
 40
1.0
100
AcDbArc
 50
0.0
 51
75.5224878141
  0
ARC
  5
1B7
330
1A3
100
AcDbEntity
  8
$DDT_AUDIT_GENERATED_(7F)
  6
Continuous
 62
     7
100
AcDbCircle
 10
139.9742502246
 20
138.1619564254
 30
0.0
 40
1.000000000000001
100
AcDbArc
 50
284.4775121859
 51
0.0
  0
ARC
  5
1B8
330
1A3
100
AcDbEntity
  8
$DDT_AUDIT_GENERATED_(7F)
  6
Continuous
 62
     7
100
AcDbCircle
 10
150.9742502246
 20
138.1619564254
 30
0.0
 40
0.999999999999994
100
AcDbArc
 50
180.0
 51
255.5224878141
  0
LINE
  5
1B9
330
1A3
100
AcDbEntity
  8
$DDT_AUDIT_GENERATED_(7F)
  6
Continuous
 62
     7
100
AcDbLine
 10
140.9742502246
 20
152.5937113197
 30
0.0
 11
140.9742502246
 21
138.1619564254
 31
0.0
  0
LINE
  5
1BA
330
1A3
100
AcDbEntity
  8
$DDT_AUDIT_GENERATED_(7F)
  6
Continuous
 62
     7
100
AcDbLine
 10
149.9742502246
 20
138.1619564254
 30
0.0
 11
149.9742502246
 21
152.5937113197
 31
0.0
  0
ARC
  5
1BB
330
1A3
100
AcDbEntity
  8
$DDT_AUDIT_GENERATED_(7F)
  6
Continuous
 62
     7
100
AcDbCircle
 10
140.4742502246
 20
133.4494801611
 30
0.0
 40
1.0
100
AcDbArc
 50
180.0
 51
264.1432980901
  0
ARC
  5
1BC
330
1A3
100
AcDbEntity
  8
$DDT_AUDIT_GENERATED_(7F)
  6
Continuous
 62
     7
100
AcDbCircle
 10
150.4742502246
 20
133.4494801611
 30
0.0
 40
0.9999999999999933
100
AcDbArc
 50
275.8567019099
 51
0.0
  0
LINE
  5
1BD
330
1A3
100
AcDbEntity
  8
$DDT_AUDIT_GENERATED_(133)
  6
Continuous
 62
     7
100
AcDbLine
 10
139.7742502246
 20
152.5937113197
 30
0.0
 11
151.1742502246
 21
152.5937113197
 31
0.0
  0
LINE
  5
1BE
330
1A3
100
AcDbEntity
  8
$DDT_AUDIT_GENERATED_(133)
  6
Continuous
 62
     7
100
AcDbLine
 10
139.4742502246
 20
159.096175398
 30
0.0
 11
139.4742502246
 21
152.8937113197
 31
0.0
  0
LINE
  5
1BF
330
1A3
100
AcDbEntity
  8
$DDT_AUDIT_GENERATED_(133)
  6
Continuous
 62
     7
100
AcDbLine
 10
151.4742502246
 20
152.8937113197
 30
0.0
 11
151.4742502246
 21
159.096175398
 31
0.0
  0
ARC
  5
1C0
330
1A3
100
AcDbEntity
  8
$DDT_AUDIT_GENERATED_(133)
  6
Continuous
 62
     7
100
AcDbCircle
 10
139.7742502246
 20
152.8937113197
 30
0.0
 40
0.2999999999999999
100
AcDbArc
 50
180.0
 51
270.0
  0
ARC
  5
1C1
330
1A3
100
AcDbEntity
  8
$DDT_AUDIT_GENERATED_(133)
  6
Continuous
 62
     7
100
AcDbCircle
 10
151.1742502246
 20
152.8937113197
 30
0.0
 40
0.3000000000000017
100
AcDbArc
 50
270.0
 51
0.0
  0
ARC
  5
1C2
330
1A3
100
AcDbEntity
  8
02693038_KAPPE__
  6
Continuous
 62
     7
100
AcDbCircle
 10
145.4742502246
 20
147.9937113197
 30
0.0
 40
25.87500000000015
100
AcDbArc
 50
342.1932722993
 51
359.5
  0
LINE
  5
1C3
330
1A3
100
AcDbEntity
  8
02693038_KAPPE__
  6
Continuous
 62
     7
100
AcDbLine
 10
119.5013752102
 20
159.096175398
 30
0.0
 11
119.6002354653
 21
147.7679122137
 31
0.0
  0
LINE
  5
1C4
330
1A3
100
AcDbEntity
  8
02693038_KAPPE__
  6
Continuous
 62
     7
100
AcDbLine
 10
171.3482649838
 20
147.7679122137
 30
0.0
 11
171.447125239
 21
159.096175398
 31
0.0
  0
ARC
  5
1C5
330
1A3
100
AcDbEntity
  8
02693038_KAPPE__
  6
Continuous
 62
     7
100
AcDbCircle
 10
145.4742502246
 20
147.9937113197
 30
0.0
 40
25.87500000000026
100
AcDbArc
 50
180.5
 51
197.79409691
  0
SPLINE
  5
1C6
330
1A3
100
AcDbEntity
  8
10976038_HEBEL_E
  6
Continuous
 62
     7
100
AcDbSpline
210
0.0
220
0.0
230
1.0
 70
     8
 71
     3
 72
    20
 73
    16
 74
     0
 42
0.0000000002716328
 43
0.0000000001
 40
0.1188134859073046
 40
0.1188134859073046
 40
0.1188134859073046
 40
0.1188134859073046
 40
0.125
 40
0.125
 40
0.25
 40
0.25
 40
0.375
 40
0.375
 40
0.4999999999999999
 40
0.4999999999999999
 40
0.625
 40
0.625
 40
0.75
 40
0.75
 40
1.0
 40
1.0
 40
1.0
 40
1.0
 10
139.4780684572534
 20
136.2367525086398
 30
0.0
 10
139.3769862430817
 20
136.2131549440243
 30
0.0
 10
139.2761065398541
 20
136.1886921650474
 30
0.0
 10
137.1413139599915
 20
135.6511713131212
 30
0.0
 10
135.3285688078013
 20
134.8292884637263
 30
0.0
 10
132.0375121214423
 20
132.8162378676603
 30
0.0
 10
130.6173627067139
 20
131.6743041937809
 30
0.0
 10
128.0577193213329
 20
129.2845822977598
 30
0.0
 10
126.9198882617864
 20
128.0298806589917
 30
0.0
 10
124.9403418024693
 20
125.5523805200821
 30
0.0
 10
124.0874298411848
 20
124.3185985896059
 30
0.0
 10
122.6361587931821
 20
121.8724543405067
 30
0.0
 10
122.0346395631045
 20
120.6506221548453
 30
0.0
 10
120.6730323517711
 20
117.0878062242739
 30
0.0
 10
120.3313820982258
 20
114.8496183807062
 30
0.0
 10
120.6497857428249
 20
112.6630112896477
 30
0.0
  0
SPLINE
  5
1C7
330
1A3
100
AcDbEntity
  8
10976038_HEBEL_E
  6
Continuous
 62
     7
100
AcDbSpline
210
0.0
220
0.0
230
1.0
 70
     8
 71
     3
 72
    20
 73
    16
 74
     0
 42
0.0000000002716777
 43
0.0000000001
 40
0.0
 40
0.0
 40
0.0
 40
0.0
 40
0.2500000000000001
 40
0.2500000000000001
 40
0.5000000000000001
 40
0.5000000000000001
 40
0.6250000000000001
 40
0.6250000000000001
 40
0.7500000000000002
 40
0.7500000000000002
 40
0.8125000000000002
 40
0.8125000000000002
 40
0.8750000000000002
 40
0.8750000000000002
 40
0.8818194587948376
 40
0.8818194587948376
 40
0.8818194587948376
 40
0.8818194587948376
 10
170.2776871419472
 20
112.5719499418052
 30
0.0
 10
170.6062677231567
 20
114.7553199221175
 30
0.0
 10
170.2730188865288
 20
117.0078918424378
 30
0.0
 10
168.465257994204
 20
121.7842553190992
 30
0.0
 10
167.0373490344918
 20
124.2274291074418
 30
0.0
 10
164.0691550711964
 20
127.9623064296885
 30
0.0
 10
162.9408862515591
 20
129.2089415522181
 30
0.0
 10
160.3887964645354
 20
131.5856880723134
 30
0.0
 10
158.9388120481412
 20
132.7378818987026
 30
0.0
 10
156.4864149252584
 20
134.2204697090759
 30
0.0
 10
155.6244523835392
 20
134.6731276721997
 30
0.0
 10
153.7884304222787
 20
135.4658537195646
 30
0.0
 10
152.8090014448566
 20
135.8035103110115
 30
0.0
 10
151.7003304443683
 20
136.0858035419155
 30
0.0
 10
151.5908168274644
 20
136.1125682292279
 30
0.0
 10
151.4808791944964
 20
136.1383610450235
 30
0.0
  0
SPLINE
  5
1C8
330
1A3
100
AcDbEntity
  8
10976038_HEBEL_E
  6
Continuous
 62
     7
100
AcDbSpline
210
0.0
220
0.0
230
1.0
 70
     8
 71
     3
 72
    10
 73
     6
 74
     0
 42
0.000000002212726
 43
0.0000000001
 40
0.4692057148629305
 40
0.4692057148629305
 40
0.4692057148629305
 40
0.4692057148629305
 40
0.4999999999999996
 40
0.4999999999999996
 40
0.5349991641554839
 40
0.5349991641554839
 40
0.5349991641554839
 40
0.5349991641554839
 10
132.0951731085398
 20
97.41554727596967
 30
0.0
 10
132.1448736473452
 20
97.40449419477825
 30
0.0
 10
132.1928045337342
 20
97.3973408719871
 30
0.0
 10
132.291418892766
 20
97.39008838684116
 30
0.0
 10
132.3417210276471
 20
97.3910936079023
 30
0.0
 10
132.3901626794301
 20
97.39675860261029
 30
0.0
  0
SPLINE
  5
1C9
330
1A3
100
AcDbEntity
  8
10976038_HEBEL_E
  6
Continuous
 62
     7
100
AcDbSpline
210
0.0
220
0.0
230
1.0
 70
     8
 71
     3
 72
    10
 73
     6
 74
     0
 42
0.0000000021761697
 43
0.0000000001
 40
0.4660148496673866
 40
0.4660148496673866
 40
0.4660148496673866
 40
0.4660148496673866
 40
0.4999999999999997
 40
0.4999999999999997
 40
0.5320545925960831
 40
0.5320545925960831
 40
0.5320545925960831
 40
0.5320545925960831
 10
158.6032106141833
 20
97.39929968156439
 30
0.0
 10
158.6509980097761
 20
97.39436969187595
 30
0.0
 10
158.7005782651587
 20
97.39373286684837
 30
0.0
 10
158.8009623828293
 20
97.40113592911413
 30
0.0
 10
158.8516331934522
 20
97.4087827362367
 30
0.0
 10
158.9042513730545
 20
97.42065602874959
 30
0.0
  0
ARC
  5
1CA
330
1A3
100
AcDbEntity
  8
10976038_HEBEL_E
  6
Continuous
 62
     7
100
AcDbCircle
 10
-61.2104269813
 20
140.1792969322
 30
0.0
 40
233.9346676138304
100
AcDbArc
 50
353.4835059005
 51
353.5775336567
  0
ARC
  5
1CB
330
1A3
100
AcDbEntity
  8
10976038_HEBEL_E
  6
Continuous
 62
     7
100
AcDbCircle
 10
-61.2104269813
 20
140.1792969322
 30
0.0
 40
233.9346676138304
100
AcDbArc
 50
359.0761602018
 51
359.9054744764
  0
SPLINE
  5
1CC
330
1A3
100
AcDbEntity
  8
10976038_HEBEL_E
  6
Continuous
 62
     7
100
AcDbSpline
210
0.0
220
0.0
230
1.0
 70
     8
 71
     3
 72
    22
 73
    18
 74
     0
 42
0.0000000002688508
 43
0.0000000001
 40
0.1114637451939463
 40
0.1114637451939463
 40
0.1114637451939463
 40
0.1114637451939463
 40
0.125
 40
0.125
 40
0.2500000000000001
 40
0.2500000000000001
 40
0.3750000000000001
 40
0.3750000000000001
 40
0.5
 40
0.5
 40
0.625
 40
0.625
 40
0.75
 40
0.75
 40
0.8750000000000001
 40
0.8750000000000001
 40
0.9861957829581086
 40
0.9861957829581086
 40
0.9861957829581086
 40
0.9861957829581086
 10
151.2863463875724
 20
136.7933642727159
 30
0.0
 10
151.5140925749936
 20
136.7464368597496
 30
0.0
 10
151.7406276579573
 20
136.6957358886452
 30
0.0
 10
154.0449927675822
 20
136.1353089108649
 30
0.0
 10
155.9161346227661
 20
135.3342967460721
 30
0.0
 10
159.3267520622737
 20
133.3854773977482
 30
0.0
 10
160.8097640312174
 20
132.2756951221644
 30
0.0
 10
163.482451845198
 20
129.9356715671517
 30
0.0
 10
164.6703624355783
 20
128.7018970886398
 30
0.0
 10
166.7354355324847
 20
126.2629421337211
 30
0.0
 10
167.625408576606
 20
125.0464069475666
 30
0.0
 10
169.1407448469823
 20
122.634513054828
 30
0.0
 10
169.7686235867135
 20
121.4300039144294
 30
0.0
 10
170.7129747674431
 20
119.1034088264968
 30
0.0
 10
171.0349010288999
 20
117.9753114704707
 30
0.0
 10
171.3486723700734
 20
115.8922377562435
 30
0.0
 10
171.3722327916275
 20
114.9245568219171
 30
0.0
 10
171.2606624759196
 20
113.9806499436966
 30
0.0
  0
SPLINE
  5
1CD
330
1A3
100
AcDbEntity
  8
10976038_HEBEL_E
  6
Continuous
 62
     7
100
AcDbSpline
210
0.0
220
0.0
230
1.0
 70
     8
 71
     3
 72
     8
 73
     4
 74
     0
 42
0.0000000003902741
 43
0.0000000001
 40
0.9861957829581086
 40
0.9861957829581086
 40
0.9861957829581086
 40
0.9861957829581086
 40
1.0
 40
1.0
 40
1.0
 40
1.0
 10
171.2606624759196
 20
113.9806499436966
 30
0.0
 10
171.2468117631274
 20
113.8634701814102
 30
0.0
 10
171.2308784733244
 20
113.7466568146877
 30
0.0
 10
171.2128416095975
 20
113.6302304868065
 30
0.0
  0
SPLINE
  5
1CE
330
1A3
100
AcDbEntity
  8
10976038_HEBEL_E
  6
Continuous
 62
     7
100
AcDbSpline
210
0.0
220
0.0
230
1.0
 70
     8
 71
     3
 72
     8
 73
     4
 74
     0
 42
0.000000000390895
 43
0.0000000001
 40
0.0
 40
0.0
 40
0.0
 40
0.0
 40
0.012414528466775
 40
0.012414528466775
 40
0.012414528466775
 40
0.012414528466775
 10
119.7140749654556
 20
113.7208205317273
 30
0.0
 10
119.6984099476137
 20
113.8251695813202
 30
0.0
 10
119.6844050436292
 20
113.9301341644858
 30
0.0
 10
119.6720590867286
 20
114.0355932730481
 30
0.0
  0
SPLINE
  5
1CF
330
1A3
100
AcDbEntity
  8
10976038_HEBEL_E
  6
Continuous
 62
     7
100
AcDbSpline
210
0.0
220
0.0
230
1.0
 70
     8
 71
     3
 72
    24
 73
    20
 74
     0
 42
0.0000000002686518
 43
0.0000000001
 40
0.012414528466775
 40
0.012414528466775
 40
0.012414528466775
 40
0.012414528466775
 40
0.0625
 40
0.0625
 40
0.1249999999999999
 40
0.1249999999999999
 40
0.2499999999999999
 40
0.2499999999999999
 40
0.4999999999999998
 40
0.4999999999999998
 40
0.6249999999999998
 40
0.6249999999999998
 40
0.7499999999999998
 40
0.7499999999999998
 40
0.8124999999999999
 40
0.8124999999999999
 40
0.8749999999999999
 40
0.8749999999999999
 40
0.8876341297180058
 40
0.8876341297180058
 40
0.8876341297180058
 40
0.8876341297180058
 10
119.6720590867286
 20
114.0355932730481
 30
0.0
 10
119.6222502619674
 20
114.4610600311255
 30
0.0
 10
119.599443417109
 20
114.8945759698868
 30
0.0
 10
119.6087012949243
 20
115.8692935746419
 30
0.0
 10
119.6549446316755
 20
116.4161397255065
 30
0.0
 10
119.9130963565054
 20
118.0775613747021
 30
0.0
 10
120.2454120844631
 20
119.2192412012598
 30
0.0
 10
121.6950215892941
 20
122.7274812418359
 30
0.0
 10
123.2125086377934
 20
125.1284961795605
 30
0.0
 10
126.3599193009922
 20
128.8125293605738
 30
0.0
 10
127.5452185960761
 20
130.0336833500513
 30
0.0
 10
130.2181602436135
 20
132.3689558625761
 30
0.0
 10
131.7310321667762
 20
133.5018931769431
 30
0.0
 10
134.2688098825522
 20
134.9519874107498
 30
0.0
 10
135.1587240089329
 20
135.3927585355599
 30
0.0
 10
137.0478244649569
 20
136.1592225708381
 30
0.0
 10
138.0520519982242
 20
136.4838730959503
 30
0.0
 10
139.2805194107403
 20
136.7764939414395
 30
0.0
 10
139.4882135439262
 20
136.8225378833552
 30
0.0
 10
139.6970216712474
 20
136.8654926687481
 30
0.0
  0
LINE
  5
1D0
330
1A3
100
AcDbEntity
  8
10976038_HEBEL_E
  6
Continuous
 62
     7
100
AcDbLine
 10
149.9818810294
 20
140.0937113197
 30
0.0
 11
172.4239664694
 21
140.0937113197
 31
0.0
  0
LINE
  5
1D1
330
1A3
100
AcDbEntity
  8
10976038_HEBEL_E
  6
Continuous
 62
     7
100
AcDbLine
 10
118.5244495132
 20
140.0937113197
 30
0.0
 11
140.967608114
 21
140.0937113197
 31
0.0
  0
ARC
  5
1D2
330
1A3
100
AcDbEntity
  8
10976038_HEBEL_E
  6
Continuous
 62
     7
100
AcDbCircle
 10
172.4239227222
 20
139.7937115579
 30
0.0
 40
0.2999997618202692
100
AcDbArc
 50
359.9320922146
 51
89.9999541431
  0
ARC
  5
1D3
330
1A3
100
AcDbEntity
  8
10976038_HEBEL_E
  6
Continuous
 62
     7
100
AcDbCircle
 10
118.5244495422
 20
139.793711349
 30
0.0
 40
0.2999999707117177
100
AcDbArc
 50
90.0000055445
 51
180.0678653437
  0
SPLINE
  5
1D4
330
1A3
100
AcDbEntity
  8
10976038_HEBEL_E
  6
Continuous
 62
     7
100
AcDbSpline
210
0.0
220
0.0
230
1.0
 70
     8
 71
     3
 72
    20
 73
    16
 74
     0
 42
0.0000000070319351
 43
0.0000000001
 40
0.0
 40
0.0
 40
0.0
 40
0.0
 40
0.1249999999999997
 40
0.1249999999999997
 40
0.2499999999999994
 40
0.2499999999999994
 40
0.3749999999999992
 40
0.3749999999999992
 40
0.4999999999999989
 40
0.4999999999999989
 40
0.6249999999999987
 40
0.6249999999999987
 40
0.7499999999999983
 40
0.7499999999999983
 40
1.0
 40
1.0
 40
1.0
 40
1.0
 10
139.3343963645254
 20
103.9772018280989
 30
0.0
 10
139.3345022864038
 20
103.9476318308119
 30
0.0
 10
139.340173803368
 20
103.9178587204776
 30
0.0
 10
139.3667217327949
 20
103.857684284173
 30
0.0
 10
139.3882156986278
 20
103.8268709677725
 30
0.0
 10
139.4479677693593
 20
103.7670387797042
 30
0.0
 10
139.4864219187284
 20
103.7379920336597
 30
0.0
 10
139.5717381371221
 20
103.6808852459188
 30
0.0
 10
139.6197201458895
 20
103.652508173591
 30
0.0
 10
139.7330805410224
 20
103.6017247199578
 30
0.0
 10
139.7992821798171
 20
103.5788338472283
 30
0.0
 10
139.9388729969787
 20
103.5379623569893
 30
0.0
 10
140.0117156736997
 20
103.5200949236398
 30
0.0
 10
140.2380995779103
 20
103.4731920906846
 30
0.0
 10
140.3980042500167
 20
103.4513997669649
 30
0.0
 10
140.5578617298864
 20
103.4380499476939
 30
0.0
  0
ARC
  5
1D5
330
1A3
100
AcDbEntity
  8
10976038_HEBEL_E
  6
Continuous
 62
     7
100
AcDbCircle
 10
141.0172293252
 20
108.158653981
 30
0.0
 40
4.742902173484
100
AcDbArc
 50
264.4419792711
 51
276.5219911941
  0
LINE
  5
1D6
330
1A3
100
AcDbEntity
  8
10976038_HEBEL_E
  6
Continuous
 62
     7
100
AcDbLine
 10
141.5559497671
 20
103.4464462911
 30
0.0
 11
141.5559497671
 21
103.7658227268
 31
0.0
  0
LINE
  5
1D7
330
1A3
100
AcDbEntity
  8
10976038_HEBEL_E
  6
Continuous
 62
     7
100
AcDbLine
 10
141.5559497671
 20
103.7658227268
 30
0.0
 11
140.9892933331
 21
103.8112428906
 31
0.0
  0
LINE
  5
1D8
330
1A3
100
AcDbEntity
  8
10976038_HEBEL_E
  6
Continuous
 62
     7
100
AcDbLine
 10
140.9892933331
 20
103.8112428906
 30
0.0
 11
140.9892933331
 21
103.5811944324
 31
0.0
  0
ARC
  5
1D9
330
1A3
100
AcDbEntity
  8
10976038_HEBEL_E
  6
Continuous
 62
     7
100
AcDbCircle
 10
140.7647694691
 20
106.1307490661
 30
0.0
 40
2.559421769800831
100
AcDbArc
 50
264.4234234685
 51
275.032709743
  0
SPLINE
  5
1DA
330
1A3
100
AcDbEntity
  8
10976038_HEBEL_E
  6
Continuous
 62
     7
100
AcDbSpline
210
0.0
220
0.0
230
1.0
 70
     8
 71
     3
 72
    16
 73
    12
 74
     0
 42
0.0000000135371837
 43
0.0000000001
 40
0.0
 40
0.0
 40
0.0
 40
0.0
 40
0.2499999999999989
 40
0.2499999999999989
 40
0.4999999999999979
 40
0.4999999999999979
 40
0.6249999999999973
 40
0.6249999999999973
 40
0.7499999999999969
 40
0.7499999999999969
 40
1.0
 40
1.0
 40
1.0
 40
1.0
 10
140.5160550324061
 20
103.5834405012265
 30
0.0
 10
140.4248985675485
 20
103.5908559442168
 30
0.0
 10
140.334095502216
 20
103.6057683066357
 30
0.0
 10
140.1735385011307
 20
103.6494848716434
 30
0.0
 10
140.1033594833328
 20
103.6782366948678
 30
0.0
 10
140.0324480405882
 20
103.7268375816344
 30
0.0
 10
140.0127725747169
 20
103.743607946482
 30
0.0
 10
139.9772193493183
 20
103.777021376608
 30
0.0
 10
139.9624814297854
 20
103.7938716971227
 30
0.0
 10
139.9289068066866
 20
103.8448993910103
 30
0.0
 10
139.920472146378
 20
103.8792779794634
 30
0.0
 10
139.9203732416038
 20
103.912786463519
 30
0.0
  0
SPLINE
  5
1DB
330
1A3
100
AcDbEntity
  8
10976038_HEBEL_E
  6
Continuous
 62
     7
100
AcDbSpline
210
0.0
220
0.0
230
1.0
 70
     8
 71
     3
 72
    16
 73
    12
 74
     0
 42
0.0000000115697761
 43
0.0000000001
 40
0.0
 40
0.0
 40
0.0
 40
0.0
 40
0.2499999999999952
 40
0.2499999999999952
 40
0.3749999999999959
 40
0.3749999999999959
 40
0.4999999999999966
 40
0.4999999999999966
 40
0.7499999999999983
 40
0.7499999999999983
 40
1.0
 40
1.0
 40
1.0
 40
1.0
 10
139.9203732416038
 20
103.912786463519
 30
0.0
 10
139.9205148133942
 20
103.950042981182
 30
0.0
 10
139.9341536544136
 20
103.986138653993
 30
0.0
 10
139.9881379622654
 20
104.0332696114657
 30
0.0
 10
140.0115094008713
 20
104.0474273101385
 30
0.0
 10
140.0640735494115
 20
104.0741083728473
 30
0.0
 10
140.0934817987116
 20
104.0869795880932
 30
0.0
 10
140.1994255710411
 20
104.1167946735255
 30
0.0
 10
140.2924734741361
 20
104.1254900381389
 30
0.0
 10
140.4842537697979
 20
104.1297715482636
 30
0.0
 10
140.5857997173486
 20
104.124666687383
 30
0.0
 10
140.6867098156638
 20
104.1144613041353
 30
0.0
  0
ARC
  5
1DC
330
1A3
100
AcDbEntity
  8
10976038_HEBEL_E
  6
Continuous
 62
     7
100
AcDbCircle
 10
140.3663244551
 20
100.3964366484
 30
0.0
 40
3.731803065518147
100
AcDbArc
 50
72.5621280572
 51
85.0749398985
  0
LINE
  5
1DD
330
1A3
100
AcDbEntity
  8
10976038_HEBEL_E
  6
Continuous
 62
     7
100
AcDbLine
 10
141.4846393665
 20
103.9567352144
 30
0.0
 11
141.4846393665
 21
104.1157808341
 31
0.0
  0
ARC
  5
1DE
330
1A3
100
AcDbEntity
  8
10976038_HEBEL_E
  6
Continuous
 62
     7
100
AcDbCircle
 10
140.0219745436
 20
98.4368626838
 30
0.0
 40
5.864256111648031
100
AcDbArc
 50
75.5567857416
 51
84.7568850856
  0
SPLINE
  5
1DF
330
1A3
100
AcDbEntity
  8
10976038_HEBEL_E
  6
Continuous
 62
     7
100
AcDbSpline
210
0.0
220
0.0
230
1.0
 70
     8
 71
     3
 72
    20
 73
    16
 74
     0
 42
0.0000000073294131
 43
0.0000000001
 40
0.0
 40
0.0
 40
0.0
 40
0.0
 40
0.2499999999999996
 40
0.2499999999999996
 40
0.3749999999999997
 40
0.3749999999999997
 40
0.4999999999999998
 40
0.4999999999999998
 40
0.6249999999999999
 40
0.6249999999999999
 40
0.7499999999999999
 40
0.7499999999999999
 40
0.875
 40
0.875
 40
1.0
 40
1.0
 40
1.0
 40
1.0
 10
140.5578617299136
 20
104.2765822546343
 30
0.0
 10
140.3998356133388
 20
104.2929347456698
 30
0.0
 10
140.2444070528262
 20
104.301882876599
 30
0.0
 10
140.0165610069313
 20
104.299656203634
 30
0.0
 10
139.9419735246012
 20
104.296209940067
 30
0.0
 10
139.8014784086906
 20
104.2831913500682
 30
0.0
 10
139.7337576334496
 20
104.2734344091667
 30
0.0
 10
139.619289592779
 20
104.2449532749149
 30
0.0
 10
139.5717390614412
 20
104.2261448332474
 30
0.0
 10
139.4854857998868
 20
104.1855159568656
 30
0.0
 10
139.4469777910812
 20
104.1640382987299
 30
0.0
 10
139.3877767450348
 20
104.1163482952116
 30
0.0
 10
139.3664791839217
 20
104.0899543207817
 30
0.0
 10
139.3400554176318
 20
104.0349525989226
 30
0.0
 10
139.3345118667808
 20
104.006425220797
 30
0.0
 10
139.3343963645254
 20
103.9772018280989
 30
0.0
  0
SPLINE
  5
1E0
330
1A3
100
AcDbEntity
  8
10976038_HEBEL_E
  6
Continuous
 62
     7
100
AcDbSpline
210
0.0
220
0.0
230
1.0
 70
     8
 71
     3
 72
    12
 73
     8
 74
     0
 42
0.0000000176034307
 43
0.0000000001
 40
0.0
 40
0.0
 40
0.0
 40
0.0
 40
0.2500000000000074
 40
0.2500000000000074
 40
0.3750000000000062
 40
0.3750000000000062
 40
0.4263195374015889
 40
0.4263195374015889
 40
0.4263195374015889
 40
0.4263195374015889
 10
139.920373241611
 20
104.1350785681618
 30
0.0
 10
139.9205148032033
 20
104.1723863972852
 30
0.0
 10
139.934151386746
 20
104.2085293411835
 30
0.0
 10
139.9881313798914
 20
104.2557135648638
 30
0.0
 10
140.0115014503583
 20
104.2698856204544
 30
0.0
 10
140.0485730273475
 20
104.2887206238677
 30
0.0
 10
140.0598899387554
 20
104.294123448015
 30
0.0
 10
140.0719262065207
 20
104.2992761862381
 30
0.0
  0
LINE
  5
1E1
330
1A3
100
AcDbEntity
  8
10976038_HEBEL_E
  6
Continuous
 62
     7
100
AcDbLine
 10
140.6867098157
 20
104.2619328276
 30
0.0
 11
140.6867098157
 21
104.1144613041
 31
0.0
  0
LINE
  5
1E2
330
1A3
100
AcDbEntity
  8
10976038_HEBEL_E
  6
Continuous
 62
     7
100
AcDbLine
 10
139.9203732416
 20
104.1350785682
 30
0.0
 11
139.9203732416
 21
103.9127864635
 31
0.0
  0
ARC
  5
1E3
330
1A3
100
AcDbEntity
  8
10976038_HEBEL_E
  6
Continuous
 62
     7
100
AcDbCircle
 10
141.0183815295
 20
108.3724950849
 30
0.0
 40
4.735444294672305
100
AcDbArc
 50
269.7102551307
 51
276.5182755983
  0
SPLINE
  5
1E4
330
1A3
100
AcDbEntity
  8
10976038_HEBEL_E
  6
Continuous
 62
     7
100
AcDbSpline
210
0.0
220
0.0
230
1.0
 70
     8
 71
     3
 72
    18
 73
    14
 74
     0
 42
0.0000000081409387
 43
0.0000000001
 40
0.0
 40
0.0
 40
0.0
 40
0.0
 40
0.1250000000000002
 40
0.1250000000000002
 40
0.2500000000000004
 40
0.2500000000000004
 40
0.3750000000000006
 40
0.3750000000000006
 40
0.5000000000000008
 40
0.5000000000000008
 40
0.625000000000001
 40
0.625000000000001
 40
0.7080693295006482
 40
0.7080693295006482
 40
0.7080693295006482
 40
0.7080693295006482
 10
139.3343963645326
 20
104.1997645882354
 30
0.0
 10
139.3345022868215
 20
104.1701512692287
 30
0.0
 10
139.3401738735512
 20
104.1403332111444
 30
0.0
 10
139.3667214173712
 20
104.0800642635631
 30
0.0
 10
139.3882147856306
 20
104.0492008104539
 30
0.0
 10
139.4479635412785
 20
103.989266978243
 30
0.0
 10
139.4864154151852
 20
103.9601682065417
 30
0.0
 10
139.5717271707852
 20
103.9029567140487
 30
0.0
 10
139.619705811313
 20
103.8745260555835
 30
0.0
 10
139.7330593781528
 20
103.8236379497432
 30
0.0
 10
139.7992572381431
 20
103.8006955224598
 30
0.0
 10
139.9154345285907
 20
103.7665967409264
 30
0.0
 10
139.9631631515669
 20
103.7541187287734
 30
0.0
 10
140.0121121303209
 20
103.7426778296102
 30
0.0
  0
LINE
  5
1E5
330
1A3
100
AcDbEntity
  8
10976038_HEBEL_E
  6
Continuous
 62
     7
100
AcDbLine
 10
140.5578617299
 20
103.5805387776
 30
0.0
 11
140.5578617299
 21
103.4380499477
 31
0.0
  0
SPLINE
  5
1E6
330
1A3
100
AcDbEntity
  8
10976038_HEBEL_E
  6
Continuous
 62
     7
100
AcDbSpline
210
0.0
220
0.0
230
1.0
 70
     8
 71
     3
 72
    14
 73
    10
 74
     0
 42
0.0000000203791508
 43
0.0000000001
 40
0.0
 40
0.0
 40
0.0
 40
0.0
 40
0.25
 40
0.25
 40
0.5
 40
0.5
 40
0.75
 40
0.75
 40
1.0
 40
1.0
 40
1.0
 40
1.0
 10
143.4177958749975
 20
103.5806444287854
 30
0.0
 10
143.4792083085415
 20
103.5867646230052
 30
0.0
 10
143.5369876777562
 20
103.5953468878916
 30
0.0
 10
143.6386827420446
 20
103.6216619895938
 30
0.0
 10
143.6792135162382
 20
103.6396662926774
 30
0.0
 10
143.7503818934443
 20
103.6776003790008
 30
0.0
 10
143.7782734573348
 20
103.6984875793704
 30
0.0
 10
143.8121806847547
 20
103.743405228806
 30
0.0
 10
143.819208904922
 20
103.7675302636051
 30
0.0
 10
143.8193108214934
 20
103.7918041619597
 30
0.0
  0
SPLINE
  5
1E7
330
1A3
100
AcDbEntity
  8
10976038_HEBEL_E
  6
Continuous
 62
     7
100
AcDbSpline
210
0.0
220
0.0
230
1.0
 70
     8
 71
     3
 72
    16
 73
    12
 74
     0
 42
0.0000000113547449
 43
0.0000000001
 40
0.0
 40
0.0
 40
0.0
 40
0.0
 40
0.2500000000000003
 40
0.2500000000000003
 40
0.3749999999999986
 40
0.3749999999999986
 40
0.4999999999999968
 40
0.4999999999999968
 40
0.7499999999999984
 40
0.7499999999999984
 40
1.0
 40
1.0
 40
1.0
 40
1.0
 10
143.8193108214934
 20
103.7918041619597
 30
0.0
 10
143.8191588957428
 20
103.8279989651061
 30
0.0
 10
143.803694402501
 20
103.8641439696333
 30
0.0
 10
143.7435328015214
 20
103.9161054507801
 30
0.0
 10
143.7180632755618
 20
103.9323822722752
 30
0.0
 10
143.662291474631
 20
103.9640616055424
 30
0.0
 10
143.63051840642
 20
103.9794720919986
 30
0.0
 10
143.519972620871
 20
104.0185674322144
 30
0.0
 10
143.4281496089366
 20
104.0370858493172
 30
0.0
 10
143.241506743828
 20
104.0639964873682
 30
0.0
 10
143.1432630922063
 20
104.0721214478937
 30
0.0
 10
143.0454117273144
 20
104.0759302506417
 30
0.0
  0
LINE
  5
1E8
330
1A3
100
AcDbEntity
  8
10976038_HEBEL_E
  6
Continuous
 62
     7
100
AcDbLine
 10
143.0454117273
 20
104.0759302506
 30
0.0
 11
142.0163581198
 21
104.1350644486
 31
0.0
  0
LINE
  5
1E9
330
1A3
100
AcDbEntity
  8
10976038_HEBEL_E
  6
Continuous
 62
     7
100
AcDbLine
 10
142.0163581198
 20
104.1350644486
 30
0.0
 11
142.0163581198
 21
103.3449167455
 31
0.0
  0
LINE
  5
1EA
330
1A3
100
AcDbEntity
  8
10976038_HEBEL_E
  6
Continuous
 62
     7
100
AcDbLine
 10
142.0163581198
 20
103.3449167455
 30
0.0
 11
142.579794915
 21
103.3106718175
 31
0.0
  0
LINE
  5
1EB
330
1A3
100
AcDbEntity
  8
10976038_HEBEL_E
  6
Continuous
 62
     7
100
AcDbLine
 10
142.579794915
 20
103.3106718175
 30
0.0
 11
142.579794915
 21
103.9451146098
 31
0.0
  0
LINE
  5
1EC
330
1A3
100
AcDbEntity
  8
10976038_HEBEL_E
  6
Continuous
 62
     7
100
AcDbLine
 10
142.579794915
 20
103.9451146098
 30
0.0
 11
142.9447980234
 21
103.9257862544
 31
0.0
  0
SPLINE
  5
1ED
330
1A3
100
AcDbEntity
  8
10976038_HEBEL_E
  6
Continuous
 62
     7
100
AcDbSpline
210
0.0
220
0.0
230
1.0
 70
     8
 71
     3
 72
    12
 73
     8
 74
     0
 42
0.0000000257907596
 43
0.0000000001
 40
0.0
 40
0.0
 40
0.0
 40
0.0
 40
0.2499999999999991
 40
0.2499999999999991
 40
0.4999999999999981
 40
0.4999999999999981
 40
1.0
 40
1.0
 40
1.0
 40
1.0
 10
142.9447980233636
 20
103.9257862544136
 30
0.0
 10
142.9898812720429
 20
103.9240326458331
 30
0.0
 10
143.0349161226544
 20
103.9195370106859
 30
0.0
 10
143.118543815996
 20
103.9041421007088
 30
0.0
 10
143.1578221136938
 20
103.893391856035
 30
0.0
 10
143.2431598960546
 20
103.8512319827011
 30
0.0
 10
143.2688400277604
 20
103.8165726177083
 30
0.0
 10
143.2689555064195
 20
103.7832891449317
 30
0.0
  0
SPLINE
  5
1EE
330
1A3
100
AcDbEntity
  8
10976038_HEBEL_E
  6
Continuous
 62
     7
100
AcDbSpline
210
0.0
220
0.0
230
1.0
 70
     8
 71
     3
 72
    12
 73
     8
 74
     0
 42
0.0000000288445588
 43
0.0000000001
 40
0.0
 40
0.0
 40
0.0
 40
0.0
 40
0.2499999999999981
 40
0.2499999999999981
 40
0.4999999999999961
 40
0.4999999999999961
 40
1.0
 40
1.0
 40
1.0
 40
1.0
 10
143.2689555064195
 20
103.7832891449317
 30
0.0
 10
143.2689014905916
 20
103.7677252817793
 30
0.0
 10
143.2644301176111
 20
103.7526390614338
 30
0.0
 10
143.2400806542138
 20
103.7240923734656
 30
0.0
 10
143.2207482651125
 20
103.7108407071636
 30
0.0
 10
143.145730821732
 20
103.6762618919987
 30
0.0
 10
143.0591638997554
 20
103.6681350763907
 30
0.0
 10
142.9743303301152
 20
103.6708537562545
 30
0.0
  0
LINE
  5
1EF
330
1A3
100
AcDbEntity
  8
10976038_HEBEL_E
  6
Continuous
 62
     7
100
AcDbLine
 10
142.9743303301
 20
103.6708537563
 30
0.0
 11
142.6506269693
 21
103.687595703
 31
0.0
  0
LINE
  5
1F0
330
1A3
100
AcDbEntity
  8
10976038_HEBEL_E
  6
Continuous
 62
     7
100
AcDbLine
 10
142.6506269693
 20
103.687595703
 30
0.0
 11
143.4297795661
 21
103.2701227792
 31
0.0
  0
LINE
  5
1F1
330
1A3
100
AcDbEntity
  8
10976038_HEBEL_E
  6
Continuous
 62
     7
100
AcDbLine
 10
143.4297795661
 20
103.2701227792
 30
0.0
 11
144.1284515522
 21
103.2468927205
 31
0.0
  0
LINE
  5
1F2
330
1A3
100
AcDbEntity
  8
10976038_HEBEL_E
  6
Continuous
 62
     7
100
AcDbLine
 10
144.1284515522
 20
103.2468927206
 30
0.0
 11
143.417795875
 21
103.5806444288
 31
0.0
  0
LINE
  5
1F3
330
1A3
100
AcDbEntity
  8
10976038_HEBEL_E
  6
Continuous
 62
     7
100
AcDbLine
 10
143.417795875
 20
103.8017218131
 30
0.0
 11
143.417795875
 21
103.5806444288
 31
0.0
  0
LINE
  5
1F4
330
1A3
100
AcDbEntity
  8
10976038_HEBEL_E
  6
Continuous
 62
     7
100
AcDbLine
 10
143.4297795661
 20
103.4907755359
 30
0.0
 11
143.6228860113
 21
103.4843260773
 31
0.0
  0
LINE
  5
1F5
330
1A3
100
AcDbEntity
  8
10976038_HEBEL_E
  6
Continuous
 62
     7
100
AcDbLine
 10
143.0851490869
 20
103.6757335542
 30
0.0
 11
143.4297795661
 21
103.4907755359
 31
0.0
  0
LINE
  5
1F6
330
1A3
100
AcDbEntity
  8
10976038_HEBEL_E
  6
Continuous
 62
     7
100
AcDbLine
 10
143.4297795661
 20
103.4907755359
 30
0.0
 11
143.4297795661
 21
103.2701227792
 31
0.0
  0
LINE
  5
1F7
330
1A3
100
AcDbEntity
  8
10976038_HEBEL_E
  6
Continuous
 62
     7
100
AcDbLine
 10
143.2689555064
 20
104.0046716234
 30
0.0
 11
143.2689555064
 21
103.7832891449
 31
0.0
  0
LINE
  5
1F8
330
1A3
100
AcDbEntity
  8
10976038_HEBEL_E
  6
Continuous
 62
     7
100
AcDbLine
 10
142.9447980234
 20
104.0817119812
 30
0.0
 11
142.9447980234
 21
103.9257862544
 31
0.0
  0
LINE
  5
1F9
330
1A3
100
AcDbEntity
  8
10976038_HEBEL_E
  6
Continuous
 62
     7
100
AcDbLine
 10
142.579794915
 20
104.1026867545
 30
0.0
 11
142.579794915
 21
103.9451146098
 31
0.0
  0
LINE
  5
1FA
330
1A3
100
AcDbEntity
  8
10976038_HEBEL_E
  6
Continuous
 62
     7
100
AcDbLine
 10
142.0163581198
 20
103.5658985612
 30
0.0
 11
142.579794915
 21
103.5315040349
 31
0.0
  0
SPLINE
  5
1FB
330
1A3
100
AcDbEntity
  8
10976038_HEBEL_E
  6
Continuous
 62
     7
100
AcDbSpline
210
0.0
220
0.0
230
1.0
 70
     8
 71
     3
 72
    12
 73
     8
 74
     0
 42
0.0000000169231465
 43
0.0000000001
 40
0.0
 40
0.0
 40
0.0
 40
0.0
 40
0.25
 40
0.25
 40
0.5
 40
0.5
 40
0.6051507943651461
 40
0.6051507943651461
 40
0.6051507943651461
 40
0.6051507943651461
 10
143.4177958750047
 20
103.801721813107
 30
0.0
 10
143.4792114873935
 20
103.8078431248012
 30
0.0
 10
143.53699322023
 20
103.8164309307749
 30
0.0
 10
143.6386903345591
 20
103.8427726296091
 30
0.0
 10
143.6792204078882
 20
103.8607981513429
 30
0.0
 10
143.7297706318206
 20
103.8877755405826
 30
0.0
 10
143.7433760374004
 20
103.8961030841045
 30
0.0
 10
143.755378983702
 20
103.9047449594615
 30
0.0
  0
SPLINE
  5
1FC
330
1A3
100
AcDbEntity
  8
10976038_HEBEL_E
  6
Continuous
 62
     7
100
AcDbSpline
210
0.0
220
0.0
230
1.0
 70
    11
 71
     3
 72
    62
 73
    58
 74
     0
 42
0.0000000017109343
 43
0.0000000001
 40
0.0
 40
0.0
 40
0.0
 40
0.0
 40
0.0471789914874823
 40
0.0471789914874823
 40
0.0471789914874823
 40
0.0942363547024502
 40
0.0942363547024502
 40
0.0942363547024502
 40
0.1434439079481527
 40
0.1434439079481527
 40
0.1434439079481527
 40
0.1970747790606938
 40
0.1970747790606938
 40
0.1970747790606938
 40
0.2554918407796158
 40
0.2554918407796158
 40
0.2554918407796158
 40
0.3171578837183785
 40
0.3171578837183785
 40
0.3171578837183785
 40
0.3786113276363149
 40
0.3786113276363149
 40
0.3786113276363149
 40
0.4359884726249879
 40
0.4359884726249879
 40
0.4359884726249879
 40
0.4876140618032368
 40
0.4876140618032368
 40
0.4876140618032368
 40
0.5349737567747124
 40
0.5349737567747124
 40
0.5349737567747124
 40
0.5811468964002181
 40
0.5811468964002181
 40
0.5811468964002181
 40
0.6291107662734593
 40
0.6291107662734593
 40
0.6291107662734593
 40
0.6810795087595043
 40
0.6810795087595043
 40
0.6810795087595043
 40
0.7380877315823164
 40
0.7380877315823164
 40
0.7380877315823164
 40
0.7992933544685786
 40
0.7992933544685786
 40
0.7992933544685786
 40
0.8615213161951641
 40
0.8615213161951641
 40
0.8615213161951641
 40
0.9203987320546899
 40
0.9203987320546899
 40
0.9203987320546899
 40
0.9733408599570533
 40
0.9733408599570533
 40
0.9733408599570533
 40
1.0
 40
1.0
 40
1.0
 40
1.0
 10
146.7766593757699
 20
103.629484484455
 30
0.0
 10
146.77649185774
 20
103.58480629469
 30
0.0
 10
146.7545492156225
 20
103.539290371131
 30
0.0
 10
146.7133389852549
 20
103.4967869794953
 30
0.0
 10
146.6721885591584
 20
103.4543452687658
 30
0.0
 10
146.6108986362775
 20
103.4137848695446
 30
0.0
 10
146.5353669684455
 20
103.3780040937915
 30
0.0
 10
146.4563582131076
 20
103.3405761561009
 30
0.0
 10
146.3599304990151
 20
103.3074249320061
 30
0.0
 10
146.2539783409863
 20
103.2805136042226
 30
0.0
 10
146.1385825409087
 20
103.2512036377386
 30
0.0
 10
146.0091057147509
 20
103.2285504912236
 30
0.0
 10
145.8752578661519
 20
103.2137364040727
 30
0.0
 10
145.7296453788899
 20
103.1976202236548
 30
0.0
 10
145.5751209309435
 20
103.1903620551077
 30
0.0
 10
145.4233022640383
 20
103.1923251122153
 30
0.0
 10
145.2632895738905
 20
103.1943941202965
 30
0.0
 10
145.1018036712563
 20
103.2067923676644
 30
0.0
 10
144.9526035392203
 20
103.2287871864729
 30
0.0
 10
144.8041156055588
 20
103.2506770142604
 30
0.0
 10
144.6633057673433
 20
103.2828153789947
 30
0.0
 10
144.5449881122478
 20
103.3227913779856
 30
0.0
 10
144.434525788952
 20
103.3601132951674
 30
0.0
 10
144.3403020358396
 20
103.4055299496208
 30
0.0
 10
144.2741173028685
 20
103.4548332064232
 30
0.0
 10
144.2144650482124
 20
103.4992701981299
 30
0.0
 10
144.175868173383
 20
103.54824950491
 30
0.0
 10
144.1633507107337
 20
103.5970252137732
 30
0.0
 10
144.1518414689799
 20
103.6418722758933
 30
0.0
 10
144.1619981013764
 20
103.6878170299204
 30
0.0
 10
144.1927057676426
 20
103.7309019548672
 30
0.0
 10
144.2226880314837
 20
103.7729690913317
 30
0.0
 10
144.2729108301671
 20
103.8134266962869
 30
0.0
 10
144.3384228976002
 20
103.8494380868213
 30
0.0
 10
144.4065035668079
 20
103.8868614145036
 30
0.0
 10
144.4926567482599
 20
103.9204437431839
 30
0.0
 10
144.5895388451588
 20
103.948344854565
 30
0.0
 10
144.6944644370944
 20
103.978562415095
 30
0.0
 10
144.8144540070344
 20
104.0028910162259
 30
0.0
 10
144.940364432606
 20
104.020305172005
 30
0.0
 10
145.078332480684
 20
104.0393869682173
 30
0.0
 10
145.226855067568
 20
104.0506706281014
 30
0.0
 10
145.3749889774305
 20
104.0537752262762
 30
0.0
 10
145.5337764782018
 20
104.0571031029624
 30
0.0
 10
145.6964434532223
 20
104.0511130971589
 30
0.0
 10
145.8498124051108
 20
104.0360504639896
 30
0.0
 10
146.0054901457215
 20
104.0207610806393
 30
0.0
 10
146.1562413699734
 20
103.9955892382378
 30
0.0
 10
146.2869718341097
 20
103.9619015232982
 30
0.0
 10
146.4105972204601
 20
103.9300447039854
 30
0.0
 10
146.5201284978014
 20
103.8894479553706
 30
0.0
 10
146.6021446009375
 20
103.8433085394099
 30
0.0
 10
146.6760012705878
 20
103.8017593378244
 30
0.0
 10
146.729711344307
 20
103.754364659067
 30
0.0
 10
146.7563157216289
 20
103.7055293254561
 30
0.0
 10
146.7698882041475
 20
103.6806155038054
 30
0.0
 10
146.7767551421524
 20
103.6550260253353
 30
0.0
 10
146.7766593757699
 20
103.629484484455
 30
0.0
  0
SPLINE
  5
1FD
330
1A3
100
AcDbEntity
  8
10976038_HEBEL_E
  6
Continuous
 62
     7
100
AcDbSpline
210
0.0
220
0.0
230
1.0
 70
    11
 71
     3
 72
    62
 73
    58
 74
     0
 42
0.0000000029643239
 43
0.0000000001
 40
0.0
 40
0.0
 40
0.0
 40
0.0
 40
0.0523487553257781
 40
0.0523487553257781
 40
0.0523487553257781
 40
0.1046674930530116
 40
0.1046674930530116
 40
0.1046674930530116
 40
0.1574588615991986
 40
0.1574588615991986
 40
0.1574588615991986
 40
0.2112877166905835
 40
0.2112877166905835
 40
0.2112877166905835
 40
0.2660974761613477
 40
0.2660974761613477
 40
0.2660974761613477
 40
0.3213969995974484
 40
0.3213969995974484
 40
0.3213969995974484
 40
0.3764726656506948
 40
0.3764726656506948
 40
0.3764726656506948
 40
0.4307254429515864
 40
0.4307254429515864
 40
0.4307254429515864
 40
0.4839469637186511
 40
0.4839469637186511
 40
0.4839469637186511
 40
0.5363806543523157
 40
0.5363806543523157
 40
0.5363806543523157
 40
0.588574322014932
 40
0.588574322014932
 40
0.588574322014932
 40
0.6411490146586524
 40
0.6411490146586524
 40
0.6411490146586524
 40
0.6945751793495056
 40
0.6945751793495056
 40
0.6945751793495056
 40
0.7489991192902927
 40
0.7489991192902927
 40
0.7489991192902927
 40
0.8041557271772272
 40
0.8041557271772272
 40
0.8041557271772272
 40
0.8594277389881569
 40
0.8594277389881569
 40
0.8594277389881569
 40
0.9140953525903529
 40
0.9140953525903529
 40
0.9140953525903529
 40
0.967697137073682
 40
0.967697137073682
 40
0.967697137073682
 40
1.0
 40
1.0
 40
1.0
 40
1.0
 10
145.4707914109684
 20
103.3431730337883
 30
0.0
 10
145.5523382920527
 20
103.3430764111184
 30
0.0
 10
145.6350122456023
 20
103.3482093101616
 30
0.0
 10
145.7119399379512
 20
103.3581003587699
 30
0.0
 10
145.7888430666599
 20
103.3679882490856
 30
0.0
 10
145.8621072284237
 20
103.3828918014951
 30
0.0
 10
145.9258888972595
 20
103.4014993890708
 30
0.0
 10
145.9902539523617
 20
103.4202771730563
 30
0.0
 10
146.0467090612386
 20
103.4433233048512
 30
0.0
 10
146.0909509729148
 20
103.4687058335488
 30
0.0
 10
146.1360530636583
 20
103.4945818653304
 30
0.0
 10
146.169688635906
 20
103.523578571796
 30
0.0
 10
146.1893404337949
 20
103.5533274146307
 30
0.0
 10
146.2093434866376
 20
103.583607986342
 30
0.0
 10
146.215403745033
 20
103.6154931998579
 30
0.0
 10
146.2070542647268
 20
103.6463808569612
 30
0.0
 10
146.1986330106683
 20
103.6775340303566
 30
0.0
 10
146.1753040728424
 20
103.7085374827157
 30
0.0
 10
146.1388711442903
 20
103.7368045220906
 30
0.0
 10
146.1025921980976
 20
103.7649520919202
 30
0.0
 10
146.0522754320467
 20
103.7911774393125
 30
0.0
 10
145.9920021357279
 20
103.8132223485322
 30
0.0
 10
145.9326254473587
 20
103.8349393241219
 30
0.0
 10
145.8618891267177
 20
103.8532107867712
 30
0.0
 10
145.7857323733942
 20
103.866426067085
 30
0.0
 10
145.7110024885428
 20
103.8793937466804
 30
0.0
 10
145.6289469941816
 20
103.8878560312222
 30
0.0
 10
145.5465236842381
 20
103.8910639194691
 30
0.0
 10
145.4652918835735
 20
103.8942254345647
 30
0.0
 10
145.3814515186537
 20
103.8923729218762
 30
0.0
 10
145.3020001919825
 20
103.8856642133858
 30
0.0
 10
145.222890798107
 20
103.8789843770055
 30
0.0
 10
145.1459712846531
 20
103.8673130394733
 30
0.0
 10
145.077449130941
 20
103.8516334407759
 30
0.0
 10
145.0084198683445
 20
103.8358378027632
 30
0.0
 10
144.9460404951662
 20
103.8155533403414
 30
0.0
 10
144.8951507017888
 20
103.7924389962991
 30
0.0
 10
144.8434420319991
 20
103.768952715374
 30
0.0
 10
144.8021914646328
 20
103.7419156840103
 30
0.0
 10
144.7744979309517
 20
103.7134985711211
 30
0.0
 10
144.7462947799897
 20
103.6845585256236
 30
0.0
 10
144.7313807224648
 20
103.6534026925012
 30
0.0
 10
144.7308543549328
 20
103.6225420343262
 30
0.0
 10
144.7303210843972
 20
103.5912766565975
 30
0.0
 10
144.7445478455657
 20
103.5594528164623
 30
0.0
 10
144.7724318671108
 20
103.5297143624006
 30
0.0
 10
144.8003664595063
 20
103.4999219742638
 30
0.0
 10
144.8428115461978
 20
103.4713902283964
 30
0.0
 10
144.8963794336932
 20
103.4466081818352
 30
0.0
 10
144.9493580627978
 20
103.4220987431659
 30
0.0
 10
145.0147394711165
 20
103.4005694993827
 30
0.0
 10
145.0870874306119
 20
103.3839898601955
 30
0.0
 10
145.1580396045218
 20
103.3677300865794
 30
0.0
 10
145.2377094623497
 20
103.3557778575851
 30
0.0
 10
145.3193245136387
 20
103.3492537610338
 30
0.0
 10
145.3689739147883
 20
103.3452849160512
 30
0.0
 10
145.4200203275021
 20
103.3432331910569
 30
0.0
 10
145.4707914109684
 20
103.3431730337883
 30
0.0
  0
SPLINE
  5
1FE
330
1A3
100
AcDbEntity
  8
10976038_HEBEL_E
  6
Continuous
 62
     7
100
AcDbSpline
210
0.0
220
0.0
230
1.0
 70
     8
 71
     3
 72
    14
 73
    10
 74
     0
 42
0.0000000044099052
 43
0.0000000001
 40
0.2501514380790787
 40
0.2501514380790787
 40
0.2501514380790787
 40
0.2501514380790787
 40
0.2660846163938835
 40
0.2660846163938835
 40
0.2660846163938835
 40
0.3213924456402176
 40
0.3213924456402176
 40
0.3213924456402176
 40
0.3524241079786751
 40
0.3524241079786751
 40
0.3524241079786751
 40
0.3524241079786751
 10
146.2106942364374
 20
103.8402373175379
 30
0.0
 10
146.2106929719347
 20
103.8493332366679
 30
0.0
 10
146.2094855797436
 20
103.8584087688527
 30
0.0
 10
146.2070605804609
 20
103.8673999209158
 30
0.0
 10
146.1986456818168
 20
103.8985997789289
 30
0.0
 10
146.1753201162011
 20
103.9296499727609
 30
0.0
 10
146.138886598269
 20
103.9579598026221
 30
0.0
 10
146.1184484599437
 20
103.973840789458
 30
0.0
 10
146.0935538729132
 20
103.9891108963191
 30
0.0
 10
146.0649325344077
 20
104.0033656655188
 30
0.0
  0
SPLINE
  5
1FF
330
1A3
100
AcDbEntity
  8
10976038_HEBEL_E
  6
Continuous
 62
     7
100
AcDbSpline
210
0.0
220
0.0
230
1.0
 70
     8
 71
     3
 72
    14
 73
    10
 74
     0
 42
0.0000000043339284
 43
0.0000000001
 40
0.6437272107538844
 40
0.6437272107538844
 40
0.6437272107538844
 40
0.6437272107538844
 40
0.6945568648232316
 40
0.6945568648232316
 40
0.6945568648232316
 40
0.7489840523794171
 40
0.7489840523794171
 40
0.7489840523794171
 40
0.7499926311926792
 40
0.7499926311926792
 40
0.7499926311926792
 40
0.7499926311926792
 10
144.8877256133725
 20
104.0102550455696
 30
0.0
 10
144.8394989272866
 20
103.9875580927328
 30
0.0
 10
144.8008748590366
 20
103.9617382507909
 30
0.0
 10
144.774521250937
 20
103.9346670885155
 30
0.0
 10
144.7463100494398
 20
103.9056877544209
 30
0.0
 10
144.7313884212952
 20
103.874489044728
 30
0.0
 10
144.7308547681581
 20
103.8435850248658
 30
0.0
 10
144.7308448825542
 20
103.8430125464563
 30
0.0
 10
144.7308399316635
 20
103.8424398807914
 30
0.0
 10
144.7308399087506
 20
103.8418670440539
 30
0.0
  0
SPLINE
  5
200
330
1A3
100
AcDbEntity
  8
10976038_HEBEL_E
  6
Continuous
 62
     7
100
AcDbSpline
210
0.0
220
0.0
230
1.0
 70
     8
 71
     3
 72
    14
 73
    10
 74
     0
 42
0.000000001771529
 43
0.0000000001
 40
0.0471855474470853
 40
0.0471855474470853
 40
0.0471855474470853
 40
0.0471855474470853
 40
0.0942495350642174
 40
0.0942495350642174
 40
0.0942495350642174
 40
0.1434627616011946
 40
0.1434627616011946
 40
0.1434627616011946
 40
0.1657761727261458
 40
0.1657761727261458
 40
0.1657761727261458
 40
0.1657761727261458
 10
146.7133283492973
 20
103.7176385256111
 30
0.0
 10
146.6721708480838
 20
103.6751322535279
 30
0.0
 10
146.6108700390496
 20
103.6345092846321
 30
0.0
 10
146.5353238715335
 20
103.5986731680988
 30
0.0
 10
146.4563020241351
 20
103.5611883263768
 30
0.0
 10
146.3598574496177
 20
103.5279863459479
 30
0.0
 10
146.2538859699139
 20
103.5010347399505
 30
0.0
 10
146.205871697277
 20
103.4888233245586
 30
0.0
 10
146.1554198156971
 20
103.4777658928045
 30
0.0
 10
146.1032297183334
 20
103.4679477968974
 30
0.0
  0
SPLINE
  5
201
330
1A3
100
AcDbEntity
  8
10976038_HEBEL_E
  6
Continuous
 62
     7
100
AcDbSpline
210
0.0
220
0.0
230
1.0
 70
     8
 71
     3
 72
    17
 73
    13
 74
     0
 42
0.0000000019991792
 43
0.0000000001
 40
0.3308953866925798
 40
0.3308953866925798
 40
0.3308953866925798
 40
0.3308953866925798
 40
0.3786075152690155
 40
0.3786075152690155
 40
0.3786075152690155
 40
0.4359804895152165
 40
0.4359804895152165
 40
0.4359804895152165
 40
0.4876095769441492
 40
0.4876095769441492
 40
0.4876095769441492
 40
0.5002953814898529
 40
0.5002953814898529
 40
0.5002953814898529
 40
0.5002953814898529
 10
144.8543223092315
 20
103.4654784702655
 30
0.0
 10
144.7422750082262
 20
103.4859706285433
 30
0.0
 10
144.6368540708027
 20
103.5123244181427
 30
0.0
 10
144.5449927168761
 20
103.5434086531569
 30
0.0
 10
144.4345382340335
 20
103.5807844696052
 30
0.0
 10
144.3403223782934
 20
103.6262641280041
 30
0.0
 10
144.2741392431045
 20
103.675633432368
 30
0.0
 10
144.2144802499822
 20
103.7201360534828
 30
0.0
 10
144.1758776558647
 20
103.7691861845174
 30
0.0
 10
144.1633547157215
 20
103.8180314174181
 30
0.0
 10
144.1602707109791
 20
103.8300604559813
 30
0.0
 10
144.1587410182529
 20
103.8421682861083
 30
0.0
 10
144.1587442401757
 20
103.8542787696921
 30
0.0
  0
LINE
  5
202
330
1A3
100
AcDbEntity
  8
10976038_HEBEL_E
  6
Continuous
 62
     7
100
AcDbLine
 10
147.719883914
 20
104.0622000447
 30
0.0
 11
147.1713494471
 21
104.0419520848
 31
0.0
  0
LINE
  5
203
330
1A3
100
AcDbEntity
  8
10976038_HEBEL_E
  6
Continuous
 62
     7
100
AcDbLine
 10
147.1713494471
 20
104.0419520848
 30
0.0
 11
147.1713494471
 21
103.2538630951
 31
0.0
  0
LINE
  5
204
330
1A3
100
AcDbEntity
  8
10976038_HEBEL_E
  6
Continuous
 62
     7
100
AcDbLine
 10
147.1713494471
 20
103.2538630951
 30
0.0
 11
147.719883914
 21
103.2738537562
 31
0.0
  0
LINE
  5
205
330
1A3
100
AcDbEntity
  8
10976038_HEBEL_E
  6
Continuous
 62
     7
100
AcDbLine
 10
147.719883914
 20
103.2738537562
 30
0.0
 11
147.719883914
 21
103.6022180693
 31
0.0
  0
LINE
  5
206
330
1A3
100
AcDbEntity
  8
10976038_HEBEL_E
  6
Continuous
 62
     7
100
AcDbLine
 10
147.719883914
 20
103.6022180693
 30
0.0
 11
148.6981757719
 21
103.6521149864
 31
0.0
  0
LINE
  5
207
330
1A3
100
AcDbEntity
  8
10976038_HEBEL_E
  6
Continuous
 62
     7
100
AcDbLine
 10
148.6981757719
 20
103.6521149864
 30
0.0
 11
148.6981757719
 21
103.3234702254
 31
0.0
  0
LINE
  5
208
330
1A3
100
AcDbEntity
  8
10976038_HEBEL_E
  6
Continuous
 62
     7
100
AcDbLine
 10
148.6981757719
 20
103.3234702254
 30
0.0
 11
149.2501690508
 21
103.3592894701
 31
0.0
  0
LINE
  5
209
330
1A3
100
AcDbEntity
  8
10976038_HEBEL_E
  6
Continuous
 62
     7
100
AcDbLine
 10
149.2501690508
 20
103.3592894701
 30
0.0
 11
149.2501690508
 21
104.1488026834
 31
0.0
  0
LINE
  5
20A
330
1A3
100
AcDbEntity
  8
10976038_HEBEL_E
  6
Continuous
 62
     7
100
AcDbLine
 10
149.2501690508
 20
104.1488026834
 30
0.0
 11
148.6981757719
 21
104.1124892425
 31
0.0
  0
LINE
  5
20B
330
1A3
100
AcDbEntity
  8
10976038_HEBEL_E
  6
Continuous
 62
     7
100
AcDbLine
 10
148.6981757719
 20
104.1124892425
 30
0.0
 11
148.6981757719
 21
103.8152194451
 31
0.0
  0
LINE
  5
20C
330
1A3
100
AcDbEntity
  8
10976038_HEBEL_E
  6
Continuous
 62
     7
100
AcDbLine
 10
148.6981757719
 20
103.8152194451
 30
0.0
 11
147.719883914
 21
103.7651834862
 31
0.0
  0
LINE
  5
20D
330
1A3
100
AcDbEntity
  8
10976038_HEBEL_E
  6
Continuous
 62
     7
100
AcDbLine
 10
147.719883914
 20
103.7651834863
 30
0.0
 11
147.719883914
 21
104.0622000447
 31
0.0
  0
LINE
  5
20E
330
1A3
100
AcDbEntity
  8
10976038_HEBEL_E
  6
Continuous
 62
     7
100
AcDbLine
 10
148.6981757719
 20
103.5443462831
 30
0.0
 11
149.2501690508
 21
103.580319861
 31
0.0
  0
LINE
  5
20F
330
1A3
100
AcDbEntity
  8
10976038_HEBEL_E
  6
Continuous
 62
     7
100
AcDbLine
 10
148.6981757719
 20
103.8734406729
 30
0.0
 11
148.6981757719
 21
103.6521149864
 31
0.0
  0
LINE
  5
210
330
1A3
100
AcDbEntity
  8
10976038_HEBEL_E
  6
Continuous
 62
     7
100
AcDbLine
 10
147.719883914
 20
103.8233248959
 30
0.0
 11
147.719883914
 21
103.6022180693
 31
0.0
  0
LINE
  5
211
330
1A3
100
AcDbEntity
  8
10976038_HEBEL_E
  6
Continuous
 62
     7
100
AcDbLine
 10
147.1713494471
 20
103.4744357522
 30
0.0
 11
147.719883914
 21
103.4945140275
 31
0.0
  0
LINE
  5
212
330
1A3
100
AcDbEntity
  8
10976038_HEBEL_E
  6
Continuous
 62
     7
100
AcDbLine
 10
151.4402409746
 20
103.7033881862
 30
0.0
 11
151.4402409746
 21
103.5560887562
 31
0.0
  0
LINE
  5
213
330
1A3
100
AcDbEntity
  8
10976038_HEBEL_E
  6
Continuous
 62
     7
100
AcDbLine
 10
150.3982738596
 20
103.5986849184
 30
0.0
 11
151.4402409746
 21
103.7033881862
 31
0.0
  0
LINE
  5
214
330
1A3
100
AcDbEntity
  8
10976038_HEBEL_E
  6
Continuous
 62
     7
100
AcDbLine
 10
150.3982738596
 20
104.0124780192
 30
0.0
 11
150.3982738596
 21
103.7905837384
 31
0.0
  0
LINE
  5
215
330
1A3
100
AcDbEntity
  8
10976038_HEBEL_E
  6
Continuous
 62
     7
100
AcDbLine
 10
150.3982738596
 20
103.7905837384
 30
0.0
 11
150.3982738596
 21
103.5986849184
 31
0.0
  0
LINE
  5
216
330
1A3
100
AcDbEntity
  8
10976038_HEBEL_E
  6
Continuous
 62
     7
100
AcDbLine
 10
151.1536931187
 20
103.8647945803
 30
0.0
 11
150.3982738596
 21
103.7905837384
 31
0.0
  0
LINE
  5
217
330
1A3
100
AcDbEntity
  8
10976038_HEBEL_E
  6
Continuous
 62
     7
100
AcDbLine
 10
151.1536931187
 20
104.0116385443
 30
0.0
 11
151.1536931187
 21
103.8647945803
 31
0.0
  0
LINE
  5
218
330
1A3
100
AcDbEntity
  8
10976038_HEBEL_E
  6
Continuous
 62
     7
100
AcDbLine
 10
150.3982738596
 20
103.9372409004
 30
0.0
 11
151.1536931187
 21
104.0116385443
 31
0.0
  0
LINE
  5
219
330
1A3
100
AcDbEntity
  8
10976038_HEBEL_E
  6
Continuous
 62
     7
100
AcDbLine
 10
150.3982738596
 20
104.2469462504
 30
0.0
 11
150.3982738596
 21
104.0870678499
 31
0.0
  0
LINE
  5
21A
330
1A3
100
AcDbEntity
  8
10976038_HEBEL_E
  6
Continuous
 62
     7
100
AcDbLine
 10
150.3982738596
 20
104.0870678499
 30
0.0
 11
150.3982738596
 21
103.9372409004
 31
0.0
  0
LINE
  5
21B
330
1A3
100
AcDbEntity
  8
10976038_HEBEL_E
  6
Continuous
 62
     7
100
AcDbLine
 10
151.2985768661
 20
104.1771422395
 30
0.0
 11
150.3982738596
 21
104.0870678499
 31
0.0
  0
LINE
  5
21C
330
1A3
100
AcDbEntity
  8
10976038_HEBEL_E
  6
Continuous
 62
     7
100
AcDbLine
 10
151.2985768661
 20
104.3327504322
 30
0.0
 11
151.2985768661
 21
104.1771422395
 31
0.0
  0
LINE
  5
21D
330
1A3
100
AcDbEntity
  8
10976038_HEBEL_E
  6
Continuous
 62
     7
100
AcDbLine
 10
149.8497393927
 20
104.1946676833
 30
0.0
 11
151.2985768661
 21
104.3327504322
 31
0.0
  0
LINE
  5
21E
330
1A3
100
AcDbEntity
  8
10976038_HEBEL_E
  6
Continuous
 62
     7
100
AcDbLine
 10
149.8497393927
 20
103.4045292396
 30
0.0
 11
149.8497393927
 21
104.1946676833
 31
0.0
  0
LINE
  5
21F
330
1A3
100
AcDbEntity
  8
10976038_HEBEL_E
  6
Continuous
 62
     7
100
AcDbLine
 10
151.4402409746
 20
103.5560887561
 30
0.0
 11
149.8497393926
 21
103.4045292396
 31
0.0
  0
LINE
  5
220
330
1A3
100
AcDbEntity
  8
10976038_HEBEL_E
  6
Continuous
 62
     7
100
AcDbLine
 10
150.3982738596
 20
103.6782426259
 30
0.0
 11
149.8497393927
 21
103.6257529797
 31
0.0
  0
LINE
  5
221
330
1A3
100
AcDbEntity
  8
10976038_HEBEL_E
  6
Continuous
 62
     7
100
AcDbLine
 10
150.932255559
 20
103.1430491035
 30
0.0
 11
150.932255559
 21
103.0560345172
 31
0.0
  0
SPLINE
  5
222
330
1A3
100
AcDbEntity
  8
10976038_HEBEL_E
  6
Continuous
 62
     7
100
AcDbSpline
210
0.0
220
0.0
230
1.0
 70
     8
 71
     3
 72
    22
 73
    18
 74
     0
 42
0.0000000018253536
 43
0.0000000001
 40
0.0
 40
0.0
 40
0.0
 40
0.0
 40
0.1249999999999999
 40
0.1249999999999999
 40
0.2499999999999998
 40
0.2499999999999998
 40
0.3749999999999999
 40
0.3749999999999999
 40
0.5
 40
0.5
 40
0.6250000000000001
 40
0.6250000000000001
 40
0.7500000000000001
 40
0.7500000000000001
 40
0.8750000000000001
 40
0.8750000000000001
 40
1.0
 40
1.0
 40
1.0
 40
1.0
 10
150.9322555589711
 20
103.0560345171616
 30
0.0
 10
150.6978742091244
 20
103.0241398835859
 30
0.0
 10
150.4675142176458
 20
103.0085929245025
 30
0.0
 10
150.0121338819071
 20
103.0001917365275
 30
0.0
 10
149.7867843924104
 20
103.0063344049796
 30
0.0
 10
149.3411843061031
 20
103.024581827351
 30
0.0
 10
149.1197317196621
 20
103.0368313029521
 30
0.0
 10
148.6687180687236
 20
103.0541953198326
 30
0.0
 10
148.4359266844996
 20
103.0593264732883
 30
0.0
 10
147.971437392807
 20
103.0457137458014
 30
0.0
 10
147.7373823181107
 20
103.0249328474847
 30
0.0
 10
147.2802949089168
 20
102.9706542224537
 30
0.0
 10
147.0580697056877
 20
102.93797736074
 30
0.0
 10
146.6142466582786
 20
102.8746210749881
 30
0.0
 10
146.3925421963438
 20
102.843722473243
 30
0.0
 10
145.9416645360646
 20
102.7964564910993
 30
0.0
 10
145.712623046743
 20
102.7798311653626
 30
0.0
 10
145.4742502229501
 20
102.7793424365521
 30
0.0
  0
LINE
  5
223
330
1A3
100
AcDbEntity
  8
10976038_HEBEL_E
  6
Continuous
 62
     7
100
AcDbLine
 10
151.115572595
 20
103.1646347004
 30
0.0
 11
150.932255559
 21
103.0560345171
 31
0.0
  0
SPLINE
  5
224
330
1A3
100
AcDbEntity
  8
10976038_HEBEL_E
  6
Continuous
 62
     7
100
AcDbSpline
210
0.0
220
0.0
230
1.0
 70
     8
 71
     3
 72
    20
 73
    16
 74
     0
 42
0.0000000008805396
 43
0.0000000001
 40
0.0
 40
0.0
 40
0.0
 40
0.0
 40
0.1249999999999999
 40
0.1249999999999999
 40
0.2499999999999998
 40
0.2499999999999998
 40
0.4999999999999999
 40
0.4999999999999999
 40
0.6249999999999999
 40
0.6249999999999999
 40
0.7499999999999999
 40
0.7499999999999999
 40
0.875
 40
0.875
 40
1.0
 40
1.0
 40
1.0
 40
1.0
 10
139.832927850963
 20
103.1747898770742
 30
0.0
 10
140.3095562808117
 20
103.0964673318784
 30
0.0
 10
140.7929401004728
 20
103.0869332748663
 30
0.0
 10
141.715371105138
 20
103.1184784473709
 30
0.0
 10
142.1683105892857
 20
103.1539295078197
 30
0.0
 10
143.6163259008908
 20
103.1242877688987
 30
0.0
 10
144.5064730828885
 20
102.8637663268615
 30
0.0
 10
145.9431619426248
 20
102.8594507480256
 30
0.0
 10
146.4048266982872
 20
102.9244973245736
 30
0.0
 10
147.3188118916455
 20
103.0561994354183
 30
0.0
 10
147.7971357689587
 20
103.1275736442847
 30
0.0
 10
148.7526351749283
 20
103.1483908716151
 30
0.0
 10
149.214111732009
 20
103.1124086658182
 30
0.0
 10
150.1397514224494
 20
103.0784116515166
 30
0.0
 10
150.6314784334624
 20
103.085892541536
 30
0.0
 10
151.1155725949826
 20
103.1646347004491
 30
0.0
  0
LINE
  5
225
330
1A3
100
AcDbEntity
  8
10976038_HEBEL_E
  6
Continuous
 62
     7
100
AcDbLine
 10
140.0162448869
 20
103.1573625869
 30
0.0
 11
140.0162448869
 21
103.065756372
 31
0.0
  0
LINE
  5
226
330
1A3
100
AcDbEntity
  8
10976038_HEBEL_E
  6
Continuous
 62
     7
100
AcDbLine
 10
140.0162448869
 20
103.065756372
 30
0.0
 11
139.832927851
 21
103.174789877
 31
0.0
  0
LINE
  5
227
330
1A3
100
AcDbEntity
  8
10976038_HEBEL_E
  6
Continuous
 62
     7
100
AcDbLine
 10
145.474250223
 20
102.8669511359
 30
0.0
 11
145.474250223
 21
102.7793424366
 31
0.0
  0
SPLINE
  5
228
330
1A3
100
AcDbEntity
  8
10976038_HEBEL_E
  6
Continuous
 62
     7
100
AcDbSpline
210
0.0
220
0.0
230
1.0
 70
     8
 71
     3
 72
    22
 73
    18
 74
     0
 42
0.0000000018251642
 43
0.0000000001
 40
0.0
 40
0.0
 40
0.0
 40
0.0
 40
0.1250000000000001
 40
0.1250000000000001
 40
0.2500000000000002
 40
0.2500000000000002
 40
0.3750000000000002
 40
0.3750000000000002
 40
0.5000000000000002
 40
0.5000000000000002
 40
0.6250000000000002
 40
0.6250000000000002
 40
0.7500000000000001
 40
0.7500000000000001
 40
0.8750000000000001
 40
0.8750000000000001
 40
1.0
 40
1.0
 40
1.0
 40
1.0
 10
145.4742502229501
 20
102.7793424365521
 30
0.0
 10
145.2376530250281
 20
102.7803064825855
 30
0.0
 10
145.0100696136314
 20
102.7971574516401
 30
0.0
 10
144.5619560945032
 20
102.8448155494025
 30
0.0
 10
144.341553916172
 20
102.8758671765932
 30
0.0
 10
143.9005347024378
 20
102.9396549069689
 30
0.0
 10
143.6797931402641
 20
102.9725978313582
 30
0.0
 10
143.2267690874358
 20
103.0277816392946
 30
0.0
 10
142.9904814906619
 20
103.0497160398205
 30
0.0
 10
142.5286949157199
 20
103.0650942488544
 30
0.0
 10
142.2999901910377
 20
103.0608806311417
 30
0.0
 10
141.8484434242336
 20
103.0447043946246
 30
0.0
 10
141.6258630692641
 20
103.0327574850511
 30
0.0
 10
141.1789839772922
 20
103.0148162724531
 30
0.0
 10
140.9547852512609
 20
103.0086474450655
 30
0.0
 10
140.4961213352442
 20
103.0167875347135
 30
0.0
 10
140.2610826275618
 20
103.0320420077688
 30
0.0
 10
140.0162448869389
 20
103.0657563719786
 30
0.0
  0
SPLINE
  5
229
330
1A3
100
AcDbEntity
  8
10976038_HEBEL_E
  6
Continuous
 62
     7
100
AcDbSpline
210
0.0
220
0.0
230
1.0
 70
     8
 71
     3
 72
    20
 73
    16
 74
     0
 42
0.0000000021818845
 43
0.0000000001
 40
0.0
 40
0.0
 40
0.0
 40
0.0
 40
0.1250000000000008
 40
0.1250000000000008
 40
0.2500000000000013
 40
0.2500000000000013
 40
0.3750000000000018
 40
0.3750000000000018
 40
0.4375000000000019
 40
0.4375000000000019
 40
0.5000000000000019
 40
0.5000000000000019
 40
0.750000000000001
 40
0.750000000000001
 40
1.0
 40
1.0
 40
1.0
 40
1.0
 10
140.9086183829486
 20
102.7341451176066
 30
0.0
 10
141.0999433830863
 20
102.7372736046724
 30
0.0
 10
141.2912926504102
 20
102.7414199956484
 30
0.0
 10
141.6740402358085
 20
102.7517702448782
 30
0.0
 10
141.8650327163749
 20
102.7585310580825
 30
0.0
 10
142.2488208453366
 20
102.7717256564787
 30
0.0
 10
142.4432715035509
 20
102.7758768682386
 30
0.0
 10
142.7446605989186
 20
102.7705350092072
 30
0.0
 10
142.8450312361359
 20
102.766712580399
 30
0.0
 10
143.0409886841316
 20
102.754677592705
 30
0.0
 10
143.1373764838804
 20
102.7466342273109
 30
0.0
 10
143.6137501910597
 20
102.6996295444291
 30
0.0
 10
143.9777264045439
 20
102.6412451926186
 30
0.0
 10
144.7128449209413
 20
102.5419076073026
 30
0.0
 10
145.0827555187601
 20
102.4989494479777
 30
0.0
 10
145.474250222941
 20
102.497406815567
 30
0.0
  0
SPLINE
  5
22A
330
1A3
100
AcDbEntity
  8
10976038_HEBEL_E
  6
Continuous
 62
     7
100
AcDbSpline
210
0.0
220
0.0
230
1.0
 70
     8
 71
     3
 72
    20
 73
    16
 74
     0
 42
0.0000000021824732
 43
0.0000000001
 40
0.0
 40
0.0
 40
0.0
 40
0.0
 40
0.1250000000000002
 40
0.1250000000000002
 40
0.2500000000000003
 40
0.2500000000000003
 40
0.5000000000000003
 40
0.5000000000000003
 40
0.5625000000000003
 40
0.5625000000000003
 40
0.6250000000000002
 40
0.6250000000000002
 40
0.7500000000000001
 40
0.7500000000000001
 40
1.0
 40
1.0
 40
1.0
 40
1.0
 10
145.474250222941
 20
102.497406815567
 30
0.0
 10
145.6762277558067
 20
102.4978145530827
 30
0.0
 10
145.8704205610128
 20
102.5095514229497
 30
0.0
 10
146.2517298799917
 20
102.5442540004415
 30
0.0
 10
146.4387470451504
 20
102.5673619250636
 30
0.0
 10
146.9976975759986
 20
102.6423336782809
 30
0.0
 10
147.3670747412503
 20
102.7008276410507
 30
0.0
 10
147.8518431681549
 20
102.7456682078882
 30
0.0
 10
147.9507564918293
 20
102.7531915786135
 30
0.0
 10
148.1484437812822
 20
102.7636627209093
 30
0.0
 10
148.2460155658729
 20
102.7664819961018
 30
0.0
 10
148.5358982849859
 20
102.7697269410011
 30
0.0
 10
148.7254291174413
 20
102.7650484688847
 30
0.0
 10
149.2893330763191
 20
102.7441940625895
 30
0.0
 10
149.6644856674157
 20
102.7328638902731
 30
0.0
 10
150.0398820629522
 20
102.7261890064535
 30
0.0
  0
LINE
  5
22B
330
1A3
100
AcDbEntity
  8
10976038_HEBEL_E
  6
Continuous
 62
     7
100
AcDbLine
 10
150.039882063
 20
102.7261890065
 30
0.0
 11
150.247410783
 21
102.8057937106
 31
0.0
  0
SPLINE
  5
22C
330
1A3
100
AcDbEntity
  8
10976038_HEBEL_E
  6
Continuous
 62
     7
100
AcDbSpline
210
0.0
220
0.0
230
1.0
 70
     8
 71
     3
 72
    18
 73
    14
 74
     0
 42
0.0000000010416697
 43
0.0000000001
 40
0.0
 40
0.0
 40
0.0
 40
0.0
 40
0.1250000000000001
 40
0.1250000000000001
 40
0.2500000000000001
 40
0.2500000000000001
 40
0.5000000000000001
 40
0.5000000000000001
 40
0.7500000000000002
 40
0.7500000000000002
 40
0.8750000000000001
 40
0.8750000000000001
 40
1.0
 40
1.0
 40
1.0
 40
1.0
 10
150.247410782951
 20
102.8057937105977
 30
0.0
 10
149.8562372424825
 20
102.8110914541072
 30
0.0
 10
149.4649665710143
 20
102.8206567864338
 30
0.0
 10
148.6822265616208
 20
102.8485161451517
 30
0.0
 10
148.2762729581704
 20
102.8595830115524
 30
0.0
 10
147.0768331592078
 20
102.7629928133916
 30
0.0
 10
146.3229176012794
 20
102.5810933388294
 30
0.0
 10
144.6906984152592
 20
102.5725055791665
 30
0.0
 10
143.9506204762534
 20
102.7528579805088
 30
0.0
 10
142.7283547032822
 20
102.8632698340137
 30
0.0
 10
142.3018053118533
 20
102.8559317706542
 30
0.0
 10
141.5012733482124
 20
102.8282929002999
 30
0.0
 10
141.1011243226853
 20
102.8190094903618
 30
0.0
 10
140.7010896629512
 20
102.8141616357119
 30
0.0
  0
LINE
  5
22D
330
1A3
100
AcDbEntity
  8
10976038_HEBEL_E
  6
Continuous
 62
     7
100
AcDbLine
 10
140.7010896629
 20
102.8141616357
 30
0.0
 11
140.908618383
 21
102.7341451176
 31
0.0
  0
LINE
  5
22E
330
1A3
100
AcDbEntity
  8
10976038_HEBEL_E
  6
Continuous
 62
     7
100
AcDbLine
 10
140.908618383
 20
102.8204761738
 30
0.0
 11
140.9086183829
 21
102.7341451176
 31
0.0
  0
LINE
  5
22F
330
1A3
100
AcDbEntity
  8
10976038_HEBEL_E
  6
Continuous
 62
     7
100
AcDbLine
 10
150.039882063
 20
102.8115381001
 30
0.0
 11
150.039882063
 21
102.7261890065
 31
0.0
  0
LINE
  5
230
330
1A3
100
AcDbEntity
  8
10976038_HEBEL_E
  6
Continuous
 62
     7
100
AcDbLine
 10
145.4742502229
 20
102.5828664911
 30
0.0
 11
145.4742502229
 21
102.4974068156
 31
0.0
  0
SPLINE
  5
231
330
1A3
100
AcDbEntity
  8
10976038_HEBEL_E
  6
Continuous
 62
     7
100
AcDbSpline
210
0.0
220
0.0
230
1.0
 70
     8
 71
     3
 72
    16
 73
    12
 74
     0
 42
0.0000000028147594
 43
0.0000000001
 40
0.0
 40
0.0
 40
0.0
 40
0.0
 40
0.2499999999999999
 40
0.2499999999999999
 40
0.3749999999999999
 40
0.3749999999999999
 40
0.5
 40
0.5
 40
0.7500000000000001
 40
0.7500000000000001
 40
1.0
 40
1.0
 40
1.0
 40
1.0
 10
141.9376149529405
 20
102.4817370036946
 30
0.0
 10
142.2275460863687
 20
102.4923927473611
 30
0.0
 10
142.5203499218073
 20
102.4997387004661
 30
0.0
 10
142.9768001242356
 20
102.4801031490243
 30
0.0
 10
143.1292924163868
 20
102.4679919573694
 30
0.0
 10
143.4257830732717
 20
102.4379062710872
 30
0.0
 10
143.5716321685476
 20
102.4198708235186
 30
0.0
 10
144.0058422167393
 20
102.3624610894938
 30
0.0
 10
144.2905397657637
 20
102.319772651863
 30
0.0
 10
144.8691226946269
 20
102.251140847438
 30
0.0
 10
145.1625770236818
 20
102.2243260697844
 30
0.0
 10
145.4742502229321
 20
102.2231385601328
 30
0.0
  0
SPLINE
  5
232
330
1A3
100
AcDbEntity
  8
10976038_HEBEL_E
  6
Continuous
 62
     7
100
AcDbSpline
210
0.0
220
0.0
230
1.0
 70
     8
 71
     3
 72
    16
 73
    12
 74
     0
 42
0.0000000028151095
 43
0.0000000001
 40
0.0
 40
0.0
 40
0.0
 40
0.0
 40
0.2499999999999999
 40
0.2499999999999999
 40
0.4999999999999998
 40
0.4999999999999998
 40
0.7499999999999999
 40
0.7499999999999999
 40
0.8749999999999999
 40
0.8749999999999999
 40
1.0
 40
1.0
 40
1.0
 40
1.0
 10
145.4742502229321
 20
102.2231385601328
 30
0.0
 10
145.7812583652996
 20
102.2237483272113
 30
0.0
 10
146.0741685327639
 20
102.2495442824688
 30
0.0
 10
146.6529836885647
 20
102.3169500537267
 30
0.0
 10
146.9370325407822
 20
102.3590196284991
 30
0.0
 10
147.5174759163891
 20
102.4348413489811
 30
0.0
 10
147.8147879523904
 20
102.4688265316591
 30
0.0
 10
148.2677196432886
 20
102.488033688779
 30
0.0
 10
148.4206059002298
 20
102.4893102292167
 30
0.0
 10
148.7185106848216
 20
102.4858418659167
 30
0.0
 10
148.8651914135945
 20
102.4811938688408
 30
0.0
 10
149.0108854929329
 20
102.4756232660034
 30
0.0
  0
LINE
  5
233
330
1A3
100
AcDbEntity
  8
10976038_HEBEL_E
  6
Continuous
 62
     7
100
AcDbLine
 10
149.0108854929
 20
102.475623266
 30
0.0
 11
149.3048845129
 21
102.5437255866
 31
0.0
  0
SPLINE
  5
234
330
1A3
100
AcDbEntity
  8
10976038_HEBEL_E
  6
Continuous
 62
     7
100
AcDbSpline
210
0.0
220
0.0
230
1.0
 70
     8
 71
     3
 72
    18
 73
    14
 74
     0
 42
0.0000000012983216
 43
0.0000000001
 40
0.0
 40
0.0
 40
0.0
 40
0.0
 40
0.125
 40
0.125
 40
0.25
 40
0.25
 40
0.5000000000000002
 40
0.5000000000000002
 40
0.7500000000000004
 40
0.7500000000000004
 40
0.8750000000000002
 40
0.8750000000000002
 40
1.0
 40
1.0
 40
1.0
 40
1.0
 10
149.3048845129426
 20
102.543725586641
 30
0.0
 10
148.9935927687977
 20
102.5568909888955
 30
0.0
 10
148.6813971928122
 20
102.571344982337
 30
0.0
 10
148.0322131878206
 20
102.563219988793
 30
0.0
 10
147.6953181592817
 20
102.5327092835778
 30
0.0
 10
146.7447697553204
 20
102.4137708607404
 30
0.0
 10
146.14292890469
 20
102.2989735442627
 30
0.0
 10
144.7944422863256
 20
102.3016358259729
 30
0.0
 10
144.1959661869605
 20
102.41733489716
 30
0.0
 10
143.247198206096
 20
102.5373926096358
 30
0.0
 10
142.9110616722676
 20
102.568083966432
 30
0.0
 10
142.2647490726078
 20
102.5769372018726
 30
0.0
 10
141.9537324578588
 20
102.5630262835445
 30
0.0
 10
141.64361592593
 20
102.5503618419162
 30
0.0
  0
LINE
  5
235
330
1A3
100
AcDbEntity
  8
10976038_HEBEL_E
  6
Continuous
 62
     7
100
AcDbLine
 10
141.6436159259
 20
102.5503618419
 30
0.0
 11
141.9376149529
 21
102.4817370037
 31
0.0
  0
LINE
  5
236
330
1A3
100
AcDbEntity
  8
10976038_HEBEL_E
  6
Continuous
 62
     7
100
AcDbLine
 10
141.9376149529
 20
102.5602178393
 30
0.0
 11
141.9376149529
 21
102.4817370037
 31
0.0
  0
LINE
  5
237
330
1A3
100
AcDbEntity
  8
10976038_HEBEL_E
  6
Continuous
 62
     7
100
AcDbLine
 10
149.0108854929
 20
102.5540703702
 30
0.0
 11
149.0108854929
 21
102.475623266
 31
0.0
  0
LINE
  5
238
330
1A3
100
AcDbEntity
  8
10976038_HEBEL_E
  6
Continuous
 62
     7
100
AcDbLine
 10
145.4742502229
 20
102.3006933902
 30
0.0
 11
145.4742502229
 21
102.2231385601
 31
0.0
  0
LINE
  5
239
330
1A3
100
AcDbEntity
  8
10976038_HEBEL_E
  6
Continuous
 62
     7
100
AcDbLine
 10
129.7976996513
 20
102.8541572856
 30
0.0
 11
128.7448276023
 21
103.1396826316
 31
0.0
  0
ARC
  5
23A
330
1A3
100
AcDbEntity
  8
10976038_HEBEL_E
  6
Continuous
 62
     7
100
AcDbCircle
 10
98.7219080335
 20
75.1536891843
 30
0.0
 40
41.62956590820206
100
AcDbArc
 50
41.7133053014
 51
45.7682214571
  0
LINE
  5
23B
330
1A3
100
AcDbEntity
  8
10976038_HEBEL_E
  6
Continuous
 62
     7
100
AcDbLine
 10
126.6414053048
 20
105.3266308045
 30
0.0
 11
127.7611372248
 21
104.9822648406
 31
0.0
  0
LINE
  5
23C
330
1A3
100
AcDbEntity
  8
10976038_HEBEL_E
  6
Continuous
 62
     7
100
AcDbLine
 10
128.7448276023
 20
103.8607419257
 30
0.0
 11
128.7448276023
 21
103.1396826316
 31
0.0
  0
ARC
  5
23D
330
1A3
100
AcDbEntity
  8
10976038_HEBEL_E
  6
Continuous
 62
     7
100
AcDbCircle
 10
96.3559074477
 20
74.0928063528
 30
0.0
 40
43.50589810972841
100
AcDbArc
 50
41.8862378134
 51
45.8831503054
  0
LINE
  5
23E
330
1A3
100
AcDbEntity
  8
10976038_HEBEL_E
  6
Continuous
 62
     7
100
AcDbLine
 10
128.9121369865
 20
103.8148831118
 30
0.0
 11
128.7448276023
 21
103.8607419257
 31
0.0
  0
ARC
  5
23F
330
1A3
100
AcDbEntity
  8
10976038_HEBEL_E
  6
Continuous
 62
     7
100
AcDbCircle
 10
95.9023189854
 20
74.5605536626
 30
0.0
 40
44.01285499141305
100
AcDbArc
 50
41.7374990969
 51
43.7614897408
  0
LINE
  5
240
330
1A3
100
AcDbEntity
  8
10976038_HEBEL_E
  6
Continuous
 62
     7
100
AcDbLine
 10
162.0609160009
 20
103.8216128613
 30
0.0
 11
162.2036728437
 21
103.8607419246
 31
0.0
  0
ARC
  5
241
330
1A3
100
AcDbEntity
  8
10976038_HEBEL_E
  6
Continuous
 62
     7
100
AcDbCircle
 10
195.0461814586
 20
74.5605536594
 30
0.0
 40
44.01285499142674
100
AcDbArc
 50
136.2958248709
 51
138.2625008994
  0
ARC
  5
242
330
1A3
100
AcDbEntity
  8
10976038_HEBEL_E
  6
Continuous
 62
     7
100
AcDbCircle
 10
194.5343587823
 20
74.048996203
 30
0.0
 40
43.47963702997805
100
AcDbArc
 50
134.0435600402
 51
138.0374682709
  0
LINE
  5
243
330
1A3
100
AcDbEntity
  8
10976038_HEBEL_E
  6
Continuous
 62
     7
100
AcDbLine
 10
162.2036728437
 20
103.8607419246
 30
0.0
 11
162.2036728437
 21
103.1214158305
 31
0.0
  0
LINE
  5
244
330
1A3
100
AcDbEntity
  8
10976038_HEBEL_E
  6
Continuous
 62
     7
100
AcDbLine
 10
164.3070951412
 20
105.302657893
 30
0.0
 11
163.1873632213
 21
104.9592977295
 31
0.0
  0
ARC
  5
245
330
1A3
100
AcDbEntity
  8
10976038_HEBEL_E
  6
Continuous
 62
     7
100
AcDbCircle
 10
192.149573951
 20
75.1299527009
 30
0.0
 40
41.57642932223257
100
AcDbArc
 50
134.1549886254
 51
138.2093935847
  0
LINE
  5
246
330
1A3
100
AcDbEntity
  8
10976038_HEBEL_E
  6
Continuous
 62
     7
100
AcDbLine
 10
161.1508007946
 20
102.8369109964
 30
0.0
 11
162.2036728437
 21
103.1214158305
 31
0.0
  0
ARC
  5
247
330
1A3
100
AcDbEntity
  8
10976038_HEBEL_E
  6
Continuous
 62
     7
100
AcDbCircle
 10
347.9657251048
 20
139.8647249141
 30
0.0
 40
229.7410563612728
100
AcDbArc
 50
180.0933721608
 51
186.441260681
  0
ARC
  5
248
330
1A3
100
AcDbEntity
  8
10976038_HEBEL_E
  6
Continuous
 62
     7
100
AcDbCircle
 10
145.4850584207
 20
159.8175546283
 30
0.0
 40
63.7274346642186
100
AcDbArc
 50
258.1477641545
 51
281.8835848124
  0
LINE
  5
249
330
1A3
100
AcDbEntity
  8
10976038_HEBEL_E
  6
Continuous
 62
     7
100
AcDbLine
 10
172.7046782832
 20
138.9483037535
 30
0.0
 11
172.7210874253
 21
139.7933418335
 31
0.0
  0
ARC
  5
24A
330
1A3
100
AcDbEntity
  8
10976038_HEBEL_E
  6
Continuous
 62
     7
100
AcDbCircle
 10
-50.0000978717
 20
139.3928306638
 30
0.0
 40
222.7052198005628
100
AcDbArc
 50
353.4630339319
 51
359.8856356722
  0
LINE
  5
24B
330
1A3
100
AcDbEntity
  8
10976038_HEBEL_E
  6
Continuous
 62
     7
100
AcDbLine
 10
118.2246101372
 20
139.7933783974
 30
0.0
 11
118.2250296108
 21
139.4673667513
 31
0.0
  0
ARC
  5
24C
330
1A3
100
AcDbEntity
  8
10976038_HEBEL_E
  6
Continuous
 62
     7
100
AcDbCircle
 10
157.6836917754
 20
115.9127754903
 30
0.0
 40
13.74147765331208
100
AcDbArc
 50
312.501083113
 51
350.0591480709
  0
ARC
  5
24D
330
1A3
100
AcDbEntity
  8
10976038_HEBEL_E
  6
Continuous
 62
     7
100
AcDbCircle
 10
133.1269298714
 20
115.8626526268
 30
0.0
 40
13.59060884806145
100
AcDbArc
 50
189.4347138424
 51
228.3680929035
  0
SPLINE
  5
24E
330
1A3
100
AcDbEntity
  8
10976038_HEBEL_E
  6
Continuous
 62
     7
100
AcDbSpline
210
0.0
220
0.0
230
1.0
 70
     8
 71
     3
 72
    18
 73
    14
 74
     0
 42
0.0000000018428306
 43
0.0000000001
 40
0.0
 40
0.0
 40
0.0
 40
0.0
 40
0.0233073773885324
 40
0.0567826644988083
 40
0.1380765842443331
 40
0.2266459424550158
 40
0.3268157787737889
 40
0.4388564033135786
 40
0.5652665860508467
 40
0.6990832260831029
 40
0.8408082848975782
 40
0.956883310341544
 40
1.0
 40
1.0
 40
1.0
 40
1.0
 10
163.2389740294903
 20
101.8865534377635
 30
0.0
 10
163.2481140937813
 20
101.9037091588275
 30
0.0
 10
163.2674526699792
 20
101.9397342126074
 30
0.0
 10
163.3082724604023
 20
102.0062289762984
 30
0.0
 10
163.4168949956521
 20
102.1659094934838
 30
0.0
 10
163.6219764059855
 20
102.424438750657
 30
0.0
 10
163.9198442775662
 20
102.7666660002319
 30
0.0
 10
164.3167184936177
 20
103.1910513425395
 30
0.0
 10
164.8258808999926
 20
103.7074486431631
 30
0.0
 10
165.4463641786288
 20
104.3153081250636
 30
0.0
 10
166.0841122644775
 20
104.9481361415084
 30
0.0
 10
166.6013001338429
 20
105.4511405068893
 30
0.0
 10
166.8824189181668
 20
105.724382567798
 30
0.0
 10
166.9717091663993
 20
105.8111180339934
 30
0.0
  0
ARC
  5
24F
330
1A3
100
AcDbEntity
  8
10976038_HEBEL_E
  6
Continuous
 62
     7
100
AcDbCircle
 10
106.7778235334
 20
85.3415126094
 30
0.0
 40
26.74314596962116
100
AcDbArc
 50
38.1310674332
 51
49.6622682543
  0
SPLINE
  5
250
330
1A3
100
AcDbEntity
  8
10976038_HEBEL_E
  6
Continuous
 62
     7
100
AcDbSpline
210
0.0
220
0.0
230
1.0
 70
     8
 71
     3
 72
    16
 73
    12
 74
     0
 42
0.0000000015636606
 43
0.0000000001
 40
0.0
 40
0.0
 40
0.0
 40
0.0
 40
0.0597450409824257
 40
0.1577451405363293
 40
0.2719524962435516
 40
0.4018277132284389
 40
0.5375569472936387
 40
0.6688396099929481
 40
0.7948543429362988
 40
0.8979219960346083
 40
1.0
 40
1.0
 40
1.0
 40
1.0
 10
158.9274393657664
 20
97.43323683660869
 30
0.0
 10
159.0413352086713
 20
97.459111661671
 30
0.0
 10
159.2957468952303
 20
97.51839697251788
 30
0.0
 10
159.7222966201668
 20
97.71453400879234
 30
0.0
 10
160.2117662922834
 20
98.0172579757724
 30
0.0
 10
160.7373861474935
 20
98.44592586794305
 30
0.0
 10
161.2808797941679
 20
98.9955486883399
 30
0.0
 10
161.825843739109
 20
99.65247660085342
 30
0.0
 10
162.3299009723802
 20
100.3578367711476
 30
0.0
 10
162.8120979980114
 20
101.106963700671
 30
0.0
 10
163.0905030546719
 20
101.605413710274
 30
0.0
 10
163.2549841065119
 20
101.9014626587015
 30
0.0
  0
SPLINE
  5
251
330
1A3
100
AcDbEntity
  8
10976038_HEBEL_E
  6
Continuous
 62
     7
100
AcDbSpline
210
0.0
220
0.0
230
1.0
 70
     8
 71
     3
 72
    17
 73
    13
 74
     0
 42
0.0000000015785387
 43
0.0000000001
 40
0.0
 40
0.0
 40
0.0
 40
0.0
 40
0.0640206494612025
 40
0.1718187097268722
 40
0.2789061299941399
 40
0.4020639726039705
 40
0.5268664948719712
 40
0.6565791854164256
 40
0.7915170980115168
 40
0.9032514150715669
 40
0.9973281810832018
 40
1.0
 40
1.0
 40
1.0
 40
1.0
 10
127.8055144106242
 20
101.8632306750419
 30
0.0
 10
127.9066195221236
 20
101.6729087343946
 30
0.0
 10
128.1364849691345
 20
101.2415085995898
 30
0.0
 10
128.5432172534799
 20
100.589970073922
 30
0.0
 10
129.0084892620401
 20
99.90200082862954
 30
0.0
 10
129.4962654159469
 20
99.26956092607165
 30
0.0
 10
130.0067572139433
 20
98.69963987851303
 30
0.0
 10
130.5330274627143
 20
98.21272960951852
 30
0.0
 10
131.0541596208988
 20
97.8313441570518
 30
0.0
 10
131.5582626366573
 20
97.57913853208589
 30
0.0
 10
131.90035016183
 20
97.44379999420957
 30
0.0
 10
132.0674469953684
 20
97.4219009011796
 30
0.0
 10
132.0727975711775
 20
97.42120077869156
 30
0.0
  0
LINE
  5
252
330
1A3
100
AcDbEntity
  8
10976038_HEBEL_E
  6
Continuous
 62
     7
100
AcDbLine
 10
146.2107433031
 20
103.6190893463
 30
0.0
 11
146.2107433031
 21
103.840093934
 31
0.0
  0
LINE
  5
253
330
1A3
100
AcDbEntity
  8
10976038_HEBEL_E
  6
Continuous
 62
     7
100
AcDbLine
 10
144.7308395189
 20
103.841839568
 30
0.0
 11
144.7308395189
 21
103.6208227966
 31
0.0
  0
ENDBLK
  5
255
330
1A3
100
AcDbEntity
  8
0
100
AcDbBlockEnd
  0
ENDSEC
  0
SECTION
  2
ENTITIES
  0
INSERT
  5
5F
330
1F
100
AcDbEntity
  8
Default
100
AcDbBlockReference
  2
SEANNOT_GROUP
 10
0.0
 20
0.0
 30
0.0
  0
INSERT
  5
6A
330
1F
100
AcDbEntity
  8
Default
100
AcDbBlockReference
  2
SEANNOT_GROUP1
 10
0.0
 20
0.0
 30
0.0
  0
INSERT
  5
70
330
1F
100
AcDbEntity
  8
Default
100
AcDbBlockReference
  2
SEANNOT_GROUP2
 10
0.0
 20
0.0
 30
0.0
  0
INSERT
  5
76
330
1F
100
AcDbEntity
  8
Default
100
AcDbBlockReference
  2
SE
 10
0.0
 20
0.0
 30
0.0
  0
INSERT
  5
11A
330
1F
100
AcDbEntity
  8
Default
100
AcDbBlockReference
  2
SE1
 10
0.0
 20
0.0
 30
0.0
  0
INSERT
  5
1A4
330
1F
100
AcDbEntity
  8
Default
100
AcDbBlockReference
  2
SE2
 10
0.0
 20
0.0
 30
0.0
  0
TEXT
  5
257
330
1F
100
AcDbEntity
  8
Default
  6
Continuous
 62
     7
100
AcDbText
 10
5.9362635081
 20
53.4225120485
 30
0.0
 40
10.0
  1
Grohe AG^J
  7
SEACAD_seiso_ttf
 11
5.9362635081
 21
63.4225120485
 31
0.0
100
AcDbText
 73
     3
  0
TEXT
  5
258
330
1F
100
AcDbEntity
  8
Default
  6
Continuous
 62
     7
100
AcDbText
 10
5.9362635081
 20
37.0588756849
 30
0.0
 40
10.0
  1
 
  7
SEACAD_seiso_ttf
 11
5.9362635081
 21
47.0588756849
 31
0.0
100
AcDbText
 73
     3
  0
TEXT
  5
259
330
1F
100
AcDbEntity
  8
Default
  6
Continuous
 62
     7
100
AcDbText
 10
5.9362635081
 20
20.6952393213
 30
0.0
 40
10.0
  1
ecn: 
  7
SEACAD_seiso_ttf
 11
5.9362635081
 21
30.6952393213
 31
0.0
100
AcDbText
 73
     3
  0
TEXT
  5
25A
330
1F
100
AcDbEntity
  8
Default
  6
Continuous
 62
     7
100
AcDbText
 10
5.9362635081
 20
4.3316029576
 30
0.0
 40
10.0
  1
unit: mm
  7
SEACAD_seiso_ttf
 11
5.9362635081
 21
14.3316029576
 31
0.0
100
AcDbText
 73
     3
  0
LINE
  5
25B
330
1F
100
AcDbEntity
  8
Default
  6
Continuous
 62
     7
100
AcDbLine
 10
0.0
 20
0.0
 30
0.0
 11
100.0
 21
0.0
 31
0.0
  0
LINE
  5
25C
330
1F
100
AcDbEntity
  8
Default
  6
Continuous
 62
     7
100
AcDbLine
 10
0.0
 20
0.0
 30
0.0
 11
0.0
 21
100.0
 31
0.0
  0
TEXT
  5
25D
330
1F
100
AcDbEntity
  8
Default
  6
Continuous
 62
     7
100
AcDbText
 10
24.3923665681
 20
-18.2375342018
 30
0.0
 40
10.0
  1
100 mm
  7
SEACAD_seiso_ttf
 11
24.3923665681
 21
-8.2375342018
 31
0.0
100
AcDbText
 73
     3
  0
TEXT
  5
25E
330
1F
100
AcDbEntity
  8
Default
  6
Continuous
 62
     7
100
AcDbText
 10
-7.6150308803
 20
24.6231930421
 30
0.0
 40
10.0
  1
100 mm
 50
90.0
  7
SEACAD_seiso_ttf
 11
-17.6150308803
 21
24.6231930421
 31
0.0
100
AcDbText
 73
     3
  0
TEXT
  5
25F
330
1F
100
AcDbEntity
  8
Default
  6
Continuous
 62
     7
100
AcDbText
 10
28.4878128572
 20
20.0907663715
 30
0.0
 40
10.0
  1
205017
  7
SEACAD_seiso_ttf
 11
28.4878128572
 21
30.0907663715
 31
0.0
100
AcDbText
 73
     3
  0
TEXT
  5
260
330
1F
100
AcDbEntity
  8
Default
  6
Continuous
 62
     7
100
AcDbText
 10
5.9012241913
 20
36.7242780188
 30
0.0
 40
10.0
  1
19450001
  7
SEACAD_seiso_ttf
 11
5.9012241913
 21
46.7242780188
 31
0.0
100
AcDbText
 73
     3
  0
ENDSEC
  0
SECTION
  2
OBJECTS
  0
DICTIONARY
  5
C
330
0
100
AcDbDictionary
281
     1
  3
ACAD_GROUP
350
D
  3
ACAD_LAYOUT
350
1A
  3
ACAD_MLEADERSTYLE
350
264
  3
ACAD_MLINESTYLE
350
17
  3
ACAD_PLOTSETTINGS
350
19
  3
ACAD_PLOTSTYLENAME
350
E
  3
ACAD_SCALELIST
350
3B
  3
ACAD_TABLESTYLE
350
263
  3
ACAD_VISUALSTYLE
350
2A
  3
AcDbVariableDictionary
350
261
  0
DICTIONARY
  5
D
102
{ACAD_REACTORS
330
C
102
}
330
C
100
AcDbDictionary
281
     1
  0
DICTIONARY
  5
1A
102
{ACAD_REACTORS
330
C
102
}
330
C
100
AcDbDictionary
281
     1
  3
Layout1
350
1E
  3
Model
350
22
  0
DICTIONARY
  5
264
102
{ACAD_REACTORS
330
C
102
}
330
C
100
AcDbDictionary
281
     1
  0
DICTIONARY
  5
17
102
{ACAD_REACTORS
330
C
102
}
330
C
100
AcDbDictionary
281
     1
  3
Standard
350
18
  0
DICTIONARY
  5
19
102
{ACAD_REACTORS
330
C
102
}
330
C
100
AcDbDictionary
281
     1
  0
ACDBDICTIONARYWDFLT
  5
E
102
{ACAD_REACTORS
330
C
102
}
330
C
100
AcDbDictionary
281
     1
  3
Normal
350
F
100
AcDbDictionaryWithDefault
340
F
  0
DICTIONARY
  5
3B
102
{ACAD_REACTORS
330
C
102
}
330
C
100
AcDbDictionary
281
     1
  3
A0
350
3C
  3
A1
350
3D
  3
A2
350
3E
  3
A3
350
3F
  3
A4
350
40
  3
A5
350
41
  3
A6
350
42
  3
A7
350
43
  3
A8
350
44
  3
A9
350
45
  3
B0
350
46
  3
B1
350
47
  3
B2
350
48
  3
B3
350
49
  3
B4
350
4A
  3
B5
350
4B
  3
B6
350
4C
  3
B7
350
4D
  3
B8
350
4E
  3
B9
350
4F
  3
C0
350
50
  3
C1
350
51
  3
C2
350
52
  3
C3
350
53
  3
C4
350
54
  3
C5
350
55
  3
C6
350
56
  3
C7
350
57
  3
C8
350
58
  3
C9
350
59
  3
D0
350
5A
  3
D1
350
5B
  3
D2
350
5C
  0
DICTIONARY
  5
263
102
{ACAD_REACTORS
330
C
102
}
330
C
100
AcDbDictionary
281
     1
  0
DICTIONARY
  5
2A
102
{ACAD_REACTORS
330
C
102
}
330
C
100
AcDbDictionary
281
     1
  3
2dWireframe
350
2F
  3
3D Hidden
350
31
  3
3dWireframe
350
30
  3
Basic
350
32
  3
Brighten
350
36
  3
ColorChange
350
3A
  3
Conceptual
350
34
  3
Dim
350
35
  3
Facepattern
350
39
  3
Flat
350
2B
  3
FlatWithEdges
350
2C
  3
Gouraud
350
2D
  3
GouraudWithEdges
350
2E
  3
Linepattern
350
38
  3
Realistic
350
33
  3
Thicken
350
37
  0
DICTIONARY
  5
261
102
{ACAD_REACTORS
330
C
102
}
330
C
100
AcDbDictionary
281
     1
  3
CANNOSCALE
350
262
  3
PSOLHEIGHT
350
266
  3
PSOLWIDTH
350
265
  0
LAYOUT
  5
1E
102
{ACAD_REACTORS
330
1A
102
}
330
1A
100
AcDbPlotSettings
  1

  2
none_device
  4

  6

 40
0.0
 41
0.0
 42
0.0
 43
0.0
 44
0.0
 45
0.0
 46
0.0
 47
0.0
 48
0.0
 49
0.0
140
0.0
141
0.0
142
1.0
143
1.0
 70
   688
 72
     0
 73
     0
 74
     5
  7

 75
    16
147
1.0
148
0.0
149
0.0
100
AcDbLayout
  1
Layout1
 70
     1
 71
     1
 10
0.0
 20
0.0
 11
1682.0
 21
2378.0
 12
0.0
 22
0.0
 32
0.0
 14
0.0
 24
0.0
 34
0.0
 15
1682.0
 25
2378.0
 35
0.0
146
0.0
 13
0.0
 23
0.0
 33
0.0
 16
1.0
 26
0.0
 36
0.0
 17
0.0
 27
1.0
 37
0.0
 76
     0
330
1B
  0
LAYOUT
  5
22
102
{ACAD_REACTORS
330
1A
102
}
330
1A
100
AcDbPlotSettings
  1

  2
none_device
  4

  6

 40
0.0
 41
0.0
 42
0.0
 43
0.0
 44
0.0
 45
0.0
 46
0.0
 47
0.0
 48
0.0
 49
0.0
140
0.0
141
0.0
142
1.0
143
1.0
 70
  1712
 72
     0
 73
     0
 74
     0
  7

 75
     0
147
1.0
148
0.0
149
0.0
100
AcDbLayout
  1
Model
 70
     1
 71
     0
 10
0.0
 20
0.0
 11
1682.0
 21
2378.0
 12
0.0
 22
0.0
 32
0.0
 14
0.0
 24
0.0
 34
0.0
 15
1682.0
 25
2378.0
 35
0.0
146
0.0
 13
0.0
 23
0.0
 33
0.0
 16
1.0
 26
0.0
 36
0.0
 17
0.0
 27
1.0
 37
0.0
 76
     0
330
1F
331
29
  0
MLINESTYLE
  5
18
102
{ACAD_REACTORS
330
17
102
}
330
17
100
AcDbMlineStyle
  2
Standard
 70
     0
  3

 62
   256
 51
90.0
 52
90.0
 71
     2
 49
0.5
 62
   256
  6
BYLAYER
 49
-0.5
 62
   256
  6
BYLAYER
  0
ACDBPLACEHOLDER
  5
F
102
{ACAD_REACTORS
330
E
102
}
330
E
  0
SCALE
  5
3C
102
{ACAD_REACTORS
330
3B
102
}
330
3B
100
AcDbScale
 70
     0
300
1:1
140
1.0
141
1.0
290
     1
  0
SCALE
  5
3D
102
{ACAD_REACTORS
330
3B
102
}
330
3B
100
AcDbScale
 70
     0
300
1:2
140
1.0
141
2.0
290
     0
  0
SCALE
  5
3E
102
{ACAD_REACTORS
330
3B
102
}
330
3B
100
AcDbScale
 70
     0
300
1:4
140
1.0
141
4.0
290
     0
  0
SCALE
  5
3F
102
{ACAD_REACTORS
330
3B
102
}
330
3B
100
AcDbScale
 70
     0
300
1:5
140
1.0
141
5.0
290
     0
  0
SCALE
  5
40
102
{ACAD_REACTORS
330
3B
102
}
330
3B
100
AcDbScale
 70
     0
300
1:8
140
1.0
141
8.0
290
     0
  0
SCALE
  5
41
102
{ACAD_REACTORS
330
3B
102
}
330
3B
100
AcDbScale
 70
     0
300
1:10
140
1.0
141
10.0
290
     0
  0
SCALE
  5
42
102
{ACAD_REACTORS
330
3B
102
}
330
3B
100
AcDbScale
 70
     0
300
1:16
140
1.0
141
16.0
290
     0
  0
SCALE
  5
43
102
{ACAD_REACTORS
330
3B
102
}
330
3B
100
AcDbScale
 70
     0
300
1:20
140
1.0
141
20.0
290
     0
  0
SCALE
  5
44
102
{ACAD_REACTORS
330
3B
102
}
330
3B
100
AcDbScale
 70
     0
300
1:30
140
1.0
141
30.0
290
     0
  0
SCALE
  5
45
102
{ACAD_REACTORS
330
3B
102
}
330
3B
100
AcDbScale
 70
     0
300
1:40
140
1.0
141
40.0
290
     0
  0
SCALE
  5
46
102
{ACAD_REACTORS
330
3B
102
}
330
3B
100
AcDbScale
 70
     0
300
1:50
140
1.0
141
50.0
290
     0
  0
SCALE
  5
47
102
{ACAD_REACTORS
330
3B
102
}
330
3B
100
AcDbScale
 70
     0
300
1:100
140
1.0
141
100.0
290
     0
  0
SCALE
  5
48
102
{ACAD_REACTORS
330
3B
102
}
330
3B
100
AcDbScale
 70
     0
300
2:1
140
2.0
141
1.0
290
     0
  0
SCALE
  5
49
102
{ACAD_REACTORS
330
3B
102
}
330
3B
100
AcDbScale
 70
     0
300
4:1
140
4.0
141
1.0
290
     0
  0
SCALE
  5
4A
102
{ACAD_REACTORS
330
3B
102
}
330
3B
100
AcDbScale
 70
     0
300
8:1
140
8.0
141
1.0
290
     0
  0
SCALE
  5
4B
102
{ACAD_REACTORS
330
3B
102
}
330
3B
100
AcDbScale
 70
     0
300
10:1
140
10.0
141
1.0
290
     0
  0
SCALE
  5
4C
102
{ACAD_REACTORS
330
3B
102
}
330
3B
100
AcDbScale
 70
     0
300
100:1
140
100.0
141
1.0
290
     0
  0
SCALE
  5
4D
102
{ACAD_REACTORS
330
3B
102
}
330
3B
100
AcDbScale
 70
     0
300
1/128" = 1'-0"
140
0.0078125
141
12.0
290
     0
  0
SCALE
  5
4E
102
{ACAD_REACTORS
330
3B
102
}
330
3B
100
AcDbScale
 70
     0
300
1/64" = 1'-0"
140
0.015625
141
12.0
290
     0
  0
SCALE
  5
4F
102
{ACAD_REACTORS
330
3B
102
}
330
3B
100
AcDbScale
 70
     0
300
1/32" = 1'-0"
140
0.03125
141
12.0
290
     0
  0
SCALE
  5
50
102
{ACAD_REACTORS
330
3B
102
}
330
3B
100
AcDbScale
 70
     0
300
1/16" = 1'-0"
140
0.0625
141
12.0
290
     0
  0
SCALE
  5
51
102
{ACAD_REACTORS
330
3B
102
}
330
3B
100
AcDbScale
 70
     0
300
3/32" = 1'-0"
140
0.09375
141
12.0
290
     0
  0
SCALE
  5
52
102
{ACAD_REACTORS
330
3B
102
}
330
3B
100
AcDbScale
 70
     0
300
1/8" = 1'-0"
140
0.125
141
12.0
290
     0
  0
SCALE
  5
53
102
{ACAD_REACTORS
330
3B
102
}
330
3B
100
AcDbScale
 70
     0
300
3/16" = 1'-0"
140
0.1875
141
12.0
290
     0
  0
SCALE
  5
54
102
{ACAD_REACTORS
330
3B
102
}
330
3B
100
AcDbScale
 70
     0
300
1/4" = 1'-0"
140
0.25
141
12.0
290
     0
  0
SCALE
  5
55
102
{ACAD_REACTORS
330
3B
102
}
330
3B
100
AcDbScale
 70
     0
300
3/8" = 1'-0"
140
0.375
141
12.0
290
     0
  0
SCALE
  5
56
102
{ACAD_REACTORS
330
3B
102
}
330
3B
100
AcDbScale
 70
     0
300
1/2" = 1'-0"
140
0.5
141
12.0
290
     0
  0
SCALE
  5
57
102
{ACAD_REACTORS
330
3B
102
}
330
3B
100
AcDbScale
 70
     0
300
3/4" = 1'-0"
140
0.75
141
12.0
290
     0
  0
SCALE
  5
58
102
{ACAD_REACTORS
330
3B
102
}
330
3B
100
AcDbScale
 70
     0
300
1" = 1'-0"
140
1.0
141
12.0
290
     0
  0
SCALE
  5
59
102
{ACAD_REACTORS
330
3B
102
}
330
3B
100
AcDbScale
 70
     0
300
1-1/2" = 1'-0"
140
1.5
141
12.0
290
     0
  0
SCALE
  5
5A
102
{ACAD_REACTORS
330
3B
102
}
330
3B
100
AcDbScale
 70
     0
300
3" = 1'-0"
140
3.0
141
12.0
290
     0
  0
SCALE
  5
5B
102
{ACAD_REACTORS
330
3B
102
}
330
3B
100
AcDbScale
 70
     0
300
6" = 1'-0"
140
6.0
141
12.0
290
     0
  0
SCALE
  5
5C
102
{ACAD_REACTORS
330
3B
102
}
330
3B
100
AcDbScale
 70
     0
300
1'-0" = 1'-0"
140
12.0
141
12.0
290
     0
  0
VISUALSTYLE
  5
2F
102
{ACAD_REACTORS
330
2A
102
}
330
2A
100
AcDbVisualStyle
  2
2dWireframe
 70
     4
 71
     0
 72
     2
 73
     0
 90
        0
 40
-0.6
 41
-30.0
 62
     5
 63
     7
 74
     1
 91
        4
 64
     7
 65
   257
 75
     1
175
     1
 42
1.0
 92
        0
 66
   257
 43
1.0
 76
     1
 77
     6
 78
     2
 67
     7
 79
     5
170
     0
171
     0
290
     0
174
     0
 93
        1
 44
0.0
173
     0
291
     0
 45
0.0
1001
ACAD
1000
AcDbSavedByObjectVersion
1070
     0
  0
VISUALSTYLE
  5
31
102
{ACAD_REACTORS
330
2A
102
}
330
2A
100
AcDbVisualStyle
  2
3D Hidden
 70
     6
 71
     1
 72
     2
 73
     2
 90
        0
 40
-0.6
 41
-30.0
 62
     5
 63
     7
 74
     2
 91
        2
 64
     7
 65
   257
 75
     2
175
     1
 42
40.0
 92
        0
 66
   257
 43
1.0
 76
     1
 77
     6
 78
     2
 67
     7
 79
     3
170
     0
171
     0
290
     0
174
     0
 93
        1
 44
0.0
173
     0
291
     0
 45
0.0
1001
ACAD
1000
AcDbSavedByObjectVersion
1070
     0
  0
VISUALSTYLE
  5
30
102
{ACAD_REACTORS
330
2A
102
}
330
2A
100
AcDbVisualStyle
  2
3dWireframe
 70
     5
 71
     0
 72
     2
 73
     0
 90
        0
 40
-0.6
 41
-30.0
 62
     5
 63
     7
 74
     1
 91
        4
 64
     7
 65
   257
 75
     1
175
     1
 42
1.0
 92
        0
 66
   257
 43
1.0
 76
     1
 77
     6
 78
     2
 67
     7
 79
     5
170
     0
171
     0
290
     0
174
     0
 93
        1
 44
0.0
173
     0
291
     0
 45
0.0
1001
ACAD
1000
AcDbSavedByObjectVersion
1070
     0
  0
VISUALSTYLE
  5
32
102
{ACAD_REACTORS
330
2A
102
}
330
2A
100
AcDbVisualStyle
  2
Basic
 70
     7
 71
     1
 72
     0
 73
     1
 90
        0
 40
-0.6
 41
-30.0
 62
     5
 63
     7
 74
     0
 91
        4
 64
     7
 65
   257
 75
     1
175
     1
 42
1.0
 92
        8
 66
     7
 43
1.0
 76
     1
 77
     6
 78
     2
 67
     7
 79
     5
170
     0
171
     0
290
     0
174
     0
 93
        1
 44
0.0
173
     0
291
     1
 45
0.0
1001
ACAD
1000
AcDbSavedByObjectVersion
1070
     0
  0
VISUALSTYLE
  5
36
102
{ACAD_REACTORS
330
2A
102
}
330
2A
100
AcDbVisualStyle
  2
Brighten
 70
    12
 71
     2
 72
     2
 73
     0
 90
        0
 40
-0.6
 41
-30.0
 62
     5
 63
     7
 74
     1
 91
        4
 64
     7
 65
   257
 75
     1
175
     1
 42
1.0
 92
        8
 66
     7
 43
1.0
 76
     1
 77
     6
 78
     2
 67
     7
 79
     5
170
     0
171
     0
290
     0
174
     0
 93
        1
 44
50.0
173
     0
291
     1
 45
0.0
1001
ACAD
1000
AcDbSavedByObjectVersion
1070
     0
  0
VISUALSTYLE
  5
3A
102
{ACAD_REACTORS
330
2A
102
}
330
2A
100
AcDbVisualStyle
  2
ColorChange
 70
    16
 71
     2
 72
     2
 73
     3
 90
        0
 40
-0.6
 41
-30.0
 62
     5
 63
     8
 74
     1
 91
        4
 64
     7
 65
   257
 75
     1
175
     1
 42
1.0
 92
        8
 66
     8
 43
1.0
 76
     1
 77
     6
 78
     2
 67
     7
 79
     5
170
     0
171
     0
290
     0
174
     0
 93
        1
 44
0.0
173
     0
291
     1
 45
0.0
1001
ACAD
1000
AcDbSavedByObjectVersion
1070
     0
  0
VISUALSTYLE
  5
34
102
{ACAD_REACTORS
330
2A
102
}
330
2A
100
AcDbVisualStyle
  2
Conceptual
 70
     9
 71
     3
 72
     2
 73
     0
 90
        0
 40
-0.6
 41
-30.0
 62
     5
 63
     7
 74
     2
 91
        2
 64
     7
 65
   257
 75
     1
175
     1
 42
40.0
 92
        8
 66
     7
 43
1.0
 76
     1
 77
     6
 78
     2
 67
     7
 79
     3
170
     0
171
     0
290
     0
174
     0
 93
        1
 44
0.0
173
     0
291
     0
 45
0.0
1001
ACAD
1000
AcDbSavedByObjectVersion
1070
     0
  0
VISUALSTYLE
  5
35
102
{ACAD_REACTORS
330
2A
102
}
330
2A
100
AcDbVisualStyle
  2
Dim
 70
    11
 71
     2
 72
     2
 73
     0
 90
        0
 40
-0.6
 41
-30.0
 62
     5
 63
     7
 74
     1
 91
        4
 64
     7
 65
   257
 75
     1
175
     1
 42
1.0
 92
        8
 66
     7
 43
1.0
 76
     1
 77
     6
 78
     2
 67
     7
 79
     5
170
     0
171
     0
290
     0
174
     0
 93
        1
 44
-50.0
173
     0
291
     1
 45
0.0
1001
ACAD
1000
AcDbSavedByObjectVersion
1070
     0
  0
VISUALSTYLE
  5
39
102
{ACAD_REACTORS
330
2A
102
}
330
2A
100
AcDbVisualStyle
  2
Facepattern
 70
    15
 71
     2
 72
     2
 73
     0
 90
        0
 40
-0.6
 41
-30.0
 62
     5
 63
     7
 74
     1
 91
        4
 64
     7
 65
   257
 75
     1
175
     1
 42
1.0
 92
        8
 66
     7
 43
1.0
 76
     1
 77
     6
 78
     2
 67
     7
 79
     5
170
     0
171
     0
290
     0
174
     0
 93
        1
 44
0.0
173
     0
291
     1
 45
0.0
1001
ACAD
1000
AcDbSavedByObjectVersion
1070
     0
  0
VISUALSTYLE
  5
2B
102
{ACAD_REACTORS
330
2A
102
}
330
2A
100
AcDbVisualStyle
  2
Flat
 70
     0
 71
     2
 72
     1
 73
     1
 90
        2
 40
-0.6
 41
30.0
 62
     5
 63
     7
 74
     0
 91
        4
 64
     7
 65
   257
 75
     1
175
     1
 42
1.0
 92
        8
 66
     7
 43
1.0
 76
     1
 77
     6
 78
     2
 67
     7
 79
     5
170
     0
171
     0
290
     0
174
     0
 93
       13
 44
0.0
173
     0
291
     1
 45
0.0
1001
ACAD
1000
AcDbSavedByObjectVersion
1070
     0
  0
VISUALSTYLE
  5
2C
102
{ACAD_REACTORS
330
2A
102
}
330
2A
100
AcDbVisualStyle
  2
FlatWithEdges
 70
     1
 71
     2
 72
     1
 73
     1
 90
        2
 40
-0.6
 41
30.0
 62
     5
 63
     7
 74
     1
 91
        4
 64
     7
 65
   257
 75
     1
175
     1
 42
1.0
 92
        0
 66
   257
 43
1.0
 76
     1
 77
     6
 78
     2
 67
     7
 79
     5
170
     0
171
     0
290
     0
174
     0
 93
       13
 44
0.0
173
     0
291
     1
 45
0.0
1001
ACAD
1000
AcDbSavedByObjectVersion
1070
     0
  0
VISUALSTYLE
  5
2D
102
{ACAD_REACTORS
330
2A
102
}
330
2A
100
AcDbVisualStyle
  2
Gouraud
 70
     2
 71
     2
 72
     2
 73
     1
 90
        2
 40
-0.6
 41
30.0
 62
     5
 63
     7
 74
     0
 91
        4
 64
     7
 65
   257
 75
     1
175
     1
 42
1.0
 92
        0
 66
     7
 43
1.0
 76
     1
 77
     6
 78
     2
 67
     7
 79
     5
170
     0
171
     0
290
     0
174
     0
 93
       13
 44
0.0
173
     0
291
     1
 45
0.0
1001
ACAD
1000
AcDbSavedByObjectVersion
1070
     0
  0
VISUALSTYLE
  5
2E
102
{ACAD_REACTORS
330
2A
102
}
330
2A
100
AcDbVisualStyle
  2
GouraudWithEdges
 70
     3
 71
     2
 72
     2
 73
     1
 90
        2
 40
-0.6
 41
30.0
 62
     5
 63
     7
 74
     1
 91
        4
 64
     7
 65
   257
 75
     1
175
     1
 42
1.0
 92
        0
 66
   257
 43
1.0
 76
     1
 77
     6
 78
     2
 67
     7
 79
     5
170
     0
171
     0
290
     0
174
     0
 93
       13
 44
0.0
173
     0
291
     1
 45
0.0
1001
ACAD
1000
AcDbSavedByObjectVersion
1070
     0
  0
VISUALSTYLE
  5
38
102
{ACAD_REACTORS
330
2A
102
}
330
2A
100
AcDbVisualStyle
  2
Linepattern
 70
    14
 71
     2
 72
     2
 73
     0
 90
        0
 40
-0.6
 41
-30.0
 62
     5
 63
     7
 74
     1
 91
        4
 64
     7
 65
   257
 75
     7
175
     7
 42
1.0
 92
        8
 66
     7
 43
1.0
 76
     1
 77
     6
 78
     2
 67
     7
 79
     5
170
     0
171
     0
290
     0
174
     0
 93
        1
 44
0.0
173
     0
291
     1
 45
0.0
1001
ACAD
1000
AcDbSavedByObjectVersion
1070
     0
  0
VISUALSTYLE
  5
33
102
{ACAD_REACTORS
330
2A
102
}
330
2A
100
AcDbVisualStyle
  2
Realistic
 70
     8
 71
     2
 72
     2
 73
     0
 90
        0
 40
-0.6
 41
-30.0
 62
     5
 63
     7
 74
     1
 91
        0
 64
     7
 65
   257
 75
     1
175
     1
 42
1.0
 92
        8
 66
     8
 43
1.0
 76
     1
 77
     6
 78
     2
 67
     7
 79
     5
170
     0
171
     0
290
     0
174
     0
 93
       13
 44
0.0
173
     0
291
     0
 45
0.0
1001
ACAD
1000
AcDbSavedByObjectVersion
1070
     0
  0
VISUALSTYLE
  5
37
102
{ACAD_REACTORS
330
2A
102
}
330
2A
100
AcDbVisualStyle
  2
Thicken
 70
    13
 71
     2
 72
     2
 73
     0
 90
        0
 40
-0.6
 41
-30.0
 62
     5
 63
     7
 74
     1
 91
        4
 64
     7
 65
   257
 75
     1
175
     1
 42
1.0
 92
       12
 66
     7
 43
1.0
 76
     1
 77
     6
 78
     2
 67
     7
 79
     5
170
     0
171
     0
290
     0
174
     0
 93
        1
 44
0.0
173
     0
291
     1
 45
0.0
1001
ACAD
1000
AcDbSavedByObjectVersion
1070
     0
  0
DICTIONARYVAR
  5
262
102
{ACAD_REACTORS
330
261
102
}
330
261
100
DictionaryVariables
280
     0
  1
1:1
  0
DICTIONARYVAR
  5
266
102
{ACAD_REACTORS
330
261
102
}
330
261
100
DictionaryVariables
280
     0
  1
80.000000
  0
DICTIONARYVAR
  5
265
102
{ACAD_REACTORS
330
261
102
}
330
261
100
DictionaryVariables
280
     0
  1
5.000000
  0
ENDSEC
  0
EOF
