  0
SECTION
  2
HEADER
  9
$ACADVER
  1
AC1015
  9
$ACADMAINTVER
 70
     6
  9
$DWGCODEPAGE
  3
ANSI_1252
  9
$INSBASE
 10
0.0
 20
0.0
 30
0.0
  9
$EXTMIN
 10
0.0
 20
0.0
 30
0.0
  9
$EXTMAX
 10
1682.0
 20
2378.0
 30
0.0
  9
$LIMMIN
 10
0.0
 20
0.0
  9
$LIMMAX
 10
1682.0
 20
2378.0
  9
$ORTHOMODE
 70
     0
  9
$REGENMODE
 70
     1
  9
$FILLMODE
 70
     1
  9
$QTEXTMODE
 70
     0
  9
$MIRRTEXT
 70
     1
  9
$LTSCALE
 40
1.0
  9
$ATTMODE
 70
     1
  9
$TEXTSIZE
 40
2.5
  9
$TRACEWID
 40
1.0
  9
$TEXTSTYLE
  7
Standard
  9
$CLAYER
  8
0
  9
$CELTYPE
  6
ByLayer
  9
$CECOLOR
 62
   256
  9
$CELTSCALE
 40
1.0
  9
$DISPSILH
 70
     0
  9
$DIMSCALE
 40
1.0
  9
$DIMASZ
 40
2.5
  9
$DIMEXO
 40
0.625
  9
$DIMDLI
 40
3.75
  9
$DIMRND
 40
0.0
  9
$DIMDLE
 40
0.0
  9
$DIMEXE
 40
1.25
  9
$DIMTP
 40
0.0
  9
$DIMTM
 40
0.0
  9
$DIMTXT
 40
2.5
  9
$DIMCEN
 40
2.5
  9
$DIMTSZ
 40
0.0
  9
$DIMTOL
 70
     0
  9
$DIMLIM
 70
     0
  9
$DIMTIH
 70
     0
  9
$DIMTOH
 70
     0
  9
$DIMSE1
 70
     0
  9
$DIMSE2
 70
     0
  9
$DIMTAD
 70
     1
  9
$DIMZIN
 70
     8
  9
$DIMBLK
  1

  9
$DIMASO
 70
     1
  9
$DIMSHO
 70
     1
  9
$DIMPOST
  1

  9
$DIMAPOST
  1

  9
$DIMALT
 70
     0
  9
$DIMALTD
 70
     3
  9
$DIMALTF
 40
0.0393700787
  9
$DIMLFAC
 40
1.0
  9
$DIMTOFL
 70
     1
  9
$DIMTVP
 40
0.0
  9
$DIMTIX
 70
     0
  9
$DIMSOXD
 70
     0
  9
$DIMSAH
 70
     0
  9
$DIMBLK1
  1

  9
$DIMBLK2
  1

  9
$DIMSTYLE
  2
ISO-25
  9
$DIMCLRD
 70
     0
  9
$DIMCLRE
 70
     0
  9
$DIMCLRT
 70
     0
  9
$DIMTFAC
 40
1.0
  9
$DIMGAP
 40
0.625
  9
$DIMJUST
 70
     0
  9
$DIMSD1
 70
     0
  9
$DIMSD2
 70
     0
  9
$DIMTOLJ
 70
     0
  9
$DIMTZIN
 70
     8
  9
$DIMALTZ
 70
     0
  9
$DIMALTTZ
 70
     0
  9
$DIMUPT
 70
     0
  9
$DIMDEC
 70
     2
  9
$DIMTDEC
 70
     2
  9
$DIMALTU
 70
     2
  9
$DIMALTTD
 70
     3
  9
$DIMTXSTY
  7
Standard
  9
$DIMAUNIT
 70
     0
  9
$DIMADEC
 70
     0
  9
$DIMALTRND
 40
0.0
  9
$DIMAZIN
 70
     0
  9
$DIMDSEP
 70
    44
  9
$DIMATFIT
 70
     3
  9
$DIMFRAC
 70
     0
  9
$DIMLDRBLK
  1

  9
$DIMLUNIT
 70
     2
  9
$DIMLWD
 70
    -2
  9
$DIMLWE
 70
    -2
  9
$DIMTMOVE
 70
     0
  9
$LUNITS
 70
     2
  9
$LUPREC
 70
     4
  9
$SKETCHINC
 40
1.0
  9
$FILLETRAD
 40
10.0
  9
$AUNITS
 70
     0
  9
$AUPREC
 70
     0
  9
$MENU
  1
.
  9
$ELEVATION
 40
0.0
  9
$PELEVATION
 40
0.0
  9
$THICKNESS
 40
0.0
  9
$LIMCHECK
 70
     0
  9
$CHAMFERA
 40
10.0
  9
$CHAMFERB
 40
10.0
  9
$CHAMFERC
 40
20.0
  9
$CHAMFERD
 40
0.0
  9
$SKPOLY
 70
     0
  9
$TDCREATE
 40
2455463.484378021
  9
$TDUCREATE
 40
2455463.401044688
  9
$TDUPDATE
 40
2455463.484378032
  9
$TDUUPDATE
 40
2455463.401044699
  9
$TDINDWG
 40
0.0000000116
  9
$TDUSRTIMER
 40
0.0000000116
  9
$USRTIMER
 70
     1
  9
$ANGBASE
 50
0.0
  9
$ANGDIR
 70
     0
  9
$PDMODE
 70
     0
  9
$PDSIZE
 40
0.0
  9
$PLINEWID
 40
0.0
  9
$SPLFRAME
 70
     0
  9
$SPLINETYPE
 70
     6
  9
$SPLINESEGS
 70
     8
  9
$HANDSEED
  5
30B
  9
$SURFTAB1
 70
     6
  9
$SURFTAB2
 70
     6
  9
$SURFTYPE
 70
     6
  9
$SURFU
 70
     6
  9
$SURFV
 70
     6
  9
$UCSBASE
  2

  9
$UCSNAME
  2

  9
$UCSORG
 10
0.0
 20
0.0
 30
0.0
  9
$UCSXDIR
 10
1.0
 20
0.0
 30
0.0
  9
$UCSYDIR
 10
0.0
 20
1.0
 30
0.0
  9
$UCSORTHOREF
  2

  9
$UCSORTHOVIEW
 70
     0
  9
$UCSORGTOP
 10
0.0
 20
0.0
 30
0.0
  9
$UCSORGBOTTOM
 10
0.0
 20
0.0
 30
0.0
  9
$UCSORGLEFT
 10
0.0
 20
0.0
 30
0.0
  9
$UCSORGRIGHT
 10
0.0
 20
0.0
 30
0.0
  9
$UCSORGFRONT
 10
0.0
 20
0.0
 30
0.0
  9
$UCSORGBACK
 10
0.0
 20
0.0
 30
0.0
  9
$PUCSBASE
  2

  9
$PUCSNAME
  2

  9
$PUCSORG
 10
0.0
 20
0.0
 30
0.0
  9
$PUCSXDIR
 10
1.0
 20
0.0
 30
0.0
  9
$PUCSYDIR
 10
0.0
 20
1.0
 30
0.0
  9
$PUCSORTHOREF
  2

  9
$PUCSORTHOVIEW
 70
     0
  9
$PUCSORGTOP
 10
0.0
 20
0.0
 30
0.0
  9
$PUCSORGBOTTOM
 10
0.0
 20
0.0
 30
0.0
  9
$PUCSORGLEFT
 10
0.0
 20
0.0
 30
0.0
  9
$PUCSORGRIGHT
 10
0.0
 20
0.0
 30
0.0
  9
$PUCSORGFRONT
 10
0.0
 20
0.0
 30
0.0
  9
$PUCSORGBACK
 10
0.0
 20
0.0
 30
0.0
  9
$USERI1
 70
     0
  9
$USERI2
 70
     0
  9
$USERI3
 70
     0
  9
$USERI4
 70
     0
  9
$USERI5
 70
     0
  9
$USERR1
 40
0.0
  9
$USERR2
 40
0.0
  9
$USERR3
 40
0.0
  9
$USERR4
 40
0.0
  9
$USERR5
 40
0.0
  9
$WORLDVIEW
 70
     1
  9
$SHADEDGE
 70
     3
  9
$SHADEDIF
 70
    70
  9
$TILEMODE
 70
     1
  9
$MAXACTVP
 70
    64
  9
$PINSBASE
 10
0.0
 20
0.0
 30
0.0
  9
$PLIMCHECK
 70
     0
  9
$PEXTMIN
 10
0.0
 20
0.0
 30
0.0
  9
$PEXTMAX
 10
1682.0
 20
2378.0
 30
0.0
  9
$PLIMMIN
 10
0.0
 20
0.0
  9
$PLIMMAX
 10
1682.0
 20
2378.0
  9
$UNITMODE
 70
     0
  9
$VISRETAIN
 70
     1
  9
$PLINEGEN
 70
     0
  9
$PSLTSCALE
 70
     1
  9
$TREEDEPTH
 70
  3020
  9
$CMLSTYLE
  2
Standard
  9
$CMLJUST
 70
     0
  9
$CMLSCALE
 40
20.0
  9
$PROXYGRAPHICS
 70
     1
  9
$MEASUREMENT
 70
     1
  9
$CELWEIGHT
370
    -1
  9
$ENDCAPS
280
     0
  9
$JOINSTYLE
280
     0
  9
$LWDISPLAY
290
     0
  9
$INSUNITS
 70
     4
  9
$HYPERLINKBASE
  1

  9
$STYLESHEET
  1

  9
$XEDIT
290
     1
  9
$CEPSNTYPE
380
     0
  9
$PSTYLEMODE
290
     1
  9
$FINGERPRINTGUID
  2
{100B6226-DB22-4F98-8B1D-E583BB8C4490}
  9
$VERSIONGUID
  2
{FAEB1C32-E019-11D5-929B-00C0DF256EC4}
  9
$EXTNAMES
290
     1
  9
$PSVPSCALE
 40
0.0
  9
$OLESTARTUP
290
     0
  0
ENDSEC
  0
SECTION
  2
CLASSES
  0
CLASS
  1
ACDBDICTIONARYWDFLT
  2
AcDbDictionaryWithDefault
  3
ObjectDBX Classes
 90
        0
280
     0
281
     0
  0
CLASS
  1
VISUALSTYLE
  2
AcDbVisualStyle
  3
ObjectDBX Classes
 90
     4095
280
     0
281
     0
  0
CLASS
  1
SCALE
  2
AcDbScale
  3
ObjectDBX Classes
 90
     1153
280
     0
281
     0
  0
CLASS
  1
DICTIONARYVAR
  2
AcDbDictionaryVar
  3
ObjectDBX Classes
 90
        0
280
     0
281
     0
  0
CLASS
  1
ACDBPLACEHOLDER
  2
AcDbPlaceHolder
  3
ObjectDBX Classes
 90
        0
280
     0
281
     0
  0
CLASS
  1
LAYOUT
  2
AcDbLayout
  3
ObjectDBX Classes
 90
        0
280
     0
281
     0
  0
ENDSEC
  0
SECTION
  2
TABLES
  0
TABLE
  2
VPORT
  5
8
330
0
100
AcDbSymbolTable
 70
     1
  0
VPORT
  5
29
330
8
100
AcDbSymbolTableRecord
100
AcDbViewportTableRecord
  2
*Active
 70
     0
 10
0.0
 20
0.0
 11
1.0
 21
1.0
 12
344.1869158879
 22
148.5
 13
0.0
 23
0.0
 14
10.0
 24
10.0
 15
10.0
 25
10.0
 16
0.0
 26
0.0
 36
1.0
 17
0.0
 27
0.0
 37
0.0
 40
297.0
 41
1.9729729729
 42
50.0
 43
0.0
 44
0.0
 50
0.0
 51
0.0
 71
     0
 72
   100
 73
     1
 74
     3
 75
     0
 76
     0
 77
     0
 78
     0
281
     0
 65
     1
110
0.0
120
0.0
130
0.0
111
1.0
121
0.0
131
0.0
112
0.0
122
1.0
132
0.0
 79
     0
146
0.0
  0
ENDTAB
  0
TABLE
  2
LTYPE
  5
5
330
0
100
AcDbSymbolTable
 70
     2
  0
LTYPE
  5
14
330
5
100
AcDbSymbolTableRecord
100
AcDbLinetypeTableRecord
  2
ByBlock
 70
     0
  3

 72
    65
 73
     0
 40
0.0
  0
LTYPE
  5
15
330
5
100
AcDbSymbolTableRecord
100
AcDbLinetypeTableRecord
  2
ByLayer
 70
     0
  3

 72
    65
 73
     0
 40
0.0
  0
LTYPE
  5
16
330
5
100
AcDbSymbolTableRecord
100
AcDbLinetypeTableRecord
  2
Continuous
 70
     0
  3
Solid line
 72
    65
 73
     0
 40
0.0
  0
LTYPE
  5
60
330
5
100
AcDbSymbolTableRecord
100
AcDbLinetypeTableRecord
  2
CENTER2
 70
     0
  3
Center (.5x) ___ _ ___ _ ___ _ ___ _ ___ _ ___
 72
    65
 73
     4
 40
28.575
 49
19.05
 74
     4
 75
     0
340
0
 46
0.0
 50
0.0
 44
0.0
 45
0.0
 49
-3.175
 74
     4
 75
     0
340
0
 46
0.0
 50
0.0
 44
0.0
 45
0.0
 49
3.175
 74
     4
 75
     0
340
0
 46
0.0
 50
0.0
 44
0.0
 45
0.0
 49
-3.175
 74
     4
 75
     0
340
0
 46
0.0
 50
0.0
 44
0.0
 45
0.0
  0
ENDTAB
  0
TABLE
  2
LAYER
  5
2
330
0
100
AcDbSymbolTable
 70
     5
  0
LAYER
  5
10
330
2
100
AcDbSymbolTableRecord
100
AcDbLayerTableRecord
  2
0
 70
     0
 62
     7
  6
Continuous
370
    -3
390
F
  0
LAYER
  5
5D
330
2
100
AcDbSymbolTableRecord
100
AcDbLayerTableRecord
  2
Default
 70
     0
 62
     7
  6
Continuous
370
    -3
390
F
  0
LAYER
  5
77
330
2
100
AcDbSymbolTableRecord
100
AcDbLayerTableRecord
  2
DV1_Standard
 70
     0
 62
     7
  6
Continuous
370
    -3
390
F
  0
LAYER
  5
26C
330
2
100
AcDbSymbolTableRecord
100
AcDbLayerTableRecord
  2
DV2_Standard
 70
     0
 62
     7
  6
Continuous
370
    -3
390
F
  0
LAYER
  5
2BF
330
2
100
AcDbSymbolTableRecord
100
AcDbLayerTableRecord
  2
DV3_Standard
 70
     0
 62
     7
  6
Continuous
370
    -3
390
F
  0
ENDTAB
  0
TABLE
  2
STYLE
  5
3
330
0
100
AcDbSymbolTable
 70
     2
  0
STYLE
  5
11
330
3
100
AcDbSymbolTableRecord
100
AcDbTextStyleTableRecord
  2
Standard
 70
     0
 40
0.0
 41
1.0
 50
0.0
 71
     0
 42
2.5
  3
txt
  4

  0
STYLE
  5
2FA
330
3
100
AcDbSymbolTableRecord
100
AcDbTextStyleTableRecord
  2
SEACAD_seiso_ttf
 70
     0
 40
0.0
 41
1.0
 50
0.0
 71
     0
 42
0.2
  3
seiso.ttf
  4

  0
ENDTAB
  0
TABLE
  2
VIEW
  5
6
330
0
100
AcDbSymbolTable
 70
     0
  0
ENDTAB
  0
TABLE
  2
UCS
  5
7
330
0
100
AcDbSymbolTable
 70
     0
  0
ENDTAB
  0
TABLE
  2
APPID
  5
9
330
0
100
AcDbSymbolTable
 70
     1
  0
APPID
  5
12
330
9
100
AcDbSymbolTableRecord
100
AcDbRegAppTableRecord
  2
ACAD
 70
     0
  0
ENDTAB
  0
TABLE
  2
DIMSTYLE
  5
A
330
0
100
AcDbSymbolTable
 70
     1
100
AcDbDimStyleTable
  0
DIMSTYLE
105
27
330
A
100
AcDbSymbolTableRecord
100
AcDbDimStyleTableRecord
  2
ISO-25
 70
     0
 41
2.5
 42
0.625
 43
3.75
 44
1.25
 73
     0
 74
     0
 77
     1
 78
     8
140
2.5
141
2.5
143
0.0393700787
147
0.625
171
     3
172
     1
271
     2
272
     2
274
     3
278
    44
283
     0
284
     8
340
11
  0
ENDTAB
  0
TABLE
  2
BLOCK_RECORD
  5
1
330
0
100
AcDbSymbolTable
 70
     7
  0
BLOCK_RECORD
  5
1F
330
1
100
AcDbSymbolTableRecord
100
AcDbBlockTableRecord
  2
*Model_Space
340
22
  0
BLOCK_RECORD
  5
1B
330
1
100
AcDbSymbolTableRecord
100
AcDbBlockTableRecord
  2
*Paper_Space
340
1E
  0
BLOCK_RECORD
  5
5E
330
1
100
AcDbSymbolTableRecord
100
AcDbBlockTableRecord
  2
SEANNOT_GROUP
340
0
102
{BLKREFS
331
5F
102
}
  0
BLOCK_RECORD
  5
65
330
1
100
AcDbSymbolTableRecord
100
AcDbBlockTableRecord
  2
SEANNOT_GROUP1
340
0
102
{BLKREFS
331
66
102
}
  0
BLOCK_RECORD
  5
6B
330
1
100
AcDbSymbolTableRecord
100
AcDbBlockTableRecord
  2
SEANNOT_GROUP2
340
0
102
{BLKREFS
331
6C
102
}
  0
BLOCK_RECORD
  5
75
330
1
100
AcDbSymbolTableRecord
100
AcDbBlockTableRecord
  2
SE
340
0
102
{BLKREFS
331
76
102
}
  0
BLOCK_RECORD
  5
26A
330
1
100
AcDbSymbolTableRecord
100
AcDbBlockTableRecord
  2
SE1
340
0
102
{BLKREFS
331
26B
102
}
  0
BLOCK_RECORD
  5
2BD
330
1
100
AcDbSymbolTableRecord
100
AcDbBlockTableRecord
  2
SE2
340
0
102
{BLKREFS
331
2BE
102
}
  0
ENDTAB
  0
ENDSEC
  0
SECTION
  2
BLOCKS
  0
BLOCK
  5
20
330
1F
100
AcDbEntity
  8
0
100
AcDbBlockBegin
  2
*Model_Space
 70
     0
 10
0.0
 20
0.0
 30
0.0
  3
*Model_Space
  1

  0
ENDBLK
  5
21
330
1F
100
AcDbEntity
  8
0
100
AcDbBlockEnd
  0
BLOCK
  5
1C
330
1B
100
AcDbEntity
 67
     1
  8
0
100
AcDbBlockBegin
  2
*Paper_Space
 70
     0
 10
0.0
 20
0.0
 30
0.0
  3
*Paper_Space
  1

  0
ENDBLK
  5
1D
330
1B
100
AcDbEntity
 67
     1
  8
0
100
AcDbBlockEnd
  0
BLOCK
  5
63
330
5E
100
AcDbEntity
  8
0
100
AcDbBlockBegin
  2
SEANNOT_GROUP
 70
     0
 10
0.0
 20
0.0
 30
0.0
  3
SEANNOT_GROUP
  1

  0
LINE
  5
61
330
5E
100
AcDbEntity
  8
Default
  6
CENTER2
 62
     7
100
AcDbLine
 10
194.9417216247
 20
361.5116094508
 30
0.0
 11
154.9417225188
 21
361.5116094508
 31
0.0
  0
LINE
  5
62
330
5E
100
AcDbEntity
  8
Default
  6
CENTER2
 62
     7
100
AcDbLine
 10
174.9417220717
 20
381.5116090038
 30
0.0
 11
174.9417220717
 21
341.5116098979
 31
0.0
  0
ENDBLK
  5
64
330
5E
100
AcDbEntity
  8
0
100
AcDbBlockEnd
  0
BLOCK
  5
69
330
65
100
AcDbEntity
  8
0
100
AcDbBlockBegin
  2
SEANNOT_GROUP1
 70
     0
 10
0.0
 20
0.0
 30
0.0
  3
SEANNOT_GROUP1
  1

  0
LINE
  5
67
330
65
100
AcDbEntity
  8
Default
  6
CENTER2
 62
     7
100
AcDbLine
 10
355.5771632566
 20
361.5116094508
 30
0.0
 11
315.5771641507
 21
361.5116094508
 31
0.0
  0
LINE
  5
68
330
65
100
AcDbEntity
  8
Default
  6
CENTER2
 62
     7
100
AcDbLine
 10
335.5771637036
 20
381.5116090038
 30
0.0
 11
335.5771637036
 21
341.5116098979
 31
0.0
  0
ENDBLK
  5
6A
330
65
100
AcDbEntity
  8
0
100
AcDbBlockEnd
  0
BLOCK
  5
73
330
6B
100
AcDbEntity
  8
0
100
AcDbBlockBegin
  2
SEANNOT_GROUP2
 70
     0
 10
0.0
 20
0.0
 30
0.0
  3
SEANNOT_GROUP2
  1

  0
LINE
  5
6D
330
6B
100
AcDbEntity
  8
Default
  6
CENTER2
 62
     7
100
AcDbLine
 10
194.9417216247
 20
215.0153261642
 30
0.0
 11
154.9417225188
 21
215.0153261626
 31
0.0
  0
LINE
  5
6E
330
6B
100
AcDbEntity
  8
Default
  6
CENTER2
 62
     7
100
AcDbLine
 10
174.9417220709
 20
235.0153257164
 30
0.0
 11
174.9417220725
 21
195.0153266104
 31
0.0
  0
LINE
  5
6F
330
6B
100
AcDbEntity
  8
Default
  6
CENTER2
 62
     7
100
AcDbLine
 10
199.9417215129
 20
215.0153261644
 30
0.0
 11
197.7755351114
 21
215.0153261643
 31
0.0
  0
LINE
  5
70
330
6B
100
AcDbEntity
  8
Default
  6
CENTER2
 62
     7
100
AcDbLine
 10
174.9417220707
 20
240.0153256046
 30
0.0
 11
174.9417220708
 21
237.8418976556
 31
0.0
  0
LINE
  5
71
330
6B
100
AcDbEntity
  8
Default
  6
CENTER2
 62
     7
100
AcDbLine
 10
149.9417226305
 20
215.0153261624
 30
0.0
 11
152.1079090321
 21
215.0153261625
 31
0.0
  0
LINE
  5
72
330
6B
100
AcDbEntity
  8
Default
  6
CENTER2
 62
     7
100
AcDbLine
 10
174.9417220727
 20
190.0153267222
 30
0.0
 11
174.9417220726
 21
192.1887546712
 31
0.0
  0
ENDBLK
  5
74
330
6B
100
AcDbEntity
  8
0
100
AcDbBlockEnd
  0
BLOCK
  5
268
330
75
100
AcDbEntity
  8
0
100
AcDbBlockBegin
  2
SE
 70
     0
 10
0.0
 20
0.0
 30
0.0
  3
SE
  1

  0
ARC
  5
78
330
75
100
AcDbEntity
  8
DV1_Standard
  6
Continuous
 62
     7
100
AcDbCircle
 10
174.9417220717
 20
473.1116094508
 30
0.0
 40
20.0
100
AcDbArc
 50
151.1522598422
 51
155.1654125103
  0
ARC
  5
79
330
75
100
AcDbEntity
  8
DV1_Standard
  6
Continuous
 62
     7
100
AcDbCircle
 10
174.9417220717
 20
473.1116094508
 30
0.0
 40
20.0
100
AcDbArc
 50
24.8345874897
 51
28.8477401578
  0
ELLIPSE
  5
7A
330
75
100
AcDbEntity
  8
DV1_Standard
  6
Continuous
 62
     7
100
AcDbEllipse
 10
174.9417220717
 20
484.4558986083
 30
0.0
 11
20.00000000000002
 21
1.387778780781446E-14
 31
0.0
210
0.0
220
0.0
230
1.0
 40
0.5076039144
 41
-0.0614265361667454
 42
-0.0000000000000013
  0
ELLIPSE
  5
7B
330
75
100
AcDbEntity
  8
DV1_Standard
  6
Continuous
 62
     7
100
AcDbEllipse
 10
174.9417220717
 20
484.4558986083
 30
0.0
 11
20.00000000000002
 21
1.387778780781446E-14
 31
0.0
210
0.0
220
0.0
230
1.0
 40
0.5076039144
 41
3.141592653589791
 42
3.232815444158218
  0
ELLIPSE
  5
7C
330
75
100
AcDbEntity
  8
DV1_Standard
  6
Continuous
 62
     7
100
AcDbEllipse
 10
174.9417220717
 20
483.0079013711
 30
0.0
 11
19.70000000000001
 21
-1.387778780781446E-14
 31
0.0
210
0.0
220
0.0
230
1.0
 40
0.0273672564
 41
3.366049354831129
 42
6.052709295034462
  0
ELLIPSE
  5
7D
330
75
100
AcDbEntity
  8
DV1_Standard
  6
Continuous
 62
     7
100
AcDbEllipse
 10
174.9417220717
 20
511.8306925164
 30
0.0
 11
20.00000000000001
 21
0.0
 31
0.0
210
0.0
220
0.0
230
1.0
 40
0.0273672564
 41
3.141592653589793
 42
6.283159705562231
  0
ELLIPSE
  5
7E
330
75
100
AcDbEntity
  8
DV1_Standard
  6
Continuous
 62
     7
100
AcDbEllipse
 10
174.9417220717
 20
512.5296134998
 30
0.0
 11
19.33381303966963
 21
0.0
 31
0.0
210
0.0
220
0.0
230
1.0
 40
0.0273672564
 41
0.2850794994046407
 42
0.6017786965393717
  0
ELLIPSE
  5
7F
330
75
100
AcDbEntity
  8
DV1_Standard
  6
Continuous
 62
     7
100
AcDbEllipse
 10
174.9417220717
 20
512.5296134998
 30
0.0
 11
19.33381303966963
 21
0.0
 31
0.0
210
0.0
220
0.0
230
1.0
 40
0.0273672564
 41
-3.743371350129165
 42
-3.408748749877627
  0
ELLIPSE
  5
80
330
75
100
AcDbEntity
  8
DV1_Standard
  6
Continuous
 62
     7
100
AcDbEllipse
 10
174.9417220717
 20
512.5296134998
 30
0.0
 11
19.33381303966963
 21
0.0
 31
0.0
210
0.0
220
0.0
230
1.0
 40
0.0273672564
 41
2.874436557301959
 42
3.941863753071266
  0
ELLIPSE
  5
81
330
75
100
AcDbEntity
  8
DV1_Standard
  6
Continuous
 62
     7
100
AcDbEllipse
 10
174.9417220717
 20
512.5296134998
 30
0.0
 11
19.33381303966963
 21
0.0
 31
0.0
210
0.0
220
0.0
230
1.0
 40
0.0273672564
 41
3.941863753071266
 42
5.334361419695321
  0
ELLIPSE
  5
82
330
75
100
AcDbEntity
  8
DV1_Standard
  6
Continuous
 62
     7
100
AcDbEllipse
 10
174.9417220717
 20
512.5296134998
 30
0.0
 11
19.33381303966963
 21
0.0
 31
0.0
210
0.0
220
0.0
230
1.0
 40
0.0273672564
 41
5.334361419695321
 42
6.283185307179586
  0
LINE
  5
83
330
75
100
AcDbEntity
  8
DV1_Standard
  6
Continuous
 62
     7
100
AcDbLine
 10
183.9893411194
 20
509.5096524669
 30
0.0
 11
183.9893411194
 21
501.0128361718
 31
0.0
  0
ELLIPSE
  5
84
330
75
100
AcDbEntity
  8
DV1_Standard
  6
Continuous
 62
     7
100
AcDbEllipse
 10
174.9417220717
 20
509.9977884264
 30
0.0
 11
-19.99999999999982
 21
0.0
 31
0.0
210
0.0
220
0.0
230
1.0
 40
0.0273672564
 41
1.101363036386863
 42
2.040229617202932
  0
LINE
  5
85
330
75
100
AcDbEntity
  8
DV1_Standard
  6
Continuous
 62
     7
100
AcDbLine
 10
165.8941030241
 20
501.0128361718
 30
0.0
 11
165.8941030241
 21
509.5096524669
 31
0.0
  0
ELLIPSE
  5
86
330
75
100
AcDbEntity
  8
DV1_Standard
  6
Continuous
 62
     7
100
AcDbEllipse
 10
174.9417220717
 20
501.5009721312
 30
0.0
 11
20.00000000000005
 21
0.0
 31
0.0
210
0.0
220
0.0
230
1.0
 40
0.0273672564
 41
4.242955689976611
 42
5.181822270792767
  0
LINE
  5
87
330
75
100
AcDbEntity
  8
DV1_Standard
  6
Continuous
 62
     7
100
AcDbLine
 10
166.4417220717
 20
501.7871768905
 30
0.0
 11
166.4417220717
 21
506.3854539444
 31
0.0
  0
ARC
  5
88
330
75
100
AcDbEntity
  8
DV1_Standard
  6
Continuous
 62
     7
100
AcDbCircle
 10
161.9543382949
 20
507.2538100993
 30
0.0
 40
4.539886662595178
100
AcDbArc
 50
8.7222021187
 51
29.794719467
  0
ELLIPSE
  5
89
330
75
100
AcDbEntity
  8
DV1_Standard
  6
Continuous
 62
     7
100
AcDbEllipse
 10
174.9417220717
 20
508.9981629799
 30
0.0
 11
20.99999999999972
 21
0.0
 31
0.0
210
0.0
220
0.0
230
1.0
 40
0.0273672564
 41
4.331841788694859
 42
5.092936172074518
  0
LINE
  5
8A
330
75
100
AcDbEntity
  8
DV1_Standard
  6
Continuous
 62
     7
100
AcDbLine
 10
166.4417220717
 20
506.3854539444
 30
0.0
 11
166.4417220717
 21
507.7648268264
 31
0.0
  0
LINE
  5
8B
330
75
100
AcDbEntity
  8
DV1_Standard
  6
Continuous
 62
     7
100
AcDbLine
 10
166.4417220717
 20
507.7648268264
 30
0.0
 11
166.4417220717
 21
507.9422559929
 31
0.0
  0
LINE
  5
8C
330
75
100
AcDbEntity
  8
DV1_Standard
  6
Continuous
 62
     7
100
AcDbLine
 10
183.4417220717
 20
506.3854539444
 30
0.0
 11
183.4417220717
 21
501.7871768905
 31
0.0
  0
LINE
  5
8D
330
75
100
AcDbEntity
  8
DV1_Standard
  6
Continuous
 62
     7
100
AcDbLine
 10
183.4417220717
 20
507.9422559929
 30
0.0
 11
183.4417220717
 21
507.7648268264
 31
0.0
  0
LINE
  5
8E
330
75
100
AcDbEntity
  8
DV1_Standard
  6
Continuous
 62
     7
100
AcDbLine
 10
183.4417220717
 20
507.7648268264
 30
0.0
 11
183.4417220717
 21
506.3854539444
 31
0.0
  0
ARC
  5
8F
330
75
100
AcDbEntity
  8
DV1_Standard
  6
Continuous
 62
     7
100
AcDbCircle
 10
187.9291058486
 20
507.2538100993
 30
0.0
 40
4.539886662595176
100
AcDbArc
 50
150.205280533
 51
171.2777978813
  0
LINE
  5
90
330
75
100
AcDbEntity
  8
DV1_Standard
  6
Continuous
 62
     7
100
AcDbLine
 10
194.9417220717
 20
484.4558986083
 30
0.0
 11
194.9417220717
 21
511.8306925164
 31
0.0
  0
LINE
  5
91
330
75
100
AcDbEntity
  8
DV1_Standard
  6
Continuous
 62
     7
100
AcDbLine
 10
154.9417220717
 20
511.8306925164
 30
0.0
 11
154.9417220717
 21
484.4558986083
 31
0.0
  0
SPLINE
  5
92
330
75
100
AcDbEntity
  8
DV1_Standard
  6
Continuous
 62
     7
100
AcDbSpline
210
0.0
220
0.0
230
1.0
 70
     8
 71
     3
 72
    14
 73
    10
 74
     0
 42
0.000000013794793
 43
0.0000000001
 40
0.0
 40
0.0
 40
0.0
 40
0.0
 40
0.0578532081938107
 40
0.1826074573528166
 40
0.3064397283352133
 40
0.4413006897815145
 40
0.5999020762426275
 40
0.8183422156101363
 40
1.0
 40
1.0
 40
1.0
 40
1.0
 10
194.4667947718701
 20
482.9358878086319
 30
0.0
 10
194.4862430490471
 20
482.9379506068135
 30
0.0
 10
194.5382907335978
 20
482.9437360929725
 30
0.0
 10
194.620045775564
 20
482.9910865776245
 30
0.0
 10
194.6939031357388
 20
483.058374910379
 30
0.0
 10
194.7494032736948
 20
483.1389460133585
 30
0.0
 10
194.7942057025326
 20
483.2353504117503
 30
0.0
 10
194.8296733154619
 20
483.3474979346162
 30
0.0
 10
194.8458146873365
 20
483.4350337303422
 30
0.0
 10
194.8540776515546
 20
483.4821327827552
 30
0.0
  0
LINE
  5
93
330
75
100
AcDbEntity
  8
DV1_Standard
  6
Continuous
 62
     7
100
AcDbLine
 10
154.9894042531
 20
483.7681283153
 30
0.0
 11
155.0282578891
 21
483.4793551925
 31
0.0
  0
ARC
  5
94
330
75
100
AcDbEntity
  8
DV1_Standard
  6
Continuous
 62
     7
100
AcDbCircle
 10
191.804394856
 20
484.0703482376
 30
0.0
 40
3.107507189931856
100
AcDbArc
 50
349.0365734052
 51
354.9661711221
  0
ARC
  5
95
330
75
100
AcDbEntity
  8
DV1_Standard
  6
Continuous
 62
     7
100
AcDbCircle
 10
193.6407877767
 20
487.7003287934
 30
0.0
 40
4.840584761475695
100
AcDbArc
 50
276.0567362423
 51
279.8413898368
  0
ARC
  5
96
330
75
100
AcDbEntity
  8
DV1_Standard
  6
Continuous
 62
     7
100
AcDbCircle
 10
156.2282569377
 20
487.5754663337
 30
0.0
 40
4.715103950525076
100
AcDbArc
 50
260.0716765793
 51
263.5757611813
  0
SPLINE
  5
97
330
75
100
AcDbEntity
  8
DV1_Standard
  6
Continuous
 62
     7
100
AcDbSpline
210
0.0
220
0.0
230
1.0
 70
     8
 71
     3
 72
    13
 73
     9
 74
     0
 42
0.0000000138176427
 43
0.0000000001
 40
0.0
 40
0.0
 40
0.0
 40
0.0
 40
0.1914023941754177
 40
0.46537909756662
 40
0.620272229368917
 40
0.7558484051971468
 40
0.8806144616787803
 40
1.0
 40
1.0
 40
1.0
 40
1.0
 10
155.0293471926957
 20
483.4821530388195
 30
0.0
 10
155.0379639992012
 20
483.4328806035094
 30
0.0
 10
155.0570336929642
 20
483.3314781758224
 30
0.0
 10
155.0981065722865
 20
483.2085461984372
 30
0.0
 10
155.1564895049629
 20
483.1023391676606
 30
0.0
 10
155.220828446848
 20
483.025644933138
 30
0.0
 10
155.3089243737055
 20
482.9603880811651
 30
0.0
 10
155.3758511765343
 20
482.9417812719333
 30
0.0
 10
155.4149642776539
 20
482.9312781298229
 30
0.0
  0
ARC
  5
98
330
75
100
AcDbEntity
  8
DV1_Standard
  6
Continuous
 62
     7
100
AcDbCircle
 10
174.9417220717
 20
112.896579807
 30
0.0
 40
400.2499999999953
100
AcDbArc
 50
87.7179522164
 51
92.2820477836
  0
SPLINE
  5
99
330
75
100
AcDbEntity
  8
DV1_Standard
  6
Continuous
 62
     7
100
AcDbSpline
210
0.0
220
0.0
230
1.0
 70
     8
 71
     3
 72
    22
 73
    18
 74
     0
 42
0.0000000054208235
 43
0.0000000001
 40
0.0
 40
0.0
 40
0.0
 40
0.0
 40
0.0112010589273369
 40
0.0454151816023018
 40
0.07784359563052
 40
0.1094510102287878
 40
0.1412303928372532
 40
0.1745594990463644
 40
0.2115230470977053
 40
0.2550752400269493
 40
0.3095397392424624
 40
0.3822355487173588
 40
0.4890736110635392
 40
0.6642670260307264
 40
0.8164773808135588
 40
0.9785715381157976
 40
1.0
 40
1.0
 40
1.0
 40
1.0
 10
194.937349513318
 20
511.8304045564013
 30
0.0
 10
194.9387943881878
 20
511.8496717666
 30
0.0
 10
194.9435005535276
 20
511.9163543226281
 30
0.0
 10
194.9148263211798
 20
512.0401685034727
 30
0.0
 10
194.8592441200571
 20
512.1739011152548
 30
0.0
 10
194.7858000046318
 20
512.2821839977242
 30
0.0
 10
194.7075907093349
 20
512.3644346176247
 30
0.0
 10
194.6303301746104
 20
512.4256112374973
 30
0.0
 10
194.5562228458361
 20
512.4712838125043
 30
0.0
 10
194.4836600332333
 20
512.5066244564731
 30
0.0
 10
194.4082193851226
 20
512.5357374541351
 30
0.0
 10
194.3200712347764
 20
512.5624651733818
 30
0.0
 10
194.1962009655634
 20
512.5912269048996
 30
0.0
 10
194.0343205273285
 20
512.6188258588971
 30
0.0
 10
193.8176899023235
 20
512.646727410929
 30
0.0
 10
193.6448957146854
 20
512.6657569445867
 30
0.0
 10
193.5402055972966
 20
512.6748879851191
 30
0.0
 10
193.5259576215501
 20
512.6761281308892
 30
0.0
  0
SPLINE
  5
9A
330
75
100
AcDbEntity
  8
DV1_Standard
  6
Continuous
 62
     7
100
AcDbSpline
210
0.0
220
0.0
230
1.0
 70
     8
 71
     3
 72
    21
 73
    17
 74
     0
 42
0.0000000057355315
 43
0.0000000001
 40
0.0
 40
0.0
 40
0.0
 40
0.0
 40
0.0089217710828905
 40
0.170163066362653
 40
0.3359135373066406
 40
0.5124807016675861
 40
0.6203536444646329
 40
0.7058632043256703
 40
0.7577392037815587
 40
0.8021638480214909
 40
0.8409924228703962
 40
0.8769554448588
 40
0.9119685877807773
 40
0.946915973934649
 40
0.9819767771816029
 40
1.0
 40
1.0
 40
1.0
 40
1.0
 10
156.2572061467662
 20
512.6665900426256
 30
0.0
 10
156.2518854802446
 20
512.6660990127606
 30
0.0
 10
156.1644934171695
 20
512.6580269998508
 30
0.0
 10
156.0090699443616
 20
512.6398535111383
 30
0.0
 10
155.8072590344185
 20
512.6124002051012
 30
0.0
 10
155.6540984658776
 20
512.5844881620827
 30
0.0
 10
155.5317484880521
 20
512.5538775749466
 30
0.0
 10
155.4404085396494
 20
512.5236556052741
 30
0.0
 10
155.3559182195705
 20
512.4863660837847
 30
0.0
 10
155.2786376556436
 20
512.4428803969605
 30
0.0
 10
155.196868331333
 20
512.3831086255973
 30
0.0
 10
155.1136880872876
 20
512.3017430397226
 30
0.0
 10
155.0355034172495
 20
512.1940847531812
 30
0.0
 10
154.975706484531
 20
512.0626612986885
 30
0.0
 10
154.9426944619619
 20
511.9333311733292
 30
0.0
 10
154.9454163423852
 20
511.8600462420553
 30
0.0
 10
154.9467002946111
 20
511.8307566377336
 30
0.0
  0
ARC
  5
9B
330
75
100
AcDbEntity
  8
DV1_Standard
  6
Continuous
 62
     7
100
AcDbCircle
 10
167.1417220717
 20
501.7871768905
 30
0.0
 40
0.700000000000001
100
AcDbArc
 50
180.0
 51
270.0
  0
LINE
  5
9C
330
75
100
AcDbEntity
  8
DV1_Standard
  6
Continuous
 62
     7
100
AcDbLine
 10
167.1417220717
 20
501.0871768905
 30
0.0
 11
182.7417220717
 21
501.0871768905
 31
0.0
  0
ARC
  5
9D
330
75
100
AcDbEntity
  8
DV1_Standard
  6
Continuous
 62
     7
100
AcDbCircle
 10
182.7417220717
 20
501.7871768905
 30
0.0
 40
0.7000000000000062
100
AcDbArc
 50
270.0
 51
0.0
  0
LINE
  5
9E
330
75
100
AcDbEntity
  8
DV1_Standard
  6
Continuous
 62
     7
100
AcDbLine
 10
194.9417220717
 20
481.5116094508
 30
0.0
 11
154.9417220717
 21
481.5116094508
 31
0.0
  0
LINE
  5
9F
330
75
100
AcDbEntity
  8
DV1_Standard
  6
Continuous
 62
     7
100
AcDbLine
 10
160.4417220717
 20
433.491674739
 30
0.0
 11
160.4417220717
 21
455.664656178
 31
0.0
  0
LINE
  5
A0
330
75
100
AcDbEntity
  8
DV1_Standard
  6
Continuous
 62
     7
100
AcDbLine
 10
189.4417220717
 20
455.664656178
 30
0.0
 11
189.4417220717
 21
433.491674739
 31
0.0
  0
LINE
  5
A1
330
75
100
AcDbEntity
  8
DV1_Standard
  6
Continuous
 62
     7
100
AcDbLine
 10
189.4417220717
 20
433.491674739
 30
0.0
 11
189.4417220717
 21
426.3266060991
 31
0.0
  0
LINE
  5
A2
330
75
100
AcDbEntity
  8
DV1_Standard
  6
Continuous
 62
     7
100
AcDbLine
 10
188.9417220717
 20
433.6351584572
 30
0.0
 11
160.9417220717
 21
433.6351584572
 31
0.0
  0
LINE
  5
A3
330
75
100
AcDbEntity
  8
DV1_Standard
  6
Continuous
 62
     7
100
AcDbLine
 10
188.9417220717
 20
456.164656178
 30
0.0
 11
160.9417220717
 21
456.164656178
 31
0.0
  0
ARC
  5
A4
330
75
100
AcDbEntity
  8
DV1_Standard
  6
Continuous
 62
     7
100
AcDbCircle
 10
188.9417220717
 20
455.664656178
 30
0.0
 40
0.5000000000000004
100
AcDbArc
 50
0.0
 51
90.0
  0
SPLINE
  5
A5
330
75
100
AcDbEntity
  8
DV1_Standard
  6
Continuous
 62
     7
100
AcDbSpline
210
0.0
220
0.0
230
1.0
 70
     8
 71
     3
 72
    10
 73
     6
 74
     0
 42
0.0000000179364713
 43
0.0000000001
 40
0.0
 40
0.0
 40
0.0
 40
0.0
 40
0.5
 40
0.5
 40
1.0
 40
1.0
 40
1.0
 40
1.0
 10
189.4417220717314
 20
433.4916747390275
 30
0.0
 10
189.4417220717319
 20
433.529048814419
 30
0.0
 10
189.3874417202962
 20
433.5666954880487
 30
0.0
 10
189.2029601205069
 20
433.6196133833987
 30
0.0
 10
189.0738036638396
 20
433.635158457188
 30
0.0
 10
188.9417220717314
 20
433.635158457188
 30
0.0
  0
ARC
  5
A6
330
75
100
AcDbEntity
  8
DV1_Standard
  6
Continuous
 62
     7
100
AcDbCircle
 10
160.9417220717
 20
455.664656178
 30
0.0
 40
0.5000000000000004
100
AcDbArc
 50
90.0
 51
180.0
  0
SPLINE
  5
A7
330
75
100
AcDbEntity
  8
DV1_Standard
  6
Continuous
 62
     7
100
AcDbSpline
210
0.0
220
0.0
230
1.0
 70
     8
 71
     3
 72
    10
 73
     6
 74
     0
 42
0.0000000179364713
 43
0.0000000001
 40
0.0
 40
0.0
 40
0.0
 40
0.0
 40
0.5
 40
0.5
 40
1.0
 40
1.0
 40
1.0
 40
1.0
 10
160.9417220717314
 20
433.635158457188
 30
0.0
 10
160.8096404796236
 20
433.635158457188
 30
0.0
 10
160.6804840229566
 20
433.6196133833923
 30
0.0
 10
160.4960024231675
 20
433.5666954880375
 30
0.0
 10
160.4417220717315
 20
433.5290488144043
 30
0.0
 10
160.4417220717314
 20
433.4916747390265
 30
0.0
  0
ELLIPSE
  5
A8
330
75
100
AcDbEntity
  8
DV1_Standard
  6
Continuous
 62
     7
100
AcDbEllipse
 10
188.9417220717
 20
426.3266060991
 30
0.0
 11
-0.4999999999999172
 21
0.0
 31
0.0
210
0.0
220
0.0
230
1.0
 40
0.3008008066
 41
3.141592653589793
 42
4.71238898038469
  0
LINE
  5
A9
330
75
100
AcDbEntity
  8
DV1_Standard
  6
Continuous
 62
     7
100
AcDbLine
 10
160.4417220717
 20
426.3266060991
 30
0.0
 11
160.4417220717
 21
433.491674739
 31
0.0
  0
ELLIPSE
  5
AA
330
75
100
AcDbEntity
  8
DV1_Standard
  6
Continuous
 62
     7
100
AcDbEllipse
 10
160.9417220717
 20
426.3266060991
 30
0.0
 11
-0.5000000000000004
 21
0.0
 31
0.0
210
0.0
220
0.0
230
1.0
 40
0.3008008066
 41
4.71238898038469
 42
6.283185307179586
  0
LINE
  5
AB
330
75
100
AcDbEntity
  8
DV1_Standard
  6
Continuous
 62
     7
100
AcDbLine
 10
189.4417220717
 20
426.3266060991
 30
0.0
 11
189.4417220717
 21
422.4732517629
 31
0.0
  0
LINE
  5
AC
330
75
100
AcDbEntity
  8
DV1_Standard
  6
Continuous
 62
     7
100
AcDbLine
 10
160.4417220717
 20
422.4732517629
 30
0.0
 11
160.4417220717
 21
426.3266060991
 31
0.0
  0
LINE
  5
AD
330
75
100
AcDbEntity
  8
DV1_Standard
  6
Continuous
 62
     7
100
AcDbLine
 10
160.9417220717
 20
426.4770065024
 30
0.0
 11
188.9417220717
 21
426.4770065024
 31
0.0
  0
LINE
  5
AE
330
75
100
AcDbEntity
  8
DV1_Standard
  6
Continuous
 62
     7
100
AcDbLine
 10
183.6917220717
 20
422.417216712
 30
0.0
 11
166.1917220717
 21
422.417216712
 31
0.0
  0
ELLIPSE
  5
AF
330
75
100
AcDbEntity
  8
DV1_Standard
  6
Continuous
 62
     7
100
AcDbEllipse
 10
183.6917220717
 20
423.684379384
 30
0.0
 11
4.100000000000001
 21
1.387778780781446E-14
 31
0.0
210
0.0
220
0.0
230
1.0
 40
0.3090640663
 41
4.712388980384689
 42
6.283185307179586
  0
ELLIPSE
  5
B0
330
75
100
AcDbEntity
  8
DV1_Standard
  6
Continuous
 62
     7
100
AcDbEllipse
 10
166.1917220717
 20
423.684379384
 30
0.0
 11
4.1
 21
-6.938893903907228E-15
 31
0.0
210
0.0
220
0.0
230
1.0
 40
0.3090640663
 41
3.141592653589793
 42
4.71238898038469
  0
LINE
  5
B1
330
75
100
AcDbEntity
  8
DV1_Standard
  6
Continuous
 62
     7
100
AcDbLine
 10
187.7917220717
 20
424.4570395498
 30
0.0
 11
187.7917220717
 21
423.684379384
 31
0.0
  0
LINE
  5
B2
330
75
100
AcDbEntity
  8
DV1_Standard
  6
Continuous
 62
     7
100
AcDbLine
 10
162.0917220717
 20
423.684379384
 30
0.0
 11
162.0917220717
 21
424.4570395498
 31
0.0
  0
ELLIPSE
  5
B3
330
75
100
AcDbEntity
  8
DV1_Standard
  6
Continuous
 62
     7
100
AcDbEllipse
 10
184.1917220717
 20
424.4570395498
 30
0.0
 11
-3.600000000000002
 21
-6.938893903907228E-15
 31
0.0
210
0.0
220
0.0
230
1.0
 40
0.3090640663
 41
3.141592653589793
 42
4.712388980384689
  0
ELLIPSE
  5
B4
330
75
100
AcDbEntity
  8
DV1_Standard
  6
Continuous
 62
     7
100
AcDbEllipse
 10
165.6917220717
 20
424.4570395498
 30
0.0
 11
-3.600000000000001
 21
0.0
 31
0.0
210
0.0
220
0.0
230
1.0
 40
0.3090640663
 41
4.71238898038469
 42
6.283185307179586
  0
LINE
  5
B5
330
75
100
AcDbEntity
  8
DV1_Standard
  6
Continuous
 62
     7
100
AcDbLine
 10
162.6917220717
 20
424.9450507076
 30
0.0
 11
162.6917220717
 21
424.2550132938
 31
0.0
  0
LINE
  5
B6
330
75
100
AcDbEntity
  8
DV1_Standard
  6
Continuous
 62
     7
100
AcDbLine
 10
187.1917220717
 20
424.2550132938
 30
0.0
 11
187.1917220717
 21
424.9458623791
 31
0.0
  0
ELLIPSE
  5
B7
330
75
100
AcDbEntity
  8
DV1_Standard
  6
Continuous
 62
     7
100
AcDbEllipse
 10
166.1917220717
 20
424.2550132938
 30
0.0
 11
-3.5
 21
6.938893903907228E-15
 31
0.0
210
0.0
220
0.0
230
1.0
 40
0.3062347941
 41
0.0000000000000065
 42
1.570796326794897
  0
ELLIPSE
  5
B8
330
75
100
AcDbEntity
  8
DV1_Standard
  6
Continuous
 62
     7
100
AcDbEllipse
 10
183.6917220717
 20
424.2550132938
 30
0.0
 11
-3.499999999999999
 21
0.0
 31
0.0
210
0.0
220
0.0
230
1.0
 40
0.3062347941
 41
1.570796326794897
 42
3.141592653589793
  0
LINE
  5
B9
330
75
100
AcDbEntity
  8
DV1_Standard
  6
Continuous
 62
     7
100
AcDbLine
 10
166.1917220717
 20
423.1831915145
 30
0.0
 11
183.6917220717
 21
423.1831915145
 31
0.0
  0
ELLIPSE
  5
BA
330
75
100
AcDbEntity
  8
DV1_Standard
  6
Continuous
 62
     7
100
AcDbEllipse
 10
188.9417220717
 20
443.1587469537
 30
0.0
 11
-0.5000000000002173
 21
-2.359223927328458E-11
 31
0.0
210
0.0
220
0.0
230
1.0
 40
0.9998644792
 41
3.130170909486254
 42
3.157807181972712
  0
ELLIPSE
  5
BB
330
75
100
AcDbEntity
  8
DV1_Standard
  6
Continuous
 62
     7
100
AcDbEllipse
 10
160.9417220717
 20
443.1587469537
 30
0.0
 11
0.500000000000101
 21
-2.121913755814830E-11
 31
0.0
210
0.0
220
0.0
230
1.0
 40
0.9998644792
 41
3.125378125202444
 42
3.153014397668244
  0
ARC
  5
BC
330
75
100
AcDbEntity
  8
DV1_Standard
  6
Continuous
 62
     7
100
AcDbCircle
 10
160.9417220717
 20
422.4732517629
 30
0.0
 40
0.5000000000000004
100
AcDbArc
 50
180.0
 51
268.9106547892
  0
ARC
  5
BD
330
75
100
AcDbEntity
  8
DV1_Standard
  6
Continuous
 62
     7
100
AcDbCircle
 10
174.9717040732
 20
1155.9502614745
 30
0.0
 40
734.1099975454224
100
AcDbArc
 50
268.9041984282
 51
271.0911389151
  0
ARC
  5
BE
330
75
100
AcDbEntity
  8
DV1_Standard
  6
Continuous
 62
     7
100
AcDbCircle
 10
188.9417220717
 20
422.4732517629
 30
0.0
 40
0.4999999999915503
100
AcDbArc
 50
271.0893452108
 51
0.0
  0
LINE
  5
BF
330
75
100
AcDbEntity
  8
DV1_Standard
  6
Continuous
 62
     7
100
AcDbLine
 10
154.9417220717
 20
481.5116094508
 30
0.0
 11
154.9417220717
 21
369.5116094508
 31
0.0
  0
LINE
  5
C0
330
75
100
AcDbEntity
  8
DV1_Standard
  6
Continuous
 62
     7
100
AcDbLine
 10
194.9417220717
 20
369.5116094508
 30
0.0
 11
194.9417220717
 21
481.5116094508
 31
0.0
  0
SPLINE
  5
C1
330
75
100
AcDbEntity
  8
DV1_Standard
  6
Continuous
 62
     7
100
AcDbSpline
210
0.0
220
0.0
230
1.0
 70
     8
 71
     3
 72
    22
 73
    18
 74
     0
 42
0.0000000031885098
 43
0.0000000001
 40
0.0
 40
0.0
 40
0.0
 40
0.0
 40
0.040336238681043
 40
0.1172297295076079
 40
0.1940443106656624
 40
0.2706428968173751
 40
0.3469020828612162
 40
0.4226735726738681
 40
0.4977724899643738
 40
0.5719639283005602
 40
0.6449496371113556
 40
0.7163612360135881
 40
0.785775676414618
 40
0.8527845725652794
 40
0.9171674016844198
 40
0.9792205828136805
 40
1.0
 40
1.0
 40
1.0
 40
1.0
 10
184.1917220717314
 20
425.5403040983792
 30
0.0
 10
184.2588959575679
 20
425.5400254316136
 30
0.0
 10
184.4247786923473
 20
425.5390853308171
 30
0.0
 10
184.7247979570249
 20
425.5292301573006
 30
0.0
 10
185.0635758526871
 20
425.5071693674111
 30
0.0
 10
185.394316052293
 20
425.4745130278413
 30
0.0
 10
185.7088021415805
 20
425.4320672359029
 30
0.0
 10
186.0037463425456
 20
425.3806775060776
 30
0.0
 10
186.2746913340916
 20
425.3215590603667
 30
0.0
 10
186.5176687285261
 20
425.2563042708507
 30
0.0
 10
186.7288424271479
 20
425.187023840693
 30
0.0
 10
186.9047646501466
 20
425.1165190757965
 30
0.0
 10
187.0426286863134
 20
425.0485089932502
 30
0.0
 10
187.140752215982
 20
424.9879215549417
 30
0.0
 10
187.199453972593
 20
424.9410268968816
 30
0.0
 10
187.217137887058
 20
424.9211604379192
 30
0.0
 10
187.2188757344733
 20
424.9187320541881
 30
0.0
 10
187.2188779941895
 20
424.9187251484258
 30
0.0
  0
SPLINE
  5
C2
330
75
100
AcDbEntity
  8
DV1_Standard
  6
Continuous
 62
     7
100
AcDbSpline
210
0.0
220
0.0
230
1.0
 70
     8
 71
     3
 72
    22
 73
    18
 74
     0
 42
0.0000000031886315
 43
0.0000000001
 40
0.0
 40
0.0
 40
0.0
 40
0.0
 40
0.0581987445143633
 40
0.1178765561192986
 40
0.1787666643686351
 40
0.2421797414825792
 40
0.3083685328144581
 40
0.3771157823205268
 40
0.448018578261896
 40
0.5206410297834273
 40
0.5945881694777454
 40
0.6695314979791481
 40
0.7452089439872658
 40
0.821414193576101
 40
0.8979834371997563
 40
0.9747829583515041
 40
1.0
 40
1.0
 40
1.0
 40
1.0
 10
162.6645987775128
 20
424.918772823901
 30
0.0
 10
162.6646310862498
 20
424.9188116681657
 30
0.0
 10
162.671714231885
 20
424.9284321922499
 30
0.0
 10
162.7119502262756
 20
424.9647602122888
 30
0.0
 10
162.7853531211537
 20
425.015723950962
 30
0.0
 10
162.8933934350266
 20
425.0759075426702
 30
0.0
 10
163.0372339364146
 20
425.1413739253084
 30
0.0
 10
163.2165558591709
 20
425.2086362899995
 30
0.0
 10
163.4296927733247
 20
425.274654211519
 30
0.0
 10
163.6739467417227
 20
425.3368763468497
 30
0.0
 10
163.9458730885869
 20
425.3932278429043
 30
0.0
 10
164.2416662790623
 20
425.4420703672338
 30
0.0
 10
164.5568583646835
 20
425.4821300385138
 30
0.0
 10
164.8882520852952
 20
425.5124932110731
 30
0.0
 10
165.2271292361736
 20
425.5323671441807
 30
0.0
 10
165.5047140868908
 20
425.5396642306375
 30
0.0
 10
165.6497293438824
 20
425.5401952287935
 30
0.0
 10
165.6917220717314
 20
425.5403040983792
 30
0.0
  0
LINE
  5
C3
330
75
100
AcDbEntity
  8
DV1_Standard
  6
Continuous
 62
     7
100
AcDbLine
 10
165.6917220717
 20
425.5403040984
 30
0.0
 11
184.1917220717
 21
425.5403040984
 31
0.0
  0
LINE
  5
C4
330
75
100
AcDbEntity
  8
DV1_Standard
  6
Continuous
 62
     7
100
AcDbLine
 10
199.3417220717
 20
369.5116094508
 30
0.0
 11
200.4417220717
 21
369.5116094508
 31
0.0
  0
LINE
  5
C5
330
75
100
AcDbEntity
  8
DV1_Standard
  6
Continuous
 62
     7
100
AcDbLine
 10
149.4417220717
 20
369.5116094508
 30
0.0
 11
150.5417220717
 21
369.5116094508
 31
0.0
  0
LINE
  5
C6
330
75
100
AcDbEntity
  8
DV1_Standard
  6
Continuous
 62
     7
100
AcDbLine
 10
150.5417220717
 20
369.5116094508
 30
0.0
 11
199.3417220717
 21
369.5116094508
 31
0.0
  0
LINE
  5
C7
330
75
100
AcDbEntity
  8
DV1_Standard
  6
Continuous
 62
     7
100
AcDbLine
 10
148.9417220717
 20
369.0116094508
 30
0.0
 11
148.9417220717
 21
361.5116094508
 31
0.0
  0
LINE
  5
C8
330
75
100
AcDbEntity
  8
DV1_Standard
  6
Continuous
 62
     7
100
AcDbLine
 10
200.9417220717
 20
369.0116094508
 30
0.0
 11
200.9417220717
 21
361.5116094508
 31
0.0
  0
ARC
  5
C9
330
75
100
AcDbEntity
  8
DV1_Standard
  6
Continuous
 62
     7
100
AcDbCircle
 10
149.4417220717
 20
369.0116094508
 30
0.0
 40
0.5000000000000004
100
AcDbArc
 50
90.0
 51
180.0
  0
ARC
  5
CA
330
75
100
AcDbEntity
  8
DV1_Standard
  6
Continuous
 62
     7
100
AcDbCircle
 10
200.4417220717
 20
369.0116094508
 30
0.0
 40
0.499999999999997
100
AcDbArc
 50
0.0
 51
90.0
  0
LINE
  5
CB
330
75
100
AcDbEntity
  8
DV1_Standard
  6
Continuous
 62
     7
100
AcDbLine
 10
150.5417220717
 20
361.5116094508
 30
0.0
 11
148.9417220717
 21
361.5116094508
 31
0.0
  0
LINE
  5
CC
330
75
100
AcDbEntity
  8
DV1_Standard
  6
Continuous
 62
     7
100
AcDbLine
 10
200.9417220717
 20
361.5116094508
 30
0.0
 11
199.3417220717
 21
361.5116094508
 31
0.0
  0
LINE
  5
CD
330
75
100
AcDbEntity
  8
DV1_Standard
  6
Continuous
 62
     7
100
AcDbLine
 10
199.3417220717
 20
361.5116094508
 30
0.0
 11
150.5417220717
 21
361.5116094508
 31
0.0
  0
LINE
  5
CE
330
75
100
AcDbEntity
  8
DV1_Standard
  6
Continuous
 62
     7
100
AcDbLine
 10
166.7966528463
 20
425.5403040984
 30
0.0
 11
166.7975480803
 21
425.4915189549
 31
0.0
  0
LINE
  5
CF
330
75
100
AcDbEntity
  8
DV1_Standard
  6
Continuous
 62
     7
100
AcDbLine
 10
165.5935883709
 20
425.4915189549
 30
0.0
 11
165.5944743538
 21
425.5397999674
 31
0.0
  0
LINE
  5
D0
330
75
100
AcDbEntity
  8
DV1_Standard
  6
Continuous
 62
     7
100
AcDbLine
 10
165.598462556
 20
425.2525035782
 30
0.0
 11
165.598462556
 21
425.3254235162
 31
0.0
  0
LINE
  5
D1
330
75
100
AcDbEntity
  8
DV1_Standard
  6
Continuous
 62
     7
100
AcDbLine
 10
166.7926738952
 20
425.2525035782
 30
0.0
 11
165.598462556
 21
425.2525035782
 31
0.0
  0
LINE
  5
D2
330
75
100
AcDbEntity
  8
DV1_Standard
  6
Continuous
 62
     7
100
AcDbLine
 10
166.7926738952
 20
425.3254235162
 30
0.0
 11
166.7926738952
 21
425.2525035782
 31
0.0
  0
LINE
  5
D3
330
75
100
AcDbEntity
  8
DV1_Standard
  6
Continuous
 62
     7
100
AcDbLine
 10
166.7926738952
 20
425.2525035782
 30
0.0
 11
166.7975480803
 21
424.9868883155
 31
0.0
  0
LINE
  5
D4
330
75
100
AcDbEntity
  8
DV1_Standard
  6
Continuous
 62
     7
100
AcDbLine
 10
165.5935883709
 20
424.9868883155
 30
0.0
 11
165.598462556
 21
425.2525035782
 31
0.0
  0
LINE
  5
D5
330
75
100
AcDbEntity
  8
DV1_Standard
  6
Continuous
 62
     7
100
AcDbLine
 10
168.254345154
 20
425.5403040984
 30
0.0
 11
168.255240388
 21
425.4915189549
 31
0.0
  0
LINE
  5
D6
330
75
100
AcDbEntity
  8
DV1_Standard
  6
Continuous
 62
     7
100
AcDbLine
 10
167.0512806786
 20
425.4915189549
 30
0.0
 11
167.0521759126
 21
425.5403040984
 31
0.0
  0
LINE
  5
D7
330
75
100
AcDbEntity
  8
DV1_Standard
  6
Continuous
 62
     7
100
AcDbLine
 10
169.7120374617
 20
425.5403040984
 30
0.0
 11
169.7129326957
 21
425.4915189549
 31
0.0
  0
LINE
  5
D8
330
75
100
AcDbEntity
  8
DV1_Standard
  6
Continuous
 62
     7
100
AcDbLine
 10
168.5089729862
 20
425.4915189549
 30
0.0
 11
168.5098682203
 21
425.5403040984
 31
0.0
  0
LINE
  5
D9
330
75
100
AcDbEntity
  8
DV1_Standard
  6
Continuous
 62
     7
100
AcDbLine
 10
171.1697297693
 20
425.5403040984
 30
0.0
 11
171.1706250034
 21
425.4915189549
 31
0.0
  0
LINE
  5
DA
330
75
100
AcDbEntity
  8
DV1_Standard
  6
Continuous
 62
     7
100
AcDbLine
 10
169.9666652939
 20
425.4915189549
 30
0.0
 11
169.967560528
 21
425.5403040984
 31
0.0
  0
LINE
  5
DB
330
75
100
AcDbEntity
  8
DV1_Standard
  6
Continuous
 62
     7
100
AcDbLine
 10
172.627422077
 20
425.5403040984
 30
0.0
 11
172.6283173111
 21
425.4915189549
 31
0.0
  0
LINE
  5
DC
330
75
100
AcDbEntity
  8
DV1_Standard
  6
Continuous
 62
     7
100
AcDbLine
 10
171.4243576016
 20
425.4915189549
 30
0.0
 11
171.4252528357
 21
425.5403040984
 31
0.0
  0
LINE
  5
DD
330
75
100
AcDbEntity
  8
DV1_Standard
  6
Continuous
 62
     7
100
AcDbLine
 10
174.0851143847
 20
425.5403040984
 30
0.0
 11
174.0860096188
 21
425.4915189549
 31
0.0
  0
LINE
  5
DE
330
75
100
AcDbEntity
  8
DV1_Standard
  6
Continuous
 62
     7
100
AcDbLine
 10
172.8820499093
 20
425.4915189549
 30
0.0
 11
172.8829451433
 21
425.5403040984
 31
0.0
  0
LINE
  5
DF
330
75
100
AcDbEntity
  8
DV1_Standard
  6
Continuous
 62
     7
100
AcDbLine
 10
175.5428066924
 20
425.5403040984
 30
0.0
 11
175.5437019264
 21
425.4915189549
 31
0.0
  0
LINE
  5
E0
330
75
100
AcDbEntity
  8
DV1_Standard
  6
Continuous
 62
     7
100
AcDbLine
 10
174.339742217
 20
425.4915189549
 30
0.0
 11
174.340637451
 21
425.5403040984
 31
0.0
  0
LINE
  5
E1
330
75
100
AcDbEntity
  8
DV1_Standard
  6
Continuous
 62
     7
100
AcDbLine
 10
177.0004990001
 20
425.5403040984
 30
0.0
 11
177.0013942341
 21
425.4915189549
 31
0.0
  0
LINE
  5
E2
330
75
100
AcDbEntity
  8
DV1_Standard
  6
Continuous
 62
     7
100
AcDbLine
 10
175.7974345247
 20
425.4915189549
 30
0.0
 11
175.7983297587
 21
425.5403040984
 31
0.0
  0
LINE
  5
E3
330
75
100
AcDbEntity
  8
DV1_Standard
  6
Continuous
 62
     7
100
AcDbLine
 10
178.4581913078
 20
425.5403040984
 30
0.0
 11
178.4590865418
 21
425.4915189549
 31
0.0
  0
LINE
  5
E4
330
75
100
AcDbEntity
  8
DV1_Standard
  6
Continuous
 62
     7
100
AcDbLine
 10
177.2551268324
 20
425.4915189549
 30
0.0
 11
177.2560220664
 21
425.5403040984
 31
0.0
  0
LINE
  5
E5
330
75
100
AcDbEntity
  8
DV1_Standard
  6
Continuous
 62
     7
100
AcDbLine
 10
179.9158836155
 20
425.5403040984
 30
0.0
 11
179.9167788495
 21
425.4915189549
 31
0.0
  0
LINE
  5
E6
330
75
100
AcDbEntity
  8
DV1_Standard
  6
Continuous
 62
     7
100
AcDbLine
 10
178.7128191401
 20
425.4915189549
 30
0.0
 11
178.7137143741
 21
425.5403040984
 31
0.0
  0
LINE
  5
E7
330
75
100
AcDbEntity
  8
DV1_Standard
  6
Continuous
 62
     7
100
AcDbLine
 10
181.3735759232
 20
425.5403040984
 30
0.0
 11
181.3744711572
 21
425.4915189549
 31
0.0
  0
LINE
  5
E8
330
75
100
AcDbEntity
  8
DV1_Standard
  6
Continuous
 62
     7
100
AcDbLine
 10
180.1705114478
 20
425.4915189549
 30
0.0
 11
180.1714066818
 21
425.5403040984
 31
0.0
  0
LINE
  5
E9
330
75
100
AcDbEntity
  8
DV1_Standard
  6
Continuous
 62
     7
100
AcDbLine
 10
183.0858960632
 20
424.9868883155
 30
0.0
 11
183.0907702483
 21
425.2525035782
 31
0.0
  0
LINE
  5
EA
330
75
100
AcDbEntity
  8
DV1_Standard
  6
Continuous
 62
     7
100
AcDbLine
 10
183.0907702483
 20
425.2525035782
 30
0.0
 11
183.0907702483
 21
425.3254235162
 31
0.0
  0
LINE
  5
EB
330
75
100
AcDbEntity
  8
DV1_Standard
  6
Continuous
 62
     7
100
AcDbLine
 10
182.8312682309
 20
425.5403040984
 30
0.0
 11
182.8321634649
 21
425.4915189549
 31
0.0
  0
LINE
  5
EC
330
75
100
AcDbEntity
  8
DV1_Standard
  6
Continuous
 62
     7
100
AcDbLine
 10
181.6282037555
 20
425.4915189549
 30
0.0
 11
181.6290989895
 21
425.5403040984
 31
0.0
  0
LINE
  5
ED
330
75
100
AcDbEntity
  8
DV1_Standard
  6
Continuous
 62
     7
100
AcDbLine
 10
184.2849815875
 20
425.2525035782
 30
0.0
 11
184.2898557726
 21
424.9868883155
 31
0.0
  0
LINE
  5
EE
330
75
100
AcDbEntity
  8
DV1_Standard
  6
Continuous
 62
     7
100
AcDbLine
 10
184.2849815875
 20
425.2525035782
 30
0.0
 11
183.0907702483
 21
425.2525035782
 31
0.0
  0
LINE
  5
EF
330
75
100
AcDbEntity
  8
DV1_Standard
  6
Continuous
 62
     7
100
AcDbLine
 10
184.2849815875
 20
425.3254235162
 30
0.0
 11
184.2849815875
 21
425.2525035782
 31
0.0
  0
LINE
  5
F0
330
75
100
AcDbEntity
  8
DV1_Standard
  6
Continuous
 62
     7
100
AcDbLine
 10
184.2889753421
 20
425.5394973916
 30
0.0
 11
184.2898557726
 21
425.4915189549
 31
0.0
  0
LINE
  5
F1
330
75
100
AcDbEntity
  8
DV1_Standard
  6
Continuous
 62
     7
100
AcDbLine
 10
183.0858960632
 20
425.4915189549
 30
0.0
 11
183.0867912972
 21
425.5403040984
 31
0.0
  0
SPLINE
  5
F2
330
75
100
AcDbEntity
  8
DV1_Standard
  6
Continuous
 62
     7
100
AcDbSpline
210
0.0
220
0.0
230
1.0
 70
    12
 71
     3
 72
     8
 73
     4
 74
     0
 42
0.0000002438262512
 43
0.0000000001
 40
0.0
 40
0.0
 40
0.0
 40
0.0
 40
1.0
 40
1.0
 40
1.0
 40
1.0
 10
165.5068294777446
 20
425.3254298681854
 30
0.0
 41
0.9025504126276235
 10
165.4936470541433
 20
425.3255688995418
 30
0.0
 41
0.9260302975219418
 10
165.4801460151061
 20
425.3279660172402
 30
0.0
 41
0.9585134933127339
 10
165.4667220717314
 20
425.3323364257102
 30
0.0
 41
1.0
  0
SPLINE
  5
F3
330
75
100
AcDbEntity
  8
DV1_Standard
  6
Continuous
 62
     7
100
AcDbSpline
210
0.0
220
0.0
230
1.0
 70
    12
 71
     3
 72
     8
 73
     4
 74
     0
 42
0.0000002550860362
 43
0.0000000001
 40
0.0
 40
0.0
 40
0.0
 40
0.0
 40
1.0
 40
1.0
 40
1.0
 40
1.0
 10
166.9244143794237
 20
425.3323364257102
 30
0.0
 41
1.0
 10
166.9116059625644
 20
425.3281664130718
 30
0.0
 41
0.960340325636197
 10
166.8987184889568
 20
425.325791273233
 30
0.0
 41
0.9289085095165186
 10
166.8860949559127
 20
425.3254626062066
 30
0.0
 41
0.9057045516409648
  0
ARC
  5
F4
330
75
100
AcDbEntity
  8
DV1_Standard
  6
Continuous
 62
     7
100
AcDbCircle
 10
166.9818872312
 20
425.5082881201
 30
0.0
 40
0.1851003172966857
100
AcDbArc
 50
185.1978385409
 51
251.9108940575
  0
ARC
  5
F5
330
75
100
AcDbEntity
  8
DV1_Standard
  6
Continuous
 62
     7
100
AcDbCircle
 10
165.4092492199
 20
425.5082881201
 30
0.0
 40
0.1851003172966753
100
AcDbArc
 50
288.0891059425
 51
354.8021614591
  0
LINE
  5
F6
330
75
100
AcDbEntity
  8
DV1_Standard
  6
Continuous
 62
     7
100
AcDbLine
 10
165.5935883709
 20
424.4822576761
 30
0.0
 11
165.598462556
 21
424.7478729388
 31
0.0
  0
LINE
  5
F7
330
75
100
AcDbEntity
  8
DV1_Standard
  6
Continuous
 62
     7
100
AcDbLine
 10
165.598462556
 20
424.7478729388
 30
0.0
 11
165.598462556
 21
424.8207928768
 31
0.0
  0
LINE
  5
F8
330
75
100
AcDbEntity
  8
DV1_Standard
  6
Continuous
 62
     7
100
AcDbLine
 10
166.7926738952
 20
424.7478729388
 30
0.0
 11
165.598462556
 21
424.7478729388
 31
0.0
  0
LINE
  5
F9
330
75
100
AcDbEntity
  8
DV1_Standard
  6
Continuous
 62
     7
100
AcDbLine
 10
166.7926738952
 20
424.8207928768
 30
0.0
 11
166.7926738952
 21
424.7478729388
 31
0.0
  0
ARC
  5
FA
330
75
100
AcDbEntity
  8
DV1_Standard
  6
Continuous
 62
     7
100
AcDbCircle
 10
165.40924922
 20
425.0036574807
 30
0.0
 40
0.1851003172677252
100
AcDbArc
 50
288.0891059361
 51
354.8021614595
  0
SPLINE
  5
FB
330
75
100
AcDbEntity
  8
DV1_Standard
  6
Continuous
 62
     7
100
AcDbSpline
210
0.0
220
0.0
230
1.0
 70
    12
 71
     3
 72
     8
 73
     4
 74
     0
 42
0.000000243826251
 43
0.0000000001
 40
0.0
 40
0.0
 40
0.0
 40
0.0
 40
1.0
 40
1.0
 40
1.0
 40
1.0
 10
165.5068294777733
 20
424.8207992287801
 30
0.0
 41
0.9025504125393738
 10
165.4936470541621
 20
424.8209382601364
 30
0.0
 41
0.9260302974448925
 10
165.4801460151149
 20
424.8233353778396
 30
0.0
 41
0.9585134932651013
 10
165.4667220717314
 20
424.8277057863187
 30
0.0
 41
1.0
  0
SPLINE
  5
FC
330
75
100
AcDbEntity
  8
DV1_Standard
  6
Continuous
 62
     7
100
AcDbSpline
210
0.0
220
0.0
230
1.0
 70
    12
 71
     3
 72
     8
 73
     4
 74
     0
 42
0.000000255086036
 43
0.0000000001
 40
0.0
 40
0.0
 40
0.0
 40
0.0
 40
0.9999999999999999
 40
0.9999999999999999
 40
0.9999999999999999
 40
0.9999999999999999
 10
166.9244143794237
 20
424.8277057863187
 30
0.0
 41
1.0
 10
166.9116059625553
 20
424.8235357736714
 30
0.0
 41
0.9603403255884033
 10
166.8987184889376
 20
424.8211606338277
 30
0.0
 41
0.9289085094385034
 10
166.8860949558832
 20
424.8208319668013
 30
0.0
 41
0.9057045515503002
  0
ARC
  5
FD
330
75
100
AcDbEntity
  8
DV1_Standard
  6
Continuous
 62
     7
100
AcDbCircle
 10
166.9818872312
 20
425.0036574807
 30
0.0
 40
0.1851003172676782
100
AcDbArc
 50
185.1978385405
 51
251.9108940639
  0
LINE
  5
FE
330
75
100
AcDbEntity
  8
DV1_Standard
  6
Continuous
 62
     7
100
AcDbLine
 10
166.7926738952
 20
424.7478729388
 30
0.0
 11
166.7975480803
 21
424.4822576761
 31
0.0
  0
LINE
  5
FF
330
75
100
AcDbEntity
  8
DV1_Standard
  6
Continuous
 62
     7
100
AcDbLine
 10
167.0561548637
 20
425.2525035782
 30
0.0
 11
167.0561548637
 21
425.3254235162
 31
0.0
  0
LINE
  5
100
330
75
100
AcDbEntity
  8
DV1_Standard
  6
Continuous
 62
     7
100
AcDbLine
 10
168.2503662029
 20
425.2525035782
 30
0.0
 11
167.0561548637
 21
425.2525035782
 31
0.0
  0
LINE
  5
101
330
75
100
AcDbEntity
  8
DV1_Standard
  6
Continuous
 62
     7
100
AcDbLine
 10
168.2503662029
 20
425.3254235162
 30
0.0
 11
168.2503662029
 21
425.2525035782
 31
0.0
  0
LINE
  5
102
330
75
100
AcDbEntity
  8
DV1_Standard
  6
Continuous
 62
     7
100
AcDbLine
 10
168.2503662029
 20
425.2525035782
 30
0.0
 11
168.255240388
 21
424.9868883155
 31
0.0
  0
SPLINE
  5
103
330
75
100
AcDbEntity
  8
DV1_Standard
  6
Continuous
 62
     7
100
AcDbSpline
210
0.0
220
0.0
230
1.0
 70
    12
 71
     3
 72
     8
 73
     4
 74
     0
 42
0.0000002438262512
 43
0.0000000001
 40
0.0
 40
0.0
 40
0.0
 40
0.0
 40
1.0
 40
1.0
 40
1.0
 40
1.0
 10
166.9645217854369
 20
425.3254298681854
 30
0.0
 41
0.9025504126276045
 10
166.9513393618356
 20
425.3255688995418
 30
0.0
 41
0.9260302975219245
 10
166.9378383227985
 20
425.3279660172402
 30
0.0
 41
0.958513493312723
 10
166.9244143794237
 20
425.3323364257102
 30
0.0
 41
1.0
  0
SPLINE
  5
104
330
75
100
AcDbEntity
  8
DV1_Standard
  6
Continuous
 62
     7
100
AcDbSpline
210
0.0
220
0.0
230
1.0
 70
    12
 71
     3
 72
     8
 73
     4
 74
     0
 42
0.0000002550860362
 43
0.0000000001
 40
0.0
 40
0.0
 40
0.0
 40
0.0
 40
1.0
 40
1.0
 40
1.0
 40
1.0
 10
168.382106687116
 20
425.3323364257102
 30
0.0
 41
1.0
 10
168.3692982702567
 20
425.3281664130718
 30
0.0
 41
0.9603403256362053
 10
168.3564107966492
 20
425.325791273233
 30
0.0
 41
0.9289085095165317
 10
168.343787263605
 20
425.3254626062066
 30
0.0
 41
0.9057045516409792
  0
ARC
  5
105
330
75
100
AcDbEntity
  8
DV1_Standard
  6
Continuous
 62
     7
100
AcDbCircle
 10
168.4395795389
 20
425.5082881201
 30
0.0
 40
0.1851003172967215
100
AcDbArc
 50
185.1978385409
 51
251.9108940575
  0
ARC
  5
106
330
75
100
AcDbEntity
  8
DV1_Standard
  6
Continuous
 62
     7
100
AcDbCircle
 10
166.8669415276
 20
425.5082881201
 30
0.0
 40
0.1851003172966942
100
AcDbArc
 50
288.0891059425
 51
354.8021614591
  0
LINE
  5
107
330
75
100
AcDbEntity
  8
DV1_Standard
  6
Continuous
 62
     7
100
AcDbLine
 10
167.0512806786
 20
424.9868883155
 30
0.0
 11
167.0561548637
 21
425.2525035782
 31
0.0
  0
ARC
  5
108
330
75
100
AcDbEntity
  8
DV1_Standard
  6
Continuous
 62
     7
100
AcDbCircle
 10
169.8972718466
 20
425.5082881201
 30
0.0
 40
0.1851003172966727
100
AcDbArc
 50
185.1978385409
 51
251.9108940575
  0
ARC
  5
109
330
75
100
AcDbEntity
  8
DV1_Standard
  6
Continuous
 62
     7
100
AcDbCircle
 10
168.3246338353
 20
425.5082881201
 30
0.0
 40
0.1851003172966877
100
AcDbArc
 50
288.0891059425
 51
354.8021614591
  0
SPLINE
  5
10A
330
75
100
AcDbEntity
  8
DV1_Standard
  6
Continuous
 62
     7
100
AcDbSpline
210
0.0
220
0.0
230
1.0
 70
    12
 71
     3
 72
     8
 73
     4
 74
     0
 42
0.0000002438262512
 43
0.0000000001
 40
0.0
 40
0.0
 40
0.0
 40
0.0
 40
0.9999999999999999
 40
0.9999999999999999
 40
0.9999999999999999
 40
0.9999999999999999
 10
168.4222140931292
 20
425.3254298681853
 30
0.0
 41
0.9025504126276351
 10
168.4090316695279
 20
425.3255688995418
 30
0.0
 41
0.9260302975219527
 10
168.3955306304908
 20
425.3279660172402
 30
0.0
 41
0.9585134933127409
 10
168.382106687116
 20
425.3323364257102
 30
0.0
 41
1.0
  0
SPLINE
  5
10B
330
75
100
AcDbEntity
  8
DV1_Standard
  6
Continuous
 62
     7
100
AcDbSpline
210
0.0
220
0.0
230
1.0
 70
    12
 71
     3
 72
     8
 73
     4
 74
     0
 42
0.0000002550860362
 43
0.0000000001
 40
0.0
 40
0.0
 40
0.0
 40
0.0
 40
1.0
 40
1.0
 40
1.0
 40
1.0
 10
169.8397989948083
 20
425.3323364257102
 30
0.0
 41
1.0
 10
169.826990577949
 20
425.3281664130718
 30
0.0
 41
0.9603403256362116
 10
169.8141031043415
 20
425.325791273233
 30
0.0
 41
0.9289085095165418
 10
169.8014795712974
 20
425.3254626062066
 30
0.0
 41
0.9057045516409905
  0
LINE
  5
10C
330
75
100
AcDbEntity
  8
DV1_Standard
  6
Continuous
 62
     7
100
AcDbLine
 10
168.5089729862
 20
424.9868883155
 30
0.0
 11
168.5138471714
 21
425.2525035782
 31
0.0
  0
LINE
  5
10D
330
75
100
AcDbEntity
  8
DV1_Standard
  6
Continuous
 62
     7
100
AcDbLine
 10
168.5138471714
 20
425.2525035782
 30
0.0
 11
168.5138471714
 21
425.3254235162
 31
0.0
  0
LINE
  5
10E
330
75
100
AcDbEntity
  8
DV1_Standard
  6
Continuous
 62
     7
100
AcDbLine
 10
169.7080585106
 20
425.2525035782
 30
0.0
 11
168.5138471714
 21
425.2525035782
 31
0.0
  0
LINE
  5
10F
330
75
100
AcDbEntity
  8
DV1_Standard
  6
Continuous
 62
     7
100
AcDbLine
 10
169.7080585106
 20
425.3254235162
 30
0.0
 11
169.7080585106
 21
425.2525035782
 31
0.0
  0
LINE
  5
110
330
75
100
AcDbEntity
  8
DV1_Standard
  6
Continuous
 62
     7
100
AcDbLine
 10
169.7080585106
 20
425.2525035782
 30
0.0
 11
169.7129326957
 21
424.9868883155
 31
0.0
  0
LINE
  5
111
330
75
100
AcDbEntity
  8
DV1_Standard
  6
Continuous
 62
     7
100
AcDbLine
 10
169.9715394791
 20
425.2525035782
 30
0.0
 11
169.9715394791
 21
425.3254235162
 31
0.0
  0
LINE
  5
112
330
75
100
AcDbEntity
  8
DV1_Standard
  6
Continuous
 62
     7
100
AcDbLine
 10
171.1657508182
 20
425.2525035782
 30
0.0
 11
169.9715394791
 21
425.2525035782
 31
0.0
  0
LINE
  5
113
330
75
100
AcDbEntity
  8
DV1_Standard
  6
Continuous
 62
     7
100
AcDbLine
 10
171.1657508182
 20
425.3254235162
 30
0.0
 11
171.1657508182
 21
425.2525035782
 31
0.0
  0
LINE
  5
114
330
75
100
AcDbEntity
  8
DV1_Standard
  6
Continuous
 62
     7
100
AcDbLine
 10
171.1657508182
 20
425.2525035782
 30
0.0
 11
171.1706250034
 21
424.9868883155
 31
0.0
  0
SPLINE
  5
115
330
75
100
AcDbEntity
  8
DV1_Standard
  6
Continuous
 62
     7
100
AcDbSpline
210
0.0
220
0.0
230
1.0
 70
    12
 71
     3
 72
     8
 73
     4
 74
     0
 42
0.0000002438262512
 43
0.0000000001
 40
0.0
 40
0.0
 40
0.0
 40
0.0
 40
1.0
 40
1.0
 40
1.0
 40
1.0
 10
169.8799064008215
 20
425.3254298681853
 30
0.0
 41
0.9025504126276321
 10
169.8667239772203
 20
425.3255688995418
 30
0.0
 41
0.9260302975219499
 10
169.8532229381831
 20
425.3279660172402
 30
0.0
 41
0.9585134933127392
 10
169.8397989948083
 20
425.3323364257102
 30
0.0
 41
1.0
  0
SPLINE
  5
116
330
75
100
AcDbEntity
  8
DV1_Standard
  6
Continuous
 62
     7
100
AcDbSpline
210
0.0
220
0.0
230
1.0
 70
    12
 71
     3
 72
     8
 73
     4
 74
     0
 42
0.0000002550860362
 43
0.0000000001
 40
0.0
 40
0.0
 40
0.0
 40
0.0
 40
0.9999999999999999
 40
0.9999999999999999
 40
0.9999999999999999
 40
0.9999999999999999
 10
171.2974913025006
 20
425.3323364257102
 30
0.0
 41
1.0
 10
171.2846828856413
 20
425.3281664130718
 30
0.0
 41
0.9603403256362062
 10
171.2717954120338
 20
425.325791273233
 30
0.0
 41
0.9289085095165331
 10
171.2591718789897
 20
425.3254626062065
 30
0.0
 41
0.9057045516409808
  0
ARC
  5
117
330
75
100
AcDbEntity
  8
DV1_Standard
  6
Continuous
 62
     7
100
AcDbCircle
 10
171.3549641543
 20
425.5082881201
 30
0.0
 40
0.1851003172966777
100
AcDbArc
 50
185.1978385409
 51
251.9108940575
  0
ARC
  5
118
330
75
100
AcDbEntity
  8
DV1_Standard
  6
Continuous
 62
     7
100
AcDbCircle
 10
169.782326143
 20
425.5082881201
 30
0.0
 40
0.1851003172966981
100
AcDbArc
 50
288.0891059425
 51
354.8021614591
  0
LINE
  5
119
330
75
100
AcDbEntity
  8
DV1_Standard
  6
Continuous
 62
     7
100
AcDbLine
 10
169.9666652939
 20
424.9868883155
 30
0.0
 11
169.9715394791
 21
425.2525035782
 31
0.0
  0
LINE
  5
11A
330
75
100
AcDbEntity
  8
DV1_Standard
  6
Continuous
 62
     7
100
AcDbLine
 10
171.4292317868
 20
425.2525035782
 30
0.0
 11
171.4292317868
 21
425.3254235162
 31
0.0
  0
LINE
  5
11B
330
75
100
AcDbEntity
  8
DV1_Standard
  6
Continuous
 62
     7
100
AcDbLine
 10
172.6234431259
 20
425.2525035782
 30
0.0
 11
171.4292317868
 21
425.2525035782
 31
0.0
  0
LINE
  5
11C
330
75
100
AcDbEntity
  8
DV1_Standard
  6
Continuous
 62
     7
100
AcDbLine
 10
172.6234431259
 20
425.3254235162
 30
0.0
 11
172.6234431259
 21
425.2525035782
 31
0.0
  0
LINE
  5
11D
330
75
100
AcDbEntity
  8
DV1_Standard
  6
Continuous
 62
     7
100
AcDbLine
 10
172.6234431259
 20
425.2525035782
 30
0.0
 11
172.6283173111
 21
424.9868883155
 31
0.0
  0
SPLINE
  5
11E
330
75
100
AcDbEntity
  8
DV1_Standard
  6
Continuous
 62
     7
100
AcDbSpline
210
0.0
220
0.0
230
1.0
 70
    12
 71
     3
 72
     8
 73
     4
 74
     0
 42
0.0000002438262512
 43
0.0000000001
 40
0.0
 40
0.0
 40
0.0
 40
0.0
 40
1.0
 40
1.0
 40
1.0
 40
1.0
 10
171.3375987085138
 20
425.3254298681854
 30
0.0
 41
0.9025504126276073
 10
171.3244162849126
 20
425.3255688995418
 30
0.0
 41
0.9260302975219269
 10
171.3109152458754
 20
425.3279660172402
 30
0.0
 41
0.9585134933127245
 10
171.2974913025006
 20
425.3323364257102
 30
0.0
 41
1.0
  0
SPLINE
  5
11F
330
75
100
AcDbEntity
  8
DV1_Standard
  6
Continuous
 62
     7
100
AcDbSpline
210
0.0
220
0.0
230
1.0
 70
    12
 71
     3
 72
     8
 73
     4
 74
     0
 42
0.0000002550860362
 43
0.0000000001
 40
0.0
 40
0.0
 40
0.0
 40
0.0
 40
1.0
 40
1.0
 40
1.0
 40
1.0
 10
172.7551836101929
 20
425.3323364257102
 30
0.0
 41
1.0
 10
172.7423751933336
 20
425.3281664130718
 30
0.0
 41
0.9603403256362018
 10
172.7294877197261
 20
425.325791273233
 30
0.0
 41
0.928908509516526
 10
172.716864186682
 20
425.3254626062067
 30
0.0
 41
0.905704551640973
  0
ARC
  5
120
330
75
100
AcDbEntity
  8
DV1_Standard
  6
Continuous
 62
     7
100
AcDbCircle
 10
172.812656462
 20
425.5082881201
 30
0.0
 40
0.1851003172966735
100
AcDbArc
 50
185.1978385409
 51
251.9108940575
  0
ARC
  5
121
330
75
100
AcDbEntity
  8
DV1_Standard
  6
Continuous
 62
     7
100
AcDbCircle
 10
171.2400184507
 20
425.5082881201
 30
0.0
 40
0.1851003172967033
100
AcDbArc
 50
288.0891059425
 51
354.8021614591
  0
LINE
  5
122
330
75
100
AcDbEntity
  8
DV1_Standard
  6
Continuous
 62
     7
100
AcDbLine
 10
171.4243576016
 20
424.9868883155
 30
0.0
 11
171.4292317868
 21
425.2525035782
 31
0.0
  0
LINE
  5
123
330
75
100
AcDbEntity
  8
DV1_Standard
  6
Continuous
 62
     7
100
AcDbLine
 10
172.8869240944
 20
425.2525035782
 30
0.0
 11
172.8869240944
 21
425.3254235162
 31
0.0
  0
LINE
  5
124
330
75
100
AcDbEntity
  8
DV1_Standard
  6
Continuous
 62
     7
100
AcDbLine
 10
174.0811354336
 20
425.2525035782
 30
0.0
 11
172.8869240944
 21
425.2525035782
 31
0.0
  0
LINE
  5
125
330
75
100
AcDbEntity
  8
DV1_Standard
  6
Continuous
 62
     7
100
AcDbLine
 10
174.0811354336
 20
425.3254235162
 30
0.0
 11
174.0811354336
 21
425.2525035782
 31
0.0
  0
LINE
  5
126
330
75
100
AcDbEntity
  8
DV1_Standard
  6
Continuous
 62
     7
100
AcDbLine
 10
174.0811354336
 20
425.2525035782
 30
0.0
 11
174.0860096188
 21
424.9868883155
 31
0.0
  0
SPLINE
  5
127
330
75
100
AcDbEntity
  8
DV1_Standard
  6
Continuous
 62
     7
100
AcDbSpline
210
0.0
220
0.0
230
1.0
 70
    12
 71
     3
 72
     8
 73
     4
 74
     0
 42
0.0000002438262512
 43
0.0000000001
 40
0.0
 40
0.0
 40
0.0
 40
0.0
 40
1.0
 40
1.0
 40
1.0
 40
1.0
 10
172.7952910162061
 20
425.3254298681854
 30
0.0
 41
0.9025504126276253
 10
172.7821085926049
 20
425.3255688995418
 30
0.0
 41
0.9260302975219434
 10
172.7686075535677
 20
425.3279660172402
 30
0.0
 41
0.958513493312735
 10
172.7551836101929
 20
425.3323364257102
 30
0.0
 41
1.0
  0
SPLINE
  5
128
330
75
100
AcDbEntity
  8
DV1_Standard
  6
Continuous
 62
     7
100
AcDbSpline
210
0.0
220
0.0
230
1.0
 70
    12
 71
     3
 72
     8
 73
     4
 74
     0
 42
0.0000002550860362
 43
0.0000000001
 40
0.0
 40
0.0
 40
0.0
 40
0.0
 40
1.0
 40
1.0
 40
1.0
 40
1.0
 10
174.2128759178853
 20
425.3323364257102
 30
0.0
 41
1.0
 10
174.2000675010259
 20
425.3281664130718
 30
0.0
 41
0.9603403256362192
 10
174.1871800274184
 20
425.325791273233
 30
0.0
 41
0.9289085095165537
 10
174.1745564943743
 20
425.3254626062066
 30
0.0
 41
0.9057045516410036
  0
ARC
  5
129
330
75
100
AcDbEntity
  8
DV1_Standard
  6
Continuous
 62
     7
100
AcDbCircle
 10
174.2703487697
 20
425.5082881201
 30
0.0
 40
0.1851003172966629
100
AcDbArc
 50
185.1978385409
 51
251.9108940575
  0
ARC
  5
12A
330
75
100
AcDbEntity
  8
DV1_Standard
  6
Continuous
 62
     7
100
AcDbCircle
 10
172.6977107584
 20
425.5082881201
 30
0.0
 40
0.1851003172967144
100
AcDbArc
 50
288.0891059425
 51
354.8021614591
  0
LINE
  5
12B
330
75
100
AcDbEntity
  8
DV1_Standard
  6
Continuous
 62
     7
100
AcDbLine
 10
172.8820499093
 20
424.9868883155
 30
0.0
 11
172.8869240944
 21
425.2525035782
 31
0.0
  0
LINE
  5
12C
330
75
100
AcDbEntity
  8
DV1_Standard
  6
Continuous
 62
     7
100
AcDbLine
 10
174.3446164021
 20
425.2525035782
 30
0.0
 11
174.3446164021
 21
425.3254235162
 31
0.0
  0
LINE
  5
12D
330
75
100
AcDbEntity
  8
DV1_Standard
  6
Continuous
 62
     7
100
AcDbLine
 10
175.5388277413
 20
425.2525035782
 30
0.0
 11
174.3446164021
 21
425.2525035782
 31
0.0
  0
LINE
  5
12E
330
75
100
AcDbEntity
  8
DV1_Standard
  6
Continuous
 62
     7
100
AcDbLine
 10
175.5388277413
 20
425.3254235162
 30
0.0
 11
175.5388277413
 21
425.2525035782
 31
0.0
  0
LINE
  5
12F
330
75
100
AcDbEntity
  8
DV1_Standard
  6
Continuous
 62
     7
100
AcDbLine
 10
175.5388277413
 20
425.2525035782
 30
0.0
 11
175.5437019264
 21
424.9868883155
 31
0.0
  0
SPLINE
  5
130
330
75
100
AcDbEntity
  8
DV1_Standard
  6
Continuous
 62
     7
100
AcDbSpline
210
0.0
220
0.0
230
1.0
 70
    12
 71
     3
 72
     8
 73
     4
 74
     0
 42
0.0000002438262512
 43
0.0000000001
 40
0.0
 40
0.0
 40
0.0
 40
0.0
 40
1.0
 40
1.0
 40
1.0
 40
1.0
 10
174.2529833238984
 20
425.3254298681853
 30
0.0
 41
0.9025504126276247
 10
174.2398009002972
 20
425.3255688995418
 30
0.0
 41
0.9260302975219429
 10
174.22629986126
 20
425.3279660172402
 30
0.0
 41
0.9585134933127346
 10
174.2128759178853
 20
425.3323364257102
 30
0.0
 41
1.0
  0
SPLINE
  5
131
330
75
100
AcDbEntity
  8
DV1_Standard
  6
Continuous
 62
     7
100
AcDbSpline
210
0.0
220
0.0
230
1.0
 70
    12
 71
     3
 72
     8
 73
     4
 74
     0
 42
0.0000002550860362
 43
0.0000000001
 40
0.0
 40
0.0
 40
0.0
 40
0.0
 40
1.0
 40
1.0
 40
1.0
 40
1.0
 10
175.6705682255776
 20
425.3323364257102
 30
0.0
 41
1.0
 10
175.6577598087182
 20
425.3281664130718
 30
0.0
 41
0.960340325636215
 10
175.6448723351107
 20
425.325791273233
 30
0.0
 41
0.928908509516547
 10
175.6322488020666
 20
425.3254626062066
 30
0.0
 41
0.9057045516409962
  0
ARC
  5
132
330
75
100
AcDbEntity
  8
DV1_Standard
  6
Continuous
 62
     7
100
AcDbCircle
 10
175.7280410774
 20
425.5082881201
 30
0.0
 40
0.1851003172967019
100
AcDbArc
 50
185.1978385409
 51
251.9108940575
  0
ARC
  5
133
330
75
100
AcDbEntity
  8
DV1_Standard
  6
Continuous
 62
     7
100
AcDbCircle
 10
174.1554030661
 20
425.5082881201
 30
0.0
 40
0.1851003172967096
100
AcDbArc
 50
288.0891059425
 51
354.8021614591
  0
LINE
  5
134
330
75
100
AcDbEntity
  8
DV1_Standard
  6
Continuous
 62
     7
100
AcDbLine
 10
174.339742217
 20
424.9868883155
 30
0.0
 11
174.3446164021
 21
425.2525035782
 31
0.0
  0
LINE
  5
135
330
75
100
AcDbEntity
  8
DV1_Standard
  6
Continuous
 62
     7
100
AcDbLine
 10
175.8023087098
 20
425.2525035782
 30
0.0
 11
175.8023087098
 21
425.3254235162
 31
0.0
  0
LINE
  5
136
330
75
100
AcDbEntity
  8
DV1_Standard
  6
Continuous
 62
     7
100
AcDbLine
 10
176.996520049
 20
425.2525035782
 30
0.0
 11
175.8023087098
 21
425.2525035782
 31
0.0
  0
LINE
  5
137
330
75
100
AcDbEntity
  8
DV1_Standard
  6
Continuous
 62
     7
100
AcDbLine
 10
176.996520049
 20
425.3254235162
 30
0.0
 11
176.996520049
 21
425.2525035782
 31
0.0
  0
LINE
  5
138
330
75
100
AcDbEntity
  8
DV1_Standard
  6
Continuous
 62
     7
100
AcDbLine
 10
176.996520049
 20
425.2525035782
 30
0.0
 11
177.0013942341
 21
424.9868883155
 31
0.0
  0
SPLINE
  5
139
330
75
100
AcDbEntity
  8
DV1_Standard
  6
Continuous
 62
     7
100
AcDbSpline
210
0.0
220
0.0
230
1.0
 70
    12
 71
     3
 72
     8
 73
     4
 74
     0
 42
0.0000002438262512
 43
0.0000000001
 40
0.0
 40
0.0
 40
0.0
 40
0.0
 40
0.9999999999999999
 40
0.9999999999999999
 40
0.9999999999999999
 40
0.9999999999999999
 10
175.7106756315907
 20
425.3254298681854
 30
0.0
 41
0.9025504126276216
 10
175.6974932079895
 20
425.3255688995418
 30
0.0
 41
0.9260302975219401
 10
175.6839921689523
 20
425.3279660172402
 30
0.0
 41
0.958513493312733
 10
175.6705682255776
 20
425.3323364257102
 30
0.0
 41
1.0
  0
SPLINE
  5
13A
330
75
100
AcDbEntity
  8
DV1_Standard
  6
Continuous
 62
     7
100
AcDbSpline
210
0.0
220
0.0
230
1.0
 70
    12
 71
     3
 72
     8
 73
     4
 74
     0
 42
0.0000002550860362
 43
0.0000000001
 40
0.0
 40
0.0
 40
0.0
 40
0.0
 40
1.0
 40
1.0
 40
1.0
 40
1.0
 10
177.1282605332699
 20
425.3323364257102
 30
0.0
 41
1.0
 10
177.1154521164105
 20
425.3281664130718
 30
0.0
 41
0.9603403256362122
 10
177.102564642803
 20
425.325791273233
 30
0.0
 41
0.9289085095165426
 10
177.0899411097589
 20
425.3254626062066
 30
0.0
 41
0.9057045516409914
  0
ARC
  5
13B
330
75
100
AcDbEntity
  8
DV1_Standard
  6
Continuous
 62
     7
100
AcDbCircle
 10
177.1857333851
 20
425.5082881201
 30
0.0
 40
0.1851003172967054
100
AcDbArc
 50
185.1978385409
 51
251.9108940575
  0
ARC
  5
13C
330
75
100
AcDbEntity
  8
DV1_Standard
  6
Continuous
 62
     7
100
AcDbCircle
 10
175.6130953738
 20
425.5082881201
 30
0.0
 40
0.1851003172966995
100
AcDbArc
 50
288.0891059425
 51
354.8021614591
  0
LINE
  5
13D
330
75
100
AcDbEntity
  8
DV1_Standard
  6
Continuous
 62
     7
100
AcDbLine
 10
175.7974345247
 20
424.9868883155
 30
0.0
 11
175.8023087098
 21
425.2525035782
 31
0.0
  0
LINE
  5
13E
330
75
100
AcDbEntity
  8
DV1_Standard
  6
Continuous
 62
     7
100
AcDbLine
 10
177.2600010175
 20
425.2525035782
 30
0.0
 11
177.2600010175
 21
425.3254235162
 31
0.0
  0
LINE
  5
13F
330
75
100
AcDbEntity
  8
DV1_Standard
  6
Continuous
 62
     7
100
AcDbLine
 10
178.4542123567
 20
425.2525035782
 30
0.0
 11
177.2600010175
 21
425.2525035782
 31
0.0
  0
LINE
  5
140
330
75
100
AcDbEntity
  8
DV1_Standard
  6
Continuous
 62
     7
100
AcDbLine
 10
178.4542123567
 20
425.3254235162
 30
0.0
 11
178.4542123567
 21
425.2525035782
 31
0.0
  0
LINE
  5
141
330
75
100
AcDbEntity
  8
DV1_Standard
  6
Continuous
 62
     7
100
AcDbLine
 10
178.4542123567
 20
425.2525035782
 30
0.0
 11
178.4590865418
 21
424.9868883155
 31
0.0
  0
SPLINE
  5
142
330
75
100
AcDbEntity
  8
DV1_Standard
  6
Continuous
 62
     7
100
AcDbSpline
210
0.0
220
0.0
230
1.0
 70
    12
 71
     3
 72
     8
 73
     4
 74
     0
 42
0.0000002438262512
 43
0.0000000001
 40
0.0
 40
0.0
 40
0.0
 40
0.0
 40
1.0
 40
1.0
 40
1.0
 40
1.0
 10
177.168367939283
 20
425.3254298681854
 30
0.0
 41
0.9025504126276215
 10
177.1551855156818
 20
425.3255688995418
 30
0.0
 41
0.9260302975219401
 10
177.1416844766446
 20
425.3279660172402
 30
0.0
 41
0.958513493312733
 10
177.1282605332699
 20
425.3323364257102
 30
0.0
 41
1.0
  0
SPLINE
  5
143
330
75
100
AcDbEntity
  8
DV1_Standard
  6
Continuous
 62
     7
100
AcDbSpline
210
0.0
220
0.0
230
1.0
 70
    12
 71
     3
 72
     8
 73
     4
 74
     0
 42
0.0000002550860362
 43
0.0000000001
 40
0.0
 40
0.0
 40
0.0
 40
0.0
 40
1.0
 40
1.0
 40
1.0
 40
1.0
 10
178.5859528409622
 20
425.3323364257102
 30
0.0
 41
1.0
 10
178.5731444241028
 20
425.3281664130718
 30
0.0
 41
0.9603403256361973
 10
178.5602569504953
 20
425.325791273233
 30
0.0
 41
0.928908509516519
 10
178.5476334174512
 20
425.3254626062066
 30
0.0
 41
0.9057045516409653
  0
ARC
  5
144
330
75
100
AcDbEntity
  8
DV1_Standard
  6
Continuous
 62
     7
100
AcDbCircle
 10
178.6434256927
 20
425.5082881201
 30
0.0
 40
0.1851003172966552
100
AcDbArc
 50
185.1978385409
 51
251.9108940575
  0
ARC
  5
145
330
75
100
AcDbEntity
  8
DV1_Standard
  6
Continuous
 62
     7
100
AcDbCircle
 10
177.0707876815
 20
425.5082881201
 30
0.0
 40
0.1851003172966973
100
AcDbArc
 50
288.0891059425
 51
354.8021614591
  0
LINE
  5
146
330
75
100
AcDbEntity
  8
DV1_Standard
  6
Continuous
 62
     7
100
AcDbLine
 10
177.2551268324
 20
424.9868883155
 30
0.0
 11
177.2600010175
 21
425.2525035782
 31
0.0
  0
LINE
  5
147
330
75
100
AcDbEntity
  8
DV1_Standard
  6
Continuous
 62
     7
100
AcDbLine
 10
178.7176933252
 20
425.2525035782
 30
0.0
 11
178.7176933252
 21
425.3254235162
 31
0.0
  0
LINE
  5
148
330
75
100
AcDbEntity
  8
DV1_Standard
  6
Continuous
 62
     7
100
AcDbLine
 10
179.9119046644
 20
425.2525035782
 30
0.0
 11
178.7176933252
 21
425.2525035782
 31
0.0
  0
LINE
  5
149
330
75
100
AcDbEntity
  8
DV1_Standard
  6
Continuous
 62
     7
100
AcDbLine
 10
179.9119046644
 20
425.3254235162
 30
0.0
 11
179.9119046644
 21
425.2525035782
 31
0.0
  0
LINE
  5
14A
330
75
100
AcDbEntity
  8
DV1_Standard
  6
Continuous
 62
     7
100
AcDbLine
 10
179.9119046644
 20
425.2525035782
 30
0.0
 11
179.9167788495
 21
424.9868883155
 31
0.0
  0
SPLINE
  5
14B
330
75
100
AcDbEntity
  8
DV1_Standard
  6
Continuous
 62
     7
100
AcDbSpline
210
0.0
220
0.0
230
1.0
 70
    12
 71
     3
 72
     8
 73
     4
 74
     0
 42
0.0000002438262512
 43
0.0000000001
 40
0.0
 40
0.0
 40
0.0
 40
0.0
 40
1.0
 40
1.0
 40
1.0
 40
1.0
 10
178.6260602469753
 20
425.3254298681853
 30
0.0
 41
0.902550412627621
 10
178.6128778233741
 20
425.3255688995418
 30
0.0
 41
0.9260302975219397
 10
178.5993767843369
 20
425.3279660172402
 30
0.0
 41
0.9585134933127326
 10
178.5859528409622
 20
425.3323364257102
 30
0.0
 41
1.0
  0
SPLINE
  5
14C
330
75
100
AcDbEntity
  8
DV1_Standard
  6
Continuous
 62
     7
100
AcDbSpline
210
0.0
220
0.0
230
1.0
 70
    12
 71
     3
 72
     8
 73
     4
 74
     0
 42
0.0000002550860362
 43
0.0000000001
 40
0.0
 40
0.0
 40
0.0
 40
0.0
 40
1.0
 40
1.0
 40
1.0
 40
1.0
 10
180.0436451486545
 20
425.3323364257102
 30
0.0
 41
1.0
 10
180.0308367317951
 20
425.3281664130718
 30
0.0
 41
0.9603403256362051
 10
180.0179492581876
 20
425.325791273233
 30
0.0
 41
0.9289085095165314
 10
180.0053257251435
 20
425.3254626062066
 30
0.0
 41
0.9057045516409788
  0
ARC
  5
14D
330
75
100
AcDbEntity
  8
DV1_Standard
  6
Continuous
 62
     7
100
AcDbCircle
 10
180.1011180004
 20
425.5082881201
 30
0.0
 40
0.1851003172966618
100
AcDbArc
 50
185.1978385409
 51
251.9108940575
  0
ARC
  5
14E
330
75
100
AcDbEntity
  8
DV1_Standard
  6
Continuous
 62
     7
100
AcDbCircle
 10
178.5284799892
 20
425.5082881201
 30
0.0
 40
0.1851003172966888
100
AcDbArc
 50
288.0891059425
 51
354.8021614591
  0
LINE
  5
14F
330
75
100
AcDbEntity
  8
DV1_Standard
  6
Continuous
 62
     7
100
AcDbLine
 10
178.7128191401
 20
424.9868883155
 30
0.0
 11
178.7176933252
 21
425.2525035782
 31
0.0
  0
ARC
  5
150
330
75
100
AcDbEntity
  8
DV1_Standard
  6
Continuous
 62
     7
100
AcDbCircle
 10
179.9861722969
 20
425.5082881201
 30
0.0
 40
0.1851003172966866
100
AcDbArc
 50
288.0891059425
 51
354.8021614591
  0
SPLINE
  5
151
330
75
100
AcDbEntity
  8
DV1_Standard
  6
Continuous
 62
     7
100
AcDbSpline
210
0.0
220
0.0
230
1.0
 70
    12
 71
     3
 72
     8
 73
     4
 74
     0
 42
0.0000002438262512
 43
0.0000000001
 40
0.0
 40
0.0
 40
0.0
 40
0.0
 40
1.0
 40
1.0
 40
1.0
 40
1.0
 10
180.0837525546676
 20
425.3254298681853
 30
0.0
 41
0.9025504126276461
 10
180.0705701310664
 20
425.3255688995418
 30
0.0
 41
0.9260302975219629
 10
180.0570690920292
 20
425.3279660172402
 30
0.0
 41
0.9585134933127475
 10
180.0436451486545
 20
425.3323364257102
 30
0.0
 41
1.0
  0
SPLINE
  5
152
330
75
100
AcDbEntity
  8
DV1_Standard
  6
Continuous
 62
     7
100
AcDbSpline
210
0.0
220
0.0
230
1.0
 70
    12
 71
     3
 72
     8
 73
     4
 74
     0
 42
0.0000002550860362
 43
0.0000000001
 40
0.0
 40
0.0
 40
0.0
 40
0.0
 40
1.0
 40
1.0
 40
1.0
 40
1.0
 10
181.5013374563468
 20
425.3323364257102
 30
0.0
 41
1.0
 10
181.4885290394874
 20
425.3281664130718
 30
0.0
 41
0.960340325636192
 10
181.4756415658799
 20
425.325791273233
 30
0.0
 41
0.9289085095165106
 10
181.4630180328358
 20
425.3254626062066
 30
0.0
 41
0.9057045516409559
  0
ARC
  5
153
330
75
100
AcDbEntity
  8
DV1_Standard
  6
Continuous
 62
     7
100
AcDbCircle
 10
181.5588103081
 20
425.5082881201
 30
0.0
 40
0.1851003172966751
100
AcDbArc
 50
185.1978385409
 51
251.9108940575
  0
LINE
  5
154
330
75
100
AcDbEntity
  8
DV1_Standard
  6
Continuous
 62
     7
100
AcDbLine
 10
180.1705114478
 20
424.9868883155
 30
0.0
 11
180.1753856329
 21
425.2525035782
 31
0.0
  0
LINE
  5
155
330
75
100
AcDbEntity
  8
DV1_Standard
  6
Continuous
 62
     7
100
AcDbLine
 10
180.1753856329
 20
425.2525035782
 30
0.0
 11
180.1753856329
 21
425.3254235162
 31
0.0
  0
LINE
  5
156
330
75
100
AcDbEntity
  8
DV1_Standard
  6
Continuous
 62
     7
100
AcDbLine
 10
181.3695969721
 20
425.2525035782
 30
0.0
 11
180.1753856329
 21
425.2525035782
 31
0.0
  0
LINE
  5
157
330
75
100
AcDbEntity
  8
DV1_Standard
  6
Continuous
 62
     7
100
AcDbLine
 10
181.3695969721
 20
425.3254235162
 30
0.0
 11
181.3695969721
 21
425.2525035782
 31
0.0
  0
LINE
  5
158
330
75
100
AcDbEntity
  8
DV1_Standard
  6
Continuous
 62
     7
100
AcDbLine
 10
181.3695969721
 20
425.2525035782
 30
0.0
 11
181.3744711572
 21
424.9868883155
 31
0.0
  0
LINE
  5
159
330
75
100
AcDbEntity
  8
DV1_Standard
  6
Continuous
 62
     7
100
AcDbLine
 10
181.6330779406
 20
425.2525035782
 30
0.0
 11
181.6330779406
 21
425.3254235162
 31
0.0
  0
LINE
  5
15A
330
75
100
AcDbEntity
  8
DV1_Standard
  6
Continuous
 62
     7
100
AcDbLine
 10
182.8272892798
 20
425.2525035782
 30
0.0
 11
181.6330779406
 21
425.2525035782
 31
0.0
  0
LINE
  5
15B
330
75
100
AcDbEntity
  8
DV1_Standard
  6
Continuous
 62
     7
100
AcDbLine
 10
182.8272892798
 20
425.3254235162
 30
0.0
 11
182.8272892798
 21
425.2525035782
 31
0.0
  0
LINE
  5
15C
330
75
100
AcDbEntity
  8
DV1_Standard
  6
Continuous
 62
     7
100
AcDbLine
 10
182.8272892798
 20
425.2525035782
 30
0.0
 11
182.8321634649
 21
424.9868883155
 31
0.0
  0
SPLINE
  5
15D
330
75
100
AcDbEntity
  8
DV1_Standard
  6
Continuous
 62
     7
100
AcDbSpline
210
0.0
220
0.0
230
1.0
 70
    12
 71
     3
 72
     8
 73
     4
 74
     0
 42
0.0000002438262512
 43
0.0000000001
 40
0.0
 40
0.0
 40
0.0
 40
0.0
 40
1.0
 40
1.0
 40
1.0
 40
1.0
 10
182.9991371700523
 20
425.3254298681853
 30
0.0
 41
0.9025504126276022
 10
182.985954746451
 20
425.3255688995418
 30
0.0
 41
0.9260302975219225
 10
182.9724537074138
 20
425.3279660172402
 30
0.0
 41
0.9585134933127217
 10
182.9590297640391
 20
425.3323364257102
 30
0.0
 41
1.0
  0
ARC
  5
15E
330
75
100
AcDbEntity
  8
DV1_Standard
  6
Continuous
 62
     7
100
AcDbCircle
 10
182.9015569123
 20
425.0036574807
 30
0.0
 40
0.1851003172677204
100
AcDbArc
 50
288.0891059361
 51
354.8021614595
  0
SPLINE
  5
15F
330
75
100
AcDbEntity
  8
DV1_Standard
  6
Continuous
 62
     7
100
AcDbSpline
210
0.0
220
0.0
230
1.0
 70
    12
 71
     3
 72
     8
 73
     4
 74
     0
 42
0.0000002438262512
 43
0.0000000001
 40
0.0
 40
0.0
 40
0.0
 40
0.0
 40
1.0
 40
1.0
 40
1.0
 40
1.0
 10
181.5414448623599
 20
425.3254298681853
 30
0.0
 41
0.9025504126276334
 10
181.5282624387587
 20
425.3255688995418
 30
0.0
 41
0.9260302975219511
 10
181.5147613997215
 20
425.3279660172402
 30
0.0
 41
0.9585134933127399
 10
181.5013374563468
 20
425.3323364257102
 30
0.0
 41
1.0
  0
SPLINE
  5
160
330
75
100
AcDbEntity
  8
DV1_Standard
  6
Continuous
 62
     7
100
AcDbSpline
210
0.0
220
0.0
230
1.0
 70
    12
 71
     3
 72
     8
 73
     4
 74
     0
 42
0.0000002550860362
 43
0.0000000001
 40
0.0
 40
0.0
 40
0.0
 40
0.0
 40
1.0
 40
1.0
 40
1.0
 40
1.0
 10
182.9590297640391
 20
425.3323364257102
 30
0.0
 41
1.0
 10
182.9462213471797
 20
425.3281664130718
 30
0.0
 41
0.9603403256362013
 10
182.9333338735722
 20
425.325791273233
 30
0.0
 41
0.9289085095165254
 10
182.9207103405281
 20
425.3254626062066
 30
0.0
 41
0.9057045516409722
  0
ARC
  5
161
330
75
100
AcDbEntity
  8
DV1_Standard
  6
Continuous
 62
     7
100
AcDbCircle
 10
183.0165026158
 20
425.5082881201
 30
0.0
 40
0.1851003172966676
100
AcDbArc
 50
185.1978385409
 51
251.9108940575
  0
ARC
  5
162
330
75
100
AcDbEntity
  8
DV1_Standard
  6
Continuous
 62
     7
100
AcDbCircle
 10
181.4438646046
 20
425.5082881201
 30
0.0
 40
0.1851003172966972
100
AcDbArc
 50
288.0891059425
 51
354.8021614591
  0
LINE
  5
163
330
75
100
AcDbEntity
  8
DV1_Standard
  6
Continuous
 62
     7
100
AcDbLine
 10
181.6282037555
 20
424.9868883155
 30
0.0
 11
181.6330779406
 21
425.2525035782
 31
0.0
  0
LINE
  5
164
330
75
100
AcDbEntity
  8
DV1_Standard
  6
Continuous
 62
     7
100
AcDbLine
 10
183.0858960632
 20
424.4822576761
 30
0.0
 11
183.0907702483
 21
424.7478729388
 31
0.0
  0
LINE
  5
165
330
75
100
AcDbEntity
  8
DV1_Standard
  6
Continuous
 62
     7
100
AcDbLine
 10
183.0907702483
 20
424.7478729388
 30
0.0
 11
183.0907702483
 21
424.8207928768
 31
0.0
  0
LINE
  5
166
330
75
100
AcDbEntity
  8
DV1_Standard
  6
Continuous
 62
     7
100
AcDbLine
 10
184.2849815875
 20
424.7478729388
 30
0.0
 11
183.0907702483
 21
424.7478729388
 31
0.0
  0
LINE
  5
167
330
75
100
AcDbEntity
  8
DV1_Standard
  6
Continuous
 62
     7
100
AcDbLine
 10
184.2849815875
 20
424.8207928768
 30
0.0
 11
184.2849815875
 21
424.7478729388
 31
0.0
  0
LINE
  5
168
330
75
100
AcDbEntity
  8
DV1_Standard
  6
Continuous
 62
     7
100
AcDbLine
 10
184.2849815875
 20
424.7478729388
 30
0.0
 11
184.2898557726
 21
424.4822576761
 31
0.0
  0
ARC
  5
169
330
75
100
AcDbEntity
  8
DV1_Standard
  6
Continuous
 62
     7
100
AcDbCircle
 10
184.4741949235
 20
425.0036574807
 30
0.0
 40
0.1851003172969579
100
AcDbArc
 50
185.1978385405
 51
251.9108940574
  0
SPLINE
  5
16A
330
75
100
AcDbEntity
  8
DV1_Standard
  6
Continuous
 62
     7
100
AcDbSpline
210
0.0
220
0.0
230
1.0
 70
    12
 71
     3
 72
     8
 73
     4
 74
     0
 42
0.000000243826251
 43
0.0000000001
 40
0.0
 40
0.0
 40
0.0
 40
0.0
 40
1.0
 40
1.0
 40
1.0
 40
1.0
 10
182.9991371700809
 20
424.8207992287801
 30
0.0
 41
0.9025504125394098
 10
182.9859547464697
 20
424.8209382601364
 30
0.0
 41
0.9260302974449257
 10
182.9724537074225
 20
424.8233353778396
 30
0.0
 41
0.9585134932651225
 10
182.9590297640391
 20
424.8277057863187
 30
0.0
 41
1.0
  0
SPLINE
  5
16B
330
75
100
AcDbEntity
  8
DV1_Standard
  6
Continuous
 62
     7
100
AcDbSpline
210
0.0
220
0.0
230
1.0
 70
    12
 71
     3
 72
     8
 73
     4
 74
     0
 42
0.0000002550860362
 43
0.0000000001
 40
0.0
 40
0.0
 40
0.0
 40
0.0
 40
0.9999999999999999
 40
0.9999999999999999
 40
0.9999999999999999
 40
0.9999999999999999
 10
184.4167220717314
 20
424.8277057863002
 30
0.0
 41
1.0
 10
184.4039136548735
 20
424.8235357736623
 30
0.0
 41
0.9603403256402855
 10
184.3910261812673
 20
424.8211606338235
 30
0.0
 41
0.928908509522993
 10
184.3784026482244
 20
424.8208319667967
 30
0.0
 41
0.9057045516481225
  0
SPLINE
  5
16C
330
75
100
AcDbEntity
  8
DV1_Standard
  6
Continuous
 62
     7
100
AcDbSpline
210
0.0
220
0.0
230
1.0
 70
    12
 71
     3
 72
     8
 73
     4
 74
     0
 42
0.0000002550860362
 43
0.0000000001
 40
0.0
 40
0.0
 40
0.0
 40
0.0
 40
1.0
 40
1.0
 40
1.0
 40
1.0
 10
184.4167220717314
 20
425.3323364257102
 30
0.0
 41
1.0
 10
184.4039136548721
 20
425.3281664130718
 30
0.0
 41
0.9603403256361961
 10
184.3910261812645
 20
425.325791273233
 30
0.0
 41
0.9289085095165172
 10
184.3784026482204
 20
425.3254626062066
 30
0.0
 41
0.9057045516409631
  0
ARC
  5
16D
330
75
100
AcDbEntity
  8
DV1_Standard
  6
Continuous
 62
     7
100
AcDbCircle
 10
184.4741949235
 20
425.5082881201
 30
0.0
 40
0.1851003172966967
100
AcDbArc
 50
185.1978385409
 51
251.9108940575
  0
ARC
  5
16E
330
75
100
AcDbEntity
  8
DV1_Standard
  6
Continuous
 62
     7
100
AcDbCircle
 10
182.9015569123
 20
425.5082881201
 30
0.0
 40
0.1851003172966851
100
AcDbArc
 50
288.0891059425
 51
354.8021614591
  0
ARC
  5
16F
330
75
100
AcDbEntity
  8
DV1_Standard
  6
Continuous
 62
     7
100
AcDbCircle
 10
165.4092492199
 20
424.4990268413
 30
0.0
 40
0.1851003172972269
100
AcDbArc
 50
288.0891059427
 51
354.8021614599
  0
ARC
  5
170
330
75
100
AcDbEntity
  8
DV1_Standard
  6
Continuous
 62
     7
100
AcDbCircle
 10
166.9818872312
 20
424.4990268413
 30
0.0
 40
0.1851003172972537
100
AcDbArc
 50
185.1978385401
 51
251.9108940573
  0
ARC
  5
171
330
75
100
AcDbEntity
  8
DV1_Standard
  6
Continuous
 62
     7
100
AcDbCircle
 10
168.4395795389
 20
425.0036574807
 30
0.0
 40
0.1851003172676927
100
AcDbArc
 50
185.1978385405
 51
251.9108940639
  0
ARC
  5
172
330
75
100
AcDbEntity
  8
DV1_Standard
  6
Continuous
 62
     7
100
AcDbCircle
 10
166.8669415277
 20
425.0036574807
 30
0.0
 40
0.1851003172677472
100
AcDbArc
 50
288.0891059361
 51
354.8021614595
  0
ARC
  5
173
330
75
100
AcDbEntity
  8
DV1_Standard
  6
Continuous
 62
     7
100
AcDbCircle
 10
169.8972718466
 20
425.0036574807
 30
0.0
 40
0.1851003172677449
100
AcDbArc
 50
185.1978385405
 51
251.9108940639
  0
ARC
  5
174
330
75
100
AcDbEntity
  8
DV1_Standard
  6
Continuous
 62
     7
100
AcDbCircle
 10
168.3246338354
 20
425.0036574807
 30
0.0
 40
0.1851003172677151
100
AcDbArc
 50
288.0891059361
 51
354.8021614595
  0
ARC
  5
175
330
75
100
AcDbEntity
  8
DV1_Standard
  6
Continuous
 62
     7
100
AcDbCircle
 10
171.3549641543
 20
425.0036574807
 30
0.0
 40
0.1851003172677001
100
AcDbArc
 50
185.1978385405
 51
251.9108940639
  0
ARC
  5
176
330
75
100
AcDbEntity
  8
DV1_Standard
  6
Continuous
 62
     7
100
AcDbCircle
 10
169.7823261431
 20
425.0036574807
 30
0.0
 40
0.1851003172676913
100
AcDbArc
 50
288.0891059361
 51
354.8021614595
  0
ARC
  5
177
330
75
100
AcDbEntity
  8
DV1_Standard
  6
Continuous
 62
     7
100
AcDbCircle
 10
172.8126564619
 20
425.0036574807
 30
0.0
 40
0.1851003172677332
100
AcDbArc
 50
185.1978385405
 51
251.9108940639
  0
ARC
  5
178
330
75
100
AcDbEntity
  8
DV1_Standard
  6
Continuous
 62
     7
100
AcDbCircle
 10
171.2400184507
 20
425.0036574807
 30
0.0
 40
0.1851003172676967
100
AcDbArc
 50
288.0891059361
 51
354.8021614595
  0
ARC
  5
179
330
75
100
AcDbEntity
  8
DV1_Standard
  6
Continuous
 62
     7
100
AcDbCircle
 10
174.2703487696
 20
425.0036574807
 30
0.0
 40
0.1851003172677359
100
AcDbArc
 50
185.1978385405
 51
251.9108940639
  0
ARC
  5
17A
330
75
100
AcDbEntity
  8
DV1_Standard
  6
Continuous
 62
     7
100
AcDbCircle
 10
172.6977107584
 20
425.0036574807
 30
0.0
 40
0.1851003172676784
100
AcDbArc
 50
288.0891059361
 51
354.8021614595
  0
ARC
  5
17B
330
75
100
AcDbEntity
  8
DV1_Standard
  6
Continuous
 62
     7
100
AcDbCircle
 10
175.7280410773
 20
425.0036574807
 30
0.0
 40
0.1851003172677125
100
AcDbArc
 50
185.1978385405
 51
251.9108940639
  0
ARC
  5
17C
330
75
100
AcDbEntity
  8
DV1_Standard
  6
Continuous
 62
     7
100
AcDbCircle
 10
174.1554030661
 20
425.0036574807
 30
0.0
 40
0.1851003172676512
100
AcDbArc
 50
288.0891059361
 51
354.8021614595
  0
ARC
  5
17D
330
75
100
AcDbEntity
  8
DV1_Standard
  6
Continuous
 62
     7
100
AcDbCircle
 10
177.185733385
 20
425.0036574807
 30
0.0
 40
0.1851003172677132
100
AcDbArc
 50
185.1978385405
 51
251.9108940639
  0
ARC
  5
17E
330
75
100
AcDbEntity
  8
DV1_Standard
  6
Continuous
 62
     7
100
AcDbCircle
 10
175.6130953738
 20
425.0036574807
 30
0.0
 40
0.185100317267694
100
AcDbArc
 50
288.0891059361
 51
354.8021614595
  0
ARC
  5
17F
330
75
100
AcDbEntity
  8
DV1_Standard
  6
Continuous
 62
     7
100
AcDbCircle
 10
178.6434256927
 20
425.0036574807
 30
0.0
 40
0.1851003172677133
100
AcDbArc
 50
185.1978385405
 51
251.9108940639
  0
ARC
  5
180
330
75
100
AcDbEntity
  8
DV1_Standard
  6
Continuous
 62
     7
100
AcDbCircle
 10
177.0707876815
 20
425.0036574807
 30
0.0
 40
0.1851003172676992
100
AcDbArc
 50
288.0891059361
 51
354.8021614595
  0
ARC
  5
181
330
75
100
AcDbEntity
  8
DV1_Standard
  6
Continuous
 62
     7
100
AcDbCircle
 10
180.1011180004
 20
425.0036574807
 30
0.0
 40
0.1851003172676865
100
AcDbArc
 50
185.1978385405
 51
251.9108940639
  0
ARC
  5
182
330
75
100
AcDbEntity
  8
DV1_Standard
  6
Continuous
 62
     7
100
AcDbCircle
 10
178.5284799892
 20
425.0036574807
 30
0.0
 40
0.1851003172676847
100
AcDbArc
 50
288.0891059361
 51
354.8021614595
  0
ARC
  5
183
330
75
100
AcDbEntity
  8
DV1_Standard
  6
Continuous
 62
     7
100
AcDbCircle
 10
181.5588103081
 20
425.0036574807
 30
0.0
 40
0.1851003172677087
100
AcDbArc
 50
185.1978385405
 51
251.9108940639
  0
ARC
  5
184
330
75
100
AcDbEntity
  8
DV1_Standard
  6
Continuous
 62
     7
100
AcDbCircle
 10
179.9861722969
 20
425.0036574807
 30
0.0
 40
0.1851003172676761
100
AcDbArc
 50
288.0891059361
 51
354.8021614595
  0
ARC
  5
185
330
75
100
AcDbEntity
  8
DV1_Standard
  6
Continuous
 62
     7
100
AcDbCircle
 10
183.0165026158
 20
425.0036574807
 30
0.0
 40
0.1851003172677152
100
AcDbArc
 50
185.1978385405
 51
251.9108940639
  0
ARC
  5
186
330
75
100
AcDbEntity
  8
DV1_Standard
  6
Continuous
 62
     7
100
AcDbCircle
 10
181.4438646046
 20
425.0036574807
 30
0.0
 40
0.1851003172676818
100
AcDbArc
 50
288.0891059361
 51
354.8021614595
  0
ARC
  5
187
330
75
100
AcDbEntity
  8
DV1_Standard
  6
Continuous
 62
     7
100
AcDbCircle
 10
182.9015569123
 20
424.4990268413
 30
0.0
 40
0.1851003172972069
100
AcDbArc
 50
288.0891059427
 51
354.8021614599
  0
ARC
  5
188
330
75
100
AcDbEntity
  8
DV1_Standard
  6
Continuous
 62
     7
100
AcDbCircle
 10
184.4741949235
 20
424.4990268413
 30
0.0
 40
0.1851003172972164
100
AcDbArc
 50
185.1978385401
 51
251.9108940573
  0
ARC
  5
189
330
75
100
AcDbEntity
  8
DV1_Standard
  6
Continuous
 62
     7
100
AcDbCircle
 10
184.35924922
 20
424.4990268413
 30
0.0
 40
0.1851003172901519
100
AcDbArc
 50
288.0891059401
 51
354.8021614491
  0
SPLINE
  5
18A
330
75
100
AcDbEntity
  8
DV1_Standard
  6
Continuous
 62
     7
100
AcDbSpline
210
0.0
220
0.0
230
1.0
 70
    12
 71
     3
 72
     8
 73
     4
 74
     0
 42
0.0000002438262513
 43
0.0000000001
 40
0.0
 40
0.0
 40
0.0
 40
0.0
 40
1.0
 40
1.0
 40
1.0
 40
1.0
 10
184.4568294777406
 20
424.8207992287753
 30
0.0
 41
0.9025504126345414
 10
184.4436470541406
 20
424.8209382601323
 30
0.0
 41
0.9260302975283105
 10
184.4301460151048
 20
424.8233353778306
 30
0.0
 41
0.9585134933167967
 10
184.4167220717314
 20
424.8277057863002
 30
0.0
 41
1.0
  0
LINE
  5
18B
330
75
100
AcDbEntity
  8
DV1_Standard
  6
Continuous
 62
     7
100
AcDbLine
 10
184.5435883709
 20
424.9868883154
 30
0.0
 11
184.548462556
 21
425.2525035782
 31
0.0
  0
LINE
  5
18C
330
75
100
AcDbEntity
  8
DV1_Standard
  6
Continuous
 62
     7
100
AcDbLine
 10
184.548462556
 20
425.2525035782
 30
0.0
 11
184.548462556
 21
425.3254235162
 31
0.0
  0
SPLINE
  5
18D
330
75
100
AcDbEntity
  8
DV1_Standard
  6
Continuous
 62
     7
100
AcDbSpline
210
0.0
220
0.0
230
1.0
 70
    12
 71
     3
 72
     8
 73
     4
 74
     0
 42
0.0000002438262512
 43
0.0000000001
 40
0.0
 40
0.0
 40
0.0
 40
0.0
 40
0.9999999999999999
 40
0.9999999999999999
 40
0.9999999999999999
 40
0.9999999999999999
 10
184.4568294777446
 20
425.3254298681853
 30
0.0
 41
0.9025504126276027
 10
184.4436470541433
 20
425.3255688995418
 30
0.0
 41
0.926030297521923
 10
184.4301460151061
 20
425.3279660172402
 30
0.0
 41
0.9585134933127221
 10
184.4167220717314
 20
425.3323364257102
 30
0.0
 41
1.0
  0
ARC
  5
18E
330
75
100
AcDbEntity
  8
DV1_Standard
  6
Continuous
 62
     7
100
AcDbCircle
 10
184.35924922
 20
425.0036574807
 30
0.0
 40
0.1851003172904425
100
AcDbArc
 50
288.0891059402
 51
354.8021614495
  0
LINE
  5
18F
330
75
100
AcDbEntity
  8
DV1_Standard
  6
Continuous
 62
     7
100
AcDbLine
 10
184.5435883709
 20
424.482257676
 30
0.0
 11
184.548462556
 21
424.7478729388
 31
0.0
  0
LINE
  5
190
330
75
100
AcDbEntity
  8
DV1_Standard
  6
Continuous
 62
     7
100
AcDbLine
 10
184.548462556
 20
424.7478729388
 30
0.0
 11
184.548462556
 21
424.8207928768
 31
0.0
  0
ARC
  5
191
330
75
100
AcDbEntity
  8
DV1_Standard
  6
Continuous
 62
     7
100
AcDbCircle
 10
184.35924922
 20
425.5082881201
 30
0.0
 40
0.185100317290695
100
AcDbArc
 50
288.0891059403
 51
354.8021614499
  0
LINE
  5
192
330
75
100
AcDbEntity
  8
DV1_Standard
  6
Continuous
 62
     7
100
AcDbLine
 10
184.5435883709
 20
425.4915189549
 30
0.0
 11
184.5443545837
 21
425.5332731803
 31
0.0
  0
ARC
  5
193
330
75
100
AcDbEntity
  8
DV1_Standard
  6
Continuous
 62
     7
100
AcDbCircle
 10
165.5241949235
 20
425.5082881201
 30
0.0
 40
0.1851003172966759
100
AcDbArc
 50
185.1978385409
 51
251.9108940575
  0
LINE
  5
194
330
75
100
AcDbEntity
  8
DV1_Standard
  6
Continuous
 62
     7
100
AcDbLine
 10
165.3349815875
 20
425.3254235162
 30
0.0
 11
165.3349815875
 21
425.2525035782
 31
0.0
  0
LINE
  5
195
330
75
100
AcDbEntity
  8
DV1_Standard
  6
Continuous
 62
     7
100
AcDbLine
 10
165.3349815875
 20
425.2525035782
 30
0.0
 11
165.3398557726
 21
424.9868883155
 31
0.0
  0
SPLINE
  5
196
330
75
100
AcDbEntity
  8
DV1_Standard
  6
Continuous
 62
     7
100
AcDbSpline
210
0.0
220
0.0
230
1.0
 70
    12
 71
     3
 72
     8
 73
     4
 74
     0
 42
0.0000002550860362
 43
0.0000000001
 40
0.0
 40
0.0
 40
0.0
 40
0.0
 40
1.0
 40
1.0
 40
1.0
 40
1.0
 10
165.4667220717314
 20
425.3323364257102
 30
0.0
 41
1.0
 10
165.4539136548721
 20
425.3281664130718
 30
0.0
 41
0.9603403256362029
 10
165.4410261812645
 20
425.325791273233
 30
0.0
 41
0.9289085095165278
 10
165.4284026482204
 20
425.3254626062066
 30
0.0
 41
0.9057045516409749
  0
ARC
  5
197
330
75
100
AcDbEntity
  8
DV1_Standard
  6
Continuous
 62
     7
100
AcDbCircle
 10
165.5241949235
 20
425.0036574807
 30
0.0
 40
0.1851003172676857
100
AcDbArc
 50
185.1978385405
 51
251.9108940639
  0
LINE
  5
198
330
75
100
AcDbEntity
  8
DV1_Standard
  6
Continuous
 62
     7
100
AcDbLine
 10
165.3390860175
 20
425.5334662108
 30
0.0
 11
165.3398557726
 21
425.4915189549
 31
0.0
  0
ARC
  5
199
330
75
100
AcDbEntity
  8
DV1_Standard
  6
Continuous
 62
     7
100
AcDbCircle
 10
165.5241949235
 20
424.4990268413
 30
0.0
 40
0.1851003172972542
100
AcDbArc
 50
185.1978385401
 51
251.9108940573
  0
SPLINE
  5
19A
330
75
100
AcDbEntity
  8
DV1_Standard
  6
Continuous
 62
     7
100
AcDbSpline
210
0.0
220
0.0
230
1.0
 70
    12
 71
     3
 72
     8
 73
     4
 74
     0
 42
0.000000255086036
 43
0.0000000001
 40
0.0
 40
0.0
 40
0.0
 40
0.0
 40
1.0
 40
1.0
 40
1.0
 40
1.0
 10
165.4667220717314
 20
424.8277057863187
 30
0.0
 41
1.0
 10
165.453913654863
 20
424.8235357736714
 30
0.0
 41
0.9603403255883942
 10
165.4410261812452
 20
424.8211606338277
 30
0.0
 41
0.9289085094384889
 10
165.4284026481909
 20
424.8208319668013
 30
0.0
 41
0.9057045515502841
  0
LINE
  5
19B
330
75
100
AcDbEntity
  8
DV1_Standard
  6
Continuous
 62
     7
100
AcDbLine
 10
165.3349815875
 20
424.8207928768
 30
0.0
 11
165.3349815875
 21
424.7478729388
 31
0.0
  0
LINE
  5
19C
330
75
100
AcDbEntity
  8
DV1_Standard
  6
Continuous
 62
     7
100
AcDbLine
 10
165.3349815875
 20
424.7478729388
 30
0.0
 11
165.3398557726
 21
424.4822576761
 31
0.0
  0
SPLINE
  5
19D
330
75
100
AcDbEntity
  8
DV1_Standard
  6
Continuous
 62
     7
100
AcDbSpline
210
0.0
220
0.0
230
1.0
 70
    12
 71
     3
 72
     8
 73
     4
 74
     0
 42
0.0000002438262513
 43
0.0000000001
 40
0.0
 40
0.0
 40
0.0
 40
0.0
 40
1.0
 40
1.0
 40
1.0
 40
1.0
 10
165.5068294777367
 20
424.3161685893654
 30
0.0
 41
0.9025504126414505
 10
165.4936470541379
 20
424.3163076207227
 30
0.0
 41
0.926030297534671
 10
165.4801460151034
 20
424.318704738421
 30
0.0
 41
0.9585134933208542
 10
165.4667220717314
 20
424.3230751468902
 30
0.0
 41
1.0
  0
SPLINE
  5
19E
330
75
100
AcDbEntity
  8
DV1_Standard
  6
Continuous
 62
     7
100
AcDbSpline
210
0.0
220
0.0
230
1.0
 70
    12
 71
     3
 72
     8
 73
     4
 74
     0
 42
0.0000002550860363
 43
0.0000000001
 40
0.0
 40
0.0
 40
0.0
 40
0.0
 40
0.9999999999999999
 40
0.9999999999999999
 40
0.9999999999999999
 40
0.9999999999999999
 10
166.9244143794237
 20
424.3230751468902
 30
0.0
 41
1.0
 10
166.9116059625672
 20
424.3189051342526
 30
0.0
 41
0.9603403256443597
 10
166.8987184889623
 20
424.3165299944139
 30
0.0
 41
0.9289085095294447
 10
166.8860949559208
 20
424.3162013273867
 30
0.0
 41
0.9057045516552553
  0
ARC
  5
19F
330
75
100
AcDbEntity
  8
DV1_Standard
  6
Continuous
 62
     7
100
AcDbCircle
 10
166.8669415276
 20
424.4990268413
 30
0.0
 40
0.1851003172972407
100
AcDbArc
 50
288.0891059427
 51
354.8021614599
  0
SPLINE
  5
1A0
330
75
100
AcDbEntity
  8
DV1_Standard
  6
Continuous
 62
     7
100
AcDbSpline
210
0.0
220
0.0
230
1.0
 70
    12
 71
     3
 72
     8
 73
     4
 74
     0
 42
0.000000243826251
 43
0.0000000001
 40
0.0
 40
0.0
 40
0.0
 40
0.0
 40
0.9999999999999999
 40
0.9999999999999999
 40
0.9999999999999999
 40
0.9999999999999999
 10
166.9645217854655
 20
424.8207992287801
 30
0.0
 41
0.9025504125394007
 10
166.9513393618544
 20
424.8209382601364
 30
0.0
 41
0.9260302974449173
 10
166.9378383228072
 20
424.8233353778396
 30
0.0
 41
0.958513493265117
 10
166.9244143794237
 20
424.8277057863187
 30
0.0
 41
1.0
  0
LINE
  5
1A1
330
75
100
AcDbEntity
  8
DV1_Standard
  6
Continuous
 62
     7
100
AcDbLine
 10
167.0512806786
 20
424.4822576761
 30
0.0
 11
167.0561548637
 21
424.7478729388
 31
0.0
  0
LINE
  5
1A2
330
75
100
AcDbEntity
  8
DV1_Standard
  6
Continuous
 62
     7
100
AcDbLine
 10
167.0561548637
 20
424.7478729388
 30
0.0
 11
167.0561548637
 21
424.8207928768
 31
0.0
  0
SPLINE
  5
1A3
330
75
100
AcDbEntity
  8
DV1_Standard
  6
Continuous
 62
     7
100
AcDbSpline
210
0.0
220
0.0
230
1.0
 70
    12
 71
     3
 72
     8
 73
     4
 74
     0
 42
0.000000255086036
 43
0.0000000001
 40
0.0
 40
0.0
 40
0.0
 40
0.0
 40
1.0
 40
1.0
 40
1.0
 40
1.0
 10
168.382106687116
 20
424.8277057863187
 30
0.0
 41
1.0
 10
168.3692982702476
 20
424.8235357736714
 30
0.0
 41
0.9603403255883883
 10
168.3564107966299
 20
424.8211606338277
 30
0.0
 41
0.9289085094384797
 10
168.3437872635755
 20
424.8208319668013
 30
0.0
 41
0.9057045515502739
  0
SPLINE
  5
1A4
330
75
100
AcDbEntity
  8
DV1_Standard
  6
Continuous
 62
     7
100
AcDbSpline
210
0.0
220
0.0
230
1.0
 70
    12
 71
     3
 72
     8
 73
     4
 74
     0
 42
0.000000243826251
 43
0.0000000001
 40
0.0
 40
0.0
 40
0.0
 40
0.0
 40
1.0
 40
1.0
 40
1.0
 40
1.0
 10
168.4222140931579
 20
424.8207992287801
 30
0.0
 41
0.9025504125393747
 10
168.4090316695467
 20
424.8209382601364
 30
0.0
 41
0.9260302974448933
 10
168.3955306304995
 20
424.8233353778396
 30
0.0
 41
0.9585134932651017
 10
168.382106687116
 20
424.8277057863187
 30
0.0
 41
1.0
  0
SPLINE
  5
1A5
330
75
100
AcDbEntity
  8
DV1_Standard
  6
Continuous
 62
     7
100
AcDbSpline
210
0.0
220
0.0
230
1.0
 70
    12
 71
     3
 72
     8
 73
     4
 74
     0
 42
0.000000255086036
 43
0.0000000001
 40
0.0
 40
0.0
 40
0.0
 40
0.0
 40
1.0
 40
1.0
 40
1.0
 40
1.0
 10
169.8397989948083
 20
424.8277057863187
 30
0.0
 41
1.0
 10
169.82699057794
 20
424.8235357736714
 30
0.0
 41
0.9603403255883968
 10
169.8141031043222
 20
424.8211606338277
 30
0.0
 41
0.928908509438493
 10
169.8014795712679
 20
424.8208319668013
 30
0.0
 41
0.9057045515502886
  0
SPLINE
  5
1A6
330
75
100
AcDbEntity
  8
DV1_Standard
  6
Continuous
 62
     7
100
AcDbSpline
210
0.0
220
0.0
230
1.0
 70
    12
 71
     3
 72
     8
 73
     4
 74
     0
 42
0.000000243826251
 43
0.0000000001
 40
0.0
 40
0.0
 40
0.0
 40
0.0
 40
1.0
 40
1.0
 40
1.0
 40
1.0
 10
169.8799064008502
 20
424.8207992287801
 30
0.0
 41
0.9025504125393999
 10
169.866723977239
 20
424.8209382601364
 30
0.0
 41
0.9260302974449166
 10
169.8532229381918
 20
424.8233353778396
 30
0.0
 41
0.9585134932651166
 10
169.8397989948083
 20
424.8277057863187
 30
0.0
 41
1.0
  0
SPLINE
  5
1A7
330
75
100
AcDbEntity
  8
DV1_Standard
  6
Continuous
 62
     7
100
AcDbSpline
210
0.0
220
0.0
230
1.0
 70
    12
 71
     3
 72
     8
 73
     4
 74
     0
 42
0.000000255086036
 43
0.0000000001
 40
0.0
 40
0.0
 40
0.0
 40
0.0
 40
1.0
 40
1.0
 40
1.0
 40
1.0
 10
171.2974913025006
 20
424.8277057863187
 30
0.0
 41
1.0
 10
171.2846828856323
 20
424.8235357736714
 30
0.0
 41
0.960340325588398
 10
171.2717954120145
 20
424.8211606338277
 30
0.0
 41
0.928908509438495
 10
171.2591718789602
 20
424.8208319668013
 30
0.0
 41
0.905704551550291
  0
SPLINE
  5
1A8
330
75
100
AcDbEntity
  8
DV1_Standard
  6
Continuous
 62
     7
100
AcDbSpline
210
0.0
220
0.0
230
1.0
 70
    12
 71
     3
 72
     8
 73
     4
 74
     0
 42
0.000000243826251
 43
0.0000000001
 40
0.0
 40
0.0
 40
0.0
 40
0.0
 40
1.0
 40
1.0
 40
1.0
 40
1.0
 10
171.3375987085425
 20
424.8207992287801
 30
0.0
 41
0.9025504125393901
 10
171.3244162849313
 20
424.8209382601364
 30
0.0
 41
0.9260302974449076
 10
171.3109152458841
 20
424.8233353778396
 30
0.0
 41
0.9585134932651109
 10
171.2974913025006
 20
424.8277057863187
 30
0.0
 41
1.0
  0
SPLINE
  5
1A9
330
75
100
AcDbEntity
  8
DV1_Standard
  6
Continuous
 62
     7
100
AcDbSpline
210
0.0
220
0.0
230
1.0
 70
    12
 71
     3
 72
     8
 73
     4
 74
     0
 42
0.000000255086036
 43
0.0000000001
 40
0.0
 40
0.0
 40
0.0
 40
0.0
 40
1.0
 40
1.0
 40
1.0
 40
1.0
 10
172.7551836101929
 20
424.8277057863187
 30
0.0
 41
1.0
 10
172.7423751933246
 20
424.8235357736714
 30
0.0
 41
0.9603403255883737
 10
172.7294877197068
 20
424.8211606338277
 30
0.0
 41
0.9289085094384564
 10
172.7168641866524
 20
424.8208319668012
 30
0.0
 41
0.9057045515502481
  0
SPLINE
  5
1AA
330
75
100
AcDbEntity
  8
DV1_Standard
  6
Continuous
 62
     7
100
AcDbSpline
210
0.0
220
0.0
230
1.0
 70
    12
 71
     3
 72
     8
 73
     4
 74
     0
 42
0.000000243826251
 43
0.0000000001
 40
0.0
 40
0.0
 40
0.0
 40
0.0
 40
1.0
 40
1.0
 40
1.0
 40
1.0
 10
172.7952910162348
 20
424.8207992287801
 30
0.0
 41
0.9025504125393911
 10
172.7821085926236
 20
424.8209382601364
 30
0.0
 41
0.9260302974449085
 10
172.7686075535764
 20
424.8233353778396
 30
0.0
 41
0.9585134932651115
 10
172.7551836101929
 20
424.8277057863187
 30
0.0
 41
1.0
  0
SPLINE
  5
1AB
330
75
100
AcDbEntity
  8
DV1_Standard
  6
Continuous
 62
     7
100
AcDbSpline
210
0.0
220
0.0
230
1.0
 70
    12
 71
     3
 72
     8
 73
     4
 74
     0
 42
0.000000255086036
 43
0.0000000001
 40
0.0
 40
0.0
 40
0.0
 40
0.0
 40
1.0
 40
1.0
 40
1.0
 40
1.0
 10
174.2128759178853
 20
424.8277057863187
 30
0.0
 41
1.0
 10
174.2000675010169
 20
424.8235357736714
 30
0.0
 41
0.9603403255883989
 10
174.1871800273991
 20
424.8211606338277
 30
0.0
 41
0.9289085094384963
 10
174.1745564943448
 20
424.8208319668013
 30
0.0
 41
0.9057045515502924
  0
SPLINE
  5
1AC
330
75
100
AcDbEntity
  8
DV1_Standard
  6
Continuous
 62
     7
100
AcDbSpline
210
0.0
220
0.0
230
1.0
 70
    12
 71
     3
 72
     8
 73
     4
 74
     0
 42
0.000000243826251
 43
0.0000000001
 40
0.0
 40
0.0
 40
0.0
 40
0.0
 40
0.9999999999999999
 40
0.9999999999999999
 40
0.9999999999999999
 40
0.9999999999999999
 10
174.2529833239271
 20
424.8207992287801
 30
0.0
 41
0.9025504125394024
 10
174.2398009003159
 20
424.8209382601364
 30
0.0
 41
0.9260302974449188
 10
174.2262998612687
 20
424.8233353778396
 30
0.0
 41
0.958513493265118
 10
174.2128759178853
 20
424.8277057863187
 30
0.0
 41
1.0
  0
SPLINE
  5
1AD
330
75
100
AcDbEntity
  8
DV1_Standard
  6
Continuous
 62
     7
100
AcDbSpline
210
0.0
220
0.0
230
1.0
 70
    12
 71
     3
 72
     8
 73
     4
 74
     0
 42
0.000000255086036
 43
0.0000000001
 40
0.0
 40
0.0
 40
0.0
 40
0.0
 40
1.0
 40
1.0
 40
1.0
 40
1.0
 10
175.6705682255776
 20
424.8277057863187
 30
0.0
 41
1.0
 10
175.6577598087092
 20
424.8235357736714
 30
0.0
 41
0.9603403255883985
 10
175.6448723350914
 20
424.8211606338277
 30
0.0
 41
0.9289085094384958
 10
175.6322488020371
 20
424.8208319668012
 30
0.0
 41
0.9057045515502918
  0
SPLINE
  5
1AE
330
75
100
AcDbEntity
  8
DV1_Standard
  6
Continuous
 62
     7
100
AcDbSpline
210
0.0
220
0.0
230
1.0
 70
    12
 71
     3
 72
     8
 73
     4
 74
     0
 42
0.000000243826251
 43
0.0000000001
 40
0.0
 40
0.0
 40
0.0
 40
0.0
 40
0.9999999999999999
 40
0.9999999999999999
 40
0.9999999999999999
 40
0.9999999999999999
 10
175.7106756316194
 20
424.8207992287801
 30
0.0
 41
0.9025504125394037
 10
175.6974932080082
 20
424.8209382601364
 30
0.0
 41
0.9260302974449202
 10
175.683992168961
 20
424.8233353778396
 30
0.0
 41
0.9585134932651189
 10
175.6705682255776
 20
424.8277057863187
 30
0.0
 41
1.0
  0
SPLINE
  5
1AF
330
75
100
AcDbEntity
  8
DV1_Standard
  6
Continuous
 62
     7
100
AcDbSpline
210
0.0
220
0.0
230
1.0
 70
    12
 71
     3
 72
     8
 73
     4
 74
     0
 42
0.000000255086036
 43
0.0000000001
 40
0.0
 40
0.0
 40
0.0
 40
0.0
 40
1.0
 40
1.0
 40
1.0
 40
1.0
 10
177.1282605332699
 20
424.8277057863187
 30
0.0
 41
1.0
 10
177.1154521164015
 20
424.8235357736714
 30
0.0
 41
0.960340325588405
 10
177.1025646427837
 20
424.8211606338277
 30
0.0
 41
0.928908509438506
 10
177.0899411097294
 20
424.8208319668013
 30
0.0
 41
0.9057045515503032
  0
SPLINE
  5
1B0
330
75
100
AcDbEntity
  8
DV1_Standard
  6
Continuous
 62
     7
100
AcDbSpline
210
0.0
220
0.0
230
1.0
 70
    12
 71
     3
 72
     8
 73
     4
 74
     0
 42
0.000000243826251
 43
0.0000000001
 40
0.0
 40
0.0
 40
0.0
 40
0.0
 40
1.0
 40
1.0
 40
1.0
 40
1.0
 10
177.1683679393117
 20
424.8207992287801
 30
0.0
 41
0.9025504125393912
 10
177.1551855157005
 20
424.8209382601364
 30
0.0
 41
0.9260302974449086
 10
177.1416844766533
 20
424.8233353778396
 30
0.0
 41
0.9585134932651116
 10
177.1282605332699
 20
424.8277057863187
 30
0.0
 41
1.0
  0
SPLINE
  5
1B1
330
75
100
AcDbEntity
  8
DV1_Standard
  6
Continuous
 62
     7
100
AcDbSpline
210
0.0
220
0.0
230
1.0
 70
    12
 71
     3
 72
     8
 73
     4
 74
     0
 42
0.000000255086036
 43
0.0000000001
 40
0.0
 40
0.0
 40
0.0
 40
0.0
 40
1.0
 40
1.0
 40
1.0
 40
1.0
 10
178.5859528409622
 20
424.8277057863187
 30
0.0
 41
1.0
 10
178.5731444240938
 20
424.8235357736714
 30
0.0
 41
0.9603403255884038
 10
178.560256950476
 20
424.8211606338277
 30
0.0
 41
0.9289085094385041
 10
178.5476334174217
 20
424.8208319668012
 30
0.0
 41
0.905704551550301
  0
SPLINE
  5
1B2
330
75
100
AcDbEntity
  8
DV1_Standard
  6
Continuous
 62
     7
100
AcDbSpline
210
0.0
220
0.0
230
1.0
 70
    12
 71
     3
 72
     8
 73
     4
 74
     0
 42
0.000000243826251
 43
0.0000000001
 40
0.0
 40
0.0
 40
0.0
 40
0.0
 40
1.0
 40
1.0
 40
1.0
 40
1.0
 10
178.626060247004
 20
424.8207992287801
 30
0.0
 41
0.9025504125394042
 10
178.6128778233928
 20
424.8209382601364
 30
0.0
 41
0.9260302974449206
 10
178.5993767843456
 20
424.8233353778396
 30
0.0
 41
0.9585134932651193
 10
178.5859528409622
 20
424.8277057863187
 30
0.0
 41
1.0
  0
SPLINE
  5
1B3
330
75
100
AcDbEntity
  8
DV1_Standard
  6
Continuous
 62
     7
100
AcDbSpline
210
0.0
220
0.0
230
1.0
 70
    12
 71
     3
 72
     8
 73
     4
 74
     0
 42
0.000000255086036
 43
0.0000000001
 40
0.0
 40
0.0
 40
0.0
 40
0.0
 40
1.0
 40
1.0
 40
1.0
 40
1.0
 10
180.0436451486545
 20
424.8277057863187
 30
0.0
 41
1.0
 10
180.0308367317861
 20
424.8235357736714
 30
0.0
 41
0.9603403255883987
 10
180.0179492581683
 20
424.8211606338277
 30
0.0
 41
0.928908509438496
 10
180.005325725114
 20
424.8208319668012
 30
0.0
 41
0.9057045515502921
  0
SPLINE
  5
1B4
330
75
100
AcDbEntity
  8
DV1_Standard
  6
Continuous
 62
     7
100
AcDbSpline
210
0.0
220
0.0
230
1.0
 70
    12
 71
     3
 72
     8
 73
     4
 74
     0
 42
0.000000243826251
 43
0.0000000001
 40
0.0
 40
0.0
 40
0.0
 40
0.0
 40
0.9999999999999999
 40
0.9999999999999999
 40
0.9999999999999999
 40
0.9999999999999999
 10
180.0837525546963
 20
424.8207992287801
 30
0.0
 41
0.9025504125394203
 10
180.0705701310851
 20
424.8209382601364
 30
0.0
 41
0.9260302974449355
 10
180.0570690920379
 20
424.8233353778396
 30
0.0
 41
0.9585134932651287
 10
180.0436451486545
 20
424.8277057863187
 30
0.0
 41
1.0
  0
SPLINE
  5
1B5
330
75
100
AcDbEntity
  8
DV1_Standard
  6
Continuous
 62
     7
100
AcDbSpline
210
0.0
220
0.0
230
1.0
 70
    12
 71
     3
 72
     8
 73
     4
 74
     0
 42
0.000000255086036
 43
0.0000000001
 40
0.0
 40
0.0
 40
0.0
 40
0.0
 40
1.0
 40
1.0
 40
1.0
 40
1.0
 10
181.5013374563468
 20
424.8277057863187
 30
0.0
 41
1.0
 10
181.4885290394784
 20
424.8235357736714
 30
0.0
 41
0.9603403255883899
 10
181.4756415658606
 20
424.8211606338277
 30
0.0
 41
0.9289085094384821
 10
181.4630180328063
 20
424.8208319668012
 30
0.0
 41
0.9057045515502767
  0
SPLINE
  5
1B6
330
75
100
AcDbEntity
  8
DV1_Standard
  6
Continuous
 62
     7
100
AcDbSpline
210
0.0
220
0.0
230
1.0
 70
    12
 71
     3
 72
     8
 73
     4
 74
     0
 42
0.000000243826251
 43
0.0000000001
 40
0.0
 40
0.0
 40
0.0
 40
0.0
 40
1.0
 40
1.0
 40
1.0
 40
1.0
 10
181.5414448623886
 20
424.8207992287801
 30
0.0
 41
0.9025504125394196
 10
181.5282624387774
 20
424.8209382601364
 30
0.0
 41
0.9260302974449348
 10
181.5147613997302
 20
424.8233353778396
 30
0.0
 41
0.9585134932651282
 10
181.5013374563468
 20
424.8277057863187
 30
0.0
 41
1.0
  0
SPLINE
  5
1B7
330
75
100
AcDbEntity
  8
DV1_Standard
  6
Continuous
 62
     7
100
AcDbSpline
210
0.0
220
0.0
230
1.0
 70
    12
 71
     3
 72
     8
 73
     4
 74
     0
 42
0.000000255086036
 43
0.0000000001
 40
0.0
 40
0.0
 40
0.0
 40
0.0
 40
1.0
 40
1.0
 40
1.0
 40
1.0
 10
182.9590297640391
 20
424.8277057863187
 30
0.0
 41
1.0
 10
182.9462213471707
 20
424.8235357736714
 30
0.0
 41
0.9603403255883987
 10
182.9333338735529
 20
424.8211606338277
 30
0.0
 41
0.928908509438496
 10
182.9207103404986
 20
424.8208319668013
 30
0.0
 41
0.905704551550292
  0
LINE
  5
1B8
330
75
100
AcDbEntity
  8
DV1_Standard
  6
Continuous
 62
     7
100
AcDbLine
 10
182.8272892798
 20
424.8207928768
 30
0.0
 11
182.8272892798
 21
424.7478729388
 31
0.0
  0
LINE
  5
1B9
330
75
100
AcDbEntity
  8
DV1_Standard
  6
Continuous
 62
     7
100
AcDbLine
 10
182.8272892798
 20
424.7478729388
 30
0.0
 11
182.8321634649
 21
424.4822576761
 31
0.0
  0
ARC
  5
1BA
330
75
100
AcDbEntity
  8
DV1_Standard
  6
Continuous
 62
     7
100
AcDbCircle
 10
183.0165026158
 20
424.4990268413
 30
0.0
 40
0.1851003172972056
100
AcDbArc
 50
185.1978385401
 51
251.9108940573
  0
SPLINE
  5
1BB
330
75
100
AcDbEntity
  8
DV1_Standard
  6
Continuous
 62
     7
100
AcDbSpline
210
0.0
220
0.0
230
1.0
 70
    12
 71
     3
 72
     8
 73
     4
 74
     0
 42
0.0000002438262513
 43
0.0000000001
 40
0.0
 40
0.0
 40
0.0
 40
0.0
 40
1.0
 40
1.0
 40
1.0
 40
1.0
 10
182.9991371700443
 20
424.3161685893654
 30
0.0
 41
0.9025504126414544
 10
182.9859547464455
 20
424.3163076207227
 30
0.0
 41
0.9260302975346749
 10
182.9724537074111
 20
424.318704738421
 30
0.0
 41
0.9585134933208568
 10
182.9590297640391
 20
424.3230751468902
 30
0.0
 41
1.0
  0
SPLINE
  5
1BC
330
75
100
AcDbEntity
  8
DV1_Standard
  6
Continuous
 62
     7
100
AcDbSpline
210
0.0
220
0.0
230
1.0
 70
    12
 71
     3
 72
     8
 73
     4
 74
     0
 42
0.0000002550860363
 43
0.0000000001
 40
0.0
 40
0.0
 40
0.0
 40
0.0
 40
1.0
 40
1.0
 40
1.0
 40
1.0
 10
184.4167220717314
 20
424.3230751468902
 30
0.0
 41
1.0
 10
184.4039136548748
 20
424.3189051342526
 30
0.0
 41
0.9603403256443439
 10
184.39102618127
 20
424.3165299944139
 30
0.0
 41
0.9289085095294198
 10
184.3784026482284
 20
424.3162013273867
 30
0.0
 41
0.9057045516552277
  0
LINE
  5
1BD
330
75
100
AcDbEntity
  8
DV1_Standard
  6
Continuous
 62
     7
100
AcDbLine
 10
184.2849815875
 20
424.3161622374
 30
0.0
 11
184.2849815875
 21
424.2458514227
 31
0.0
  0
LINE
  5
1BE
330
75
100
AcDbEntity
  8
DV1_Standard
  6
Continuous
 62
     7
100
AcDbLine
 10
184.2849815875
 20
424.2458514227
 30
0.0
 11
184.2898557726
 21
423.9821751447
 31
0.0
  0
LINE
  5
1BF
330
75
100
AcDbEntity
  8
DV1_Standard
  6
Continuous
 62
     7
100
AcDbLine
 10
184.2898557726
 20
423.9821751447
 30
0.0
 11
184.2898557726
 21
424.3161622374
 31
0.0
  0
SPLINE
  5
1C0
330
75
100
AcDbEntity
  8
DV1_Standard
  6
Continuous
 62
     7
100
AcDbSpline
210
0.0
220
0.0
230
1.0
 70
     8
 71
     3
 72
    35
 73
    31
 74
     0
 42
0.0000000258116827
 43
0.0000000001
 40
0.0
 40
0.0
 40
0.0
 40
0.0
 40
0.104622252067186
 40
0.104622252067186
 40
0.104622252067186
 40
0.2091821357513632
 40
0.2091821357513632
 40
0.2091821357513632
 40
0.314723427130129
 40
0.314723427130129
 40
0.314723427130129
 40
0.422770190623174
 40
0.422770190623174
 40
0.422770190623174
 40
0.5340097384941643
 40
0.5340097384941643
 40
0.5340097384941643
 40
0.6480315983246445
 40
0.6480315983246445
 40
0.6480315983246445
 40
0.7627487572738181
 40
0.7627487572738181
 40
0.7627487572738181
 40
0.8748250218601867
 40
0.8748250218601867
 40
0.8748250218601867
 40
0.981822508040157
 40
0.981822508040157
 40
0.981822508040157
 40
1.0
 40
1.0
 40
1.0
 40
1.0
 10
184.2898557725986
 20
423.9821751447462
 30
0.0
 10
184.2900990857045
 20
423.9690128328616
 30
0.0
 10
184.292711567809
 20
423.9558808637305
 30
0.0
 10
184.2974559530562
 20
423.9438758114898
 30
0.0
 10
184.3021987622671
 20
423.9318747472051
 30
0.0
 10
184.3091979225459
 20
423.9206723421689
 30
0.0
 10
184.3178391648784
 20
423.9111691689381
 30
0.0
 10
184.3265630671315
 20
423.9015750907755
 30
0.0
 10
184.337189449252
 20
423.8934545026969
 30
0.0
 10
184.3488272024501
 20
423.8874171959091
 30
0.0
 10
184.360739943774
 20
423.8812372337779
 30
0.0
 10
184.3740248591002
 20
423.8770731144496
 30
0.0
 10
184.3876100911125
 20
423.8752021050296
 30
0.0
 10
184.4015919275637
 20
423.8732764737498
 30
0.0
 10
184.4162642501428
 20
423.8737252241959
 30
0.0
 10
184.4304646590562
 20
423.8764773792374
 30
0.0
 10
184.4450117652434
 20
423.8792967270377
 30
0.0
 10
184.4594635513386
 20
423.8846112376094
 30
0.0
 10
184.4726371792064
 20
423.8919961682356
 30
0.0
 10
184.4858826161286
 20
423.8994213538994
 30
0.0
 10
184.4982128755738
 20
423.9091580944016
 30
0.0
 10
184.5085184430649
 20
423.9204128644825
 30
0.0
 10
184.5185843326684
 20
423.9314058809508
 30
0.0
 10
184.5270073952612
 20
423.9441777231431
 30
0.0
 10
184.5329427344774
 20
423.9576077666459
 30
0.0
 10
184.5386124045077
 20
423.9704366737026
 30
0.0
 10
184.5421708063401
 20
423.9842411115301
 30
0.0
 10
184.5432457267921
 20
423.9977818288531
 30
0.0
 10
184.5434311450349
 20
424.0001175328648
 30
0.0
 10
184.5435454866036
 20
424.0024524205629
 30
0.0
 10
184.5435883708641
 20
424.0047799510387
 30
0.0
  0
LINE
  5
1C1
330
75
100
AcDbEntity
  8
DV1_Standard
  6
Continuous
 62
     7
100
AcDbLine
 10
184.5435883709
 20
424.004779951
 30
0.0
 11
184.5435883709
 21
424.3161622374
 31
0.0
  0
SPLINE
  5
1C2
330
75
100
AcDbEntity
  8
DV1_Standard
  6
Continuous
 62
     7
100
AcDbSpline
210
0.0
220
0.0
230
1.0
 70
    12
 71
     3
 72
     8
 73
     4
 74
     0
 42
0.0000002438262513
 43
0.0000000001
 40
0.0
 40
0.0
 40
0.0
 40
0.0
 40
1.0
 40
1.0
 40
1.0
 40
1.0
 10
184.4568294777366
 20
424.3161685893654
 30
0.0
 41
0.9025504126414647
 10
184.4436470541378
 20
424.3163076207227
 30
0.0
 41
0.9260302975346841
 10
184.4301460151034
 20
424.318704738421
 30
0.0
 41
0.9585134933208626
 10
184.4167220717314
 20
424.3230751468902
 30
0.0
 41
1.0
  0
LINE
  5
1C3
330
75
100
AcDbEntity
  8
DV1_Standard
  6
Continuous
 62
     7
100
AcDbLine
 10
184.5435883709
 20
424.004779951
 30
0.0
 11
184.548462556
 21
424.2693269686
 31
0.0
  0
LINE
  5
1C4
330
75
100
AcDbEntity
  8
DV1_Standard
  6
Continuous
 62
     7
100
AcDbLine
 10
184.548462556
 20
424.2693269685
 30
0.0
 11
184.548462556
 21
424.3161622374
 31
0.0
  0
ELLIPSE
  5
1C5
330
75
100
AcDbEntity
  8
DV1_Standard
  6
Continuous
 62
     7
100
AcDbEllipse
 10
183.6917220717
 20
425.1200818294
 30
0.0
 11
2.749999999999957
 21
3.469446951953614E-14
 31
0.0
210
0.0
220
0.0
230
1.0
 40
0.3255681545
 41
-1.253980970178448
 42
-1.115022602585614
  0
SPLINE
  5
1C6
330
75
100
AcDbEntity
  8
DV1_Standard
  6
Continuous
 62
     7
100
AcDbSpline
210
0.0
220
0.0
230
1.0
 70
     8
 71
     3
 72
    26
 73
    22
 74
     0
 42
0.0000000497915457
 43
0.0000000001
 40
0.0
 40
0.0
 40
0.0
 40
0.0
 40
0.0029324110767987
 40
0.0029324110767987
 40
0.0029324110767987
 40
0.2053609903110435
 40
0.2053609903110435
 40
0.2053609903110435
 40
0.418461267473195
 40
0.418461267473195
 40
0.418461267473195
 40
0.6244181163886837
 40
0.6244181163886837
 40
0.6244181163886837
 40
0.8104881125902701
 40
0.8104881125902701
 40
0.8104881125902701
 40
0.9765220384746989
 40
0.9765220384746989
 40
0.9765220384746989
 40
1.0
 40
1.0
 40
1.0
 40
1.0
 10
186.1062377424078
 20
424.316162268238
 30
0.0
 10
186.1063523333345
 20
424.316162290005
 30
0.0
 10
186.1064669566704
 20
424.3161629048924
 30
0.0
 10
186.1065816101131
 20
424.3161641127432
 30
0.0
 10
186.1144813192573
 20
424.3162473345824
 30
0.0
 10
186.1227272894243
 20
424.3191505524686
 30
0.0
 10
186.1306807399925
 20
424.3246424991556
 30
0.0
 10
186.1390357585288
 20
424.3304117330216
 30
0.0
 10
186.1473109090576
 20
424.3392272426743
 30
0.0
 10
186.1547779502253
 20
424.350503345003
 30
0.0
 10
186.1619865574743
 20
424.361389181998
 30
0.0
 10
186.1686691150333
 20
424.3749447318997
 30
0.0
 10
186.1741335235313
 20
424.3900180453592
 30
0.0
 10
186.1790748939464
 20
424.4036485829031
 30
0.0
 10
186.1831761972232
 20
424.4189734064897
 30
0.0
 10
186.18598135236
 20
424.4344833637788
 30
0.0
 10
186.1884901395151
 20
424.4483546756056
 30
0.0
 10
186.1900390258583
 20
424.4627967603538
 30
0.0
 10
186.1904635903107
 20
424.476420754825
 30
0.0
 10
186.19052462287
 20
424.4783792495724
 30
0.0
 10
186.1905633270626
 20
424.4803262527718
 30
0.0
 10
186.190579611675
 20
424.4822576760715
 30
0.0
  0
LINE
  5
1C7
330
75
100
AcDbEntity
  8
DV1_Standard
  6
Continuous
 62
     7
100
AcDbLine
 10
186.1905796117
 20
424.4822576761
 30
0.0
 11
186.1928133695
 21
424.7478729388
 31
0.0
  0
LINE
  5
1C8
330
75
100
AcDbEntity
  8
DV1_Standard
  6
Continuous
 62
     7
100
AcDbLine
 10
186.1928133695
 20
424.7478729388
 30
0.0
 11
184.548462556
 21
424.7478729388
 31
0.0
  0
LINE
  5
1C9
330
75
100
AcDbEntity
  8
DV1_Standard
  6
Continuous
 62
     7
100
AcDbLine
 10
186.4396618942
 20
425.2525035782
 30
0.0
 11
184.548462556
 21
425.2525035782
 31
0.0
  0
ELLIPSE
  5
1CA
330
75
100
AcDbEntity
  8
DV1_Standard
  6
Continuous
 62
     7
100
AcDbEllipse
 10
183.6917220717
 20
425.1200818294
 30
0.0
 11
2.750000000000702
 21
-7.632783294297951E-14
 31
0.0
210
0.0
220
0.0
230
1.0
 40
0.3255681545
 41
-0.4287461111491941
 42
-0.3408458195400943
  0
LINE
  5
1CB
330
75
100
AcDbEntity
  8
DV1_Standard
  6
Continuous
 62
     7
100
AcDbLine
 10
165.3349815875
 20
425.2525035782
 30
0.0
 11
163.4437822493
 21
425.2525035782
 31
0.0
  0
LINE
  5
1CC
330
75
100
AcDbEntity
  8
DV1_Standard
  6
Continuous
 62
     7
100
AcDbLine
 10
165.3349815875
 20
424.7478729388
 30
0.0
 11
163.690630774
 21
424.7478729388
 31
0.0
  0
LINE
  5
1CD
330
75
100
AcDbEntity
  8
DV1_Standard
  6
Continuous
 62
     7
100
AcDbLine
 10
163.690630774
 20
424.7478729388
 30
0.0
 11
163.6928645318
 21
424.4822576761
 31
0.0
  0
SPLINE
  5
1CE
330
75
100
AcDbEntity
  8
DV1_Standard
  6
Continuous
 62
     7
100
AcDbSpline
210
0.0
220
0.0
230
1.0
 70
     8
 71
     3
 72
    23
 73
    19
 74
     0
 42
0.0000000498307925
 43
0.0000000001
 40
0.0
 40
0.0
 40
0.0
 40
0.0
 40
0.1557527736907917
 40
0.1557527736907917
 40
0.1557527736907917
 40
0.3111304215504473
 40
0.3111304215504473
 40
0.3111304215504473
 40
0.4720991520022759
 40
0.4720991520022759
 40
0.4720991520022759
 40
0.6474030271845848
 40
0.6474030271845848
 40
0.6474030271845848
 40
0.8404465503509414
 40
0.8404465503509414
 40
0.8404465503509414
 40
1.0
 40
1.0
 40
1.0
 40
1.0
 10
163.6928645317876
 20
424.4822576760715
 30
0.0
 10
163.6929707773132
 20
424.469656511358
 30
0.0
 10
163.6940612236459
 20
424.4562262245785
 30
0.0
 10
163.6960320197122
 20
424.4431235385947
 30
0.0
 10
163.6980001485774
 20
424.4300385852918
 30
0.0
 10
163.7008942606525
 20
424.4169332788645
 30
0.0
 10
163.7044723010669
 20
424.4047870350975
 30
0.0
 10
163.7081811471934
 20
424.3921967499327
 30
0.0
 10
163.7127130852582
 20
424.3803197790012
 30
0.0
 10
163.7177376983921
 20
424.3698921034886
 30
0.0
 10
163.723207078118
 20
424.3585413953812
 30
0.0
 10
163.7293909167475
 20
424.3486256205862
 30
0.0
 10
163.7358657839428
 20
424.3406772206442
 30
0.0
 10
163.742988254767
 20
424.3319338371927
 30
0.0
 10
163.7506402130318
 20
424.3253460180353
 30
0.0
 10
163.7582836342937
 20
424.3212651145735
 30
0.0
 10
163.7645902336213
 20
424.3178979544829
 30
0.0
 10
163.7710228419381
 20
424.3161681053647
 30
0.0
 10
163.7772608606704
 20
424.3161677312535
 30
0.0
  0
SPLINE
  5
1CF
330
75
100
AcDbEntity
  8
DV1_Standard
  6
Continuous
 62
     7
100
AcDbSpline
210
0.0
220
0.0
230
1.0
 70
    12
 71
     3
 72
     8
 73
     4
 74
     0
 42
0.0000002550860363
 43
0.0000000001
 40
0.0
 40
0.0
 40
0.0
 40
0.0
 40
1.0
 40
1.0
 40
1.0
 40
1.0
 10
165.4667220717314
 20
424.3230751468902
 30
0.0
 41
1.0
 10
165.4539136548748
 20
424.3189051342526
 30
0.0
 41
0.9603403256443452
 10
165.44102618127
 20
424.3165299944139
 30
0.0
 41
0.9289085095294219
 10
165.4284026482285
 20
424.3162013273868
 30
0.0
 41
0.90570455165523
  0
LINE
  5
1D0
330
75
100
AcDbEntity
  8
DV1_Standard
  6
Continuous
 62
     7
100
AcDbLine
 10
165.3349815875
 20
424.3161622374
 30
0.0
 11
165.3349815875
 21
424.2693269685
 31
0.0
  0
ELLIPSE
  5
1D1
330
75
100
AcDbEntity
  8
DV1_Standard
  6
Continuous
 62
     7
100
AcDbEllipse
 10
166.1917220717
 20
425.1200818294
 30
0.0
 11
-2.750000000000003
 21
-4.857225732735059E-14
 31
0.0
210
0.0
220
0.0
230
1.0
 40
0.3255681545
 41
1.115022602585624
 42
1.253980970178444
  0
LINE
  5
1D2
330
75
100
AcDbEntity
  8
DV1_Standard
  6
Continuous
 62
     7
100
AcDbLine
 10
165.3349815875
 20
424.2693269685
 30
0.0
 11
165.3398557726
 21
424.004779951
 31
0.0
  0
LINE
  5
1D3
330
75
100
AcDbEntity
  8
DV1_Standard
  6
Continuous
 62
     7
100
AcDbLine
 10
165.3398557726
 20
424.004779951
 30
0.0
 11
165.3398557726
 21
424.3161622374
 31
0.0
  0
SPLINE
  5
1D4
330
75
100
AcDbEntity
  8
DV1_Standard
  6
Continuous
 62
     7
100
AcDbSpline
210
0.0
220
0.0
230
1.0
 70
     8
 71
     3
 72
    35
 73
    31
 74
     0
 42
0.0000000258198284
 43
0.0000000001
 40
0.0
 40
0.0
 40
0.0
 40
0.0
 40
0.1030794341224772
 40
0.1030794341224772
 40
0.1030794341224772
 40
0.2059981132529831
 40
0.2059981132529831
 40
0.2059981132529831
 40
0.3113833204089256
 40
0.3113833204089256
 40
0.3113833204089256
 40
0.4216356136379638
 40
0.4216356136379638
 40
0.4216356136379638
 40
0.5013008412104804
 40
0.5013008412104804
 40
0.5013008412104804
 40
0.6140083963991574
 40
0.6140083963991574
 40
0.6140083963991574
 40
0.7268713214924332
 40
0.7268713214924332
 40
0.7268713214924332
 40
0.8373132459539616
 40
0.8373132459539616
 40
0.8373132459539616
 40
0.9445263795324927
 40
0.9445263795324927
 40
0.9445263795324927
 40
1.0
 40
1.0
 40
1.0
 40
1.0
 10
165.3398557725635
 20
424.0047799510282
 30
0.0
 10
165.3400953274977
 20
423.9917781533662
 30
0.0
 10
165.3426344823429
 20
423.978395087088
 30
0.0
 10
165.3472223823943
 20
423.96576130357
 30
0.0
 10
165.3518062487816
 20
423.9531386276261
 30
0.0
 10
165.3585491221999
 20
423.9409227888571
 30
0.0
 10
165.3668542245788
 20
423.9300532721193
 30
0.0
 10
165.3753598177792
 20
423.9189213578528
 30
0.0
 10
165.3857195235862
 20
423.9089063802188
 30
0.0
 10
165.3971052431306
 20
423.9007227310399
 30
0.0
 10
165.4090095195974
 20
423.8921663616377
 30
0.0
 10
165.4223489030236
 20
423.8853842639196
 30
0.0
 10
165.4360811256216
 20
423.8808755304902
 30
0.0
 10
165.446067001281
 20
423.8775968440951
 30
0.0
 10
165.4564210659885
 20
423.8754529375506
 30
0.0
 10
165.4667220717105
 20
423.8745363591208
 30
0.0
 10
165.4811927730529
 20
423.8732487632226
 30
0.0
 10
165.4958994171722
 20
423.8743873738969
 30
0.0
 10
165.5096244862463
 20
423.8779057647665
 30
0.0
 10
165.5233604920302
 20
423.8814269592373
 30
0.0
 10
165.5364972220283
 20
423.8874391550531
 30
0.0
 10
165.5478481043081
 20
423.8954734882554
 30
0.0
 10
165.55895619054
 20
423.9033359665921
 30
0.0
 10
165.5686682137516
 20
423.9133638612115
 30
0.0
 10
165.5760709645049
 20
423.9247016144781
 30
0.0
 10
165.5832607357454
 20
423.935713176948
 30
0.0
 10
165.5884748062709
 20
423.9482727592238
 30
0.0
 10
165.5912247463623
 20
423.9612988370491
 30
0.0
 10
165.5926631834517
 20
423.9681125103843
 30
0.0
 10
165.5934581052598
 20
423.975128277779
 30
0.0
 10
165.5935883708291
 20
423.9821751447553
 30
0.0
  0
LINE
  5
1D5
330
75
100
AcDbEntity
  8
DV1_Standard
  6
Continuous
 62
     7
100
AcDbLine
 10
165.5935883708
 20
423.9821751448
 30
0.0
 11
165.5935883709
 21
424.3161622374
 31
0.0
  0
LINE
  5
1D6
330
75
100
AcDbEntity
  8
DV1_Standard
  6
Continuous
 62
     7
100
AcDbLine
 10
165.5935883708
 20
423.9821751448
 30
0.0
 11
165.5984625559
 21
424.2458514227
 31
0.0
  0
LINE
  5
1D7
330
75
100
AcDbEntity
  8
DV1_Standard
  6
Continuous
 62
     7
100
AcDbLine
 10
165.598462556
 20
424.2458514227
 30
0.0
 11
165.598462556
 21
424.3161622374
 31
0.0
  0
ELLIPSE
  5
1D8
330
75
100
AcDbEntity
  8
DV1_Standard
  6
Continuous
 62
     7
100
AcDbEllipse
 10
166.1917220717
 20
425.1200818294
 30
0.0
 11
2.750000000000429
 21
-1.387778780781446E-14
 31
0.0
210
0.0
220
0.0
230
1.0
 40
0.3255681545
 41
3.482438473129897
 42
3.57033876473903
  0
ELLIPSE
  5
1D9
330
75
100
AcDbEntity
  8
DV1_Standard
  6
Continuous
 62
     7
100
AcDbEllipse
 10
166.1917220717
 20
425.1200818294
 30
0.0
 11
-2.750000000002695
 21
-2.081668171172169E-13
 31
0.0
210
0.0
220
0.0
230
1.0
 40
0.3255681545
 41
1.353356204153205
 42
1.570796326794686
  0
LINE
  5
1DA
330
75
100
AcDbEntity
  8
DV1_Standard
  6
Continuous
 62
     7
100
AcDbLine
 10
166.4319144506
 20
424.2247694046
 30
0.0
 11
166.1917220717
 21
424.2247694046
 31
0.0
  0
LINE
  5
1DB
330
75
100
AcDbEntity
  8
DV1_Standard
  6
Continuous
 62
     7
100
AcDbLine
 10
166.5939870485
 20
424.3161622374
 30
0.0
 11
166.4319144506
 21
424.2247694046
 31
0.0
  0
LINE
  5
1DC
330
75
100
AcDbEntity
  8
DV1_Standard
  6
Continuous
 62
     7
100
AcDbLine
 10
166.7975480803
 20
424.166922039
 30
0.0
 11
166.7947639987
 21
424.3161622374
 31
0.0
  0
SPLINE
  5
1DD
330
75
100
AcDbEntity
  8
DV1_Standard
  6
Continuous
 62
     7
100
AcDbSpline
210
0.0
220
0.0
230
1.0
 70
    12
 71
     3
 72
     8
 73
     4
 74
     0
 42
0.0000000479831323
 43
0.0000000001
 40
0.0
 40
0.0
 40
0.0
 40
0.0
 40
1.0
 40
1.0
 40
1.0
 40
1.0
 10
166.9244143794414
 20
424.1205831169965
 30
0.0
 41
1.0
 10
166.8511110398552
 20
424.0792473209228
 30
0.0
 41
0.808833632737763
 10
166.798827399967
 20
424.0983443350789
 30
0.0
 41
0.808833632737763
 10
166.7975480802909
 20
424.1669220390164
 30
0.0
 41
1.0
  0
LINE
  5
1DE
330
75
100
AcDbEntity
  8
DV1_Standard
  6
Continuous
 62
     7
100
AcDbLine
 10
167.2835060977
 20
424.3230751469
 30
0.0
 11
166.9244143794
 21
424.120583117
 31
0.0
  0
ARC
  5
1DF
330
75
100
AcDbEntity
  8
DV1_Standard
  6
Continuous
 62
     7
100
AcDbCircle
 10
167.1613164455
 20
424.4757425753
 30
0.0
 40
0.1955445084962687
100
AcDbArc
 50
308.6725545509
 51
1.9093191411
  0
LINE
  5
1E0
330
75
100
AcDbEntity
  8
DV1_Standard
  6
Continuous
 62
     7
100
AcDbLine
 10
167.3595665017
 20
424.7478729388
 30
0.0
 11
167.3567523896
 21
424.4822576761
 31
0.0
  0
LINE
  5
1E1
330
75
100
AcDbEntity
  8
DV1_Standard
  6
Continuous
 62
     7
100
AcDbLine
 10
167.3595665017
 20
424.7478729388
 30
0.0
 11
167.0561548637
 21
424.7478729388
 31
0.0
  0
LINE
  5
1E2
330
75
100
AcDbEntity
  8
DV1_Standard
  6
Continuous
 62
     7
100
AcDbLine
 10
168.2503662029
 20
424.8207928768
 30
0.0
 11
168.2503662029
 21
424.7619568595
 31
0.0
  0
LINE
  5
1E3
330
75
100
AcDbEntity
  8
DV1_Standard
  6
Continuous
 62
     7
100
AcDbLine
 10
167.3845423948
 20
424.7619568595
 30
0.0
 11
167.3595665017
 21
424.7478729388
 31
0.0
  0
LINE
  5
1E4
330
75
100
AcDbEntity
  8
DV1_Standard
  6
Continuous
 62
     7
100
AcDbLine
 10
168.2503662029
 20
424.7619568595
 30
0.0
 11
167.3845423948
 21
424.7619568595
 31
0.0
  0
LINE
  5
1E5
330
75
100
AcDbEntity
  8
DV1_Standard
  6
Continuous
 62
     7
100
AcDbLine
 10
168.255240388
 20
424.4979284762
 30
0.0
 11
168.2503662029
 21
424.7619568595
 31
0.0
  0
ELLIPSE
  5
1E6
330
75
100
AcDbEntity
  8
DV1_Standard
  6
Continuous
 62
     7
100
AcDbEllipse
 10
168.3821066871
 20
424.5000222888
 30
0.0
 11
0.1268856244279661
 21
-4.774652895278564E-11
 31
0.0
210
0.0
220
0.0
230
1.0
 40
0.9455185756
 41
3.159045946463557
 42
6.265732015017412
  0
LINE
  5
1E7
330
75
100
AcDbEntity
  8
DV1_Standard
  6
Continuous
 62
     7
100
AcDbLine
 10
168.5138471714
 20
424.7619568595
 30
0.0
 11
168.5089729862
 21
424.4979284762
 31
0.0
  0
LINE
  5
1E8
330
75
100
AcDbEntity
  8
DV1_Standard
  6
Continuous
 62
     7
100
AcDbLine
 10
168.5138471714
 20
424.7619568595
 30
0.0
 11
168.5138471714
 21
424.8207928768
 31
0.0
  0
LINE
  5
1E9
330
75
100
AcDbEntity
  8
DV1_Standard
  6
Continuous
 62
     7
100
AcDbLine
 10
169.7080585106
 20
424.8207928768
 30
0.0
 11
169.7080585106
 21
424.7619568595
 31
0.0
  0
LINE
  5
1EA
330
75
100
AcDbEntity
  8
DV1_Standard
  6
Continuous
 62
     7
100
AcDbLine
 10
169.7080585106
 20
424.7619568595
 30
0.0
 11
168.5138471714
 21
424.7619568595
 31
0.0
  0
LINE
  5
1EB
330
75
100
AcDbEntity
  8
DV1_Standard
  6
Continuous
 62
     7
100
AcDbLine
 10
169.7129326957
 20
424.4979284762
 30
0.0
 11
169.7080585106
 21
424.7619568595
 31
0.0
  0
ELLIPSE
  5
1EC
330
75
100
AcDbEntity
  8
DV1_Standard
  6
Continuous
 62
     7
100
AcDbEllipse
 10
169.8397989948
 20
424.5000222888
 30
0.0
 11
0.1268856244279652
 21
-4.782285678572862E-11
 31
0.0
210
0.0
220
0.0
230
1.0
 40
0.9455185756
 41
3.15904594647656
 42
6.265732015018385
  0
LINE
  5
1ED
330
75
100
AcDbEntity
  8
DV1_Standard
  6
Continuous
 62
     7
100
AcDbLine
 10
169.9715394791
 20
424.7619568595
 30
0.0
 11
169.9666652939
 21
424.4979284762
 31
0.0
  0
LINE
  5
1EE
330
75
100
AcDbEntity
  8
DV1_Standard
  6
Continuous
 62
     7
100
AcDbLine
 10
169.9715394791
 20
424.7619568595
 30
0.0
 11
169.9715394791
 21
424.8207928768
 31
0.0
  0
LINE
  5
1EF
330
75
100
AcDbEntity
  8
DV1_Standard
  6
Continuous
 62
     7
100
AcDbLine
 10
171.1657508182
 20
424.7619568595
 30
0.0
 11
169.9715394791
 21
424.7619568595
 31
0.0
  0
LINE
  5
1F0
330
75
100
AcDbEntity
  8
DV1_Standard
  6
Continuous
 62
     7
100
AcDbLine
 10
171.1657508182
 20
424.8207928768
 30
0.0
 11
171.1657508182
 21
424.7619568595
 31
0.0
  0
LINE
  5
1F1
330
75
100
AcDbEntity
  8
DV1_Standard
  6
Continuous
 62
     7
100
AcDbLine
 10
171.1706250034
 20
424.4979284762
 30
0.0
 11
171.1657508182
 21
424.7619568595
 31
0.0
  0
ELLIPSE
  5
1F2
330
75
100
AcDbEntity
  8
DV1_Standard
  6
Continuous
 62
     7
100
AcDbEllipse
 10
171.2974913025
 20
424.5000222888
 30
0.0
 11
0.12688562442797
 21
-4.781591789182471E-11
 31
0.0
210
0.0
220
0.0
230
1.0
 40
0.9455185756
 41
3.159045946465828
 42
6.265732015003347
  0
LINE
  5
1F3
330
75
100
AcDbEntity
  8
DV1_Standard
  6
Continuous
 62
     7
100
AcDbLine
 10
171.4292317868
 20
424.7619568595
 30
0.0
 11
171.4243576016
 21
424.4979284762
 31
0.0
  0
LINE
  5
1F4
330
75
100
AcDbEntity
  8
DV1_Standard
  6
Continuous
 62
     7
100
AcDbLine
 10
171.4292317868
 20
424.7619568595
 30
0.0
 11
171.4292317868
 21
424.8207928768
 31
0.0
  0
LINE
  5
1F5
330
75
100
AcDbEntity
  8
DV1_Standard
  6
Continuous
 62
     7
100
AcDbLine
 10
172.6234431259
 20
424.7619568595
 30
0.0
 11
171.4292317868
 21
424.7619568595
 31
0.0
  0
LINE
  5
1F6
330
75
100
AcDbEntity
  8
DV1_Standard
  6
Continuous
 62
     7
100
AcDbLine
 10
172.6234431259
 20
424.8207928768
 30
0.0
 11
172.6234431259
 21
424.7619568595
 31
0.0
  0
LINE
  5
1F7
330
75
100
AcDbEntity
  8
DV1_Standard
  6
Continuous
 62
     7
100
AcDbLine
 10
172.6283173111
 20
424.4979284762
 30
0.0
 11
172.6234431259
 21
424.7619568595
 31
0.0
  0
ELLIPSE
  5
1F8
330
75
100
AcDbEntity
  8
DV1_Standard
  6
Continuous
 62
     7
100
AcDbEllipse
 10
172.7551836102
 20
424.5000222888
 30
0.0
 11
0.1268856244279644
 21
-4.776040674059345E-11
 31
0.0
210
0.0
220
0.0
230
1.0
 40
0.9455185756
 41
3.15904594646287
 42
6.265732015005471
  0
LINE
  5
1F9
330
75
100
AcDbEntity
  8
DV1_Standard
  6
Continuous
 62
     7
100
AcDbLine
 10
172.8869240944
 20
424.7619568595
 30
0.0
 11
172.8820499093
 21
424.4979284762
 31
0.0
  0
LINE
  5
1FA
330
75
100
AcDbEntity
  8
DV1_Standard
  6
Continuous
 62
     7
100
AcDbLine
 10
172.8869240944
 20
424.7619568595
 30
0.0
 11
172.8869240944
 21
424.8207928768
 31
0.0
  0
LINE
  5
1FB
330
75
100
AcDbEntity
  8
DV1_Standard
  6
Continuous
 62
     7
100
AcDbLine
 10
174.0811354336
 20
424.7619568595
 30
0.0
 11
172.8869240944
 21
424.7619568595
 31
0.0
  0
LINE
  5
1FC
330
75
100
AcDbEntity
  8
DV1_Standard
  6
Continuous
 62
     7
100
AcDbLine
 10
174.0811354336
 20
424.8207928768
 30
0.0
 11
174.0811354336
 21
424.7619568595
 31
0.0
  0
LINE
  5
1FD
330
75
100
AcDbEntity
  8
DV1_Standard
  6
Continuous
 62
     7
100
AcDbLine
 10
174.0860096188
 20
424.4979284762
 30
0.0
 11
174.0811354336
 21
424.7619568595
 31
0.0
  0
ELLIPSE
  5
1FE
330
75
100
AcDbEntity
  8
DV1_Standard
  6
Continuous
 62
     7
100
AcDbEllipse
 10
174.2128759179
 20
424.5000222888
 30
0.0
 11
0.1268856244279636
 21
-4.775346784668955E-11
 31
0.0
210
0.0
220
0.0
230
1.0
 40
0.9455185756
 41
3.159045946449645
 42
6.265732015005751
  0
LINE
  5
1FF
330
75
100
AcDbEntity
  8
DV1_Standard
  6
Continuous
 62
     7
100
AcDbLine
 10
174.3446164021
 20
424.7619568595
 30
0.0
 11
174.339742217
 21
424.4979284762
 31
0.0
  0
LINE
  5
200
330
75
100
AcDbEntity
  8
DV1_Standard
  6
Continuous
 62
     7
100
AcDbLine
 10
174.3446164021
 20
424.7619568595
 30
0.0
 11
174.3446164021
 21
424.8207928768
 31
0.0
  0
LINE
  5
201
330
75
100
AcDbEntity
  8
DV1_Standard
  6
Continuous
 62
     7
100
AcDbLine
 10
175.5388277413
 20
424.7619568595
 30
0.0
 11
174.3446164021
 21
424.7619568595
 31
0.0
  0
LINE
  5
202
330
75
100
AcDbEntity
  8
DV1_Standard
  6
Continuous
 62
     7
100
AcDbLine
 10
175.5388277413
 20
424.8207928768
 30
0.0
 11
175.5388277413
 21
424.7619568595
 31
0.0
  0
LINE
  5
203
330
75
100
AcDbEntity
  8
DV1_Standard
  6
Continuous
 62
     7
100
AcDbLine
 10
175.5437019264
 20
424.4979284762
 30
0.0
 11
175.5388277413
 21
424.7619568595
 31
0.0
  0
ELLIPSE
  5
204
330
75
100
AcDbEntity
  8
DV1_Standard
  6
Continuous
 62
     7
100
AcDbEllipse
 10
175.6705682256
 20
424.5000222888
 30
0.0
 11
0.1268856244279634
 21
-4.775346784668955E-11
 31
0.0
210
0.0
220
0.0
230
1.0
 40
0.9455185756
 41
3.159045946462374
 42
6.265732015005853
  0
LINE
  5
205
330
75
100
AcDbEntity
  8
DV1_Standard
  6
Continuous
 62
     7
100
AcDbLine
 10
175.8023087098
 20
424.7619568595
 30
0.0
 11
175.7974345247
 21
424.4979284762
 31
0.0
  0
LINE
  5
206
330
75
100
AcDbEntity
  8
DV1_Standard
  6
Continuous
 62
     7
100
AcDbLine
 10
175.8023087098
 20
424.7619568595
 30
0.0
 11
175.8023087098
 21
424.8207928768
 31
0.0
  0
LINE
  5
207
330
75
100
AcDbEntity
  8
DV1_Standard
  6
Continuous
 62
     7
100
AcDbLine
 10
176.996520049
 20
424.7619568595
 30
0.0
 11
175.8023087098
 21
424.7619568595
 31
0.0
  0
LINE
  5
208
330
75
100
AcDbEntity
  8
DV1_Standard
  6
Continuous
 62
     7
100
AcDbLine
 10
176.996520049
 20
424.8207928768
 30
0.0
 11
176.996520049
 21
424.7619568595
 31
0.0
  0
LINE
  5
209
330
75
100
AcDbEntity
  8
DV1_Standard
  6
Continuous
 62
     7
100
AcDbLine
 10
177.0013942341
 20
424.4979284762
 30
0.0
 11
176.996520049
 21
424.7619568595
 31
0.0
  0
ELLIPSE
  5
20A
330
75
100
AcDbEntity
  8
DV1_Standard
  6
Continuous
 62
     7
100
AcDbEllipse
 10
177.1282605333
 20
424.5000222888
 30
0.0
 11
0.1268856244279648
 21
-4.782285678572862E-11
 31
0.0
210
0.0
220
0.0
230
1.0
 40
0.9455185756
 41
3.159045946463545
 42
6.265732015005725
  0
LINE
  5
20B
330
75
100
AcDbEntity
  8
DV1_Standard
  6
Continuous
 62
     7
100
AcDbLine
 10
177.2600010175
 20
424.7619568595
 30
0.0
 11
177.2551268324
 21
424.4979284762
 31
0.0
  0
LINE
  5
20C
330
75
100
AcDbEntity
  8
DV1_Standard
  6
Continuous
 62
     7
100
AcDbLine
 10
177.2600010175
 20
424.7619568595
 30
0.0
 11
177.2600010175
 21
424.8207928768
 31
0.0
  0
LINE
  5
20D
330
75
100
AcDbEntity
  8
DV1_Standard
  6
Continuous
 62
     7
100
AcDbLine
 10
178.4542123567
 20
424.7619568595
 30
0.0
 11
177.2600010175
 21
424.7619568595
 31
0.0
  0
LINE
  5
20E
330
75
100
AcDbEntity
  8
DV1_Standard
  6
Continuous
 62
     7
100
AcDbLine
 10
178.4542123567
 20
424.8207928768
 30
0.0
 11
178.4542123567
 21
424.7619568595
 31
0.0
  0
LINE
  5
20F
330
75
100
AcDbEntity
  8
DV1_Standard
  6
Continuous
 62
     7
100
AcDbLine
 10
178.4590865418
 20
424.4979284762
 30
0.0
 11
178.4542123567
 21
424.7619568595
 31
0.0
  0
ELLIPSE
  5
210
330
75
100
AcDbEntity
  8
DV1_Standard
  6
Continuous
 62
     7
100
AcDbEllipse
 10
178.585952841
 20
424.5000222888
 30
0.0
 11
0.1268856244279639
 21
-4.776040674059345E-11
 31
0.0
210
0.0
220
0.0
230
1.0
 40
0.9455185756
 41
3.159045946462673
 42
6.265732015005656
  0
LINE
  5
211
330
75
100
AcDbEntity
  8
DV1_Standard
  6
Continuous
 62
     7
100
AcDbLine
 10
178.7176933252
 20
424.7619568595
 30
0.0
 11
178.7128191401
 21
424.4979284762
 31
0.0
  0
LINE
  5
212
330
75
100
AcDbEntity
  8
DV1_Standard
  6
Continuous
 62
     7
100
AcDbLine
 10
178.7176933252
 20
424.7619568595
 30
0.0
 11
178.7176933252
 21
424.8207928768
 31
0.0
  0
LINE
  5
213
330
75
100
AcDbEntity
  8
DV1_Standard
  6
Continuous
 62
     7
100
AcDbLine
 10
179.9119046644
 20
424.7619568595
 30
0.0
 11
178.7176933252
 21
424.7619568595
 31
0.0
  0
LINE
  5
214
330
75
100
AcDbEntity
  8
DV1_Standard
  6
Continuous
 62
     7
100
AcDbLine
 10
179.9119046644
 20
424.8207928768
 30
0.0
 11
179.9119046644
 21
424.7619568595
 31
0.0
  0
LINE
  5
215
330
75
100
AcDbEntity
  8
DV1_Standard
  6
Continuous
 62
     7
100
AcDbLine
 10
179.9167788495
 20
424.4979284762
 30
0.0
 11
179.9119046644
 21
424.7619568595
 31
0.0
  0
ELLIPSE
  5
216
330
75
100
AcDbEntity
  8
DV1_Standard
  6
Continuous
 62
     7
100
AcDbEllipse
 10
180.0436451487
 20
424.5000222888
 30
0.0
 11
0.126885624427954
 21
-4.774652895278564E-11
 31
0.0
210
0.0
220
0.0
230
1.0
 40
0.9455185756
 41
3.15904594645808
 42
6.265732014997234
  0
LINE
  5
217
330
75
100
AcDbEntity
  8
DV1_Standard
  6
Continuous
 62
     7
100
AcDbLine
 10
180.1753856329
 20
424.7619568595
 30
0.0
 11
180.1705114478
 21
424.4979284762
 31
0.0
  0
LINE
  5
218
330
75
100
AcDbEntity
  8
DV1_Standard
  6
Continuous
 62
     7
100
AcDbLine
 10
180.1753856329
 20
424.7619568595
 30
0.0
 11
180.1753856329
 21
424.8207928768
 31
0.0
  0
LINE
  5
219
330
75
100
AcDbEntity
  8
DV1_Standard
  6
Continuous
 62
     7
100
AcDbLine
 10
181.3695969721
 20
424.8207928768
 30
0.0
 11
181.3695969721
 21
424.7619568595
 31
0.0
  0
LINE
  5
21A
330
75
100
AcDbEntity
  8
DV1_Standard
  6
Continuous
 62
     7
100
AcDbLine
 10
181.3695969721
 20
424.7619568595
 30
0.0
 11
180.1753856329
 21
424.7619568595
 31
0.0
  0
LINE
  5
21B
330
75
100
AcDbEntity
  8
DV1_Standard
  6
Continuous
 62
     7
100
AcDbLine
 10
181.3744711572
 20
424.4979284762
 30
0.0
 11
181.3695969721
 21
424.7619568595
 31
0.0
  0
ELLIPSE
  5
21C
330
75
100
AcDbEntity
  8
DV1_Standard
  6
Continuous
 62
     7
100
AcDbEllipse
 10
181.5013374563
 20
424.5000222888
 30
0.0
 11
0.1268856244279644
 21
-4.776040674059345E-11
 31
0.0
210
0.0
220
0.0
230
1.0
 40
0.9455185756
 41
3.15904594646287
 42
6.265732015005471
  0
LINE
  5
21D
330
75
100
AcDbEntity
  8
DV1_Standard
  6
Continuous
 62
     7
100
AcDbLine
 10
181.6330779406
 20
424.7619568595
 30
0.0
 11
181.6282037555
 21
424.4979284762
 31
0.0
  0
LINE
  5
21E
330
75
100
AcDbEntity
  8
DV1_Standard
  6
Continuous
 62
     7
100
AcDbLine
 10
181.6330779406
 20
424.7619568595
 30
0.0
 11
181.6330779406
 21
424.8207928768
 31
0.0
  0
LINE
  5
21F
330
75
100
AcDbEntity
  8
DV1_Standard
  6
Continuous
 62
     7
100
AcDbLine
 10
182.8272892798
 20
424.7478729388
 30
0.0
 11
182.5238776418
 21
424.7478729388
 31
0.0
  0
LINE
  5
220
330
75
100
AcDbEntity
  8
DV1_Standard
  6
Continuous
 62
     7
100
AcDbLine
 10
182.4989017487
 20
424.7619568595
 30
0.0
 11
181.6330779406
 21
424.7619568595
 31
0.0
  0
LINE
  5
221
330
75
100
AcDbEntity
  8
DV1_Standard
  6
Continuous
 62
     7
100
AcDbLine
 10
182.5238776418
 20
424.7478729388
 30
0.0
 11
182.4989017487
 21
424.7619568595
 31
0.0
  0
LINE
  5
222
330
75
100
AcDbEntity
  8
DV1_Standard
  6
Continuous
 62
     7
100
AcDbLine
 10
182.5266917539
 20
424.4822576761
 30
0.0
 11
182.5238776418
 21
424.7478729388
 31
0.0
  0
ARC
  5
223
330
75
100
AcDbEntity
  8
DV1_Standard
  6
Continuous
 62
     7
100
AcDbCircle
 10
182.722127698
 20
424.4757425753
 30
0.0
 40
0.1955445084962859
100
AcDbArc
 50
178.0906808589
 51
231.3274454491
  0
LINE
  5
224
330
75
100
AcDbEntity
  8
DV1_Standard
  6
Continuous
 62
     7
100
AcDbLine
 10
182.959029764
 20
424.120583117
 30
0.0
 11
182.5999380458
 21
424.3230751469
 31
0.0
  0
SPLINE
  5
225
330
75
100
AcDbEntity
  8
DV1_Standard
  6
Continuous
 62
     7
100
AcDbSpline
210
0.0
220
0.0
230
1.0
 70
    12
 71
     3
 72
     8
 73
     4
 74
     0
 42
0.0000000479831323
 43
0.0000000001
 40
0.0
 40
0.0
 40
0.0
 40
0.0
 40
1.0
 40
1.0
 40
1.0
 40
1.0
 10
183.0858960631718
 20
424.1669220390001
 30
0.0
 41
1.0
 10
183.0846167434971
 20
424.0983443350949
 30
0.0
 41
0.808833632721054
 10
183.032333103605
 20
424.0792473209391
 30
0.0
 41
0.808833632721054
 10
182.9590297640144
 20
424.1205831170188
 30
0.0
 41
1.0
  0
LINE
  5
226
330
75
100
AcDbEntity
  8
DV1_Standard
  6
Continuous
 62
     7
100
AcDbLine
 10
183.0886801447
 20
424.3161622374
 30
0.0
 11
183.0858960632
 21
424.166922039
 31
0.0
  0
LINE
  5
227
330
75
100
AcDbEntity
  8
DV1_Standard
  6
Continuous
 62
     7
100
AcDbLine
 10
183.4515296929
 20
424.2247694046
 30
0.0
 11
183.289457095
 21
424.3161622374
 31
0.0
  0
LINE
  5
228
330
75
100
AcDbEntity
  8
DV1_Standard
  6
Continuous
 62
     7
100
AcDbLine
 10
183.6917220717
 20
424.2247694046
 30
0.0
 11
183.4515296929
 21
424.2247694046
 31
0.0
  0
ELLIPSE
  5
229
330
75
100
AcDbEntity
  8
DV1_Standard
  6
Continuous
 62
     7
100
AcDbEllipse
 10
183.6917220717
 20
425.1200818294
 30
0.0
 11
2.749999999994817
 21
3.885780586188048E-13
 31
0.0
210
0.0
220
0.0
230
1.0
 40
0.3255681545
 41
4.71238898038423
 42
4.929829103026319
  0
ELLIPSE
  5
22A
330
75
100
AcDbEntity
  8
DV1_Standard
  6
Continuous
 62
     7
100
AcDbEllipse
 10
166.1917220717
 20
424.4072430424
 30
0.0
 11
-3.050000000000001
 21
0.0
 31
0.0
210
0.0
220
0.0
230
1.0
 40
0.3255681545
 41
0.0
 42
1.570796326794897
  0
LINE
  5
22B
330
75
100
AcDbEntity
  8
DV1_Standard
  6
Continuous
 62
     7
100
AcDbLine
 10
163.1417220717
 20
425.1784272258
 30
0.0
 11
163.1417220717
 21
424.4072430424
 31
0.0
  0
LINE
  5
22C
330
75
100
AcDbEntity
  8
DV1_Standard
  6
Continuous
 62
     7
100
AcDbLine
 10
186.7417220717
 20
425.1794060596
 30
0.0
 11
186.7417220717
 21
424.4072430424
 31
0.0
  0
ELLIPSE
  5
22D
330
75
100
AcDbEntity
  8
DV1_Standard
  6
Continuous
 62
     7
100
AcDbEllipse
 10
183.6917220717
 20
424.4072430424
 30
0.0
 11
3.049999999999999
 21
0.0
 31
0.0
210
0.0
220
0.0
230
1.0
 40
0.3255681545
 41
4.71238898038469
 42
6.283185307179586
  0
ELLIPSE
  5
22E
330
75
100
AcDbEntity
  8
DV1_Standard
  6
Continuous
 62
     7
100
AcDbEllipse
 10
183.6917220717
 20
424.4072430424
 30
0.0
 11
2.749999999999997
 21
-6.938893903907228E-15
 31
0.0
210
0.0
220
0.0
230
1.0
 40
0.3255681545
 41
4.712388980384691
 42
6.283185307179586
  0
LINE
  5
22F
330
75
100
AcDbEntity
  8
DV1_Standard
  6
Continuous
 62
     7
100
AcDbLine
 10
186.4417220717
 20
425.2211634285
 30
0.0
 11
186.4417220717
 21
424.4072430424
 31
0.0
  0
ELLIPSE
  5
230
330
75
100
AcDbEntity
  8
DV1_Standard
  6
Continuous
 62
     7
100
AcDbEllipse
 10
184.1917220717
 20
425.2211634285
 30
0.0
 11
-2.24999999999999
 21
0.0
 31
0.0
210
0.0
220
0.0
230
1.0
 40
0.3255681545
 41
3.141592653589793
 42
3.221953921880221
  0
ELLIPSE
  5
231
330
75
100
AcDbEntity
  8
DV1_Standard
  6
Continuous
 62
     7
100
AcDbEllipse
 10
165.6917220717
 20
425.2211634285
 30
0.0
 11
-2.249999999999999
 21
6.938893903907228E-15
 31
0.0
210
0.0
220
0.0
230
1.0
 40
0.3255681545
 41
6.198795760589753
 42
6.283185307179586
  0
LINE
  5
232
330
75
100
AcDbEntity
  8
DV1_Standard
  6
Continuous
 62
     7
100
AcDbLine
 10
163.4417220717
 20
424.4072430424
 30
0.0
 11
163.4417220717
 21
425.2211634285
 31
0.0
  0
ELLIPSE
  5
233
330
75
100
AcDbEntity
  8
DV1_Standard
  6
Continuous
 62
     7
100
AcDbEllipse
 10
166.1917220717
 20
424.4072430424
 30
0.0
 11
2.74999999999999
 21
0.0
 31
0.0
210
0.0
220
0.0
230
1.0
 40
0.3255681545
 41
3.141592653589793
 42
4.7123889803847
  0
LINE
  5
234
330
75
100
AcDbEntity
  8
DV1_Standard
  6
Continuous
 62
     7
100
AcDbLine
 10
166.4319144506
 20
423.5119306176
 30
0.0
 11
166.1917220717
 21
423.5119306176
 31
0.0
  0
LINE
  5
235
330
75
100
AcDbEntity
  8
DV1_Standard
  6
Continuous
 62
     7
100
AcDbLine
 10
166.4319144506
 20
423.5119306176
 30
0.0
 11
166.4319144506
 21
424.2247694046
 31
0.0
  0
LINE
  5
236
330
75
100
AcDbEntity
  8
DV1_Standard
  6
Continuous
 62
     7
100
AcDbLine
 10
167.3845423948
 20
424.7619568595
 30
0.0
 11
167.3845423948
 21
424.0491180725
 31
0.0
  0
LINE
  5
237
330
75
100
AcDbEntity
  8
DV1_Standard
  6
Continuous
 62
     7
100
AcDbLine
 10
167.3845423948
 20
424.0491180725
 30
0.0
 11
166.4319144506
 21
423.5119306176
 31
0.0
  0
LINE
  5
238
330
75
100
AcDbEntity
  8
DV1_Standard
  6
Continuous
 62
     7
100
AcDbLine
 10
182.4989017487
 20
424.7619568595
 30
0.0
 11
182.4989017487
 21
424.0491180725
 31
0.0
  0
LINE
  5
239
330
75
100
AcDbEntity
  8
DV1_Standard
  6
Continuous
 62
     7
100
AcDbLine
 10
182.4989017487
 20
424.0491180725
 30
0.0
 11
167.3845423948
 21
424.0491180725
 31
0.0
  0
LINE
  5
23A
330
75
100
AcDbEntity
  8
DV1_Standard
  6
Continuous
 62
     7
100
AcDbLine
 10
183.4515296929
 20
424.2247694046
 30
0.0
 11
183.4515296929
 21
423.5119306176
 31
0.0
  0
LINE
  5
23B
330
75
100
AcDbEntity
  8
DV1_Standard
  6
Continuous
 62
     7
100
AcDbLine
 10
183.4515296929
 20
423.5119306176
 30
0.0
 11
182.4989017487
 21
424.0491180725
 31
0.0
  0
LINE
  5
23C
330
75
100
AcDbEntity
  8
DV1_Standard
  6
Continuous
 62
     7
100
AcDbLine
 10
183.6917220717
 20
423.5119306176
 30
0.0
 11
183.4515296929
 21
423.5119306176
 31
0.0
  0
ELLIPSE
  5
23D
330
75
100
AcDbEntity
  8
DV1_Standard
  6
Continuous
 62
     7
100
AcDbEllipse
 10
183.6917220717
 20
424.6908986151
 30
0.0
 11
3.349999999999999
 21
0.0
 31
0.0
210
0.0
220
0.0
230
1.0
 40
0.3255681545
 41
5.806373129460121
 42
6.283185307179586
  0
LINE
  5
23E
330
75
100
AcDbEntity
  8
DV1_Standard
  6
Continuous
 62
     7
100
AcDbLine
 10
187.0417220717
 20
425.0463894415
 30
0.0
 11
187.0417220717
 21
424.6908986151
 31
0.0
  0
LINE
  5
23F
330
75
100
AcDbEntity
  8
DV1_Standard
  6
Continuous
 62
     7
100
AcDbLine
 10
162.8417220717
 20
425.0450982142
 30
0.0
 11
162.8417220717
 21
424.6908986151
 31
0.0
  0
ELLIPSE
  5
240
330
75
100
AcDbEntity
  8
DV1_Standard
  6
Continuous
 62
     7
100
AcDbEllipse
 10
166.1917220717
 20
424.6908986151
 30
0.0
 11
-3.349999999999999
 21
-6.938893903907229E-15
 31
0.0
210
0.0
220
0.0
230
1.0
 40
0.3255681545
 41
0.0
 42
0.4768121780789418
  0
LINE
  5
241
330
75
100
AcDbEntity
  8
DV1_Standard
  6
Continuous
 62
     7
100
AcDbLine
 10
183.6917220717
 20
423.4142601713
 30
0.0
 11
182.9319144506
 21
423.4142601713
 31
0.0
  0
LINE
  5
242
330
75
100
AcDbEntity
  8
DV1_Standard
  6
Continuous
 62
     7
100
AcDbLine
 10
166.1917220717
 20
423.4142601713
 30
0.0
 11
166.9515296929
 21
423.4142601713
 31
0.0
  0
LINE
  5
243
330
75
100
AcDbEntity
  8
DV1_Standard
  6
Continuous
 62
     7
100
AcDbLine
 10
167.7309525563
 20
423.8537771798
 30
0.0
 11
182.1524915872
 21
423.8537771798
 31
0.0
  0
LINE
  5
244
330
75
100
AcDbEntity
  8
DV1_Standard
  6
Continuous
 62
     7
100
AcDbLine
 10
182.9319144506
 20
423.4142601713
 30
0.0
 11
182.1524915872
 21
423.8537771798
 31
0.0
  0
LINE
  5
245
330
75
100
AcDbEntity
  8
DV1_Standard
  6
Continuous
 62
     7
100
AcDbLine
 10
167.7309525563
 20
423.8537771798
 30
0.0
 11
166.9515296929
 21
423.4142601713
 31
0.0
  0
LINE
  5
246
330
75
100
AcDbEntity
  8
DV1_Standard
  6
Continuous
 62
     7
100
AcDbLine
 10
165.5056259337
 20
425.3254235162
 30
0.0
 11
166.8878636678
 21
425.3254235162
 31
0.0
  0
LINE
  5
247
330
75
100
AcDbEntity
  8
DV1_Standard
  6
Continuous
 62
     7
100
AcDbLine
 10
165.5056259337
 20
424.8207928768
 30
0.0
 11
166.8878636678
 21
424.8207928768
 31
0.0
  0
LINE
  5
248
330
75
100
AcDbEntity
  8
DV1_Standard
  6
Continuous
 62
     7
100
AcDbLine
 10
166.9633182414
 20
425.3254235162
 30
0.0
 11
168.3455559755
 21
425.3254235162
 31
0.0
  0
LINE
  5
249
330
75
100
AcDbEntity
  8
DV1_Standard
  6
Continuous
 62
     7
100
AcDbLine
 10
168.4210105491
 20
425.3254235162
 30
0.0
 11
169.8032482832
 21
425.3254235162
 31
0.0
  0
LINE
  5
24A
330
75
100
AcDbEntity
  8
DV1_Standard
  6
Continuous
 62
     7
100
AcDbLine
 10
169.8787028568
 20
425.3254235162
 30
0.0
 11
171.2609405909
 21
425.3254235162
 31
0.0
  0
LINE
  5
24B
330
75
100
AcDbEntity
  8
DV1_Standard
  6
Continuous
 62
     7
100
AcDbLine
 10
171.3363951645
 20
425.3254235162
 30
0.0
 11
172.7186328986
 21
425.3254235162
 31
0.0
  0
LINE
  5
24C
330
75
100
AcDbEntity
  8
DV1_Standard
  6
Continuous
 62
     7
100
AcDbLine
 10
172.7940874722
 20
425.3254235162
 30
0.0
 11
174.1763252063
 21
425.3254235162
 31
0.0
  0
LINE
  5
24D
330
75
100
AcDbEntity
  8
DV1_Standard
  6
Continuous
 62
     7
100
AcDbLine
 10
174.2517797799
 20
425.3254235162
 30
0.0
 11
175.634017514
 21
425.3254235162
 31
0.0
  0
LINE
  5
24E
330
75
100
AcDbEntity
  8
DV1_Standard
  6
Continuous
 62
     7
100
AcDbLine
 10
175.7094720875
 20
425.3254235162
 30
0.0
 11
177.0917098217
 21
425.3254235162
 31
0.0
  0
LINE
  5
24F
330
75
100
AcDbEntity
  8
DV1_Standard
  6
Continuous
 62
     7
100
AcDbLine
 10
177.1671643952
 20
425.3254235162
 30
0.0
 11
178.5494021294
 21
425.3254235162
 31
0.0
  0
LINE
  5
250
330
75
100
AcDbEntity
  8
DV1_Standard
  6
Continuous
 62
     7
100
AcDbLine
 10
178.6248567029
 20
425.3254235162
 30
0.0
 11
180.007094437
 21
425.3254235162
 31
0.0
  0
LINE
  5
251
330
75
100
AcDbEntity
  8
DV1_Standard
  6
Continuous
 62
     7
100
AcDbLine
 10
180.0825490106
 20
425.3254235162
 30
0.0
 11
181.4647867447
 21
425.3254235162
 31
0.0
  0
LINE
  5
252
330
75
100
AcDbEntity
  8
DV1_Standard
  6
Continuous
 62
     7
100
AcDbLine
 10
181.5402413183
 20
425.3254235162
 30
0.0
 11
182.9224790524
 21
425.3254235162
 31
0.0
  0
LINE
  5
253
330
75
100
AcDbEntity
  8
DV1_Standard
  6
Continuous
 62
     7
100
AcDbLine
 10
182.997933626
 20
424.8207928768
 30
0.0
 11
184.3801713601
 21
424.8207928768
 31
0.0
  0
LINE
  5
254
330
75
100
AcDbEntity
  8
DV1_Standard
  6
Continuous
 62
     7
100
AcDbLine
 10
182.997933626
 20
425.3254235162
 30
0.0
 11
184.3801713601
 21
425.3254235162
 31
0.0
  0
LINE
  5
255
330
75
100
AcDbEntity
  8
DV1_Standard
  6
Continuous
 62
     7
100
AcDbLine
 10
165.5056259337
 20
424.3161622374
 30
0.0
 11
166.8878636678
 21
424.3161622374
 31
0.0
  0
LINE
  5
256
330
75
100
AcDbEntity
  8
DV1_Standard
  6
Continuous
 62
     7
100
AcDbLine
 10
166.9633182414
 20
424.8207928768
 30
0.0
 11
168.3455559755
 21
424.8207928768
 31
0.0
  0
LINE
  5
257
330
75
100
AcDbEntity
  8
DV1_Standard
  6
Continuous
 62
     7
100
AcDbLine
 10
168.4210105491
 20
424.8207928768
 30
0.0
 11
169.8032482832
 21
424.8207928768
 31
0.0
  0
LINE
  5
258
330
75
100
AcDbEntity
  8
DV1_Standard
  6
Continuous
 62
     7
100
AcDbLine
 10
169.8787028568
 20
424.8207928768
 30
0.0
 11
171.2609405909
 21
424.8207928768
 31
0.0
  0
LINE
  5
259
330
75
100
AcDbEntity
  8
DV1_Standard
  6
Continuous
 62
     7
100
AcDbLine
 10
171.3363951645
 20
424.8207928768
 30
0.0
 11
172.7186328986
 21
424.8207928768
 31
0.0
  0
LINE
  5
25A
330
75
100
AcDbEntity
  8
DV1_Standard
  6
Continuous
 62
     7
100
AcDbLine
 10
172.7940874722
 20
424.8207928768
 30
0.0
 11
174.1763252062
 21
424.8207928768
 31
0.0
  0
LINE
  5
25B
330
75
100
AcDbEntity
  8
DV1_Standard
  6
Continuous
 62
     7
100
AcDbLine
 10
174.2517797799
 20
424.8207928768
 30
0.0
 11
175.6340175139
 21
424.8207928768
 31
0.0
  0
LINE
  5
25C
330
75
100
AcDbEntity
  8
DV1_Standard
  6
Continuous
 62
     7
100
AcDbLine
 10
175.7094720876
 20
424.8207928768
 30
0.0
 11
177.0917098216
 21
424.8207928768
 31
0.0
  0
LINE
  5
25D
330
75
100
AcDbEntity
  8
DV1_Standard
  6
Continuous
 62
     7
100
AcDbLine
 10
177.1671643953
 20
424.8207928768
 30
0.0
 11
178.5494021293
 21
424.8207928768
 31
0.0
  0
LINE
  5
25E
330
75
100
AcDbEntity
  8
DV1_Standard
  6
Continuous
 62
     7
100
AcDbLine
 10
178.624856703
 20
424.8207928768
 30
0.0
 11
180.007094437
 21
424.8207928768
 31
0.0
  0
LINE
  5
25F
330
75
100
AcDbEntity
  8
DV1_Standard
  6
Continuous
 62
     7
100
AcDbLine
 10
180.0825490107
 20
424.8207928768
 30
0.0
 11
181.4647867447
 21
424.8207928768
 31
0.0
  0
LINE
  5
260
330
75
100
AcDbEntity
  8
DV1_Standard
  6
Continuous
 62
     7
100
AcDbLine
 10
181.5402413183
 20
424.8207928768
 30
0.0
 11
182.9224790524
 21
424.8207928768
 31
0.0
  0
LINE
  5
261
330
75
100
AcDbEntity
  8
DV1_Standard
  6
Continuous
 62
     7
100
AcDbLine
 10
182.997933626
 20
424.3161622374
 30
0.0
 11
184.3801713601
 21
424.3161622374
 31
0.0
  0
LINE
  5
262
330
75
100
AcDbEntity
  8
DV1_Standard
  6
Continuous
 62
     7
100
AcDbLine
 10
184.4556259337
 20
424.3161622374
 30
0.0
 11
186.1062484998
 21
424.3161622374
 31
0.0
  0
LINE
  5
263
330
75
100
AcDbEntity
  8
DV1_Standard
  6
Continuous
 62
     7
100
AcDbLine
 10
184.4556259337
 20
424.8207928768
 30
0.0
 11
186.4417220717
 21
424.8207928768
 31
0.0
  0
LINE
  5
264
330
75
100
AcDbEntity
  8
DV1_Standard
  6
Continuous
 62
     7
100
AcDbLine
 10
184.4556259337
 20
425.3254235162
 30
0.0
 11
186.2474250236
 21
425.3254235162
 31
0.0
  0
LINE
  5
265
330
75
100
AcDbEntity
  8
DV1_Standard
  6
Continuous
 62
     7
100
AcDbLine
 10
163.6371835625
 20
425.3254235162
 30
0.0
 11
165.4301713601
 21
425.3254235162
 31
0.0
  0
LINE
  5
266
330
75
100
AcDbEntity
  8
DV1_Standard
  6
Continuous
 62
     7
100
AcDbLine
 10
163.4417220717
 20
424.8207928768
 30
0.0
 11
165.4301713601
 21
424.8207928768
 31
0.0
  0
LINE
  5
267
330
75
100
AcDbEntity
  8
DV1_Standard
  6
Continuous
 62
     7
100
AcDbLine
 10
163.7771179543
 20
424.3161622374
 30
0.0
 11
165.4301713601
 21
424.3161622374
 31
0.0
  0
ENDBLK
  5
269
330
75
100
AcDbEntity
  8
0
100
AcDbBlockEnd
  0
BLOCK
  5
2BB
330
26A
100
AcDbEntity
  8
0
100
AcDbBlockBegin
  2
SE1
 70
     0
 10
0.0
 20
0.0
 30
0.0
  3
SE1
  1

  0
LINE
  5
26D
330
26A
100
AcDbEntity
  8
DV2_Standard
  6
Continuous
 62
     7
100
AcDbLine
 10
323.6271637036
 20
489.1489876655
 30
0.0
 11
326.2503299392
 21
489.1489876655
 31
0.0
  0
ARC
  5
26E
330
26A
100
AcDbEntity
  8
DV2_Standard
  6
Continuous
 62
     7
100
AcDbCircle
 10
335.5771637036
 20
473.1116094508
 30
0.0
 40
20.0
100
AcDbArc
 50
24.8345874897
 51
28.1015262488
  0
ARC
  5
26F
330
26A
100
AcDbEntity
  8
DV2_Standard
  6
Continuous
 62
     7
100
AcDbCircle
 10
335.5771637036
 20
473.1116094508
 30
0.0
 40
20.00000000000001
100
AcDbArc
 50
126.691057378
 51
155.1654125103
  0
ARC
  5
270
330
26A
100
AcDbEntity
  8
DV2_Standard
  6
Continuous
 62
     7
100
AcDbCircle
 10
338.9072854817
 20
485.9252725567
 30
0.0
 40
2.999999999999898
100
AcDbArc
 50
242.4317759114
 51
268.4317759114
  0
LINE
  5
271
330
26A
100
AcDbEntity
  8
DV2_Standard
  6
Continuous
 62
     7
100
AcDbLine
 10
337.5188720403
 20
483.2658914039
 30
0.0
 11
316.3192331473
 21
494.3338286046
 31
0.0
  0
LINE
  5
272
330
26A
100
AcDbEntity
  8
DV2_Standard
  6
Continuous
 62
     7
100
AcDbLine
 10
338.8251837125
 20
482.9263962172
 30
0.0
 11
355.540720838
 21
482.4687664199
 31
0.0
  0
ARC
  5
273
330
26A
100
AcDbEntity
  8
DV2_Standard
  6
Continuous
 62
     7
100
AcDbCircle
 10
296.6370553385
 20
506.8011696836
 30
0.0
 40
20.11350318655685
100
AcDbArc
 50
349.1042227606
 51
7.7592968579
  0
LINE
  5
274
330
26A
100
AcDbEntity
  8
DV2_Standard
  6
Continuous
 62
     7
100
AcDbLine
 10
356.6297047464
 20
511.2833473882
 30
0.0
 11
316.6446868867
 21
512.3780376446
 31
0.0
  0
LINE
  5
275
330
26A
100
AcDbEntity
  8
DV2_Standard
  6
Continuous
 62
     7
100
AcDbLine
 10
317.3297590411
 20
513.0587269186
 30
0.0
 11
355.9829020255
 21
512.0005000809
 31
0.0
  0
LINE
  5
276
330
26A
100
AcDbEntity
  8
DV2_Standard
  6
Continuous
 62
     7
100
AcDbLine
 10
356.579524395
 20
509.4504432982
 30
0.0
 11
354.4168307433
 21
509.5096524669
 31
0.0
  0
LINE
  5
277
330
26A
100
AcDbEntity
  8
DV2_Standard
  6
Continuous
 62
     7
100
AcDbLine
 10
354.1842090638
 20
501.0128361718
 30
0.0
 11
354.4168307433
 21
509.5096524669
 31
0.0
  0
LINE
  5
278
330
26A
100
AcDbEntity
  8
DV2_Standard
  6
Continuous
 62
     7
100
AcDbLine
 10
354.1842090638
 20
501.0128361718
 30
0.0
 11
356.3469027155
 21
500.9536270031
 31
0.0
  0
ARC
  5
279
330
26A
100
AcDbEntity
  8
DV2_Standard
  6
Continuous
 62
     7
100
AcDbCircle
 10
356.3674974303
 20
500.5187195614
 30
0.0
 40
1.934182850963007
100
AcDbArc
 50
88.3509127558
 51
117.7835620969
  0
ARC
  5
27A
330
26A
100
AcDbEntity
  8
DV2_Standard
  6
Continuous
 62
     7
100
AcDbCircle
 10
357.1729814389
 20
499.1487981977
 30
0.0
 40
3.522413643904323
100
AcDbArc
 50
118.98828644
 51
148.0490292
  0
LINE
  5
27B
330
26A
100
AcDbEntity
  8
DV2_Standard
  6
Continuous
 62
     7
100
AcDbLine
 10
406.2692633801
 20
501.087439078
 30
0.0
 11
356.4231593993
 21
502.4521013257
 31
0.0
  0
ARC
  5
27C
330
26A
100
AcDbEntity
  8
DV2_Standard
  6
Continuous
 62
     7
100
AcDbCircle
 10
406.2884204596
 20
501.7871768905
 30
0.0
 40
0.7000000000000081
100
AcDbArc
 50
268.4317759114
 51
358.4317759114
  0
LINE
  5
27D
330
26A
100
AcDbEntity
  8
DV2_Standard
  6
Continuous
 62
     7
100
AcDbLine
 10
355.5541346197
 20
508.5701946295
 30
0.0
 11
356.0500374509
 21
508.4645646389
 31
0.0
  0
ARC
  5
27E
330
26A
100
AcDbEntity
  8
DV2_Standard
  6
Continuous
 62
     7
100
AcDbCircle
 10
356.7418513773
 20
511.1661764214
 30
0.0
 40
2.854784152982655
100
AcDbArc
 50
215.4690018147
 51
245.4148999095
  0
LINE
  5
27F
330
26A
100
AcDbEntity
  8
DV2_Standard
  6
Continuous
 62
     7
100
AcDbLine
 10
356.0500374509
 20
508.4645646389
 30
0.0
 11
406.4334669186
 21
507.0851917569
 31
0.0
  0
LINE
  5
280
330
26A
100
AcDbEntity
  8
DV2_Standard
  6
Continuous
 62
     7
100
AcDbLine
 10
407.1140476516
 20
506.3662968649
 30
0.0
 11
406.9881582722
 21
501.768019811
 31
0.0
  0
ARC
  5
281
330
26A
100
AcDbEntity
  8
DV2_Standard
  6
Continuous
 62
     7
100
AcDbCircle
 10
406.4143098391
 20
506.3854539444
 30
0.0
 40
0.7000000000000081
100
AcDbArc
 50
358.4317759114
 51
88.4317759114
  0
LINE
  5
282
330
26A
100
AcDbEntity
  8
DV2_Standard
  6
Continuous
 62
     7
100
AcDbLine
 10
356.579524395
 20
509.4504432982
 30
0.0
 11
356.6297047464
 21
511.2833473882
 31
0.0
  0
LINE
  5
283
330
26A
100
AcDbEntity
  8
DV2_Standard
  6
Continuous
 62
     7
100
AcDbLine
 10
355.8488186489
 20
482.7604438769
 30
0.0
 11
356.3469027155
 21
500.9536270031
 31
0.0
  0
LINE
  5
284
330
26A
100
AcDbEntity
  8
DV2_Standard
  6
Continuous
 62
     7
100
AcDbLine
 10
316.385171923
 20
502.8989083669
 30
0.0
 11
316.1581868575
 21
494.6079768968
 31
0.0
  0
LINE
  5
285
330
26A
100
AcDbEntity
  8
DV2_Standard
  6
Continuous
 62
     7
100
AcDbLine
 10
316.6446868867
 20
512.3780376446
 30
0.0
 11
316.5651059547
 21
509.4712382393
 31
0.0
  0
ARC
  5
286
330
26A
100
AcDbEntity
  8
DV2_Standard
  6
Continuous
 62
     7
100
AcDbCircle
 10
316.4580744915
 20
494.5997667199
 30
0.0
 40
0.2999999999999908
100
AcDbArc
 50
182.8441559425
 51
242.4317759114
  0
ARC
  5
287
330
26A
100
AcDbEntity
  8
DV2_Standard
  6
Continuous
 62
     7
100
AcDbCircle
 10
355.5489310149
 20
482.7686540538
 30
0.0
 40
0.3000000000000014
100
AcDbArc
 50
268.4317759114
 51
358.4317759114
  0
ARC
  5
288
330
26A
100
AcDbEntity
  8
DV2_Standard
  6
Continuous
 62
     7
100
AcDbCircle
 10
325.7153728566
 20
112.896579807
 30
0.0
 40
400.2499999999953
100
AcDbArc
 50
85.6630635374
 51
91.2004882854
  0
ARC
  5
289
330
26A
100
AcDbEntity
  8
DV2_Standard
  6
Continuous
 62
     7
100
AcDbCircle
 10
355.9299669339
 20
511.3025044677
 30
0.0
 40
0.7000000000000012
100
AcDbArc
 50
358.4317759114
 51
85.6630635373
  0
ARC
  5
28A
330
26A
100
AcDbEntity
  8
DV2_Standard
  6
Continuous
 62
     7
100
AcDbCircle
 10
317.3444246992
 20
512.3588805651
 30
0.0
 40
0.6999999999999186
100
AcDbArc
 50
91.2004882855
 51
178.4317759114
  0
ARC
  5
28B
330
26A
100
AcDbEntity
  8
DV2_Standard
  6
Continuous
 62
     7
100
AcDbCircle
 10
357.5791498415
 20
509.4230760418
 30
0.0
 40
0.9999999999999954
100
AcDbArc
 50
178.4317759114
 51
268.4317759114
  0
ARC
  5
28C
330
26A
100
AcDbEntity
  8
DV2_Standard
  6
Continuous
 62
     7
100
AcDbCircle
 10
357.8463408852
 20
500.9125761184
 30
0.0
 40
1.5
100
AcDbArc
 50
88.4317759114
 51
178.4317759114
  0
LINE
  5
28D
330
26A
100
AcDbEntity
  8
DV2_Standard
  6
Continuous
 62
     7
100
AcDbLine
 10
293.5781057111
 20
413.1829638345
 30
0.0
 11
293.5781057111
 21
409.1829638345
 31
0.0
  0
LINE
  5
28E
330
26A
100
AcDbEntity
  8
DV2_Standard
  6
Continuous
 62
     7
100
AcDbLine
 10
307.0453930711
 20
413.1829638345
 30
0.0
 11
293.5781057111
 21
413.1829638345
 31
0.0
  0
LINE
  5
28F
330
26A
100
AcDbEntity
  8
DV2_Standard
  6
Continuous
 62
     7
100
AcDbLine
 10
293.5781057111
 20
409.1829638345
 30
0.0
 11
307.0453930711
 21
409.1829638345
 31
0.0
  0
ARC
  5
290
330
26A
100
AcDbEntity
  8
DV2_Standard
  6
Continuous
 62
     7
100
AcDbCircle
 10
307.0453930711
 20
408.1829638345
 30
0.0
 40
0.9999999999999454
100
AcDbArc
 50
18.0
 51
90.0
  0
ARC
  5
291
330
26A
100
AcDbEntity
  8
DV2_Standard
  6
Continuous
 62
     7
100
AcDbCircle
 10
307.0453930711
 20
408.1829638345
 30
0.0
 40
4.999999999999971
100
AcDbArc
 50
18.0
 51
90.0
  0
LINE
  5
292
330
26A
100
AcDbEntity
  8
DV2_Standard
  6
Continuous
 62
     7
100
AcDbLine
 10
315.6460016176
 20
397.8933523885
 30
0.0
 11
311.8006756525
 21
409.7280488064
 31
0.0
  0
LINE
  5
293
330
26A
100
AcDbEntity
  8
DV2_Standard
  6
Continuous
 62
     7
100
AcDbLine
 10
307.9964495874
 20
408.4919808289
 30
0.0
 11
315.6460082461
 21
384.9490600783
 31
0.0
  0
LINE
  5
294
330
26A
100
AcDbEntity
  8
DV2_Standard
  6
Continuous
 62
     7
100
AcDbLine
 10
355.5771637036
 20
481.5116094508
 30
0.0
 11
315.5771637036
 21
481.5116094508
 31
0.0
  0
LINE
  5
295
330
26A
100
AcDbEntity
  8
DV2_Standard
  6
Continuous
 62
     7
100
AcDbLine
 10
443.0407595446
 20
433.6351584572
 30
0.0
 11
445.2985001916
 21
426.4770065024
 31
0.0
  0
SPLINE
  5
296
330
26A
100
AcDbEntity
  8
DV2_Standard
  6
Continuous
 62
     7
100
AcDbSpline
210
0.0
220
0.0
230
1.0
 70
    12
 71
     3
 72
     8
 73
     4
 74
     0
 42
0.0000000002287437
 43
0.0000000001
 40
0.0
 40
0.0
 40
0.0
 40
0.0
 40
1.0
 40
1.0
 40
1.0
 40
1.0
 10
412.5116157605099
 20
456.1646561780141
 30
0.0
 41
1.0
 10
427.7523010688321
 20
456.1646561780141
 30
0.0
 41
0.8440252687868184
 10
439.427243685449
 20
446.3680137140874
 30
0.0
 41
0.8440252687868184
 10
443.0407595445973
 20
433.635158457188
 30
0.0
 41
1.0
  0
ARC
  5
297
330
26A
100
AcDbEntity
  8
DV2_Standard
  6
Continuous
 62
     7
100
AcDbCircle
 10
232.0526530927
 20
332.2250971297
 30
0.0
 40
157.1420442640024
100
AcDbArc
 50
38.1803316424
 51
42.1505494607
  0
LINE
  5
298
330
26A
100
AcDbEntity
  8
DV2_Standard
  6
Continuous
 62
     7
100
AcDbLine
 10
351.4452398696
 20
459.164656178
 30
0.0
 11
355.5771613535
 21
459.164656178
 31
0.0
  0
SPLINE
  5
299
330
26A
100
AcDbEntity
  8
DV2_Standard
  6
Continuous
 62
     7
100
AcDbSpline
210
0.0
220
0.0
230
1.0
 70
     8
 71
     3
 72
    18
 73
    14
 74
     0
 42
0.0000000020116768
 43
0.0000000001
 40
0.0
 40
0.0
 40
0.0
 40
0.0
 40
0.1250000000000013
 40
0.1250000000000013
 40
0.2500000000000026
 40
0.2500000000000026
 40
0.3750000000000038
 40
0.3750000000000038
 40
0.5000000000000051
 40
0.5000000000000051
 40
0.7500000000000026
 40
0.7500000000000026
 40
1.0
 40
1.0
 40
1.0
 40
1.0
 10
348.5552607093637
 20
455.6646561780144
 30
0.0
 10
348.5552607093637
 20
455.9185178940636
 30
0.0
 10
348.5835016790043
 20
456.1686687884728
 30
0.0
 10
348.6905770846665
 20
456.6546454718212
 30
0.0
 10
348.7675363878228
 20
456.8838342435319
 30
0.0
 10
348.9591885636574
 20
457.3189598210049
 30
0.0
 10
349.0721842145322
 20
457.520498403899
 30
0.0
 10
349.3200850719234
 20
457.8899073931771
 30
0.0
 10
349.457132727322
 20
458.0604401259989
 30
0.0
 10
349.8833788829668
 20
458.5146282386987
 30
0.0
 10
350.1893454383088
 20
458.7480328978118
 30
0.0
 10
350.823935789092
 20
459.0768708750716
 30
0.0
 10
351.1372097013001
 20
459.164656178014
 30
0.0
 10
351.4452398696199
 20
459.1646561780141
 30
0.0
  0
LINE
  5
29A
330
26A
100
AcDbEntity
  8
DV2_Standard
  6
Continuous
 62
     7
100
AcDbLine
 10
348.5552607094
 20
437.6801325429
 30
0.0
 11
348.5552607094
 21
455.664656178
 31
0.0
  0
LINE
  5
29B
330
26A
100
AcDbEntity
  8
DV2_Standard
  6
Continuous
 62
     7
100
AcDbLine
 10
353.8254512945
 20
456.164656178
 30
0.0
 11
412.5116157605
 21
456.164656178
 31
0.0
  0
SPLINE
  5
29C
330
26A
100
AcDbEntity
  8
DV2_Standard
  6
Continuous
 62
     7
100
AcDbSpline
210
0.0
220
0.0
230
1.0
 70
     8
 71
     3
 72
    14
 73
    10
 74
     0
 42
0.0000000001765566
 43
0.0000000001
 40
0.0
 40
0.0
 40
0.0
 40
0.0
 40
0.4999999999999997
 40
0.4999999999999997
 40
0.7499999999999997
 40
0.7499999999999997
 40
0.8749999999999999
 40
0.8749999999999999
 40
1.0
 40
1.0
 40
1.0
 40
1.0
 10
355.8131891042517
 20
442.6485422981125
 30
0.0
 10
365.2521649260257
 20
442.776711289123
 30
0.0
 10
374.6914485319599
 20
442.8808622286256
 30
0.0
 10
388.8505427731424
 20
443.0165619137317
 30
0.0
 10
393.5702740977341
 20
443.0582291886013
 30
0.0
 10
400.6499153095038
 20
443.1159862994471
 30
0.0
 10
403.0098049109934
 20
443.1355023762803
 30
0.0
 10
407.7296213607748
 20
443.1626579799796
 30
0.0
 10
410.0895407820564
 20
443.1722414241856
 30
0.0
 10
412.4495268924767
 20
443.1580332493616
 30
0.0
  0
SPLINE
  5
29D
330
26A
100
AcDbEntity
  8
DV2_Standard
  6
Continuous
 62
     7
100
AcDbSpline
210
0.0
220
0.0
230
1.0
 70
     8
 71
     3
 72
    16
 73
    12
 74
     0
 42
0.0000000017072397
 43
0.0000000001
 40
0.0
 40
0.0
 40
0.0
 40
0.0
 40
0.2500000000000028
 40
0.2500000000000028
 40
0.3750000000000023
 40
0.3750000000000023
 40
0.5000000000000019
 40
0.5000000000000019
 40
0.7500000000000009
 40
0.7500000000000009
 40
1.0
 40
1.0
 40
1.0
 40
1.0
 10
350.5019752602244
 20
440.6275012354752
 30
0.0
 10
350.8299355314587
 20
440.9951794662926
 30
0.0
 10
351.2038877913721
 20
441.3041418333523
 30
0.0
 10
351.8230326810076
 20
441.6932630472105
 30
0.0
 10
352.0403968613535
 20
441.8108721852477
 30
0.0
 10
352.4819842208399
 20
442.0174410644635
 30
0.0
 10
352.7073085069495
 20
442.1072773941934
 30
0.0
 10
353.3947259684401
 20
442.3428155926369
 30
0.0
 10
353.8702335586412
 20
442.4549018773496
 30
0.0
 10
354.836862885755
 20
442.6046280960679
 30
0.0
 10
355.3236229984714
 20
442.6418946283876
 30
0.0
 10
355.8131891042517
 20
442.6485422981125
 30
0.0
  0
SPLINE
  5
29E
330
26A
100
AcDbEntity
  8
DV2_Standard
  6
Continuous
 62
     7
100
AcDbSpline
210
0.0
220
0.0
230
1.0
 70
     8
 71
     3
 72
    14
 73
    10
 74
     0
 42
0.0000000004236877
 43
0.0000000001
 40
0.0
 40
0.0
 40
0.0
 40
0.0
 40
0.25
 40
0.25
 40
0.5
 40
0.5
 40
0.75
 40
0.75
 40
1.0
 40
1.0
 40
1.0
 40
1.0
 10
412.4495268924767
 20
443.1580332493616
 30
0.0
 10
414.4268813191272
 20
443.1935416610232
 30
0.0
 10
416.4114561027401
 20
442.9431146822034
 30
0.0
 10
420.137495734023
 20
441.8083293508114
 30
0.0
 10
421.9253886768024
 20
440.905219292895
 30
0.0
 10
425.0767208034966
 20
438.6018642596928
 30
0.0
 10
426.4796273971951
 20
437.1903129945251
 30
0.0
 10
428.8040484668368
 20
434.0466642673624
 30
0.0
 10
429.727881591477
 20
432.3367389050244
 30
0.0
 10
430.3726187054691
 20
430.4651227273097
 30
0.0
  0
SPLINE
  5
29F
330
26A
100
AcDbEntity
  8
DV2_Standard
  6
Continuous
 62
     7
100
AcDbSpline
210
0.0
220
0.0
230
1.0
 70
     8
 71
     3
 72
    10
 73
     6
 74
     0
 42
0.0000000011902816
 43
0.0000000001
 40
0.0
 40
0.0
 40
0.0
 40
0.0
 40
0.5
 40
0.5
 40
1.0
 40
1.0
 40
1.0
 40
1.0
 10
430.3726187054691
 20
430.4651227273097
 30
0.0
 10
430.8286695102586
 20
429.1412376828952
 30
0.0
 10
431.2699571617615
 20
427.8123213556568
 30
0.0
 10
432.1229544029306
 20
425.1449746505286
 30
0.0
 10
432.5410646670376
 20
423.8086218399887
 30
0.0
 10
432.9622514930485
 20
422.4732517628785
 30
0.0
  0
ARC
  5
2A0
330
26A
100
AcDbEntity
  8
DV2_Standard
  6
Continuous
 62
     7
100
AcDbCircle
 10
365.8030664526
 20
426.3775765377
 30
0.0
 40
20.62121662766738
100
AcDbArc
 50
137.0200508442
 51
146.7630144333
  0
LINE
  5
2A1
330
26A
100
AcDbEntity
  8
DV2_Standard
  6
Continuous
 62
     7
100
AcDbLine
 10
444.9761651939
 20
425.851077841
 30
0.0
 11
433.1167599902
 21
421.9977235047
 31
0.0
  0
LINE
  5
2A2
330
26A
100
AcDbEntity
  8
DV2_Standard
  6
Continuous
 62
     7
100
AcDbLine
 10
433.1167599902
 20
421.9977235047
 30
0.0
 11
432.7071073184
 21
421.864619283
 31
0.0
  0
ARC
  5
2A3
330
26A
100
AcDbEntity
  8
DV2_Standard
  6
Continuous
 62
     7
100
AcDbCircle
 10
444.8216566967
 20
426.3266060991
 30
0.0
 40
0.4999999999999167
100
AcDbArc
 50
288.0
 51
17.5057077634
  0
ARC
  5
2A4
330
26A
100
AcDbEntity
  8
DV2_Standard
  6
Continuous
 62
     7
100
AcDbCircle
 10
107.1448694732
 20
391.6330776515
 30
0.0
 40
208.602044370612
100
AcDbArc
 50
357.6883989883
 51
2.3115995156
  0
SPLINE
  5
2A5
330
26A
100
AcDbEntity
  8
DV2_Standard
  6
Continuous
 62
     7
100
AcDbSpline
210
0.0
220
0.0
230
1.0
 70
     8
 71
     3
 72
    22
 73
    18
 74
     0
 42
0.000000000454589
 43
0.0000000001
 40
0.0
 40
0.0
 40
0.0
 40
0.0
 40
0.0659043722092962
 40
0.1312166965777789
 40
0.1897945974720872
 40
0.2425164289675362
 40
0.2899645507973254
 40
0.3582242813891689
 40
0.413607581252213
 40
0.4590015399196097
 40
0.5151070953198578
 40
0.5861372601710606
 40
0.6712598495560862
 40
0.7437009718190014
 40
0.8228572567758569
 40
0.9082578268668909
 40
1.0
 40
1.0
 40
1.0
 40
1.0
 10
412.2844025620024
 20
441.7669943346754
 30
0.0
 10
412.8152541841424
 20
441.7618737450564
 30
0.0
 10
413.7065785656993
 20
441.7478291869053
 30
0.0
 10
415.1158072496422
 20
441.576222964224
 30
0.0
 10
416.3783263205757
 20
441.3216835370149
 30
0.0
 10
417.5002453402095
 20
441.0079191529893
 30
0.0
 10
418.6643027154379
 20
440.5992602393451
 30
0.0
 10
419.8148001929516
 20
440.0988929265451
 30
0.0
 10
420.9120353633097
 20
439.5243290210238
 30
0.0
 10
421.8998343335883
 20
438.9369012225564
 30
0.0
 10
422.9523011046973
 20
438.236943682192
 30
0.0
 10
424.196866741035
 20
437.303799947055
 30
0.0
 10
425.45820426003
 20
436.2008570322504
 30
0.0
 10
426.663721285887
 20
434.9493038607915
 30
0.0
 10
427.7421722161486
 20
433.5974355331101
 30
0.0
 10
428.7676888272677
 20
431.9740851533687
 30
0.0
 10
429.219513102611
 20
430.8562927363328
 30
0.0
 10
429.4903732942868
 20
430.1687135869634
 30
0.0
  0
SPLINE
  5
2A6
330
26A
100
AcDbEntity
  8
DV2_Standard
  6
Continuous
 62
     7
100
AcDbSpline
210
0.0
220
0.0
230
1.0
 70
     8
 71
     3
 72
    17
 73
    13
 74
     0
 42
0.0000000002012283
 43
0.0000000001
 40
0.0
 40
0.0
 40
0.0
 40
0.0
 40
0.0012346670699936
 40
0.1513907164697826
 40
0.3066347494437227
 40
0.4683510497393876
 40
0.6171145207271783
 40
0.7728916095728061
 40
0.8352532100227449
 40
0.8955622330168873
 40
0.9513333245663537
 40
1.0
 40
1.0
 40
1.0
 40
1.0
 10
362.8059385146756
 20
437.3234108260765
 30
0.0
 10
362.8283340019789
 20
437.3255442947126
 30
0.0
 10
365.1990505029183
 20
437.5513846762799
 30
0.0
 10
370.4379691353556
 20
438.0514312257641
 30
0.0
 10
378.0646745605229
 20
438.7809473939701
 30
0.0
 10
385.7644995011374
 20
439.5204245510155
 30
0.0
 10
393.4481465485193
 20
440.2603299835963
 30
0.0
 10
399.4947973883358
 20
440.8477432691805
 30
0.0
 10
404.0923405419637
 20
441.2899867116693
 30
0.0
 10
407.0206161272851
 20
441.5388398406578
 30
0.0
 10
409.7999658934582
 20
441.7296156742045
 30
0.0
 10
411.4065290203399
 20
441.7582559821566
 30
0.0
 10
412.2931595724176
 20
441.7731640811871
 30
0.0
  0
SPLINE
  5
2A7
330
26A
100
AcDbEntity
  8
DV2_Standard
  6
Continuous
 62
     7
100
AcDbSpline
210
0.0
220
0.0
230
1.0
 70
     8
 71
     3
 72
    11
 73
     7
 74
     0
 42
0.0000000011856973
 43
0.0000000001
 40
0.0
 40
0.0
 40
0.0
 40
0.0
 40
0.3199227299987319
 40
0.4897132594285759
 40
0.6802595524878777
 40
1.0
 40
1.0
 40
1.0
 40
1.0
 10
429.4903748381701
 20
430.1687091051469
 30
0.0
 10
429.8094962095706
 20
429.2322673023119
 30
0.0
 10
430.2175867994011
 20
428.0319787800265
 30
0.0
 10
430.812190412845
 20
426.1939706795849
 30
0.0
 10
431.3945061838815
 20
424.3502130482931
 30
0.0
 10
431.7926808869008
 20
423.0888855575968
 30
0.0
 10
432.0896265794304
 20
422.145768420431
 30
0.0
  0
ARC
  5
2A8
330
26A
100
AcDbEntity
  8
DV2_Standard
  6
Continuous
 62
     7
100
AcDbCircle
 10
363.557132059
 20
429.3794312773
 30
0.0
 40
7.973492143461418
100
AcDbArc
 50
95.3908583843
 51
179.9829586559
  0
ARC
  5
2A9
330
26A
100
AcDbEntity
  8
DV2_Standard
  6
Continuous
 62
     7
100
AcDbCircle
 10
358.577163698
 20
459.164656178
 30
0.0
 40
2.999999999262216
100
AcDbArc
 50
180.0617944318
 51
269.9999977459
  0
ARC
  5
2AA
330
26A
100
AcDbEntity
  8
DV2_Standard
  6
Continuous
 62
     7
100
AcDbCircle
 10
432.5525988212
 20
422.3401475412
 30
0.0
 40
0.5000000000000167
100
AcDbArc
 50
197.4968671861
 51
288.0000003312
  0
LINE
  5
2AB
330
26A
100
AcDbEntity
  8
DV2_Standard
  6
Continuous
 62
     7
100
AcDbLine
 10
315.5771637036
 20
383.2193010067
 30
0.0
 11
315.5771637036
 21
369.5116094508
 31
0.0
  0
LINE
  5
2AC
330
26A
100
AcDbEntity
  8
DV2_Standard
  6
Continuous
 62
     7
100
AcDbLine
 10
315.5771637036
 20
481.5116094508
 30
0.0
 11
315.5771637036
 21
400.0438813113
 31
0.0
  0
LINE
  5
2AD
330
26A
100
AcDbEntity
  8
DV2_Standard
  6
Continuous
 62
     7
100
AcDbLine
 10
355.5771637036
 20
459.164656178
 30
0.0
 11
355.5771637036
 21
481.5116094508
 31
0.0
  0
LINE
  5
2AE
330
26A
100
AcDbEntity
  8
DV2_Standard
  6
Continuous
 62
     7
100
AcDbLine
 10
355.5771637036
 20
369.5116094508
 30
0.0
 11
355.5771637036
 21
429.3782299524
 31
0.0
  0
LINE
  5
2AF
330
26A
100
AcDbEntity
  8
DV2_Standard
  6
Continuous
 62
     7
100
AcDbLine
 10
316.377345851
 20
502.8997403431
 30
0.0
 11
316.7458267653
 21
506.3658949096
 31
0.0
  0
LINE
  5
2B0
330
26A
100
AcDbEntity
  8
DV2_Standard
  6
Continuous
 62
     7
100
AcDbLine
 10
316.377345851
 20
502.8997403431
 30
0.0
 11
316.385171923
 21
502.8989083669
 31
0.0
  0
LINE
  5
2B1
330
26A
100
AcDbEntity
  8
DV2_Standard
  6
Continuous
 62
     7
100
AcDbLine
 10
310.0771637036
 20
369.5116094508
 30
0.0
 11
311.1771637036
 21
369.5116094508
 31
0.0
  0
LINE
  5
2B2
330
26A
100
AcDbEntity
  8
DV2_Standard
  6
Continuous
 62
     7
100
AcDbLine
 10
311.1771637036
 20
369.5116094508
 30
0.0
 11
359.9771637036
 21
369.5116094508
 31
0.0
  0
LINE
  5
2B3
330
26A
100
AcDbEntity
  8
DV2_Standard
  6
Continuous
 62
     7
100
AcDbLine
 10
359.9771637036
 20
369.5116094508
 30
0.0
 11
361.0771637036
 21
369.5116094508
 31
0.0
  0
LINE
  5
2B4
330
26A
100
AcDbEntity
  8
DV2_Standard
  6
Continuous
 62
     7
100
AcDbLine
 10
361.5771637036
 20
369.0116094508
 30
0.0
 11
361.5771637036
 21
361.5116094508
 31
0.0
  0
LINE
  5
2B5
330
26A
100
AcDbEntity
  8
DV2_Standard
  6
Continuous
 62
     7
100
AcDbLine
 10
309.5771637036
 20
369.0116094508
 30
0.0
 11
309.5771637036
 21
361.5116094508
 31
0.0
  0
ARC
  5
2B6
330
26A
100
AcDbEntity
  8
DV2_Standard
  6
Continuous
 62
     7
100
AcDbCircle
 10
310.0771637036
 20
369.0116094508
 30
0.0
 40
0.5000000000000004
100
AcDbArc
 50
90.0
 51
180.0
  0
ARC
  5
2B7
330
26A
100
AcDbEntity
  8
DV2_Standard
  6
Continuous
 62
     7
100
AcDbCircle
 10
361.0771637036
 20
369.0116094508
 30
0.0
 40
0.5000000000000004
100
AcDbArc
 50
0.0
 51
90.0
  0
LINE
  5
2B8
330
26A
100
AcDbEntity
  8
DV2_Standard
  6
Continuous
 62
     7
100
AcDbLine
 10
361.5771637036
 20
361.5116094508
 30
0.0
 11
359.9771637036
 21
361.5116094508
 31
0.0
  0
LINE
  5
2B9
330
26A
100
AcDbEntity
  8
DV2_Standard
  6
Continuous
 62
     7
100
AcDbLine
 10
359.9771637036
 20
361.5116094508
 30
0.0
 11
311.1771637036
 21
361.5116094508
 31
0.0
  0
LINE
  5
2BA
330
26A
100
AcDbEntity
  8
DV2_Standard
  6
Continuous
 62
     7
100
AcDbLine
 10
311.1771637036
 20
361.5116094508
 30
0.0
 11
309.5771637036
 21
361.5116094508
 31
0.0
  0
ENDBLK
  5
2BC
330
26A
100
AcDbEntity
  8
0
100
AcDbBlockEnd
  0
BLOCK
  5
2F8
330
2BD
100
AcDbEntity
  8
0
100
AcDbBlockBegin
  2
SE2
 70
     0
 10
0.0
 20
0.0
 30
0.0
  3
SE2
  1

  0
ELLIPSE
  5
2C0
330
2BD
100
AcDbEntity
  8
DV3_Standard
  6
Continuous
 62
     7
100
AcDbEllipse
 10
174.9417220717
 20
215.7839145947
 30
0.0
 11
20.00000000000002
 21
8.241562814148561E-13
 31
0.0
210
0.0
220
0.0
230
1.0
 40
0.9864777622
 41
-0.0000000000000402
 42
3.141592653589751
  0
SPLINE
  5
2C1
330
2BD
100
AcDbEntity
  8
DV3_Standard
  6
Continuous
 62
     7
100
AcDbSpline
210
0.0
220
0.0
230
1.0
 70
     8
 71
     3
 72
    14
 73
    10
 74
     0
 42
0.0000000015291244
 43
0.0000000001
 40
0.0
 40
0.0
 40
0.0
 40
0.0
 40
0.2424657354044282
 40
0.2424657354044282
 40
0.4949771569362855
 40
0.4949771569362855
 40
0.747488578468143
 40
0.747488578468143
 40
1.0
 40
1.0
 40
1.0
 40
1.0
 10
171.6917706864097
 20
234.9293931744793
 30
0.0
 10
171.6925843329426
 20
234.9074921653011
 30
0.0
 10
172.0104378991213
 20
234.9424455680704
 30
0.0
 10
173.1459171545066
 20
235.0445336228223
 30
0.0
 10
173.9770620297951
 20
235.1009592692711
 30
0.0
 10
175.6751454868187
 20
235.1090916965722
 30
0.0
 10
176.5351731960389
 20
235.0596728072761
 30
0.0
 10
177.774648212584
 20
234.9536559323856
 30
0.0
 10
178.1540306224501
 20
234.9083652604718
 30
0.0
 10
178.1890217001235
 20
234.9261711523139
 30
0.0
  0
ELLIPSE
  5
2C2
330
2BD
100
AcDbEntity
  8
DV3_Standard
  6
Continuous
 62
     7
100
AcDbEllipse
 10
174.9417220717
 20
215.0344608801
 30
0.0
 11
19.99999999999579
 21
-6.513756764872647E-9
 31
0.0
210
0.0
220
0.0
230
1.0
 40
0.9996254465
 41
0.0000000000000006
 42
3.141592653589792
  0
ELLIPSE
  5
2C3
330
2BD
100
AcDbEntity
  8
DV3_Standard
  6
Continuous
 62
     7
100
AcDbEllipse
 10
174.9417220717
 20
215.0153261634
 30
0.0
 11
19.33381303966914
 21
7.682524321567242E-10
 31
0.0
210
0.0
220
0.0
230
1.0
 40
0.9996254465
 41
0.0
 42
6.283185307179586
  0
ARC
  5
2C4
330
2BD
100
AcDbEntity
  8
DV3_Standard
  6
Continuous
 62
     7
100
AcDbCircle
 10
165.5153831059
 20
196.4094325788
 30
0.0
 40
0.926346983733285
100
AcDbArc
 50
359.7616136506
 51
65.8685412385
  0
LINE
  5
2C5
330
2BD
100
AcDbEntity
  8
DV3_Standard
  6
Continuous
 62
     7
100
AcDbLine
 10
166.4417220717
 20
145.2573468576
 30
0.0
 11
166.4417220717
 21
195.6407763253
 31
0.0
  0
LINE
  5
2C6
330
2BD
100
AcDbEntity
  8
DV3_Standard
  6
Continuous
 62
     7
100
AcDbLine
 10
166.4417220717
 20
195.6407763253
 30
0.0
 11
166.4417220717
 21
196.4055784059
 31
0.0
  0
LINE
  5
2C7
330
2BD
100
AcDbEntity
  8
DV3_Standard
  6
Continuous
 62
     7
100
AcDbLine
 10
183.4417220717
 20
196.4055784059
 30
0.0
 11
183.4417220717
 21
195.6407763253
 31
0.0
  0
LINE
  5
2C8
330
2BD
100
AcDbEntity
  8
DV3_Standard
  6
Continuous
 62
     7
100
AcDbLine
 10
183.4417220717
 20
195.6407763253
 30
0.0
 11
183.4417220717
 21
145.2573468576
 31
0.0
  0
ARC
  5
2C9
330
2BD
100
AcDbEntity
  8
DV3_Standard
  6
Continuous
 62
     7
100
AcDbCircle
 10
184.3680610376
 20
196.4094325788
 30
0.0
 40
0.9263469837332783
100
AcDbArc
 50
114.1314587615
 51
180.2383863494
  0
LINE
  5
2CA
330
2BD
100
AcDbEntity
  8
DV3_Standard
  6
Continuous
 62
     7
100
AcDbLine
 10
154.9417220717
 20
215.7839145947
 30
0.0
 11
154.9417220717
 21
215.0344608801
 31
0.0
  0
LINE
  5
2CB
330
2BD
100
AcDbEntity
  8
DV3_Standard
  6
Continuous
 62
     7
100
AcDbLine
 10
194.9417220717
 20
215.0344608801
 30
0.0
 11
194.9417220717
 21
215.7839145947
 31
0.0
  0
ARC
  5
2CC
330
2BD
100
AcDbEntity
  8
DV3_Standard
  6
Continuous
 62
     7
100
AcDbCircle
 10
182.7417220717
 20
145.2573468576
 30
0.0
 40
0.6999999999999784
100
AcDbArc
 50
270.0
 51
0.0
  0
LINE
  5
2CD
330
2BD
100
AcDbEntity
  8
DV3_Standard
  6
Continuous
 62
     7
100
AcDbLine
 10
167.1417220717
 20
144.5573468576
 30
0.0
 11
182.7417220717
 21
144.5573468576
 31
0.0
  0
ARC
  5
2CE
330
2BD
100
AcDbEntity
  8
DV3_Standard
  6
Continuous
 62
     7
100
AcDbCircle
 10
167.1417220717
 20
145.2573468576
 30
0.0
 40
0.6999999999999993
100
AcDbArc
 50
180.0
 51
270.0
  0
LINE
  5
2CF
330
2BD
100
AcDbEntity
  8
DV3_Standard
  6
Continuous
 62
     7
100
AcDbLine
 10
172.9417220717
 20
258.0935509856
 30
0.0
 11
176.9417220717
 21
258.0935509856
 31
0.0
  0
LINE
  5
2D0
330
2BD
100
AcDbEntity
  8
DV3_Standard
  6
Continuous
 62
     7
100
AcDbLine
 10
176.9417220717
 20
244.6262636256
 30
0.0
 11
176.9417220717
 21
258.0935509856
 31
0.0
  0
LINE
  5
2D1
330
2BD
100
AcDbEntity
  8
DV3_Standard
  6
Continuous
 62
     7
100
AcDbLine
 10
172.9417220717
 20
258.0935509856
 30
0.0
 11
172.9417220717
 21
244.6262636256
 31
0.0
  0
LINE
  5
2D2
330
2BD
100
AcDbEntity
  8
DV3_Standard
  6
Continuous
 62
     7
100
AcDbLine
 10
172.9417220717
 20
244.6262636256
 30
0.0
 11
172.9417220717
 21
241.7730940767
 31
0.0
  0
LINE
  5
2D3
330
2BD
100
AcDbEntity
  8
DV3_Standard
  6
Continuous
 62
     7
100
AcDbLine
 10
176.9417220717
 20
241.7730940767
 30
0.0
 11
176.9417220717
 21
244.6262636256
 31
0.0
  0
LINE
  5
2D4
330
2BD
100
AcDbEntity
  8
DV3_Standard
  6
Continuous
 62
     7
100
AcDbLine
 10
176.9417220717
 20
235.9942417352
 30
0.0
 11
176.9417220717
 21
241.7730940767
 31
0.0
  0
LINE
  5
2D5
330
2BD
100
AcDbEntity
  8
DV3_Standard
  6
Continuous
 62
     7
100
AcDbLine
 10
172.9417220717
 20
241.7730940767
 30
0.0
 11
172.9417220717
 21
235.9942417352
 31
0.0
  0
ARC
  5
2D6
330
2BD
100
AcDbEntity
  8
DV3_Standard
  6
Continuous
 62
     7
100
AcDbCircle
 10
174.9417220717
 20
216.094492993
 30
0.0
 40
20.0
100
AcDbArc
 50
359.5520963525
 51
0.0
  0
ARC
  5
2D7
330
2BD
100
AcDbEntity
  8
DV3_Standard
  6
Continuous
 62
     7
100
AcDbCircle
 10
174.9417220717
 20
216.094492993
 30
0.0
 40
20.0
100
AcDbArc
 50
0.0
 51
180.4479036475
  0
LINE
  5
2D8
330
2BD
100
AcDbEntity
  8
DV3_Standard
  6
Continuous
 62
     7
100
AcDbLine
 10
160.4417220717
 20
109.109922227
 30
0.0
 11
160.4417220717
 21
139.1600409362
 31
0.0
  0
LINE
  5
2D9
330
2BD
100
AcDbEntity
  8
DV3_Standard
  6
Continuous
 62
     7
100
AcDbLine
 10
160.4417220717
 20
139.1600409362
 30
0.0
 11
160.4417220717
 21
201.1696814364
 31
0.0
  0
LINE
  5
2DA
330
2BD
100
AcDbEntity
  8
DV3_Standard
  6
Continuous
 62
     7
100
AcDbLine
 10
189.4417220717
 20
139.1600409362
 30
0.0
 11
189.4417220717
 21
109.109922227
 31
0.0
  0
LINE
  5
2DB
330
2BD
100
AcDbEntity
  8
DV3_Standard
  6
Continuous
 62
     7
100
AcDbLine
 10
189.4417220717
 20
109.109922227
 30
0.0
 11
189.4417220717
 21
106.85
 31
0.0
  0
LINE
  5
2DC
330
2BD
100
AcDbEntity
  8
DV3_Standard
  6
Continuous
 62
     7
100
AcDbLine
 10
188.9417220717
 20
108.6308971521
 30
0.0
 11
160.9417220717
 21
108.6308971521
 31
0.0
  0
LINE
  5
2DD
330
2BD
100
AcDbEntity
  8
DV3_Standard
  6
Continuous
 62
     7
100
AcDbLine
 10
160.9417220717
 20
108.6308971521
 30
0.0
 11
160.9417220717
 21
106.373156505
 31
0.0
  0
LINE
  5
2DE
330
2BD
100
AcDbEntity
  8
DV3_Standard
  6
Continuous
 62
     7
100
AcDbLine
 10
160.9417220717
 20
139.1600409362
 30
0.0
 11
160.9417220717
 21
108.6308971521
 31
0.0
  0
LINE
  5
2DF
330
2BD
100
AcDbEntity
  8
DV3_Standard
  6
Continuous
 62
     7
100
AcDbLine
 10
188.9417220717
 20
108.6308971521
 30
0.0
 11
188.9417220717
 21
139.1600409362
 31
0.0
  0
LINE
  5
2E0
330
2BD
100
AcDbEntity
  8
DV3_Standard
  6
Continuous
 62
     7
100
AcDbLine
 10
188.9417220717
 20
139.1600409362
 30
0.0
 11
188.9417220717
 21
197.8462054022
 31
0.0
  0
ARC
  5
2E1
330
2BD
100
AcDbEntity
  8
DV3_Standard
  6
Continuous
 62
     7
100
AcDbCircle
 10
188.9519864994
 20
109.1206424904
 30
0.0
 40
0.4898528910351773
100
AcDbArc
 50
268.7993304912
 51
358.7460013097
  0
ARC
  5
2E2
330
2BD
100
AcDbEntity
  8
DV3_Standard
  6
Continuous
 62
     7
100
AcDbCircle
 10
160.9314576441
 20
109.1206424904
 30
0.0
 40
0.4898528910305441
100
AcDbArc
 50
181.2539986898
 51
271.2006695094
  0
LINE
  5
2E3
330
2BD
100
AcDbEntity
  8
DV3_Standard
  6
Continuous
 62
     7
100
AcDbLine
 10
160.9417220717
 20
197.8462054022
 30
0.0
 11
160.9417220717
 21
139.1600409362
 31
0.0
  0
SPLINE
  5
2E4
330
2BD
100
AcDbEntity
  8
DV3_Standard
  6
Continuous
 62
     7
100
AcDbSpline
210
0.0
220
0.0
230
1.0
 70
     8
 71
     3
 72
    29
 73
    25
 74
     0
 42
0.0000000029748818
 43
0.0000000001
 40
0.0
 40
0.0
 40
0.0
 40
0.0
 40
0.3288133563773354
 40
0.3288133563773354
 40
0.3288133563773354
 40
0.6798520173223244
 40
0.6798520173223244
 40
0.6798520173223244
 40
0.8640909310264419
 40
0.8640909310264419
 40
0.8640909310264419
 40
0.9616936069286037
 40
0.9616936069286037
 40
0.9616936069286037
 40
0.975139652176146
 40
0.975139652176146
 40
0.975139652176146
 40
0.9887704702730961
 40
0.9887704702730961
 40
0.9887704702730961
 40
0.9956399696638253
 40
0.9956399696638253
 40
0.9956399696638253
 40
1.0
 40
1.0
 40
1.0
 40
1.0
 10
160.9417220717314
 20
197.8462054021528
 30
0.0
 10
160.8724501831034
 20
198.2182208612305
 30
0.0
 10
160.8086241048424
 20
198.5914356668477
 30
0.0
 10
160.7491687477319
 20
198.96432118569
 30
0.0
 10
160.6857051988748
 20
199.3623448372711
 30
0.0
 10
160.6271007727539
 20
199.7609303754969
 30
0.0
 10
160.5727555746867
 20
200.1567425539747
 30
0.0
 10
160.5442307687816
 20
200.3644971664799
 30
0.0
 10
160.5167767336195
 20
200.5723579028894
 30
0.0
 10
160.4908391405904
 20
200.7756983265505
 30
0.0
 10
160.477132874733
 20
200.8831500050127
 30
0.0
 10
160.4633864321071
 20
200.993149902769
 30
0.0
 10
160.4516733661658
 20
201.0883870773974
 30
0.0
 10
160.450034783214
 20
201.1017101485309
 30
0.0
 10
160.4484443760668
 20
201.1146732848815
 30
0.0
 10
160.4469797048907
 20
201.1266352428031
 30
0.0
 10
160.4455041239009
 20
201.1386863010873
 30
0.0
 10
160.4441177881276
 20
201.1500362782878
 30
0.0
 10
160.4431133859757
 20
201.1582693358475
 30
0.0
 10
160.442603688166
 20
201.1624473151531
 30
0.0
 10
160.4421907530291
 20
201.1658352276876
 30
0.0
 10
160.4419540080255
 20
201.1677779573704
 30
0.0
 10
160.4418028479534
 20
201.1690183770391
 30
0.0
 10
160.4417220717312
 20
201.1696814364476
 30
0.0
 10
160.4417220717314
 20
201.1696814364462
 30
0.0
  0
LINE
  5
2E5
330
2BD
100
AcDbEntity
  8
DV3_Standard
  6
Continuous
 62
     7
100
AcDbLine
 10
189.4417220717
 20
201.1696814364
 30
0.0
 11
189.4417220717
 21
139.1600409362
 31
0.0
  0
SPLINE
  5
2E6
330
2BD
100
AcDbEntity
  8
DV3_Standard
  6
Continuous
 62
     7
100
AcDbSpline
210
0.0
220
0.0
230
1.0
 70
     8
 71
     3
 72
     8
 73
     4
 74
     0
 42
0.0000000015722829
 43
0.0000000001
 40
0.0
 40
0.0
 40
0.0
 40
0.0
 40
1.0
 40
1.0
 40
1.0
 40
1.0
 10
188.9417220717314
 20
197.8462054021509
 30
0.0
 10
187.2532049811913
 20
196.5507830700655
 30
0.0
 10
185.4091472374924
 20
195.5049578037695
 30
0.0
 10
183.4466245684663
 20
194.7245186500818
 30
0.0
  0
SPLINE
  5
2E7
330
2BD
100
AcDbEntity
  8
DV3_Standard
  6
Continuous
 62
     7
100
AcDbSpline
210
0.0
220
0.0
230
1.0
 70
     8
 71
     3
 72
     8
 73
     4
 74
     0
 42
0.0000000015713919
 43
0.0000000001
 40
0.0
 40
0.0
 40
0.0
 40
0.0
 40
1.0
 40
1.0
 40
1.0
 40
1.0
 10
166.4396920113047
 20
194.7229737236387
 30
0.0
 10
164.47011669127
 20
195.5046945507321
 30
0.0
 10
162.6372614547687
 20
196.5453956004485
 30
0.0
 10
160.9417220717314
 20
197.8462054021528
 30
0.0
  0
LINE
  5
2E8
330
2BD
100
AcDbEntity
  8
DV3_Standard
  6
Continuous
 62
     7
100
AcDbLine
 10
188.9417220717
 20
106.373156505
 30
0.0
 11
188.9417220717
 21
108.6308971521
 31
0.0
  0
LINE
  5
2E9
330
2BD
100
AcDbEntity
  8
DV3_Standard
  6
Continuous
 62
     7
100
AcDbLine
 10
160.4417220717
 20
106.85
 30
0.0
 11
160.4417220717
 21
109.109922227
 31
0.0
  0
ARC
  5
2EA
330
2BD
100
AcDbEntity
  8
DV3_Standard
  6
Continuous
 62
     7
100
AcDbCircle
 10
160.9417220717
 20
106.85
 30
0.0
 40
0.5000000000000004
100
AcDbArc
 50
180.0
 51
270.0
  0
LINE
  5
2EB
330
2BD
100
AcDbEntity
  8
DV3_Standard
  6
Continuous
 62
     7
100
AcDbLine
 10
160.9417220717
 20
106.35
 30
0.0
 11
188.9417220717
 21
106.35
 31
0.0
  0
ARC
  5
2EC
330
2BD
100
AcDbEntity
  8
DV3_Standard
  6
Continuous
 62
     7
100
AcDbCircle
 10
188.9417220717
 20
106.85
 30
0.0
 40
0.5000000000000004
100
AcDbArc
 50
270.0
 51
0.0
  0
ELLIPSE
  5
2ED
330
2BD
100
AcDbEntity
  8
DV3_Standard
  6
Continuous
 62
     7
100
AcDbEllipse
 10
174.9417220717
 20
234.9401736327
 30
0.0
 11
3.350000000000001
 21
0.0
 31
0.0
210
0.0
220
0.0
230
1.0
 40
0.1057126009
 41
0.0
 42
3.141592653589793
  0
LINE
  5
2EE
330
2BD
100
AcDbEntity
  8
DV3_Standard
  6
Continuous
 62
     7
100
AcDbLine
 10
199.3417220717
 20
190.094492993
 30
0.0
 11
189.4417220717
 21
190.094492993
 31
0.0
  0
LINE
  5
2EF
330
2BD
100
AcDbEntity
  8
DV3_Standard
  6
Continuous
 62
     7
100
AcDbLine
 10
160.4417220717
 20
190.094492993
 30
0.0
 11
150.5417220717
 21
190.094492993
 31
0.0
  0
ARC
  5
2F0
330
2BD
100
AcDbEntity
  8
DV3_Standard
  6
Continuous
 62
     7
100
AcDbCircle
 10
150.5417220717
 20
191.694492993
 30
0.0
 40
1.600000000000001
100
AcDbArc
 50
180.0
 51
270.0
  0
ARC
  5
2F1
330
2BD
100
AcDbEntity
  8
DV3_Standard
  6
Continuous
 62
     7
100
AcDbCircle
 10
199.3417220717
 20
191.694492993
 30
0.0
 40
1.600000000000001
100
AcDbArc
 50
270.0
 51
0.0
  0
LINE
  5
2F2
330
2BD
100
AcDbEntity
  8
DV3_Standard
  6
Continuous
 62
     7
100
AcDbLine
 10
148.9417220717
 20
191.694492993
 30
0.0
 11
148.9417220717
 21
240.494492993
 31
0.0
  0
LINE
  5
2F3
330
2BD
100
AcDbEntity
  8
DV3_Standard
  6
Continuous
 62
     7
100
AcDbLine
 10
200.9417220717
 20
240.494492993
 30
0.0
 11
200.9417220717
 21
191.694492993
 31
0.0
  0
ARC
  5
2F4
330
2BD
100
AcDbEntity
  8
DV3_Standard
  6
Continuous
 62
     7
100
AcDbCircle
 10
150.5417220717
 20
240.494492993
 30
0.0
 40
1.599999999999997
100
AcDbArc
 50
90.0
 51
180.0
  0
ARC
  5
2F5
330
2BD
100
AcDbEntity
  8
DV3_Standard
  6
Continuous
 62
     7
100
AcDbCircle
 10
199.3417220717
 20
240.494492993
 30
0.0
 40
1.600000000000001
100
AcDbArc
 50
0.0
 51
90.0
  0
LINE
  5
2F6
330
2BD
100
AcDbEntity
  8
DV3_Standard
  6
Continuous
 62
     7
100
AcDbLine
 10
150.5417220717
 20
242.094492993
 30
0.0
 11
172.9417220717
 21
242.094492993
 31
0.0
  0
LINE
  5
2F7
330
2BD
100
AcDbEntity
  8
DV3_Standard
  6
Continuous
 62
     7
100
AcDbLine
 10
176.9417220717
 20
242.094492993
 30
0.0
 11
199.3417220717
 21
242.094492993
 31
0.0
  0
ENDBLK
  5
2F9
330
2BD
100
AcDbEntity
  8
0
100
AcDbBlockEnd
  0
ENDSEC
  0
SECTION
  2
ENTITIES
  0
INSERT
  5
5F
330
1F
100
AcDbEntity
  8
Default
100
AcDbBlockReference
  2
SEANNOT_GROUP
 10
0.0
 20
0.0
 30
0.0
  0
INSERT
  5
66
330
1F
100
AcDbEntity
  8
Default
100
AcDbBlockReference
  2
SEANNOT_GROUP1
 10
0.0
 20
0.0
 30
0.0
  0
INSERT
  5
6C
330
1F
100
AcDbEntity
  8
Default
100
AcDbBlockReference
  2
SEANNOT_GROUP2
 10
0.0
 20
0.0
 30
0.0
  0
INSERT
  5
76
330
1F
100
AcDbEntity
  8
Default
100
AcDbBlockReference
  2
SE
 10
0.0
 20
0.0
 30
0.0
  0
INSERT
  5
26B
330
1F
100
AcDbEntity
  8
Default
100
AcDbBlockReference
  2
SE1
 10
0.0
 20
0.0
 30
0.0
  0
INSERT
  5
2BE
330
1F
100
AcDbEntity
  8
Default
100
AcDbBlockReference
  2
SE2
 10
0.0
 20
0.0
 30
0.0
  0
TEXT
  5
2FB
330
1F
100
AcDbEntity
  8
Default
  6
Continuous
 62
     7
100
AcDbText
 10
5.9362635081
 20
53.4225120485
 30
0.0
 40
10.0
  1
Grohe AG^J
  7
SEACAD_seiso_ttf
 11
5.9362635081
 21
63.4225120485
 31
0.0
100
AcDbText
 73
     3
  0
TEXT
  5
2FC
330
1F
100
AcDbEntity
  8
Default
  6
Continuous
 62
     7
100
AcDbText
 10
5.9362635081
 20
37.0588756849
 30
0.0
 40
10.0
  1
 
  7
SEACAD_seiso_ttf
 11
5.9362635081
 21
47.0588756849
 31
0.0
100
AcDbText
 73
     3
  0
TEXT
  5
2FD
330
1F
100
AcDbEntity
  8
Default
  6
Continuous
 62
     7
100
AcDbText
 10
5.9362635081
 20
20.6952393213
 30
0.0
 40
10.0
  1
ecn: 
  7
SEACAD_seiso_ttf
 11
5.9362635081
 21
30.6952393213
 31
0.0
100
AcDbText
 73
     3
  0
TEXT
  5
2FE
330
1F
100
AcDbEntity
  8
Default
  6
Continuous
 62
     7
100
AcDbText
 10
5.9362635081
 20
4.3316029576
 30
0.0
 40
10.0
  1
unit: mm
  7
SEACAD_seiso_ttf
 11
5.9362635081
 21
14.3316029576
 31
0.0
100
AcDbText
 73
     3
  0
LINE
  5
2FF
330
1F
100
AcDbEntity
  8
Default
  6
Continuous
 62
     7
100
AcDbLine
 10
0.0
 20
0.0
 30
0.0
 11
100.0
 21
0.0
 31
0.0
  0
LINE
  5
300
330
1F
100
AcDbEntity
  8
Default
  6
Continuous
 62
     7
100
AcDbLine
 10
0.0
 20
0.0
 30
0.0
 11
0.0
 21
100.0
 31
0.0
  0
TEXT
  5
301
330
1F
100
AcDbEntity
  8
Default
  6
Continuous
 62
     7
100
AcDbText
 10
24.3923665681
 20
-18.2375342018
 30
0.0
 40
10.0
  1
100 mm
  7
SEACAD_seiso_ttf
 11
24.3923665681
 21
-8.2375342018
 31
0.0
100
AcDbText
 73
     3
  0
TEXT
  5
302
330
1F
100
AcDbEntity
  8
Default
  6
Continuous
 62
     7
100
AcDbText
 10
-7.6150308803
 20
24.6231930421
 30
0.0
 40
10.0
  1
100 mm
 50
90.0
  7
SEACAD_seiso_ttf
 11
-17.6150308803
 21
24.6231930421
 31
0.0
100
AcDbText
 73
     3
  0
TEXT
  5
303
330
1F
100
AcDbEntity
  8
Default
  6
Continuous
 62
     7
100
AcDbText
 10
28.4878128572
 20
20.0907663715
 30
0.0
 40
10.0
  1
219438
  7
SEACAD_seiso_ttf
 11
28.4878128572
 21
30.0907663715
 31
0.0
100
AcDbText
 73
     3
  0
TEXT
  5
304
330
1F
100
AcDbEntity
  8
Default
  6
Continuous
 62
     7
100
AcDbText
 10
5.9012241913
 20
36.7242780188
 30
0.0
 40
10.0
  1
23077000
  7
SEACAD_seiso_ttf
 11
5.9012241913
 21
46.7242780188
 31
0.0
100
AcDbText
 73
     3
  0
ENDSEC
  0
SECTION
  2
OBJECTS
  0
DICTIONARY
  5
C
330
0
100
AcDbDictionary
281
     1
  3
ACAD_GROUP
350
D
  3
ACAD_LAYOUT
350
1A
  3
ACAD_MLEADERSTYLE
350
308
  3
ACAD_MLINESTYLE
350
17
  3
ACAD_PLOTSETTINGS
350
19
  3
ACAD_PLOTSTYLENAME
350
E
  3
ACAD_SCALELIST
350
3B
  3
ACAD_TABLESTYLE
350
307
  3
ACAD_VISUALSTYLE
350
2A
  3
AcDbVariableDictionary
350
305
  0
DICTIONARY
  5
D
102
{ACAD_REACTORS
330
C
102
}
330
C
100
AcDbDictionary
281
     1
  0
DICTIONARY
  5
1A
102
{ACAD_REACTORS
330
C
102
}
330
C
100
AcDbDictionary
281
     1
  3
Layout1
350
1E
  3
Model
350
22
  0
DICTIONARY
  5
308
102
{ACAD_REACTORS
330
C
102
}
330
C
100
AcDbDictionary
281
     1
  0
DICTIONARY
  5
17
102
{ACAD_REACTORS
330
C
102
}
330
C
100
AcDbDictionary
281
     1
  3
Standard
350
18
  0
DICTIONARY
  5
19
102
{ACAD_REACTORS
330
C
102
}
330
C
100
AcDbDictionary
281
     1
  0
ACDBDICTIONARYWDFLT
  5
E
102
{ACAD_REACTORS
330
C
102
}
330
C
100
AcDbDictionary
281
     1
  3
Normal
350
F
100
AcDbDictionaryWithDefault
340
F
  0
DICTIONARY
  5
3B
102
{ACAD_REACTORS
330
C
102
}
330
C
100
AcDbDictionary
281
     1
  3
A0
350
3C
  3
A1
350
3D
  3
A2
350
3E
  3
A3
350
3F
  3
A4
350
40
  3
A5
350
41
  3
A6
350
42
  3
A7
350
43
  3
A8
350
44
  3
A9
350
45
  3
B0
350
46
  3
B1
350
47
  3
B2
350
48
  3
B3
350
49
  3
B4
350
4A
  3
B5
350
4B
  3
B6
350
4C
  3
B7
350
4D
  3
B8
350
4E
  3
B9
350
4F
  3
C0
350
50
  3
C1
350
51
  3
C2
350
52
  3
C3
350
53
  3
C4
350
54
  3
C5
350
55
  3
C6
350
56
  3
C7
350
57
  3
C8
350
58
  3
C9
350
59
  3
D0
350
5A
  3
D1
350
5B
  3
D2
350
5C
  0
DICTIONARY
  5
307
102
{ACAD_REACTORS
330
C
102
}
330
C
100
AcDbDictionary
281
     1
  0
DICTIONARY
  5
2A
102
{ACAD_REACTORS
330
C
102
}
330
C
100
AcDbDictionary
281
     1
  3
2dWireframe
350
2F
  3
3D Hidden
350
31
  3
3dWireframe
350
30
  3
Basic
350
32
  3
Brighten
350
36
  3
ColorChange
350
3A
  3
Conceptual
350
34
  3
Dim
350
35
  3
Facepattern
350
39
  3
Flat
350
2B
  3
FlatWithEdges
350
2C
  3
Gouraud
350
2D
  3
GouraudWithEdges
350
2E
  3
Linepattern
350
38
  3
Realistic
350
33
  3
Thicken
350
37
  0
DICTIONARY
  5
305
102
{ACAD_REACTORS
330
C
102
}
330
C
100
AcDbDictionary
281
     1
  3
CANNOSCALE
350
306
  3
PSOLHEIGHT
350
30A
  3
PSOLWIDTH
350
309
  0
LAYOUT
  5
1E
102
{ACAD_REACTORS
330
1A
102
}
330
1A
100
AcDbPlotSettings
  1

  2
none_device
  4

  6

 40
0.0
 41
0.0
 42
0.0
 43
0.0
 44
0.0
 45
0.0
 46
0.0
 47
0.0
 48
0.0
 49
0.0
140
0.0
141
0.0
142
1.0
143
1.0
 70
   688
 72
     0
 73
     0
 74
     5
  7

 75
    16
147
1.0
148
0.0
149
0.0
100
AcDbLayout
  1
Layout1
 70
     1
 71
     1
 10
0.0
 20
0.0
 11
1682.0
 21
2378.0
 12
0.0
 22
0.0
 32
0.0
 14
0.0
 24
0.0
 34
0.0
 15
1682.0
 25
2378.0
 35
0.0
146
0.0
 13
0.0
 23
0.0
 33
0.0
 16
1.0
 26
0.0
 36
0.0
 17
0.0
 27
1.0
 37
0.0
 76
     0
330
1B
  0
LAYOUT
  5
22
102
{ACAD_REACTORS
330
1A
102
}
330
1A
100
AcDbPlotSettings
  1

  2
none_device
  4

  6

 40
0.0
 41
0.0
 42
0.0
 43
0.0
 44
0.0
 45
0.0
 46
0.0
 47
0.0
 48
0.0
 49
0.0
140
0.0
141
0.0
142
1.0
143
1.0
 70
  1712
 72
     0
 73
     0
 74
     0
  7

 75
     0
147
1.0
148
0.0
149
0.0
100
AcDbLayout
  1
Model
 70
     1
 71
     0
 10
0.0
 20
0.0
 11
1682.0
 21
2378.0
 12
0.0
 22
0.0
 32
0.0
 14
0.0
 24
0.0
 34
0.0
 15
1682.0
 25
2378.0
 35
0.0
146
0.0
 13
0.0
 23
0.0
 33
0.0
 16
1.0
 26
0.0
 36
0.0
 17
0.0
 27
1.0
 37
0.0
 76
     0
330
1F
331
29
  0
MLINESTYLE
  5
18
102
{ACAD_REACTORS
330
17
102
}
330
17
100
AcDbMlineStyle
  2
Standard
 70
     0
  3

 62
   256
 51
90.0
 52
90.0
 71
     2
 49
0.5
 62
   256
  6
BYLAYER
 49
-0.5
 62
   256
  6
BYLAYER
  0
ACDBPLACEHOLDER
  5
F
102
{ACAD_REACTORS
330
E
102
}
330
E
  0
SCALE
  5
3C
102
{ACAD_REACTORS
330
3B
102
}
330
3B
100
AcDbScale
 70
     0
300
1:1
140
1.0
141
1.0
290
     1
  0
SCALE
  5
3D
102
{ACAD_REACTORS
330
3B
102
}
330
3B
100
AcDbScale
 70
     0
300
1:2
140
1.0
141
2.0
290
     0
  0
SCALE
  5
3E
102
{ACAD_REACTORS
330
3B
102
}
330
3B
100
AcDbScale
 70
     0
300
1:4
140
1.0
141
4.0
290
     0
  0
SCALE
  5
3F
102
{ACAD_REACTORS
330
3B
102
}
330
3B
100
AcDbScale
 70
     0
300
1:5
140
1.0
141
5.0
290
     0
  0
SCALE
  5
40
102
{ACAD_REACTORS
330
3B
102
}
330
3B
100
AcDbScale
 70
     0
300
1:8
140
1.0
141
8.0
290
     0
  0
SCALE
  5
41
102
{ACAD_REACTORS
330
3B
102
}
330
3B
100
AcDbScale
 70
     0
300
1:10
140
1.0
141
10.0
290
     0
  0
SCALE
  5
42
102
{ACAD_REACTORS
330
3B
102
}
330
3B
100
AcDbScale
 70
     0
300
1:16
140
1.0
141
16.0
290
     0
  0
SCALE
  5
43
102
{ACAD_REACTORS
330
3B
102
}
330
3B
100
AcDbScale
 70
     0
300
1:20
140
1.0
141
20.0
290
     0
  0
SCALE
  5
44
102
{ACAD_REACTORS
330
3B
102
}
330
3B
100
AcDbScale
 70
     0
300
1:30
140
1.0
141
30.0
290
     0
  0
SCALE
  5
45
102
{ACAD_REACTORS
330
3B
102
}
330
3B
100
AcDbScale
 70
     0
300
1:40
140
1.0
141
40.0
290
     0
  0
SCALE
  5
46
102
{ACAD_REACTORS
330
3B
102
}
330
3B
100
AcDbScale
 70
     0
300
1:50
140
1.0
141
50.0
290
     0
  0
SCALE
  5
47
102
{ACAD_REACTORS
330
3B
102
}
330
3B
100
AcDbScale
 70
     0
300
1:100
140
1.0
141
100.0
290
     0
  0
SCALE
  5
48
102
{ACAD_REACTORS
330
3B
102
}
330
3B
100
AcDbScale
 70
     0
300
2:1
140
2.0
141
1.0
290
     0
  0
SCALE
  5
49
102
{ACAD_REACTORS
330
3B
102
}
330
3B
100
AcDbScale
 70
     0
300
4:1
140
4.0
141
1.0
290
     0
  0
SCALE
  5
4A
102
{ACAD_REACTORS
330
3B
102
}
330
3B
100
AcDbScale
 70
     0
300
8:1
140
8.0
141
1.0
290
     0
  0
SCALE
  5
4B
102
{ACAD_REACTORS
330
3B
102
}
330
3B
100
AcDbScale
 70
     0
300
10:1
140
10.0
141
1.0
290
     0
  0
SCALE
  5
4C
102
{ACAD_REACTORS
330
3B
102
}
330
3B
100
AcDbScale
 70
     0
300
100:1
140
100.0
141
1.0
290
     0
  0
SCALE
  5
4D
102
{ACAD_REACTORS
330
3B
102
}
330
3B
100
AcDbScale
 70
     0
300
1/128" = 1'-0"
140
0.0078125
141
12.0
290
     0
  0
SCALE
  5
4E
102
{ACAD_REACTORS
330
3B
102
}
330
3B
100
AcDbScale
 70
     0
300
1/64" = 1'-0"
140
0.015625
141
12.0
290
     0
  0
SCALE
  5
4F
102
{ACAD_REACTORS
330
3B
102
}
330
3B
100
AcDbScale
 70
     0
300
1/32" = 1'-0"
140
0.03125
141
12.0
290
     0
  0
SCALE
  5
50
102
{ACAD_REACTORS
330
3B
102
}
330
3B
100
AcDbScale
 70
     0
300
1/16" = 1'-0"
140
0.0625
141
12.0
290
     0
  0
SCALE
  5
51
102
{ACAD_REACTORS
330
3B
102
}
330
3B
100
AcDbScale
 70
     0
300
3/32" = 1'-0"
140
0.09375
141
12.0
290
     0
  0
SCALE
  5
52
102
{ACAD_REACTORS
330
3B
102
}
330
3B
100
AcDbScale
 70
     0
300
1/8" = 1'-0"
140
0.125
141
12.0
290
     0
  0
SCALE
  5
53
102
{ACAD_REACTORS
330
3B
102
}
330
3B
100
AcDbScale
 70
     0
300
3/16" = 1'-0"
140
0.1875
141
12.0
290
     0
  0
SCALE
  5
54
102
{ACAD_REACTORS
330
3B
102
}
330
3B
100
AcDbScale
 70
     0
300
1/4" = 1'-0"
140
0.25
141
12.0
290
     0
  0
SCALE
  5
55
102
{ACAD_REACTORS
330
3B
102
}
330
3B
100
AcDbScale
 70
     0
300
3/8" = 1'-0"
140
0.375
141
12.0
290
     0
  0
SCALE
  5
56
102
{ACAD_REACTORS
330
3B
102
}
330
3B
100
AcDbScale
 70
     0
300
1/2" = 1'-0"
140
0.5
141
12.0
290
     0
  0
SCALE
  5
57
102
{ACAD_REACTORS
330
3B
102
}
330
3B
100
AcDbScale
 70
     0
300
3/4" = 1'-0"
140
0.75
141
12.0
290
     0
  0
SCALE
  5
58
102
{ACAD_REACTORS
330
3B
102
}
330
3B
100
AcDbScale
 70
     0
300
1" = 1'-0"
140
1.0
141
12.0
290
     0
  0
SCALE
  5
59
102
{ACAD_REACTORS
330
3B
102
}
330
3B
100
AcDbScale
 70
     0
300
1-1/2" = 1'-0"
140
1.5
141
12.0
290
     0
  0
SCALE
  5
5A
102
{ACAD_REACTORS
330
3B
102
}
330
3B
100
AcDbScale
 70
     0
300
3" = 1'-0"
140
3.0
141
12.0
290
     0
  0
SCALE
  5
5B
102
{ACAD_REACTORS
330
3B
102
}
330
3B
100
AcDbScale
 70
     0
300
6" = 1'-0"
140
6.0
141
12.0
290
     0
  0
SCALE
  5
5C
102
{ACAD_REACTORS
330
3B
102
}
330
3B
100
AcDbScale
 70
     0
300
1'-0" = 1'-0"
140
12.0
141
12.0
290
     0
  0
VISUALSTYLE
  5
2F
102
{ACAD_REACTORS
330
2A
102
}
330
2A
100
AcDbVisualStyle
  2
2dWireframe
 70
     4
 71
     0
 72
     2
 73
     0
 90
        0
 40
-0.6
 41
-30.0
 62
     5
 63
     7
 74
     1
 91
        4
 64
     7
 65
   257
 75
     1
175
     1
 42
1.0
 92
        0
 66
   257
 43
1.0
 76
     1
 77
     6
 78
     2
 67
     7
 79
     5
170
     0
171
     0
290
     0
174
     0
 93
        1
 44
0.0
173
     0
291
     0
 45
0.0
1001
ACAD
1000
AcDbSavedByObjectVersion
1070
     0
  0
VISUALSTYLE
  5
31
102
{ACAD_REACTORS
330
2A
102
}
330
2A
100
AcDbVisualStyle
  2
3D Hidden
 70
     6
 71
     1
 72
     2
 73
     2
 90
        0
 40
-0.6
 41
-30.0
 62
     5
 63
     7
 74
     2
 91
        2
 64
     7
 65
   257
 75
     2
175
     1
 42
40.0
 92
        0
 66
   257
 43
1.0
 76
     1
 77
     6
 78
     2
 67
     7
 79
     3
170
     0
171
     0
290
     0
174
     0
 93
        1
 44
0.0
173
     0
291
     0
 45
0.0
1001
ACAD
1000
AcDbSavedByObjectVersion
1070
     0
  0
VISUALSTYLE
  5
30
102
{ACAD_REACTORS
330
2A
102
}
330
2A
100
AcDbVisualStyle
  2
3dWireframe
 70
     5
 71
     0
 72
     2
 73
     0
 90
        0
 40
-0.6
 41
-30.0
 62
     5
 63
     7
 74
     1
 91
        4
 64
     7
 65
   257
 75
     1
175
     1
 42
1.0
 92
        0
 66
   257
 43
1.0
 76
     1
 77
     6
 78
     2
 67
     7
 79
     5
170
     0
171
     0
290
     0
174
     0
 93
        1
 44
0.0
173
     0
291
     0
 45
0.0
1001
ACAD
1000
AcDbSavedByObjectVersion
1070
     0
  0
VISUALSTYLE
  5
32
102
{ACAD_REACTORS
330
2A
102
}
330
2A
100
AcDbVisualStyle
  2
Basic
 70
     7
 71
     1
 72
     0
 73
     1
 90
        0
 40
-0.6
 41
-30.0
 62
     5
 63
     7
 74
     0
 91
        4
 64
     7
 65
   257
 75
     1
175
     1
 42
1.0
 92
        8
 66
     7
 43
1.0
 76
     1
 77
     6
 78
     2
 67
     7
 79
     5
170
     0
171
     0
290
     0
174
     0
 93
        1
 44
0.0
173
     0
291
     1
 45
0.0
1001
ACAD
1000
AcDbSavedByObjectVersion
1070
     0
  0
VISUALSTYLE
  5
36
102
{ACAD_REACTORS
330
2A
102
}
330
2A
100
AcDbVisualStyle
  2
Brighten
 70
    12
 71
     2
 72
     2
 73
     0
 90
        0
 40
-0.6
 41
-30.0
 62
     5
 63
     7
 74
     1
 91
        4
 64
     7
 65
   257
 75
     1
175
     1
 42
1.0
 92
        8
 66
     7
 43
1.0
 76
     1
 77
     6
 78
     2
 67
     7
 79
     5
170
     0
171
     0
290
     0
174
     0
 93
        1
 44
50.0
173
     0
291
     1
 45
0.0
1001
ACAD
1000
AcDbSavedByObjectVersion
1070
     0
  0
VISUALSTYLE
  5
3A
102
{ACAD_REACTORS
330
2A
102
}
330
2A
100
AcDbVisualStyle
  2
ColorChange
 70
    16
 71
     2
 72
     2
 73
     3
 90
        0
 40
-0.6
 41
-30.0
 62
     5
 63
     8
 74
     1
 91
        4
 64
     7
 65
   257
 75
     1
175
     1
 42
1.0
 92
        8
 66
     8
 43
1.0
 76
     1
 77
     6
 78
     2
 67
     7
 79
     5
170
     0
171
     0
290
     0
174
     0
 93
        1
 44
0.0
173
     0
291
     1
 45
0.0
1001
ACAD
1000
AcDbSavedByObjectVersion
1070
     0
  0
VISUALSTYLE
  5
34
102
{ACAD_REACTORS
330
2A
102
}
330
2A
100
AcDbVisualStyle
  2
Conceptual
 70
     9
 71
     3
 72
     2
 73
     0
 90
        0
 40
-0.6
 41
-30.0
 62
     5
 63
     7
 74
     2
 91
        2
 64
     7
 65
   257
 75
     1
175
     1
 42
40.0
 92
        8
 66
     7
 43
1.0
 76
     1
 77
     6
 78
     2
 67
     7
 79
     3
170
     0
171
     0
290
     0
174
     0
 93
        1
 44
0.0
173
     0
291
     0
 45
0.0
1001
ACAD
1000
AcDbSavedByObjectVersion
1070
     0
  0
VISUALSTYLE
  5
35
102
{ACAD_REACTORS
330
2A
102
}
330
2A
100
AcDbVisualStyle
  2
Dim
 70
    11
 71
     2
 72
     2
 73
     0
 90
        0
 40
-0.6
 41
-30.0
 62
     5
 63
     7
 74
     1
 91
        4
 64
     7
 65
   257
 75
     1
175
     1
 42
1.0
 92
        8
 66
     7
 43
1.0
 76
     1
 77
     6
 78
     2
 67
     7
 79
     5
170
     0
171
     0
290
     0
174
     0
 93
        1
 44
-50.0
173
     0
291
     1
 45
0.0
1001
ACAD
1000
AcDbSavedByObjectVersion
1070
     0
  0
VISUALSTYLE
  5
39
102
{ACAD_REACTORS
330
2A
102
}
330
2A
100
AcDbVisualStyle
  2
Facepattern
 70
    15
 71
     2
 72
     2
 73
     0
 90
        0
 40
-0.6
 41
-30.0
 62
     5
 63
     7
 74
     1
 91
        4
 64
     7
 65
   257
 75
     1
175
     1
 42
1.0
 92
        8
 66
     7
 43
1.0
 76
     1
 77
     6
 78
     2
 67
     7
 79
     5
170
     0
171
     0
290
     0
174
     0
 93
        1
 44
0.0
173
     0
291
     1
 45
0.0
1001
ACAD
1000
AcDbSavedByObjectVersion
1070
     0
  0
VISUALSTYLE
  5
2B
102
{ACAD_REACTORS
330
2A
102
}
330
2A
100
AcDbVisualStyle
  2
Flat
 70
     0
 71
     2
 72
     1
 73
     1
 90
        2
 40
-0.6
 41
30.0
 62
     5
 63
     7
 74
     0
 91
        4
 64
     7
 65
   257
 75
     1
175
     1
 42
1.0
 92
        8
 66
     7
 43
1.0
 76
     1
 77
     6
 78
     2
 67
     7
 79
     5
170
     0
171
     0
290
     0
174
     0
 93
       13
 44
0.0
173
     0
291
     1
 45
0.0
1001
ACAD
1000
AcDbSavedByObjectVersion
1070
     0
  0
VISUALSTYLE
  5
2C
102
{ACAD_REACTORS
330
2A
102
}
330
2A
100
AcDbVisualStyle
  2
FlatWithEdges
 70
     1
 71
     2
 72
     1
 73
     1
 90
        2
 40
-0.6
 41
30.0
 62
     5
 63
     7
 74
     1
 91
        4
 64
     7
 65
   257
 75
     1
175
     1
 42
1.0
 92
        0
 66
   257
 43
1.0
 76
     1
 77
     6
 78
     2
 67
     7
 79
     5
170
     0
171
     0
290
     0
174
     0
 93
       13
 44
0.0
173
     0
291
     1
 45
0.0
1001
ACAD
1000
AcDbSavedByObjectVersion
1070
     0
  0
VISUALSTYLE
  5
2D
102
{ACAD_REACTORS
330
2A
102
}
330
2A
100
AcDbVisualStyle
  2
Gouraud
 70
     2
 71
     2
 72
     2
 73
     1
 90
        2
 40
-0.6
 41
30.0
 62
     5
 63
     7
 74
     0
 91
        4
 64
     7
 65
   257
 75
     1
175
     1
 42
1.0
 92
        0
 66
     7
 43
1.0
 76
     1
 77
     6
 78
     2
 67
     7
 79
     5
170
     0
171
     0
290
     0
174
     0
 93
       13
 44
0.0
173
     0
291
     1
 45
0.0
1001
ACAD
1000
AcDbSavedByObjectVersion
1070
     0
  0
VISUALSTYLE
  5
2E
102
{ACAD_REACTORS
330
2A
102
}
330
2A
100
AcDbVisualStyle
  2
GouraudWithEdges
 70
     3
 71
     2
 72
     2
 73
     1
 90
        2
 40
-0.6
 41
30.0
 62
     5
 63
     7
 74
     1
 91
        4
 64
     7
 65
   257
 75
     1
175
     1
 42
1.0
 92
        0
 66
   257
 43
1.0
 76
     1
 77
     6
 78
     2
 67
     7
 79
     5
170
     0
171
     0
290
     0
174
     0
 93
       13
 44
0.0
173
     0
291
     1
 45
0.0
1001
ACAD
1000
AcDbSavedByObjectVersion
1070
     0
  0
VISUALSTYLE
  5
38
102
{ACAD_REACTORS
330
2A
102
}
330
2A
100
AcDbVisualStyle
  2
Linepattern
 70
    14
 71
     2
 72
     2
 73
     0
 90
        0
 40
-0.6
 41
-30.0
 62
     5
 63
     7
 74
     1
 91
        4
 64
     7
 65
   257
 75
     7
175
     7
 42
1.0
 92
        8
 66
     7
 43
1.0
 76
     1
 77
     6
 78
     2
 67
     7
 79
     5
170
     0
171
     0
290
     0
174
     0
 93
        1
 44
0.0
173
     0
291
     1
 45
0.0
1001
ACAD
1000
AcDbSavedByObjectVersion
1070
     0
  0
VISUALSTYLE
  5
33
102
{ACAD_REACTORS
330
2A
102
}
330
2A
100
AcDbVisualStyle
  2
Realistic
 70
     8
 71
     2
 72
     2
 73
     0
 90
        0
 40
-0.6
 41
-30.0
 62
     5
 63
     7
 74
     1
 91
        0
 64
     7
 65
   257
 75
     1
175
     1
 42
1.0
 92
        8
 66
     8
 43
1.0
 76
     1
 77
     6
 78
     2
 67
     7
 79
     5
170
     0
171
     0
290
     0
174
     0
 93
       13
 44
0.0
173
     0
291
     0
 45
0.0
1001
ACAD
1000
AcDbSavedByObjectVersion
1070
     0
  0
VISUALSTYLE
  5
37
102
{ACAD_REACTORS
330
2A
102
}
330
2A
100
AcDbVisualStyle
  2
Thicken
 70
    13
 71
     2
 72
     2
 73
     0
 90
        0
 40
-0.6
 41
-30.0
 62
     5
 63
     7
 74
     1
 91
        4
 64
     7
 65
   257
 75
     1
175
     1
 42
1.0
 92
       12
 66
     7
 43
1.0
 76
     1
 77
     6
 78
     2
 67
     7
 79
     5
170
     0
171
     0
290
     0
174
     0
 93
        1
 44
0.0
173
     0
291
     1
 45
0.0
1001
ACAD
1000
AcDbSavedByObjectVersion
1070
     0
  0
DICTIONARYVAR
  5
306
102
{ACAD_REACTORS
330
305
102
}
330
305
100
DictionaryVariables
280
     0
  1
1:1
  0
DICTIONARYVAR
  5
30A
102
{ACAD_REACTORS
330
305
102
}
330
305
100
DictionaryVariables
280
     0
  1
80.000000
  0
DICTIONARYVAR
  5
309
102
{ACAD_REACTORS
330
305
102
}
330
305
100
DictionaryVariables
280
     0
  1
5.000000
  0
ENDSEC
  0
EOF
