  0
SECTION
  2
HEADER
  9
$ACADVER
  1
AC1015
  9
$ACADMAINTVER
 70
     6
  9
$DWGCODEPAGE
  3
ANSI_1252
  9
$INSBASE
 10
0.0
 20
0.0
 30
0.0
  9
$EXTMIN
 10
0.0
 20
0.0
 30
0.0
  9
$EXTMAX
 10
1682.0
 20
2378.0
 30
0.0
  9
$LIMMIN
 10
0.0
 20
0.0
  9
$LIMMAX
 10
1682.0
 20
2378.0
  9
$ORTHOMODE
 70
     0
  9
$REGENMODE
 70
     1
  9
$FILLMODE
 70
     1
  9
$QTEXTMODE
 70
     0
  9
$MIRRTEXT
 70
     1
  9
$LTSCALE
 40
1.0
  9
$ATTMODE
 70
     1
  9
$TEXTSIZE
 40
2.5
  9
$TRACEWID
 40
1.0
  9
$TEXTSTYLE
  7
Standard
  9
$CLAYER
  8
0
  9
$CELTYPE
  6
ByLayer
  9
$CECOLOR
 62
   256
  9
$CELTSCALE
 40
1.0
  9
$DISPSILH
 70
     0
  9
$DIMSCALE
 40
1.0
  9
$DIMASZ
 40
2.5
  9
$DIMEXO
 40
0.625
  9
$DIMDLI
 40
3.75
  9
$DIMRND
 40
0.0
  9
$DIMDLE
 40
0.0
  9
$DIMEXE
 40
1.25
  9
$DIMTP
 40
0.0
  9
$DIMTM
 40
0.0
  9
$DIMTXT
 40
2.5
  9
$DIMCEN
 40
2.5
  9
$DIMTSZ
 40
0.0
  9
$DIMTOL
 70
     0
  9
$DIMLIM
 70
     0
  9
$DIMTIH
 70
     0
  9
$DIMTOH
 70
     0
  9
$DIMSE1
 70
     0
  9
$DIMSE2
 70
     0
  9
$DIMTAD
 70
     1
  9
$DIMZIN
 70
     8
  9
$DIMBLK
  1

  9
$DIMASO
 70
     1
  9
$DIMSHO
 70
     1
  9
$DIMPOST
  1

  9
$DIMAPOST
  1

  9
$DIMALT
 70
     0
  9
$DIMALTD
 70
     3
  9
$DIMALTF
 40
0.0393700787
  9
$DIMLFAC
 40
1.0
  9
$DIMTOFL
 70
     1
  9
$DIMTVP
 40
0.0
  9
$DIMTIX
 70
     0
  9
$DIMSOXD
 70
     0
  9
$DIMSAH
 70
     0
  9
$DIMBLK1
  1

  9
$DIMBLK2
  1

  9
$DIMSTYLE
  2
ISO-25
  9
$DIMCLRD
 70
     0
  9
$DIMCLRE
 70
     0
  9
$DIMCLRT
 70
     0
  9
$DIMTFAC
 40
1.0
  9
$DIMGAP
 40
0.625
  9
$DIMJUST
 70
     0
  9
$DIMSD1
 70
     0
  9
$DIMSD2
 70
     0
  9
$DIMTOLJ
 70
     0
  9
$DIMTZIN
 70
     8
  9
$DIMALTZ
 70
     0
  9
$DIMALTTZ
 70
     0
  9
$DIMUPT
 70
     0
  9
$DIMDEC
 70
     2
  9
$DIMTDEC
 70
     2
  9
$DIMALTU
 70
     2
  9
$DIMALTTD
 70
     3
  9
$DIMTXSTY
  7
Standard
  9
$DIMAUNIT
 70
     0
  9
$DIMADEC
 70
     0
  9
$DIMALTRND
 40
0.0
  9
$DIMAZIN
 70
     0
  9
$DIMDSEP
 70
    44
  9
$DIMATFIT
 70
     3
  9
$DIMFRAC
 70
     0
  9
$DIMLDRBLK
  1

  9
$DIMLUNIT
 70
     2
  9
$DIMLWD
 70
    -2
  9
$DIMLWE
 70
    -2
  9
$DIMTMOVE
 70
     0
  9
$LUNITS
 70
     2
  9
$LUPREC
 70
     4
  9
$SKETCHINC
 40
1.0
  9
$FILLETRAD
 40
10.0
  9
$AUNITS
 70
     0
  9
$AUPREC
 70
     0
  9
$MENU
  1
.
  9
$ELEVATION
 40
0.0
  9
$PELEVATION
 40
0.0
  9
$THICKNESS
 40
0.0
  9
$LIMCHECK
 70
     0
  9
$CHAMFERA
 40
10.0
  9
$CHAMFERB
 40
10.0
  9
$CHAMFERC
 40
20.0
  9
$CHAMFERD
 40
0.0
  9
$SKPOLY
 70
     0
  9
$TDCREATE
 40
2455442.536447361
  9
$TDUCREATE
 40
2455442.453114028
  9
$TDUPDATE
 40
2455442.536447373
  9
$TDUUPDATE
 40
2455442.453114039
  9
$TDINDWG
 40
0.0000000116
  9
$TDUSRTIMER
 40
0.0000000116
  9
$USRTIMER
 70
     1
  9
$ANGBASE
 50
0.0
  9
$ANGDIR
 70
     0
  9
$PDMODE
 70
     0
  9
$PDSIZE
 40
0.0
  9
$PLINEWID
 40
0.0
  9
$SPLFRAME
 70
     0
  9
$SPLINETYPE
 70
     6
  9
$SPLINESEGS
 70
     8
  9
$HANDSEED
  5
2EB
  9
$SURFTAB1
 70
     6
  9
$SURFTAB2
 70
     6
  9
$SURFTYPE
 70
     6
  9
$SURFU
 70
     6
  9
$SURFV
 70
     6
  9
$UCSBASE
  2

  9
$UCSNAME
  2

  9
$UCSORG
 10
0.0
 20
0.0
 30
0.0
  9
$UCSXDIR
 10
1.0
 20
0.0
 30
0.0
  9
$UCSYDIR
 10
0.0
 20
1.0
 30
0.0
  9
$UCSORTHOREF
  2

  9
$UCSORTHOVIEW
 70
     0
  9
$UCSORGTOP
 10
0.0
 20
0.0
 30
0.0
  9
$UCSORGBOTTOM
 10
0.0
 20
0.0
 30
0.0
  9
$UCSORGLEFT
 10
0.0
 20
0.0
 30
0.0
  9
$UCSORGRIGHT
 10
0.0
 20
0.0
 30
0.0
  9
$UCSORGFRONT
 10
0.0
 20
0.0
 30
0.0
  9
$UCSORGBACK
 10
0.0
 20
0.0
 30
0.0
  9
$PUCSBASE
  2

  9
$PUCSNAME
  2

  9
$PUCSORG
 10
0.0
 20
0.0
 30
0.0
  9
$PUCSXDIR
 10
1.0
 20
0.0
 30
0.0
  9
$PUCSYDIR
 10
0.0
 20
1.0
 30
0.0
  9
$PUCSORTHOREF
  2

  9
$PUCSORTHOVIEW
 70
     0
  9
$PUCSORGTOP
 10
0.0
 20
0.0
 30
0.0
  9
$PUCSORGBOTTOM
 10
0.0
 20
0.0
 30
0.0
  9
$PUCSORGLEFT
 10
0.0
 20
0.0
 30
0.0
  9
$PUCSORGRIGHT
 10
0.0
 20
0.0
 30
0.0
  9
$PUCSORGFRONT
 10
0.0
 20
0.0
 30
0.0
  9
$PUCSORGBACK
 10
0.0
 20
0.0
 30
0.0
  9
$USERI1
 70
     0
  9
$USERI2
 70
     0
  9
$USERI3
 70
     0
  9
$USERI4
 70
     0
  9
$USERI5
 70
     0
  9
$USERR1
 40
0.0
  9
$USERR2
 40
0.0
  9
$USERR3
 40
0.0
  9
$USERR4
 40
0.0
  9
$USERR5
 40
0.0
  9
$WORLDVIEW
 70
     1
  9
$SHADEDGE
 70
     3
  9
$SHADEDIF
 70
    70
  9
$TILEMODE
 70
     1
  9
$MAXACTVP
 70
    64
  9
$PINSBASE
 10
0.0
 20
0.0
 30
0.0
  9
$PLIMCHECK
 70
     0
  9
$PEXTMIN
 10
0.0
 20
0.0
 30
0.0
  9
$PEXTMAX
 10
1682.0
 20
2378.0
 30
0.0
  9
$PLIMMIN
 10
0.0
 20
0.0
  9
$PLIMMAX
 10
1682.0
 20
2378.0
  9
$UNITMODE
 70
     0
  9
$VISRETAIN
 70
     1
  9
$PLINEGEN
 70
     0
  9
$PSLTSCALE
 70
     1
  9
$TREEDEPTH
 70
  3020
  9
$CMLSTYLE
  2
Standard
  9
$CMLJUST
 70
     0
  9
$CMLSCALE
 40
20.0
  9
$PROXYGRAPHICS
 70
     1
  9
$MEASUREMENT
 70
     1
  9
$CELWEIGHT
370
    -1
  9
$ENDCAPS
280
     0
  9
$JOINSTYLE
280
     0
  9
$LWDISPLAY
290
     0
  9
$INSUNITS
 70
     4
  9
$HYPERLINKBASE
  1

  9
$STYLESHEET
  1

  9
$XEDIT
290
     1
  9
$CEPSNTYPE
380
     0
  9
$PSTYLEMODE
290
     1
  9
$FINGERPRINTGUID
  2
{270ED3D0-37DF-485B-B4D1-1DEE6D493138}
  9
$VERSIONGUID
  2
{FAEB1C32-E019-11D5-929B-00C0DF256EC4}
  9
$EXTNAMES
290
     1
  9
$PSVPSCALE
 40
0.0
  9
$OLESTARTUP
290
     0
  0
ENDSEC
  0
SECTION
  2
CLASSES
  0
CLASS
  1
ACDBDICTIONARYWDFLT
  2
AcDbDictionaryWithDefault
  3
ObjectDBX Classes
 90
        0
280
     0
281
     0
  0
CLASS
  1
VISUALSTYLE
  2
AcDbVisualStyle
  3
ObjectDBX Classes
 90
     4095
280
     0
281
     0
  0
CLASS
  1
SCALE
  2
AcDbScale
  3
ObjectDBX Classes
 90
     1153
280
     0
281
     0
  0
CLASS
  1
DICTIONARYVAR
  2
AcDbDictionaryVar
  3
ObjectDBX Classes
 90
        0
280
     0
281
     0
  0
CLASS
  1
ACDBPLACEHOLDER
  2
AcDbPlaceHolder
  3
ObjectDBX Classes
 90
        0
280
     0
281
     0
  0
CLASS
  1
LAYOUT
  2
AcDbLayout
  3
ObjectDBX Classes
 90
        0
280
     0
281
     0
  0
ENDSEC
  0
SECTION
  2
TABLES
  0
TABLE
  2
VPORT
  5
8
330
0
100
AcDbSymbolTable
 70
     1
  0
VPORT
  5
29
330
8
100
AcDbSymbolTableRecord
100
AcDbViewportTableRecord
  2
*Active
 70
     0
 10
0.0
 20
0.0
 11
1.0
 21
1.0
 12
344.1869158879
 22
148.5
 13
0.0
 23
0.0
 14
10.0
 24
10.0
 15
10.0
 25
10.0
 16
0.0
 26
0.0
 36
1.0
 17
0.0
 27
0.0
 37
0.0
 40
297.0
 41
1.9729729729
 42
50.0
 43
0.0
 44
0.0
 50
0.0
 51
0.0
 71
     0
 72
   100
 73
     1
 74
     3
 75
     0
 76
     0
 77
     0
 78
     0
281
     0
 65
     1
110
0.0
120
0.0
130
0.0
111
1.0
121
0.0
131
0.0
112
0.0
122
1.0
132
0.0
 79
     0
146
0.0
  0
ENDTAB
  0
TABLE
  2
LTYPE
  5
5
330
0
100
AcDbSymbolTable
 70
     1
  0
LTYPE
  5
14
330
5
100
AcDbSymbolTableRecord
100
AcDbLinetypeTableRecord
  2
ByBlock
 70
     0
  3

 72
    65
 73
     0
 40
0.0
  0
LTYPE
  5
15
330
5
100
AcDbSymbolTableRecord
100
AcDbLinetypeTableRecord
  2
ByLayer
 70
     0
  3

 72
    65
 73
     0
 40
0.0
  0
LTYPE
  5
16
330
5
100
AcDbSymbolTableRecord
100
AcDbLinetypeTableRecord
  2
Continuous
 70
     0
  3
Solid line
 72
    65
 73
     0
 40
0.0
  0
ENDTAB
  0
TABLE
  2
LAYER
  5
2
330
0
100
AcDbSymbolTable
 70
    12
  0
LAYER
  5
10
330
2
100
AcDbSymbolTableRecord
100
AcDbLayerTableRecord
  2
0
 70
     0
 62
     7
  6
Continuous
370
    -3
390
F
  0
LAYER
  5
5D
330
2
100
AcDbSymbolTableRecord
100
AcDbLayerTableRecord
  2
Default
 70
     0
 62
     7
  6
Continuous
370
    -3
390
F
  0
LAYER
  5
60
330
2
100
AcDbSymbolTableRecord
100
AcDbLayerTableRecord
  2
$DDT_AUDIT_GENERATED_(60)
 70
     0
 62
     7
  6
Continuous
370
    -3
390
F
  0
LAYER
  5
65
330
2
100
AcDbSymbolTableRecord
100
AcDbLayerTableRecord
  2
$DDT_AUDIT_GENERATED_(65)
 70
     0
 62
     7
  6
Continuous
370
    -3
390
F
  0
LAYER
  5
A1
330
2
100
AcDbSymbolTableRecord
100
AcDbLayerTableRecord
  2
$DDT_AUDIT_GENERATED_(A1)
 70
     0
 62
     7
  6
Continuous
370
    -3
390
F
  0
LAYER
  5
AB
330
2
100
AcDbSymbolTableRecord
100
AcDbLayerTableRecord
  2
$DDT_AUDIT_GENERATED_(AB)
 70
     0
 62
     7
  6
Continuous
370
    -3
390
F
  0
LAYER
  5
BC
330
2
100
AcDbSymbolTableRecord
100
AcDbLayerTableRecord
  2
$DDT_AUDIT_GENERATED_(BC)
 70
     0
 62
     7
  6
Continuous
370
    -3
390
F
  0
LAYER
  5
C1
330
2
100
AcDbSymbolTableRecord
100
AcDbLayerTableRecord
  2
$DDT_AUDIT_GENERATED_(C1)
 70
     0
 62
     7
  6
Continuous
370
    -3
390
F
  0
LAYER
  5
C6
330
2
100
AcDbSymbolTableRecord
100
AcDbLayerTableRecord
  2
$DDT_AUDIT_GENERATED_(C6)
 70
     0
 62
     7
  6
Continuous
370
    -3
390
F
  0
LAYER
  5
110
330
2
100
AcDbSymbolTableRecord
100
AcDbLayerTableRecord
  2
$DDT_AUDIT_GENERATED_(110)
 70
     0
 62
     7
  6
Continuous
370
    -3
390
F
  0
LAYER
  5
13D
330
2
100
AcDbSymbolTableRecord
100
AcDbLayerTableRecord
  2
$DDT_AUDIT_GENERATED_(13D)
 70
     0
 62
     7
  6
Continuous
370
    -3
390
F
  0
LAYER
  5
14D
330
2
100
AcDbSymbolTableRecord
100
AcDbLayerTableRecord
  2
$DDT_AUDIT_GENERATED_(14D)
 70
     0
 62
     7
  6
Continuous
370
    -3
390
F
  0
ENDTAB
  0
TABLE
  2
STYLE
  5
3
330
0
100
AcDbSymbolTable
 70
     2
  0
STYLE
  5
11
330
3
100
AcDbSymbolTableRecord
100
AcDbTextStyleTableRecord
  2
Standard
 70
     0
 40
0.0
 41
1.0
 50
0.0
 71
     0
 42
2.5
  3
txt
  4

  0
STYLE
  5
2DA
330
3
100
AcDbSymbolTableRecord
100
AcDbTextStyleTableRecord
  2
SEACAD_seiso_ttf
 70
     0
 40
0.0
 41
1.0
 50
0.0
 71
     0
 42
0.2
  3
seiso.ttf
  4

  0
ENDTAB
  0
TABLE
  2
VIEW
  5
6
330
0
100
AcDbSymbolTable
 70
     0
  0
ENDTAB
  0
TABLE
  2
UCS
  5
7
330
0
100
AcDbSymbolTable
 70
     0
  0
ENDTAB
  0
TABLE
  2
APPID
  5
9
330
0
100
AcDbSymbolTable
 70
     1
  0
APPID
  5
12
330
9
100
AcDbSymbolTableRecord
100
AcDbRegAppTableRecord
  2
ACAD
 70
     0
  0
ENDTAB
  0
TABLE
  2
DIMSTYLE
  5
A
330
0
100
AcDbSymbolTable
 70
     1
100
AcDbDimStyleTable
  0
DIMSTYLE
105
27
330
A
100
AcDbSymbolTableRecord
100
AcDbDimStyleTableRecord
  2
ISO-25
 70
     0
 41
2.5
 42
0.625
 43
3.75
 44
1.25
 73
     0
 74
     0
 77
     1
 78
     8
140
2.5
141
2.5
143
0.0393700787
147
0.625
171
     3
172
     1
271
     2
272
     2
274
     3
278
    44
283
     0
284
     8
340
11
  0
ENDTAB
  0
TABLE
  2
BLOCK_RECORD
  5
1
330
0
100
AcDbSymbolTable
 70
     4
  0
BLOCK_RECORD
  5
1F
330
1
100
AcDbSymbolTableRecord
100
AcDbBlockTableRecord
  2
*Model_Space
340
22
  0
BLOCK_RECORD
  5
1B
330
1
100
AcDbSymbolTableRecord
100
AcDbBlockTableRecord
  2
*Paper_Space
340
1E
  0
BLOCK_RECORD
  5
5E
330
1
100
AcDbSymbolTableRecord
100
AcDbBlockTableRecord
  2
SE
340
0
102
{BLKREFS
331
5F
102
}
  0
BLOCK_RECORD
  5
138
330
1
100
AcDbSymbolTableRecord
100
AcDbBlockTableRecord
  2
SE1
340
0
102
{BLKREFS
331
139
102
}
  0
BLOCK_RECORD
  5
21A
330
1
100
AcDbSymbolTableRecord
100
AcDbBlockTableRecord
  2
SE2
340
0
102
{BLKREFS
331
21B
102
}
  0
ENDTAB
  0
ENDSEC
  0
SECTION
  2
BLOCKS
  0
BLOCK
  5
20
330
1F
100
AcDbEntity
  8
0
100
AcDbBlockBegin
  2
*Model_Space
 70
     0
 10
0.0
 20
0.0
 30
0.0
  3
*Model_Space
  1

  0
ENDBLK
  5
21
330
1F
100
AcDbEntity
  8
0
100
AcDbBlockEnd
  0
BLOCK
  5
1C
330
1B
100
AcDbEntity
 67
     1
  8
0
100
AcDbBlockBegin
  2
*Paper_Space
 70
     0
 10
0.0
 20
0.0
 30
0.0
  3
*Paper_Space
  1

  0
ENDBLK
  5
1D
330
1B
100
AcDbEntity
 67
     1
  8
0
100
AcDbBlockEnd
  0
BLOCK
  5
136
330
5E
100
AcDbEntity
  8
0
100
AcDbBlockBegin
  2
SE
 70
     0
 10
0.0
 20
0.0
 30
0.0
  3
SE
  1

  0
ARC
  5
61
330
5E
100
AcDbEntity
  8
$DDT_AUDIT_GENERATED_(60)
  6
Continuous
 62
     7
100
AcDbCircle
 10
120.7723375737
 20
439.7479285513
 30
0.0
 40
26.25
100
AcDbArc
 50
347.86532653
 51
0.0
  0
ARC
  5
62
330
5E
100
AcDbEntity
  8
$DDT_AUDIT_GENERATED_(60)
  6
Continuous
 62
     7
100
AcDbCircle
 10
120.7723375737
 20
439.7479285513
 30
0.0
 40
26.25
100
AcDbArc
 50
227.86532653
 51
312.13467347
  0
ARC
  5
63
330
5E
100
AcDbEntity
  8
$DDT_AUDIT_GENERATED_(60)
  6
Continuous
 62
     7
100
AcDbCircle
 10
120.7723375737
 20
439.7479285513
 30
0.0
 40
26.25
100
AcDbArc
 50
107.86532653
 51
192.13467347
  0
ARC
  5
64
330
5E
100
AcDbEntity
  8
$DDT_AUDIT_GENERATED_(60)
  6
Continuous
 62
     7
100
AcDbCircle
 10
120.7723375737
 20
439.7479285513
 30
0.0
 40
26.25
100
AcDbArc
 50
0.0
 51
72.13467347
  0
ARC
  5
66
330
5E
100
AcDbEntity
  8
$DDT_AUDIT_GENERATED_(65)
  6
Continuous
 62
     7
100
AcDbCircle
 10
100.7723684535
 20
451.2949161066
 30
0.0
 40
12.5
100
AcDbArc
 50
300.0
 51
0.0
  0
LINE
  5
67
330
5E
100
AcDbEntity
  8
$DDT_AUDIT_GENERATED_(65)
  6
Continuous
 62
     7
100
AcDbLine
 10
107.0223684535
 20
440.4695985593
 30
0.0
 11
98.2654438162
 21
435.4137857627
 31
0.0
  0
ARC
  5
68
330
5E
100
AcDbEntity
  8
$DDT_AUDIT_GENERATED_(65)
  6
Continuous
 62
     7
100
AcDbCircle
 10
120.7723375737
 20
416.6539534406
 30
0.0
 40
12.5
100
AcDbArc
 50
60.0
 51
120.0
  0
ARC
  5
69
330
5E
100
AcDbEntity
  8
$DDT_AUDIT_GENERATED_(65)
  6
Continuous
 62
     7
100
AcDbCircle
 10
140.7723066939
 20
451.2949161066
 30
0.0
 40
12.49999999999999
100
AcDbArc
 50
180.0
 51
240.0
  0
LINE
  5
6A
330
5E
100
AcDbEntity
  8
$DDT_AUDIT_GENERATED_(65)
  6
Continuous
 62
     7
100
AcDbLine
 10
128.2723066939
 20
451.2949161066
 30
0.0
 11
128.2723066939
 21
461.4065416998
 31
0.0
  0
LINE
  5
6B
330
5E
100
AcDbEntity
  8
$DDT_AUDIT_GENERATED_(65)
  6
Continuous
 62
     7
100
AcDbLine
 10
127.0223375737
 20
427.4792709879
 30
0.0
 11
135.7792622109
 21
422.4234581913
 31
0.0
  0
ARC
  5
6C
330
5E
100
AcDbEntity
  8
$DDT_AUDIT_GENERATED_(65)
  6
Continuous
 62
     7
100
AcDbCircle
 10
120.7723375737
 20
439.7479285513
 30
0.0
 40
28.10217298590241
100
AcDbArc
 50
100.2601587312
 51
105.0384736948
  0
ELLIPSE
  5
6D
330
5E
100
AcDbEntity
  8
$DDT_AUDIT_GENERATED_(65)
  6
Continuous
 62
     7
100
AcDbEllipse
 10
150.9730042104
 20
387.438832108
 30
0.0
 11
-1124.3656538509
 21
-649.1528131408439
 31
0.0
210
0.0
220
0.0
230
1.0
 40
0.0523359493
 41
-1.561902322300717
 42
-1.554624908093063
  0
ELLIPSE
  5
6E
330
5E
100
AcDbEntity
  8
$DDT_AUDIT_GENERATED_(65)
  6
Continuous
 62
     7
100
AcDbEllipse
 10
150.9730102877
 20
492.0570202247
 30
0.0
 11
1124.365645034397
 21
-649.152807535679
 31
0.0
210
0.0
220
0.0
230
1.0
 40
0.0523359488
 41
-1.561902322417979
 42
-1.554624908151848
  0
ELLIPSE
  5
6F
330
5E
100
AcDbEntity
  8
$DDT_AUDIT_GENERATED_(65)
  6
Continuous
 62
     7
100
AcDbEllipse
 10
60.3709990002
 20
439.7479325017
 30
0.0
 11
0.0
 21
68.91956162165613
 31
0.0
210
0.0
220
0.0
230
1.0
 40
1.0
 41
-1.40245951234009
 42
-1.271085444245809
  0
SPLINE
  5
70
330
5E
100
AcDbEntity
  8
$DDT_AUDIT_GENERATED_(65)
  6
Continuous
 62
     7
100
AcDbSpline
210
0.0
220
0.0
230
1.0
 70
     8
 71
     3
 72
    10
 73
     6
 74
     0
 42
0.0000000164907823
 43
0.0000000001
 40
0.0
 40
0.0
 40
0.0
 40
0.0
 40
0.5
 40
0.5
 40
1.0
 40
1.0
 40
1.0
 40
1.0
 10
112.3589834603138
 20
462.2249272958466
 30
0.0
 10
112.4530512061796
 20
462.260137746566
 30
0.0
 10
112.5343532950559
 20
462.323157140285
 30
0.0
 10
112.6492368177698
 20
462.4854599006974
 30
0.0
 10
112.6818483355506
 20
462.5840061790891
 30
0.0
 10
112.6836012840176
 20
462.6844325295053
 30
0.0
  0
LINE
  5
71
330
5E
100
AcDbEntity
  8
$DDT_AUDIT_GENERATED_(65)
  6
Continuous
 62
     7
100
AcDbLine
 10
96.8643743097
 20
435.2847276735
 30
0.0
 11
94.0738676975
 21
433.6080221431
 31
0.0
  0
ARC
  5
72
330
5E
100
AcDbEntity
  8
$DDT_AUDIT_GENERATED_(65)
  6
Continuous
 62
     7
100
AcDbCircle
 10
120.7723375737
 20
439.7479285513
 30
0.0
 40
24.0
100
AcDbArc
 50
110.521352102
 51
189.478647898
  0
SPLINE
  5
73
330
5E
100
AcDbEntity
  8
$DDT_AUDIT_GENERATED_(65)
  6
Continuous
 62
     7
100
AcDbSpline
210
0.0
220
0.0
230
1.0
 70
     8
 71
     3
 72
    10
 73
     6
 74
     0
 42
0.0000000164907823
 43
0.0000000001
 40
0.0
 40
0.0
 40
0.0
 40
0.0
 40
0.5
 40
0.5
 40
1.0
 40
1.0
 40
1.0
 40
1.0
 10
96.86437430970525
 20
435.2847276735323
 30
0.0
 10
96.9504695718602
 20
435.3364589260461
 30
0.0
 10
97.01895448593213
 20
435.4132136665179
 30
0.0
 10
97.10240421252367
 20
435.5937034251206
 30
0.0
 10
97.11654933809112
 20
435.6965372498062
 30
0.0
 10
97.1000086033737
 20
435.7956075722104
 30
0.0
  0
SPLINE
  5
74
330
5E
100
AcDbEntity
  8
$DDT_AUDIT_GENERATED_(65)
  6
Continuous
 62
     7
100
AcDbSpline
210
0.0
220
0.0
230
1.0
 70
     8
 71
     3
 72
    10
 73
     6
 74
     0
 42
0.0000000164907823
 43
0.0000000001
 40
0.0
 40
0.0
 40
0.0
 40
0.0
 40
0.5
 40
0.5
 40
1.0
 40
1.0
 40
1.0
 40
1.0
 10
105.5133627167395
 20
421.2232507857922
 30
0.0
 10
105.4358356990049
 20
421.287110618029
 30
0.0
 10
105.3406082586751
 20
421.3260105955172
 30
0.0
 10
105.1426081836966
 20
421.3443512644574
 30
0.0
 10
105.0409588442706
 20
421.3233205281157
 30
0.0
 10
104.9531105993673
 20
421.2746254508116
 30
0.0
  0
SPLINE
  5
75
330
5E
100
AcDbEntity
  8
$DDT_AUDIT_GENERATED_(65)
  6
Continuous
 62
     7
100
AcDbSpline
210
0.0
220
0.0
230
1.0
 70
     8
 71
     3
 72
    10
 73
     6
 74
     0
 42
0.0000000164907823
 43
0.0000000001
 40
0.0
 40
0.0
 40
0.0
 40
0.0
 40
0.5
 40
0.5
 40
1.0
 40
1.0
 40
1.0
 40
1.0
 10
144.4446665439854
 20
435.7956075722103
 30
0.0
 10
144.4281258158542
 20
435.6965372892541
 30
0.0
 10
144.4420511673078
 20
435.594617918047
 30
0.0
 10
144.5251677195724
 20
435.4139744886942
 30
0.0
 10
144.5942055412176
 20
435.3364589466443
 30
0.0
 10
144.6803008376538
 20
435.2847276735322
 30
0.0
  0
LINE
  5
76
330
5E
100
AcDbEntity
  8
$DDT_AUDIT_GENERATED_(65)
  6
Continuous
 62
     7
100
AcDbLine
 10
136.591564548
 20
421.2746254508
 30
0.0
 11
139.4388874381
 21
419.6963286004
 31
0.0
  0
ARC
  5
77
330
5E
100
AcDbEntity
  8
$DDT_AUDIT_GENERATED_(65)
  6
Continuous
 62
     7
100
AcDbCircle
 10
120.7723375737
 20
439.7479285513
 30
0.0
 40
24.00000000000001
100
AcDbArc
 50
230.521352102
 51
309.478647898
  0
SPLINE
  5
78
330
5E
100
AcDbEntity
  8
$DDT_AUDIT_GENERATED_(65)
  6
Continuous
 62
     7
100
AcDbSpline
210
0.0
220
0.0
230
1.0
 70
     8
 71
     3
 72
    10
 73
     6
 74
     0
 42
0.0000000164907823
 43
0.0000000001
 40
0.0
 40
0.0
 40
0.0
 40
0.0
 40
0.5000000000000043
 40
0.5000000000000043
 40
1.0
 40
1.0
 40
1.0
 40
1.0
 10
136.5915645479918
 20
421.2746254508115
 30
0.0
 10
136.5037163380678
 20
421.3233205087263
 30
0.0
 10
136.4030023259223
 20
421.3442528138526
 30
0.0
 10
136.2049687465538
 20
421.3262775177185
 30
0.0
 10
136.108839479224
 20
421.2871106434568
 30
0.0
 10
136.0313124306196
 20
421.2232507857922
 30
0.0
  0
LINE
  5
79
330
5E
100
AcDbEntity
  8
$DDT_AUDIT_GENERATED_(65)
  6
Continuous
 62
     7
100
AcDbLine
 10
128.8610738633
 20
462.6844325295
 30
0.0
 11
128.8042575854
 21
465.9394349103
 31
0.0
  0
ARC
  5
7A
330
5E
100
AcDbEntity
  8
$DDT_AUDIT_GENERATED_(65)
  6
Continuous
 62
     7
100
AcDbCircle
 10
120.7723375737
 20
439.7479285513
 30
0.0
 40
24.0
100
AcDbArc
 50
350.521352102
 51
69.478647898
  0
SPLINE
  5
7B
330
5E
100
AcDbEntity
  8
$DDT_AUDIT_GENERATED_(65)
  6
Continuous
 62
     7
100
AcDbSpline
210
0.0
220
0.0
230
1.0
 70
     8
 71
     3
 72
    10
 73
     6
 74
     0
 42
0.0000000164907823
 43
0.0000000001
 40
0.0
 40
0.0
 40
0.0
 40
0.0
 40
0.5
 40
0.5
 40
1.0
 40
1.0
 40
1.0
 40
1.0
 10
128.8610738633415
 20
462.6844325295053
 30
0.0
 10
128.8628268111106
 20
462.5840062190768
 30
0.0
 10
128.8950559091842
 20
462.4863191734785
 30
0.0
 10
129.0096397619612
 20
462.3238047110101
 30
0.0
 10
129.0916239037236
 20
462.2601377605861
 30
0.0
 10
129.1856916870454
 20
462.2249272958466
 30
0.0
  0
ARC
  5
7C
330
5E
100
AcDbEntity
  8
$DDT_AUDIT_GENERATED_(65)
  6
Continuous
 62
     7
100
AcDbCircle
 10
120.7723375737
 20
439.7479285513
 30
0.0
 40
28.10217298590242
100
AcDbArc
 50
194.9615263052
 51
225.0384736948
  0
SPLINE
  5
7D
330
5E
100
AcDbEntity
  8
$DDT_AUDIT_GENERATED_(65)
  6
Continuous
 62
     7
100
AcDbSpline
210
0.0
220
0.0
230
1.0
 70
     8
 71
     3
 72
    10
 73
     6
 74
     0
 42
0.0000000076150316
 43
0.0000000001
 40
0.0
 40
0.0
 40
0.0
 40
0.0
 40
0.5
 40
0.5
 40
1.0
 40
1.0
 40
1.0
 40
1.0
 10
93.62284501232932
 20
432.4927800213926
 30
0.0
 10
93.56680944498696
 20
432.7024707275808
 30
0.0
 10
93.58076817303568
 20
432.9248884098619
 30
0.0
 10
93.74251055178418
 20
433.3255624515294
 30
0.0
 10
93.88782051806402
 20
433.496233719718
 30
0.0
 10
94.07386769749407
 20
433.6080221431187
 30
0.0
  0
LINE
  5
7E
330
5E
100
AcDbEntity
  8
$DDT_AUDIT_GENERATED_(65)
  6
Continuous
 62
     7
100
AcDbLine
 10
102.1057877093
 20
419.6963286004
 30
0.0
 11
104.9531105994
 21
421.2746254508
 31
0.0
  0
SPLINE
  5
7F
330
5E
100
AcDbEntity
  8
$DDT_AUDIT_GENERATED_(65)
  6
Continuous
 62
     7
100
AcDbSpline
210
0.0
220
0.0
230
1.0
 70
     8
 71
     3
 72
    10
 73
     6
 74
     0
 42
0.0000000076150316
 43
0.0000000001
 40
0.0
 40
0.0
 40
0.0
 40
0.0
 40
0.5
 40
0.5
 40
1.0
 40
1.0
 40
1.0
 40
1.0
 10
102.1057877092575
 20
419.6963286004151
 30
0.0
 10
101.9159525604588
 20
419.5911012591521
 30
0.0
 10
101.6967917980791
 20
419.5506904720619
 30
0.0
 10
101.268850267763
 20
419.6104092411481
 30
0.0
 10
101.0680280975589
 20
419.7099789355308
 30
0.0
 10
100.91444835789
 20
419.8633525582424
 30
0.0
  0
LINE
  5
80
330
5E
100
AcDbEntity
  8
$DDT_AUDIT_GENERATED_(65)
  6
Continuous
 62
     7
100
AcDbLine
 10
147.4708074499
 20
433.6080221431
 30
0.0
 11
144.6803008377
 21
435.2847276735
 31
0.0
  0
SPLINE
  5
81
330
5E
100
AcDbEntity
  8
$DDT_AUDIT_GENERATED_(65)
  6
Continuous
 62
     7
100
AcDbSpline
210
0.0
220
0.0
230
1.0
 70
     8
 71
     3
 72
    10
 73
     6
 74
     0
 42
0.0000000076150316
 43
0.0000000001
 40
0.0
 40
0.0
 40
0.0
 40
0.0
 40
0.5
 40
0.5
 40
1.0
 40
1.0
 40
1.0
 40
1.0
 10
147.470807449865
 20
433.6080221431185
 30
0.0
 10
147.6568545749709
 20
433.4962337523592
 30
0.0
 10
147.8014317243677
 20
433.3266403581707
 30
0.0
 10
147.9636845184145
 20
432.9261727370395
 30
0.0
 10
147.9778657187339
 20
432.7024707888081
 30
0.0
 10
147.9218301350298
 20
432.4927800213925
 30
0.0
  0
ARC
  5
82
330
5E
100
AcDbEntity
  8
$DDT_AUDIT_GENERATED_(65)
  6
Continuous
 62
     7
100
AcDbCircle
 10
120.7723375737
 20
439.7479285513
 30
0.0
 40
28.10217298590242
100
AcDbArc
 50
314.9615263052
 51
345.0384736948
  0
SPLINE
  5
83
330
5E
100
AcDbEntity
  8
$DDT_AUDIT_GENERATED_(65)
  6
Continuous
 62
     7
100
AcDbSpline
210
0.0
220
0.0
230
1.0
 70
     8
 71
     3
 72
    10
 73
     6
 74
     0
 42
0.0000000076150316
 43
0.0000000001
 40
0.0
 40
0.0
 40
0.0
 40
0.0
 40
0.5
 40
0.5
 40
1.0
 40
1.0
 40
1.0
 40
1.0
 10
140.6302267894691
 20
419.8633525582423
 30
0.0
 10
140.4766470946439
 20
419.7099789803143
 30
0.0
 10
140.2770483675132
 20
419.6108587522684
 30
0.0
 10
139.8491832794179
 20
419.5505947402995
 30
0.0
 10
139.6287226423306
 20
419.5911012284265
 30
0.0
 10
139.4388874381016
 20
419.6963286004151
 30
0.0
  0
ARC
  5
84
330
5E
100
AcDbEntity
  8
$DDT_AUDIT_GENERATED_(65)
  6
Continuous
 62
     7
100
AcDbCircle
 10
123.1568902158
 20
454.6988532777
 30
0.0
 40
12.88866085639846
100
AcDbArc
 50
77.3113930421
 51
78.249508065
  0
ARC
  5
85
330
5E
100
AcDbEntity
  8
$DDT_AUDIT_GENERATED_(65)
  6
Continuous
 62
     7
100
AcDbCircle
 10
120.7723375737
 20
439.7479285513
 30
0.0
 40
28.10217298590242
100
AcDbArc
 50
74.9615263052
 51
79.7256973043
  0
SPLINE
  5
86
330
5E
100
AcDbEntity
  8
$DDT_AUDIT_GENERATED_(65)
  6
Continuous
 62
     7
100
AcDbSpline
210
0.0
220
0.0
230
1.0
 70
     8
 71
     3
 72
    10
 73
     6
 74
     0
 42
0.0000000076150316
 43
0.0000000001
 40
0.0
 40
0.0
 40
0.0
 40
0.0
 40
0.5
 40
0.5
 40
1.0
 40
1.0
 40
1.0
 40
1.0
 10
128.0639409192402
 20
466.8876530742143
 30
0.0
 10
128.2735561814078
 20
466.8313359459542
 30
0.0
 10
128.4591961804898
 20
466.7080384917188
 30
0.0
 10
128.7253188898365
 20
466.3676284620204
 30
0.0
 10
128.800469560644
 20
466.1564507057047
 30
0.0
 10
128.804257585443
 20
465.9394349103155
 30
0.0
  0
LINE
  5
87
330
5E
100
AcDbEntity
  8
$DDT_AUDIT_GENERATED_(65)
  6
Continuous
 62
     7
100
AcDbLine
 10
115.5567619775
 20
467.2727503548
 30
0.0
 11
115.5603053629
 21
466.8667186002
 31
0.0
  0
ARC
  5
88
330
5E
100
AcDbEntity
  8
$DDT_AUDIT_GENERATED_(65)
  6
Continuous
 62
     7
100
AcDbCircle
 10
118.0339790295
 20
456.6206089027
 30
0.0
 40
10.9363943710314
100
AcDbArc
 50
101.9357955127
 51
103.0917647476
  0
LINE
  5
89
330
5E
100
AcDbEntity
  8
$DDT_AUDIT_GENERATED_(65)
  6
Continuous
 62
     7
100
AcDbLine
 10
112.7404175619
 20
465.9394349103
 30
0.0
 11
112.683601284
 21
462.6844325295
 31
0.0
  0
SPLINE
  5
8A
330
5E
100
AcDbEntity
  8
$DDT_AUDIT_GENERATED_(65)
  6
Continuous
 62
     7
100
AcDbSpline
210
0.0
220
0.0
230
1.0
 70
     8
 71
     3
 72
    10
 73
     6
 74
     0
 42
0.0000000076150316
 43
0.0000000001
 40
0.0
 40
0.0
 40
0.0
 40
0.0
 40
0.5
 40
0.5
 40
1.0
 40
1.0
 40
1.0
 40
1.0
 10
112.7404175619161
 20
465.9394349103155
 30
0.0
 10
112.744205585609
 20
466.1564506423379
 30
0.0
 10
112.8187891985919
 20
466.3664548236166
 30
0.0
 10
113.0844779348613
 20
466.7072036756617
 30
0.0
 10
113.2711189047459
 20
466.8313359295101
 30
0.0
 10
113.480734228119
 20
466.8876530742143
 30
0.0
  0
ELLIPSE
  5
8B
330
5E
100
AcDbEntity
  8
$DDT_AUDIT_GENERATED_(65)
  6
Continuous
 62
     7
100
AcDbEllipse
 10
90.5716635084
 20
492.057020468
 30
0.0
 11
-1124.365652356314
 21
-649.1528117577354
 31
0.0
210
0.0
220
0.0
230
0.9999999999999999
 40
0.0523359492
 41
1.554624909053467
 42
1.561902323277416
  0
ELLIPSE
  5
8C
330
5E
100
AcDbEntity
  8
$DDT_AUDIT_GENERATED_(65)
  6
Continuous
 62
     7
100
AcDbEllipse
 10
181.1736770542
 20
439.7479335454
 30
0.0
 11
0.0
 21
71.10908080322857
 31
0.0
210
0.0
220
0.0
230
1.0
 40
1.0
 41
1.271085462034964
 42
1.402459529474886
  0
ELLIPSE
  5
8D
330
5E
100
AcDbEntity
  8
$DDT_AUDIT_GENERATED_(65)
  6
Continuous
 62
     7
100
AcDbEllipse
 10
90.571673189
 20
387.4388326954
 30
0.0
 11
1124.365640263899
 21
-649.1528054116119
 31
0.0
210
0.0
220
0.0
230
1.0
 40
0.0523359487
 41
1.554624909166639
 42
1.561902323467161
  0
LINE
  5
8E
330
5E
100
AcDbEntity
  8
$DDT_AUDIT_GENERATED_(65)
  6
Continuous
 62
     7
100
AcDbLine
 10
105.7654129364
 20
422.4234581913
 30
0.0
 11
114.5223375737
 21
427.4792709879
 31
0.0
  0
LINE
  5
8F
330
5E
100
AcDbEntity
  8
$DDT_AUDIT_GENERATED_(65)
  6
Continuous
 62
     7
100
AcDbLine
 10
105.7654129364
 20
422.4234581913
 30
0.0
 11
105.6935164324
 21
422.3822526352
 31
0.0
  0
ARC
  5
90
330
5E
100
AcDbEntity
  8
$DDT_AUDIT_GENERATED_(65)
  6
Continuous
 62
     7
100
AcDbCircle
 10
105.8354989713
 20
422.1179244271
 30
0.0
 40
0.3000474011157799
100
AcDbArc
 50
118.2422403207
 51
221.4180807424
  0
ARC
  5
91
330
5E
100
AcDbEntity
  8
$DDT_AUDIT_GENERATED_(65)
  6
Continuous
 62
     7
100
AcDbCircle
 10
98.0358877619
 20
435.6272515097
 30
0.0
 40
0.3000491040155836
100
AcDbArc
 50
198.5823293483
 51
301.7573495881
  0
LINE
  5
92
330
5E
100
AcDbEntity
  8
$DDT_AUDIT_GENERATED_(65)
  6
Continuous
 62
     7
100
AcDbLine
 10
98.1938105058
 20
435.3721243419
 30
0.0
 11
98.2654438162
 21
435.4137857627
 31
0.0
  0
LINE
  5
93
330
5E
100
AcDbEntity
  8
$DDT_AUDIT_GENERATED_(65)
  6
Continuous
 62
     7
100
AcDbLine
 10
113.2723684535
 20
461.4065416998
 30
0.0
 11
113.2723684535
 21
451.2949161066
 31
0.0
  0
LINE
  5
94
330
5E
100
AcDbEntity
  8
$DDT_AUDIT_GENERATED_(65)
  6
Continuous
 62
     7
100
AcDbLine
 10
113.2723684535
 20
461.4065416998
 30
0.0
 11
113.2726316471
 21
461.4894086768
 31
0.0
  0
ARC
  5
95
330
5E
100
AcDbEntity
  8
$DDT_AUDIT_GENERATED_(65)
  6
Continuous
 62
     7
100
AcDbCircle
 10
112.9727254345
 20
461.4986122953
 30
0.0
 40
0.3000474011157792
100
AcDbArc
 50
358.2422403207
 51
101.4180807424
  0
ARC
  5
96
330
5E
100
AcDbEntity
  8
$DDT_AUDIT_GENERATED_(65)
  6
Continuous
 62
     7
100
AcDbCircle
 10
128.5719514808
 20
461.4986102009
 30
0.0
 40
0.3000491040155934
100
AcDbArc
 50
78.5823293483
 51
181.7573495881
  0
LINE
  5
97
330
5E
100
AcDbEntity
  8
$DDT_AUDIT_GENERATED_(65)
  6
Continuous
 62
     7
100
AcDbLine
 10
128.2720435003
 20
461.4894086768
 30
0.0
 11
128.2723066939
 21
461.4065416998
 31
0.0
  0
LINE
  5
98
330
5E
100
AcDbEntity
  8
$DDT_AUDIT_GENERATED_(65)
  6
Continuous
 62
     7
100
AcDbLine
 10
143.2792313311
 20
435.4137857627
 30
0.0
 11
134.5223066939
 21
440.4695985593
 31
0.0
  0
LINE
  5
99
330
5E
100
AcDbEntity
  8
$DDT_AUDIT_GENERATED_(65)
  6
Continuous
 62
     7
100
AcDbLine
 10
143.2792313311
 20
435.4137857627
 30
0.0
 11
143.3508646415
 21
435.3721243419
 31
0.0
  0
ARC
  5
9A
330
5E
100
AcDbEntity
  8
$DDT_AUDIT_GENERATED_(65)
  6
Continuous
 62
     7
100
AcDbCircle
 10
143.5087883152
 20
435.6272489315
 30
0.0
 40
0.3000474011164167
100
AcDbArc
 50
238.2422403208
 51
341.4180807421
  0
ARC
  5
9B
330
5E
100
AcDbEntity
  8
$DDT_AUDIT_GENERATED_(65)
  6
Continuous
 62
     7
100
AcDbCircle
 10
135.7091734783
 20
422.1179239432
 30
0.0
 40
0.3000491040155885
100
AcDbArc
 50
318.5823293483
 51
61.7573495881
  0
LINE
  5
9C
330
5E
100
AcDbEntity
  8
$DDT_AUDIT_GENERATED_(65)
  6
Continuous
 62
     7
100
AcDbLine
 10
135.8511587149
 20
422.3822526352
 30
0.0
 11
135.7792622109
 21
422.4234581913
 31
0.0
  0
LINE
  5
9D
330
5E
100
AcDbEntity
  8
$DDT_AUDIT_GENERATED_(65)
  6
Continuous
 62
     7
100
AcDbLine
 10
125.9843697844
 20
466.8667186002
 30
0.0
 11
125.9879131699
 21
467.2727503548
 31
0.0
  0
ARC
  5
9E
330
5E
100
AcDbEntity
  8
$DDT_AUDIT_GENERATED_(65)
  6
Continuous
 62
     7
100
AcDbCircle
 10
121.4425907616
 20
441.785228448
 30
0.0
 40
25.48934416870021
100
AcDbArc
 50
79.7360414805
 51
83.0285813264
  0
ARC
  5
9F
330
5E
100
AcDbEntity
  8
$DDT_AUDIT_GENERATED_(65)
  6
Continuous
 62
     7
100
AcDbCircle
 10
120.7723375737
 20
439.7447759464
 30
0.0
 40
27.59922279377747
100
AcDbArc
 50
82.1615315995
 51
97.8384684005
  0
ARC
  5
A0
330
5E
100
AcDbEntity
  8
$DDT_AUDIT_GENERATED_(65)
  6
Continuous
 62
     7
100
AcDbCircle
 10
121.6486361946
 20
431.5732681721
 30
0.0
 40
35.8147374056253
100
AcDbArc
 50
97.4443985043
 51
99.787535727
  0
LINE
  5
A2
330
5E
100
AcDbEntity
  8
$DDT_AUDIT_GENERATED_(A1)
  6
Continuous
 62
     7
100
AcDbLine
 10
125.7723375737
 20
471.0594096889
 30
0.0
 11
125.7723375737
 21
466.8988948546
 31
0.0
  0
LINE
  5
A3
330
5E
100
AcDbEntity
  8
$DDT_AUDIT_GENERATED_(A1)
  6
Continuous
 62
     7
100
AcDbLine
 10
115.7723375737
 20
466.898569301
 30
0.0
 11
115.7723375737
 21
471.0594096889
 31
0.0
  0
ARC
  5
A4
330
5E
100
AcDbEntity
  8
$DDT_AUDIT_GENERATED_(A1)
  6
Continuous
 62
     7
100
AcDbCircle
 10
116.7723375737
 20
471.0594096889
 30
0.0
 40
0.9999999999999883
100
AcDbArc
 50
97.208034015
 51
180.0
  0
ARC
  5
A5
330
5E
100
AcDbEntity
  8
$DDT_AUDIT_GENERATED_(A1)
  6
Continuous
 62
     7
100
AcDbCircle
 10
120.7723375737
 20
439.4317987267
 30
0.0
 40
32.8795510505097
100
AcDbArc
 50
82.7919696403
 51
97.2080303597
  0
ARC
  5
A6
330
5E
100
AcDbEntity
  8
$DDT_AUDIT_GENERATED_(A1)
  6
Continuous
 62
     7
100
AcDbCircle
 10
124.7723375737
 20
471.0594096889
 30
0.0
 40
1.0
100
AcDbArc
 50
0.0
 51
82.791965985
  0
ARC
  5
A7
330
5E
100
AcDbEntity
  8
$DDT_AUDIT_GENERATED_(60)
  6
Continuous
 62
     7
100
AcDbCircle
 10
120.7723375737
 20
354.7479285513
 30
0.0
 40
26.25
100
AcDbArc
 50
347.86532653
 51
0.0
  0
ARC
  5
A8
330
5E
100
AcDbEntity
  8
$DDT_AUDIT_GENERATED_(60)
  6
Continuous
 62
     7
100
AcDbCircle
 10
120.7723375737
 20
354.7479285513
 30
0.0
 40
26.25
100
AcDbArc
 50
227.86532653
 51
312.13467347
  0
ARC
  5
A9
330
5E
100
AcDbEntity
  8
$DDT_AUDIT_GENERATED_(60)
  6
Continuous
 62
     7
100
AcDbCircle
 10
120.7723375737
 20
354.7479285513
 30
0.0
 40
26.25
100
AcDbArc
 50
107.86532653
 51
192.13467347
  0
ARC
  5
AA
330
5E
100
AcDbEntity
  8
$DDT_AUDIT_GENERATED_(60)
  6
Continuous
 62
     7
100
AcDbCircle
 10
120.7723375737
 20
354.7479285513
 30
0.0
 40
26.25
100
AcDbArc
 50
0.0
 51
72.13467347
  0
LINE
  5
AC
330
5E
100
AcDbEntity
  8
$DDT_AUDIT_GENERATED_(AB)
  6
Continuous
 62
     7
100
AcDbLine
 10
204.4723375737
 20
295.2479285513
 30
0.0
 11
37.0723375737
 21
295.2479285513
 31
0.0
  0
LINE
  5
AD
330
5E
100
AcDbEntity
  8
$DDT_AUDIT_GENERATED_(AB)
  6
Continuous
 62
     7
100
AcDbLine
 10
35.2723375737
 20
297.0479285513
 30
0.0
 11
35.2723375737
 21
489.9479285513
 31
0.0
  0
LINE
  5
AE
330
5E
100
AcDbEntity
  8
$DDT_AUDIT_GENERATED_(AB)
  6
Continuous
 62
     7
100
AcDbLine
 10
37.0723375737
 20
491.7479285513
 30
0.0
 11
204.4723375737
 21
491.7479285513
 31
0.0
  0
LINE
  5
AF
330
5E
100
AcDbEntity
  8
$DDT_AUDIT_GENERATED_(AB)
  6
Continuous
 62
     7
100
AcDbLine
 10
206.2723375737
 20
489.9479285513
 30
0.0
 11
206.2723375737
 21
297.0479285513
 31
0.0
  0
ARC
  5
B0
330
5E
100
AcDbEntity
  8
$DDT_AUDIT_GENERATED_(AB)
  6
Continuous
 62
     7
100
AcDbCircle
 10
204.4723375737
 20
489.9479285513
 30
0.0
 40
1.799999999999996
100
AcDbArc
 50
0.0
 51
90.0
  0
ARC
  5
B1
330
5E
100
AcDbEntity
  8
$DDT_AUDIT_GENERATED_(AB)
  6
Continuous
 62
     7
100
AcDbCircle
 10
37.0723375737
 20
489.9479285513
 30
0.0
 40
1.799999999999996
100
AcDbArc
 50
90.0
 51
180.0
  0
ARC
  5
B2
330
5E
100
AcDbEntity
  8
$DDT_AUDIT_GENERATED_(AB)
  6
Continuous
 62
     7
100
AcDbCircle
 10
204.4723375737
 20
297.0479285513
 30
0.0
 40
1.799999999999996
100
AcDbArc
 50
270.0
 51
0.0
  0
ARC
  5
B3
330
5E
100
AcDbEntity
  8
$DDT_AUDIT_GENERATED_(AB)
  6
Continuous
 62
     7
100
AcDbCircle
 10
37.0723375737
 20
297.0479285513
 30
0.0
 40
1.799999999999996
100
AcDbArc
 50
180.0
 51
270.0
  0
ARC
  5
B4
330
5E
100
AcDbEntity
  8
$DDT_AUDIT_GENERATED_(AB)
  6
Continuous
 62
     7
100
AcDbCircle
 10
120.7723375737
 20
354.7479285513
 30
0.0
 40
26.75
100
AcDbArc
 50
0.0
 51
72.5002214192
  0
ARC
  5
B5
330
5E
100
AcDbEntity
  8
$DDT_AUDIT_GENERATED_(AB)
  6
Continuous
 62
     7
100
AcDbCircle
 10
120.7723375737
 20
354.7479285513
 30
0.0
 40
26.75
100
AcDbArc
 50
107.4997785808
 51
192.5002214192
  0
ARC
  5
B6
330
5E
100
AcDbEntity
  8
$DDT_AUDIT_GENERATED_(AB)
  6
Continuous
 62
     7
100
AcDbCircle
 10
120.7723375737
 20
354.7479285513
 30
0.0
 40
26.75
100
AcDbArc
 50
227.4997785808
 51
312.5002214192
  0
ARC
  5
B7
330
5E
100
AcDbEntity
  8
$DDT_AUDIT_GENERATED_(AB)
  6
Continuous
 62
     7
100
AcDbCircle
 10
120.7723375737
 20
354.7479285513
 30
0.0
 40
26.75
100
AcDbArc
 50
347.4997785808
 51
0.0
  0
ARC
  5
B8
330
5E
100
AcDbEntity
  8
$DDT_AUDIT_GENERATED_(AB)
  6
Continuous
 62
     7
100
AcDbCircle
 10
120.7723375737
 20
439.7479285513
 30
0.0
 40
26.75
100
AcDbArc
 50
0.0
 51
72.5002214192
  0
ARC
  5
B9
330
5E
100
AcDbEntity
  8
$DDT_AUDIT_GENERATED_(AB)
  6
Continuous
 62
     7
100
AcDbCircle
 10
120.7723375737
 20
439.7479285513
 30
0.0
 40
26.75
100
AcDbArc
 50
107.4997785808
 51
192.5002214192
  0
ARC
  5
BA
330
5E
100
AcDbEntity
  8
$DDT_AUDIT_GENERATED_(AB)
  6
Continuous
 62
     7
100
AcDbCircle
 10
120.7723375737
 20
439.7479285513
 30
0.0
 40
26.75
100
AcDbArc
 50
227.4997785808
 51
312.5002214192
  0
ARC
  5
BB
330
5E
100
AcDbEntity
  8
$DDT_AUDIT_GENERATED_(AB)
  6
Continuous
 62
     7
100
AcDbCircle
 10
120.7723375737
 20
439.7479285513
 30
0.0
 40
26.75
100
AcDbArc
 50
347.4997785808
 51
0.0
  0
ARC
  5
BD
330
5E
100
AcDbEntity
  8
$DDT_AUDIT_GENERATED_(BC)
  6
Continuous
 62
     7
100
AcDbCircle
 10
120.7723375737
 20
354.7479285513
 30
0.0
 40
25.55
100
AcDbArc
 50
0.0
 51
71.5974213468
  0
ARC
  5
BE
330
5E
100
AcDbEntity
  8
$DDT_AUDIT_GENERATED_(BC)
  6
Continuous
 62
     7
100
AcDbCircle
 10
120.7723375737
 20
354.7479285513
 30
0.0
 40
25.55
100
AcDbArc
 50
108.4025786532
 51
191.5974213468
  0
ARC
  5
BF
330
5E
100
AcDbEntity
  8
$DDT_AUDIT_GENERATED_(BC)
  6
Continuous
 62
     7
100
AcDbCircle
 10
120.7723375737
 20
354.7479285513
 30
0.0
 40
25.55
100
AcDbArc
 50
228.4025786532
 51
311.5974213468
  0
ARC
  5
C0
330
5E
100
AcDbEntity
  8
$DDT_AUDIT_GENERATED_(BC)
  6
Continuous
 62
     7
100
AcDbCircle
 10
120.7723375737
 20
354.7479285513
 30
0.0
 40
25.55
100
AcDbArc
 50
348.4025786532
 51
0.0
  0
ARC
  5
C2
330
5E
100
AcDbEntity
  8
$DDT_AUDIT_GENERATED_(C1)
  6
Continuous
 62
     7
100
AcDbCircle
 10
120.7723375737
 20
439.7479285513
 30
0.0
 40
25.71922359359559
100
AcDbArc
 50
0.0
 51
71.7301442652
  0
ARC
  5
C3
330
5E
100
AcDbEntity
  8
$DDT_AUDIT_GENERATED_(C1)
  6
Continuous
 62
     7
100
AcDbCircle
 10
120.7723375737
 20
439.7479285513
 30
0.0
 40
25.71922359359559
100
AcDbArc
 50
108.2698557348
 51
191.7301442652
  0
ARC
  5
C4
330
5E
100
AcDbEntity
  8
$DDT_AUDIT_GENERATED_(C1)
  6
Continuous
 62
     7
100
AcDbCircle
 10
120.7723375737
 20
439.7479285513
 30
0.0
 40
25.71922359359559
100
AcDbArc
 50
228.2698557348
 51
311.7301442652
  0
ARC
  5
C5
330
5E
100
AcDbEntity
  8
$DDT_AUDIT_GENERATED_(C1)
  6
Continuous
 62
     7
100
AcDbCircle
 10
120.7723375737
 20
439.7479285513
 30
0.0
 40
25.71922359359559
100
AcDbArc
 50
348.2698557348
 51
360.0
  0
ARC
  5
C7
330
5E
100
AcDbEntity
  8
$DDT_AUDIT_GENERATED_(C6)
  6
Continuous
 62
     7
100
AcDbCircle
 10
120.7723375737
 20
439.7479579512
 30
0.0
 40
26.25
100
AcDbArc
 50
176.6040835163
 51
182.6152558049
  0
ARC
  5
C8
330
5E
100
AcDbEntity
  8
$DDT_AUDIT_GENERATED_(C6)
  6
Continuous
 62
     7
100
AcDbCircle
 10
120.7723375737
 20
439.7479579512
 30
0.0
 40
26.55
100
AcDbArc
 50
0.0
 51
72.3557497883
  0
ARC
  5
C9
330
5E
100
AcDbEntity
  8
$DDT_AUDIT_GENERATED_(C6)
  6
Continuous
 62
     7
100
AcDbCircle
 10
120.7723375737
 20
439.7479579512
 30
0.0
 40
26.55
100
AcDbArc
 50
107.6442502117
 51
192.3558060155
  0
ARC
  5
CA
330
5E
100
AcDbEntity
  8
$DDT_AUDIT_GENERATED_(C6)
  6
Continuous
 62
     7
100
AcDbCircle
 10
120.7723375737
 20
439.7479579512
 30
0.0
 40
26.55
100
AcDbArc
 50
227.6443099448
 51
312.3556900552
  0
ARC
  5
CB
330
5E
100
AcDbEntity
  8
$DDT_AUDIT_GENERATED_(C6)
  6
Continuous
 62
     7
100
AcDbCircle
 10
120.7723375737
 20
439.7479579512
 30
0.0
 40
26.55
100
AcDbArc
 50
347.6441939845
 51
0.0
  0
ARC
  5
CC
330
5E
100
AcDbEntity
  8
$DDT_AUDIT_GENERATED_(C6)
  6
Continuous
 62
     7
100
AcDbCircle
 10
120.7723375737
 20
354.7479285513
 30
0.0
 40
26.55
100
AcDbArc
 50
0.0
 51
72.3557486197
  0
ARC
  5
CD
330
5E
100
AcDbEntity
  8
$DDT_AUDIT_GENERATED_(C6)
  6
Continuous
 62
     7
100
AcDbCircle
 10
120.7723375737
 20
354.7479285513
 30
0.0
 40
26.55
100
AcDbArc
 50
107.6442513803
 51
192.3557486197
  0
ARC
  5
CE
330
5E
100
AcDbEntity
  8
$DDT_AUDIT_GENERATED_(C6)
  6
Continuous
 62
     7
100
AcDbCircle
 10
120.7723375737
 20
354.7479285513
 30
0.0
 40
26.55
100
AcDbArc
 50
227.6442513803
 51
312.3557486197
  0
ARC
  5
CF
330
5E
100
AcDbEntity
  8
$DDT_AUDIT_GENERATED_(C6)
  6
Continuous
 62
     7
100
AcDbCircle
 10
120.7723375737
 20
354.7479285513
 30
0.0
 40
26.55
100
AcDbArc
 50
347.6442513803
 51
0.0
  0
ARC
  5
D0
330
5E
100
AcDbEntity
  8
$DDT_AUDIT_GENERATED_(65)
  6
Continuous
 62
     7
100
AcDbCircle
 10
100.7723684535
 20
366.2949161066
 30
0.0
 40
12.5
100
AcDbArc
 50
300.0
 51
0.0
  0
LINE
  5
D1
330
5E
100
AcDbEntity
  8
$DDT_AUDIT_GENERATED_(65)
  6
Continuous
 62
     7
100
AcDbLine
 10
107.0223684535
 20
355.4695985593
 30
0.0
 11
98.2654438162
 21
350.4137857627
 31
0.0
  0
ARC
  5
D2
330
5E
100
AcDbEntity
  8
$DDT_AUDIT_GENERATED_(65)
  6
Continuous
 62
     7
100
AcDbCircle
 10
120.7723375737
 20
331.6539534406
 30
0.0
 40
12.5
100
AcDbArc
 50
60.0
 51
120.0
  0
ARC
  5
D3
330
5E
100
AcDbEntity
  8
$DDT_AUDIT_GENERATED_(65)
  6
Continuous
 62
     7
100
AcDbCircle
 10
140.7723066939
 20
366.2949161066
 30
0.0
 40
12.5
100
AcDbArc
 50
180.0
 51
240.0
  0
LINE
  5
D4
330
5E
100
AcDbEntity
  8
$DDT_AUDIT_GENERATED_(65)
  6
Continuous
 62
     7
100
AcDbLine
 10
128.2723066939
 20
366.2949161066
 30
0.0
 11
128.2723066939
 21
376.4065416998
 31
0.0
  0
LINE
  5
D5
330
5E
100
AcDbEntity
  8
$DDT_AUDIT_GENERATED_(65)
  6
Continuous
 62
     7
100
AcDbLine
 10
127.0223375737
 20
342.4792709879
 30
0.0
 11
135.7792622109
 21
337.4234581913
 31
0.0
  0
ARC
  5
D6
330
5E
100
AcDbEntity
  8
$DDT_AUDIT_GENERATED_(65)
  6
Continuous
 62
     7
100
AcDbCircle
 10
120.7723375737
 20
354.7479285513
 30
0.0
 40
28.10217298590241
100
AcDbArc
 50
100.2601587312
 51
105.0384736948
  0
ELLIPSE
  5
D7
330
5E
100
AcDbEntity
  8
$DDT_AUDIT_GENERATED_(65)
  6
Continuous
 62
     7
100
AcDbEllipse
 10
150.9730042016
 20
302.4388321185
 30
0.0
 11
-1124.365653723524
 21
-649.1528131104642
 31
0.0
210
0.0
220
0.0
230
1.0
 40
0.0523359493
 41
-1.561902322290422
 42
-1.554624908071623
  0
ELLIPSE
  5
D8
330
5E
100
AcDbEntity
  8
$DDT_AUDIT_GENERATED_(65)
  6
Continuous
 62
     7
100
AcDbEllipse
 10
150.9730103021
 20
407.0570202698
 30
0.0
 11
1124.365645415795
 21
-649.1528077720154
 31
0.0
210
0.0
220
0.0
230
1.0
 40
0.0523359489
 41
-1.561902322399986
 42
-1.554624908125883
  0
ELLIPSE
  5
D9
330
5E
100
AcDbEntity
  8
$DDT_AUDIT_GENERATED_(65)
  6
Continuous
 62
     7
100
AcDbEllipse
 10
60.3709990355
 20
354.747932509
 30
0.0
 11
0.0
 21
68.91956153630314
 31
0.0
210
0.0
220
0.0
230
1.0
 40
1.0
 41
-1.402459512358348
 42
-1.271085444196945
  0
SPLINE
  5
DA
330
5E
100
AcDbEntity
  8
$DDT_AUDIT_GENERATED_(65)
  6
Continuous
 62
     7
100
AcDbSpline
210
0.0
220
0.0
230
1.0
 70
     8
 71
     3
 72
    10
 73
     6
 74
     0
 42
0.0000000164907823
 43
0.0000000001
 40
0.0
 40
0.0
 40
0.0
 40
0.0
 40
0.5
 40
0.5
 40
1.0
 40
1.0
 40
1.0
 40
1.0
 10
112.3589834603138
 20
377.2249272958466
 30
0.0
 10
112.4530512061797
 20
377.260137746566
 30
0.0
 10
112.5343532950559
 20
377.3231571402849
 30
0.0
 10
112.6492368177698
 20
377.4854599006974
 30
0.0
 10
112.6818483355506
 20
377.5840061790891
 30
0.0
 10
112.6836012840176
 20
377.6844325295052
 30
0.0
  0
LINE
  5
DB
330
5E
100
AcDbEntity
  8
$DDT_AUDIT_GENERATED_(65)
  6
Continuous
 62
     7
100
AcDbLine
 10
96.8643743097
 20
350.2847276735
 30
0.0
 11
94.0738676975
 21
348.6080221431
 31
0.0
  0
ARC
  5
DC
330
5E
100
AcDbEntity
  8
$DDT_AUDIT_GENERATED_(65)
  6
Continuous
 62
     7
100
AcDbCircle
 10
120.7723375737
 20
354.7479285513
 30
0.0
 40
24.00000000000001
100
AcDbArc
 50
110.521352102
 51
189.478647898
  0
SPLINE
  5
DD
330
5E
100
AcDbEntity
  8
$DDT_AUDIT_GENERATED_(65)
  6
Continuous
 62
     7
100
AcDbSpline
210
0.0
220
0.0
230
1.0
 70
     8
 71
     3
 72
    10
 73
     6
 74
     0
 42
0.0000000164907823
 43
0.0000000001
 40
0.0
 40
0.0
 40
0.0
 40
0.0
 40
0.5
 40
0.5
 40
1.0
 40
1.0
 40
1.0
 40
1.0
 10
96.8643743097053
 20
350.2847276735322
 30
0.0
 10
96.95046957186022
 20
350.336458926046
 30
0.0
 10
97.01895448593216
 20
350.4132136665179
 30
0.0
 10
97.10240421252371
 20
350.5937034251205
 30
0.0
 10
97.11654933809116
 20
350.6965372498062
 30
0.0
 10
97.10000860337374
 20
350.7956075722103
 30
0.0
  0
SPLINE
  5
DE
330
5E
100
AcDbEntity
  8
$DDT_AUDIT_GENERATED_(65)
  6
Continuous
 62
     7
100
AcDbSpline
210
0.0
220
0.0
230
1.0
 70
     8
 71
     3
 72
    10
 73
     6
 74
     0
 42
0.0000000164907823
 43
0.0000000001
 40
0.0
 40
0.0
 40
0.0
 40
0.0
 40
0.5
 40
0.5
 40
1.0
 40
1.0
 40
1.0
 40
1.0
 10
105.5133627167396
 20
336.2232507857921
 30
0.0
 10
105.435835699005
 20
336.287110618029
 30
0.0
 10
105.3406082586751
 20
336.3260105955171
 30
0.0
 10
105.1426081836966
 20
336.3443512644573
 30
0.0
 10
105.0409588442706
 20
336.3233205281156
 30
0.0
 10
104.9531105993673
 20
336.2746254508115
 30
0.0
  0
SPLINE
  5
DF
330
5E
100
AcDbEntity
  8
$DDT_AUDIT_GENERATED_(65)
  6
Continuous
 62
     7
100
AcDbSpline
210
0.0
220
0.0
230
1.0
 70
     8
 71
     3
 72
    10
 73
     6
 74
     0
 42
0.0000000164907823
 43
0.0000000001
 40
0.0
 40
0.0
 40
0.0
 40
0.0
 40
0.5
 40
0.5
 40
1.0
 40
1.0
 40
1.0
 40
1.0
 10
144.4446665439854
 20
350.7956075722103
 30
0.0
 10
144.4281258158542
 20
350.696537289254
 30
0.0
 10
144.4420511673078
 20
350.5946179180469
 30
0.0
 10
144.5251677195724
 20
350.4139744886942
 30
0.0
 10
144.5942055412176
 20
350.3364589466442
 30
0.0
 10
144.6803008376539
 20
350.2847276735322
 30
0.0
  0
LINE
  5
E0
330
5E
100
AcDbEntity
  8
$DDT_AUDIT_GENERATED_(65)
  6
Continuous
 62
     7
100
AcDbLine
 10
136.591564548
 20
336.2746254508
 30
0.0
 11
139.4388874381
 21
334.6963286004
 31
0.0
  0
ARC
  5
E1
330
5E
100
AcDbEntity
  8
$DDT_AUDIT_GENERATED_(65)
  6
Continuous
 62
     7
100
AcDbCircle
 10
120.7723375737
 20
354.7479285513
 30
0.0
 40
24.0
100
AcDbArc
 50
230.521352102
 51
309.478647898
  0
SPLINE
  5
E2
330
5E
100
AcDbEntity
  8
$DDT_AUDIT_GENERATED_(65)
  6
Continuous
 62
     7
100
AcDbSpline
210
0.0
220
0.0
230
1.0
 70
     8
 71
     3
 72
    10
 73
     6
 74
     0
 42
0.0000000164907823
 43
0.0000000001
 40
0.0
 40
0.0
 40
0.0
 40
0.0
 40
0.5000000000000043
 40
0.5000000000000043
 40
1.0
 40
1.0
 40
1.0
 40
1.0
 10
136.5915645479919
 20
336.2746254508115
 30
0.0
 10
136.5037163380679
 20
336.3233205087263
 30
0.0
 10
136.4030023259224
 20
336.3442528138526
 30
0.0
 10
136.2049687465538
 20
336.3262775177184
 30
0.0
 10
136.108839479224
 20
336.2871106434567
 30
0.0
 10
136.0313124306196
 20
336.2232507857921
 30
0.0
  0
LINE
  5
E3
330
5E
100
AcDbEntity
  8
$DDT_AUDIT_GENERATED_(65)
  6
Continuous
 62
     7
100
AcDbLine
 10
128.8610738633
 20
377.6844325295
 30
0.0
 11
128.8042575854
 21
380.9394349103
 31
0.0
  0
ARC
  5
E4
330
5E
100
AcDbEntity
  8
$DDT_AUDIT_GENERATED_(65)
  6
Continuous
 62
     7
100
AcDbCircle
 10
120.7723375737
 20
354.7479285513
 30
0.0
 40
24.0
100
AcDbArc
 50
350.521352102
 51
69.478647898
  0
SPLINE
  5
E5
330
5E
100
AcDbEntity
  8
$DDT_AUDIT_GENERATED_(65)
  6
Continuous
 62
     7
100
AcDbSpline
210
0.0
220
0.0
230
1.0
 70
     8
 71
     3
 72
    10
 73
     6
 74
     0
 42
0.0000000164907823
 43
0.0000000001
 40
0.0
 40
0.0
 40
0.0
 40
0.0
 40
0.5
 40
0.5
 40
1.0
 40
1.0
 40
1.0
 40
1.0
 10
128.8610738633416
 20
377.6844325295052
 30
0.0
 10
128.8628268111106
 20
377.5840062190767
 30
0.0
 10
128.8950559091842
 20
377.4863191734785
 30
0.0
 10
129.0096397619612
 20
377.32380471101
 30
0.0
 10
129.0916239037236
 20
377.2601377605861
 30
0.0
 10
129.1856916870454
 20
377.2249272958466
 30
0.0
  0
ARC
  5
E6
330
5E
100
AcDbEntity
  8
$DDT_AUDIT_GENERATED_(65)
  6
Continuous
 62
     7
100
AcDbCircle
 10
120.7723375737
 20
354.7479285513
 30
0.0
 40
28.10217298590242
100
AcDbArc
 50
194.9615263052
 51
225.0384736948
  0
SPLINE
  5
E7
330
5E
100
AcDbEntity
  8
$DDT_AUDIT_GENERATED_(65)
  6
Continuous
 62
     7
100
AcDbSpline
210
0.0
220
0.0
230
1.0
 70
     8
 71
     3
 72
    10
 73
     6
 74
     0
 42
0.0000000076150316
 43
0.0000000001
 40
0.0
 40
0.0
 40
0.0
 40
0.0
 40
0.5
 40
0.5
 40
1.0
 40
1.0
 40
1.0
 40
1.0
 10
93.62284501232935
 20
347.4927800213925
 30
0.0
 10
93.56680944498699
 20
347.7024707275807
 30
0.0
 10
93.58076817303572
 20
347.9248884098619
 30
0.0
 10
93.74251055178422
 20
348.3255624515293
 30
0.0
 10
93.88782051806407
 20
348.496233719718
 30
0.0
 10
94.07386769749411
 20
348.6080221431187
 30
0.0
  0
LINE
  5
E8
330
5E
100
AcDbEntity
  8
$DDT_AUDIT_GENERATED_(65)
  6
Continuous
 62
     7
100
AcDbLine
 10
102.1057877093
 20
334.6963286004
 30
0.0
 11
104.9531105994
 21
336.2746254508
 31
0.0
  0
SPLINE
  5
E9
330
5E
100
AcDbEntity
  8
$DDT_AUDIT_GENERATED_(65)
  6
Continuous
 62
     7
100
AcDbSpline
210
0.0
220
0.0
230
1.0
 70
     8
 71
     3
 72
    10
 73
     6
 74
     0
 42
0.0000000076150316
 43
0.0000000001
 40
0.0
 40
0.0
 40
0.0
 40
0.0
 40
0.5
 40
0.5
 40
1.0
 40
1.0
 40
1.0
 40
1.0
 10
102.1057877092576
 20
334.696328600415
 30
0.0
 10
101.9159525604588
 20
334.591101259152
 30
0.0
 10
101.6967917980791
 20
334.5506904720618
 30
0.0
 10
101.268850267763
 20
334.610409241148
 30
0.0
 10
101.0680280975589
 20
334.7099789355308
 30
0.0
 10
100.91444835789
 20
334.8633525582423
 30
0.0
  0
LINE
  5
EA
330
5E
100
AcDbEntity
  8
$DDT_AUDIT_GENERATED_(65)
  6
Continuous
 62
     7
100
AcDbLine
 10
147.4708074499
 20
348.6080221431
 30
0.0
 11
144.6803008377
 21
350.2847276735
 31
0.0
  0
SPLINE
  5
EB
330
5E
100
AcDbEntity
  8
$DDT_AUDIT_GENERATED_(65)
  6
Continuous
 62
     7
100
AcDbSpline
210
0.0
220
0.0
230
1.0
 70
     8
 71
     3
 72
    10
 73
     6
 74
     0
 42
0.0000000076150316
 43
0.0000000001
 40
0.0
 40
0.0
 40
0.0
 40
0.0
 40
0.5
 40
0.5
 40
1.0
 40
1.0
 40
1.0
 40
1.0
 10
147.4708074498651
 20
348.6080221431185
 30
0.0
 10
147.6568545749709
 20
348.4962337523591
 30
0.0
 10
147.8014317243678
 20
348.3266403581706
 30
0.0
 10
147.9636845184145
 20
347.9261727370393
 30
0.0
 10
147.9778657187339
 20
347.7024707888081
 30
0.0
 10
147.9218301350298
 20
347.4927800213924
 30
0.0
  0
ARC
  5
EC
330
5E
100
AcDbEntity
  8
$DDT_AUDIT_GENERATED_(65)
  6
Continuous
 62
     7
100
AcDbCircle
 10
120.7723375737
 20
354.7479285513
 30
0.0
 40
28.10217298590241
100
AcDbArc
 50
314.9615263052
 51
345.0384736948
  0
SPLINE
  5
ED
330
5E
100
AcDbEntity
  8
$DDT_AUDIT_GENERATED_(65)
  6
Continuous
 62
     7
100
AcDbSpline
210
0.0
220
0.0
230
1.0
 70
     8
 71
     3
 72
    10
 73
     6
 74
     0
 42
0.0000000076150316
 43
0.0000000001
 40
0.0
 40
0.0
 40
0.0
 40
0.0
 40
0.5
 40
0.5
 40
1.0
 40
1.0
 40
1.0
 40
1.0
 10
140.6302267894692
 20
334.8633525582423
 30
0.0
 10
140.4766470946439
 20
334.7099789803143
 30
0.0
 10
140.2770483675132
 20
334.6108587522684
 30
0.0
 10
139.849183279418
 20
334.5505947402993
 30
0.0
 10
139.6287226423306
 20
334.5911012284265
 30
0.0
 10
139.4388874381016
 20
334.696328600415
 30
0.0
  0
ARC
  5
EE
330
5E
100
AcDbEntity
  8
$DDT_AUDIT_GENERATED_(65)
  6
Continuous
 62
     7
100
AcDbCircle
 10
123.1568902158
 20
369.6988532777
 30
0.0
 40
12.88866085639002
100
AcDbArc
 50
77.3113930421
 51
78.249508065
  0
ARC
  5
EF
330
5E
100
AcDbEntity
  8
$DDT_AUDIT_GENERATED_(65)
  6
Continuous
 62
     7
100
AcDbCircle
 10
120.7723375737
 20
354.7479285513
 30
0.0
 40
28.10217298590242
100
AcDbArc
 50
74.9615263052
 51
79.7256973043
  0
SPLINE
  5
F0
330
5E
100
AcDbEntity
  8
$DDT_AUDIT_GENERATED_(65)
  6
Continuous
 62
     7
100
AcDbSpline
210
0.0
220
0.0
230
1.0
 70
     8
 71
     3
 72
    10
 73
     6
 74
     0
 42
0.0000000076150316
 43
0.0000000001
 40
0.0
 40
0.0
 40
0.0
 40
0.0
 40
0.5
 40
0.5
 40
1.0
 40
1.0
 40
1.0
 40
1.0
 10
128.0639409192402
 20
381.8876530742142
 30
0.0
 10
128.2735561814078
 20
381.8313359459541
 30
0.0
 10
128.4591961804898
 20
381.7080384917188
 30
0.0
 10
128.7253188898366
 20
381.3676284620203
 30
0.0
 10
128.8004695606441
 20
381.1564507057046
 30
0.0
 10
128.8042575854431
 20
380.9394349103155
 30
0.0
  0
LINE
  5
F1
330
5E
100
AcDbEntity
  8
$DDT_AUDIT_GENERATED_(65)
  6
Continuous
 62
     7
100
AcDbLine
 10
115.5567619775
 20
382.2727503548
 30
0.0
 11
115.5603053629
 21
381.8667186002
 31
0.0
  0
ARC
  5
F2
330
5E
100
AcDbEntity
  8
$DDT_AUDIT_GENERATED_(65)
  6
Continuous
 62
     7
100
AcDbCircle
 10
118.0339790295
 20
371.6206089026
 30
0.0
 40
10.93639437103818
100
AcDbArc
 50
101.9357955127
 51
103.0917647476
  0
LINE
  5
F3
330
5E
100
AcDbEntity
  8
$DDT_AUDIT_GENERATED_(65)
  6
Continuous
 62
     7
100
AcDbLine
 10
112.7404175619
 20
380.9394349103
 30
0.0
 11
112.683601284
 21
377.6844325295
 31
0.0
  0
SPLINE
  5
F4
330
5E
100
AcDbEntity
  8
$DDT_AUDIT_GENERATED_(65)
  6
Continuous
 62
     7
100
AcDbSpline
210
0.0
220
0.0
230
1.0
 70
     8
 71
     3
 72
    10
 73
     6
 74
     0
 42
0.0000000076150316
 43
0.0000000001
 40
0.0
 40
0.0
 40
0.0
 40
0.0
 40
0.5
 40
0.5
 40
1.0
 40
1.0
 40
1.0
 40
1.0
 10
112.7404175619162
 20
380.9394349103155
 30
0.0
 10
112.7442055856091
 20
381.1564506423378
 30
0.0
 10
112.8187891985919
 20
381.3664548236166
 30
0.0
 10
113.0844779348613
 20
381.7072036756616
 30
0.0
 10
113.271118904746
 20
381.8313359295101
 30
0.0
 10
113.480734228119
 20
381.8876530742142
 30
0.0
  0
ELLIPSE
  5
F5
330
5E
100
AcDbEntity
  8
$DDT_AUDIT_GENERATED_(65)
  6
Continuous
 62
     7
100
AcDbEllipse
 10
90.5716635044
 20
407.0570204822
 30
0.0
 11
-1124.365652484683
 21
-649.1528118135358
 31
0.0
210
0.0
220
0.0
230
1.0
 40
0.0523359493
 41
1.554624909041444
 42
1.561902323269847
  0
ELLIPSE
  5
F6
330
5E
100
AcDbEntity
  8
$DDT_AUDIT_GENERATED_(65)
  6
Continuous
 62
     7
100
AcDbEllipse
 10
181.1736769453
 20
354.7479335729
 30
0.0
 11
0.0
 21
71.10908063925943
 31
0.0
210
0.0
220
0.0
230
1.0
 40
1.0
 41
1.271085461952539
 42
1.402459529603699
  0
ELLIPSE
  5
F7
330
5E
100
AcDbEntity
  8
$DDT_AUDIT_GENERATED_(65)
  6
Continuous
 62
     7
100
AcDbEllipse
 10
90.5716731605
 20
302.4388326648
 30
0.0
 11
1124.36564059982
 21
-649.1528055946867
 31
0.0
210
0.0
220
0.0
230
1.0
 40
0.0523359487
 41
1.554624909163961
 42
1.56190232346227
  0
LINE
  5
F8
330
5E
100
AcDbEntity
  8
$DDT_AUDIT_GENERATED_(65)
  6
Continuous
 62
     7
100
AcDbLine
 10
105.7654129364
 20
337.4234581913
 30
0.0
 11
114.5223375737
 21
342.4792709879
 31
0.0
  0
LINE
  5
F9
330
5E
100
AcDbEntity
  8
$DDT_AUDIT_GENERATED_(65)
  6
Continuous
 62
     7
100
AcDbLine
 10
105.7654129364
 20
337.4234581913
 30
0.0
 11
105.6935164324
 21
337.3822526352
 31
0.0
  0
ARC
  5
FA
330
5E
100
AcDbEntity
  8
$DDT_AUDIT_GENERATED_(65)
  6
Continuous
 62
     7
100
AcDbCircle
 10
105.8354989713
 20
337.1179244271
 30
0.0
 40
0.3000474011157859
100
AcDbArc
 50
118.2422403207
 51
221.4180807424
  0
ARC
  5
FB
330
5E
100
AcDbEntity
  8
$DDT_AUDIT_GENERATED_(65)
  6
Continuous
 62
     7
100
AcDbCircle
 10
98.0358877619
 20
350.6272515097
 30
0.0
 40
0.3000491040155906
100
AcDbArc
 50
198.5823293483
 51
301.7573495881
  0
LINE
  5
FC
330
5E
100
AcDbEntity
  8
$DDT_AUDIT_GENERATED_(65)
  6
Continuous
 62
     7
100
AcDbLine
 10
98.1938105058
 20
350.3721243419
 30
0.0
 11
98.2654438162
 21
350.4137857627
 31
0.0
  0
LINE
  5
FD
330
5E
100
AcDbEntity
  8
$DDT_AUDIT_GENERATED_(65)
  6
Continuous
 62
     7
100
AcDbLine
 10
113.2723684535
 20
376.4065416998
 30
0.0
 11
113.2723684535
 21
366.2949161066
 31
0.0
  0
LINE
  5
FE
330
5E
100
AcDbEntity
  8
$DDT_AUDIT_GENERATED_(65)
  6
Continuous
 62
     7
100
AcDbLine
 10
113.2723684535
 20
376.4065416998
 30
0.0
 11
113.2726316471
 21
376.4894086768
 31
0.0
  0
ARC
  5
FF
330
5E
100
AcDbEntity
  8
$DDT_AUDIT_GENERATED_(65)
  6
Continuous
 62
     7
100
AcDbCircle
 10
112.9727254345
 20
376.4986122953
 30
0.0
 40
0.3000474011157877
100
AcDbArc
 50
358.2422403207
 51
101.4180807424
  0
ARC
  5
100
330
5E
100
AcDbEntity
  8
$DDT_AUDIT_GENERATED_(65)
  6
Continuous
 62
     7
100
AcDbCircle
 10
128.5719514808
 20
376.4986102009
 30
0.0
 40
0.3000491040155919
100
AcDbArc
 50
78.5823293483
 51
181.7573495881
  0
LINE
  5
101
330
5E
100
AcDbEntity
  8
$DDT_AUDIT_GENERATED_(65)
  6
Continuous
 62
     7
100
AcDbLine
 10
128.2720435003
 20
376.4894086768
 30
0.0
 11
128.2723066939
 21
376.4065416998
 31
0.0
  0
LINE
  5
102
330
5E
100
AcDbEntity
  8
$DDT_AUDIT_GENERATED_(65)
  6
Continuous
 62
     7
100
AcDbLine
 10
143.2792313311
 20
350.4137857627
 30
0.0
 11
134.5223066939
 21
355.4695985593
 31
0.0
  0
LINE
  5
103
330
5E
100
AcDbEntity
  8
$DDT_AUDIT_GENERATED_(65)
  6
Continuous
 62
     7
100
AcDbLine
 10
143.2792313311
 20
350.4137857627
 30
0.0
 11
143.3508646415
 21
350.3721243419
 31
0.0
  0
ARC
  5
104
330
5E
100
AcDbEntity
  8
$DDT_AUDIT_GENERATED_(65)
  6
Continuous
 62
     7
100
AcDbCircle
 10
143.5087883152
 20
350.6272489315
 30
0.0
 40
0.3000474011164307
100
AcDbArc
 50
238.2422403208
 51
341.4180807421
  0
ARC
  5
105
330
5E
100
AcDbEntity
  8
$DDT_AUDIT_GENERATED_(65)
  6
Continuous
 62
     7
100
AcDbCircle
 10
135.7091734783
 20
337.1179239432
 30
0.0
 40
0.3000491040155867
100
AcDbArc
 50
318.5823293483
 51
61.7573495881
  0
LINE
  5
106
330
5E
100
AcDbEntity
  8
$DDT_AUDIT_GENERATED_(65)
  6
Continuous
 62
     7
100
AcDbLine
 10
135.8511587149
 20
337.3822526352
 30
0.0
 11
135.7792622109
 21
337.4234581913
 31
0.0
  0
LINE
  5
107
330
5E
100
AcDbEntity
  8
$DDT_AUDIT_GENERATED_(65)
  6
Continuous
 62
     7
100
AcDbLine
 10
125.9843697844
 20
381.8667186002
 30
0.0
 11
125.9879131699
 21
382.2727503548
 31
0.0
  0
ARC
  5
108
330
5E
100
AcDbEntity
  8
$DDT_AUDIT_GENERATED_(65)
  6
Continuous
 62
     7
100
AcDbCircle
 10
121.4425907616
 20
356.785228448
 30
0.0
 40
25.48934416875444
100
AcDbArc
 50
79.7360414805
 51
83.0285813264
  0
ARC
  5
109
330
5E
100
AcDbEntity
  8
$DDT_AUDIT_GENERATED_(65)
  6
Continuous
 62
     7
100
AcDbCircle
 10
120.7723375737
 20
354.7447759464
 30
0.0
 40
27.59922279377746
100
AcDbArc
 50
82.1615315995
 51
97.8384684005
  0
ARC
  5
10A
330
5E
100
AcDbEntity
  8
$DDT_AUDIT_GENERATED_(65)
  6
Continuous
 62
     7
100
AcDbCircle
 10
121.6486361946
 20
346.573268172
 30
0.0
 40
35.81473740571938
100
AcDbArc
 50
97.4443985043
 51
99.787535727
  0
LINE
  5
10B
330
5E
100
AcDbEntity
  8
$DDT_AUDIT_GENERATED_(A1)
  6
Continuous
 62
     7
100
AcDbLine
 10
125.7723375737
 20
386.066352505
 30
0.0
 11
125.7723375737
 21
381.8988869343
 31
0.0
  0
LINE
  5
10C
330
5E
100
AcDbEntity
  8
$DDT_AUDIT_GENERATED_(A1)
  6
Continuous
 62
     7
100
AcDbLine
 10
115.7723375737
 20
381.8985619217
 30
0.0
 11
115.7723375737
 21
386.066352505
 31
0.0
  0
ARC
  5
10D
330
5E
100
AcDbEntity
  8
$DDT_AUDIT_GENERATED_(A1)
  6
Continuous
 62
     7
100
AcDbCircle
 10
116.7723375737
 20
386.066352505
 30
0.0
 40
0.9999999999999931
100
AcDbArc
 50
97.2080559321
 51
180.0
  0
ARC
  5
10E
330
5E
100
AcDbEntity
  8
$DDT_AUDIT_GENERATED_(A1)
  6
Continuous
 62
     7
100
AcDbCircle
 10
120.7723375737
 20
354.4388394626
 30
0.0
 40
32.87945390445203
100
AcDbArc
 50
82.7919475637
 51
97.2080524363
  0
ARC
  5
10F
330
5E
100
AcDbEntity
  8
$DDT_AUDIT_GENERATED_(A1)
  6
Continuous
 62
     7
100
AcDbCircle
 10
124.7723375737
 20
386.066352505
 30
0.0
 40
1.0
100
AcDbArc
 50
0.0
 51
82.7919440679
  0
ARC
  5
111
330
5E
100
AcDbEntity
  8
$DDT_AUDIT_GENERATED_(110)
  6
Continuous
 62
     7
100
AcDbCircle
 10
120.7723375737
 20
416.6539534406
 30
0.0
 40
12.59999999999999
100
AcDbArc
 50
60.0000000001
 51
120.0
  0
LINE
  5
112
330
5E
100
AcDbEntity
  8
$DDT_AUDIT_GENERATED_(110)
  6
Continuous
 62
     7
100
AcDbLine
 10
139.0748374317
 20
420.6362270043
 30
0.0
 11
127.0723375737
 21
427.5658735283
 31
0.0
  0
LINE
  5
113
330
5E
100
AcDbEntity
  8
$DDT_AUDIT_GENERATED_(110)
  6
Continuous
 62
     7
100
AcDbLine
 10
114.4723375737
 20
427.5658735283
 30
0.0
 11
102.4698377157
 21
420.6362270043
 31
0.0
  0
ARC
  5
114
330
5E
100
AcDbEntity
  8
$DDT_AUDIT_GENERATED_(110)
  6
Continuous
 62
     7
100
AcDbCircle
 10
139.5748374317
 20
421.5022524081
 30
0.0
 40
1.000000000000002
100
AcDbArc
 50
240.0000000001
 51
315.8610187348
  0
ARC
  5
115
330
5E
100
AcDbEntity
  8
$DDT_AUDIT_GENERATED_(110)
  6
Continuous
 62
     7
100
AcDbCircle
 10
101.9698377157
 20
421.5022524081
 30
0.0
 40
0.9999999999999918
100
AcDbArc
 50
224.1389812652
 51
300.0
  0
ARC
  5
116
330
5E
100
AcDbEntity
  8
$DDT_AUDIT_GENERATED_(110)
  6
Continuous
 62
     7
100
AcDbCircle
 10
120.7723375737
 20
439.7479642082
 30
0.0
 40
27.2
100
AcDbArc
 50
315.8610187348
 51
344.1389812652
  0
ARC
  5
117
330
5E
100
AcDbEntity
  8
$DDT_AUDIT_GENERATED_(110)
  6
Continuous
 62
     7
100
AcDbCircle
 10
120.7723375737
 20
439.7479642082
 30
0.0
 40
27.2
100
AcDbArc
 50
195.8610187348
 51
224.1389812652
  0
ARC
  5
118
330
5E
100
AcDbEntity
  8
$DDT_AUDIT_GENERATED_(110)
  6
Continuous
 62
     7
100
AcDbCircle
 10
145.9748374316
 20
432.5873775765
 30
0.0
 40
1.000000000000006
100
AcDbArc
 50
344.1389812652
 51
60.0
  0
ARC
  5
119
330
5E
100
AcDbEntity
  8
$DDT_AUDIT_GENERATED_(110)
  6
Continuous
 62
     7
100
AcDbCircle
 10
95.5698377157
 20
432.5873775766
 30
0.0
 40
1.000000000000008
100
AcDbArc
 50
120.0
 51
195.8610187348
  0
LINE
  5
11A
330
5E
100
AcDbEntity
  8
$DDT_AUDIT_GENERATED_(110)
  6
Continuous
 62
     7
100
AcDbLine
 10
134.4723375737
 20
440.3830495043
 30
0.0
 11
146.4748374316
 21
433.4534029803
 31
0.0
  0
LINE
  5
11B
330
5E
100
AcDbEntity
  8
$DDT_AUDIT_GENERATED_(110)
  6
Continuous
 62
     7
100
AcDbLine
 10
95.0698377157
 20
433.4534029803
 30
0.0
 11
107.0723375737
 21
440.3830495043
 31
0.0
  0
ARC
  5
11C
330
5E
100
AcDbEntity
  8
$DDT_AUDIT_GENERATED_(110)
  6
Continuous
 62
     7
100
AcDbCircle
 10
140.7723375737
 20
451.294969592
 30
0.0
 40
12.6
100
AcDbArc
 50
180.0
 51
240.0
  0
ARC
  5
11D
330
5E
100
AcDbEntity
  8
$DDT_AUDIT_GENERATED_(110)
  6
Continuous
 62
     7
100
AcDbCircle
 10
100.7723375737
 20
451.294969592
 30
0.0
 40
12.59999999999999
100
AcDbArc
 50
300.0
 51
0.0
  0
LINE
  5
11E
330
5E
100
AcDbEntity
  8
$DDT_AUDIT_GENERATED_(110)
  6
Continuous
 62
     7
100
AcDbLine
 10
128.1723375737
 20
465.1542626399
 30
0.0
 11
128.1723375737
 21
451.294969592
 31
0.0
  0
LINE
  5
11F
330
5E
100
AcDbEntity
  8
$DDT_AUDIT_GENERATED_(110)
  6
Continuous
 62
     7
100
AcDbLine
 10
113.3723375737
 20
451.294969592
 30
0.0
 11
113.3723375737
 21
465.1542626399
 31
0.0
  0
ARC
  5
120
330
5E
100
AcDbEntity
  8
$DDT_AUDIT_GENERATED_(110)
  6
Continuous
 62
     7
100
AcDbCircle
 10
127.1723375737
 20
465.1542626399
 30
0.0
 40
0.999999999999995
100
AcDbArc
 50
0.0
 51
75.8610187348
  0
ARC
  5
121
330
5E
100
AcDbEntity
  8
$DDT_AUDIT_GENERATED_(110)
  6
Continuous
 62
     7
100
AcDbCircle
 10
114.3723375737
 20
465.1542626399
 30
0.0
 40
1.0
100
AcDbArc
 50
104.1389812652
 51
180.0
  0
ARC
  5
122
330
5E
100
AcDbEntity
  8
$DDT_AUDIT_GENERATED_(110)
  6
Continuous
 62
     7
100
AcDbCircle
 10
120.7723375737
 20
439.7479642082
 30
0.0
 40
27.2
100
AcDbArc
 50
75.8610187348
 51
104.1389812652
  0
ARC
  5
123
330
5E
100
AcDbEntity
  8
$DDT_AUDIT_GENERATED_(110)
  6
Continuous
 62
     7
100
AcDbCircle
 10
120.7723375737
 20
331.6539534406
 30
0.0
 40
12.6
100
AcDbArc
 50
60.0000000001
 51
120.0
  0
LINE
  5
124
330
5E
100
AcDbEntity
  8
$DDT_AUDIT_GENERATED_(110)
  6
Continuous
 62
     7
100
AcDbLine
 10
139.0748374317
 20
335.6362270043
 30
0.0
 11
127.0723375737
 21
342.5658735283
 31
0.0
  0
LINE
  5
125
330
5E
100
AcDbEntity
  8
$DDT_AUDIT_GENERATED_(110)
  6
Continuous
 62
     7
100
AcDbLine
 10
114.4723375737
 20
342.5658735283
 30
0.0
 11
102.4698377157
 21
335.6362270043
 31
0.0
  0
ARC
  5
126
330
5E
100
AcDbEntity
  8
$DDT_AUDIT_GENERATED_(110)
  6
Continuous
 62
     7
100
AcDbCircle
 10
139.5748374317
 20
336.5022524081
 30
0.0
 40
0.9999999999999968
100
AcDbArc
 50
240.0000000001
 51
315.8610187348
  0
ARC
  5
127
330
5E
100
AcDbEntity
  8
$DDT_AUDIT_GENERATED_(110)
  6
Continuous
 62
     7
100
AcDbCircle
 10
101.9698377157
 20
336.5022524081
 30
0.0
 40
1.000000000000003
100
AcDbArc
 50
224.1389812652
 51
300.0
  0
ARC
  5
128
330
5E
100
AcDbEntity
  8
$DDT_AUDIT_GENERATED_(110)
  6
Continuous
 62
     7
100
AcDbCircle
 10
120.7723375737
 20
354.7479642082
 30
0.0
 40
27.2
100
AcDbArc
 50
315.8610187348
 51
344.1389812652
  0
ARC
  5
129
330
5E
100
AcDbEntity
  8
$DDT_AUDIT_GENERATED_(110)
  6
Continuous
 62
     7
100
AcDbCircle
 10
120.7723375737
 20
354.7479642082
 30
0.0
 40
27.2
100
AcDbArc
 50
195.8610187348
 51
224.1389812652
  0
ARC
  5
12A
330
5E
100
AcDbEntity
  8
$DDT_AUDIT_GENERATED_(110)
  6
Continuous
 62
     7
100
AcDbCircle
 10
145.9748374316
 20
347.5873775765
 30
0.0
 40
1.000000000000001
100
AcDbArc
 50
344.1389812652
 51
60.0
  0
ARC
  5
12B
330
5E
100
AcDbEntity
  8
$DDT_AUDIT_GENERATED_(110)
  6
Continuous
 62
     7
100
AcDbCircle
 10
95.5698377157
 20
347.5873775766
 30
0.0
 40
1.000000000000006
100
AcDbArc
 50
120.0
 51
195.8610187348
  0
LINE
  5
12C
330
5E
100
AcDbEntity
  8
$DDT_AUDIT_GENERATED_(110)
  6
Continuous
 62
     7
100
AcDbLine
 10
134.4723375737
 20
355.3830495043
 30
0.0
 11
146.4748374316
 21
348.4534029803
 31
0.0
  0
LINE
  5
12D
330
5E
100
AcDbEntity
  8
$DDT_AUDIT_GENERATED_(110)
  6
Continuous
 62
     7
100
AcDbLine
 10
95.0698377157
 20
348.4534029803
 30
0.0
 11
107.0723375737
 21
355.3830495043
 31
0.0
  0
ARC
  5
12E
330
5E
100
AcDbEntity
  8
$DDT_AUDIT_GENERATED_(110)
  6
Continuous
 62
     7
100
AcDbCircle
 10
140.7723375737
 20
366.294969592
 30
0.0
 40
12.6
100
AcDbArc
 50
180.0
 51
240.0
  0
ARC
  5
12F
330
5E
100
AcDbEntity
  8
$DDT_AUDIT_GENERATED_(110)
  6
Continuous
 62
     7
100
AcDbCircle
 10
100.7723375737
 20
366.294969592
 30
0.0
 40
12.6
100
AcDbArc
 50
300.0
 51
0.0
  0
LINE
  5
130
330
5E
100
AcDbEntity
  8
$DDT_AUDIT_GENERATED_(110)
  6
Continuous
 62
     7
100
AcDbLine
 10
128.1723375737
 20
380.1542626399
 30
0.0
 11
128.1723375737
 21
366.294969592
 31
0.0
  0
LINE
  5
131
330
5E
100
AcDbEntity
  8
$DDT_AUDIT_GENERATED_(110)
  6
Continuous
 62
     7
100
AcDbLine
 10
113.3723375737
 20
366.294969592
 30
0.0
 11
113.3723375737
 21
380.1542626399
 31
0.0
  0
ARC
  5
132
330
5E
100
AcDbEntity
  8
$DDT_AUDIT_GENERATED_(110)
  6
Continuous
 62
     7
100
AcDbCircle
 10
127.1723375737
 20
380.1542626399
 30
0.0
 40
0.9999999999999986
100
AcDbArc
 50
0.0
 51
75.8610187348
  0
ARC
  5
133
330
5E
100
AcDbEntity
  8
$DDT_AUDIT_GENERATED_(110)
  6
Continuous
 62
     7
100
AcDbCircle
 10
114.3723375737
 20
380.1542626399
 30
0.0
 40
1.0
100
AcDbArc
 50
104.1389812652
 51
180.0
  0
ARC
  5
134
330
5E
100
AcDbEntity
  8
$DDT_AUDIT_GENERATED_(110)
  6
Continuous
 62
     7
100
AcDbCircle
 10
120.7723375737
 20
354.7479642082
 30
0.0
 40
27.2
100
AcDbArc
 50
75.8610187348
 51
104.1389812652
  0
ARC
  5
135
330
5E
100
AcDbEntity
  8
$DDT_AUDIT_GENERATED_(C6)
  6
Continuous
 62
     7
100
AcDbCircle
 10
120.7723375737
 20
439.7479285513
 30
0.0
 40
26.25
100
AcDbArc
 50
107.86532653
 51
179.3557695473
  0
ENDBLK
  5
137
330
5E
100
AcDbEntity
  8
0
100
AcDbBlockEnd
  0
BLOCK
  5
218
330
138
100
AcDbEntity
  8
0
100
AcDbBlockBegin
  2
SE1
 70
     0
 10
0.0
 20
0.0
 30
0.0
  3
SE1
  1

  0
LINE
  5
13A
330
138
100
AcDbEntity
  8
$DDT_AUDIT_GENERATED_(60)
  6
Continuous
 62
     7
100
AcDbLine
 10
145.0223375737
 20
208.2583668548
 30
0.0
 11
96.5223375737
 21
208.2583668548
 31
0.0
  0
ARC
  5
13B
330
138
100
AcDbEntity
  8
$DDT_AUDIT_GENERATED_(60)
  6
Continuous
 62
     7
100
AcDbCircle
 10
96.5223375737
 20
210.2583668548
 30
0.0
 40
1.999999999999998
100
AcDbArc
 50
188.6269265587
 51
270.0
  0
ARC
  5
13C
330
138
100
AcDbEntity
  8
$DDT_AUDIT_GENERATED_(60)
  6
Continuous
 62
     7
100
AcDbCircle
 10
145.0223375737
 20
210.2583668548
 30
0.0
 40
2.000000000000002
100
AcDbArc
 50
270.0
 51
351.3730734413
  0
LINE
  5
13E
330
138
100
AcDbEntity
  8
$DDT_AUDIT_GENERATED_(13D)
  6
Continuous
 62
     7
100
AcDbLine
 10
115.6715353504
 20
172.2083668548
 30
0.0
 11
115.6715353504
 21
173.7083668548
 31
0.0
  0
LINE
  5
13F
330
138
100
AcDbEntity
  8
$DDT_AUDIT_GENERATED_(13D)
  6
Continuous
 62
     7
100
AcDbLine
 10
125.929288158
 20
186.6083668548
 30
0.0
 11
125.7432529823
 21
186.6083668548
 31
0.0
  0
LINE
  5
140
330
138
100
AcDbEntity
  8
$DDT_AUDIT_GENERATED_(13D)
  6
Continuous
 62
     7
100
AcDbLine
 10
125.7723375737
 20
172.2083668548
 30
0.0
 11
125.9232672126
 21
172.2083668548
 31
0.0
  0
LINE
  5
141
330
138
100
AcDbEntity
  8
$DDT_AUDIT_GENERATED_(13D)
  6
Continuous
 62
     7
100
AcDbLine
 10
115.6214079348
 20
172.2083668548
 30
0.0
 11
115.6715353504
 21
172.2083668548
 31
0.0
  0
SPLINE
  5
142
330
138
100
AcDbEntity
  8
$DDT_AUDIT_GENERATED_(13D)
  6
Continuous
 62
     7
100
AcDbSpline
210
0.0
220
0.0
230
1.0
 70
     8
 71
     3
 72
     8
 73
     4
 74
     0
 42
0.0000000097146378
 43
0.0000000001
 40
0.8179920862089174
 40
0.8179920862089174
 40
0.8179920862089174
 40
0.8179920862089174
 40
1.0
 40
1.0
 40
1.0
 40
1.0
 10
115.624618878933
 20
173.8858016964164
 30
0.0
 10
115.6538013720899
 20
173.831844147675
 30
0.0
 10
115.6715353503954
 20
173.7710418988125
 30
0.0
 10
115.6715353503953
 20
173.7083668548089
 30
0.0
  0
LINE
  5
143
330
138
100
AcDbEntity
  8
$DDT_AUDIT_GENERATED_(13D)
  6
Continuous
 62
     7
100
AcDbLine
 10
115.6715353504
 20
176.7083668548
 30
0.0
 11
115.6715353504
 21
178.5083668548
 31
0.0
  0
SPLINE
  5
144
330
138
100
AcDbEntity
  8
$DDT_AUDIT_GENERATED_(13D)
  6
Continuous
 62
     7
100
AcDbSpline
210
0.0
220
0.0
230
1.0
 70
     8
 71
     3
 72
     8
 73
     4
 74
     0
 42
0.0000000097141247
 43
0.0000000001
 40
0.8171020285134463
 40
0.8171020285134463
 40
0.8171020285134463
 40
0.8171020285134463
 40
1.0
 40
1.0
 40
1.0
 40
1.0
 10
115.6241899323894
 20
178.6865927967013
 30
0.0
 10
115.6536275020889
 20
178.6324387749375
 30
0.0
 10
115.6715353503954
 20
178.5713483932064
 30
0.0
 10
115.6715353503952
 20
178.5083668548089
 30
0.0
  0
SPLINE
  5
145
330
138
100
AcDbEntity
  8
$DDT_AUDIT_GENERATED_(13D)
  6
Continuous
 62
     7
100
AcDbSpline
210
0.0
220
0.0
230
1.0
 70
     8
 71
     3
 72
     8
 73
     4
 74
     0
 42
0.0000000097616247
 43
0.0000000001
 40
0.0
 40
0.0
 40
0.0
 40
0.0
 40
0.1824182355201142
 40
0.1824182355201142
 40
0.1824182355201142
 40
0.1824182355201142
 10
115.6715353503952
 20
176.7083668548089
 30
0.0
 10
115.6715353503953
 20
176.6455904760857
 30
0.0
 10
115.6541268029838
 20
176.5852896564968
 30
0.0
 10
115.6249361165184
 20
176.5313485404062
 30
0.0
  0
LINE
  5
146
330
138
100
AcDbEntity
  8
$DDT_AUDIT_GENERATED_(13D)
  6
Continuous
 62
     7
100
AcDbLine
 10
115.6611725568
 20
192.5501092853
 30
0.0
 11
115.9719236161
 21
192.5501092853
 31
0.0
  0
LINE
  5
147
330
138
100
AcDbEntity
  8
$DDT_AUDIT_GENERATED_(13D)
  6
Continuous
 62
     7
100
AcDbLine
 10
125.5727515313
 20
192.5501092853
 30
0.0
 11
125.8835025906
 21
192.5501092853
 31
0.0
  0
LINE
  5
148
330
138
100
AcDbEntity
  8
$DDT_AUDIT_GENERATED_(13D)
  6
Continuous
 62
     7
100
AcDbLine
 10
115.6205803611
 20
174.2083668548
 30
0.0
 11
115.7719753
 21
174.2083668548
 31
0.0
  0
LINE
  5
149
330
138
100
AcDbEntity
  8
$DDT_AUDIT_GENERATED_(13D)
  6
Continuous
 62
     7
100
AcDbLine
 10
115.6123105189
 20
176.2083668548
 30
0.0
 11
115.7658106893
 21
176.2083668548
 31
0.0
  0
LINE
  5
14A
330
138
100
AcDbEntity
  8
$DDT_AUDIT_GENERATED_(13D)
  6
Continuous
 62
     7
100
AcDbLine
 10
115.801422165
 20
186.6083668548
 30
0.0
 11
115.6151409132
 21
186.6083668548
 31
0.0
  0
LINE
  5
14B
330
138
100
AcDbEntity
  8
$DDT_AUDIT_GENERATED_(13D)
  6
Continuous
 62
     7
100
AcDbLine
 10
125.931879861
 20
171.0083668548
 30
0.0
 11
125.7846811726
 21
171.0083668548
 31
0.0
  0
LINE
  5
14C
330
138
100
AcDbEntity
  8
$DDT_AUDIT_GENERATED_(13D)
  6
Continuous
 62
     7
100
AcDbLine
 10
115.7623383159
 20
171.0083668548
 30
0.0
 11
115.6143120659
 21
171.0083668548
 31
0.0
  0
LINE
  5
14E
330
138
100
AcDbEntity
  8
$DDT_AUDIT_GENERATED_(14D)
  6
Continuous
 62
     7
100
AcDbLine
 10
125.7865415444
 20
186.4583668548
 30
0.0
 11
125.9372307908
 21
186.4583668548
 31
0.0
  0
ELLIPSE
  5
14F
330
138
100
AcDbEntity
  8
$DDT_AUDIT_GENERATED_(14D)
  6
Continuous
 62
     7
100
AcDbEllipse
 10
120.7723375699
 20
188.9503591324
 30
0.0
 11
-15.95370202642434
 21
-56.1640790434255
 31
0.0
210
0.0
220
0.0
230
1.0
 40
0.1484121179
 41
1.370902236414969
 42
1.379593464541548
  0
LINE
  5
150
330
138
100
AcDbEntity
  8
$DDT_AUDIT_GENERATED_(65)
  6
Continuous
 62
     7
100
AcDbLine
 10
119.0227638825
 20
199.0083668548
 30
0.0
 11
113.4807342281
 21
199.0083668548
 31
0.0
  0
LINE
  5
151
330
138
100
AcDbEntity
  8
$DDT_AUDIT_GENERATED_(65)
  6
Continuous
 62
     7
100
AcDbLine
 10
119.0227638825
 20
199.0083668548
 30
0.0
 11
119.0238259897
 21
194.364157105
 31
0.0
  0
ARC
  5
152
330
138
100
AcDbEntity
  8
$DDT_AUDIT_GENERATED_(65)
  6
Continuous
 62
     7
100
AcDbCircle
 10
120.7723375737
 20
212.1396781385
 30
0.0
 40
17.8613112836616
100
AcDbArc
 50
264.3821011936
 51
275.6178988064
  0
LINE
  5
153
330
138
100
AcDbEntity
  8
$DDT_AUDIT_GENERATED_(65)
  6
Continuous
 62
     7
100
AcDbLine
 10
122.5219112649
 20
199.0083668548
 30
0.0
 11
122.5208491577
 21
194.364157105
 31
0.0
  0
LINE
  5
154
330
138
100
AcDbEntity
  8
$DDT_AUDIT_GENERATED_(65)
  6
Continuous
 62
     7
100
AcDbLine
 10
122.4984109199
 20
199.0083668548
 30
0.0
 11
119.0462642275
 21
199.0083668548
 31
0.0
  0
LINE
  5
155
330
138
100
AcDbEntity
  8
$DDT_AUDIT_GENERATED_(65)
  6
Continuous
 62
     7
100
AcDbLine
 10
119.0462642275
 20
199.0083668548
 30
0.0
 11
119.0227638825
 21
199.0083668548
 31
0.0
  0
ELLIPSE
  5
156
330
138
100
AcDbEntity
  8
$DDT_AUDIT_GENERATED_(65)
  6
Continuous
 62
     7
100
AcDbEllipse
 10
122.6499113055
 20
198.9107683935
 30
0.0
 11
0.0
 21
0.1802160550646288
 31
0.0
210
0.0
220
0.0
230
1.0
 40
1.0
 41
0.9985003236894676
 42
3.113213825770499
  0
LINE
  5
157
330
138
100
AcDbEntity
  8
$DDT_AUDIT_GENERATED_(65)
  6
Continuous
 62
     7
100
AcDbLine
 10
122.4984109199
 20
199.0083668548
 30
0.0
 11
122.5219112649
 21
199.0083668548
 31
0.0
  0
ELLIPSE
  5
158
330
138
100
AcDbEntity
  8
$DDT_AUDIT_GENERATED_(65)
  6
Continuous
 62
     7
100
AcDbEllipse
 10
118.8947638419
 20
198.9107683935
 30
0.0
 11
0.0
 21
4.548442727683298
 31
0.0
210
0.0
220
0.0
230
1.0
 40
1.0
 41
3.169971481409085
 42
5.284684983490516
  0
LINE
  5
159
330
138
100
AcDbEntity
  8
$DDT_AUDIT_GENERATED_(65)
  6
Continuous
 62
     7
100
AcDbLine
 10
115.6201142098
 20
188.7028694565
 30
0.0
 11
115.622219345
 21
161.8631934146
 31
0.0
  0
ELLIPSE
  5
15A
330
138
100
AcDbEntity
  8
$DDT_AUDIT_GENERATED_(65)
  6
Continuous
 62
     7
100
AcDbEllipse
 10
120.7723375737
 20
193.0787508928
 30
0.0
 11
20.94825296469715
 21
-1.545536467775048E-15
 31
0.0
210
0.0
220
0.0
230
1.0
 40
0.0087268678
 41
1.37898838614027
 42
1.762604267449545
  0
LINE
  5
15B
330
138
100
AcDbEntity
  8
$DDT_AUDIT_GENERATED_(65)
  6
Continuous
 62
     7
100
AcDbLine
 10
125.9231574054
 20
170.8083668548
 30
0.0
 11
125.7723375737
 21
170.8083668548
 31
0.0
  0
LINE
  5
15C
330
138
100
AcDbEntity
  8
$DDT_AUDIT_GENERATED_(65)
  6
Continuous
 62
     7
100
AcDbLine
 10
115.7723375737
 20
170.8083668548
 30
0.0
 11
115.6215177419
 21
170.8083668548
 31
0.0
  0
LINE
  5
15D
330
138
100
AcDbEntity
  8
$DDT_AUDIT_GENERATED_(65)
  6
Continuous
 62
     7
100
AcDbLine
 10
124.7657866351
 20
193.2582109603
 30
0.0
 11
124.9272197561
 21
193.2582109603
 31
0.0
  0
LINE
  5
15E
330
138
100
AcDbEntity
  8
$DDT_AUDIT_GENERATED_(65)
  6
Continuous
 62
     7
100
AcDbLine
 10
115.6180686623
 20
189.4821882452
 30
0.0
 11
115.6176458136
 21
192.2580966918
 31
0.0
  0
ELLIPSE
  5
15F
330
138
100
AcDbEntity
  8
$DDT_AUDIT_GENERATED_(65)
  6
Continuous
 62
     7
100
AcDbEllipse
 10
115.6311569703
 20
189.5083668548
 30
0.0
 11
1.624055311640166E-15
 21
-1.500000000000043
 31
0.0
210
0.0
220
0.0
230
1.0
 40
0.0087268678
 41
-1.553343034274885
 42
-1.003921578107217
  0
ELLIPSE
  5
160
330
138
100
AcDbEntity
  8
$DDT_AUDIT_GENERATED_(65)
  6
Continuous
 62
     7
100
AcDbEllipse
 10
125.9135181771
 20
189.5083668548
 30
0.0
 11
7.566935736517652E-16
 21
-1.500000000000001
 31
0.0
210
0.0
220
0.0
230
1.0
 40
0.0087268678
 41
1.003921578109985
 42
1.553343034275055
  0
LINE
  5
161
330
138
100
AcDbEntity
  8
$DDT_AUDIT_GENERATED_(65)
  6
Continuous
 62
     7
100
AcDbLine
 10
113.2726316471
 20
153.0133888879
 30
0.0
 11
113.2707041672
 21
152.9766103815
 31
0.0
  0
ARC
  5
162
330
138
100
AcDbEntity
  8
$DDT_AUDIT_GENERATED_(65)
  6
Continuous
 62
     7
100
AcDbCircle
 10
109.8871189658
 20
270.5691185686
 30
0.0
 40
118.7246918817271
100
AcDbArc
 50
268.5328568854
 51
271.4671431146
  0
ELLIPSE
  5
163
330
138
100
AcDbEntity
  8
$DDT_AUDIT_GENERATED_(65)
  6
Continuous
 62
     7
100
AcDbEllipse
 10
112.9287184346
 20
152.1833306551
 30
0.0
 11
-0.2995888604233332
 21
0.01570078692395007
 31
0.0
210
0.0
220
0.0
230
1.0
 40
0.9999604486
 41
1.617119154250165
 42
3.141592653589793
  0
ELLIPSE
  5
164
330
138
100
AcDbEntity
  8
$DDT_AUDIT_GENERATED_(65)
  6
Continuous
 62
     7
100
AcDbEllipse
 10
90.7144597406
 20
1448.6593862624
 30
0.0
 11
135.3722179256006
 21
-1291.531864493018
 31
0.0
210
0.0
220
0.0
230
1.0
 40
0.8648380366
 41
-0.0815071311647042
 42
-0.0799382658253229
  0
ARC
  5
165
330
138
100
AcDbEntity
  8
$DDT_AUDIT_GENERATED_(65)
  6
Continuous
 62
     7
100
AcDbCircle
 10
131.6575561816
 20
287.4896886283
 30
0.0
 40
135.6404067635058
100
AcDbArc
 50
268.7158571272
 51
271.2841428728
  0
LINE
  5
166
330
138
100
AcDbEntity
  8
$DDT_AUDIT_GENERATED_(65)
  6
Continuous
 62
     7
100
AcDbLine
 10
128.3163678523
 20
152.1676298682
 30
0.0
 11
128.3101707744
 21
152.2858771592
 31
0.0
  0
ELLIPSE
  5
167
330
138
100
AcDbEntity
  8
$DDT_AUDIT_GENERATED_(65)
  6
Continuous
 62
     7
100
AcDbEllipse
 10
128.6159567128
 20
152.1833306551
 30
0.0
 11
-0.2995888604385537
 21
-0.0157007866336267
 31
0.0
210
0.0
220
0.0
230
1.0
 40
0.9999604486
 41
0.0
 42
1.524473500308617
  0
LINE
  5
168
330
138
100
AcDbEntity
  8
$DDT_AUDIT_GENERATED_(65)
  6
Continuous
 62
     7
100
AcDbLine
 10
112.3589834603
 20
199.0083668548
 30
0.0
 11
112.683601284
 21
199.0083668548
 31
0.0
  0
LINE
  5
169
330
138
100
AcDbEntity
  8
$DDT_AUDIT_GENERATED_(65)
  6
Continuous
 62
     7
100
AcDbLine
 10
96.7723375737
 20
199.0083668548
 30
0.0
 11
94.0738676975
 21
199.0083668548
 31
0.0
  0
LINE
  5
16A
330
138
100
AcDbEntity
  8
$DDT_AUDIT_GENERATED_(65)
  6
Continuous
 62
     7
100
AcDbLine
 10
96.7723375737
 20
199.0083668548
 30
0.0
 11
112.3589834603
 21
199.0083668548
 31
0.0
  0
LINE
  5
16B
330
138
100
AcDbEntity
  8
$DDT_AUDIT_GENERATED_(65)
  6
Continuous
 62
     7
100
AcDbLine
 10
128.8610738633
 20
199.0083668548
 30
0.0
 11
128.8042575854
 21
199.0083668548
 31
0.0
  0
LINE
  5
16C
330
138
100
AcDbEntity
  8
$DDT_AUDIT_GENERATED_(65)
  6
Continuous
 62
     7
100
AcDbLine
 10
129.185691687
 20
199.0083668548
 30
0.0
 11
144.7723375737
 21
199.0083668548
 31
0.0
  0
LINE
  5
16D
330
138
100
AcDbEntity
  8
$DDT_AUDIT_GENERATED_(65)
  6
Continuous
 62
     7
100
AcDbLine
 10
128.8610738633
 20
199.0083668548
 30
0.0
 11
129.185691687
 21
199.0083668548
 31
0.0
  0
LINE
  5
16E
330
138
100
AcDbEntity
  8
$DDT_AUDIT_GENERATED_(65)
  6
Continuous
 62
     7
100
AcDbLine
 10
93.5889992545
 20
199.0083668548
 30
0.0
 11
94.0738676975
 21
199.0083668548
 31
0.0
  0
LINE
  5
16F
330
138
100
AcDbEntity
  8
$DDT_AUDIT_GENERATED_(65)
  6
Continuous
 62
     7
100
AcDbLine
 10
147.4708074499
 20
199.0083668548
 30
0.0
 11
144.7723375737
 21
199.0083668548
 31
0.0
  0
LINE
  5
170
330
138
100
AcDbEntity
  8
$DDT_AUDIT_GENERATED_(65)
  6
Continuous
 62
     7
100
AcDbLine
 10
147.4708074499
 20
199.0083668548
 30
0.0
 11
147.9555797792
 21
199.0083668548
 31
0.0
  0
LINE
  5
171
330
138
100
AcDbEntity
  8
$DDT_AUDIT_GENERATED_(65)
  6
Continuous
 62
     7
100
AcDbLine
 10
125.9270293337
 20
192.2580966918
 30
0.0
 11
125.926606485
 21
189.4821882452
 31
0.0
  0
ELLIPSE
  5
172
330
138
100
AcDbEntity
  8
$DDT_AUDIT_GENERATED_(65)
  6
Continuous
 62
     7
100
AcDbEllipse
 10
120.7723375737
 20
193.0787649097
 30
0.0
 11
28.0245500615215
 21
3.956574641566416E-14
 31
0.0
210
0.0
220
0.0
230
1.0
 40
0.0087268678
 41
1.419739532778108
 42
1.7218531208117
  0
ELLIPSE
  5
173
330
138
100
AcDbEntity
  8
$DDT_AUDIT_GENERATED_(65)
  6
Continuous
 62
     7
100
AcDbEllipse
 10
124.9269912437
 20
192.2580205249
 30
0.0
 11
-0.4720024742650388
 21
-0.8818825882420944
 31
0.0
210
0.0
220
0.0
230
1.0
 40
0.9997254212
 41
2.06218439380067
 42
3.632904568173779
  0
ARC
  5
174
330
138
100
AcDbEntity
  8
$DDT_AUDIT_GENERATED_(65)
  6
Continuous
 62
     7
100
AcDbCircle
 10
124.9872684453
 20
192.3199039401
 30
0.0
 40
1.000645150638869
100
AcDbArc
 50
359.9471264857
 51
89.8690587638
  0
LINE
  5
175
330
138
100
AcDbEntity
  8
$DDT_AUDIT_GENERATED_(65)
  6
Continuous
 62
     7
100
AcDbLine
 10
128.0639409192
 20
199.0083668548
 30
0.0
 11
122.5219112649
 21
199.0083668548
 31
0.0
  0
LINE
  5
176
330
138
100
AcDbEntity
  8
$DDT_AUDIT_GENERATED_(65)
  6
Continuous
 62
     7
100
AcDbLine
 10
128.0639409192
 20
199.0083668548
 30
0.0
 11
128.8042575854
 21
199.0083668548
 31
0.0
  0
LINE
  5
177
330
138
100
AcDbEntity
  8
$DDT_AUDIT_GENERATED_(65)
  6
Continuous
 62
     7
100
AcDbLine
 10
116.6174553912
 20
193.2582109603
 30
0.0
 11
116.7788885122
 21
193.2582109603
 31
0.0
  0
LINE
  5
178
330
138
100
AcDbEntity
  8
$DDT_AUDIT_GENERATED_(65)
  6
Continuous
 62
     7
100
AcDbLine
 10
115.5567619775
 20
192.3189805279
 30
0.0
 11
115.5603053629
 21
161.8012794325
 31
0.0
  0
ELLIPSE
  5
179
330
138
100
AcDbEntity
  8
$DDT_AUDIT_GENERATED_(65)
  6
Continuous
 62
     7
100
AcDbEllipse
 10
116.6176839036
 20
192.2580205249
 30
0.0
 11
0.4720024739439648
 21
-0.8818825884141512
 31
0.0
210
0.0
220
0.0
230
0.9999999999999999
 40
0.9997254212
 41
2.65028073936991
 42
4.22100091374322
  0
ARC
  5
17A
330
138
100
AcDbEntity
  8
$DDT_AUDIT_GENERATED_(65)
  6
Continuous
 62
     7
100
AcDbCircle
 10
116.5576885919
 20
192.3196229531
 30
0.0
 40
1.000926820569332
100
AcDbArc
 50
90.1470405782
 51
180.0367741722
  0
LINE
  5
17B
330
138
100
AcDbEntity
  8
$DDT_AUDIT_GENERATED_(65)
  6
Continuous
 62
     7
100
AcDbLine
 10
112.7404175619
 20
199.0083668548
 30
0.0
 11
112.683601284
 21
199.0083668548
 31
0.0
  0
LINE
  5
17C
330
138
100
AcDbEntity
  8
$DDT_AUDIT_GENERATED_(65)
  6
Continuous
 62
     7
100
AcDbLine
 10
112.7404175619
 20
199.0083668548
 30
0.0
 11
113.4807342281
 21
199.0083668548
 31
0.0
  0
LINE
  5
17D
330
138
100
AcDbEntity
  8
$DDT_AUDIT_GENERATED_(65)
  6
Continuous
 62
     7
100
AcDbLine
 10
113.234504373
 20
152.2858771592
 30
0.0
 11
113.228307295
 21
152.1676298682
 31
0.0
  0
LINE
  5
17E
330
138
100
AcDbEntity
  8
$DDT_AUDIT_GENERATED_(65)
  6
Continuous
 62
     7
100
AcDbLine
 10
113.234504373
 20
152.2858771592
 30
0.0
 11
113.2707041672
 21
152.9766103815
 31
0.0
  0
ELLIPSE
  5
17F
330
138
100
AcDbEntity
  8
$DDT_AUDIT_GENERATED_(65)
  6
Continuous
 62
     7
100
AcDbEllipse
 10
112.9349155125
 20
152.301577946
 30
0.0
 11
0.2995888604227903
 21
-0.01570078693746704
 31
0.0
210
0.0
220
0.0
230
1.0
 40
0.9998692454
 41
4.758711807885008
 42
6.283185307179586
  0
ELLIPSE
  5
180
330
138
100
AcDbEntity
  8
$DDT_AUDIT_GENERATED_(65)
  6
Continuous
 62
     7
100
AcDbEllipse
 10
150.8302171921
 20
1448.6594141898
 30
0.0
 11
-135.3722163468558
 21
-1291.531892805481
 31
0.0
210
0.0
220
0.0
230
1.0
 40
0.8648380273
 41
0.0799382622634375
 42
0.0815071272752418
  0
LINE
  5
181
330
138
100
AcDbEntity
  8
$DDT_AUDIT_GENERATED_(65)
  6
Continuous
 62
     7
100
AcDbLine
 10
128.2739709801
 20
152.9766103815
 30
0.0
 11
128.2720435003
 21
153.0133888879
 31
0.0
  0
LINE
  5
182
330
138
100
AcDbEntity
  8
$DDT_AUDIT_GENERATED_(65)
  6
Continuous
 62
     7
100
AcDbLine
 10
128.2739709801
 20
152.9766103815
 30
0.0
 11
128.3101707744
 21
152.2858771592
 31
0.0
  0
ELLIPSE
  5
183
330
138
100
AcDbEntity
  8
$DDT_AUDIT_GENERATED_(65)
  6
Continuous
 62
     7
100
AcDbEllipse
 10
128.6097596348
 20
152.301577946
 30
0.0
 11
0.2995888604242188
 21
0.01570078690749097
 31
0.0
210
0.0
220
0.0
230
1.0
 40
0.9998692454
 41
3.141592653589828
 42
4.666066152984441
  0
LINE
  5
184
330
138
100
AcDbEntity
  8
$DDT_AUDIT_GENERATED_(65)
  6
Continuous
 62
     7
100
AcDbLine
 10
95.0260645996
 20
153.0083668548
 30
0.0
 11
94.7836633142
 21
153.0083668548
 31
0.0
  0
LINE
  5
185
330
138
100
AcDbEntity
  8
$DDT_AUDIT_GENERATED_(65)
  6
Continuous
 62
     7
100
AcDbLine
 10
128.2723066939
 20
153.0083668548
 30
0.0
 11
127.8303108338
 21
153.0083668548
 31
0.0
  0
LINE
  5
186
330
138
100
AcDbEntity
  8
$DDT_AUDIT_GENERATED_(65)
  6
Continuous
 62
     7
100
AcDbLine
 10
127.7166515479
 20
153.0083668548
 30
0.0
 11
127.3383231646
 21
153.0083668548
 31
0.0
  0
LINE
  5
187
330
138
100
AcDbEntity
  8
$DDT_AUDIT_GENERATED_(65)
  6
Continuous
 62
     7
100
AcDbLine
 10
127.3383231646
 20
153.0083668548
 30
0.0
 11
114.2063519828
 21
153.0083668548
 31
0.0
  0
LINE
  5
188
330
138
100
AcDbEntity
  8
$DDT_AUDIT_GENERATED_(65)
  6
Continuous
 62
     7
100
AcDbLine
 10
114.2063519828
 20
153.0083668548
 30
0.0
 11
113.8280235995
 21
153.0083668548
 31
0.0
  0
LINE
  5
189
330
138
100
AcDbEntity
  8
$DDT_AUDIT_GENERATED_(65)
  6
Continuous
 62
     7
100
AcDbLine
 10
113.7096809272
 20
153.0083668548
 30
0.0
 11
113.2723684535
 21
153.0083668548
 31
0.0
  0
ARC
  5
18A
330
138
100
AcDbEntity
  8
$DDT_AUDIT_GENERATED_(65)
  6
Continuous
 62
     7
100
AcDbCircle
 10
114.7318865196
 20
154.4666120271
 30
0.0
 40
2.05943736867966
100
AcDbArc
 50
207.989022778
 51
224.8813407797
  0
ARC
  5
18B
330
138
100
AcDbEntity
  8
$DDT_AUDIT_GENERATED_(65)
  6
Continuous
 62
     7
100
AcDbCircle
 10
126.8124631217
 20
154.4668523195
 30
0.0
 40
2.059837573347203
100
AcDbArc
 50
315.1203122072
 51
332.0093242357
  0
ELLIPSE
  5
18C
330
138
100
AcDbEntity
  8
$DDT_AUDIT_GENERATED_(65)
  6
Continuous
 62
     7
100
AcDbEllipse
 10
127.772733623
 20
153.5083668548
 30
0.0
 11
1.443253042624591E-12
 21
-0.4999999999999172
 31
0.0
210
0.0
220
0.0
230
1.0
 40
0.9998476952
 41
0.0
 42
1.557706357401952
  0
ELLIPSE
  5
18D
330
138
100
AcDbEntity
  8
$DDT_AUDIT_GENERATED_(65)
  6
Continuous
 62
     7
100
AcDbEllipse
 10
127.7166515479
 20
153.5083668548
 30
0.0
 11
-1.084571066366626E-13
 21
-0.4999999999997229
 31
0.0
210
0.0
220
0.0
230
1.0
 40
0.9998476952
 41
0.0000000000002169
 42
1.557706357405106
  0
ELLIPSE
  5
18E
330
138
100
AcDbEntity
  8
$DDT_AUDIT_GENERATED_(65)
  6
Continuous
 62
     7
100
AcDbEllipse
 10
113.7719415243
 20
153.5083668548
 30
0.0
 11
3.179711242077375E-12
 21
-0.4999999999999172
 31
0.0
210
0.0
220
0.0
230
1.0
 40
0.9998476952
 41
4.72547894976839
 42
6.283185307173254
  0
LINE
  5
18F
330
138
100
AcDbEntity
  8
$DDT_AUDIT_GENERATED_(65)
  6
Continuous
 62
     7
100
AcDbLine
 10
146.7610508304
 20
153.0083668548
 30
0.0
 11
146.5186105478
 21
153.0083668548
 31
0.0
  0
LINE
  5
190
330
138
100
AcDbEntity
  8
$DDT_AUDIT_GENERATED_(65)
  6
Continuous
 62
     7
100
AcDbLine
 10
125.9843697844
 20
161.8012794325
 30
0.0
 11
125.9879131699
 21
192.3189805279
 31
0.0
  0
LINE
  5
191
330
138
100
AcDbEntity
  8
$DDT_AUDIT_GENERATED_(65)
  6
Continuous
 62
     7
100
AcDbLine
 10
125.9224558023
 20
161.8631934146
 30
0.0
 11
125.9245609376
 21
188.7028694565
 31
0.0
  0
ARC
  5
192
330
138
100
AcDbEntity
  8
$DDT_AUDIT_GENERATED_(65)
  6
Continuous
 62
     7
100
AcDbCircle
 10
124.4710160067
 20
161.862025343
 30
0.0
 40
1.451440265649386
100
AcDbArc
 50
270.1639252255
 51
0.0461097722
  0
ARC
  5
193
330
138
100
AcDbEntity
  8
$DDT_AUDIT_GENERATED_(65)
  6
Continuous
 62
     7
100
AcDbCircle
 10
124.5330511483
 20
161.8007349229
 30
0.0
 40
1.451318738266423
100
AcDbArc
 50
270.1298281239
 51
0.0214963834
  0
ELLIPSE
  5
194
330
138
100
AcDbEntity
  8
$DDT_AUDIT_GENERATED_(65)
  6
Continuous
 62
     7
100
AcDbEllipse
 10
120.7723375737
 20
160.5880242549
 30
0.0
 11
-27.59922297051365
 21
2.036236895509550E-15
 31
0.0
210
0.0
220
0.0
230
1.0
 40
0.0087268678
 41
1.433989245776306
 42
1.707603407813475
  0
ELLIPSE
  5
195
330
138
100
AcDbEntity
  8
$DDT_AUDIT_GENERATED_(65)
  6
Continuous
 62
     7
100
AcDbEllipse
 10
120.7723375737
 20
160.5880104737
 30
0.0
 11
-20.66471056946215
 21
-8.174210979003987E-14
 31
0.0
210
0.0
220
0.0
230
1.0
 40
0.0087268678
 41
1.390637121544849
 42
1.750955532044964
  0
ARC
  5
196
330
138
100
AcDbEntity
  8
$DDT_AUDIT_GENERATED_(65)
  6
Continuous
 62
     7
100
AcDbCircle
 10
117.0739166002
 20
161.8622818605
 30
0.0
 40
1.451697541407058
100
AcDbArc
 50
179.9640226671
 51
269.8259423352
  0
ARC
  5
197
330
138
100
AcDbEntity
  8
$DDT_AUDIT_GENERATED_(65)
  6
Continuous
 62
     7
100
AcDbCircle
 10
117.011437641
 20
161.8005490564
 30
0.0
 40
1.451132461884229
100
AcDbArc
 50
179.9711621978
 51
269.8775132949
  0
ARC
  5
198
330
138
100
AcDbEntity
  8
$DDT_AUDIT_GENERATED_(65)
  6
Continuous
 62
     7
100
AcDbCircle
 10
120.7723375737
 20
1451.8083668548
 30
0.0
 40
1300.0
100
AcDbArc
 50
270.6914796765
 51
270.9879557147
  0
ARC
  5
199
330
138
100
AcDbEntity
  8
$DDT_AUDIT_GENERATED_(65)
  6
Continuous
 62
     7
100
AcDbCircle
 10
120.7723375737
 20
1451.8083668548
 30
0.0
 40
1300.0
100
AcDbArc
 50
269.0120442853
 51
269.3085203235
  0
LINE
  5
19A
330
138
100
AcDbEntity
  8
$DDT_AUDIT_GENERATED_(65)
  6
Continuous
 62
     7
100
AcDbLine
 10
96.7723375737
 20
199.0083668548
 30
0.0
 11
97.3747721457
 21
152.9883842897
 31
0.0
  0
LINE
  5
19B
330
138
100
AcDbEntity
  8
$DDT_AUDIT_GENERATED_(65)
  6
Continuous
 62
     7
100
AcDbLine
 10
144.1699030017
 20
152.9883842897
 30
0.0
 11
144.7723375737
 21
199.0083668548
 31
0.0
  0
LINE
  5
19C
330
138
100
AcDbEntity
  8
$DDT_AUDIT_GENERATED_(65)
  6
Continuous
 62
     7
100
AcDbLine
 10
93.5895374273
 20
199.0082302697
 30
0.0
 11
94.2864017035
 21
153.5006744809
 31
0.0
  0
LINE
  5
19D
330
138
100
AcDbEntity
  8
$DDT_AUDIT_GENERATED_(65)
  6
Continuous
 62
     7
100
AcDbLine
 10
147.2603672841
 20
153.5006885656
 30
0.0
 11
147.95310891
 21
199.0083740089
 31
0.0
  0
ARC
  5
19E
330
138
100
AcDbEntity
  8
$DDT_AUDIT_GENERATED_(65)
  6
Continuous
 62
     7
100
AcDbCircle
 10
98.3746864733
 20
153.0014738853
 30
0.0
 40
1.000000000000085
100
AcDbArc
 50
180.75
 51
269.0120442853
  0
ARC
  5
19F
330
138
100
AcDbEntity
  8
$DDT_AUDIT_GENERATED_(65)
  6
Continuous
 62
     7
100
AcDbCircle
 10
143.1699886741
 20
153.0014738853
 30
0.0
 40
1.000000000000111
100
AcDbArc
 50
270.9879557144
 51
359.25
  0
ARC
  5
1A0
330
138
100
AcDbEntity
  8
$DDT_AUDIT_GENERATED_(65)
  6
Continuous
 62
     7
100
AcDbCircle
 10
94.7836033452
 20
153.5083668478
 30
0.0
 40
0.4999999929782218
100
AcDbArc
 50
181.0050614849
 51
270.0018967194
  0
ARC
  5
1A1
330
138
100
AcDbEntity
  8
$DDT_AUDIT_GENERATED_(65)
  6
Continuous
 62
     7
100
AcDbCircle
 10
146.7610719777
 20
153.5083668541
 30
0.0
 40
0.499999975387504
100
AcDbArc
 50
269.9999598724
 51
359.1582107952
  0
LINE
  5
1A2
330
138
100
AcDbEntity
  8
$DDT_AUDIT_GENERATED_(A1)
  6
Continuous
 62
     7
100
AcDbLine
 10
125.7723375737
 20
191.9033728634
 30
0.0
 11
125.7723375737
 21
162.9871510398
 31
0.0
  0
LINE
  5
1A3
330
138
100
AcDbEntity
  8
$DDT_AUDIT_GENERATED_(A1)
  6
Continuous
 62
     7
100
AcDbLine
 10
125.7723375737
 20
162.9871510398
 30
0.0
 11
125.7723375737
 21
162.326413487
 31
0.0
  0
LINE
  5
1A4
330
138
100
AcDbEntity
  8
$DDT_AUDIT_GENERATED_(A1)
  6
Continuous
 62
     7
100
AcDbLine
 10
115.7723375737
 20
162.9871510398
 30
0.0
 11
115.7723375737
 21
191.9033728634
 31
0.0
  0
LINE
  5
1A5
330
138
100
AcDbEntity
  8
$DDT_AUDIT_GENERATED_(A1)
  6
Continuous
 62
     7
100
AcDbLine
 10
115.7723375737
 20
162.326413487
 30
0.0
 11
115.7723375737
 21
162.9871510398
 31
0.0
  0
SPLINE
  5
1A6
330
138
100
AcDbEntity
  8
$DDT_AUDIT_GENERATED_(A1)
  6
Continuous
 62
     7
100
AcDbSpline
210
0.0
220
0.0
230
1.0
 70
     8
 71
     3
 72
     8
 73
     4
 74
     0
 42
0.0000001745467334
 43
0.0000000001
 40
0.9563431142429443
 40
0.9563431142429443
 40
0.9563431142429443
 40
0.9563431142429443
 40
1.0
 40
1.0
 40
1.0
 40
1.0
 10
116.7705615027978
 20
161.3264329554788
 30
0.0
 10
116.7711481878806
 20
161.3264415700258
 30
0.0
 10
116.7717401708302
 20
161.3269339007594
 30
0.0
 10
116.7723375736796
 20
161.3279100570263
 30
0.0
  0
ELLIPSE
  5
1A7
330
138
100
AcDbEntity
  8
$DDT_AUDIT_GENERATED_(A1)
  6
Continuous
 62
     7
100
AcDbEllipse
 10
120.7723375737
 20
193.233611607
 30
0.0
 11
-28.11797805207316
 21
1.595229781840167E-14
 31
0.0
210
0.0
220
0.0
230
1.0
 40
0.0118679603
 41
1.428054346308528
 42
1.713538307281285
  0
ELLIPSE
  5
1A8
330
138
100
AcDbEntity
  8
$DDT_AUDIT_GENERATED_(A1)
  6
Continuous
 62
     7
100
AcDbEllipse
 10
116.7723375737
 20
191.9033728634
 30
0.0
 11
1.000000000001129
 21
-3.941365516195530E-12
 31
0.0
210
0.0
220
0.0
230
1.0
 40
0.9999295733
 41
1.570796326798838
 42
3.141592653589793
  0
ELLIPSE
  5
1A9
330
138
100
AcDbEntity
  8
$DDT_AUDIT_GENERATED_(A1)
  6
Continuous
 62
     7
100
AcDbEllipse
 10
116.7723375737
 20
162.3278396303
 30
0.0
 11
-0.9999999999996956
 21
1.104679287379653E-11
 31
0.0
210
0.0
220
0.0
230
1.0
 40
0.9999295733
 41
0.0
 42
1.570796326805943
  0
ELLIPSE
  5
1AA
330
138
100
AcDbEntity
  8
$DDT_AUDIT_GENERATED_(A1)
  6
Continuous
 62
     7
100
AcDbEllipse
 10
124.7723375737
 20
191.9033728634
 30
0.0
 11
1.00000000000042
 21
9.538196182433254E-11
 31
0.0
210
0.0
220
0.0
230
1.0
 40
0.9999295733
 41
0.0
 42
1.570796326699521
  0
LINE
  5
1AB
330
138
100
AcDbEntity
  8
$DDT_AUDIT_GENERATED_(A1)
  6
Continuous
 62
     7
100
AcDbLine
 10
115.7723375737
 20
161.2696414778
 30
0.0
 11
115.7723375737
 21
162.3566771699
 31
0.0
  0
LINE
  5
1AC
330
138
100
AcDbEntity
  8
$DDT_AUDIT_GENERATED_(A1)
  6
Continuous
 62
     7
100
AcDbLine
 10
125.7723375737
 20
162.3320995542
 30
0.0
 11
125.7723375737
 21
161.2733301384
 31
0.0
  0
ARC
  5
1AD
330
138
100
AcDbEntity
  8
$DDT_AUDIT_GENERATED_(A1)
  6
Continuous
 62
     7
100
AcDbCircle
 10
117.1121463364
 20
184.4576867591
 30
0.0
 40
1.489807936017195
100
AcDbArc
 50
155.6761243654
 51
180.0
  0
ARC
  5
1AE
330
138
100
AcDbEntity
  8
$DDT_AUDIT_GENERATED_(A1)
  6
Continuous
 62
     7
100
AcDbCircle
 10
117.1121463364
 20
184.4446320028
 30
0.0
 40
1.489807936017201
100
AcDbArc
 50
155.6761243654
 51
204.3238756346
  0
ARC
  5
1AF
330
138
100
AcDbEntity
  8
$DDT_AUDIT_GENERATED_(A1)
  6
Continuous
 62
     7
100
AcDbCircle
 10
125.5477959582
 20
184.4446179725
 30
0.0
 40
9.812417364293399
100
AcDbArc
 50
176.4144488757
 51
183.5854735468
  0
ARC
  5
1B0
330
138
100
AcDbEntity
  8
$DDT_AUDIT_GENERATED_(A1)
  6
Continuous
 62
     7
100
AcDbCircle
 10
124.4325288109
 20
166.4458996838
 30
0.0
 40
1.489807936017168
100
AcDbArc
 50
335.6761243654
 51
24.3238756346
  0
ARC
  5
1B1
330
138
100
AcDbEntity
  8
$DDT_AUDIT_GENERATED_(A1)
  6
Continuous
 62
     7
100
AcDbCircle
 10
124.4325288109
 20
166.4589544401
 30
0.0
 40
1.489807936017175
100
AcDbArc
 50
0.0
 51
24.3238756346
  0
ARC
  5
1B2
330
138
100
AcDbEntity
  8
$DDT_AUDIT_GENERATED_(A1)
  6
Continuous
 62
     7
100
AcDbCircle
 10
116.0011487373
 20
166.4458857237
 30
0.0
 40
9.808156172915794
100
AcDbArc
 50
356.4129667269
 51
3.587110508
  0
ARC
  5
1B3
330
138
100
AcDbEntity
  8
$DDT_AUDIT_GENERATED_(A1)
  6
Continuous
 62
     7
100
AcDbCircle
 10
124.4325288109
 20
184.4446320028
 30
0.0
 40
1.489807936017169
100
AcDbArc
 50
335.6761243654
 51
24.3238756346
  0
ARC
  5
1B4
330
138
100
AcDbEntity
  8
$DDT_AUDIT_GENERATED_(A1)
  6
Continuous
 62
     7
100
AcDbCircle
 10
124.4325288109
 20
184.4576867591
 30
0.0
 40
1.489807936017171
100
AcDbArc
 50
0.0
 51
24.3238756346
  0
ARC
  5
1B5
330
138
100
AcDbEntity
  8
$DDT_AUDIT_GENERATED_(A1)
  6
Continuous
 62
     7
100
AcDbCircle
 10
116.0011487373
 20
184.4446180427
 30
0.0
 40
9.808156172916018
100
AcDbArc
 50
356.4129667269
 51
3.587110508
  0
ARC
  5
1B6
330
138
100
AcDbEntity
  8
$DDT_AUDIT_GENERATED_(A1)
  6
Continuous
 62
     7
100
AcDbCircle
 10
117.1121463364
 20
166.4589544401
 30
0.0
 40
1.489807936017182
100
AcDbArc
 50
155.6761243654
 51
180.0
  0
ARC
  5
1B7
330
138
100
AcDbEntity
  8
$DDT_AUDIT_GENERATED_(A1)
  6
Continuous
 62
     7
100
AcDbCircle
 10
117.1121463364
 20
166.4458996838
 30
0.0
 40
1.489807936017173
100
AcDbArc
 50
155.6761243654
 51
204.3238756346
  0
ARC
  5
1B8
330
138
100
AcDbEntity
  8
$DDT_AUDIT_GENERATED_(A1)
  6
Continuous
 62
     7
100
AcDbCircle
 10
125.5477959582
 20
166.4458856535
 30
0.0
 40
9.812417364292049
100
AcDbArc
 50
176.4144488757
 51
183.5854735468
  0
ELLIPSE
  5
1B9
330
138
100
AcDbEntity
  8
$DDT_AUDIT_GENERATED_(A1)
  6
Continuous
 62
     7
100
AcDbEllipse
 10
116.7723375737
 20
191.9556837977
 30
0.0
 11
0.9999999999999952
 21
5.543737245503340E-14
 31
0.0
210
0.0
220
0.0
230
1.0
 40
0.9916220011
 41
1.570796326794842
 42
3.141592653589794
  0
LINE
  5
1BA
330
138
100
AcDbEntity
  8
$DDT_AUDIT_GENERATED_(A1)
  6
Continuous
 62
     7
100
AcDbLine
 10
124.7723375737
 20
192.9473057988
 30
0.0
 11
116.7723375737
 21
192.9473057988
 31
0.0
  0
ELLIPSE
  5
1BB
330
138
100
AcDbEntity
  8
$DDT_AUDIT_GENERATED_(A1)
  6
Continuous
 62
     7
100
AcDbEllipse
 10
124.7723375737
 20
191.9556837977
 30
0.0
 11
1.000000000000003
 21
8.319294807066232E-14
 31
0.0
210
0.0
220
0.0
230
1.0
 40
0.9916220011
 41
0.0
 42
1.570796326794814
  0
ARC
  5
1BC
330
138
100
AcDbEntity
  8
$DDT_AUDIT_GENERATED_(A1)
  6
Continuous
 62
     7
100
AcDbCircle
 10
120.7723375737
 20
2411.2442998853
 30
0.0
 40
2249.921419624442
100
AcDbArc
 50
269.8959724801
 51
270.1040275199
  0
ARC
  5
1BD
330
138
100
AcDbEntity
  8
$DDT_AUDIT_GENERATED_(A1)
  6
Continuous
 62
     7
100
AcDbCircle
 10
124.7723375737
 20
162.3264368344
 30
0.0
 40
0.9999999999698707
100
AcDbArc
 50
270.1800944414
 51
0.0
  0
LINE
  5
1BE
330
138
100
AcDbEntity
  8
$DDT_AUDIT_GENERATED_(A1)
  6
Continuous
 62
     7
100
AcDbLine
 10
115.6201675506
 20
188.0227945367
 30
0.0
 11
115.8214979527
 21
188.0227945367
 31
0.0
  0
LINE
  5
1BF
330
138
100
AcDbEntity
  8
$DDT_AUDIT_GENERATED_(A1)
  6
Continuous
 62
     7
100
AcDbLine
 10
115.7723375737
 20
190.9909721828
 30
0.0
 11
115.6178388322
 21
190.9909721828
 31
0.0
  0
LINE
  5
1C0
330
138
100
AcDbEntity
  8
$DDT_AUDIT_GENERATED_(A1)
  6
Continuous
 62
     7
100
AcDbLine
 10
125.9268363151
 20
190.9909721828
 30
0.0
 11
125.7723375737
 21
190.9909721828
 31
0.0
  0
LINE
  5
1C1
330
138
100
AcDbEntity
  8
$DDT_AUDIT_GENERATED_(A1)
  6
Continuous
 62
     7
100
AcDbLine
 10
125.7208508858
 20
188.0227945367
 30
0.0
 11
125.9245075968
 21
188.0227945367
 31
0.0
  0
LINE
  5
1C2
330
138
100
AcDbEntity
  8
$DDT_AUDIT_GENERATED_(A1)
  6
Continuous
 62
     7
100
AcDbLine
 10
115.6223375737
 20
184.4576867591
 30
0.0
 11
115.6223375737
 21
184.4446320028
 31
0.0
  0
LINE
  5
1C3
330
138
100
AcDbEntity
  8
$DDT_AUDIT_GENERATED_(A1)
  6
Continuous
 62
     7
100
AcDbLine
 10
115.6223375737
 20
166.4589544401
 30
0.0
 11
115.6223375737
 21
166.4458996838
 31
0.0
  0
LINE
  5
1C4
330
138
100
AcDbEntity
  8
$DDT_AUDIT_GENERATED_(A1)
  6
Continuous
 62
     7
100
AcDbLine
 10
125.9223375737
 20
184.4446320028
 30
0.0
 11
125.9223375737
 21
184.4576867591
 31
0.0
  0
LINE
  5
1C5
330
138
100
AcDbEntity
  8
$DDT_AUDIT_GENERATED_(A1)
  6
Continuous
 62
     7
100
AcDbLine
 10
125.9223375737
 20
166.4458996838
 30
0.0
 11
125.9223375737
 21
166.4589544401
 31
0.0
  0
ARC
  5
1C6
330
138
100
AcDbEntity
  8
$DDT_AUDIT_GENERATED_(60)
  6
Continuous
 62
     7
100
AcDbCircle
 10
96.5223375737
 20
209.5583668548
 30
0.0
 40
1.999999999999998
100
AcDbArc
 50
180.0
 51
233.4749766693
  0
ARC
  5
1C7
330
138
100
AcDbEntity
  8
$DDT_AUDIT_GENERATED_(60)
  6
Continuous
 62
     7
100
AcDbCircle
 10
145.0223375737
 20
209.5583668548
 30
0.0
 40
2.000000000000002
100
AcDbArc
 50
306.5250233306
 51
0.0
  0
LINE
  5
1C8
330
138
100
AcDbEntity
  8
$DDT_AUDIT_GENERATED_(AB)
  6
Continuous
 62
     7
100
AcDbLine
 10
37.0723375737
 20
223.2583668548
 30
0.0
 11
204.4723375737
 21
223.2583668548
 31
0.0
  0
LINE
  5
1C9
330
138
100
AcDbEntity
  8
$DDT_AUDIT_GENERATED_(AB)
  6
Continuous
 62
     7
100
AcDbLine
 10
204.4723375737
 20
223.2583668548
 30
0.0
 11
206.2723375737
 21
223.2583668548
 31
0.0
  0
LINE
  5
1CA
330
138
100
AcDbEntity
  8
$DDT_AUDIT_GENERATED_(AB)
  6
Continuous
 62
     7
100
AcDbLine
 10
35.2723375737
 20
223.2583668548
 30
0.0
 11
37.0723375737
 21
223.2583668548
 31
0.0
  0
LINE
  5
1CB
330
138
100
AcDbEntity
  8
$DDT_AUDIT_GENERATED_(AB)
  6
Continuous
 62
     7
100
AcDbLine
 10
35.2723375737
 20
211.7583668548
 30
0.0
 11
35.2723375737
 21
223.2583668548
 31
0.0
  0
LINE
  5
1CC
330
138
100
AcDbEntity
  8
$DDT_AUDIT_GENERATED_(AB)
  6
Continuous
 62
     7
100
AcDbLine
 10
204.4723375737
 20
209.9583668548
 30
0.0
 11
37.0723375737
 21
209.9583668548
 31
0.0
  0
LINE
  5
1CD
330
138
100
AcDbEntity
  8
$DDT_AUDIT_GENERATED_(AB)
  6
Continuous
 62
     7
100
AcDbLine
 10
206.2723375737
 20
223.2583668548
 30
0.0
 11
206.2723375737
 21
211.7583668548
 31
0.0
  0
ARC
  5
1CE
330
138
100
AcDbEntity
  8
$DDT_AUDIT_GENERATED_(AB)
  6
Continuous
 62
     7
100
AcDbCircle
 10
204.4723375737
 20
211.7583668548
 30
0.0
 40
1.799999999999996
100
AcDbArc
 50
270.0
 51
0.0
  0
ARC
  5
1CF
330
138
100
AcDbEntity
  8
$DDT_AUDIT_GENERATED_(AB)
  6
Continuous
 62
     7
100
AcDbCircle
 10
37.0723375737
 20
211.7583668548
 30
0.0
 40
1.799999999999996
100
AcDbArc
 50
180.0
 51
270.0
  0
LINE
  5
1D0
330
138
100
AcDbEntity
  8
$DDT_AUDIT_GENERATED_(BC)
  6
Continuous
 62
     7
100
AcDbLine
 10
144.3723375737
 20
199.5583668548
 30
0.0
 11
140.2723375737
 21
199.5583668548
 31
0.0
  0
LINE
  5
1D1
330
138
100
AcDbEntity
  8
$DDT_AUDIT_GENERATED_(BC)
  6
Continuous
 62
     7
100
AcDbLine
 10
101.2723375737
 20
199.5583668548
 30
0.0
 11
97.1723375737
 21
199.5583668548
 31
0.0
  0
LINE
  5
1D2
330
138
100
AcDbEntity
  8
$DDT_AUDIT_GENERATED_(BC)
  6
Continuous
 62
     7
100
AcDbLine
 10
95.2467278176
 20
206.3388546597
 30
0.0
 11
96.6845326956
 21
199.9486107572
 31
0.0
  0
LINE
  5
1D3
330
138
100
AcDbEntity
  8
$DDT_AUDIT_GENERATED_(BC)
  6
Continuous
 62
     7
100
AcDbLine
 10
144.8601424517
 20
199.9486107572
 30
0.0
 11
146.2979473298
 21
206.3388546597
 31
0.0
  0
ARC
  5
1D4
330
138
100
AcDbEntity
  8
$DDT_AUDIT_GENERATED_(BC)
  6
Continuous
 62
     7
100
AcDbCircle
 10
140.7723375737
 20
199.0583668548
 30
0.0
 40
0.5000000000000004
100
AcDbArc
 50
90.0
 51
180.0
  0
ARC
  5
1D5
330
138
100
AcDbEntity
  8
$DDT_AUDIT_GENERATED_(BC)
  6
Continuous
 62
     7
100
AcDbCircle
 10
100.7723375737
 20
199.0583668548
 30
0.0
 40
0.5000000000000004
100
AcDbArc
 50
0.0
 51
90.0
  0
ARC
  5
1D6
330
138
100
AcDbEntity
  8
$DDT_AUDIT_GENERATED_(BC)
  6
Continuous
 62
     7
100
AcDbCircle
 10
144.3723375737
 20
200.0583668548
 30
0.0
 40
0.5000000000000004
100
AcDbArc
 50
270.0
 51
347.3196165082
  0
ARC
  5
1D7
330
138
100
AcDbEntity
  8
$DDT_AUDIT_GENERATED_(BC)
  6
Continuous
 62
     7
100
AcDbCircle
 10
97.1723375737
 20
200.0583668548
 30
0.0
 40
0.5000000000000004
100
AcDbArc
 50
192.6803834918
 51
270.0
  0
ARC
  5
1D8
330
138
100
AcDbEntity
  8
$DDT_AUDIT_GENERATED_(BC)
  6
Continuous
 62
     7
100
AcDbCircle
 10
96.2223375737
 20
206.5583668548
 30
0.0
 40
0.9999999999992424
100
AcDbArc
 50
187.9676605831
 51
192.6803834918
  0
ARC
  5
1D9
330
138
100
AcDbEntity
  8
$DDT_AUDIT_GENERATED_(BC)
  6
Continuous
 62
     7
100
AcDbCircle
 10
145.3223375737
 20
206.5583668548
 30
0.0
 40
1.000000000000007
100
AcDbArc
 50
347.3196165082
 51
352.0323394169
  0
LINE
  5
1DA
330
138
100
AcDbEntity
  8
$DDT_AUDIT_GENERATED_(C1)
  6
Continuous
 62
     7
100
AcDbLine
 10
97.1627257769
 20
200.2583668548
 30
0.0
 11
144.3819493705
 21
200.2583668548
 31
0.0
  0
LINE
  5
1DB
330
138
100
AcDbEntity
  8
$DDT_AUDIT_GENERATED_(C1)
  6
Continuous
 62
     7
100
AcDbLine
 10
95.0829714799
 20
207.0158312298
 30
0.0
 11
96.6776545268
 21
200.6370990423
 31
0.0
  0
LINE
  5
1DC
330
138
100
AcDbEntity
  8
$DDT_AUDIT_GENERATED_(C1)
  6
Continuous
 62
     7
100
AcDbLine
 10
144.8670206206
 20
200.6370990423
 30
0.0
 11
146.4617036674
 21
207.0158312298
 31
0.0
  0
LINE
  5
1DD
330
138
100
AcDbEntity
  8
$DDT_AUDIT_GENERATED_(C1)
  6
Continuous
 62
     7
100
AcDbLine
 10
101.2723375737
 20
199.7583668548
 30
0.0
 11
101.2723375737
 21
199.0083668548
 31
0.0
  0
LINE
  5
1DE
330
138
100
AcDbEntity
  8
$DDT_AUDIT_GENERATED_(C1)
  6
Continuous
 62
     7
100
AcDbLine
 10
140.2723375737
 20
199.0083668548
 30
0.0
 11
140.2723375737
 21
199.7583668548
 31
0.0
  0
ARC
  5
1DF
330
138
100
AcDbEntity
  8
$DDT_AUDIT_GENERATED_(C1)
  6
Continuous
 62
     7
100
AcDbCircle
 10
140.7723375737
 20
199.7583668548
 30
0.0
 40
0.5000000000000004
100
AcDbArc
 50
90.0
 51
180.0
  0
ARC
  5
1E0
330
138
100
AcDbEntity
  8
$DDT_AUDIT_GENERATED_(C1)
  6
Continuous
 62
     7
100
AcDbCircle
 10
100.7723375737
 20
199.7583668548
 30
0.0
 40
0.5000000000000004
100
AcDbArc
 50
0.0
 51
90.0
  0
ARC
  5
1E1
330
138
100
AcDbEntity
  8
$DDT_AUDIT_GENERATED_(C1)
  6
Continuous
 62
     7
100
AcDbCircle
 10
144.3819493705
 20
200.7583668548
 30
0.0
 40
0.5000000000000004
100
AcDbArc
 50
270.0
 51
345.9637565321
  0
ARC
  5
1E2
330
138
100
AcDbEntity
  8
$DDT_AUDIT_GENERATED_(C1)
  6
Continuous
 62
     7
100
AcDbCircle
 10
97.1627257769
 20
200.7583668548
 30
0.0
 40
0.5000000000000029
100
AcDbArc
 50
194.0362434679
 51
270.0
  0
ARC
  5
1E3
330
138
100
AcDbEntity
  8
$DDT_AUDIT_GENERATED_(C1)
  6
Continuous
 62
     7
100
AcDbCircle
 10
96.0531139801
 20
207.2583668548
 30
0.0
 40
0.9999999999993612
100
AcDbArc
 50
104.0362434681
 51
194.0362434679
  0
ARC
  5
1E4
330
138
100
AcDbEntity
  8
$DDT_AUDIT_GENERATED_(C1)
  6
Continuous
 62
     7
100
AcDbCircle
 10
145.4915611673
 20
207.2583668548
 30
0.0
 40
1.000000000000006
100
AcDbArc
 50
345.9637565321
 51
75.9637565319
  0
LINE
  5
1E5
330
138
100
AcDbEntity
  8
$DDT_AUDIT_GENERATED_(C1)
  6
Continuous
 62
     7
100
AcDbLine
 10
142.8723375737
 20
208.2434381049
 30
0.0
 11
142.8723375737
 21
208.2583668548
 31
0.0
  0
LINE
  5
1E6
330
138
100
AcDbEntity
  8
$DDT_AUDIT_GENERATED_(C1)
  6
Continuous
 62
     7
100
AcDbLine
 10
98.6723375737
 20
208.2583668548
 30
0.0
 11
98.6723375737
 21
208.2434381049
 31
0.0
  0
ARC
  5
1E7
330
138
100
AcDbEntity
  8
$DDT_AUDIT_GENERATED_(C1)
  6
Continuous
 62
     7
100
AcDbCircle
 10
95.9318461676
 20
207.7434381049
 30
0.0
 40
0.5000000000000004
100
AcDbArc
 50
90.0
 51
104.0362434682
  0
ARC
  5
1E8
330
138
100
AcDbEntity
  8
$DDT_AUDIT_GENERATED_(C1)
  6
Continuous
 62
     7
100
AcDbCircle
 10
145.6128289798
 20
207.7434381049
 30
0.0
 40
0.4999999999993727
100
AcDbArc
 50
75.9637565318
 51
90.0
  0
LINE
  5
1E9
330
138
100
AcDbEntity
  8
$DDT_AUDIT_GENERATED_(C1)
  6
Continuous
 62
     7
100
AcDbLine
 10
145.6128289798
 20
208.2434381049
 30
0.0
 11
95.9318461676
 21
208.2434381049
 31
0.0
  0
LINE
  5
1EA
330
138
100
AcDbEntity
  8
$DDT_AUDIT_GENERATED_(65)
  6
Continuous
 62
     7
100
AcDbLine
 10
94.2829851117
 20
153.4737892929
 30
0.0
 11
94.2864017035
 21
153.2506744809
 31
0.0
  0
LINE
  5
1EB
330
138
100
AcDbEntity
  8
$DDT_AUDIT_GENERATED_(65)
  6
Continuous
 62
     7
100
AcDbLine
 10
147.2603672841
 20
153.2506885656
 30
0.0
 11
147.2637768219
 21
153.4746684291
 31
0.0
  0
ARC
  5
1EC
330
138
100
AcDbEntity
  8
$DDT_AUDIT_GENERATED_(65)
  6
Continuous
 62
     7
100
AcDbCircle
 10
94.7836033452
 20
153.2583668478
 30
0.0
 40
0.4999999929782218
100
AcDbArc
 50
181.0050614849
 51
246.4883271564
  0
ARC
  5
1ED
330
138
100
AcDbEntity
  8
$DDT_AUDIT_GENERATED_(65)
  6
Continuous
 62
     7
100
AcDbCircle
 10
146.7610719777
 20
153.2583668541
 30
0.0
 40
0.4999999753875005
100
AcDbArc
 50
293.5116545752
 51
359.1582107952
  0
LINE
  5
1EE
330
138
100
AcDbEntity
  8
$DDT_AUDIT_GENERATED_(110)
  6
Continuous
 62
     7
100
AcDbLine
 10
127.2944749783
 20
148.8083668548
 30
0.0
 11
114.2502001691
 21
148.8083668548
 31
0.0
  0
LINE
  5
1EF
330
138
100
AcDbEntity
  8
$DDT_AUDIT_GENERATED_(110)
  6
Continuous
 62
     7
100
AcDbLine
 10
114.2502001691
 20
148.8083668548
 30
0.0
 11
113.8723375737
 21
148.8083668548
 31
0.0
  0
LINE
  5
1F0
330
138
100
AcDbEntity
  8
$DDT_AUDIT_GENERATED_(110)
  6
Continuous
 62
     7
100
AcDbLine
 10
127.6723375737
 20
148.8083668548
 30
0.0
 11
127.2944749783
 21
148.8083668548
 31
0.0
  0
LINE
  5
1F1
330
138
100
AcDbEntity
  8
$DDT_AUDIT_GENERATED_(110)
  6
Continuous
 62
     7
100
AcDbLine
 10
113.8723375737
 20
148.8083668548
 30
0.0
 11
107.3223375737
 21
148.8083668548
 31
0.0
  0
LINE
  5
1F2
330
138
100
AcDbEntity
  8
$DDT_AUDIT_GENERATED_(110)
  6
Continuous
 62
     7
100
AcDbLine
 10
134.2223375737
 20
148.8083668548
 30
0.0
 11
127.6723375737
 21
148.8083668548
 31
0.0
  0
LINE
  5
1F3
330
138
100
AcDbEntity
  8
$DDT_AUDIT_GENERATED_(110)
  6
Continuous
 62
     7
100
AcDbLine
 10
107.3223375737
 20
148.8083668548
 30
0.0
 11
95.3198377157
 21
148.8083668548
 31
0.0
  0
LINE
  5
1F4
330
138
100
AcDbEntity
  8
$DDT_AUDIT_GENERATED_(110)
  6
Continuous
 62
     7
100
AcDbLine
 10
146.2248374316
 20
148.8083668548
 30
0.0
 11
134.2223375737
 21
148.8083668548
 31
0.0
  0
LINE
  5
1F5
330
138
100
AcDbEntity
  8
$DDT_AUDIT_GENERATED_(110)
  6
Continuous
 62
     7
100
AcDbLine
 10
95.3198377157
 20
148.8083668548
 30
0.0
 11
95.0698377157
 21
148.8083668548
 31
0.0
  0
LINE
  5
1F6
330
138
100
AcDbEntity
  8
$DDT_AUDIT_GENERATED_(110)
  6
Continuous
 62
     7
100
AcDbLine
 10
146.4748374316
 20
148.8083668548
 30
0.0
 11
146.2248374316
 21
148.8083668548
 31
0.0
  0
ARC
  5
1F7
330
138
100
AcDbEntity
  8
$DDT_AUDIT_GENERATED_(110)
  6
Continuous
 62
     7
100
AcDbCircle
 10
127.6723375737
 20
149.3083668548
 30
0.0
 40
0.5000000000000004
100
AcDbArc
 50
270.0
 51
0.0
  0
ARC
  5
1F8
330
138
100
AcDbEntity
  8
$DDT_AUDIT_GENERATED_(110)
  6
Continuous
 62
     7
100
AcDbCircle
 10
113.8723375737
 20
149.3083668548
 30
0.0
 40
0.5000000000000004
100
AcDbArc
 50
180.0
 51
270.0
  0
LINE
  5
1F9
330
138
100
AcDbEntity
  8
$DDT_AUDIT_GENERATED_(110)
  6
Continuous
 62
     7
100
AcDbLine
 10
113.6723375737
 20
153.0083668548
 30
0.0
 11
114.2013452073
 21
153.0083668548
 31
0.0
  0
LINE
  5
1FA
330
138
100
AcDbEntity
  8
$DDT_AUDIT_GENERATED_(110)
  6
Continuous
 62
     7
100
AcDbLine
 10
127.3433299401
 20
153.0083668548
 30
0.0
 11
127.8723375737
 21
153.0083668548
 31
0.0
  0
LINE
  5
1FB
330
138
100
AcDbEntity
  8
$DDT_AUDIT_GENERATED_(110)
  6
Continuous
 62
     7
100
AcDbLine
 10
95.2198377157
 20
153.0083668548
 30
0.0
 11
97.3745105596
 21
153.0083668548
 31
0.0
  0
LINE
  5
1FC
330
138
100
AcDbEntity
  8
$DDT_AUDIT_GENERATED_(110)
  6
Continuous
 62
     7
100
AcDbLine
 10
144.1701645878
 20
153.0083668548
 30
0.0
 11
146.3248374316
 21
153.0083668548
 31
0.0
  0
LINE
  5
1FD
330
138
100
AcDbEntity
  8
$DDT_AUDIT_GENERATED_(110)
  6
Continuous
 62
     7
100
AcDbLine
 10
94.8698377157
 20
153.0083668548
 30
0.0
 11
95.2198377157
 21
153.0083668548
 31
0.0
  0
LINE
  5
1FE
330
138
100
AcDbEntity
  8
$DDT_AUDIT_GENERATED_(110)
  6
Continuous
 62
     7
100
AcDbLine
 10
146.3248374316
 20
153.0083668548
 30
0.0
 11
146.6748374316
 21
153.0083668548
 31
0.0
  0
LINE
  5
1FF
330
138
100
AcDbEntity
  8
$DDT_AUDIT_GENERATED_(110)
  6
Continuous
 62
     7
100
AcDbLine
 10
128.1723375737
 20
152.7083668548
 30
0.0
 11
128.1723375737
 21
149.3083668548
 31
0.0
  0
LINE
  5
200
330
138
100
AcDbEntity
  8
$DDT_AUDIT_GENERATED_(110)
  6
Continuous
 62
     7
100
AcDbLine
 10
113.3723375737
 20
152.7083668548
 30
0.0
 11
113.3723375737
 21
149.3083668548
 31
0.0
  0
ARC
  5
201
330
138
100
AcDbEntity
  8
$DDT_AUDIT_GENERATED_(110)
  6
Continuous
 62
     7
100
AcDbCircle
 10
127.8723375737
 20
152.7083668548
 30
0.0
 40
0.3000000000000225
100
AcDbArc
 50
0.0
 51
90.0
  0
ARC
  5
202
330
138
100
AcDbEntity
  8
$DDT_AUDIT_GENERATED_(110)
  6
Continuous
 62
     7
100
AcDbCircle
 10
113.6723375737
 20
152.7083668548
 30
0.0
 40
0.2999999999999999
100
AcDbArc
 50
90.0
 51
180.0
  0
LINE
  5
203
330
138
100
AcDbEntity
  8
$DDT_AUDIT_GENERATED_(110)
  6
Continuous
 62
     7
100
AcDbLine
 10
94.5698377157
 20
152.7083668548
 30
0.0
 11
94.5698377157
 21
149.3083668548
 31
0.0
  0
LINE
  5
204
330
138
100
AcDbEntity
  8
$DDT_AUDIT_GENERATED_(110)
  6
Continuous
 62
     7
100
AcDbLine
 10
146.9748374316
 20
149.3083668548
 30
0.0
 11
146.9748374316
 21
152.7083668548
 31
0.0
  0
ARC
  5
205
330
138
100
AcDbEntity
  8
$DDT_AUDIT_GENERATED_(110)
  6
Continuous
 62
     7
100
AcDbCircle
 10
146.4748374316
 20
149.3083668548
 30
0.0
 40
0.5000000000000004
100
AcDbArc
 50
270.0
 51
0.0
  0
ARC
  5
206
330
138
100
AcDbEntity
  8
$DDT_AUDIT_GENERATED_(110)
  6
Continuous
 62
     7
100
AcDbCircle
 10
95.0698377157
 20
149.3083668548
 30
0.0
 40
0.5000000000000004
100
AcDbArc
 50
180.0
 51
270.0
  0
ARC
  5
207
330
138
100
AcDbEntity
  8
$DDT_AUDIT_GENERATED_(110)
  6
Continuous
 62
     7
100
AcDbCircle
 10
146.6748374316
 20
152.7083668548
 30
0.0
 40
0.3000000000000017
100
AcDbArc
 50
0.0
 51
90.0
  0
ARC
  5
208
330
138
100
AcDbEntity
  8
$DDT_AUDIT_GENERATED_(110)
  6
Continuous
 62
     7
100
AcDbCircle
 10
94.8698377157
 20
152.7083668548
 30
0.0
 40
0.2999999999999947
100
AcDbArc
 50
96.7700288803
 51
180.0
  0
LINE
  5
209
330
138
100
AcDbEntity
  8
$DDT_AUDIT_GENERATED_(110)
  6
Continuous
 62
     7
100
AcDbLine
 10
127.2944749783
 20
148.5583668548
 30
0.0
 11
114.2502001691
 21
148.5583668548
 31
0.0
  0
LINE
  5
20A
330
138
100
AcDbEntity
  8
$DDT_AUDIT_GENERATED_(110)
  6
Continuous
 62
     7
100
AcDbLine
 10
114.2502001691
 20
148.5583668548
 30
0.0
 11
113.8723375737
 21
148.5583668548
 31
0.0
  0
LINE
  5
20B
330
138
100
AcDbEntity
  8
$DDT_AUDIT_GENERATED_(110)
  6
Continuous
 62
     7
100
AcDbLine
 10
127.6723375737
 20
148.5583668548
 30
0.0
 11
127.2944749783
 21
148.5583668548
 31
0.0
  0
LINE
  5
20C
330
138
100
AcDbEntity
  8
$DDT_AUDIT_GENERATED_(110)
  6
Continuous
 62
     7
100
AcDbLine
 10
113.8723375737
 20
148.5583668548
 30
0.0
 11
107.3223375737
 21
148.5583668548
 31
0.0
  0
LINE
  5
20D
330
138
100
AcDbEntity
  8
$DDT_AUDIT_GENERATED_(110)
  6
Continuous
 62
     7
100
AcDbLine
 10
134.2223375737
 20
148.5583668548
 30
0.0
 11
127.6723375737
 21
148.5583668548
 31
0.0
  0
LINE
  5
20E
330
138
100
AcDbEntity
  8
$DDT_AUDIT_GENERATED_(110)
  6
Continuous
 62
     7
100
AcDbLine
 10
107.3223375737
 20
148.5583668548
 30
0.0
 11
95.3198377157
 21
148.5583668548
 31
0.0
  0
LINE
  5
20F
330
138
100
AcDbEntity
  8
$DDT_AUDIT_GENERATED_(110)
  6
Continuous
 62
     7
100
AcDbLine
 10
146.2248374316
 20
148.5583668548
 30
0.0
 11
134.2223375737
 21
148.5583668548
 31
0.0
  0
LINE
  5
210
330
138
100
AcDbEntity
  8
$DDT_AUDIT_GENERATED_(110)
  6
Continuous
 62
     7
100
AcDbLine
 10
95.3198377157
 20
148.5583668548
 30
0.0
 11
95.0698377157
 21
148.5583668548
 31
0.0
  0
LINE
  5
211
330
138
100
AcDbEntity
  8
$DDT_AUDIT_GENERATED_(110)
  6
Continuous
 62
     7
100
AcDbLine
 10
146.4748374316
 20
148.5583668548
 30
0.0
 11
146.2248374316
 21
148.5583668548
 31
0.0
  0
ARC
  5
212
330
138
100
AcDbEntity
  8
$DDT_AUDIT_GENERATED_(110)
  6
Continuous
 62
     7
100
AcDbCircle
 10
127.6723375737
 20
149.0583668548
 30
0.0
 40
0.5000000000000004
100
AcDbArc
 50
270.0
 51
330.0
  0
ARC
  5
213
330
138
100
AcDbEntity
  8
$DDT_AUDIT_GENERATED_(110)
  6
Continuous
 62
     7
100
AcDbCircle
 10
113.8723375737
 20
149.0583668548
 30
0.0
 40
0.5000000000000004
100
AcDbArc
 50
210.0
 51
270.0
  0
LINE
  5
214
330
138
100
AcDbEntity
  8
$DDT_AUDIT_GENERATED_(110)
  6
Continuous
 62
     7
100
AcDbLine
 10
94.5698377157
 20
149.3083668548
 30
0.0
 11
94.5698377157
 21
149.0583668548
 31
0.0
  0
LINE
  5
215
330
138
100
AcDbEntity
  8
$DDT_AUDIT_GENERATED_(110)
  6
Continuous
 62
     7
100
AcDbLine
 10
146.9748374316
 20
149.0583668548
 30
0.0
 11
146.9748374316
 21
149.3083668548
 31
0.0
  0
ARC
  5
216
330
138
100
AcDbEntity
  8
$DDT_AUDIT_GENERATED_(110)
  6
Continuous
 62
     7
100
AcDbCircle
 10
146.4748374316
 20
149.0583668548
 30
0.0
 40
0.5000000000000004
100
AcDbArc
 50
270.0
 51
0.0
  0
ARC
  5
217
330
138
100
AcDbEntity
  8
$DDT_AUDIT_GENERATED_(110)
  6
Continuous
 62
     7
100
AcDbCircle
 10
95.0698377157
 20
149.0583668548
 30
0.0
 40
0.5000000000000004
100
AcDbArc
 50
180.0
 51
270.0
  0
ENDBLK
  5
219
330
138
100
AcDbEntity
  8
0
100
AcDbBlockEnd
  0
BLOCK
  5
2D8
330
21A
100
AcDbEntity
  8
0
100
AcDbBlockBegin
  2
SE2
 70
     0
 10
0.0
 20
0.0
 30
0.0
  3
SE2
  1

  0
LINE
  5
21C
330
21A
100
AcDbEntity
  8
$DDT_AUDIT_GENERATED_(60)
  6
Continuous
 62
     7
100
AcDbLine
 10
305.8048629153
 20
415.4979285513
 30
0.0
 11
305.8048629153
 21
463.9979285513
 31
0.0
  0
ARC
  5
21D
330
21A
100
AcDbEntity
  8
$DDT_AUDIT_GENERATED_(60)
  6
Continuous
 62
     7
100
AcDbCircle
 10
303.8048629153
 20
415.4979285513
 30
0.0
 40
2.000000000000002
100
AcDbArc
 50
278.6269265587
 51
0.0
  0
ARC
  5
21E
330
21A
100
AcDbEntity
  8
$DDT_AUDIT_GENERATED_(60)
  6
Continuous
 62
     7
100
AcDbCircle
 10
303.8048629153
 20
463.9979285513
 30
0.0
 40
2.000000000000002
100
AcDbArc
 50
0.0
 51
81.3730734413
  0
LINE
  5
21F
330
21A
100
AcDbEntity
  8
$DDT_AUDIT_GENERATED_(65)
  6
Continuous
 62
     7
100
AcDbLine
 10
315.0548629153
 20
467.795586536
 30
0.0
 11
315.0548629153
 21
466.8876530742
 31
0.0
  0
LINE
  5
220
330
21A
100
AcDbEntity
  8
$DDT_AUDIT_GENERATED_(65)
  6
Continuous
 62
     7
100
AcDbLine
 10
315.0548629153
 20
467.795586536
 30
0.0
 11
319.6990726651
 21
467.7347384533
 31
0.0
  0
SPLINE
  5
221
330
21A
100
AcDbEntity
  8
$DDT_AUDIT_GENERATED_(65)
  6
Continuous
 62
     7
100
AcDbSpline
210
0.0
220
0.0
230
1.0
 70
     8
 71
     3
 72
     8
 73
     4
 74
     0
 42
0.000000049466351
 43
0.0000000001
 40
0.0
 40
0.0
 40
0.0
 40
0.0
 40
0.5
 40
0.5
 40
0.5
 40
0.5
 10
319.6990726651484
 20
467.7347384533036
 30
0.0
 10
319.7566468295453
 20
467.7701412890124
 30
0.0
 10
319.7848629153053
 20
467.7881824453742
 30
0.0
 10
319.7848629153053
 20
467.7881824453742
 30
0.0
  0
ARC
  5
222
330
21A
100
AcDbEntity
  8
$DDT_AUDIT_GENERATED_(65)
  6
Continuous
 62
     7
100
AcDbCircle
 10
-112.0492930689
 20
446.0325124447
 30
0.0
 40
474.2584013585293
100
AcDbArc
 50
359.3639070458
 51
0.6360929542
  0
ARC
  5
223
330
21A
100
AcDbEntity
  8
$DDT_AUDIT_GENERATED_(65)
  6
Continuous
 62
     7
100
AcDbCircle
 10
-938.1555768158
 20
439.7479349625
 30
0.0
 40
1300.386749892929
100
AcDbArc
 50
0.5088906796
 51
0.9252844924
  0
LINE
  5
224
330
21A
100
AcDbEntity
  8
$DDT_AUDIT_GENERATED_(65)
  6
Continuous
 62
     7
100
AcDbLine
 10
315.0548629153
 20
462.2249272958
 30
0.0
 11
315.0548629153
 21
462.6844325295
 31
0.0
  0
LINE
  5
225
330
21A
100
AcDbEntity
  8
$DDT_AUDIT_GENERATED_(65)
  6
Continuous
 62
     7
100
AcDbLine
 10
315.0548629153
 20
435.2847276735
 30
0.0
 11
315.0548629153
 21
433.6080221431
 31
0.0
  0
LINE
  5
226
330
21A
100
AcDbEntity
  8
$DDT_AUDIT_GENERATED_(65)
  6
Continuous
 62
     7
100
AcDbLine
 10
315.0548629153
 20
435.7956075722
 30
0.0
 11
315.0548629153
 21
462.2249272958
 31
0.0
  0
LINE
  5
227
330
21A
100
AcDbEntity
  8
$DDT_AUDIT_GENERATED_(65)
  6
Continuous
 62
     7
100
AcDbLine
 10
315.0548629153
 20
435.2847276735
 30
0.0
 11
315.0548629153
 21
435.7956075722
 31
0.0
  0
LINE
  5
228
330
21A
100
AcDbEntity
  8
$DDT_AUDIT_GENERATED_(65)
  6
Continuous
 62
     7
100
AcDbLine
 10
315.0548629153
 20
415.7479285513
 30
0.0
 11
315.0548629153
 21
419.4091863846
 31
0.0
  0
LINE
  5
229
330
21A
100
AcDbEntity
  8
$DDT_AUDIT_GENERATED_(65)
  6
Continuous
 62
     7
100
AcDbLine
 10
315.0548629153
 20
432.4927800214
 30
0.0
 11
315.0548629153
 21
419.8633525582
 31
0.0
  0
LINE
  5
22A
330
21A
100
AcDbEntity
  8
$DDT_AUDIT_GENERATED_(65)
  6
Continuous
 62
     7
100
AcDbLine
 10
315.0548629153
 20
432.4927800214
 30
0.0
 11
315.0548629153
 21
433.6080221431
 31
0.0
  0
LINE
  5
22B
330
21A
100
AcDbEntity
  8
$DDT_AUDIT_GENERATED_(65)
  6
Continuous
 62
     7
100
AcDbLine
 10
315.0548629153
 20
419.5709809506
 30
0.0
 11
315.0548629153
 21
419.8633525582
 31
0.0
  0
LINE
  5
22C
330
21A
100
AcDbEntity
  8
$DDT_AUDIT_GENERATED_(65)
  6
Continuous
 62
     7
100
AcDbLine
 10
320.7426832925
 20
467.4565535978
 30
0.0
 11
320.7398983156
 21
467.7756803471
 31
0.0
  0
LINE
  5
22D
330
21A
100
AcDbEntity
  8
$DDT_AUDIT_GENERATED_(65)
  6
Continuous
 62
     7
100
AcDbLine
 10
321.7442492422
 20
467.2727503548
 30
0.0
 11
352.2619503376
 21
466.8667186002
 31
0.0
  0
SPLINE
  5
22E
330
21A
100
AcDbEntity
  8
$DDT_AUDIT_GENERATED_(65)
  6
Continuous
 62
     7
100
AcDbSpline
210
0.0
220
0.0
230
1.0
 70
     8
 71
     3
 72
    12
 73
     8
 74
     0
 42
0.000000009456238
 43
0.0000000001
 40
0.0
 40
0.0
 40
0.0
 40
0.0
 40
0.2499999999999979
 40
0.2499999999999979
 40
0.4999999999999958
 40
0.4999999999999958
 40
1.0
 40
1.0
 40
1.0
 40
1.0
 10
321.7442492421783
 20
467.27275035478
 30
0.0
 10
321.6111921630363
 20
467.2745202348173
 30
0.0
 10
321.4806874098916
 20
467.2812896938619
 30
0.0
 10
321.2378843045375
 20
467.3033565404668
 30
0.0
 10
321.1269183778724
 20
467.3186140799196
 30
0.0
 10
320.8510247165809
 20
467.3715666911613
 30
0.0
 10
320.7430326748874
 20
467.416518343107
 30
0.0
 10
320.7426832925126
 20
467.4565535978263
 30
0.0
  0
LINE
  5
22F
330
21A
100
AcDbEntity
  8
$DDT_AUDIT_GENERATED_(65)
  6
Continuous
 62
     7
100
AcDbLine
 10
315.0548629153
 20
465.9394349103
 30
0.0
 11
315.0548629153
 21
462.6844325295
 31
0.0
  0
LINE
  5
230
330
21A
100
AcDbEntity
  8
$DDT_AUDIT_GENERATED_(65)
  6
Continuous
 62
     7
100
AcDbLine
 10
315.0548629153
 20
465.9394349103
 30
0.0
 11
315.0548629153
 21
466.8876530742
 31
0.0
  0
ELLIPSE
  5
231
330
21A
100
AcDbEntity
  8
$DDT_AUDIT_GENERATED_(65)
  6
Continuous
 62
     7
100
AcDbEllipse
 10
361.0709186017
 20
461.4882056226
 30
0.0
 11
-0.009808915976794431
 21
-0.2998395990648356
 31
0.0
210
0.0
220
0.0
230
1.0
 40
0.0523080504
 41
3.141127840460427
 42
3.486579724591422
  0
ELLIPSE
  5
232
330
21A
100
AcDbEntity
  8
$DDT_AUDIT_GENERATED_(65)
  6
Continuous
 62
     7
100
AcDbEllipse
 10
-934.5961844197
 20
387.6861943005
 30
0.0
 11
1296.235751002052
 21
78.44203846381396
 31
0.0
210
0.0
220
0.0
230
1.0
 40
0.4993144653
 41
-0.0463783614596265
 42
-0.0391009526333335
  0
LINE
  5
233
330
21A
100
AcDbEntity
  8
$DDT_AUDIT_GENERATED_(65)
  6
Continuous
 62
     7
100
AcDbLine
 10
362.0616072266
 20
460.7473070743
 30
0.0
 11
362.0616072266
 21
436.0372125811
 31
0.0
  0
ELLIPSE
  5
234
330
21A
100
AcDbEntity
  8
$DDT_AUDIT_GENERATED_(65)
  6
Continuous
 62
     7
100
AcDbEllipse
 10
361.0709186017
 20
435.6338466793
 30
0.0
 11
-0.01848781557131642
 21
0.2994297925647953
 31
0.0
210
0.0
220
0.0
230
1.0
 40
0.0021231117
 41
-3.171067944946054
 42
-3.142037964204257
  0
ARC
  5
235
330
21A
100
AcDbEntity
  8
$DDT_AUDIT_GENERATED_(65)
  6
Continuous
 62
     7
100
AcDbCircle
 10
361.0313331609
 20
460.7411790853
 30
0.0
 40
1.030292289922864
100
AcDbArc
 50
0.3407867653
 51
87.5795082613
  0
LINE
  5
236
330
21A
100
AcDbEntity
  8
$DDT_AUDIT_GENERATED_(65)
  6
Continuous
 62
     7
100
AcDbLine
 10
361.0548629153
 20
435.3353347185
 30
0.0
 11
361.0548629153
 21
434.5569524724
 31
0.0
  0
LINE
  5
237
330
21A
100
AcDbEntity
  8
$DDT_AUDIT_GENERATED_(65)
  6
Continuous
 62
     7
100
AcDbLine
 10
361.0548629153
 20
432.9019140037
 30
0.0
 11
361.0548629153
 21
432.3361568434
 31
0.0
  0
LINE
  5
238
330
21A
100
AcDbEntity
  8
$DDT_AUDIT_GENERATED_(65)
  6
Continuous
 62
     7
100
AcDbLine
 10
361.0548629153
 20
432.3361568434
 30
0.0
 11
361.0548629153
 21
420.9635361982
 31
0.0
  0
SPLINE
  5
239
330
21A
100
AcDbEntity
  8
$DDT_AUDIT_GENERATED_(65)
  6
Continuous
 62
     7
100
AcDbSpline
210
0.0
220
0.0
230
1.0
 70
     8
 71
     3
 72
    14
 73
    10
 74
     0
 42
0.0000000160009277
 43
0.0000000001
 40
0.0
 40
0.0
 40
0.0
 40
0.0
 40
0.25
 40
0.25
 40
0.5
 40
0.5
 40
0.75
 40
0.75
 40
0.7829357017844758
 40
0.7829357017844758
 40
0.7829357017844758
 40
0.7829357017844758
 10
360.5631166250795
 20
435.5316357643493
 30
0.0
 10
360.6185850546564
 20
435.5008332096057
 30
0.0
 10
360.6721333638945
 20
435.4723076581
 30
0.0
 10
360.777187730458
 20
435.4176136842827
 30
0.0
 10
360.8288806866714
 20
435.3912430765627
 30
0.0
 10
360.9212635146163
 20
435.3486369536813
 30
0.0
 10
360.9630600543983
 20
435.3318382925886
 30
0.0
 10
360.9974899129974
 20
435.3290729860883
 30
0.0
 10
361.0012876484436
 20
435.3290195819893
 30
0.0
 10
361.0048784792836
 20
435.3292430211883
 30
0.0
  0
LINE
  5
23A
330
21A
100
AcDbEntity
  8
$DDT_AUDIT_GENERATED_(65)
  6
Continuous
 62
     7
100
AcDbLine
 10
361.0548629153
 20
465.9440926123
 30
0.0
 11
361.0548629153
 21
466.7544310699
 31
0.0
  0
LINE
  5
23B
330
21A
100
AcDbEntity
  8
$DDT_AUDIT_GENERATED_(65)
  6
Continuous
 62
     7
100
AcDbLine
 10
361.0548629153
 20
465.9440926123
 30
0.0
 11
361.0548629153
 21
465.4678622734
 31
0.0
  0
LINE
  5
23C
330
21A
100
AcDbEntity
  8
$DDT_AUDIT_GENERATED_(65)
  6
Continuous
 62
     7
100
AcDbLine
 10
361.0548629153
 20
462.2549223396
 30
0.0
 11
361.0548629153
 21
461.7819638429
 31
0.0
  0
SPLINE
  5
23D
330
21A
100
AcDbEntity
  8
$DDT_AUDIT_GENERATED_(65)
  6
Continuous
 62
     7
100
AcDbSpline
210
0.0
220
0.0
230
1.0
 70
     8
 71
     3
 72
     8
 73
     4
 74
     0
 42
0.0000000152656376
 43
0.0000000001
 40
0.803079485097288
 40
0.803079485097288
 40
0.803079485097288
 40
0.803079485097288
 40
1.0
 40
1.0
 40
1.0
 40
1.0
 10
360.6915426537254
 20
461.8007627837865
 30
0.0
 10
360.649439524327
 20
461.8018958096976
 30
0.0
 10
360.6061851504703
 20
461.7990330603925
 30
0.0
 10
360.5631166250905
 20
461.7927213836703
 30
0.0
  0
LINE
  5
23E
330
21A
100
AcDbEntity
  8
$DDT_AUDIT_GENERATED_(65)
  6
Continuous
 62
     7
100
AcDbLine
 10
353.7160602867
 20
467.3439987402
 30
0.0
 11
353.7138098597
 21
467.0861253387
 31
0.0
  0
SPLINE
  5
23F
330
21A
100
AcDbEntity
  8
$DDT_AUDIT_GENERATED_(65)
  6
Continuous
 62
     7
100
AcDbSpline
210
0.0
220
0.0
230
1.0
 70
     8
 71
     3
 72
    16
 73
    12
 74
     0
 42
0.0000000066474141
 43
0.0000000001
 40
0.0
 40
0.0
 40
0.0
 40
0.0
 40
0.2500000000000001
 40
0.2500000000000001
 40
0.3750000000000002
 40
0.3750000000000002
 40
0.5000000000000002
 40
0.5000000000000002
 40
0.7500000000000001
 40
0.7500000000000001
 40
1.0
 40
1.0
 40
1.0
 40
1.0
 10
353.7138098596549
 20
467.086125338725
 30
0.0
 10
353.7135807078452
 20
467.0598671421649
 30
0.0
 10
353.67596264147
 20
467.0325608528517
 30
0.0
 10
353.567265852021
 20
466.9924746885803
 30
0.0
 10
353.5229504798631
 20
466.9795006769579
 30
0.0
 10
353.4183002841679
 20
466.9545555600309
 30
0.0
 10
353.3573075217188
 20
466.9425099467422
 30
0.0
 10
353.1571505454738
 20
466.909844428922
 30
0.0
 10
352.9955644538917
 20
466.8918929042401
 30
0.0
 10
352.6458155240666
 20
466.8691575874922
 30
0.0
 10
352.454527371207
 20
466.8641557895364
 30
0.0
 10
352.2619503376124
 20
466.8667186001992
 30
0.0
  0
LINE
  5
240
330
21A
100
AcDbEntity
  8
$DDT_AUDIT_GENERATED_(65)
  6
Continuous
 62
     7
100
AcDbLine
 10
320.7398983156
 20
467.7756803471
 30
0.0
 11
319.740962381
 21
467.7887571348
 31
0.0
  0
LINE
  5
241
330
21A
100
AcDbEntity
  8
$DDT_AUDIT_GENERATED_(65)
  6
Continuous
 62
     7
100
AcDbLine
 10
360.5614077131
 20
467.2543882337
 30
0.0
 11
353.7160602867
 21
467.3439987402
 31
0.0
  0
ARC
  5
242
330
21A
100
AcDbEntity
  8
$DDT_AUDIT_GENERATED_(65)
  6
Continuous
 62
     7
100
AcDbCircle
 10
-937.7451370847
 20
439.7479285513
 30
0.0
 40
1300.0
100
AcDbArc
 50
359.0120442853
 51
359.1517413074
  0
LINE
  5
243
330
21A
100
AcDbEntity
  8
$DDT_AUDIT_GENERATED_(65)
  6
Continuous
 62
     7
100
AcDbLine
 10
315.0548629153
 20
415.7479285513
 30
0.0
 11
361.0748454804
 21
416.3503631233
 31
0.0
  0
LINE
  5
244
330
21A
100
AcDbEntity
  8
$DDT_AUDIT_GENERATED_(65)
  6
Continuous
 62
     7
100
AcDbLine
 10
361.0030191761
 20
435.3290862019
 30
0.0
 11
361.0894064173
 21
435.3344168867
 31
0.0
  0
LINE
  5
245
330
21A
100
AcDbEntity
  8
$DDT_AUDIT_GENERATED_(65)
  6
Continuous
 62
     7
100
AcDbLine
 10
361.0807275177
 20
461.7880452217
 30
0.0
 11
360.6902655528
 21
461.8007995317
 31
0.0
  0
LINE
  5
246
330
21A
100
AcDbEntity
  8
$DDT_AUDIT_GENERATED_(65)
  6
Continuous
 62
     7
100
AcDbLine
 10
315.0550888016
 20
419.5712867761
 30
0.0
 11
360.5631053507
 21
420.3129318853
 31
0.0
  0
ARC
  5
247
330
21A
100
AcDbEntity
  8
$DDT_AUDIT_GENERATED_(65)
  6
Continuous
 62
     7
100
AcDbCircle
 10
361.0617558848
 20
417.3502774509
 30
0.0
 40
1.000000000000002
100
AcDbArc
 50
270.75
 51
359.0120442853
  0
SPLINE
  5
248
330
21A
100
AcDbEntity
  8
$DDT_AUDIT_GENERATED_(65)
  6
Continuous
 62
     7
100
AcDbSpline
210
0.0
220
0.0
230
1.0
 70
     8
 71
     3
 72
    12
 73
     8
 74
     0
 42
0.0000000075787839
 43
0.0000000001
 40
0.0
 40
0.0
 40
0.0
 40
0.0
 40
0.1671625058213247
 40
0.3956288049741293
 40
0.6388479301806147
 40
0.841291974415615
 40
1.0
 40
1.0
 40
1.0
 40
1.0
 10
361.08886875027
 20
435.3409152923853
 30
0.0
 10
361.1785381688888
 20
435.3469919974974
 30
0.0
 10
361.3606066495736
 20
435.3615554265453
 30
0.0
 10
361.6499536954244
 20
435.4639159870159
 30
0.0
 10
361.8810961142577
 20
435.6200223334778
 30
0.0
 10
362.0326280692345
 20
435.8231496972801
 30
0.0
 10
362.0483539982003
 20
435.9595832786957
 30
0.0
 10
362.0550005216324
 20
436.0296190339371
 30
0.0
  0
ARC
  5
249
330
21A
100
AcDbEntity
  8
$DDT_AUDIT_GENERATED_(65)
  6
Continuous
 62
     7
100
AcDbCircle
 10
360.5548629153
 20
420.8113220062
 30
0.0
 40
0.5000000000000029
100
AcDbArc
 50
271.1713561984
 51
0.0057734005
  0
ARC
  5
24A
330
21A
100
AcDbEntity
  8
$DDT_AUDIT_GENERATED_(65)
  6
Continuous
 62
     7
100
AcDbCircle
 10
360.5548629153
 20
466.7544310699
 30
0.0
 40
0.5000000000000004
100
AcDbArc
 50
0.0
 51
89.25
  0
ARC
  5
24B
330
21A
100
AcDbEntity
  8
$DDT_AUDIT_GENERATED_(A1)
  6
Continuous
 62
     7
100
AcDbCircle
 10
331.9464357254
 20
465.9859871749
 30
0.0
 40
20.79040583976875
100
AcDbArc
 50
2.458630469
 51
14.8537365793
  0
LINE
  5
24C
330
21A
100
AcDbEntity
  8
$DDT_AUDIT_GENERATED_(A1)
  6
Continuous
 62
     7
100
AcDbLine
 10
321.1633212104
 20
467.9068023151
 30
0.0
 11
321.1599273335
 21
467.6208527699
 31
0.0
  0
LINE
  5
24D
330
21A
100
AcDbEntity
  8
$DDT_AUDIT_GENERATED_(A1)
  6
Continuous
 62
     7
100
AcDbLine
 10
321.1563222842
 20
467.3171109874
 30
0.0
 11
321.1599273335
 21
467.6208527699
 31
0.0
  0
ARC
  5
24E
330
21A
100
AcDbEntity
  8
$DDT_AUDIT_GENERATED_(A1)
  6
Continuous
 62
     7
100
AcDbCircle
 10
321.2664231485
 20
599.5623891895
 30
0.0
 40
130.6705090840262
100
AcDbArc
 50
270.3902531866
 51
283.0863080597
  0
ARC
  5
24F
330
21A
100
AcDbEntity
  8
$DDT_AUDIT_GENERATED_(A1)
  6
Continuous
 62
     7
100
AcDbCircle
 10
332.2662264727
 20
466.2796127557
 30
0.0
 40
20.47412179443754
100
AcDbArc
 50
1.6768534395
 51
14.97399965
  0
ARC
  5
250
330
21A
100
AcDbEntity
  8
$DDT_AUDIT_GENERATED_(A1)
  6
Continuous
 62
     7
100
AcDbCircle
 10
322.1632507836
 20
467.8949343548
 30
0.0
 40
0.999999999999995
100
AcDbArc
 50
90.3902531866
 51
179.32
  0
ARC
  5
251
330
21A
100
AcDbEntity
  8
$DDT_AUDIT_GENERATED_(A1)
  6
Continuous
 62
     7
100
AcDbCircle
 10
351.0790689558
 20
471.311349769
 30
0.0
 40
0.9999999999999397
100
AcDbArc
 50
14.97399965
 51
103.0863080597
  0
LINE
  5
252
330
21A
100
AcDbEntity
  8
$DDT_AUDIT_GENERATED_(60)
  6
Continuous
 62
     7
100
AcDbLine
 10
306.5048629153
 20
378.9979285513
 30
0.0
 11
306.5048629153
 21
330.4979285513
 31
0.0
  0
ARC
  5
253
330
21A
100
AcDbEntity
  8
$DDT_AUDIT_GENERATED_(60)
  6
Continuous
 62
     7
100
AcDbCircle
 10
304.5048629153
 20
330.4979285513
 30
0.0
 40
1.999999999999998
100
AcDbArc
 50
270.0
 51
0.0
  0
ARC
  5
254
330
21A
100
AcDbEntity
  8
$DDT_AUDIT_GENERATED_(60)
  6
Continuous
 62
     7
100
AcDbCircle
 10
304.5048629153
 20
378.9979285513
 30
0.0
 40
2.000000000000002
100
AcDbArc
 50
0.0
 51
90.0
  0
LINE
  5
255
330
21A
100
AcDbEntity
  8
$DDT_AUDIT_GENERATED_(AB)
  6
Continuous
 62
     7
100
AcDbLine
 10
302.3048629153
 20
295.2479285513
 30
0.0
 11
290.8048629153
 21
295.2479285513
 31
0.0
  0
LINE
  5
256
330
21A
100
AcDbEntity
  8
$DDT_AUDIT_GENERATED_(AB)
  6
Continuous
 62
     7
100
AcDbLine
 10
290.8048629153
 20
297.0479285513
 30
0.0
 11
290.8048629153
 21
489.9479285513
 31
0.0
  0
LINE
  5
257
330
21A
100
AcDbEntity
  8
$DDT_AUDIT_GENERATED_(AB)
  6
Continuous
 62
     7
100
AcDbLine
 10
290.8048629153
 20
489.9479285513
 30
0.0
 11
290.8048629153
 21
491.7479285513
 31
0.0
  0
LINE
  5
258
330
21A
100
AcDbEntity
  8
$DDT_AUDIT_GENERATED_(AB)
  6
Continuous
 62
     7
100
AcDbLine
 10
290.8048629153
 20
295.2479285513
 30
0.0
 11
290.8048629153
 21
297.0479285513
 31
0.0
  0
LINE
  5
259
330
21A
100
AcDbEntity
  8
$DDT_AUDIT_GENERATED_(AB)
  6
Continuous
 62
     7
100
AcDbLine
 10
304.1048629153
 20
489.9479285513
 30
0.0
 11
304.1048629153
 21
297.0479285513
 31
0.0
  0
LINE
  5
25A
330
21A
100
AcDbEntity
  8
$DDT_AUDIT_GENERATED_(AB)
  6
Continuous
 62
     7
100
AcDbLine
 10
290.8048629153
 20
491.7479285513
 30
0.0
 11
302.3048629153
 21
491.7479285513
 31
0.0
  0
ARC
  5
25B
330
21A
100
AcDbEntity
  8
$DDT_AUDIT_GENERATED_(AB)
  6
Continuous
 62
     7
100
AcDbCircle
 10
302.3048629153
 20
489.9479285513
 30
0.0
 40
1.799999999999996
100
AcDbArc
 50
0.0
 51
90.0
  0
ARC
  5
25C
330
21A
100
AcDbEntity
  8
$DDT_AUDIT_GENERATED_(AB)
  6
Continuous
 62
     7
100
AcDbCircle
 10
302.3048629153
 20
297.0479285513
 30
0.0
 40
1.799999999999996
100
AcDbArc
 50
270.0
 51
0.0
  0
LINE
  5
25D
330
21A
100
AcDbEntity
  8
$DDT_AUDIT_GENERATED_(BC)
  6
Continuous
 62
     7
100
AcDbLine
 10
314.5048629153
 20
378.3479285513
 30
0.0
 11
314.5048629153
 21
331.1479285513
 31
0.0
  0
LINE
  5
25E
330
21A
100
AcDbEntity
  8
$DDT_AUDIT_GENERATED_(BC)
  6
Continuous
 62
     7
100
AcDbLine
 10
307.7243751104
 20
329.2223187952
 30
0.0
 11
314.1146190129
 21
330.6601236732
 31
0.0
  0
LINE
  5
25F
330
21A
100
AcDbEntity
  8
$DDT_AUDIT_GENERATED_(BC)
  6
Continuous
 62
     7
100
AcDbLine
 10
314.1146190129
 20
378.8357334293
 30
0.0
 11
307.7243751104
 21
380.2735383074
 31
0.0
  0
LINE
  5
260
330
21A
100
AcDbEntity
  8
$DDT_AUDIT_GENERATED_(BC)
  6
Continuous
 62
     7
100
AcDbLine
 10
315.0048629153
 20
335.2479285513
 30
0.0
 11
315.3048629153
 21
335.2479285513
 31
0.0
  0
LINE
  5
261
330
21A
100
AcDbEntity
  8
$DDT_AUDIT_GENERATED_(BC)
  6
Continuous
 62
     7
100
AcDbLine
 10
315.3048629153
 20
374.2479285513
 30
0.0
 11
315.0048629153
 21
374.2479285513
 31
0.0
  0
ARC
  5
262
330
21A
100
AcDbEntity
  8
$DDT_AUDIT_GENERATED_(BC)
  6
Continuous
 62
     7
100
AcDbCircle
 10
315.0048629153
 20
374.7479285513
 30
0.0
 40
0.5000000000000004
100
AcDbArc
 50
180.0
 51
270.0
  0
ARC
  5
263
330
21A
100
AcDbEntity
  8
$DDT_AUDIT_GENERATED_(BC)
  6
Continuous
 62
     7
100
AcDbCircle
 10
315.0048629153
 20
334.7479285513
 30
0.0
 40
0.5000000000000004
100
AcDbArc
 50
90.0
 51
180.0
  0
ARC
  5
264
330
21A
100
AcDbEntity
  8
$DDT_AUDIT_GENERATED_(BC)
  6
Continuous
 62
     7
100
AcDbCircle
 10
314.0048629153
 20
378.3479285513
 30
0.0
 40
0.5000000000000004
100
AcDbArc
 50
0.0
 51
77.3196165082
  0
ARC
  5
265
330
21A
100
AcDbEntity
  8
$DDT_AUDIT_GENERATED_(BC)
  6
Continuous
 62
     7
100
AcDbCircle
 10
314.0048629153
 20
331.1479285513
 30
0.0
 40
0.5000000000000004
100
AcDbArc
 50
282.6803834918
 51
0.0
  0
ARC
  5
266
330
21A
100
AcDbEntity
  8
$DDT_AUDIT_GENERATED_(BC)
  6
Continuous
 62
     7
100
AcDbCircle
 10
307.5048629153
 20
330.1979285513
 30
0.0
 40
0.9999999999992424
100
AcDbArc
 50
192.6803834916
 51
282.6803834918
  0
ARC
  5
267
330
21A
100
AcDbEntity
  8
$DDT_AUDIT_GENERATED_(BC)
  6
Continuous
 62
     7
100
AcDbCircle
 10
307.5048629153
 20
379.2979285513
 30
0.0
 40
1.000000000000007
100
AcDbArc
 50
77.3196165082
 51
167.3196165084
  0
LINE
  5
268
330
21A
100
AcDbEntity
  8
$DDT_AUDIT_GENERATED_(BC)
  6
Continuous
 62
     7
100
AcDbLine
 10
306.5170580373
 20
376.8479285513
 30
0.0
 11
306.5048629153
 21
376.8479285513
 31
0.0
  0
LINE
  5
269
330
21A
100
AcDbEntity
  8
$DDT_AUDIT_GENERATED_(BC)
  6
Continuous
 62
     7
100
AcDbLine
 10
306.5048629153
 20
332.6479285513
 30
0.0
 11
306.5170580373
 21
332.6479285513
 31
0.0
  0
ARC
  5
26A
330
21A
100
AcDbEntity
  8
$DDT_AUDIT_GENERATED_(BC)
  6
Continuous
 62
     7
100
AcDbCircle
 10
307.0170580373
 20
330.0881724537
 30
0.0
 40
0.5000000000000004
100
AcDbArc
 50
180.0
 51
192.6803834918
  0
ARC
  5
26B
330
21A
100
AcDbEntity
  8
$DDT_AUDIT_GENERATED_(BC)
  6
Continuous
 62
     7
100
AcDbCircle
 10
307.0170580373
 20
379.4076846488
 30
0.0
 40
0.4999999999992425
100
AcDbArc
 50
167.3196165082
 51
180.0
  0
LINE
  5
26C
330
21A
100
AcDbEntity
  8
$DDT_AUDIT_GENERATED_(BC)
  6
Continuous
 62
     7
100
AcDbLine
 10
306.5170580373
 20
379.4076846488
 30
0.0
 11
306.5170580373
 21
330.0881724537
 31
0.0
  0
LINE
  5
26D
330
21A
100
AcDbEntity
  8
$DDT_AUDIT_GENERATED_(C1)
  6
Continuous
 62
     7
100
AcDbLine
 10
313.8048629153
 20
463.3575403481
 30
0.0
 11
313.8048629153
 21
416.1383167545
 31
0.0
  0
LINE
  5
26E
330
21A
100
AcDbEntity
  8
$DDT_AUDIT_GENERATED_(C1)
  6
Continuous
 62
     7
100
AcDbLine
 10
307.0473985403
 20
414.0585624575
 30
0.0
 11
313.4261307278
 21
415.6532455044
 31
0.0
  0
LINE
  5
26F
330
21A
100
AcDbEntity
  8
$DDT_AUDIT_GENERATED_(C1)
  6
Continuous
 62
     7
100
AcDbLine
 10
313.4261307278
 20
463.8426115982
 30
0.0
 11
307.0473985403
 21
465.437294645
 31
0.0
  0
LINE
  5
270
330
21A
100
AcDbEntity
  8
$DDT_AUDIT_GENERATED_(C1)
  6
Continuous
 62
     7
100
AcDbLine
 10
314.3048629153
 20
420.2479285513
 30
0.0
 11
315.0548629153
 21
420.2479285513
 31
0.0
  0
LINE
  5
271
330
21A
100
AcDbEntity
  8
$DDT_AUDIT_GENERATED_(C1)
  6
Continuous
 62
     7
100
AcDbLine
 10
315.0548629153
 20
459.2479285513
 30
0.0
 11
314.3048629153
 21
459.2479285513
 31
0.0
  0
ARC
  5
272
330
21A
100
AcDbEntity
  8
$DDT_AUDIT_GENERATED_(C1)
  6
Continuous
 62
     7
100
AcDbCircle
 10
314.3048629153
 20
459.7479285513
 30
0.0
 40
0.5000000000000004
100
AcDbArc
 50
180.0
 51
270.0
  0
ARC
  5
273
330
21A
100
AcDbEntity
  8
$DDT_AUDIT_GENERATED_(C1)
  6
Continuous
 62
     7
100
AcDbCircle
 10
314.3048629153
 20
419.7479285513
 30
0.0
 40
0.5000000000000004
100
AcDbArc
 50
90.0
 51
180.0
  0
ARC
  5
274
330
21A
100
AcDbEntity
  8
$DDT_AUDIT_GENERATED_(C1)
  6
Continuous
 62
     7
100
AcDbCircle
 10
313.3048629153
 20
463.3575403481
 30
0.0
 40
0.5000000000000004
100
AcDbArc
 50
0.0
 51
75.9637565321
  0
ARC
  5
275
330
21A
100
AcDbEntity
  8
$DDT_AUDIT_GENERATED_(C1)
  6
Continuous
 62
     7
100
AcDbCircle
 10
313.3048629153
 20
416.1383167545
 30
0.0
 40
0.4999999999999928
100
AcDbArc
 50
284.0362434679
 51
0.0
  0
ARC
  5
276
330
21A
100
AcDbEntity
  8
$DDT_AUDIT_GENERATED_(C1)
  6
Continuous
 62
     7
100
AcDbCircle
 10
306.8048629153
 20
415.0287049577
 30
0.0
 40
0.9999999999993746
100
AcDbArc
 50
194.0362434681
 51
284.0362434679
  0
ARC
  5
277
330
21A
100
AcDbEntity
  8
$DDT_AUDIT_GENERATED_(C1)
  6
Continuous
 62
     7
100
AcDbCircle
 10
306.8048629153
 20
464.4671521449
 30
0.0
 40
1.000000000000002
100
AcDbArc
 50
75.9637565321
 51
165.9637565319
  0
LINE
  5
278
330
21A
100
AcDbEntity
  8
$DDT_AUDIT_GENERATED_(C1)
  6
Continuous
 62
     7
100
AcDbLine
 10
305.8197916652
 20
461.8479285513
 30
0.0
 11
305.8048629153
 21
461.8479285513
 31
0.0
  0
LINE
  5
279
330
21A
100
AcDbEntity
  8
$DDT_AUDIT_GENERATED_(C1)
  6
Continuous
 62
     7
100
AcDbLine
 10
305.8048629153
 20
417.6479285513
 30
0.0
 11
305.8197916652
 21
417.6479285513
 31
0.0
  0
ARC
  5
27A
330
21A
100
AcDbEntity
  8
$DDT_AUDIT_GENERATED_(C1)
  6
Continuous
 62
     7
100
AcDbCircle
 10
306.3197916652
 20
414.9074371452
 30
0.0
 40
0.5000000000000004
100
AcDbArc
 50
180.0
 51
194.0362434682
  0
ARC
  5
27B
330
21A
100
AcDbEntity
  8
$DDT_AUDIT_GENERATED_(C1)
  6
Continuous
 62
     7
100
AcDbCircle
 10
306.3197916652
 20
464.5884199574
 30
0.0
 40
0.4999999999993701
100
AcDbArc
 50
165.9637565318
 51
180.0
  0
LINE
  5
27C
330
21A
100
AcDbEntity
  8
$DDT_AUDIT_GENERATED_(C1)
  6
Continuous
 62
     7
100
AcDbLine
 10
305.8197916652
 20
464.5884199574
 30
0.0
 11
305.8197916652
 21
414.9074371452
 31
0.0
  0
LINE
  5
27D
330
21A
100
AcDbEntity
  8
$DDT_AUDIT_GENERATED_(65)
  6
Continuous
 62
     7
100
AcDbLine
 10
315.3048629153
 20
382.795586536
 30
0.0
 11
315.3048629153
 21
381.8876530742
 31
0.0
  0
LINE
  5
27E
330
21A
100
AcDbEntity
  8
$DDT_AUDIT_GENERATED_(65)
  6
Continuous
 62
     7
100
AcDbLine
 10
315.3048629153
 20
382.795586536
 30
0.0
 11
319.9490726651
 21
382.7347384533
 31
0.0
  0
SPLINE
  5
27F
330
21A
100
AcDbEntity
  8
$DDT_AUDIT_GENERATED_(65)
  6
Continuous
 62
     7
100
AcDbSpline
210
0.0
220
0.0
230
1.0
 70
     8
 71
     3
 72
     8
 73
     4
 74
     0
 42
0.000000049466351
 43
0.0000000001
 40
0.0
 40
0.0
 40
0.0
 40
0.0
 40
0.5
 40
0.5
 40
0.5
 40
0.5
 10
319.9490726651485
 20
382.7347384533036
 30
0.0
 10
320.0066468295454
 20
382.7701412890124
 30
0.0
 10
320.0348629153054
 20
382.7881824453742
 30
0.0
 10
320.0348629153054
 20
382.7881824453742
 30
0.0
  0
ARC
  5
280
330
21A
100
AcDbEntity
  8
$DDT_AUDIT_GENERATED_(65)
  6
Continuous
 62
     7
100
AcDbCircle
 10
-111.7992930689
 20
361.0325124447
 30
0.0
 40
474.2584013585829
100
AcDbArc
 50
359.3639070458
 51
0.6360929542
  0
ARC
  5
281
330
21A
100
AcDbEntity
  8
$DDT_AUDIT_GENERATED_(65)
  6
Continuous
 62
     7
100
AcDbCircle
 10
-937.9055768158
 20
354.7479349625
 30
0.0
 40
1300.38674989293
100
AcDbArc
 50
0.5088906796
 51
0.9252844924
  0
LINE
  5
282
330
21A
100
AcDbEntity
  8
$DDT_AUDIT_GENERATED_(65)
  6
Continuous
 62
     7
100
AcDbLine
 10
315.3048629153
 20
377.2249272958
 30
0.0
 11
315.3048629153
 21
377.6844325295
 31
0.0
  0
LINE
  5
283
330
21A
100
AcDbEntity
  8
$DDT_AUDIT_GENERATED_(65)
  6
Continuous
 62
     7
100
AcDbLine
 10
315.3048629153
 20
350.2847276735
 30
0.0
 11
315.3048629153
 21
348.6080221431
 31
0.0
  0
LINE
  5
284
330
21A
100
AcDbEntity
  8
$DDT_AUDIT_GENERATED_(65)
  6
Continuous
 62
     7
100
AcDbLine
 10
315.3048629153
 20
350.7956075722
 30
0.0
 11
315.3048629153
 21
377.2249272958
 31
0.0
  0
LINE
  5
285
330
21A
100
AcDbEntity
  8
$DDT_AUDIT_GENERATED_(65)
  6
Continuous
 62
     7
100
AcDbLine
 10
315.3048629153
 20
350.2847276735
 30
0.0
 11
315.3048629153
 21
350.7956075722
 31
0.0
  0
LINE
  5
286
330
21A
100
AcDbEntity
  8
$DDT_AUDIT_GENERATED_(65)
  6
Continuous
 62
     7
100
AcDbLine
 10
315.3048629153
 20
330.7479285513
 30
0.0
 11
315.3048629153
 21
334.4091863846
 31
0.0
  0
LINE
  5
287
330
21A
100
AcDbEntity
  8
$DDT_AUDIT_GENERATED_(65)
  6
Continuous
 62
     7
100
AcDbLine
 10
315.3048629153
 20
347.4927800214
 30
0.0
 11
315.3048629153
 21
334.8633525582
 31
0.0
  0
LINE
  5
288
330
21A
100
AcDbEntity
  8
$DDT_AUDIT_GENERATED_(65)
  6
Continuous
 62
     7
100
AcDbLine
 10
315.3048629153
 20
347.4927800214
 30
0.0
 11
315.3048629153
 21
348.6080221431
 31
0.0
  0
LINE
  5
289
330
21A
100
AcDbEntity
  8
$DDT_AUDIT_GENERATED_(65)
  6
Continuous
 62
     7
100
AcDbLine
 10
315.3048629153
 20
334.5709809506
 30
0.0
 11
315.3048629153
 21
334.8633525582
 31
0.0
  0
LINE
  5
28A
330
21A
100
AcDbEntity
  8
$DDT_AUDIT_GENERATED_(65)
  6
Continuous
 62
     7
100
AcDbLine
 10
320.9926832925
 20
382.4565535978
 30
0.0
 11
320.9898983156
 21
382.7756803471
 31
0.0
  0
LINE
  5
28B
330
21A
100
AcDbEntity
  8
$DDT_AUDIT_GENERATED_(65)
  6
Continuous
 62
     7
100
AcDbLine
 10
321.9942492422
 20
382.2727503548
 30
0.0
 11
352.5119503376
 21
381.8667186002
 31
0.0
  0
SPLINE
  5
28C
330
21A
100
AcDbEntity
  8
$DDT_AUDIT_GENERATED_(65)
  6
Continuous
 62
     7
100
AcDbSpline
210
0.0
220
0.0
230
1.0
 70
     8
 71
     3
 72
    12
 73
     8
 74
     0
 42
0.000000009456238
 43
0.0000000001
 40
0.0
 40
0.0
 40
0.0
 40
0.0
 40
0.2499999999999979
 40
0.2499999999999979
 40
0.4999999999999958
 40
0.4999999999999958
 40
1.0
 40
1.0
 40
1.0
 40
1.0
 10
321.9942492421785
 20
382.2727503547799
 30
0.0
 10
321.8611921630364
 20
382.2745202348172
 30
0.0
 10
321.7306874098916
 20
382.2812896938619
 30
0.0
 10
321.4878843045376
 20
382.3033565404668
 30
0.0
 10
321.3769183778726
 20
382.3186140799195
 30
0.0
 10
321.101024716581
 20
382.3715666911612
 30
0.0
 10
320.9930326748876
 20
382.416518343107
 30
0.0
 10
320.9926832925127
 20
382.4565535978263
 30
0.0
  0
LINE
  5
28D
330
21A
100
AcDbEntity
  8
$DDT_AUDIT_GENERATED_(65)
  6
Continuous
 62
     7
100
AcDbLine
 10
315.3048629153
 20
380.9394349103
 30
0.0
 11
315.3048629153
 21
377.6844325295
 31
0.0
  0
LINE
  5
28E
330
21A
100
AcDbEntity
  8
$DDT_AUDIT_GENERATED_(65)
  6
Continuous
 62
     7
100
AcDbLine
 10
315.3048629153
 20
380.9394349103
 30
0.0
 11
315.3048629153
 21
381.8876530742
 31
0.0
  0
ELLIPSE
  5
28F
330
21A
100
AcDbEntity
  8
$DDT_AUDIT_GENERATED_(65)
  6
Continuous
 62
     7
100
AcDbEllipse
 10
361.3209186017
 20
376.4882056226
 30
0.0
 11
-0.00980891597679443
 21
-0.2998395990648322
 31
0.0
210
0.0
220
0.0
230
0.9999999999999998
 40
0.0523080504
 41
3.141127839911063
 42
3.486579724593647
  0
ELLIPSE
  5
290
330
21A
100
AcDbEntity
  8
$DDT_AUDIT_GENERATED_(65)
  6
Continuous
 62
     7
100
AcDbEllipse
 10
-934.3461860724
 20
302.6861942361
 30
0.0
 11
1296.235752658243
 21
78.44203851637012
 31
0.0
210
0.0
220
0.0
230
1.0
 40
0.499314465
 41
-0.0463783614118425
 42
-0.0391009525901387
  0
LINE
  5
291
330
21A
100
AcDbEntity
  8
$DDT_AUDIT_GENERATED_(65)
  6
Continuous
 62
     7
100
AcDbLine
 10
362.3116072266
 20
375.7473070743
 30
0.0
 11
362.3116072266
 21
351.0372125811
 31
0.0
  0
ELLIPSE
  5
292
330
21A
100
AcDbEntity
  8
$DDT_AUDIT_GENERATED_(65)
  6
Continuous
 62
     7
100
AcDbEllipse
 10
361.3209186017
 20
350.6338466793
 30
0.0
 11
-0.01848781557131643
 21
0.2994297925648076
 31
0.0
210
0.0
220
0.0
230
0.9999999999999999
 40
0.0021231117
 41
-3.171067944960264
 42
-3.142037964321435
  0
ARC
  5
293
330
21A
100
AcDbEntity
  8
$DDT_AUDIT_GENERATED_(65)
  6
Continuous
 62
     7
100
AcDbCircle
 10
361.2813331609
 20
375.7411790853
 30
0.0
 40
1.030292289922864
100
AcDbArc
 50
0.3407867653
 51
87.5795082613
  0
LINE
  5
294
330
21A
100
AcDbEntity
  8
$DDT_AUDIT_GENERATED_(65)
  6
Continuous
 62
     7
100
AcDbLine
 10
361.3048629153
 20
350.3353347185
 30
0.0
 11
361.3048629153
 21
349.5569524724
 31
0.0
  0
LINE
  5
295
330
21A
100
AcDbEntity
  8
$DDT_AUDIT_GENERATED_(65)
  6
Continuous
 62
     7
100
AcDbLine
 10
361.3048629153
 20
347.9019140037
 30
0.0
 11
361.3048629153
 21
347.3361568434
 31
0.0
  0
LINE
  5
296
330
21A
100
AcDbEntity
  8
$DDT_AUDIT_GENERATED_(65)
  6
Continuous
 62
     7
100
AcDbLine
 10
361.3048629153
 20
347.3361568434
 30
0.0
 11
361.3048629153
 21
335.9635361982
 31
0.0
  0
SPLINE
  5
297
330
21A
100
AcDbEntity
  8
$DDT_AUDIT_GENERATED_(65)
  6
Continuous
 62
     7
100
AcDbSpline
210
0.0
220
0.0
230
1.0
 70
     8
 71
     3
 72
    14
 73
    10
 74
     0
 42
0.0000000160009277
 43
0.0000000001
 40
0.0
 40
0.0
 40
0.0
 40
0.0
 40
0.25
 40
0.25
 40
0.5
 40
0.5
 40
0.75
 40
0.75
 40
0.7829357017844717
 40
0.7829357017844717
 40
0.7829357017844717
 40
0.7829357017844717
 10
360.8131166250796
 20
350.5316357643492
 30
0.0
 10
360.8685850546565
 20
350.5008332096056
 30
0.0
 10
360.9221333638945
 20
350.4723076581
 30
0.0
 10
361.027187730458
 20
350.4176136842826
 30
0.0
 10
361.0788806866714
 20
350.3912430765626
 30
0.0
 10
361.1712635146164
 20
350.3486369536812
 30
0.0
 10
361.2130600543983
 20
350.3318382925885
 30
0.0
 10
361.2474899129975
 20
350.3290729860882
 30
0.0
 10
361.2512876484437
 20
350.3290195819892
 30
0.0
 10
361.2548784792837
 20
350.3292430211883
 30
0.0
  0
LINE
  5
298
330
21A
100
AcDbEntity
  8
$DDT_AUDIT_GENERATED_(65)
  6
Continuous
 62
     7
100
AcDbLine
 10
361.3048629153
 20
380.9440926123
 30
0.0
 11
361.3048629153
 21
381.7544310699
 31
0.0
  0
LINE
  5
299
330
21A
100
AcDbEntity
  8
$DDT_AUDIT_GENERATED_(65)
  6
Continuous
 62
     7
100
AcDbLine
 10
361.3048629153
 20
380.9440926123
 30
0.0
 11
361.3048629153
 21
380.4678622734
 31
0.0
  0
LINE
  5
29A
330
21A
100
AcDbEntity
  8
$DDT_AUDIT_GENERATED_(65)
  6
Continuous
 62
     7
100
AcDbLine
 10
361.3048629153
 20
377.2549223396
 30
0.0
 11
361.3048629153
 21
376.7765896355
 31
0.0
  0
SPLINE
  5
29B
330
21A
100
AcDbEntity
  8
$DDT_AUDIT_GENERATED_(65)
  6
Continuous
 62
     7
100
AcDbSpline
210
0.0
220
0.0
230
1.0
 70
     8
 71
     3
 72
     8
 73
     4
 74
     0
 42
0.0000000152656376
 43
0.0000000001
 40
0.8030794850972849
 40
0.8030794850972849
 40
0.8030794850972849
 40
0.8030794850972849
 40
1.0
 40
1.0
 40
1.0
 40
1.0
 10
360.9415426537255
 20
376.8007627837864
 30
0.0
 10
360.8994395243271
 20
376.8018958096976
 30
0.0
 10
360.8561851504704
 20
376.7990330603924
 30
0.0
 10
360.8131166250905
 20
376.7927213836702
 30
0.0
  0
LINE
  5
29C
330
21A
100
AcDbEntity
  8
$DDT_AUDIT_GENERATED_(65)
  6
Continuous
 62
     7
100
AcDbLine
 10
353.9660602867
 20
382.3439987402
 30
0.0
 11
353.9638098597
 21
382.0861253387
 31
0.0
  0
SPLINE
  5
29D
330
21A
100
AcDbEntity
  8
$DDT_AUDIT_GENERATED_(65)
  6
Continuous
 62
     7
100
AcDbSpline
210
0.0
220
0.0
230
1.0
 70
     8
 71
     3
 72
    16
 73
    12
 74
     0
 42
0.0000000066474141
 43
0.0000000001
 40
0.0
 40
0.0
 40
0.0
 40
0.0
 40
0.2500000000000001
 40
0.2500000000000001
 40
0.3750000000000002
 40
0.3750000000000002
 40
0.5000000000000002
 40
0.5000000000000002
 40
0.7500000000000001
 40
0.7500000000000001
 40
1.0
 40
1.0
 40
1.0
 40
1.0
 10
353.963809859655
 20
382.0861253387249
 30
0.0
 10
353.9635807078452
 20
382.0598671421647
 30
0.0
 10
353.9259626414701
 20
382.0325608528516
 30
0.0
 10
353.8172658520211
 20
381.9924746885803
 30
0.0
 10
353.7729504798632
 20
381.9795006769578
 30
0.0
 10
353.668300284168
 20
381.9545555600309
 30
0.0
 10
353.607307521719
 20
381.9425099467422
 30
0.0
 10
353.4071505454739
 20
381.9098444289219
 30
0.0
 10
353.2455644538917
 20
381.8918929042401
 30
0.0
 10
352.8958155240667
 20
381.8691575874921
 30
0.0
 10
352.7045273712071
 20
381.8641557895364
 30
0.0
 10
352.5119503376125
 20
381.8667186001991
 30
0.0
  0
LINE
  5
29E
330
21A
100
AcDbEntity
  8
$DDT_AUDIT_GENERATED_(65)
  6
Continuous
 62
     7
100
AcDbLine
 10
320.9898983156
 20
382.7756803471
 30
0.0
 11
319.990962381
 21
382.7887571348
 31
0.0
  0
LINE
  5
29F
330
21A
100
AcDbEntity
  8
$DDT_AUDIT_GENERATED_(65)
  6
Continuous
 62
     7
100
AcDbLine
 10
360.8114077131
 20
382.2543882337
 30
0.0
 11
353.9660602867
 21
382.3439987402
 31
0.0
  0
ARC
  5
2A0
330
21A
100
AcDbEntity
  8
$DDT_AUDIT_GENERATED_(65)
  6
Continuous
 62
     7
100
AcDbCircle
 10
-937.4951370847
 20
354.7479285513
 30
0.0
 40
1300.0
100
AcDbArc
 50
359.0120442853
 51
359.1517413074
  0
LINE
  5
2A1
330
21A
100
AcDbEntity
  8
$DDT_AUDIT_GENERATED_(65)
  6
Continuous
 62
     7
100
AcDbLine
 10
315.3048629153
 20
330.7479285513
 30
0.0
 11
361.3248454804
 21
331.3503631233
 31
0.0
  0
LINE
  5
2A2
330
21A
100
AcDbEntity
  8
$DDT_AUDIT_GENERATED_(65)
  6
Continuous
 62
     7
100
AcDbLine
 10
361.2530191761
 20
350.3290862019
 30
0.0
 11
361.3394064173
 21
350.3344168867
 31
0.0
  0
LINE
  5
2A3
330
21A
100
AcDbEntity
  8
$DDT_AUDIT_GENERATED_(65)
  6
Continuous
 62
     7
100
AcDbLine
 10
361.3307275177
 20
376.7880452217
 30
0.0
 11
360.9402655528
 21
376.8007995317
 31
0.0
  0
LINE
  5
2A4
330
21A
100
AcDbEntity
  8
$DDT_AUDIT_GENERATED_(65)
  6
Continuous
 62
     7
100
AcDbLine
 10
315.3050888016
 20
334.5712867761
 30
0.0
 11
360.8131053507
 21
335.3129318853
 31
0.0
  0
ARC
  5
2A5
330
21A
100
AcDbEntity
  8
$DDT_AUDIT_GENERATED_(65)
  6
Continuous
 62
     7
100
AcDbCircle
 10
361.3117558848
 20
332.3502774509
 30
0.0
 40
1.000000000000002
100
AcDbArc
 50
270.75
 51
359.0120442853
  0
SPLINE
  5
2A6
330
21A
100
AcDbEntity
  8
$DDT_AUDIT_GENERATED_(65)
  6
Continuous
 62
     7
100
AcDbSpline
210
0.0
220
0.0
230
1.0
 70
     8
 71
     3
 72
    12
 73
     8
 74
     0
 42
0.0000000075787839
 43
0.0000000001
 40
0.0
 40
0.0
 40
0.0
 40
0.0
 40
0.1671625058213234
 40
0.3956288049741263
 40
0.6388479301806226
 40
0.84129197441561
 40
1.0
 40
1.0
 40
1.0
 40
1.0
 10
361.3388687502701
 20
350.3409152923853
 30
0.0
 10
361.4285381688889
 20
350.3469919974973
 30
0.0
 10
361.6106066495737
 20
350.3615554265452
 30
0.0
 10
361.8999536954242
 20
350.4639159870159
 30
0.0
 10
362.1310961142578
 20
350.6200223334777
 30
0.0
 10
362.2826280692345
 20
350.82314969728
 30
0.0
 10
362.2983539982004
 20
350.9595832786957
 30
0.0
 10
362.3050005216325
 20
351.0296190339371
 30
0.0
  0
ARC
  5
2A7
330
21A
100
AcDbEntity
  8
$DDT_AUDIT_GENERATED_(65)
  6
Continuous
 62
     7
100
AcDbCircle
 10
360.8048629153
 20
335.8113220062
 30
0.0
 40
0.5000000000000029
100
AcDbArc
 50
271.1713561984
 51
0.0057734005
  0
ARC
  5
2A8
330
21A
100
AcDbEntity
  8
$DDT_AUDIT_GENERATED_(65)
  6
Continuous
 62
     7
100
AcDbCircle
 10
360.8048629153
 20
381.7544310699
 30
0.0
 40
0.5000000000000004
100
AcDbArc
 50
0.0
 51
89.25
  0
ARC
  5
2A9
330
21A
100
AcDbEntity
  8
$DDT_AUDIT_GENERATED_(A1)
  6
Continuous
 62
     7
100
AcDbCircle
 10
332.1945405528
 20
380.9879220361
 30
0.0
 40
20.79040583976952
100
AcDbArc
 50
2.4529782496
 51
14.8687365793
  0
LINE
  5
2AA
330
21A
100
AcDbEntity
  8
$DDT_AUDIT_GENERATED_(A1)
  6
Continuous
 62
     7
100
AcDbLine
 10
321.4076045237
 20
382.6199636737
 30
0.0
 11
321.4109235391
 21
382.9059140977
 31
0.0
  0
LINE
  5
2AB
330
21A
100
AcDbEntity
  8
$DDT_AUDIT_GENERATED_(A1)
  6
Continuous
 62
     7
100
AcDbLine
 10
321.4040922725
 20
382.3173649764
 30
0.0
 11
321.4076045237
 21
382.6199636737
 31
0.0
  0
ARC
  5
2AC
330
21A
100
AcDbEntity
  8
$DDT_AUDIT_GENERATED_(A1)
  6
Continuous
 62
     7
100
AcDbCircle
 10
321.4795581221
 20
514.5615234523
 30
0.0
 40
130.6705090840262
100
AcDbArc
 50
270.4052531866
 51
283.1013080597
  0
ARC
  5
2AD
330
21A
100
AcDbEntity
  8
$DDT_AUDIT_GENERATED_(A1)
  6
Continuous
 62
     7
100
AcDbCircle
 10
332.5142544182
 20
381.2816313278
 30
0.0
 40
20.47412179443757
100
AcDbArc
 50
1.6708987091
 51
14.98899965
  0
ARC
  5
2AE
330
21A
100
AcDbEntity
  8
$DDT_AUDIT_GENERATED_(A1)
  6
Continuous
 62
     7
100
AcDbCircle
 10
322.4108561851
 20
382.8943079188
 30
0.0
 40
1.000000000000005
100
AcDbArc
 50
90.4052531866
 51
179.335
  0
ARC
  5
2AF
330
21A
100
AcDbEntity
  8
$DDT_AUDIT_GENERATED_(A1)
  6
Continuous
 62
     7
100
AcDbCircle
 10
351.3257789509
 20
386.3182933593
 30
0.0
 40
0.9999999999999452
100
AcDbArc
 50
14.98899965
 51
103.1013080597
  0
LINE
  5
2B0
330
21A
100
AcDbEntity
  8
$DDT_AUDIT_GENERATED_(110)
  6
Continuous
 62
     7
100
AcDbLine
 10
365.2548629153
 20
466.4479642082
 30
0.0
 11
365.2548629153
 21
465.6391156634
 31
0.0
  0
LINE
  5
2B1
330
21A
100
AcDbEntity
  8
$DDT_AUDIT_GENERATED_(110)
  6
Continuous
 62
     7
100
AcDbLine
 10
365.2548629153
 20
465.6391156634
 30
0.0
 11
365.2548629153
 21
465.1542626399
 31
0.0
  0
LINE
  5
2B2
330
21A
100
AcDbEntity
  8
$DDT_AUDIT_GENERATED_(110)
  6
Continuous
 62
     7
100
AcDbLine
 10
365.2548629153
 20
465.1542626399
 30
0.0
 11
365.2548629153
 21
451.294969592
 31
0.0
  0
LINE
  5
2B3
330
21A
100
AcDbEntity
  8
$DDT_AUDIT_GENERATED_(110)
  6
Continuous
 62
     7
100
AcDbLine
 10
365.2548629153
 20
451.294969592
 30
0.0
 11
365.2548629153
 21
439.9500368024
 31
0.0
  0
LINE
  5
2B4
330
21A
100
AcDbEntity
  8
$DDT_AUDIT_GENERATED_(110)
  6
Continuous
 62
     7
100
AcDbLine
 10
365.2548629153
 20
439.9500368024
 30
0.0
 11
365.2548629153
 21
433.0203902784
 31
0.0
  0
LINE
  5
2B5
330
21A
100
AcDbEntity
  8
$DDT_AUDIT_GENERATED_(110)
  6
Continuous
 62
     7
100
AcDbLine
 10
365.2548629153
 20
433.0203902784
 30
0.0
 11
365.2548629153
 21
432.4507251599
 31
0.0
  0
LINE
  5
2B6
330
21A
100
AcDbEntity
  8
$DDT_AUDIT_GENERATED_(110)
  6
Continuous
 62
     7
100
AcDbLine
 10
365.2548629153
 20
432.4507251599
 30
0.0
 11
365.2548629153
 21
421.1540518012
 31
0.0
  0
LINE
  5
2B7
330
21A
100
AcDbEntity
  8
$DDT_AUDIT_GENERATED_(110)
  6
Continuous
 62
     7
100
AcDbLine
 10
365.2548629153
 20
421.1540518012
 30
0.0
 11
365.2548629153
 21
421.0022524081
 31
0.0
  0
LINE
  5
2B8
330
21A
100
AcDbEntity
  8
$DDT_AUDIT_GENERATED_(110)
  6
Continuous
 62
     7
100
AcDbLine
 10
361.0548629153
 20
465.8330568728
 30
0.0
 11
361.0548629153
 21
465.9440926123
 31
0.0
  0
LINE
  5
2B9
330
21A
100
AcDbEntity
  8
$DDT_AUDIT_GENERATED_(110)
  6
Continuous
 62
     7
100
AcDbLine
 10
361.0548629153
 20
465.1542626399
 30
0.0
 11
361.0548629153
 21
465.8330568728
 31
0.0
  0
LINE
  5
2BA
330
21A
100
AcDbEntity
  8
$DDT_AUDIT_GENERATED_(110)
  6
Continuous
 62
     7
100
AcDbLine
 10
361.0548629153
 20
461.7888907226
 30
0.0
 11
361.0548629153
 21
465.1542626399
 31
0.0
  0
LINE
  5
2BB
330
21A
100
AcDbEntity
  8
$DDT_AUDIT_GENERATED_(110)
  6
Continuous
 62
     7
100
AcDbLine
 10
361.0548629153
 20
433.1935953592
 30
0.0
 11
361.0548629153
 21
435.3322853159
 31
0.0
  0
LINE
  5
2BC
330
21A
100
AcDbEntity
  8
$DDT_AUDIT_GENERATED_(110)
  6
Continuous
 62
     7
100
AcDbLine
 10
361.0548629153
 20
432.3960641933
 30
0.0
 11
361.0548629153
 21
433.1935953592
 31
0.0
  0
LINE
  5
2BD
330
21A
100
AcDbEntity
  8
$DDT_AUDIT_GENERATED_(110)
  6
Continuous
 62
     7
100
AcDbLine
 10
361.0548629153
 20
420.8022524081
 30
0.0
 11
361.0548629153
 21
420.9635361982
 31
0.0
  0
LINE
  5
2BE
330
21A
100
AcDbEntity
  8
$DDT_AUDIT_GENERATED_(110)
  6
Continuous
 62
     7
100
AcDbLine
 10
364.7548629153
 20
466.9479642082
 30
0.0
 11
361.3548629153
 21
466.9479642082
 31
0.0
  0
LINE
  5
2BF
330
21A
100
AcDbEntity
  8
$DDT_AUDIT_GENERATED_(110)
  6
Continuous
 62
     7
100
AcDbLine
 10
361.3548629153
 20
420.5022524081
 30
0.0
 11
364.7548629153
 21
420.5022524081
 31
0.0
  0
ARC
  5
2C0
330
21A
100
AcDbEntity
  8
$DDT_AUDIT_GENERATED_(110)
  6
Continuous
 62
     7
100
AcDbCircle
 10
364.7548629153
 20
466.4479642082
 30
0.0
 40
0.5000000000000004
100
AcDbArc
 50
0.0
 51
90.0
  0
ARC
  5
2C1
330
21A
100
AcDbEntity
  8
$DDT_AUDIT_GENERATED_(110)
  6
Continuous
 62
     7
100
AcDbCircle
 10
364.7548629153
 20
421.0022524081
 30
0.0
 40
0.5000000000000004
100
AcDbArc
 50
270.0
 51
0.0
  0
ARC
  5
2C2
330
21A
100
AcDbEntity
  8
$DDT_AUDIT_GENERATED_(110)
  6
Continuous
 62
     7
100
AcDbCircle
 10
361.3548629153
 20
466.6479642082
 30
0.0
 40
0.2999999999999947
100
AcDbArc
 50
90.0
 51
180.0
  0
ARC
  5
2C3
330
21A
100
AcDbEntity
  8
$DDT_AUDIT_GENERATED_(110)
  6
Continuous
 62
     7
100
AcDbCircle
 10
361.3548629153
 20
420.8022524081
 30
0.0
 40
0.3000000000000225
100
AcDbArc
 50
180.0
 51
270.0
  0
LINE
  5
2C4
330
21A
100
AcDbEntity
  8
$DDT_AUDIT_GENERATED_(110)
  6
Continuous
 62
     7
100
AcDbLine
 10
365.5048629153
 20
381.4479642082
 30
0.0
 11
365.5048629153
 21
380.6391156634
 31
0.0
  0
LINE
  5
2C5
330
21A
100
AcDbEntity
  8
$DDT_AUDIT_GENERATED_(110)
  6
Continuous
 62
     7
100
AcDbLine
 10
365.5048629153
 20
380.6391156634
 30
0.0
 11
365.5048629153
 21
380.1542626399
 31
0.0
  0
LINE
  5
2C6
330
21A
100
AcDbEntity
  8
$DDT_AUDIT_GENERATED_(110)
  6
Continuous
 62
     7
100
AcDbLine
 10
365.5048629153
 20
380.1542626399
 30
0.0
 11
365.5048629153
 21
366.294969592
 31
0.0
  0
LINE
  5
2C7
330
21A
100
AcDbEntity
  8
$DDT_AUDIT_GENERATED_(110)
  6
Continuous
 62
     7
100
AcDbLine
 10
365.5048629153
 20
366.294969592
 30
0.0
 11
365.5048629153
 21
354.9500368024
 31
0.0
  0
LINE
  5
2C8
330
21A
100
AcDbEntity
  8
$DDT_AUDIT_GENERATED_(110)
  6
Continuous
 62
     7
100
AcDbLine
 10
365.5048629153
 20
354.9500368024
 30
0.0
 11
365.5048629153
 21
348.0203902784
 31
0.0
  0
LINE
  5
2C9
330
21A
100
AcDbEntity
  8
$DDT_AUDIT_GENERATED_(110)
  6
Continuous
 62
     7
100
AcDbLine
 10
365.5048629153
 20
348.0203902784
 30
0.0
 11
365.5048629153
 21
347.4507251599
 31
0.0
  0
LINE
  5
2CA
330
21A
100
AcDbEntity
  8
$DDT_AUDIT_GENERATED_(110)
  6
Continuous
 62
     7
100
AcDbLine
 10
365.5048629153
 20
347.4507251599
 30
0.0
 11
365.5048629153
 21
336.1540518012
 31
0.0
  0
LINE
  5
2CB
330
21A
100
AcDbEntity
  8
$DDT_AUDIT_GENERATED_(110)
  6
Continuous
 62
     7
100
AcDbLine
 10
365.5048629153
 20
336.1540518012
 30
0.0
 11
365.5048629153
 21
336.0022524081
 31
0.0
  0
LINE
  5
2CC
330
21A
100
AcDbEntity
  8
$DDT_AUDIT_GENERATED_(110)
  6
Continuous
 62
     7
100
AcDbLine
 10
361.3048629153
 20
380.8330568728
 30
0.0
 11
361.3048629153
 21
380.9440926123
 31
0.0
  0
LINE
  5
2CD
330
21A
100
AcDbEntity
  8
$DDT_AUDIT_GENERATED_(110)
  6
Continuous
 62
     7
100
AcDbLine
 10
361.3048629153
 20
380.1542626399
 30
0.0
 11
361.3048629153
 21
380.8330568728
 31
0.0
  0
LINE
  5
2CE
330
21A
100
AcDbEntity
  8
$DDT_AUDIT_GENERATED_(110)
  6
Continuous
 62
     7
100
AcDbLine
 10
361.3048629153
 20
376.7888907226
 30
0.0
 11
361.3048629153
 21
380.1542626399
 31
0.0
  0
LINE
  5
2CF
330
21A
100
AcDbEntity
  8
$DDT_AUDIT_GENERATED_(110)
  6
Continuous
 62
     7
100
AcDbLine
 10
361.3048629153
 20
348.1935953592
 30
0.0
 11
361.3048629153
 21
350.3322853159
 31
0.0
  0
LINE
  5
2D0
330
21A
100
AcDbEntity
  8
$DDT_AUDIT_GENERATED_(110)
  6
Continuous
 62
     7
100
AcDbLine
 10
361.3048629153
 20
347.3960641933
 30
0.0
 11
361.3048629153
 21
348.1935953592
 31
0.0
  0
LINE
  5
2D1
330
21A
100
AcDbEntity
  8
$DDT_AUDIT_GENERATED_(110)
  6
Continuous
 62
     7
100
AcDbLine
 10
361.3048629153
 20
335.8022524081
 30
0.0
 11
361.3048629153
 21
335.9635361982
 31
0.0
  0
LINE
  5
2D2
330
21A
100
AcDbEntity
  8
$DDT_AUDIT_GENERATED_(110)
  6
Continuous
 62
     7
100
AcDbLine
 10
365.0048629153
 20
381.9479642082
 30
0.0
 11
361.6048629153
 21
381.9479642082
 31
0.0
  0
LINE
  5
2D3
330
21A
100
AcDbEntity
  8
$DDT_AUDIT_GENERATED_(110)
  6
Continuous
 62
     7
100
AcDbLine
 10
361.6048629153
 20
335.5022524081
 30
0.0
 11
365.0048629153
 21
335.5022524081
 31
0.0
  0
ARC
  5
2D4
330
21A
100
AcDbEntity
  8
$DDT_AUDIT_GENERATED_(110)
  6
Continuous
 62
     7
100
AcDbCircle
 10
365.0048629153
 20
381.4479642082
 30
0.0
 40
0.5000000000000004
100
AcDbArc
 50
0.0
 51
90.0
  0
ARC
  5
2D5
330
21A
100
AcDbEntity
  8
$DDT_AUDIT_GENERATED_(110)
  6
Continuous
 62
     7
100
AcDbCircle
 10
365.0048629153
 20
336.0022524081
 30
0.0
 40
0.5000000000000004
100
AcDbArc
 50
270.0
 51
0.0
  0
ARC
  5
2D6
330
21A
100
AcDbEntity
  8
$DDT_AUDIT_GENERATED_(110)
  6
Continuous
 62
     7
100
AcDbCircle
 10
361.6048629153
 20
381.6479642082
 30
0.0
 40
0.3000000000000017
100
AcDbArc
 50
90.0
 51
180.0
  0
ARC
  5
2D7
330
21A
100
AcDbEntity
  8
$DDT_AUDIT_GENERATED_(110)
  6
Continuous
 62
     7
100
AcDbCircle
 10
361.6048629153
 20
335.8022524081
 30
0.0
 40
0.2999999999999947
100
AcDbArc
 50
180.0
 51
270.0
  0
ENDBLK
  5
2D9
330
21A
100
AcDbEntity
  8
0
100
AcDbBlockEnd
  0
ENDSEC
  0
SECTION
  2
ENTITIES
  0
INSERT
  5
5F
330
1F
100
AcDbEntity
  8
Default
100
AcDbBlockReference
  2
SE
 10
0.0
 20
0.0
 30
0.0
  0
INSERT
  5
139
330
1F
100
AcDbEntity
  8
Default
100
AcDbBlockReference
  2
SE1
 10
0.0
 20
0.0
 30
0.0
  0
INSERT
  5
21B
330
1F
100
AcDbEntity
  8
Default
100
AcDbBlockReference
  2
SE2
 10
0.0
 20
0.0
 30
0.0
  0
TEXT
  5
2DB
330
1F
100
AcDbEntity
  8
Default
  6
Continuous
 62
     7
100
AcDbText
 10
5.9362635081
 20
53.4225120485
 30
0.0
 40
10.0
  1
Grohe AG^J
  7
SEACAD_seiso_ttf
 11
5.9362635081
 21
63.4225120485
 31
0.0
100
AcDbText
 73
     3
  0
TEXT
  5
2DC
330
1F
100
AcDbEntity
  8
Default
  6
Continuous
 62
     7
100
AcDbText
 10
5.9362635081
 20
37.0588756849
 30
0.0
 40
10.0
  1
 
  7
SEACAD_seiso_ttf
 11
5.9362635081
 21
47.0588756849
 31
0.0
100
AcDbText
 73
     3
  0
TEXT
  5
2DD
330
1F
100
AcDbEntity
  8
Default
  6
Continuous
 62
     7
100
AcDbText
 10
5.9362635081
 20
20.6952393213
 30
0.0
 40
10.0
  1
ecn: 
  7
SEACAD_seiso_ttf
 11
5.9362635081
 21
30.6952393213
 31
0.0
100
AcDbText
 73
     3
  0
TEXT
  5
2DE
330
1F
100
AcDbEntity
  8
Default
  6
Continuous
 62
     7
100
AcDbText
 10
5.9362635081
 20
4.3316029576
 30
0.0
 40
10.0
  1
unit: mm
  7
SEACAD_seiso_ttf
 11
5.9362635081
 21
14.3316029576
 31
0.0
100
AcDbText
 73
     3
  0
LINE
  5
2DF
330
1F
100
AcDbEntity
  8
Default
  6
Continuous
 62
     7
100
AcDbLine
 10
0.0
 20
0.0
 30
0.0
 11
100.0
 21
0.0
 31
0.0
  0
LINE
  5
2E0
330
1F
100
AcDbEntity
  8
Default
  6
Continuous
 62
     7
100
AcDbLine
 10
0.0
 20
0.0
 30
0.0
 11
0.0
 21
100.0
 31
0.0
  0
TEXT
  5
2E1
330
1F
100
AcDbEntity
  8
Default
  6
Continuous
 62
     7
100
AcDbText
 10
24.3923665681
 20
-18.2375342018
 30
0.0
 40
10.0
  1
100 mm
  7
SEACAD_seiso_ttf
 11
24.3923665681
 21
-8.2375342018
 31
0.0
100
AcDbText
 73
     3
  0
TEXT
  5
2E2
330
1F
100
AcDbEntity
  8
Default
  6
Continuous
 62
     7
100
AcDbText
 10
-7.6150308803
 20
24.6231930421
 30
0.0
 40
10.0
  1
100 mm
 50
90.0
  7
SEACAD_seiso_ttf
 11
-17.6150308803
 21
24.6231930421
 31
0.0
100
AcDbText
 73
     3
  0
TEXT
  5
2E3
330
1F
100
AcDbEntity
  8
Default
  6
Continuous
 62
     7
100
AcDbText
 10
28.4878128572
 20
20.0907663715
 30
0.0
 40
10.0
  1
210555
  7
SEACAD_seiso_ttf
 11
28.4878128572
 21
30.0907663715
 31
0.0
100
AcDbText
 73
     3
  0
TEXT
  5
2E4
330
1F
100
AcDbEntity
  8
Default
  6
Continuous
 62
     7
100
AcDbText
 10
5.9012241913
 20
36.7242780188
 30
0.0
 40
10.0
  1
19304000
  7
SEACAD_seiso_ttf
 11
5.9012241913
 21
46.7242780188
 31
0.0
100
AcDbText
 73
     3
  0
ENDSEC
  0
SECTION
  2
OBJECTS
  0
DICTIONARY
  5
C
330
0
100
AcDbDictionary
281
     1
  3
ACAD_GROUP
350
D
  3
ACAD_LAYOUT
350
1A
  3
ACAD_MLEADERSTYLE
350
2E8
  3
ACAD_MLINESTYLE
350
17
  3
ACAD_PLOTSETTINGS
350
19
  3
ACAD_PLOTSTYLENAME
350
E
  3
ACAD_SCALELIST
350
3B
  3
ACAD_TABLESTYLE
350
2E7
  3
ACAD_VISUALSTYLE
350
2A
  3
AcDbVariableDictionary
350
2E5
  0
DICTIONARY
  5
D
102
{ACAD_REACTORS
330
C
102
}
330
C
100
AcDbDictionary
281
     1
  0
DICTIONARY
  5
1A
102
{ACAD_REACTORS
330
C
102
}
330
C
100
AcDbDictionary
281
     1
  3
Layout1
350
1E
  3
Model
350
22
  0
DICTIONARY
  5
2E8
102
{ACAD_REACTORS
330
C
102
}
330
C
100
AcDbDictionary
281
     1
  0
DICTIONARY
  5
17
102
{ACAD_REACTORS
330
C
102
}
330
C
100
AcDbDictionary
281
     1
  3
Standard
350
18
  0
DICTIONARY
  5
19
102
{ACAD_REACTORS
330
C
102
}
330
C
100
AcDbDictionary
281
     1
  0
ACDBDICTIONARYWDFLT
  5
E
102
{ACAD_REACTORS
330
C
102
}
330
C
100
AcDbDictionary
281
     1
  3
Normal
350
F
100
AcDbDictionaryWithDefault
340
F
  0
DICTIONARY
  5
3B
102
{ACAD_REACTORS
330
C
102
}
330
C
100
AcDbDictionary
281
     1
  3
A0
350
3C
  3
A1
350
3D
  3
A2
350
3E
  3
A3
350
3F
  3
A4
350
40
  3
A5
350
41
  3
A6
350
42
  3
A7
350
43
  3
A8
350
44
  3
A9
350
45
  3
B0
350
46
  3
B1
350
47
  3
B2
350
48
  3
B3
350
49
  3
B4
350
4A
  3
B5
350
4B
  3
B6
350
4C
  3
B7
350
4D
  3
B8
350
4E
  3
B9
350
4F
  3
C0
350
50
  3
C1
350
51
  3
C2
350
52
  3
C3
350
53
  3
C4
350
54
  3
C5
350
55
  3
C6
350
56
  3
C7
350
57
  3
C8
350
58
  3
C9
350
59
  3
D0
350
5A
  3
D1
350
5B
  3
D2
350
5C
  0
DICTIONARY
  5
2E7
102
{ACAD_REACTORS
330
C
102
}
330
C
100
AcDbDictionary
281
     1
  0
DICTIONARY
  5
2A
102
{ACAD_REACTORS
330
C
102
}
330
C
100
AcDbDictionary
281
     1
  3
2dWireframe
350
2F
  3
3D Hidden
350
31
  3
3dWireframe
350
30
  3
Basic
350
32
  3
Brighten
350
36
  3
ColorChange
350
3A
  3
Conceptual
350
34
  3
Dim
350
35
  3
Facepattern
350
39
  3
Flat
350
2B
  3
FlatWithEdges
350
2C
  3
Gouraud
350
2D
  3
GouraudWithEdges
350
2E
  3
Linepattern
350
38
  3
Realistic
350
33
  3
Thicken
350
37
  0
DICTIONARY
  5
2E5
102
{ACAD_REACTORS
330
C
102
}
330
C
100
AcDbDictionary
281
     1
  3
CANNOSCALE
350
2E6
  3
PSOLHEIGHT
350
2EA
  3
PSOLWIDTH
350
2E9
  0
LAYOUT
  5
1E
102
{ACAD_REACTORS
330
1A
102
}
330
1A
100
AcDbPlotSettings
  1

  2
none_device
  4

  6

 40
0.0
 41
0.0
 42
0.0
 43
0.0
 44
0.0
 45
0.0
 46
0.0
 47
0.0
 48
0.0
 49
0.0
140
0.0
141
0.0
142
1.0
143
1.0
 70
   688
 72
     0
 73
     0
 74
     5
  7

 75
    16
147
1.0
148
0.0
149
0.0
100
AcDbLayout
  1
Layout1
 70
     1
 71
     1
 10
0.0
 20
0.0
 11
1682.0
 21
2378.0
 12
0.0
 22
0.0
 32
0.0
 14
0.0
 24
0.0
 34
0.0
 15
1682.0
 25
2378.0
 35
0.0
146
0.0
 13
0.0
 23
0.0
 33
0.0
 16
1.0
 26
0.0
 36
0.0
 17
0.0
 27
1.0
 37
0.0
 76
     0
330
1B
  0
LAYOUT
  5
22
102
{ACAD_REACTORS
330
1A
102
}
330
1A
100
AcDbPlotSettings
  1

  2
none_device
  4

  6

 40
0.0
 41
0.0
 42
0.0
 43
0.0
 44
0.0
 45
0.0
 46
0.0
 47
0.0
 48
0.0
 49
0.0
140
0.0
141
0.0
142
1.0
143
1.0
 70
  1712
 72
     0
 73
     0
 74
     0
  7

 75
     0
147
1.0
148
0.0
149
0.0
100
AcDbLayout
  1
Model
 70
     1
 71
     0
 10
0.0
 20
0.0
 11
1682.0
 21
2378.0
 12
0.0
 22
0.0
 32
0.0
 14
0.0
 24
0.0
 34
0.0
 15
1682.0
 25
2378.0
 35
0.0
146
0.0
 13
0.0
 23
0.0
 33
0.0
 16
1.0
 26
0.0
 36
0.0
 17
0.0
 27
1.0
 37
0.0
 76
     0
330
1F
331
29
  0
MLINESTYLE
  5
18
102
{ACAD_REACTORS
330
17
102
}
330
17
100
AcDbMlineStyle
  2
Standard
 70
     0
  3

 62
   256
 51
90.0
 52
90.0
 71
     2
 49
0.5
 62
   256
  6
BYLAYER
 49
-0.5
 62
   256
  6
BYLAYER
  0
ACDBPLACEHOLDER
  5
F
102
{ACAD_REACTORS
330
E
102
}
330
E
  0
SCALE
  5
3C
102
{ACAD_REACTORS
330
3B
102
}
330
3B
100
AcDbScale
 70
     0
300
1:1
140
1.0
141
1.0
290
     1
  0
SCALE
  5
3D
102
{ACAD_REACTORS
330
3B
102
}
330
3B
100
AcDbScale
 70
     0
300
1:2
140
1.0
141
2.0
290
     0
  0
SCALE
  5
3E
102
{ACAD_REACTORS
330
3B
102
}
330
3B
100
AcDbScale
 70
     0
300
1:4
140
1.0
141
4.0
290
     0
  0
SCALE
  5
3F
102
{ACAD_REACTORS
330
3B
102
}
330
3B
100
AcDbScale
 70
     0
300
1:5
140
1.0
141
5.0
290
     0
  0
SCALE
  5
40
102
{ACAD_REACTORS
330
3B
102
}
330
3B
100
AcDbScale
 70
     0
300
1:8
140
1.0
141
8.0
290
     0
  0
SCALE
  5
41
102
{ACAD_REACTORS
330
3B
102
}
330
3B
100
AcDbScale
 70
     0
300
1:10
140
1.0
141
10.0
290
     0
  0
SCALE
  5
42
102
{ACAD_REACTORS
330
3B
102
}
330
3B
100
AcDbScale
 70
     0
300
1:16
140
1.0
141
16.0
290
     0
  0
SCALE
  5
43
102
{ACAD_REACTORS
330
3B
102
}
330
3B
100
AcDbScale
 70
     0
300
1:20
140
1.0
141
20.0
290
     0
  0
SCALE
  5
44
102
{ACAD_REACTORS
330
3B
102
}
330
3B
100
AcDbScale
 70
     0
300
1:30
140
1.0
141
30.0
290
     0
  0
SCALE
  5
45
102
{ACAD_REACTORS
330
3B
102
}
330
3B
100
AcDbScale
 70
     0
300
1:40
140
1.0
141
40.0
290
     0
  0
SCALE
  5
46
102
{ACAD_REACTORS
330
3B
102
}
330
3B
100
AcDbScale
 70
     0
300
1:50
140
1.0
141
50.0
290
     0
  0
SCALE
  5
47
102
{ACAD_REACTORS
330
3B
102
}
330
3B
100
AcDbScale
 70
     0
300
1:100
140
1.0
141
100.0
290
     0
  0
SCALE
  5
48
102
{ACAD_REACTORS
330
3B
102
}
330
3B
100
AcDbScale
 70
     0
300
2:1
140
2.0
141
1.0
290
     0
  0
SCALE
  5
49
102
{ACAD_REACTORS
330
3B
102
}
330
3B
100
AcDbScale
 70
     0
300
4:1
140
4.0
141
1.0
290
     0
  0
SCALE
  5
4A
102
{ACAD_REACTORS
330
3B
102
}
330
3B
100
AcDbScale
 70
     0
300
8:1
140
8.0
141
1.0
290
     0
  0
SCALE
  5
4B
102
{ACAD_REACTORS
330
3B
102
}
330
3B
100
AcDbScale
 70
     0
300
10:1
140
10.0
141
1.0
290
     0
  0
SCALE
  5
4C
102
{ACAD_REACTORS
330
3B
102
}
330
3B
100
AcDbScale
 70
     0
300
100:1
140
100.0
141
1.0
290
     0
  0
SCALE
  5
4D
102
{ACAD_REACTORS
330
3B
102
}
330
3B
100
AcDbScale
 70
     0
300
1/128" = 1'-0"
140
0.0078125
141
12.0
290
     0
  0
SCALE
  5
4E
102
{ACAD_REACTORS
330
3B
102
}
330
3B
100
AcDbScale
 70
     0
300
1/64" = 1'-0"
140
0.015625
141
12.0
290
     0
  0
SCALE
  5
4F
102
{ACAD_REACTORS
330
3B
102
}
330
3B
100
AcDbScale
 70
     0
300
1/32" = 1'-0"
140
0.03125
141
12.0
290
     0
  0
SCALE
  5
50
102
{ACAD_REACTORS
330
3B
102
}
330
3B
100
AcDbScale
 70
     0
300
1/16" = 1'-0"
140
0.0625
141
12.0
290
     0
  0
SCALE
  5
51
102
{ACAD_REACTORS
330
3B
102
}
330
3B
100
AcDbScale
 70
     0
300
3/32" = 1'-0"
140
0.09375
141
12.0
290
     0
  0
SCALE
  5
52
102
{ACAD_REACTORS
330
3B
102
}
330
3B
100
AcDbScale
 70
     0
300
1/8" = 1'-0"
140
0.125
141
12.0
290
     0
  0
SCALE
  5
53
102
{ACAD_REACTORS
330
3B
102
}
330
3B
100
AcDbScale
 70
     0
300
3/16" = 1'-0"
140
0.1875
141
12.0
290
     0
  0
SCALE
  5
54
102
{ACAD_REACTORS
330
3B
102
}
330
3B
100
AcDbScale
 70
     0
300
1/4" = 1'-0"
140
0.25
141
12.0
290
     0
  0
SCALE
  5
55
102
{ACAD_REACTORS
330
3B
102
}
330
3B
100
AcDbScale
 70
     0
300
3/8" = 1'-0"
140
0.375
141
12.0
290
     0
  0
SCALE
  5
56
102
{ACAD_REACTORS
330
3B
102
}
330
3B
100
AcDbScale
 70
     0
300
1/2" = 1'-0"
140
0.5
141
12.0
290
     0
  0
SCALE
  5
57
102
{ACAD_REACTORS
330
3B
102
}
330
3B
100
AcDbScale
 70
     0
300
3/4" = 1'-0"
140
0.75
141
12.0
290
     0
  0
SCALE
  5
58
102
{ACAD_REACTORS
330
3B
102
}
330
3B
100
AcDbScale
 70
     0
300
1" = 1'-0"
140
1.0
141
12.0
290
     0
  0
SCALE
  5
59
102
{ACAD_REACTORS
330
3B
102
}
330
3B
100
AcDbScale
 70
     0
300
1-1/2" = 1'-0"
140
1.5
141
12.0
290
     0
  0
SCALE
  5
5A
102
{ACAD_REACTORS
330
3B
102
}
330
3B
100
AcDbScale
 70
     0
300
3" = 1'-0"
140
3.0
141
12.0
290
     0
  0
SCALE
  5
5B
102
{ACAD_REACTORS
330
3B
102
}
330
3B
100
AcDbScale
 70
     0
300
6" = 1'-0"
140
6.0
141
12.0
290
     0
  0
SCALE
  5
5C
102
{ACAD_REACTORS
330
3B
102
}
330
3B
100
AcDbScale
 70
     0
300
1'-0" = 1'-0"
140
12.0
141
12.0
290
     0
  0
VISUALSTYLE
  5
2F
102
{ACAD_REACTORS
330
2A
102
}
330
2A
100
AcDbVisualStyle
  2
2dWireframe
 70
     4
 71
     0
 72
     2
 73
     0
 90
        0
 40
-0.6
 41
-30.0
 62
     5
 63
     7
 74
     1
 91
        4
 64
     7
 65
   257
 75
     1
175
     1
 42
1.0
 92
        0
 66
   257
 43
1.0
 76
     1
 77
     6
 78
     2
 67
     7
 79
     5
170
     0
171
     0
290
     0
174
     0
 93
        1
 44
0.0
173
     0
291
     0
 45
0.0
1001
ACAD
1000
AcDbSavedByObjectVersion
1070
     0
  0
VISUALSTYLE
  5
31
102
{ACAD_REACTORS
330
2A
102
}
330
2A
100
AcDbVisualStyle
  2
3D Hidden
 70
     6
 71
     1
 72
     2
 73
     2
 90
        0
 40
-0.6
 41
-30.0
 62
     5
 63
     7
 74
     2
 91
        2
 64
     7
 65
   257
 75
     2
175
     1
 42
40.0
 92
        0
 66
   257
 43
1.0
 76
     1
 77
     6
 78
     2
 67
     7
 79
     3
170
     0
171
     0
290
     0
174
     0
 93
        1
 44
0.0
173
     0
291
     0
 45
0.0
1001
ACAD
1000
AcDbSavedByObjectVersion
1070
     0
  0
VISUALSTYLE
  5
30
102
{ACAD_REACTORS
330
2A
102
}
330
2A
100
AcDbVisualStyle
  2
3dWireframe
 70
     5
 71
     0
 72
     2
 73
     0
 90
        0
 40
-0.6
 41
-30.0
 62
     5
 63
     7
 74
     1
 91
        4
 64
     7
 65
   257
 75
     1
175
     1
 42
1.0
 92
        0
 66
   257
 43
1.0
 76
     1
 77
     6
 78
     2
 67
     7
 79
     5
170
     0
171
     0
290
     0
174
     0
 93
        1
 44
0.0
173
     0
291
     0
 45
0.0
1001
ACAD
1000
AcDbSavedByObjectVersion
1070
     0
  0
VISUALSTYLE
  5
32
102
{ACAD_REACTORS
330
2A
102
}
330
2A
100
AcDbVisualStyle
  2
Basic
 70
     7
 71
     1
 72
     0
 73
     1
 90
        0
 40
-0.6
 41
-30.0
 62
     5
 63
     7
 74
     0
 91
        4
 64
     7
 65
   257
 75
     1
175
     1
 42
1.0
 92
        8
 66
     7
 43
1.0
 76
     1
 77
     6
 78
     2
 67
     7
 79
     5
170
     0
171
     0
290
     0
174
     0
 93
        1
 44
0.0
173
     0
291
     1
 45
0.0
1001
ACAD
1000
AcDbSavedByObjectVersion
1070
     0
  0
VISUALSTYLE
  5
36
102
{ACAD_REACTORS
330
2A
102
}
330
2A
100
AcDbVisualStyle
  2
Brighten
 70
    12
 71
     2
 72
     2
 73
     0
 90
        0
 40
-0.6
 41
-30.0
 62
     5
 63
     7
 74
     1
 91
        4
 64
     7
 65
   257
 75
     1
175
     1
 42
1.0
 92
        8
 66
     7
 43
1.0
 76
     1
 77
     6
 78
     2
 67
     7
 79
     5
170
     0
171
     0
290
     0
174
     0
 93
        1
 44
50.0
173
     0
291
     1
 45
0.0
1001
ACAD
1000
AcDbSavedByObjectVersion
1070
     0
  0
VISUALSTYLE
  5
3A
102
{ACAD_REACTORS
330
2A
102
}
330
2A
100
AcDbVisualStyle
  2
ColorChange
 70
    16
 71
     2
 72
     2
 73
     3
 90
        0
 40
-0.6
 41
-30.0
 62
     5
 63
     8
 74
     1
 91
        4
 64
     7
 65
   257
 75
     1
175
     1
 42
1.0
 92
        8
 66
     8
 43
1.0
 76
     1
 77
     6
 78
     2
 67
     7
 79
     5
170
     0
171
     0
290
     0
174
     0
 93
        1
 44
0.0
173
     0
291
     1
 45
0.0
1001
ACAD
1000
AcDbSavedByObjectVersion
1070
     0
  0
VISUALSTYLE
  5
34
102
{ACAD_REACTORS
330
2A
102
}
330
2A
100
AcDbVisualStyle
  2
Conceptual
 70
     9
 71
     3
 72
     2
 73
     0
 90
        0
 40
-0.6
 41
-30.0
 62
     5
 63
     7
 74
     2
 91
        2
 64
     7
 65
   257
 75
     1
175
     1
 42
40.0
 92
        8
 66
     7
 43
1.0
 76
     1
 77
     6
 78
     2
 67
     7
 79
     3
170
     0
171
     0
290
     0
174
     0
 93
        1
 44
0.0
173
     0
291
     0
 45
0.0
1001
ACAD
1000
AcDbSavedByObjectVersion
1070
     0
  0
VISUALSTYLE
  5
35
102
{ACAD_REACTORS
330
2A
102
}
330
2A
100
AcDbVisualStyle
  2
Dim
 70
    11
 71
     2
 72
     2
 73
     0
 90
        0
 40
-0.6
 41
-30.0
 62
     5
 63
     7
 74
     1
 91
        4
 64
     7
 65
   257
 75
     1
175
     1
 42
1.0
 92
        8
 66
     7
 43
1.0
 76
     1
 77
     6
 78
     2
 67
     7
 79
     5
170
     0
171
     0
290
     0
174
     0
 93
        1
 44
-50.0
173
     0
291
     1
 45
0.0
1001
ACAD
1000
AcDbSavedByObjectVersion
1070
     0
  0
VISUALSTYLE
  5
39
102
{ACAD_REACTORS
330
2A
102
}
330
2A
100
AcDbVisualStyle
  2
Facepattern
 70
    15
 71
     2
 72
     2
 73
     0
 90
        0
 40
-0.6
 41
-30.0
 62
     5
 63
     7
 74
     1
 91
        4
 64
     7
 65
   257
 75
     1
175
     1
 42
1.0
 92
        8
 66
     7
 43
1.0
 76
     1
 77
     6
 78
     2
 67
     7
 79
     5
170
     0
171
     0
290
     0
174
     0
 93
        1
 44
0.0
173
     0
291
     1
 45
0.0
1001
ACAD
1000
AcDbSavedByObjectVersion
1070
     0
  0
VISUALSTYLE
  5
2B
102
{ACAD_REACTORS
330
2A
102
}
330
2A
100
AcDbVisualStyle
  2
Flat
 70
     0
 71
     2
 72
     1
 73
     1
 90
        2
 40
-0.6
 41
30.0
 62
     5
 63
     7
 74
     0
 91
        4
 64
     7
 65
   257
 75
     1
175
     1
 42
1.0
 92
        8
 66
     7
 43
1.0
 76
     1
 77
     6
 78
     2
 67
     7
 79
     5
170
     0
171
     0
290
     0
174
     0
 93
       13
 44
0.0
173
     0
291
     1
 45
0.0
1001
ACAD
1000
AcDbSavedByObjectVersion
1070
     0
  0
VISUALSTYLE
  5
2C
102
{ACAD_REACTORS
330
2A
102
}
330
2A
100
AcDbVisualStyle
  2
FlatWithEdges
 70
     1
 71
     2
 72
     1
 73
     1
 90
        2
 40
-0.6
 41
30.0
 62
     5
 63
     7
 74
     1
 91
        4
 64
     7
 65
   257
 75
     1
175
     1
 42
1.0
 92
        0
 66
   257
 43
1.0
 76
     1
 77
     6
 78
     2
 67
     7
 79
     5
170
     0
171
     0
290
     0
174
     0
 93
       13
 44
0.0
173
     0
291
     1
 45
0.0
1001
ACAD
1000
AcDbSavedByObjectVersion
1070
     0
  0
VISUALSTYLE
  5
2D
102
{ACAD_REACTORS
330
2A
102
}
330
2A
100
AcDbVisualStyle
  2
Gouraud
 70
     2
 71
     2
 72
     2
 73
     1
 90
        2
 40
-0.6
 41
30.0
 62
     5
 63
     7
 74
     0
 91
        4
 64
     7
 65
   257
 75
     1
175
     1
 42
1.0
 92
        0
 66
     7
 43
1.0
 76
     1
 77
     6
 78
     2
 67
     7
 79
     5
170
     0
171
     0
290
     0
174
     0
 93
       13
 44
0.0
173
     0
291
     1
 45
0.0
1001
ACAD
1000
AcDbSavedByObjectVersion
1070
     0
  0
VISUALSTYLE
  5
2E
102
{ACAD_REACTORS
330
2A
102
}
330
2A
100
AcDbVisualStyle
  2
GouraudWithEdges
 70
     3
 71
     2
 72
     2
 73
     1
 90
        2
 40
-0.6
 41
30.0
 62
     5
 63
     7
 74
     1
 91
        4
 64
     7
 65
   257
 75
     1
175
     1
 42
1.0
 92
        0
 66
   257
 43
1.0
 76
     1
 77
     6
 78
     2
 67
     7
 79
     5
170
     0
171
     0
290
     0
174
     0
 93
       13
 44
0.0
173
     0
291
     1
 45
0.0
1001
ACAD
1000
AcDbSavedByObjectVersion
1070
     0
  0
VISUALSTYLE
  5
38
102
{ACAD_REACTORS
330
2A
102
}
330
2A
100
AcDbVisualStyle
  2
Linepattern
 70
    14
 71
     2
 72
     2
 73
     0
 90
        0
 40
-0.6
 41
-30.0
 62
     5
 63
     7
 74
     1
 91
        4
 64
     7
 65
   257
 75
     7
175
     7
 42
1.0
 92
        8
 66
     7
 43
1.0
 76
     1
 77
     6
 78
     2
 67
     7
 79
     5
170
     0
171
     0
290
     0
174
     0
 93
        1
 44
0.0
173
     0
291
     1
 45
0.0
1001
ACAD
1000
AcDbSavedByObjectVersion
1070
     0
  0
VISUALSTYLE
  5
33
102
{ACAD_REACTORS
330
2A
102
}
330
2A
100
AcDbVisualStyle
  2
Realistic
 70
     8
 71
     2
 72
     2
 73
     0
 90
        0
 40
-0.6
 41
-30.0
 62
     5
 63
     7
 74
     1
 91
        0
 64
     7
 65
   257
 75
     1
175
     1
 42
1.0
 92
        8
 66
     8
 43
1.0
 76
     1
 77
     6
 78
     2
 67
     7
 79
     5
170
     0
171
     0
290
     0
174
     0
 93
       13
 44
0.0
173
     0
291
     0
 45
0.0
1001
ACAD
1000
AcDbSavedByObjectVersion
1070
     0
  0
VISUALSTYLE
  5
37
102
{ACAD_REACTORS
330
2A
102
}
330
2A
100
AcDbVisualStyle
  2
Thicken
 70
    13
 71
     2
 72
     2
 73
     0
 90
        0
 40
-0.6
 41
-30.0
 62
     5
 63
     7
 74
     1
 91
        4
 64
     7
 65
   257
 75
     1
175
     1
 42
1.0
 92
       12
 66
     7
 43
1.0
 76
     1
 77
     6
 78
     2
 67
     7
 79
     5
170
     0
171
     0
290
     0
174
     0
 93
        1
 44
0.0
173
     0
291
     1
 45
0.0
1001
ACAD
1000
AcDbSavedByObjectVersion
1070
     0
  0
DICTIONARYVAR
  5
2E6
102
{ACAD_REACTORS
330
2E5
102
}
330
2E5
100
DictionaryVariables
280
     0
  1
1:1
  0
DICTIONARYVAR
  5
2EA
102
{ACAD_REACTORS
330
2E5
102
}
330
2E5
100
DictionaryVariables
280
     0
  1
80.000000
  0
DICTIONARYVAR
  5
2E9
102
{ACAD_REACTORS
330
2E5
102
}
330
2E5
100
DictionaryVariables
280
     0
  1
5.000000
  0
ENDSEC
  0
EOF
