  0
SECTION
  2
HEADER
  9
$ACADVER
  1
AC1015
  9
$ACADMAINTVER
 70
     6
  9
$DWGCODEPAGE
  3
ANSI_1252
  9
$INSBASE
 10
0.0
 20
0.0
 30
0.0
  9
$EXTMIN
 10
0.0
 20
0.0
 30
0.0
  9
$EXTMAX
 10
1682.0
 20
2378.0
 30
0.0
  9
$LIMMIN
 10
0.0
 20
0.0
  9
$LIMMAX
 10
1682.0
 20
2378.0
  9
$ORTHOMODE
 70
     0
  9
$REGENMODE
 70
     1
  9
$FILLMODE
 70
     1
  9
$QTEXTMODE
 70
     0
  9
$MIRRTEXT
 70
     1
  9
$LTSCALE
 40
1.0
  9
$ATTMODE
 70
     1
  9
$TEXTSIZE
 40
2.5
  9
$TRACEWID
 40
1.0
  9
$TEXTSTYLE
  7
Standard
  9
$CLAYER
  8
0
  9
$CELTYPE
  6
ByLayer
  9
$CECOLOR
 62
   256
  9
$CELTSCALE
 40
1.0
  9
$DISPSILH
 70
     0
  9
$DIMSCALE
 40
1.0
  9
$DIMASZ
 40
2.5
  9
$DIMEXO
 40
0.625
  9
$DIMDLI
 40
3.75
  9
$DIMRND
 40
0.0
  9
$DIMDLE
 40
0.0
  9
$DIMEXE
 40
1.25
  9
$DIMTP
 40
0.0
  9
$DIMTM
 40
0.0
  9
$DIMTXT
 40
2.5
  9
$DIMCEN
 40
2.5
  9
$DIMTSZ
 40
0.0
  9
$DIMTOL
 70
     0
  9
$DIMLIM
 70
     0
  9
$DIMTIH
 70
     0
  9
$DIMTOH
 70
     0
  9
$DIMSE1
 70
     0
  9
$DIMSE2
 70
     0
  9
$DIMTAD
 70
     1
  9
$DIMZIN
 70
     8
  9
$DIMBLK
  1

  9
$DIMASO
 70
     1
  9
$DIMSHO
 70
     1
  9
$DIMPOST
  1

  9
$DIMAPOST
  1

  9
$DIMALT
 70
     0
  9
$DIMALTD
 70
     3
  9
$DIMALTF
 40
0.0393700787
  9
$DIMLFAC
 40
1.0
  9
$DIMTOFL
 70
     1
  9
$DIMTVP
 40
0.0
  9
$DIMTIX
 70
     0
  9
$DIMSOXD
 70
     0
  9
$DIMSAH
 70
     0
  9
$DIMBLK1
  1

  9
$DIMBLK2
  1

  9
$DIMSTYLE
  2
ISO-25
  9
$DIMCLRD
 70
     0
  9
$DIMCLRE
 70
     0
  9
$DIMCLRT
 70
     0
  9
$DIMTFAC
 40
1.0
  9
$DIMGAP
 40
0.625
  9
$DIMJUST
 70
     0
  9
$DIMSD1
 70
     0
  9
$DIMSD2
 70
     0
  9
$DIMTOLJ
 70
     0
  9
$DIMTZIN
 70
     8
  9
$DIMALTZ
 70
     0
  9
$DIMALTTZ
 70
     0
  9
$DIMUPT
 70
     0
  9
$DIMDEC
 70
     2
  9
$DIMTDEC
 70
     2
  9
$DIMALTU
 70
     2
  9
$DIMALTTD
 70
     3
  9
$DIMTXSTY
  7
Standard
  9
$DIMAUNIT
 70
     0
  9
$DIMADEC
 70
     0
  9
$DIMALTRND
 40
0.0
  9
$DIMAZIN
 70
     0
  9
$DIMDSEP
 70
    44
  9
$DIMATFIT
 70
     3
  9
$DIMFRAC
 70
     0
  9
$DIMLDRBLK
  1

  9
$DIMLUNIT
 70
     2
  9
$DIMLWD
 70
    -2
  9
$DIMLWE
 70
    -2
  9
$DIMTMOVE
 70
     0
  9
$LUNITS
 70
     2
  9
$LUPREC
 70
     4
  9
$SKETCHINC
 40
1.0
  9
$FILLETRAD
 40
10.0
  9
$AUNITS
 70
     0
  9
$AUPREC
 70
     0
  9
$MENU
  1
.
  9
$ELEVATION
 40
0.0
  9
$PELEVATION
 40
0.0
  9
$THICKNESS
 40
0.0
  9
$LIMCHECK
 70
     0
  9
$CHAMFERA
 40
10.0
  9
$CHAMFERB
 40
10.0
  9
$CHAMFERC
 40
20.0
  9
$CHAMFERD
 40
0.0
  9
$SKPOLY
 70
     0
  9
$TDCREATE
 40
2455440.538755961
  9
$TDUCREATE
 40
2455440.455422627
  9
$TDUPDATE
 40
2455440.538755972
  9
$TDUUPDATE
 40
2455440.455422639
  9
$TDINDWG
 40
0.0000000116
  9
$TDUSRTIMER
 40
0.0000000116
  9
$USRTIMER
 70
     1
  9
$ANGBASE
 50
0.0
  9
$ANGDIR
 70
     0
  9
$PDMODE
 70
     0
  9
$PDSIZE
 40
0.0
  9
$PLINEWID
 40
0.0
  9
$SPLFRAME
 70
     0
  9
$SPLINETYPE
 70
     6
  9
$SPLINESEGS
 70
     8
  9
$HANDSEED
  5
139
  9
$SURFTAB1
 70
     6
  9
$SURFTAB2
 70
     6
  9
$SURFTYPE
 70
     6
  9
$SURFU
 70
     6
  9
$SURFV
 70
     6
  9
$UCSBASE
  2

  9
$UCSNAME
  2

  9
$UCSORG
 10
0.0
 20
0.0
 30
0.0
  9
$UCSXDIR
 10
1.0
 20
0.0
 30
0.0
  9
$UCSYDIR
 10
0.0
 20
1.0
 30
0.0
  9
$UCSORTHOREF
  2

  9
$UCSORTHOVIEW
 70
     0
  9
$UCSORGTOP
 10
0.0
 20
0.0
 30
0.0
  9
$UCSORGBOTTOM
 10
0.0
 20
0.0
 30
0.0
  9
$UCSORGLEFT
 10
0.0
 20
0.0
 30
0.0
  9
$UCSORGRIGHT
 10
0.0
 20
0.0
 30
0.0
  9
$UCSORGFRONT
 10
0.0
 20
0.0
 30
0.0
  9
$UCSORGBACK
 10
0.0
 20
0.0
 30
0.0
  9
$PUCSBASE
  2

  9
$PUCSNAME
  2

  9
$PUCSORG
 10
0.0
 20
0.0
 30
0.0
  9
$PUCSXDIR
 10
1.0
 20
0.0
 30
0.0
  9
$PUCSYDIR
 10
0.0
 20
1.0
 30
0.0
  9
$PUCSORTHOREF
  2

  9
$PUCSORTHOVIEW
 70
     0
  9
$PUCSORGTOP
 10
0.0
 20
0.0
 30
0.0
  9
$PUCSORGBOTTOM
 10
0.0
 20
0.0
 30
0.0
  9
$PUCSORGLEFT
 10
0.0
 20
0.0
 30
0.0
  9
$PUCSORGRIGHT
 10
0.0
 20
0.0
 30
0.0
  9
$PUCSORGFRONT
 10
0.0
 20
0.0
 30
0.0
  9
$PUCSORGBACK
 10
0.0
 20
0.0
 30
0.0
  9
$USERI1
 70
     0
  9
$USERI2
 70
     0
  9
$USERI3
 70
     0
  9
$USERI4
 70
     0
  9
$USERI5
 70
     0
  9
$USERR1
 40
0.0
  9
$USERR2
 40
0.0
  9
$USERR3
 40
0.0
  9
$USERR4
 40
0.0
  9
$USERR5
 40
0.0
  9
$WORLDVIEW
 70
     1
  9
$SHADEDGE
 70
     3
  9
$SHADEDIF
 70
    70
  9
$TILEMODE
 70
     1
  9
$MAXACTVP
 70
    64
  9
$PINSBASE
 10
0.0
 20
0.0
 30
0.0
  9
$PLIMCHECK
 70
     0
  9
$PEXTMIN
 10
0.0
 20
0.0
 30
0.0
  9
$PEXTMAX
 10
1682.0
 20
2378.0
 30
0.0
  9
$PLIMMIN
 10
0.0
 20
0.0
  9
$PLIMMAX
 10
1682.0
 20
2378.0
  9
$UNITMODE
 70
     0
  9
$VISRETAIN
 70
     1
  9
$PLINEGEN
 70
     0
  9
$PSLTSCALE
 70
     1
  9
$TREEDEPTH
 70
  3020
  9
$CMLSTYLE
  2
Standard
  9
$CMLJUST
 70
     0
  9
$CMLSCALE
 40
20.0
  9
$PROXYGRAPHICS
 70
     1
  9
$MEASUREMENT
 70
     1
  9
$CELWEIGHT
370
    -1
  9
$ENDCAPS
280
     0
  9
$JOINSTYLE
280
     0
  9
$LWDISPLAY
290
     0
  9
$INSUNITS
 70
     4
  9
$HYPERLINKBASE
  1

  9
$STYLESHEET
  1

  9
$XEDIT
290
     1
  9
$CEPSNTYPE
380
     0
  9
$PSTYLEMODE
290
     1
  9
$FINGERPRINTGUID
  2
{1DE0FA14-963F-4F8A-A204-8EA9D1B3A7AB}
  9
$VERSIONGUID
  2
{FAEB1C32-E019-11D5-929B-00C0DF256EC4}
  9
$EXTNAMES
290
     1
  9
$PSVPSCALE
 40
0.0
  9
$OLESTARTUP
290
     0
  0
ENDSEC
  0
SECTION
  2
CLASSES
  0
CLASS
  1
ACDBDICTIONARYWDFLT
  2
AcDbDictionaryWithDefault
  3
ObjectDBX Classes
 90
        0
280
     0
281
     0
  0
CLASS
  1
VISUALSTYLE
  2
AcDbVisualStyle
  3
ObjectDBX Classes
 90
     4095
280
     0
281
     0
  0
CLASS
  1
SCALE
  2
AcDbScale
  3
ObjectDBX Classes
 90
     1153
280
     0
281
     0
  0
CLASS
  1
DICTIONARYVAR
  2
AcDbDictionaryVar
  3
ObjectDBX Classes
 90
        0
280
     0
281
     0
  0
CLASS
  1
ACDBPLACEHOLDER
  2
AcDbPlaceHolder
  3
ObjectDBX Classes
 90
        0
280
     0
281
     0
  0
CLASS
  1
LAYOUT
  2
AcDbLayout
  3
ObjectDBX Classes
 90
        0
280
     0
281
     0
  0
ENDSEC
  0
SECTION
  2
TABLES
  0
TABLE
  2
VPORT
  5
8
330
0
100
AcDbSymbolTable
 70
     1
  0
VPORT
  5
29
330
8
100
AcDbSymbolTableRecord
100
AcDbViewportTableRecord
  2
*Active
 70
     0
 10
0.0
 20
0.0
 11
1.0
 21
1.0
 12
344.1869158879
 22
148.5
 13
0.0
 23
0.0
 14
10.0
 24
10.0
 15
10.0
 25
10.0
 16
0.0
 26
0.0
 36
1.0
 17
0.0
 27
0.0
 37
0.0
 40
297.0
 41
1.9729729729
 42
50.0
 43
0.0
 44
0.0
 50
0.0
 51
0.0
 71
     0
 72
   100
 73
     1
 74
     3
 75
     0
 76
     0
 77
     0
 78
     0
281
     0
 65
     1
110
0.0
120
0.0
130
0.0
111
1.0
121
0.0
131
0.0
112
0.0
122
1.0
132
0.0
 79
     0
146
0.0
  0
ENDTAB
  0
TABLE
  2
LTYPE
  5
5
330
0
100
AcDbSymbolTable
 70
     2
  0
LTYPE
  5
14
330
5
100
AcDbSymbolTableRecord
100
AcDbLinetypeTableRecord
  2
ByBlock
 70
     0
  3

 72
    65
 73
     0
 40
0.0
  0
LTYPE
  5
15
330
5
100
AcDbSymbolTableRecord
100
AcDbLinetypeTableRecord
  2
ByLayer
 70
     0
  3

 72
    65
 73
     0
 40
0.0
  0
LTYPE
  5
16
330
5
100
AcDbSymbolTableRecord
100
AcDbLinetypeTableRecord
  2
Continuous
 70
     0
  3
Solid line
 72
    65
 73
     0
 40
0.0
  0
LTYPE
  5
60
330
5
100
AcDbSymbolTableRecord
100
AcDbLinetypeTableRecord
  2
CENTER2
 70
     0
  3
Center (.5x) ___ _ ___ _ ___ _ ___ _ ___ _ ___
 72
    65
 73
     4
 40
28.575
 49
19.05
 74
     4
 75
     0
340
0
 46
0.0
 50
0.0
 44
0.0
 45
0.0
 49
-3.175
 74
     4
 75
     0
340
0
 46
0.0
 50
0.0
 44
0.0
 45
0.0
 49
3.175
 74
     4
 75
     0
340
0
 46
0.0
 50
0.0
 44
0.0
 45
0.0
 49
-3.175
 74
     4
 75
     0
340
0
 46
0.0
 50
0.0
 44
0.0
 45
0.0
  0
ENDTAB
  0
TABLE
  2
LAYER
  5
2
330
0
100
AcDbSymbolTable
 70
     5
  0
LAYER
  5
10
330
2
100
AcDbSymbolTableRecord
100
AcDbLayerTableRecord
  2
0
 70
     0
 62
     7
  6
Continuous
370
    -3
390
F
  0
LAYER
  5
5D
330
2
100
AcDbSymbolTableRecord
100
AcDbLayerTableRecord
  2
Default
 70
     0
 62
     7
  6
Continuous
370
    -3
390
F
  0
LAYER
  5
77
330
2
100
AcDbSymbolTableRecord
100
AcDbLayerTableRecord
  2
DV1_Standard
 70
     0
 62
     7
  6
Continuous
370
    -3
390
F
  0
LAYER
  5
C5
330
2
100
AcDbSymbolTableRecord
100
AcDbLayerTableRecord
  2
DV2_Standard
 70
     0
 62
     7
  6
Continuous
370
    -3
390
F
  0
LAYER
  5
116
330
2
100
AcDbSymbolTableRecord
100
AcDbLayerTableRecord
  2
DV3_Standard
 70
     0
 62
     7
  6
Continuous
370
    -3
390
F
  0
ENDTAB
  0
TABLE
  2
STYLE
  5
3
330
0
100
AcDbSymbolTable
 70
     2
  0
STYLE
  5
11
330
3
100
AcDbSymbolTableRecord
100
AcDbTextStyleTableRecord
  2
Standard
 70
     0
 40
0.0
 41
1.0
 50
0.0
 71
     0
 42
2.5
  3
txt
  4

  0
STYLE
  5
128
330
3
100
AcDbSymbolTableRecord
100
AcDbTextStyleTableRecord
  2
SEACAD_seiso_ttf
 70
     0
 40
0.0
 41
1.0
 50
0.0
 71
     0
 42
0.2
  3
seiso.ttf
  4

  0
ENDTAB
  0
TABLE
  2
VIEW
  5
6
330
0
100
AcDbSymbolTable
 70
     0
  0
ENDTAB
  0
TABLE
  2
UCS
  5
7
330
0
100
AcDbSymbolTable
 70
     0
  0
ENDTAB
  0
TABLE
  2
APPID
  5
9
330
0
100
AcDbSymbolTable
 70
     1
  0
APPID
  5
12
330
9
100
AcDbSymbolTableRecord
100
AcDbRegAppTableRecord
  2
ACAD
 70
     0
  0
ENDTAB
  0
TABLE
  2
DIMSTYLE
  5
A
330
0
100
AcDbSymbolTable
 70
     1
100
AcDbDimStyleTable
  0
DIMSTYLE
105
27
330
A
100
AcDbSymbolTableRecord
100
AcDbDimStyleTableRecord
  2
ISO-25
 70
     0
 41
2.5
 42
0.625
 43
3.75
 44
1.25
 73
     0
 74
     0
 77
     1
 78
     8
140
2.5
141
2.5
143
0.0393700787
147
0.625
171
     3
172
     1
271
     2
272
     2
274
     3
278
    44
283
     0
284
     8
340
11
  0
ENDTAB
  0
TABLE
  2
BLOCK_RECORD
  5
1
330
0
100
AcDbSymbolTable
 70
     7
  0
BLOCK_RECORD
  5
1F
330
1
100
AcDbSymbolTableRecord
100
AcDbBlockTableRecord
  2
*Model_Space
340
22
  0
BLOCK_RECORD
  5
1B
330
1
100
AcDbSymbolTableRecord
100
AcDbBlockTableRecord
  2
*Paper_Space
340
1E
  0
BLOCK_RECORD
  5
5E
330
1
100
AcDbSymbolTableRecord
100
AcDbBlockTableRecord
  2
SEANNOT_GROUP
340
0
102
{BLKREFS
331
5F
102
}
  0
BLOCK_RECORD
  5
65
330
1
100
AcDbSymbolTableRecord
100
AcDbBlockTableRecord
  2
SEANNOT_GROUP1
340
0
102
{BLKREFS
331
66
102
}
  0
BLOCK_RECORD
  5
6B
330
1
100
AcDbSymbolTableRecord
100
AcDbBlockTableRecord
  2
SEANNOT_GROUP2
340
0
102
{BLKREFS
331
6C
102
}
  0
BLOCK_RECORD
  5
75
330
1
100
AcDbSymbolTableRecord
100
AcDbBlockTableRecord
  2
SE
340
0
102
{BLKREFS
331
76
102
}
  0
BLOCK_RECORD
  5
C3
330
1
100
AcDbSymbolTableRecord
100
AcDbBlockTableRecord
  2
SE1
340
0
102
{BLKREFS
331
C4
102
}
  0
BLOCK_RECORD
  5
114
330
1
100
AcDbSymbolTableRecord
100
AcDbBlockTableRecord
  2
SE2
340
0
102
{BLKREFS
331
115
102
}
  0
ENDTAB
  0
ENDSEC
  0
SECTION
  2
BLOCKS
  0
BLOCK
  5
20
330
1F
100
AcDbEntity
  8
0
100
AcDbBlockBegin
  2
*Model_Space
 70
     0
 10
0.0
 20
0.0
 30
0.0
  3
*Model_Space
  1

  0
ENDBLK
  5
21
330
1F
100
AcDbEntity
  8
0
100
AcDbBlockEnd
  0
BLOCK
  5
1C
330
1B
100
AcDbEntity
 67
     1
  8
0
100
AcDbBlockBegin
  2
*Paper_Space
 70
     0
 10
0.0
 20
0.0
 30
0.0
  3
*Paper_Space
  1

  0
ENDBLK
  5
1D
330
1B
100
AcDbEntity
 67
     1
  8
0
100
AcDbBlockEnd
  0
BLOCK
  5
63
330
5E
100
AcDbEntity
  8
0
100
AcDbBlockBegin
  2
SEANNOT_GROUP
 70
     0
 10
0.0
 20
0.0
 30
0.0
  3
SEANNOT_GROUP
  1

  0
LINE
  5
61
330
5E
100
AcDbEntity
  8
Default
  6
CENTER2
 62
     7
100
AcDbLine
 10
303.3954310566
 20
456.1640257623
 30
0.0
 11
263.3954319506
 21
456.1640257623
 31
0.0
  0
LINE
  5
62
330
5E
100
AcDbEntity
  8
Default
  6
CENTER2
 62
     7
100
AcDbLine
 10
283.3954315036
 20
476.1640253153
 30
0.0
 11
283.3954315036
 21
436.1640262094
 31
0.0
  0
ENDBLK
  5
64
330
5E
100
AcDbEntity
  8
0
100
AcDbBlockEnd
  0
BLOCK
  5
69
330
65
100
AcDbEntity
  8
0
100
AcDbBlockBegin
  2
SEANNOT_GROUP1
 70
     0
 10
0.0
 20
0.0
 30
0.0
  3
SEANNOT_GROUP1
  1

  0
LINE
  5
67
330
65
100
AcDbEntity
  8
Default
  6
CENTER2
 62
     7
100
AcDbLine
 10
145.0110440656
 20
302.369684997
 30
0.0
 11
105.0110449597
 21
302.369684997
 31
0.0
  0
LINE
  5
68
330
65
100
AcDbEntity
  8
Default
  6
CENTER2
 62
     7
100
AcDbLine
 10
125.0110445126
 20
322.3696845499
 30
0.0
 11
125.0110445126
 21
282.369685444
 31
0.0
  0
ENDBLK
  5
6A
330
65
100
AcDbEntity
  8
0
100
AcDbBlockEnd
  0
BLOCK
  5
73
330
6B
100
AcDbEntity
  8
0
100
AcDbBlockBegin
  2
SEANNOT_GROUP2
 70
     0
 10
0.0
 20
0.0
 30
0.0
  3
SEANNOT_GROUP2
  1

  0
LINE
  5
6D
330
6B
100
AcDbEntity
  8
Default
  6
CENTER2
 62
     7
100
AcDbLine
 10
145.0110440656
 20
458.7283936786
 30
0.0
 11
105.0110449597
 21
458.7283936786
 31
0.0
  0
LINE
  5
6E
330
6B
100
AcDbEntity
  8
Default
  6
CENTER2
 62
     7
100
AcDbLine
 10
125.0110445126
 20
478.7283932316
 30
0.0
 11
125.0110445126
 21
438.7283941256
 31
0.0
  0
LINE
  5
6F
330
6B
100
AcDbEntity
  8
Default
  6
CENTER2
 62
     7
100
AcDbLine
 10
150.0110439538
 20
458.7283936786
 30
0.0
 11
128.5110445126
 21
458.7283936786
 31
0.0
  0
LINE
  5
70
330
6B
100
AcDbEntity
  8
Default
  6
CENTER2
 62
     7
100
AcDbLine
 10
125.0110445126
 20
483.7283931198
 30
0.0
 11
125.0110445126
 21
462.2283936786
 31
0.0
  0
LINE
  5
71
330
6B
100
AcDbEntity
  8
Default
  6
CENTER2
 62
     7
100
AcDbLine
 10
100.0110450714
 20
458.7283936786
 30
0.0
 11
121.5110445126
 21
458.7283936786
 31
0.0
  0
LINE
  5
72
330
6B
100
AcDbEntity
  8
Default
  6
CENTER2
 62
     7
100
AcDbLine
 10
125.0110445126
 20
433.7283942374
 30
0.0
 11
125.0110445126
 21
455.2283936786
 31
0.0
  0
ENDBLK
  5
74
330
6B
100
AcDbEntity
  8
0
100
AcDbBlockEnd
  0
BLOCK
  5
C1
330
75
100
AcDbEntity
  8
0
100
AcDbBlockBegin
  2
SE
 70
     0
 10
0.0
 20
0.0
 30
0.0
  3
SE
  1

  0
LINE
  5
78
330
75
100
AcDbEntity
  8
DV1_Standard
  6
Continuous
 62
     7
100
AcDbLine
 10
116.5110445126
 20
476.9934099598
 30
0.0
 11
133.5110445126
 21
476.9934099598
 31
0.0
  0
LINE
  5
79
330
75
100
AcDbEntity
  8
DV1_Standard
  6
Continuous
 62
     7
100
AcDbLine
 10
116.0110445126
 20
495.6343083422
 30
0.0
 11
134.0110445126
 21
495.6343083422
 31
0.0
  0
LINE
  5
7A
330
75
100
AcDbEntity
  8
DV1_Standard
  6
Continuous
 62
     7
100
AcDbLine
 10
134.0110445126
 20
477.4934099598
 30
0.0
 11
134.0110445126
 21
495.6343083422
 31
0.0
  0
LINE
  5
7B
330
75
100
AcDbEntity
  8
DV1_Standard
  6
Continuous
 62
     7
100
AcDbLine
 10
116.0110445126
 20
495.6343083422
 30
0.0
 11
116.0110445126
 21
477.4934099598
 31
0.0
  0
ARC
  5
7C
330
75
100
AcDbEntity
  8
DV1_Standard
  6
Continuous
 62
     7
100
AcDbCircle
 10
125.0110445126
 20
417.4934099598
 30
0.0
 40
80.00000000000001
100
AcDbArc
 50
84.5175184369
 51
95.4824815631
  0
ARC
  5
7D
330
75
100
AcDbEntity
  8
DV1_Standard
  6
Continuous
 62
     7
100
AcDbCircle
 10
116.5110445126
 20
477.4934099598
 30
0.0
 40
0.5000000000000004
100
AcDbArc
 50
180.0
 51
270.0
  0
ARC
  5
7E
330
75
100
AcDbEntity
  8
DV1_Standard
  6
Continuous
 62
     7
100
AcDbCircle
 10
133.5110445126
 20
477.4934099598
 30
0.0
 40
0.5000000000000004
100
AcDbArc
 50
270.0
 51
0.0
  0
ARC
  5
7F
330
75
100
AcDbEntity
  8
DV1_Standard
  6
Continuous
 62
     7
100
AcDbCircle
 10
132.5110445126
 20
495.6343083422
 30
0.0
 40
1.499999999999998
100
AcDbArc
 50
0.0
 51
84.5175184369
  0
ARC
  5
80
330
75
100
AcDbEntity
  8
DV1_Standard
  6
Continuous
 62
     7
100
AcDbCircle
 10
117.5110445126
 20
495.6343083422
 30
0.0
 40
1.500000000000012
100
AcDbArc
 50
95.4824815631
 51
180.0
  0
LINE
  5
81
330
75
100
AcDbEntity
  8
DV1_Standard
  6
Continuous
 62
     7
100
AcDbLine
 10
131.0110445126
 20
474.5934099598
 30
0.0
 11
130.5110445126
 21
474.5934099598
 31
0.0
  0
LINE
  5
82
330
75
100
AcDbEntity
  8
DV1_Standard
  6
Continuous
 62
     7
100
AcDbLine
 10
119.5110445126
 20
474.5934099598
 30
0.0
 11
119.0110445126
 21
474.5934099598
 31
0.0
  0
LINE
  5
83
330
75
100
AcDbEntity
  8
DV1_Standard
  6
Continuous
 62
     7
100
AcDbLine
 10
119.5110445126
 20
476.9934099598
 30
0.0
 11
119.5110445126
 21
474.5934099598
 31
0.0
  0
LINE
  5
84
330
75
100
AcDbEntity
  8
DV1_Standard
  6
Continuous
 62
     7
100
AcDbLine
 10
130.5110445126
 20
474.5934099598
 30
0.0
 11
130.5110445126
 21
476.9934099598
 31
0.0
  0
LINE
  5
85
330
75
100
AcDbEntity
  8
DV1_Standard
  6
Continuous
 62
     7
100
AcDbLine
 10
131.0110445126
 20
463.1137880284
 30
0.0
 11
131.0110445126
 21
474.5934099598
 31
0.0
  0
LINE
  5
86
330
75
100
AcDbEntity
  8
DV1_Standard
  6
Continuous
 62
     7
100
AcDbLine
 10
119.0110445126
 20
474.5934099598
 30
0.0
 11
119.0110445126
 21
463.1168045464
 31
0.0
  0
LINE
  5
87
330
75
100
AcDbEntity
  8
DV1_Standard
  6
Continuous
 62
     7
100
AcDbLine
 10
115.5110445126
 20
427.2934099598
 30
0.0
 11
134.5110445126
 21
427.2934099598
 31
0.0
  0
LINE
  5
88
330
75
100
AcDbEntity
  8
DV1_Standard
  6
Continuous
 62
     7
100
AcDbLine
 10
110.0110445126
 20
432.4657616344
 30
0.0
 11
110.0110445126
 21
434.1594353636
 31
0.0
  0
LINE
  5
89
330
75
100
AcDbEntity
  8
DV1_Standard
  6
Continuous
 62
     7
100
AcDbLine
 10
110.0110445126
 20
430.5639794565
 30
0.0
 11
110.0110445126
 21
432.4657616344
 31
0.0
  0
LINE
  5
8A
330
75
100
AcDbEntity
  8
DV1_Standard
  6
Continuous
 62
     7
100
AcDbLine
 10
110.0110445126
 20
430.082100829
 30
0.0
 11
110.0110445126
 21
430.5639794565
 31
0.0
  0
LINE
  5
8B
330
75
100
AcDbEntity
  8
DV1_Standard
  6
Continuous
 62
     7
100
AcDbLine
 10
110.0110445126
 20
429.7934099598
 30
0.0
 11
110.0110445126
 21
430.082100829
 31
0.0
  0
LINE
  5
8C
330
75
100
AcDbEntity
  8
DV1_Standard
  6
Continuous
 62
     7
100
AcDbLine
 10
109.9440572145
 20
434.4094353636
 30
0.0
 11
108.5780318108
 21
436.7754607674
 31
0.0
  0
ARC
  5
8D
330
75
100
AcDbEntity
  8
DV1_Standard
  6
Continuous
 62
     7
100
AcDbCircle
 10
109.5110445127
 20
434.1594353636
 30
0.0
 40
0.4999999999696308
100
AcDbArc
 50
0.0
 51
30.0000000009
  0
ARC
  5
8E
330
75
100
AcDbEntity
  8
DV1_Standard
  6
Continuous
 62
     7
100
AcDbCircle
 10
110.5110445126
 20
429.7934099598
 30
0.0
 40
0.5000000000000004
100
AcDbArc
 50
180.0
 51
270.0
  0
LINE
  5
8F
330
75
100
AcDbEntity
  8
DV1_Standard
  6
Continuous
 62
     7
100
AcDbLine
 10
140.0110445126
 20
434.1594353636
 30
0.0
 11
140.0110445126
 21
432.4657616344
 31
0.0
  0
LINE
  5
90
330
75
100
AcDbEntity
  8
DV1_Standard
  6
Continuous
 62
     7
100
AcDbLine
 10
140.0110445126
 20
432.4657616344
 30
0.0
 11
140.0110445126
 21
430.5639794565
 31
0.0
  0
LINE
  5
91
330
75
100
AcDbEntity
  8
DV1_Standard
  6
Continuous
 62
     7
100
AcDbLine
 10
140.0110445126
 20
430.5639794565
 30
0.0
 11
140.0110445126
 21
430.082100829
 31
0.0
  0
LINE
  5
92
330
75
100
AcDbEntity
  8
DV1_Standard
  6
Continuous
 62
     7
100
AcDbLine
 10
140.0110445126
 20
430.082100829
 30
0.0
 11
140.0110445126
 21
429.8464431957
 31
0.0
  0
LINE
  5
93
330
75
100
AcDbEntity
  8
DV1_Standard
  6
Continuous
 62
     7
100
AcDbLine
 10
139.9390025578
 20
429.8707916981
 30
0.0
 11
110.0830864674
 21
429.8707916981
 31
0.0
  0
LINE
  5
94
330
75
100
AcDbEntity
  8
DV1_Standard
  6
Continuous
 62
     7
100
AcDbLine
 10
139.5110445126
 20
429.2934099598
 30
0.0
 11
110.5110445126
 21
429.2934099598
 31
0.0
  0
LINE
  5
95
330
75
100
AcDbEntity
  8
DV1_Standard
  6
Continuous
 62
     7
100
AcDbLine
 10
139.9641695126
 20
432.4657616344
 30
0.0
 11
110.0579195126
 21
432.4657616344
 31
0.0
  0
LINE
  5
96
330
75
100
AcDbEntity
  8
DV1_Standard
  6
Continuous
 62
     7
100
AcDbLine
 10
141.4440572145
 20
436.7754607674
 30
0.0
 11
140.0780318108
 21
434.4094353636
 31
0.0
  0
ARC
  5
97
330
75
100
AcDbEntity
  8
DV1_Standard
  6
Continuous
 62
     7
100
AcDbCircle
 10
140.5110445126
 20
434.1594353636
 30
0.0
 40
0.5000000000000229
100
AcDbArc
 50
150.0
 51
180.0
  0
ARC
  5
98
330
75
100
AcDbEntity
  8
DV1_Standard
  6
Continuous
 62
     7
100
AcDbCircle
 10
139.5110445126
 20
429.7934099598
 30
0.0
 40
0.5000000000000004
100
AcDbArc
 50
270.0
 51
0.0
  0
LINE
  5
99
330
75
100
AcDbEntity
  8
DV1_Standard
  6
Continuous
 62
     7
100
AcDbLine
 10
134.5110445126
 20
427.2934099598
 30
0.0
 11
134.5110445126
 21
429.2934099598
 31
0.0
  0
LINE
  5
9A
330
75
100
AcDbEntity
  8
DV1_Standard
  6
Continuous
 62
     7
100
AcDbLine
 10
115.5110445126
 20
429.2934099598
 30
0.0
 11
115.5110445126
 21
427.2934099598
 31
0.0
  0
LINE
  5
9B
330
75
100
AcDbEntity
  8
DV1_Standard
  6
Continuous
 62
     7
100
AcDbLine
 10
141.5110445126
 20
437.0254607674
 30
0.0
 11
141.5110445126
 21
441.8222552851
 31
0.0
  0
LINE
  5
9C
330
75
100
AcDbEntity
  8
DV1_Standard
  6
Continuous
 62
     7
100
AcDbLine
 10
108.5110445126
 20
441.8222552851
 30
0.0
 11
108.5110445126
 21
437.0254607674
 31
0.0
  0
ARC
  5
9D
330
75
100
AcDbEntity
  8
DV1_Standard
  6
Continuous
 62
     7
100
AcDbCircle
 10
109.0110445126
 20
437.0254607674
 30
0.0
 40
0.4999999999999989
100
AcDbArc
 50
180.576076563
 51
210.0
  0
ARC
  5
9E
330
75
100
AcDbEntity
  8
DV1_Standard
  6
Continuous
 62
     7
100
AcDbCircle
 10
141.0110445126
 20
437.0254607674
 30
0.0
 40
0.5000000000000016
100
AcDbArc
 50
330.0
 51
359.4198208316
  0
SPLINE
  5
9F
330
75
100
AcDbEntity
  8
DV1_Standard
  6
Continuous
 62
     7
100
AcDbSpline
210
0.0
220
0.0
230
1.0
 70
     8
 71
     3
 72
    12
 73
     8
 74
     0
 42
0.0000000140959064
 43
0.0000000001
 40
0.0
 40
0.0
 40
0.0
 40
0.0
 40
0.2442908994725443
 40
0.4359050673002578
 40
0.7392356524607073
 40
0.9509084760772433
 40
1.0
 40
1.0
 40
1.0
 40
1.0
 10
103.8933365250636
 20
462.0523914093261
 30
0.0
 10
103.8957685762444
 20
462.0649139566967
 30
0.0
 10
103.9001068605834
 20
462.0876396571531
 30
0.0
 10
103.9180622792799
 20
462.0799276137348
 30
0.0
 10
103.9473993210767
 20
461.9827030457882
 30
0.0
 10
103.9856067051006
 20
461.7326349625682
 30
0.0
 10
104.0076441828939
 20
461.4867349045863
 30
0.0
 10
104.0119603435239
 20
461.4343306508245
 30
0.0
  0
SPLINE
  5
A0
330
75
100
AcDbEntity
  8
DV1_Standard
  6
Continuous
 62
     7
100
AcDbSpline
210
0.0
220
0.0
230
1.0
 70
     8
 71
     3
 72
    12
 73
     8
 74
     0
 42
0.0000000021102965
 43
0.0000000001
 40
0.0
 40
0.0
 40
0.0
 40
0.0
 40
0.1803496459576864
 40
0.408870828013513
 40
0.6617801919743045
 40
0.914725547688859
 40
1.0
 40
1.0
 40
1.0
 40
1.0
 10
104.0119603435239
 20
461.4343306508245
 30
0.0
 10
104.0200388162671
 20
461.3362466423873
 30
0.0
 10
104.039682894901
 20
461.0653456116025
 30
0.0
 10
104.077027548308
 20
460.3673467120064
 30
0.0
 10
104.1271785900054
 20
459.0527412656413
 30
0.0
 10
104.1784666749315
 20
457.7865671906076
 30
0.0
 10
104.2147065773572
 20
456.9251011239635
 30
0.0
 10
104.2247683092654
 20
456.7006837779786
 30
0.0
  0
SPLINE
  5
A1
330
75
100
AcDbEntity
  8
DV1_Standard
  6
Continuous
 62
     7
100
AcDbSpline
210
0.0
220
0.0
230
1.0
 70
     8
 71
     3
 72
    25
 73
    21
 74
     0
 42
0.0000000004258281
 43
0.0000000001
 40
0.0
 40
0.0
 40
0.0
 40
0.0
 40
0.0445384598857368
 40
0.1810798991290913
 40
0.3180200516193923
 40
0.3525646109270263
 40
0.3704601506004795
 40
0.3893097909480509
 40
0.4268936213724622
 40
0.462801329054256
 40
0.4984648326325416
 40
0.5343423343685954
 40
0.5519668445549912
 40
0.606258647142336
 40
0.6697969028635798
 40
0.7502303540307402
 40
0.8222766092548778
 40
0.8943429984405667
 40
0.976696217294747
 40
1.0
 40
1.0
 40
1.0
 40
1.0
 10
104.2247683092654
 20
456.7006837779786
 30
0.0
 10
104.2296395436837
 20
456.5920355343363
 30
0.0
 10
104.2503256607996
 20
456.143426093724
 30
0.0
 10
104.2945493977934
 20
455.3113574442368
 30
0.0
 10
104.3482928735991
 20
454.7546947545991
 30
0.0
 10
104.4381154001788
 20
454.2826679247924
 30
0.0
 10
104.4961039823837
 20
454.1927168221006
 30
0.0
 10
104.6080629340582
 20
454.075915086563
 30
0.0
 10
104.9154073178306
 20
453.7711419720008
 30
0.0
 10
105.4429407521364
 20
453.5012887097104
 30
0.0
 10
106.0838691554085
 20
453.2904738647566
 30
0.0
 10
106.7127028150654
 20
453.1288235428696
 30
0.0
 10
107.5560738941032
 20
452.8847136191267
 30
0.0
 10
108.764709689014
 20
452.6025881572709
 30
0.0
 10
110.8728946777943
 20
452.2457287006312
 30
0.0
 10
113.5722870275188
 20
451.9425221286499
 30
0.0
 10
116.7198061535243
 20
451.6423995742859
 30
0.0
 10
120.1401211411639
 20
451.4095926716856
 30
0.0
 10
122.9584429259101
 20
451.3979102535917
 30
0.0
 10
124.6401302943285
 20
451.3991745940092
 30
0.0
 10
125.0110443890271
 20
451.3992897120002
 30
0.0
  0
SPLINE
  5
A2
330
75
100
AcDbEntity
  8
DV1_Standard
  6
Continuous
 62
     7
100
AcDbSpline
210
0.0
220
0.0
230
1.0
 70
     8
 71
     3
 72
    34
 73
    30
 74
     0
 42
0.0000000003486157
 43
0.0000000001
 40
0.0
 40
0.0
 40
0.0
 40
0.0
 40
0.2499999999999989
 40
0.2499999999999989
 40
0.4999999999999979
 40
0.4999999999999979
 40
0.6249999999999973
 40
0.6249999999999973
 40
0.749999999999997
 40
0.749999999999997
 40
0.8124999999999969
 40
0.8124999999999969
 40
0.8437499999999969
 40
0.8437499999999969
 40
0.859374999999997
 40
0.859374999999997
 40
0.8749999999999972
 40
0.8749999999999972
 40
0.906249999999998
 40
0.906249999999998
 40
0.9374999999999986
 40
0.9374999999999986
 40
0.953124999999999
 40
0.953124999999999
 40
0.9687499999999993
 40
0.9687499999999993
 40
0.9843749999999998
 40
0.9843749999999998
 40
1.0
 40
1.0
 40
1.0
 40
1.0
 10
104.3933316577782
 20
470.5496570653453
 30
0.0
 10
104.3970467871702
 20
470.539791482498
 30
0.0
 10
104.4050096546027
 20
470.5267185520721
 30
0.0
 10
104.4397520240238
 20
470.3165085795905
 30
0.0
 10
104.4662662097377
 20
470.141021074025
 30
0.0
 10
104.5302431831263
 20
469.1280950997309
 30
0.0
 10
104.5555689808277
 20
468.647935570087
 30
0.0
 10
104.6185361351853
 20
467.2867942442617
 30
0.0
 10
104.6547864246443
 20
466.419181247844
 30
0.0
 10
104.733555164974
 20
464.8607087452004
 30
0.0
 10
104.761624602882
 20
464.2960651777655
 30
0.0
 10
104.8341212235486
 20
463.3760605198044
 30
0.0
 10
104.8558122227868
 20
463.0571363373732
 30
0.0
 10
104.9585873304599
 20
462.5600508184285
 30
0.0
 10
104.9938925096132
 20
462.3911368321147
 30
0.0
 10
105.3807692674276
 20
462.0517198902081
 30
0.0
 10
105.6873842075376
 20
461.8854479880775
 30
0.0
 10
106.7760735509301
 20
461.3894002368895
 30
0.0
 10
107.7731297371349
 20
461.0603949380596
 30
0.0
 10
110.2420526787948
 20
460.4605015128148
 30
0.0
 10
111.7477064716275
 20
460.1822991205992
 30
0.0
 10
114.2502356214987
 20
459.8377580630431
 30
0.0
 10
115.1273305437472
 20
459.7341620718145
 30
0.0
 10
116.9699252187893
 20
459.5515664098353
 30
0.0
 10
117.9387336613874
 20
459.4726883488502
 30
0.0
 10
119.8980112837902
 20
459.3469292934078
 30
0.0
 10
120.8965631800489
 20
459.2991115073256
 30
0.0
 10
122.9318561460542
 20
459.2346363028422
 30
0.0
 10
123.9777512047149
 20
459.2181285285066
 30
0.0
 10
125.0110445126211
 20
459.2183268387737
 30
0.0
  0
SPLINE
  5
A3
330
75
100
AcDbEntity
  8
DV1_Standard
  6
Continuous
 62
     7
100
AcDbSpline
210
0.0
220
0.0
230
1.0
 70
     8
 71
     3
 72
    30
 73
    26
 74
     0
 42
0.0000000003429399
 43
0.0000000001
 40
0.0
 40
0.0
 40
0.0
 40
0.0
 40
0.0312500000000006
 40
0.0312500000000006
 40
0.0625000000000011
 40
0.0625000000000011
 40
0.0937500000000017
 40
0.0937500000000017
 40
0.1250000000000023
 40
0.1250000000000023
 40
0.1406250000000026
 40
0.1406250000000026
 40
0.1562500000000029
 40
0.1562500000000029
 40
0.1875000000000031
 40
0.1875000000000031
 40
0.250000000000003
 40
0.250000000000003
 40
0.3750000000000025
 40
0.3750000000000025
 40
0.500000000000002
 40
0.500000000000002
 40
0.750000000000001
 40
0.750000000000001
 40
1.0
 40
1.0
 40
1.0
 40
1.0
 10
125.011044512624
 20
458.7283936785914
 30
0.0
 10
122.9496289471042
 20
458.7280175295807
 30
0.0
 10
120.8537896339074
 20
458.7916924723322
 30
0.0
 10
116.916774560835
 20
459.0329539919734
 30
0.0
 10
115.0209285696991
 20
459.2133666062033
 30
0.0
 10
111.6328759478456
 20
459.6575716380942
 30
0.0
 10
110.1052688661191
 20
459.9252325874402
 30
0.0
 10
107.5581969464186
 20
460.5092079625932
 30
0.0
 10
106.5330801806129
 20
460.8257948227627
 30
0.0
 10
105.3701221039465
 20
461.3150289205746
 30
0.0
 10
105.0407853182714
 20
461.4799782643932
 30
0.0
 10
104.5740840929928
 20
461.8069740435315
 30
0.0
 10
104.4895674365727
 20
461.9693283502145
 30
0.0
 10
104.3616003471387
 20
462.4674141706024
 30
0.0
 10
104.3427287511621
 20
462.7904220328223
 30
0.0
 10
104.2658300343965
 20
463.7198023924581
 30
0.0
 10
104.2375817435755
 20
464.2906748747951
 30
0.0
 10
104.1572100472889
 20
465.8653669678707
 30
0.0
 10
104.1206488937615
 20
466.7415824159527
 30
0.0
 10
104.0569571405689
 20
468.1209293711379
 30
0.0
 10
104.0313725561205
 20
468.6087963399682
 30
0.0
 10
103.9667812386782
 20
469.6369040604722
 30
0.0
 10
103.9400571831463
 20
469.8143276103164
 30
0.0
 10
103.9050627582235
 20
470.026748769299
 30
0.0
 10
103.8970594669141
 20
470.0397575049926
 30
0.0
 10
103.8933317113492
 20
470.0496566942066
 30
0.0
  0
SPLINE
  5
A4
330
75
100
AcDbEntity
  8
DV1_Standard
  6
Continuous
 62
     7
100
AcDbSpline
210
0.0
220
0.0
230
1.0
 70
     8
 71
     3
 72
    13
 73
     9
 74
     0
 42
0.0000000007838197
 43
0.0000000001
 40
0.0
 40
0.0
 40
0.0
 40
0.0
 40
0.0578495549082458
 40
0.1161347044531585
 40
0.3662270760044343
 40
0.6165299080285302
 40
0.866173179253903
 40
1.0
 40
1.0
 40
1.0
 40
1.0
 10
125.0110431598601
 20
450.9221858931771
 30
0.0
 10
124.7462219349538
 20
450.9234742451661
 30
0.0
 10
124.2145840255681
 20
450.9225155992866
 30
0.0
 10
122.5408750499476
 20
450.9143869605888
 30
0.0
 10
120.0017426794835
 20
450.9417301664046
 30
0.0
 10
116.7414438433797
 20
451.1568596411948
 30
0.0
 10
114.1856890689174
 20
451.4032405486244
 30
0.0
 10
112.7627835280061
 20
451.5548013181191
 30
0.0
 10
112.2833269691345
 20
451.6099514234106
 30
0.0
  0
SPLINE
  5
A5
330
75
100
AcDbEntity
  8
DV1_Standard
  6
Continuous
 62
     7
100
AcDbSpline
210
0.0
220
0.0
230
1.0
 70
     8
 71
     3
 72
    17
 73
    13
 74
     0
 42
0.0000000011539534
 43
0.0000000001
 40
0.0
 40
0.0
 40
0.0
 40
0.0
 40
0.0789064565137599
 40
0.2490518286072708
 40
0.4183306162858598
 40
0.4957765520701624
 40
0.5872769233219328
 40
0.6921614895416032
 40
0.7603308382113234
 40
0.8095245822847468
 40
0.9287065561122286
 40
1.0
 40
1.0
 40
1.0
 40
1.0
 10
112.2833269691345
 20
451.6099514234106
 30
0.0
 10
111.8682059899851
 20
451.6577012461739
 30
0.0
 10
110.5984741749593
 20
451.8137540348163
 30
0.0
 10
108.7031125786618
 20
452.1254129513616
 30
0.0
 10
107.1793088962673
 20
452.5312992429609
 30
0.0
 10
106.1659617031617
 20
452.7984780737109
 30
0.0
 10
105.4678894133326
 20
453.0222136962308
 30
0.0
 10
104.940304334955
 20
453.3080928167986
 30
0.0
 10
104.6490887359134
 20
453.6133816154417
 30
0.0
 10
104.5090109498688
 20
453.7246867561228
 30
0.0
 10
104.4528543219233
 20
453.9556009685774
 30
0.0
 10
104.4206588157233
 20
454.1376034697259
 30
0.0
 10
104.4101835064893
 20
454.2033572034037
 30
0.0
  0
SPLINE
  5
A6
330
75
100
AcDbEntity
  8
DV1_Standard
  6
Continuous
 62
     7
100
AcDbSpline
210
0.0
220
0.0
230
1.0
 70
    12
 71
     3
 72
    26
 73
    22
 74
     0
 42
0.000000000472014
 43
0.0000000001
 40
0.0
 40
0.0
 40
0.0
 40
0.0
 40
0.0493224675009289
 40
0.0493224675009289
 40
0.1553531627706742
 40
0.1553531627706742
 40
0.3674145533101739
 40
0.3674145533101739
 40
0.5794759438496718
 40
0.5794759438496718
 40
0.6855066391194208
 40
0.6855066391194208
 40
0.7915373343891717
 40
0.7915373343891717
 40
0.8445526820240462
 40
0.8445526820240462
 40
0.8975680296589225
 40
0.8975680296589225
 40
0.950583377293797
 40
0.950583377293797
 40
1.0
 40
1.0
 40
1.0
 40
1.0
 10
125.0110431598601
 20
450.9221858931771
 30
0.0
 41
1.0
 10
125.5400152015785
 20
450.9206398754267
 30
0.0
 41
1.0
 10
126.070656520198
 20
450.9205089587989
 30
0.0
 41
1.0
 10
127.7516539420306
 20
450.917103949426
 30
0.0
 41
1.0
 10
128.8849248629531
 20
450.9286955366571
 30
0.0
 41
1.0
 10
132.2140612391352
 20
451.0569697391191
 30
0.0
 41
1.0
 10
134.3535866653378
 20
451.2574632802343
 30
0.0
 41
1.0
 10
138.1486337569317
 20
451.6411727230814
 30
0.0
 41
1.0
 10
139.8632687490698
 20
451.85706098652
 30
0.0
 41
1.0
 10
141.9407217454149
 20
452.2898090728667
 30
0.0
 41
1.0
 10
142.5601746868964
 20
452.4536656349921
 30
0.0
 41
1.0
 10
143.643607770665
 20
452.7450865724024
 30
0.0
 41
1.0
 10
144.107990080341
 20
452.8640660415537
 30
0.0
 41
1.0
 10
144.6906303000146
 20
453.1017375337375
 30
0.0
 41
1.0
 10
144.8659514088842
 20
453.192236328617
 30
0.0
 41
1.0
 10
145.1664420458515
 20
453.4001471806168
 30
0.0
 41
1.0
 10
145.2904498699874
 20
453.523664961722
 30
0.0
 41
1.0
 10
145.4484087613285
 20
453.6837123386854
 30
0.0
 41
1.0
 10
145.4835628670043
 20
453.7143788411655
 30
0.0
 41
1.0
 10
145.5379086228235
 20
453.8301738607625
 30
0.0
 41
1.0
 10
145.5564988659329
 20
453.9088422594743
 30
0.0
 41
1.0
 10
145.5722008206617
 20
453.9846423462196
 30
0.0
 41
1.0
  0
SPLINE
  5
A7
330
75
100
AcDbEntity
  8
DV1_Standard
  6
Continuous
 62
     7
100
AcDbSpline
210
0.0
220
0.0
230
1.0
 70
    12
 71
     3
 72
    10
 73
     6
 74
     0
 42
0.0000000459135253
 43
0.0000000001
 40
0.0
 40
0.0
 40
0.0
 40
0.0
 40
0.0736365549793427
 40
0.0736365549793427
 40
1.0
 40
1.0
 40
1.0
 40
1.0
 10
145.5722008206617
 20
453.9846423462196
 30
0.0
 41
1.0
 10
145.573344302608
 20
453.9901624252301
 30
0.0
 41
1.0
 10
145.5744724669187
 20
453.995667292547
 30
0.0
 41
1.0
 10
145.589610019229
 20
454.0700833249596
 30
0.0
 41
1.0
 10
145.6013484015731
 20
454.1355845016724
 30
0.0
 41
1.0
 10
145.6114641565444
 20
454.1988402267544
 30
0.0
 41
1.0
  0
SPLINE
  5
A8
330
75
100
AcDbEntity
  8
DV1_Standard
  6
Continuous
 62
     7
100
AcDbSpline
210
0.0
220
0.0
230
1.0
 70
    12
 71
     3
 72
    44
 73
    40
 74
     0
 42
0.0000000003507776
 43
0.0000000001
 40
0.0
 40
0.0
 40
0.0
 40
0.0
 40
0.0639491004719633
 40
0.0639491004719633
 40
0.3019391768204889
 40
0.3019391768204889
 40
0.4209342149947518
 40
0.4209342149947518
 40
0.5399292531690147
 40
0.5399292531690147
 40
0.599426772256146
 40
0.599426772256146
 40
0.6291755317997116
 40
0.6291755317997116
 40
0.6589242913432772
 40
0.6589242913432772
 40
0.6886730508868429
 40
0.6886730508868429
 40
0.7184218104304085
 40
0.7184218104304085
 40
0.7332961902021913
 40
0.7332961902021913
 40
0.7481705699739741
 40
0.7481705699739741
 40
0.7630449497457575
 40
0.7630449497457575
 40
0.7779193295175402
 40
0.7779193295175402
 40
0.8076680890611064
 40
0.8076680890611064
 40
0.837416848604672
 40
0.837416848604672
 40
0.8969143676918033
 40
0.8969143676918033
 40
0.9564118867789344
 40
0.9564118867789344
 40
0.9861606463225
 40
0.9861606463225
 40
1.0
 40
1.0
 40
1.0
 40
1.0
 10
146.0385691782013
 20
461.7246471727086
 30
0.0
 41
1.0
 10
146.0335357607156
 20
461.6819037127381
 30
0.0
 41
1.0
 10
146.0282158633185
 20
461.6324674591883
 30
0.0
 41
1.0
 10
146.0016461987645
 20
461.3597892885195
 30
0.0
 41
1.0
 10
145.9765529538356
 20
461.0268879912774
 30
0.0
 41
1.0
 10
145.9294522394574
 20
459.9565522396062
 30
0.0
 41
1.0
 10
145.9121604312227
 20
459.5066735300799
 30
0.0
 41
1.0
 10
145.8729962986888
 20
458.5100168485465
 30
0.0
 41
1.0
 10
145.851264689427
 20
457.962801446657
 30
0.0
 41
1.0
 10
145.8121967638096
 20
457.044823278073
 30
0.0
 41
1.0
 10
145.7980935206144
 20
456.7139932363796
 30
0.0
 41
1.0
 10
145.773957326604
 20
456.197787346399
 30
0.0
 41
1.0
 10
145.7654062423466
 20
456.0235373980847
 30
0.0
 41
1.0
 10
145.7467396340496
 20
455.6842213257398
 30
0.0
 41
1.0
 10
145.7366473699731
 20
455.5198021617487
 30
0.0
 41
1.0
 10
145.7137161339828
 20
455.2153586463347
 30
0.0
 41
1.0
 10
145.7009752954303
 20
455.0774502660834
 30
0.0
 41
1.0
 10
145.669445768623
 20
454.7999013444076
 30
0.0
 41
1.0
 10
145.6514404922913
 20
454.6570303206657
 30
0.0
 41
1.0
 10
145.608998086329
 20
454.4135599994396
 30
0.0
 41
1.0
 10
145.5927969840906
 20
454.3284925761522
 30
0.0
 41
1.0
 10
145.5439279868326
 20
454.2098731151558
 30
0.0
 41
1.0
 10
145.5128818566613
 20
454.1788458656393
 30
0.0
 41
1.0
 10
145.3486775356177
 20
454.0101041485692
 30
0.0
 41
1.0
 10
145.2214756169118
 20
453.8848062826025
 30
0.0
 41
1.0
 10
144.9229149675978
 20
453.6782685073759
 30
0.0
 41
1.0
 10
144.7500425966225
 20
453.5887378281336
 30
0.0
 41
1.0
 10
144.1726631154904
 20
453.3521646519943
 30
0.0
 41
1.0
 10
143.7089031416657
 20
453.2323764321861
 30
0.0
 41
1.0
 10
142.6152972916266
 20
452.9373562503155
 30
0.0
 41
1.0
 10
141.9923709628663
 20
452.7730773594661
 30
0.0
 41
1.0
 10
139.9065201738534
 20
452.3406093661359
 30
0.0
 41
1.0
 10
138.1874193781681
 20
452.12601332757
 30
0.0
 41
1.0
 10
134.3733978707542
 20
451.7411657309142
 30
0.0
 41
1.0
 10
132.229617043479
 20
451.5395551651783
 30
0.0
 41
1.0
 10
128.9029585311523
 20
451.4090136589109
 30
0.0
 41
1.0
 10
127.7705906446085
 20
451.3965218556983
 30
0.0
 41
1.0
 10
126.080871570437
 20
451.3993093106483
 30
0.0
 41
1.0
 10
125.5451448815001
 20
451.3993438724143
 30
0.0
 41
1.0
 10
125.0110443890271
 20
451.3992897120002
 30
0.0
 41
1.0
  0
SPLINE
  5
A9
330
75
100
AcDbEntity
  8
DV1_Standard
  6
Continuous
 62
     7
100
AcDbSpline
210
0.0
220
0.0
230
1.0
 70
     8
 71
     3
 72
    30
 73
    26
 74
     0
 42
0.0000000003429399
 43
0.0000000001
 40
0.0
 40
0.0
 40
0.0
 40
0.0
 40
0.0312500000000003
 40
0.0312500000000003
 40
0.0625000000000005
 40
0.0625000000000005
 40
0.0937500000000008
 40
0.0937500000000008
 40
0.125000000000001
 40
0.125000000000001
 40
0.1406250000000012
 40
0.1406250000000012
 40
0.1562500000000013
 40
0.1562500000000013
 40
0.1875000000000011
 40
0.1875000000000011
 40
0.2500000000000012
 40
0.2500000000000012
 40
0.3750000000000009
 40
0.3750000000000009
 40
0.5000000000000007
 40
0.5000000000000007
 40
0.7500000000000003
 40
0.7500000000000003
 40
1.0
 40
1.0
 40
1.0
 40
1.0
 10
125.011044512624
 20
458.7283936785914
 30
0.0
 10
127.0724600781443
 20
458.7280175295797
 30
0.0
 10
129.1682993913422
 20
458.7916924723305
 30
0.0
 10
133.1053144644183
 20
459.0329539919702
 30
0.0
 10
135.0011604555562
 20
459.2133666061993
 30
0.0
 10
138.3892130774157
 20
459.6575716380892
 30
0.0
 10
139.9168201591449
 20
459.9252325874347
 30
0.0
 10
142.4638920788527
 20
460.5092079625873
 30
0.0
 10
143.4890088446615
 20
460.8257948227566
 30
0.0
 10
144.6519669213331
 20
461.3150289205684
 30
0.0
 10
144.9813037070097
 20
461.479978264387
 30
0.0
 10
145.4480049322938
 20
461.8069740435255
 30
0.0
 10
145.5325215887175
 20
461.9693283502085
 30
0.0
 10
145.6604886781536
 20
462.4674141705964
 30
0.0
 10
145.6793602741299
 20
462.7904220328167
 30
0.0
 10
145.7562589908957
 20
463.7198023924531
 30
0.0
 10
145.7845072817167
 20
464.2906748747905
 30
0.0
 10
145.8648789780035
 20
465.8653669678673
 30
0.0
 10
145.9014401315309
 20
466.7415824159498
 30
0.0
 10
145.9651318847235
 20
468.1209293711361
 30
0.0
 10
145.990716469172
 20
468.6087963399669
 30
0.0
 10
146.0553077866143
 20
469.6369040604719
 30
0.0
 10
146.0820318421462
 20
469.8143276103162
 30
0.0
 10
146.117026267069
 20
470.026748769299
 30
0.0
 10
146.1250295583784
 20
470.0397575049926
 30
0.0
 10
146.1287573139433
 20
470.0496566942066
 30
0.0
  0
SPLINE
  5
AA
330
75
100
AcDbEntity
  8
DV1_Standard
  6
Continuous
 62
     7
100
AcDbSpline
210
0.0
220
0.0
230
1.0
 70
     8
 71
     3
 72
    34
 73
    30
 74
     0
 42
0.0000000003486157
 43
0.0000000001
 40
0.0
 40
0.0
 40
0.0
 40
0.0
 40
0.2500000000000003
 40
0.2500000000000003
 40
0.5000000000000006
 40
0.5000000000000006
 40
0.6250000000000006
 40
0.6250000000000006
 40
0.7500000000000006
 40
0.7500000000000006
 40
0.8125000000000004
 40
0.8125000000000004
 40
0.8437500000000003
 40
0.8437500000000003
 40
0.8593750000000006
 40
0.8593750000000006
 40
0.8750000000000007
 40
0.8750000000000007
 40
0.9062500000000006
 40
0.9062500000000006
 40
0.9375000000000004
 40
0.9375000000000004
 40
0.9531250000000004
 40
0.9531250000000004
 40
0.9687500000000003
 40
0.9687500000000003
 40
0.9843750000000002
 40
0.9843750000000002
 40
1.0
 40
1.0
 40
1.0
 40
1.0
 10
145.6287573675143
 20
470.5496570653453
 30
0.0
 10
145.6250422381223
 20
470.539791482498
 30
0.0
 10
145.6170793706898
 20
470.5267185520721
 30
0.0
 10
145.5823370012687
 20
470.3165085795903
 30
0.0
 10
145.5558228155548
 20
470.1410210740248
 30
0.0
 10
145.4918458421662
 20
469.1280950997295
 30
0.0
 10
145.4665200444647
 20
468.6479355700851
 30
0.0
 10
145.4035528901071
 20
467.2867942442585
 30
0.0
 10
145.367302600648
 20
466.4191812478401
 30
0.0
 10
145.2885338603183
 20
464.8607087451952
 30
0.0
 10
145.2604644224102
 20
464.2960651777599
 30
0.0
 10
145.1879678017433
 20
463.376060519798
 30
0.0
 10
145.1662768025053
 20
463.0571363373667
 30
0.0
 10
145.0635016948308
 20
462.5600508184216
 30
0.0
 10
145.0281965156749
 20
462.3911368321077
 30
0.0
 10
144.6413197578531
 20
462.051719890201
 30
0.0
 10
144.3347048177415
 20
461.8854479880705
 30
0.0
 10
143.246015474343
 20
461.3894002368825
 30
0.0
 10
142.2489592881344
 20
461.0603949380527
 30
0.0
 10
139.7800363464666
 20
460.4605015128085
 30
0.0
 10
138.27438255363
 20
460.1822991205933
 30
0.0
 10
135.7718534037542
 20
459.8377580630381
 30
0.0
 10
134.8947584815041
 20
459.7341620718099
 30
0.0
 10
133.0521638064588
 20
459.5515664098315
 30
0.0
 10
132.0833553638598
 20
459.4726883488468
 30
0.0
 10
130.1240777414553
 20
459.3469292934053
 30
0.0
 10
129.1255258451957
 20
459.2991115073236
 30
0.0
 10
127.0902328791887
 20
459.2346363028412
 30
0.0
 10
126.0443378205273
 20
459.2181285285061
 30
0.0
 10
125.0110445126211
 20
459.2183268387737
 30
0.0
  0
LINE
  5
AB
330
75
100
AcDbEntity
  8
DV1_Standard
  6
Continuous
 62
     7
100
AcDbLine
 10
125.0112837265
 20
441.8222552851
 30
0.0
 11
107.7570936412
 21
441.8222552851
 31
0.0
  0
LINE
  5
AC
330
75
100
AcDbEntity
  8
DV1_Standard
  6
Continuous
 62
     7
100
AcDbLine
 10
142.2650897507
 20
441.8222552851
 30
0.0
 11
125.0112837265
 21
441.8222552851
 31
0.0
  0
LINE
  5
AD
330
75
100
AcDbEntity
  8
DV1_Standard
  6
Continuous
 62
     7
100
AcDbLine
 10
134.2103668652
 20
451.7325015215
 30
0.0
 11
134.5110445126
 21
451.7325015215
 31
0.0
  0
SPLINE
  5
AE
330
75
100
AcDbEntity
  8
DV1_Standard
  6
Continuous
 62
     7
100
AcDbSpline
210
0.0
220
0.0
230
1.0
 70
     8
 71
     3
 72
    10
 73
     6
 74
     0
 42
0.0000000073721534
 43
0.0000000001
 40
0.0
 40
0.0
 40
0.0
 40
0.0
 40
0.6869485910316111
 40
0.6869485910316111
 40
1.0
 40
1.0
 40
1.0
 40
1.0
 10
117.8610445126463
 20
463.7061092375044
 30
0.0
 10
117.8610445126463
 20
463.8456442958741
 30
0.0
 10
118.0446214397902
 20
463.9799370637567
 30
0.0
 10
118.5632949073177
 20
464.1601436405104
 30
0.0
 10
118.7612480131639
 20
464.2139757492521
 30
0.0
 10
118.9909827972712
 20
464.2645611682677
 30
0.0
  0
SPLINE
  5
AF
330
75
100
AcDbEntity
  8
DV1_Standard
  6
Continuous
 62
     7
100
AcDbSpline
210
0.0
220
0.0
230
1.0
 70
     8
 71
     3
 72
    20
 73
    16
 74
     0
 42
0.0000000006101448
 43
0.0000000001
 40
0.0
 40
0.0
 40
0.0
 40
0.0
 40
0.0489005573256053
 40
0.0489005573256053
 40
0.1545782731783137
 40
0.1545782731783137
 40
0.3659337048837336
 40
0.3659337048837336
 40
0.4716114207364445
 40
0.4716114207364445
 40
0.5772891365891557
 40
0.5772891365891557
 40
0.7886445682945777
 40
0.7886445682945777
 40
1.0
 40
1.0
 40
1.0
 40
1.0
 10
131.0271994266526
 20
464.2655864621809
 30
0.0
 10
131.2604833824811
 20
464.2143355679661
 30
0.0
 10
131.460314573865
 20
464.1598269547985
 30
0.0
 10
131.9797542726048
 20
463.9786782167595
 30
0.0
 10
132.1619685045826
 20
463.8428911249471
 30
0.0
 10
132.1591858136483
 20
463.4293609039773
 30
0.0
 10
131.3941355914819
 20
463.1415893466889
 30
0.0
 10
129.4249984215391
 20
462.827596547262
 30
0.0
 10
128.6302201162439
 20
462.7413116958078
 30
0.0
 10
126.8984211692908
 20
462.6244588590982
 30
0.0
 10
125.9623803098331
 20
462.5935067281663
 30
0.0
 10
123.1217619810504
 20
462.593217985953
 30
0.0
 10
121.2599101330647
 20
462.7221425579519
 30
0.0
 10
118.6274005611783
 20
463.1414407803846
 30
0.0
 10
117.8610445126463
 20
463.427039120765
 30
0.0
 10
117.8610445126463
 20
463.7061092375044
 30
0.0
  0
SPLINE
  5
B0
330
75
100
AcDbEntity
  8
DV1_Standard
  6
Continuous
 62
     7
100
AcDbSpline
210
0.0
220
0.0
230
1.0
 70
     8
 71
     3
 72
    10
 73
     6
 74
     0
 42
0.0000000124173213
 43
0.0000000001
 40
0.0
 40
0.0
 40
0.0
 40
0.0
 40
0.5
 40
0.5
 40
1.0
 40
1.0
 40
1.0
 40
1.0
 10
146.1287573139433
 20
470.0496566942066
 30
0.0
 10
146.1287574062517
 20
470.1817110076576
 30
0.0
 10
146.0746124773662
 20
470.3108426408359
 30
0.0
 10
145.8902619908257
 20
470.4953251560406
 30
0.0
 10
145.7608116815875
 20
470.5496570653453
 30
0.0
 10
145.6287573675143
 20
470.5496570653453
 30
0.0
  0
LINE
  5
B1
330
75
100
AcDbEntity
  8
DV1_Standard
  6
Continuous
 62
     7
100
AcDbLine
 10
103.8933365251
 20
462.0523914093
 30
0.0
 11
103.8933317113
 21
470.0496566942
 31
0.0
  0
LINE
  5
B2
330
75
100
AcDbEntity
  8
DV1_Standard
  6
Continuous
 62
     7
100
AcDbLine
 10
104.3933316578
 20
470.5496570653
 30
0.0
 11
119.0110445126
 21
470.5496570653
 31
0.0
  0
LINE
  5
B3
330
75
100
AcDbEntity
  8
DV1_Standard
  6
Continuous
 62
     7
100
AcDbLine
 10
131.0110445126
 20
470.5496570653
 30
0.0
 11
145.6287573675
 21
470.5496570653
 31
0.0
  0
LINE
  5
B4
330
75
100
AcDbEntity
  8
DV1_Standard
  6
Continuous
 62
     7
100
AcDbLine
 10
146.1287573139
 20
470.0496566942
 30
0.0
 11
146.1287525002
 21
462.0523914093
 31
0.0
  0
SPLINE
  5
B5
330
75
100
AcDbEntity
  8
DV1_Standard
  6
Continuous
 62
     7
100
AcDbSpline
210
0.0
220
0.0
230
1.0
 70
     8
 71
     3
 72
     8
 73
     4
 74
     0
 42
0.0000000197760543
 43
0.0000000001
 40
0.0
 40
0.0
 40
0.0
 40
0.0
 40
1.0
 40
1.0
 40
1.0
 40
1.0
 10
103.8933365250636
 20
462.0523914093261
 30
0.0
 10
103.8933359478996
 20
461.8846945425591
 30
0.0
 10
103.9247206827517
 20
461.7176616026377
 30
0.0
 10
103.985665293708
 20
461.5610957243918
 30
0.0
  0
SPLINE
  5
B6
330
75
100
AcDbEntity
  8
DV1_Standard
  6
Continuous
 62
     7
100
AcDbSpline
210
0.0
220
0.0
230
1.0
 70
     8
 71
     3
 72
     8
 73
     4
 74
     0
 42
0.0000000197760543
 43
0.0000000001
 40
0.0
 40
0.0
 40
0.0
 40
0.0
 40
1.0
 40
1.0
 40
1.0
 40
1.0
 10
146.0364237315717
 20
461.5610957247765
 30
0.0
 10
146.0973683397843
 20
461.7176615955366
 30
0.0
 10
146.128753077393
 20
461.8846945502527
 30
0.0
 10
146.1287525002304
 20
462.0523914093149
 30
0.0
  0
SPLINE
  5
B7
330
75
100
AcDbEntity
  8
DV1_Standard
  6
Continuous
 62
     7
100
AcDbSpline
210
0.0
220
0.0
230
1.0
 70
     8
 71
     3
 72
    10
 73
     6
 74
     0
 42
0.0000000124173213
 43
0.0000000001
 40
0.0
 40
0.0
 40
0.0
 40
0.0
 40
0.5
 40
0.5
 40
1.0
 40
1.0
 40
1.0
 40
1.0
 10
104.3933316577782
 20
470.5496570653453
 30
0.0
 10
104.2612773441122
 20
470.5496570653453
 30
0.0
 10
104.1321457535698
 20
470.4955120172521
 30
0.0
 10
103.9476634111135
 20
470.3111613623821
 30
0.0
 10
103.8933316190408
 20
470.1817110073748
 30
0.0
 10
103.8933317113492
 20
470.0496566942066
 30
0.0
  0
ARC
  5
B8
330
75
100
AcDbEntity
  8
DV1_Standard
  6
Continuous
 62
     7
100
AcDbCircle
 10
160.291397534
 20
461.8286648021
 30
0.0
 40
56.39957063180735
100
AcDbArc
 50
187.7723817719
 51
200.5739587855
  0
SPLINE
  5
B9
330
75
100
AcDbEntity
  8
DV1_Standard
  6
Continuous
 62
     7
100
AcDbSpline
210
0.0
220
0.0
230
1.0
 70
     8
 71
     3
 72
    15
 73
    11
 74
     0
 42
0.000000003519666
 43
0.0000000001
 40
0.0
 40
0.0
 40
0.0
 40
0.0
 40
0.1239193508008177
 40
0.3390055255265029
 40
0.4911260953808222
 40
0.6356790527172792
 40
0.7729686216296752
 40
0.904379849228994
 40
0.9935184093326515
 40
1.0
 40
1.0
 40
1.0
 40
1.0
 10
104.2275642089617
 20
456.6112911478504
 30
0.0
 10
104.2333918068997
 20
456.4759962661429
 30
0.0
 10
104.2471055769102
 20
456.1642099044268
 30
0.0
 10
104.2732330245397
 20
455.6340931598986
 30
0.0
 10
104.3046563970037
 20
455.1532524941605
 30
0.0
 10
104.3398933034372
 20
454.7974020879647
 30
0.0
 10
104.3821690216796
 20
454.4439695323403
 30
0.0
 10
104.457821317373
 20
454.0845221484386
 30
0.0
 10
104.5323329550852
 20
453.9886581742914
 30
0.0
 10
104.6586392249635
 20
453.8813423167439
 30
0.0
 10
104.6685806256872
 20
453.8729314090438
 30
0.0
  0
SPLINE
  5
BA
330
75
100
AcDbEntity
  8
DV1_Standard
  6
Continuous
 62
     7
100
AcDbSpline
210
0.0
220
0.0
230
1.0
 70
     8
 71
     3
 72
    23
 73
    19
 74
     0
 42
0.0000000276997021
 43
0.0000000001
 40
0.0
 40
0.0
 40
0.0
 40
0.0
 40
0.0088916124428402
 40
0.1414157643860324
 40
0.2729901049334569
 40
0.3233227054736065
 40
0.3724715670239692
 40
0.4222168959075132
 40
0.4772032682637452
 40
0.5171464429942341
 40
0.562431352459045
 40
0.6143095630680048
 40
0.6740322681019542
 40
0.7272751475050044
 40
0.7867392793190104
 40
0.8530307107492646
 40
0.9267552464893227
 40
1.0
 40
1.0
 40
1.0
 40
1.0
 10
103.9761819004275
 20
461.6936278130004
 30
0.0
 10
103.9761728764073
 20
461.6936266870621
 30
0.0
 10
103.9760495509235
 20
461.6935219787412
 30
0.0
 10
103.9764215441175
 20
461.6906905904781
 30
0.0
 10
103.9779703306339
 20
461.6815543093895
 30
0.0
 10
103.9796287160675
 20
461.6711329541542
 30
0.0
 10
103.9808673603313
 20
461.6631066895596
 30
0.0
 10
103.9823665250174
 20
461.653066930482
 30
0.0
 10
103.9841071143819
 20
461.640876870798
 30
0.0
 10
103.986068791554
 20
461.6264516459522
 30
0.0
 10
103.9881992413362
 20
461.6101003522386
 30
0.0
 10
103.9908740461744
 20
461.5885537458792
 30
0.0
 10
103.9939286481694
 20
461.5625796212499
 30
0.0
 10
103.9973462357855
 20
461.5319255539648
 30
0.0
 10
104.0011108916611
 20
461.496401664761
 30
0.0
 10
104.0055242489924
 20
461.4523975995426
 30
0.0
 10
104.0106219021542
 20
461.3987157499128
 30
0.0
 10
104.0140435280027
 20
461.3587740771195
 30
0.0
 10
104.0160749539999
 20
461.3349932812058
 30
0.0
  0
ARC
  5
BB
330
75
100
AcDbEntity
  8
DV1_Standard
  6
Continuous
 62
     7
100
AcDbCircle
 10
88.9504651036
 20
462.0189550356
 30
0.0
 40
57.19812781111761
100
AcDbArc
 50
339.5242157642
 51
352.0419302626
  0
ARC
  5
BC
330
75
100
AcDbEntity
  8
DV1_Standard
  6
Continuous
 62
     7
100
AcDbCircle
 10
88.9504651036
 20
462.0189550356
 30
0.0
 40
57.19812781111761
100
AcDbArc
 50
352.0810910411
 51
352.1393005697
  0
ARC
  5
BD
330
75
100
AcDbEntity
  8
DV1_Standard
  6
Continuous
 62
     7
100
AcDbCircle
 10
107.757092346
 20
442.1222551099
 30
0.0
 40
0.2999998247384157
100
AcDbArc
 50
202.8314964131
 51
270.0057084133
  0
ARC
  5
BE
330
75
100
AcDbEntity
  8
DV1_Standard
  6
Continuous
 62
     7
100
AcDbCircle
 10
142.2649889381
 20
442.1222550208
 30
0.0
 40
0.2999996061196462
100
AcDbArc
 50
269.9913309843
 51
337.3237516404
  0
SPLINE
  5
BF
330
75
100
AcDbEntity
  8
DV1_Standard
  6
Continuous
 62
     7
100
AcDbSpline
210
0.0
220
0.0
230
1.0
 70
     8
 71
     6
 72
    14
 73
     7
 74
     0
 42
0.0000000000242468
 43
0.0000000001
 40
0.0
 40
0.0
 40
0.0
 40
0.0
 40
0.0
 40
0.0
 40
0.0
 40
1.0
 40
1.0
 40
1.0
 40
1.0
 40
1.0
 40
1.0
 40
1.0
 10
134.011098597888
 20
495.1391645994036
 30
0.0
 10
177.4387413288539
 20
485.0865351137787
 30
0.0
 10
198.212063801788
 20
418.9709765109853
 30
0.0
 10
125.0110445126454
 20
362.6923053182589
 30
0.0
 10
51.81002522350609
 20
418.9709765109852
 30
0.0
 10
72.5833476964388
 20
485.0865351137785
 30
0.0
 10
116.0109904274044
 20
495.1391645994036
 30
0.0
  0
SPLINE
  5
C0
330
75
100
AcDbEntity
  8
DV1_Standard
  6
Continuous
 62
     7
100
AcDbSpline
210
0.0
220
0.0
230
1.0
 70
     8
 71
     3
 72
    65
 73
    61
 74
     0
 42
0.0000000000440264
 43
0.0000000001
 40
0.0
 40
0.0
 40
0.0
 40
0.0
 40
0.010730877968808
 40
0.0276022267069864
 40
0.0444735754451648
 40
0.0613449241833431
 40
0.0950876216596999
 40
0.1119589703978783
 40
0.1288303191360567
 40
0.1457016678742351
 40
0.1625730166124135
 40
0.1794443653506354
 40
0.1963157140888138
 40
0.2131870628269922
 40
0.2300584115651706
 40
0.246929760303349
 40
0.2638011090415274
 40
0.2806724577797058
 40
0.2975438065178841
 40
0.3144151552560626
 40
0.3312865039942408
 40
0.3481578527324193
 40
0.3650292014705977
 40
0.3819005502087761
 40
0.3987718989469545
 40
0.4156432476851328
 40
0.4325145964233112
 40
0.4493859451614897
 40
0.466257293899668
 40
0.4831286426378464
 40
0.4999999913760247
 40
0.5168713401142033
 40
0.5337426888523816
 40
0.55061403759056
 40
0.5674853863287384
 40
0.5843567350669168
 40
0.6012280838051388
 40
0.6180994325433172
 40
0.6349707812814955
 40
0.6518421300196738
 40
0.6687134787578524
 40
0.6855848274960307
 40
0.7024561762342092
 40
0.7193275249723876
 40
0.7361988737105658
 40
0.7530702224487443
 40
0.7699415711869226
 40
0.7868129199251012
 40
0.8036842686632795
 40
0.8205556174014577
 40
0.8374269661396362
 40
0.8542983148778146
 40
0.8711696636159931
 40
0.8880410123541714
 40
0.9049123610923497
 40
0.9386550585687066
 40
0.9555264073068851
 40
0.9723977560450634
 40
0.9892691047832417
 40
1.0
 40
1.0
 40
1.0
 40
1.0
 10
134.0122183865286
 20
494.1116686970045
 30
0.0
 10
134.7993806073896
 20
493.924461205543
 30
0.0
 10
136.8066598894808
 20
493.3804363402155
 30
0.0
 10
139.9555881801493
 20
492.2506400749869
 30
0.0
 10
143.4005528088722
 20
490.61855459943
 30
0.0
 10
147.7620981555103
 20
488.0076567312989
 30
0.0
 10
151.7526680171283
 20
484.7401926677729
 30
0.0
 10
155.2231833010663
 20
480.9047831284389
 30
0.0
 10
157.4972449376433
 20
477.8281704036229
 30
0.0
 10
159.4600943083643
 20
474.5495526323939
 30
0.0
 10
161.0857515628003
 20
471.1076934167589
 30
0.0
 10
162.3714906710823
 20
467.5229333734799
 30
0.0
 10
163.3023528368243
 20
463.8195555915389
 30
0.0
 10
163.8702245015103
 20
460.0312743086219
 30
0.0
 10
164.0631392994603
 20
456.1635428692018
 30
0.0
 10
163.8705791718533
 20
452.2954693199849
 30
0.0
 10
163.3031752070813
 20
448.5067681665619
 30
0.0
 10
162.3723331984772
 20
444.8022740275519
 30
0.0
 10
161.0873052251953
 20
441.2170675186799
 30
0.0
 10
159.4608129009742
 20
437.7732678837649
 30
0.0
 10
157.4997287166932
 20
434.4955321809939
 30
0.0
 10
155.2223142703492
 20
431.4150347837089
 30
0.0
 10
152.6243546834363
 20
428.5433780992709
 30
0.0
 10
149.7541595920542
 20
425.9440216695319
 30
0.0
 10
146.6750237395222
 20
423.6652320250959
 30
0.0
 10
143.3985293776493
 20
421.7028615027149
 30
0.0
 10
139.9557971570842
 20
420.075195447018
 30
0.0
 10
136.3714467277452
 20
418.7891589616459
 30
0.0
 10
132.6675583401452
 20
417.8574721924289
 30
0.0
 10
128.8791579922913
 20
417.2894735189049
 30
0.0
 10
125.0110445126463
 20
417.0965113098399
 30
0.0
 10
121.1429310330012
 20
417.2894735189049
 30
0.0
 10
117.3545306851462
 20
417.8574721924289
 30
0.0
 10
113.6506422975472
 20
418.7891589616449
 30
0.0
 10
110.0662918682072
 20
420.075195447018
 30
0.0
 10
106.6235596476422
 20
421.702861502716
 30
0.0
 10
103.3470652857692
 20
423.6652320250959
 30
0.0
 10
100.2679294332382
 20
425.9440216695319
 30
0.0
 10
97.39773434185624
 20
428.543378099271
 30
0.0
 10
94.79977475494324
 20
431.415034783709
 30
0.0
 10
92.52236030859825
 20
434.495532180994
 30
0.0
 10
90.56127612431824
 20
437.7732678837659
 30
0.0
 10
88.93478380009725
 20
441.2170675186799
 30
0.0
 10
87.64975582681525
 20
444.802274027553
 30
0.0
 10
86.71891381821126
 20
448.5067681665619
 30
0.0
 10
86.15150985343925
 20
452.2954693199849
 30
0.0
 10
85.95894972583226
 20
456.1635428692022
 30
0.0
 10
86.15186452378227
 20
460.031274308622
 30
0.0
 10
86.71973618846826
 20
463.8195555915389
 30
0.0
 10
87.65059835421027
 20
467.5229333734799
 30
0.0
 10
88.93633746249228
 20
471.1076934167589
 30
0.0
 10
90.56199471692827
 20
474.549552632394
 30
0.0
 10
92.52484408764828
 20
477.8281704036229
 30
0.0
 10
94.79890572422626
 20
480.9047831284389
 30
0.0
 10
98.26942100816427
 20
484.740192667773
 30
0.0
 10
102.2599908697823
 20
488.0076567312989
 30
0.0
 10
106.6215362164203
 20
490.6185545994309
 30
0.0
 10
110.0665008451433
 20
492.2506400749869
 30
0.0
 10
113.2154303570439
 20
493.3804367783793
 30
0.0
 10
115.2227109265001
 20
493.9244618854387
 30
0.0
 10
116.0098744344258
 20
494.1116695997113
 30
0.0
  0
ENDBLK
  5
C2
330
75
100
AcDbEntity
  8
0
100
AcDbBlockEnd
  0
BLOCK
  5
112
330
C3
100
AcDbEntity
  8
0
100
AcDbBlockBegin
  2
SE1
 70
     0
 10
0.0
 20
0.0
 30
0.0
  3
SE1
  1

  0
LINE
  5
C6
330
C3
100
AcDbEntity
  8
DV2_Standard
  6
Continuous
 62
     7
100
AcDbLine
 10
461.898560526
 20
476.9934099598
 30
0.0
 11
444.898560526
 21
476.9934099598
 31
0.0
  0
LINE
  5
C7
330
C3
100
AcDbEntity
  8
DV2_Standard
  6
Continuous
 62
     7
100
AcDbLine
 10
462.398560526
 20
495.6343083422
 30
0.0
 11
444.398560526
 21
495.6343083422
 31
0.0
  0
LINE
  5
C8
330
C3
100
AcDbEntity
  8
DV2_Standard
  6
Continuous
 62
     7
100
AcDbLine
 10
462.398560526
 20
477.4934099598
 30
0.0
 11
462.398560526
 21
495.6343083422
 31
0.0
  0
LINE
  5
C9
330
C3
100
AcDbEntity
  8
DV2_Standard
  6
Continuous
 62
     7
100
AcDbLine
 10
444.398560526
 20
495.6343083422
 30
0.0
 11
444.398560526
 21
477.4934099598
 31
0.0
  0
ARC
  5
CA
330
C3
100
AcDbEntity
  8
DV2_Standard
  6
Continuous
 62
     7
100
AcDbCircle
 10
453.398560526
 20
417.4934099598
 30
0.0
 40
80.0
100
AcDbArc
 50
84.5175184369
 51
90.0
  0
ARC
  5
CB
330
C3
100
AcDbEntity
  8
DV2_Standard
  6
Continuous
 62
     7
100
AcDbCircle
 10
453.398560526
 20
417.4934099598
 30
0.0
 40
80.0
100
AcDbArc
 50
90.0
 51
95.4824815631
  0
ARC
  5
CC
330
C3
100
AcDbEntity
  8
DV2_Standard
  6
Continuous
 62
     7
100
AcDbCircle
 10
444.898560526
 20
477.4934099598
 30
0.0
 40
0.5000000000000004
100
AcDbArc
 50
180.0
 51
270.0
  0
ARC
  5
CD
330
C3
100
AcDbEntity
  8
DV2_Standard
  6
Continuous
 62
     7
100
AcDbCircle
 10
461.898560526
 20
477.4934099598
 30
0.0
 40
0.5000000000000004
100
AcDbArc
 50
270.0
 51
0.0
  0
ARC
  5
CE
330
C3
100
AcDbEntity
  8
DV2_Standard
  6
Continuous
 62
     7
100
AcDbCircle
 10
460.898560526
 20
495.6343083422
 30
0.0
 40
1.500000000000001
100
AcDbArc
 50
0.0
 51
84.5175184369
  0
ARC
  5
CF
330
C3
100
AcDbEntity
  8
DV2_Standard
  6
Continuous
 62
     7
100
AcDbCircle
 10
445.898560526
 20
495.6343083422
 30
0.0
 40
1.500000000000008
100
AcDbArc
 50
95.4824815631
 51
180.0
  0
LINE
  5
D0
330
C3
100
AcDbEntity
  8
DV2_Standard
  6
Continuous
 62
     7
100
AcDbLine
 10
455.7964762876
 20
474.5934099598
 30
0.0
 11
451.0006447643
 21
474.5934099598
 31
0.0
  0
LINE
  5
D1
330
C3
100
AcDbEntity
  8
DV2_Standard
  6
Continuous
 62
     7
100
AcDbLine
 10
455.7964762876
 20
476.9934099598
 30
0.0
 11
455.7964762876
 21
474.5934099598
 31
0.0
  0
LINE
  5
D2
330
C3
100
AcDbEntity
  8
DV2_Standard
  6
Continuous
 62
     7
100
AcDbLine
 10
451.0006447643
 20
476.9934099598
 30
0.0
 11
451.0006447643
 21
474.5934099598
 31
0.0
  0
LINE
  5
D3
330
C3
100
AcDbEntity
  8
DV2_Standard
  6
Continuous
 62
     7
100
AcDbLine
 10
459.398560526
 20
462.7785868563
 30
0.0
 11
459.398560526
 21
476.9934099598
 31
0.0
  0
LINE
  5
D4
330
C3
100
AcDbEntity
  8
DV2_Standard
  6
Continuous
 62
     7
100
AcDbLine
 10
447.398560526
 20
476.9934099598
 30
0.0
 11
447.398560526
 21
464.5494549735
 31
0.0
  0
LINE
  5
D5
330
C3
100
AcDbEntity
  8
DV2_Standard
  6
Continuous
 62
     7
100
AcDbLine
 10
462.898560526
 20
427.2934099598
 30
0.0
 11
443.898560526
 21
427.2934099598
 31
0.0
  0
LINE
  5
D6
330
C3
100
AcDbEntity
  8
DV2_Standard
  6
Continuous
 62
     7
100
AcDbLine
 10
449.9669838619
 20
429.2934099598
 30
0.0
 11
438.4980330722
 21
429.2934099598
 31
0.0
  0
SPLINE
  5
D7
330
C3
100
AcDbEntity
  8
DV2_Standard
  6
Continuous
 62
     7
100
AcDbSpline
210
0.0
220
0.0
230
1.0
 70
     8
 71
     3
 72
    14
 73
    10
 74
     0
 42
0.0000000052093135
 43
0.0000000001
 40
0.0
 40
0.0
 40
0.0
 40
0.0
 40
0.25
 40
0.25
 40
0.5
 40
0.5
 40
0.75
 40
0.75
 40
1.0
 40
1.0
 40
1.0
 40
1.0
 10
449.9669838618618
 20
429.2934099598398
 30
0.0
 10
449.8086691811387
 20
429.2934099598398
 30
0.0
 10
449.6505604985021
 20
429.3004896261367
 30
0.0
 10
449.3345808285421
 20
429.3344786302061
 30
0.0
 10
449.1762190906302
 20
429.3615358896681
 30
0.0
 10
448.868871646673
 20
429.4429933983364
 30
0.0
 10
448.7172482179649
 20
429.4979225705791
 30
0.0
 10
448.4361725367634
 20
429.6477847634205
 30
0.0
 10
448.3035351563004
 20
429.7436305138269
 30
0.0
 10
448.2012430513595
 20
429.8707916980991
 30
0.0
  0
SPLINE
  5
D8
330
C3
100
AcDbEntity
  8
DV2_Standard
  6
Continuous
 62
     7
100
AcDbSpline
210
0.0
220
0.0
230
1.0
 70
     8
 71
     3
 72
    12
 73
     8
 74
     0
 42
0.0000000052031447
 43
0.0000000001
 40
0.0
 40
0.0
 40
0.0
 40
0.0
 40
0.2499999999999997
 40
0.2499999999999997
 40
0.4999999999999993
 40
0.4999999999999993
 40
1.0
 40
1.0
 40
1.0
 40
1.0
 10
458.5958780006159
 20
429.8707916980991
 30
0.0
 10
458.493145872961
 20
429.743083513553
 30
0.0
 10
458.3606435419686
 20
429.6475381981222
 30
0.0
 10
458.078833235767
 20
429.4974526472251
 30
0.0
 10
457.9290352722061
 20
429.4431858988669
 30
0.0
 10
457.46493266045
 20
429.3202303276908
 30
0.0
 10
457.1494791168196
 20
429.2934099598355
 30
0.0
 10
456.8301371901141
 20
429.2934099598398
 30
0.0
  0
LINE
  5
D9
330
C3
100
AcDbEntity
  8
DV2_Standard
  6
Continuous
 62
     7
100
AcDbLine
 10
456.8301371901
 20
429.2934099598
 30
0.0
 11
449.9669838619
 21
429.2934099598
 31
0.0
  0
LINE
  5
DA
330
C3
100
AcDbEntity
  8
DV2_Standard
  6
Continuous
 62
     7
100
AcDbLine
 10
459.2594963384
 20
430.3526703257
 30
0.0
 11
458.5958780006
 21
429.8707916981
 31
0.0
  0
LINE
  5
DB
330
C3
100
AcDbEntity
  8
DV2_Standard
  6
Continuous
 62
     7
100
AcDbLine
 10
448.2012430514
 20
429.8707916981
 30
0.0
 11
447.5376247136
 21
430.3526703257
 31
0.0
  0
ARC
  5
DC
330
C3
100
AcDbEntity
  8
DV2_Standard
  6
Continuous
 62
     7
100
AcDbCircle
 10
457.5831591894
 20
432.5870175944
 30
0.0
 40
2.79328014248641
100
AcDbArc
 50
306.8793610241
 51
357.5120151823
  0
LINE
  5
DD
330
C3
100
AcDbEntity
  8
DV2_Standard
  6
Continuous
 62
     7
100
AcDbLine
 10
446.4233148146
 20
432.4657616344
 30
0.0
 11
436.898560526
 21
432.4657616344
 31
0.0
  0
ARC
  5
DE
330
C3
100
AcDbEntity
  8
DV2_Standard
  6
Continuous
 62
     7
100
AcDbCircle
 10
449.2135350859
 20
432.5867925395
 30
0.0
 40
2.792844006135875
100
AcDbArc
 50
182.4837521938
 51
233.1248715998
  0
ARC
  5
DF
330
C3
100
AcDbEntity
  8
DV2_Standard
  6
Continuous
 62
     7
100
AcDbCircle
 10
459.7204999252
 20
434.1045133153
 30
0.0
 40
0.6556108364946143
100
AcDbArc
 50
4.8054328438
 51
57.8243853557
  0
ELLIPSE
  5
E0
330
C3
100
AcDbEntity
  8
DV2_Standard
  6
Continuous
 62
     7
100
AcDbEllipse
 10
453.398560526
 20
409.3126478463
 30
0.0
 11
1.387778780781446E-13
 21
-27.71281292110188
 31
0.0
210
0.0
220
0.0
230
1.0
 40
0.5953924651
 41
2.725371823505012
 42
3.557813483674568
  0
ARC
  5
E1
330
C3
100
AcDbEntity
  8
DV2_Standard
  6
Continuous
 62
     7
100
AcDbCircle
 10
447.0765516804
 20
434.1045555642
 30
0.0
 40
0.6555380959218148
100
AcDbArc
 50
122.1724434452
 51
175.1977383554
  0
LINE
  5
E2
330
C3
100
AcDbEntity
  8
DV2_Standard
  6
Continuous
 62
     7
100
AcDbLine
 10
446.4233148146
 20
432.4657616344
 30
0.0
 11
446.4233148146
 21
434.1594353636
 31
0.0
  0
LINE
  5
E3
330
C3
100
AcDbEntity
  8
DV2_Standard
  6
Continuous
 62
     7
100
AcDbLine
 10
460.3738062374
 20
434.1594353636
 30
0.0
 11
460.3738062374
 21
432.4657616344
 31
0.0
  0
LINE
  5
E4
330
C3
100
AcDbEntity
  8
DV2_Standard
  6
Continuous
 62
     7
100
AcDbLine
 10
456.8301371901
 20
429.2934099598
 30
0.0
 11
468.2990879798
 21
429.2934099598
 31
0.0
  0
LINE
  5
E5
330
C3
100
AcDbEntity
  8
DV2_Standard
  6
Continuous
 62
     7
100
AcDbLine
 10
460.3738062374
 20
432.4657616344
 30
0.0
 11
469.898560526
 21
432.4657616344
 31
0.0
  0
LINE
  5
E6
330
C3
100
AcDbEntity
  8
DV2_Standard
  6
Continuous
 62
     7
100
AcDbLine
 10
462.898560526
 20
427.2934099598
 30
0.0
 11
462.898560526
 21
429.2934099598
 31
0.0
  0
LINE
  5
E7
330
C3
100
AcDbEntity
  8
DV2_Standard
  6
Continuous
 62
     7
100
AcDbLine
 10
443.898560526
 20
429.2934099598
 30
0.0
 11
443.898560526
 21
427.2934099598
 31
0.0
  0
LINE
  5
E8
330
C3
100
AcDbEntity
  8
DV2_Standard
  6
Continuous
 62
     7
100
AcDbLine
 10
469.2053957668
 20
429.8707916981
 30
0.0
 11
469.4300994612
 21
430.3526703257
 31
0.0
  0
LINE
  5
E9
330
C3
100
AcDbEntity
  8
DV2_Standard
  6
Continuous
 62
     7
100
AcDbLine
 10
437.3670215908
 20
430.3526703257
 30
0.0
 11
437.5917252851
 21
429.8707916981
 31
0.0
  0
ARC
  5
EA
330
C3
100
AcDbEntity
  8
DV2_Standard
  6
Continuous
 62
     7
100
AcDbCircle
 10
468.2990879798
 20
430.2934099598
 30
0.0
 40
1.000000000000001
100
AcDbArc
 50
270.0
 51
335.0
  0
LINE
  5
EB
330
C3
100
AcDbEntity
  8
DV2_Standard
  6
Continuous
 62
     7
100
AcDbLine
 10
469.898560526
 20
432.4657616344
 30
0.0
 11
469.898560526
 21
441.8222552851
 31
0.0
  0
LINE
  5
EC
330
C3
100
AcDbEntity
  8
DV2_Standard
  6
Continuous
 62
     7
100
AcDbLine
 10
436.898560526
 20
441.7381841952
 30
0.0
 11
436.898560526
 21
432.4657616344
 31
0.0
  0
ARC
  5
ED
330
C3
100
AcDbEntity
  8
DV2_Standard
  6
Continuous
 62
     7
100
AcDbCircle
 10
441.898560526
 20
432.4657616344
 30
0.0
 40
5.000000000000004
100
AcDbArc
 50
180.0
 51
205.0
  0
ARC
  5
EE
330
C3
100
AcDbEntity
  8
DV2_Standard
  6
Continuous
 62
     7
100
AcDbCircle
 10
464.898560526
 20
432.4657616344
 30
0.0
 40
4.999999999999989
100
AcDbArc
 50
335.0
 51
0.0
  0
ARC
  5
EF
330
C3
100
AcDbEntity
  8
DV2_Standard
  6
Continuous
 62
     7
100
AcDbCircle
 10
438.4980330722
 20
430.2934099598
 30
0.0
 40
0.99999999999998
100
AcDbArc
 50
205.0
 51
270.0
  0
SPLINE
  5
F0
330
C3
100
AcDbEntity
  8
DV2_Standard
  6
Continuous
 62
     7
100
AcDbSpline
210
0.0
220
0.0
230
1.0
 70
     8
 71
     3
 72
    33
 73
    29
 74
     0
 42
0.0000000000529961
 43
0.0000000001
 40
0.0
 40
0.0
 40
0.0
 40
0.0
 40
0.1232717814880486
 40
0.2199623249240593
 40
0.373026158629184
 40
0.4798385127371538
 40
0.5509760758202644
 40
0.6097257862549187
 40
0.6747453689703593
 40
0.7397742046797351
 40
0.7723107584853252
 40
0.8048489773789119
 40
0.8374822107895333
 40
0.8457142789335564
 40
0.8499788376663517
 40
0.8544707613423688
 40
0.8634270965618136
 40
0.8719840068960805
 40
0.8804827226879528
 40
0.8890324348582057
 40
0.8932324064823155
 40
0.9061702996706679
 40
0.9213116493168351
 40
0.9404791727803836
 40
0.9576480032536592
 40
0.9748216317080589
 40
0.9944466413499519
 40
1.0
 40
1.0
 40
1.0
 40
1.0
 10
291.3954310823395
 20
462.0523914093261
 30
0.0
 10
299.6294705464814
 20
462.0649139566967
 30
0.0
 10
314.3220332224208
 20
462.0876396571531
 30
0.0
 10
339.2386790554343
 20
462.0799276137348
 30
0.0
 10
363.0556786586726
 20
461.9827030457882
 30
0.0
 10
385.1650132324025
 20
461.6919021643603
 30
0.0
 10
400.967916892812
 20
461.1669762381675
 30
0.0
 10
413.9653049511554
 20
460.3673467120064
 30
0.0
 10
426.5098674540547
 20
459.0527412656413
 30
0.0
 10
437.2863526977075
 20
457.6981378774458
 30
0.0
 10
445.8766592908736
 20
456.3841246927586
 30
0.0
 10
452.3156815138567
 20
455.3113574442368
 30
0.0
 10
457.187339301381
 20
454.7546947545991
 30
0.0
 10
460.1655435805499
 20
454.2826679247924
 30
0.0
 10
461.2954966658758
 20
454.1927168221006
 30
0.0
 10
462.4692269818389
 20
454.075915086563
 30
0.0
 10
463.8810780540941
 20
453.7711419720008
 30
0.0
 10
465.5160234949769
 20
453.5012887097104
 30
0.0
 10
467.0895032528222
 20
453.2904738647566
 30
0.0
 10
468.3534119341223
 20
453.1288235428696
 30
0.0
 10
469.8279024329963
 20
452.8847136191267
 30
0.0
 10
471.5982226513315
 20
452.6025881572709
 30
0.0
 10
473.9342423208843
 20
452.2457287006312
 30
0.0
 10
476.0758706250865
 20
451.9425221286499
 30
0.0
 10
477.7776042085425
 20
451.6423995742859
 30
0.0
 10
478.9414521996158
 20
451.4095926716856
 30
0.0
 10
479.3803550565635
 20
451.3979102535917
 30
0.0
 10
479.4072840540819
 20
451.3991745940092
 30
0.0
 10
479.4132351925703
 20
451.3992897120002
 30
0.0
  0
SPLINE
  5
F1
330
C3
100
AcDbEntity
  8
DV2_Standard
  6
Continuous
 62
     7
100
AcDbSpline
210
0.0
220
0.0
230
1.0
 70
     8
 71
     3
 72
    34
 73
    30
 74
     0
 42
0.0000000000530984
 43
0.0000000001
 40
0.0
 40
0.0
 40
0.0
 40
0.0
 40
0.2499999999999989
 40
0.2499999999999989
 40
0.4999999999999979
 40
0.4999999999999979
 40
0.6249999999999973
 40
0.6249999999999973
 40
0.749999999999997
 40
0.749999999999997
 40
0.8124999999999969
 40
0.8124999999999969
 40
0.8437499999999969
 40
0.8437499999999969
 40
0.859374999999997
 40
0.859374999999997
 40
0.8749999999999972
 40
0.8749999999999972
 40
0.906249999999998
 40
0.906249999999998
 40
0.9374999999999986
 40
0.9374999999999986
 40
0.953124999999999
 40
0.953124999999999
 40
0.9687499999999993
 40
0.9687499999999993
 40
0.9843749999999998
 40
0.9843749999999998
 40
1.0
 40
1.0
 40
1.0
 40
1.0
 10
291.3954315038196
 20
470.5496570653453
 30
0.0
 10
308.0592273952317
 20
470.539791482498
 30
0.0
 10
324.7232273670336
 20
470.5267185520721
 30
0.0
 10
358.0499112974153
 20
470.3165085795905
 30
0.0
 10
374.7116759167307
 20
470.141021074025
 30
0.0
 10
399.6876557240443
 20
469.1280950997309
 30
0.0
 10
408.0098332150624
 20
468.647935570087
 30
0.0
 10
424.6152668048054
 20
467.2867942442617
 30
0.0
 10
432.9056368110192
 20
466.419181247844
 30
0.0
 10
445.3071112673825
 20
464.8607087452004
 30
0.0
 10
449.4348345301204
 20
464.2960651777655
 30
0.0
 10
455.6163056087615
 20
463.3760605198044
 30
0.0
 10
457.6755562827523
 20
463.0571363373732
 30
0.0
 10
460.7597828393236
 20
462.5600508184285
 30
0.0
 10
461.7875356323374
 20
462.3911368321147
 30
0.0
 10
463.8137028496238
 20
462.0517198902081
 30
0.0
 10
464.7872690619878
 20
461.8854479880775
 30
0.0
 10
467.6424494293319
 20
461.3894002368895
 30
0.0
 10
469.466450647024
 20
461.0603949380596
 30
0.0
 10
472.7016167922417
 20
460.4605015128148
 30
0.0
 10
474.1532951212188
 20
460.1822991205992
 30
0.0
 10
475.9193382586673
 20
459.8377580630431
 30
0.0
 10
476.4442316410905
 20
459.7341620718145
 30
0.0
 10
477.3629046068108
 20
459.5515664098353
 30
0.0
 10
477.7560327069841
 20
459.4726883488502
 30
0.0
 10
478.3801218668006
 20
459.3469292934078
 30
0.0
 10
478.6158021028064
 20
459.2991115073256
 30
0.0
 10
478.933119108885
 20
459.2346363028422
 30
0.0
 10
479.014025464579
 20
459.2181285285066
 30
0.0
 10
479.013052203587
 20
459.2183268387737
 30
0.0
  0
SPLINE
  5
F2
330
C3
100
AcDbEntity
  8
DV2_Standard
  6
Continuous
 62
     7
100
AcDbSpline
210
0.0
220
0.0
230
1.0
 70
     8
 71
     3
 72
    10
 73
     6
 74
     0
 42
0.0000000143197015
 43
0.0000000001
 40
0.0
 40
0.0
 40
0.0
 40
0.0
 40
0.5
 40
0.5
 40
1.0
 40
1.0
 40
1.0
 40
1.0
 10
479.4132243691683
 20
458.7283936785914
 30
0.0
 10
479.4132243823258
 20
458.8436739253833
 30
0.0
 10
479.3731976768373
 20
458.9557003482985
 30
0.0
 10
479.2275442895857
 20
459.1339140433251
 30
0.0
 10
479.1260114001711
 20
459.1953104345164
 30
0.0
 10
479.013052203587
 20
459.2183268387737
 30
0.0
  0
SPLINE
  5
F3
330
C3
100
AcDbEntity
  8
DV2_Standard
  6
Continuous
 62
     7
100
AcDbSpline
210
0.0
220
0.0
230
1.0
 70
     8
 71
     3
 72
    10
 73
     6
 74
     0
 42
0.000000064721302
 43
0.0000000001
 40
0.0
 40
0.0
 40
0.0
 40
0.0
 40
0.3134847319870649
 40
0.629329936205025
 40
1.0
 40
1.0
 40
1.0
 40
1.0
 10
479.2691016623113
 20
450.9221858931771
 30
0.0
 10
479.2663259878343
 20
450.9234742451661
 30
0.0
 10
479.2608227681785
 20
450.9225155992866
 30
0.0
 10
479.2111183420303
 20
450.9184196836866
 30
0.0
 10
479.1533248491885
 20
450.9193102086621
 30
0.0
 10
479.1151816395404
 20
450.9211835289565
 30
0.0
  0
ARC
  5
F4
330
C3
100
AcDbEntity
  8
DV2_Standard
  6
Continuous
 62
     7
100
AcDbCircle
 10
447.4422643872
 20
472.3609152244
 30
0.0
 40
38.37403661689907
100
AcDbArc
 50
324.3800933465
 51
326.0355794033
  0
ARC
  5
F5
330
C3
100
AcDbEntity
  8
DV2_Standard
  6
Continuous
 62
     7
100
AcDbCircle
 10
447.4422643872
 20
472.3609152244
 30
0.0
 40
38.37403661689907
100
AcDbArc
 50
307.4248352858
 51
310.6838473289
  0
LINE
  5
F6
330
C3
100
AcDbEntity
  8
DV2_Standard
  6
Continuous
 62
     7
100
AcDbLine
 10
479.4132243692
 20
458.7283936786
 30
0.0
 11
479.4132351926
 21
451.399289712
 31
0.0
  0
ARC
  5
F7
330
C3
100
AcDbEntity
  8
DV2_Standard
  6
Continuous
 62
     7
100
AcDbCircle
 10
478.5563601173
 20
451.3978291606
 30
0.0
 40
0.8568763200719398
100
AcDbArc
 50
326.283102826
 51
0.0976610846
  0
SPLINE
  5
F8
330
C3
100
AcDbEntity
  8
DV2_Standard
  6
Continuous
 62
     7
100
AcDbSpline
210
0.0
220
0.0
230
1.0
 70
     8
 71
     3
 72
     8
 73
     4
 74
     0
 42
0.0000000040122233
 43
0.0000000001
 40
0.0
 40
0.0
 40
0.0
 40
0.0
 40
1.0
 40
1.0
 40
1.0
 40
1.0
 10
427.4211318637089
 20
438.6803980744043
 30
0.0
 10
426.5903774243941
 20
438.6700971572942
 30
0.0
 10
425.7596203420492
 20
438.6593914071272
 30
0.0
 10
424.9288982107233
 20
438.6540391067343
 30
0.0
  0
SPLINE
  5
F9
330
C3
100
AcDbEntity
  8
DV2_Standard
  6
Continuous
 62
     7
100
AcDbSpline
210
0.0
220
0.0
230
1.0
 70
     8
 71
     3
 72
    22
 73
    18
 74
     0
 42
0.0000000000807661
 43
0.0000000001
 40
0.0
 40
0.0
 40
0.0
 40
0.0
 40
0.0197283309914579
 40
0.0197283309914579
 40
0.0524040532917422
 40
0.0524040532917422
 40
0.0850797755920266
 40
0.0850797755920266
 40
0.2157826647931658
 40
0.2157826647931658
 40
0.346485553994305
 40
0.346485553994305
 40
0.4771884431954442
 40
0.4771884431954442
 40
0.7385942215977221
 40
0.7385942215977221
 40
1.0
 40
1.0
 40
1.0
 40
1.0
 10
421.7724121694717
 20
438.6657397782826
 30
0.0
 10
420.9582920913349
 20
438.676180297045
 30
0.0
 10
420.1442080485334
 20
438.6910784001291
 30
0.0
 10
417.9818516391727
 20
438.7357074213411
 30
0.0
 10
416.6336112658494
 20
438.7689965214637
 30
0.0
 10
413.9370696894173
 20
438.8302946285564
 30
0.0
 10
412.588772036654
 20
438.8586118094553
 30
0.0
 10
405.8471469527199
 20
438.9883215752439
 30
0.0
 10
400.4533989534572
 20
439.053208381018
 30
0.0
 10
389.6654697067637
 20
439.1453755687145
 30
0.0
 10
384.2712989737602
 20
439.1735686146441
 30
0.0
 10
373.4827991993502
 20
439.2162133606918
 30
0.0
 10
368.0884782309344
 20
439.2301936387631
 30
0.0
 10
351.9055701334548
 20
439.2624148175009
 30
0.0
 10
341.1169465650203
 20
439.2712405168765
 30
0.0
 10
319.5396912045043
 20
439.2831643258657
 30
0.0
 10
308.751061046119
 20
439.2855314317787
 30
0.0
 10
297.9624315038196
 20
439.2869318629654
 30
0.0
  0
LINE
  5
FA
330
C3
100
AcDbEntity
  8
DV2_Standard
  6
Continuous
 62
     7
100
AcDbLine
 10
470.5779124606
 20
441.8222552851
 30
0.0
 11
438.7388109889
 21
441.8222552851
 31
0.0
  0
ARC
  5
FB
330
C3
100
AcDbEntity
  8
DV2_Standard
  6
Continuous
 62
     7
100
AcDbCircle
 10
451.8970461264
 20
-995.1457119174
 30
0.0
 40
1437.155671522741
100
AcDbArc
 50
89.2478418923
 51
89.2484813415
  0
ARC
  5
FC
330
C3
100
AcDbEntity
  8
DV2_Standard
  6
Continuous
 62
     7
100
AcDbCircle
 10
438.7824062339
 20
419.7184361606
 30
0.0
 40
22.10386211581432
100
AcDbArc
 50
90.113004015
 51
106.5920465053
  0
ARC
  5
FD
330
C3
100
AcDbEntity
  8
DV2_Standard
  6
Continuous
 62
     7
100
AcDbCircle
 10
438.7678963935
 20
419.7720755024
 30
0.0
 40
22.05019896535817
100
AcDbArc
 50
105.7432775584
 51
107.1234750775
  0
LINE
  5
FE
330
C3
100
AcDbEntity
  8
DV2_Standard
  6
Continuous
 62
     7
100
AcDbLine
 10
293.8284315038
 20
439.2874134687
 30
0.0
 11
291.3954315038
 21
439.2876496792
 31
0.0
  0
ARC
  5
FF
330
C3
100
AcDbEntity
  8
DV2_Standard
  6
Continuous
 62
     7
100
AcDbCircle
 10
295.8935355738
 20
423.01291828
 30
0.0
 40
16.40499461960349
100
AcDbArc
 50
82.7549201214
 51
97.2317301071
  0
ARC
  5
100
330
C3
100
AcDbEntity
  8
DV2_Standard
  6
Continuous
 62
     7
100
AcDbCircle
 10
423.3679561992
 20
561.5512718626
 30
0.0
 40
122.8931155811443
100
AcDbArc
 50
268.9768106265
 51
271.9387547011
  0
ARC
  5
101
330
C3
100
AcDbEntity
  8
DV2_Standard
  6
Continuous
 62
     7
100
AcDbCircle
 10
374.6763365316
 20
-1736.5124273809
 30
0.0
 40
2175.709394467677
100
AcDbArc
 50
89.1166016746
 51
89.863704603
  0
LINE
  5
102
330
C3
100
AcDbEntity
  8
DV2_Standard
  6
Continuous
 62
     7
100
AcDbLine
 10
479.1623151561
 20
450.8183699993
 30
0.0
 11
479.2424465107
 21
450.9357295497
 31
0.0
  0
ARC
  5
103
330
C3
100
AcDbEntity
  8
DV2_Standard
  6
Continuous
 62
     7
100
AcDbCircle
 10
448.6472881507
 20
471.1710072737
 30
0.0
 40
36.67964990510438
100
AcDbArc
 50
307.0316909283
 51
326.2978634323
  0
ARC
  5
104
330
C3
100
AcDbEntity
  8
DV2_Standard
  6
Continuous
 62
     7
100
AcDbCircle
 10
478.3678057064
 20
451.3900818734
 30
0.0
 40
0.8833677780019722
100
AcDbArc
 50
327.9232995216
 51
0.6901412179
  0
ARC
  5
105
330
C3
100
AcDbEntity
  8
DV2_Standard
  6
Continuous
 62
     7
100
AcDbCircle
 10
448.6457630337
 20
471.172362112
 30
0.0
 40
36.68167046858505
100
AcDbArc
 50
323.5502177928
 51
324.7944122556
  0
ARC
  5
106
330
C3
100
AcDbEntity
  8
DV2_Standard
  6
Continuous
 62
     7
100
AcDbCircle
 10
374.6763365864
 20
-1736.5124186716
 30
0.0
 40
2175.709385758454
100
AcDbArc
 50
89.8324532808
 51
89.8637046079
  0
ARC
  5
107
330
C3
100
AcDbEntity
  8
DV2_Standard
  6
Continuous
 62
     7
100
AcDbCircle
 10
374.6763365864
 20
-1736.5124186716
 30
0.0
 40
2175.709385758454
100
AcDbArc
 50
89.116601671
 51
89.1270850851
  0
ARC
  5
108
330
C3
100
AcDbEntity
  8
DV2_Standard
  6
Continuous
 62
     7
100
AcDbCircle
 10
438.8216629747
 20
419.3872720038
 30
0.0
 40
22.40664713670216
100
AcDbArc
 50
106.5849610316
 51
120.5782623988
  0
ARC
  5
109
330
C3
100
AcDbEntity
  8
DV2_Standard
  6
Continuous
 62
     7
100
AcDbCircle
 10
470.5779121333
 20
442.1222552773
 30
0.0
 40
0.2999999919700858
100
AcDbArc
 50
269.9998282263
 51
308.0564863592
  0
ARC
  5
10A
330
C3
100
AcDbEntity
  8
DV2_Standard
  6
Continuous
 62
     7
100
AcDbCircle
 10
438.879907917
 20
419.2389901567
 30
0.0
 40
22.5635064143865
100
AcDbArc
 50
107.306715355
 51
108.2355303937
  0
ARC
  5
10B
330
C3
100
AcDbEntity
  8
DV2_Standard
  6
Continuous
 62
     7
100
AcDbCircle
 10
470.5779125145
 20
442.1222552845
 30
0.0
 40
0.2999999993314484
100
AcDbArc
 50
298.7317046664
 51
308.0544507912
  0
LINE
  5
10C
330
C3
100
AcDbEntity
  8
DV2_Standard
  6
Continuous
 62
     7
100
AcDbLine
 10
283.3954315036
 20
496.1672366456
 30
0.0
 11
283.3954315036
 21
416.160814879
 31
0.0
  0
LINE
  5
10D
330
C3
100
AcDbEntity
  8
DV2_Standard
  6
Continuous
 62
     7
100
AcDbLine
 10
291.395431623
 20
495.1672366456
 30
0.0
 11
291.395431623
 21
417.1608320462
 31
0.0
  0
LINE
  5
10E
330
C3
100
AcDbEntity
  8
DV2_Standard
  6
Continuous
 62
     7
100
AcDbLine
 10
290.395431623
 20
496.1672366456
 30
0.0
 11
283.3954315036
 21
496.1672366456
 31
0.0
  0
LINE
  5
10F
330
C3
100
AcDbEntity
  8
DV2_Standard
  6
Continuous
 62
     7
100
AcDbLine
 10
283.3954315036
 20
416.160814879
 30
0.0
 11
290.395431623
 21
416.160814879
 31
0.0
  0
SPLINE
  5
110
330
C3
100
AcDbEntity
  8
DV2_Standard
  6
Continuous
 62
     7
100
AcDbSpline
210
0.0
220
0.0
230
1.0
 70
     8
 71
     3
 72
    13
 73
     9
 74
     0
 42
0.0000000063014691
 43
0.0000000001
 40
0.0
 40
0.0
 40
0.0
 40
0.0
 40
0.1294353894207198
 40
0.2550301634045744
 40
0.5000000700765489
 40
0.7449699367923188
 40
0.8705646657481493
 40
1.0
 40
1.0
 40
1.0
 40
1.0
 10
290.3954316230287
 20
416.1608324811733
 30
0.0
 10
290.4696110006206
 20
416.1645134888518
 30
0.0
 10
290.5935224620649
 20
416.1725868133963
 30
0.0
 10
290.8484679587868
 20
416.252657871023
 30
0.0
 10
291.1200576623386
 20
416.4362062750883
 30
0.0
 10
291.3036061825255
 20
416.7077958786163
 30
0.0
 10
291.3836772848658
 20
416.9627412866781
 30
0.0
 10
291.3917506133556
 20
417.0866527003971
 30
0.0
 10
291.3954316230287
 20
417.1608320461949
 30
0.0
  0
SPLINE
  5
111
330
C3
100
AcDbEntity
  8
DV2_Standard
  6
Continuous
 62
     7
100
AcDbSpline
210
0.0
220
0.0
230
1.0
 70
     8
 71
     3
 72
    13
 73
     9
 74
     0
 42
0.0000000063014677
 43
0.0000000001
 40
0.0
 40
0.0
 40
0.0
 40
0.0
 40
0.1294353618363176
 40
0.2550301133061735
 40
0.5000000000000013
 40
0.7449698866938298
 40
0.870564638163682
 40
1.0
 40
1.0
 40
1.0
 40
1.0
 10
291.3954316230287
 20
495.1672366456129
 30
0.0
 10
291.3917506135523
 20
495.241416023441
 30
0.0
 10
291.3836772852793
 20
495.3653274879721
 30
0.0
 10
291.3036061878813
 20
495.6202729958119
 30
0.0
 10
291.1200576858354
 20
495.8918627084196
 30
0.0
 10
290.8484679732276
 20
496.0754112104655
 30
0.0
 10
290.5935224653878
 20
496.1554823078636
 30
0.0
 10
290.4696110008568
 20
496.1635556361366
 30
0.0
 10
290.3954316230287
 20
496.1672366456129
 30
0.0
  0
ENDBLK
  5
113
330
C3
100
AcDbEntity
  8
0
100
AcDbBlockEnd
  0
BLOCK
  5
126
330
114
100
AcDbEntity
  8
0
100
AcDbBlockBegin
  2
SE2
 70
     0
 10
0.0
 20
0.0
 30
0.0
  3
SE2
  1

  0
CIRCLE
  5
117
330
114
100
AcDbEntity
  8
DV3_Standard
  6
Continuous
 62
     7
100
AcDbCircle
 10
125.0110445126
 20
132.3665559746
 30
0.0
 40
9.00000000000001
  0
CIRCLE
  5
118
330
114
100
AcDbEntity
  8
DV3_Standard
  6
Continuous
 62
     7
100
AcDbCircle
 10
125.0110445126
 20
132.3665559746
 30
0.0
 40
7.643312101910841
  0
SPLINE
  5
119
330
114
100
AcDbEntity
  8
DV3_Standard
  6
Continuous
 62
     7
100
AcDbSpline
210
0.0
220
0.0
230
1.0
 70
     8
 71
     3
 72
    12
 73
     8
 74
     0
 42
0.0000000016441931
 43
0.0000000001
 40
0.0
 40
0.0
 40
0.0
 40
0.0
 40
0.0264472859952468
 40
0.3185373994516089
 40
0.597601196097538
 40
0.8747671126313366
 40
1.0
 40
1.0
 40
1.0
 40
1.0
 10
104.570819145078
 20
123.7546739387232
 30
0.0
 10
104.5772963675365
 20
123.7013161416031
 30
0.0
 10
104.6594747763446
 20
123.0597184074773
 30
0.0
 10
104.9154073178306
 20
121.8840384464942
 30
0.0
 10
105.4429407521364
 20
120.2490930056114
 30
0.0
 10
105.9659802772841
 20
118.9650305406445
 30
0.0
 10
106.3155825704241
 20
118.2243815202069
 30
0.0
 10
106.4282402840207
 20
117.995899099745
 30
0.0
  0
SPLINE
  5
11A
330
114
100
AcDbEntity
  8
DV3_Standard
  6
Continuous
 62
     7
100
AcDbSpline
210
0.0
220
0.0
230
1.0
 70
     8
 71
     3
 72
    12
 73
     8
 74
     0
 42
0.0000000010068306
 43
0.0000000001
 40
0.0
 40
0.0
 40
0.0
 40
0.0
 40
0.0945902079758257
 40
0.1789428523427871
 40
0.4387887752795014
 40
0.7428891350550682
 40
1.0
 40
1.0
 40
1.0
 40
1.0
 10
106.4282402840207
 20
117.995899099745
 30
0.0
 10
106.5664131899029
 20
117.7156690207708
 30
0.0
 10
106.8387773688584
 20
117.1912847105591
 30
0.0
 10
107.5560738941032
 20
115.9372140675919
 30
0.0
 10
108.764709689014
 20
114.1668938492568
 30
0.0
 10
110.5888475929652
 20
112.1456186545823
 30
0.0
 10
112.0135979083414
 20
110.9424552180656
 30
0.0
 10
112.6979560710713
 20
110.4332035892951
 30
0.0
  0
SPLINE
  5
11B
330
114
100
AcDbEntity
  8
DV3_Standard
  6
Continuous
 62
     7
100
AcDbSpline
210
0.0
220
0.0
230
1.0
 70
     8
 71
     3
 72
     8
 73
     4
 74
     0
 42
0.0000001286468008
 43
0.0000000001
 40
0.0
 40
0.0
 40
0.0
 40
0.0
 40
0.9999999999999999
 40
0.9999999999999999
 40
0.9999999999999999
 40
0.9999999999999999
 10
113.741633374036
 20
109.7051898717369
 30
0.0
 10
113.7633296837679
 20
109.6910251866736
 30
0.0
 10
113.7850525463448
 20
109.6769012720598
 30
0.0
 10
113.8068018145929
 20
109.6628182249124
 30
0.0
  0
SPLINE
  5
11C
330
114
100
AcDbEntity
  8
DV3_Standard
  6
Continuous
 62
     7
100
AcDbSpline
210
0.0
220
0.0
230
1.0
 70
     8
 71
     3
 72
    30
 73
    26
 74
     0
 42
0.0000000000500222
 43
0.0000000001
 40
0.0
 40
0.0
 40
0.0
 40
0.0
 40
0.0312500000000006
 40
0.0312500000000006
 40
0.0625000000000011
 40
0.0625000000000011
 40
0.0937500000000017
 40
0.0937500000000017
 40
0.1250000000000023
 40
0.1250000000000023
 40
0.1406250000000026
 40
0.1406250000000026
 40
0.1562500000000029
 40
0.1562500000000029
 40
0.1875000000000031
 40
0.1875000000000031
 40
0.250000000000003
 40
0.250000000000003
 40
0.3750000000000025
 40
0.3750000000000025
 40
0.500000000000002
 40
0.500000000000002
 40
0.750000000000001
 40
0.750000000000001
 40
1.0
 40
1.0
 40
1.0
 40
1.0
 10
125.011044512624
 20
106.35189213142
 30
0.0
 10
122.9496289471042
 20
106.3500000000044
 30
0.0
 10
120.8537896339074
 20
106.6687567466081
 30
0.0
 10
116.916774560835
 20
107.8953054156125
 30
0.0
 10
115.0209285696991
 20
108.8183017580371
 30
0.0
 10
111.6328759478456
 20
111.1477784432322
 30
0.0
 10
110.1052688661191
 20
112.5757646671029
 30
0.0
 10
107.5581969464186
 20
115.7922047371321
 30
0.0
 10
106.5330801806129
 20
117.5806816419695
 30
0.0
 10
105.3701221039465
 20
120.4447061791684
 30
0.0
 10
105.0407853182714
 20
121.4250870231078
 30
0.0
 10
104.5740840929928
 20
123.4332246924348
 30
0.0
 10
104.4895674365727
 20
124.4631318713835
 30
0.0
 10
104.3616003471387
 20
127.5563988377644
 30
0.0
 10
104.3427287511621
 20
129.6212482056307
 30
0.0
 10
104.2658300343965
 20
135.8214539277728
 30
0.0
 10
104.2375817435755
 20
139.9626911957561
 30
0.0
 10
104.1572100472889
 20
152.3978383157925
 30
0.0
 10
104.1206488937615
 20
160.7058382574192
 30
0.0
 10
104.0569571405689
 20
177.3601779946498
 30
0.0
 10
104.0313725561205
 20
185.7100876481927
 30
0.0
 10
103.9667812386782
 20
210.767941267535
 30
0.0
 10
103.9400571831463
 20
227.4903456158025
 30
0.0
 10
103.9050627582235
 20
260.9295547740409
 30
0.0
 10
103.8970594669141
 20
277.6496922529517
 30
0.0
 10
103.8933317113492
 20
294.3696849967685
 30
0.0
  0
SPLINE
  5
11D
330
114
100
AcDbEntity
  8
DV3_Standard
  6
Continuous
 62
     7
100
AcDbSpline
210
0.0
220
0.0
230
1.0
 70
    12
 71
     3
 72
    18
 73
    14
 74
     0
 42
0.0000000006242582
 43
0.0000000001
 40
0.0
 40
0.0
 40
0.0
 40
0.0
 40
0.0094331748591767
 40
0.0094331748591767
 40
0.1164500311548476
 40
0.1164500311548476
 40
0.2234668874505141
 40
0.2234668874505141
 40
0.437500600041853
 40
0.437500600041853
 40
0.6515343126331875
 40
0.6515343126331875
 40
1.0
 40
1.0
 40
1.0
 40
1.0
 10
145.4513311311466
 20
123.7545981729463
 30
0.0
 41
1.0
 10
145.4448570565313
 20
123.7015607668175
 30
0.0
 41
1.0
 10
145.4380167246163
 20
123.648336619054
 30
0.0
 41
1.0
 10
145.3486775356177
 20
122.9890562743233
 30
0.0
 41
1.0
 10
145.2214756169118
 20
122.4147972514547
 30
0.0
 41
1.0
 10
144.9229149675978
 20
121.3140667290213
 30
0.0
 41
1.0
 10
144.7500425966225
 20
120.7797336135689
 30
0.0
 41
1.0
 10
144.1726631154904
 20
119.1949773023517
 30
0.0
 41
1.0
 10
143.7089031416657
 20
118.1647127643971
 30
0.0
 41
1.0
 10
142.6152972916266
 20
116.1651101939854
 30
0.0
 41
1.0
 10
141.9923709628663
 20
115.2131386216494
 30
0.0
 41
1.0
 10
140.1651045897067
 20
112.8656978061733
 30
0.0
 41
1.0
 10
138.8154132671177
 20
111.5457584789151
 30
0.0
 41
1.0
 10
137.3238714830902
 20
110.4337742989369
 30
0.0
 41
1.0
  0
SPLINE
  5
11E
330
114
100
AcDbEntity
  8
DV3_Standard
  6
Continuous
 62
     7
100
AcDbSpline
210
0.0
220
0.0
230
1.0
 70
     8
 71
     3
 72
    30
 73
    26
 74
     0
 42
0.0000000000500222
 43
0.0000000001
 40
0.0
 40
0.0
 40
0.0
 40
0.0
 40
0.0312500000000003
 40
0.0312500000000003
 40
0.0625000000000005
 40
0.0625000000000005
 40
0.0937500000000008
 40
0.0937500000000008
 40
0.125000000000001
 40
0.125000000000001
 40
0.1406250000000012
 40
0.1406250000000012
 40
0.1562500000000013
 40
0.1562500000000013
 40
0.1875000000000011
 40
0.1875000000000011
 40
0.2500000000000012
 40
0.2500000000000012
 40
0.3750000000000009
 40
0.3750000000000009
 40
0.5000000000000007
 40
0.5000000000000007
 40
0.7500000000000003
 40
0.7500000000000003
 40
1.0
 40
1.0
 40
1.0
 40
1.0
 10
125.011044512624
 20
106.35189213142
 30
0.0
 10
127.0724600781443
 20
106.3499999999999
 30
0.0
 10
129.1682993913422
 20
106.6687567465992
 30
0.0
 10
133.1053144644183
 20
107.8953054155957
 30
0.0
 10
135.0011604555562
 20
108.8183017580166
 30
0.0
 10
138.3892130774157
 20
111.1477784432055
 30
0.0
 10
139.9168201591449
 20
112.5757646670733
 30
0.0
 10
142.4638920788527
 20
115.7922047370988
 30
0.0
 10
143.4890088446615
 20
117.5806816419343
 30
0.0
 10
144.6519669213331
 20
120.444706179132
 30
0.0
 10
144.9813037070097
 20
121.4250870230709
 30
0.0
 10
145.4480049322938
 20
123.4332246923973
 30
0.0
 10
145.5325215887175
 20
124.4631318713458
 30
0.0
 10
145.6604886781536
 20
127.5563988377273
 30
0.0
 10
145.6793602741299
 20
129.6212482055941
 30
0.0
 10
145.7562589908957
 20
135.8214539277376
 30
0.0
 10
145.7845072817167
 20
139.9626911957217
 30
0.0
 10
145.8648789780035
 20
152.3978383157608
 30
0.0
 10
145.9014401315309
 20
160.7058382573894
 30
0.0
 10
145.9651318847235
 20
177.3601779946235
 30
0.0
 10
145.990716469172
 20
185.7100876481685
 30
0.0
 10
146.0553077866143
 20
210.7679412675162
 30
0.0
 10
146.0820318421462
 20
227.4903456157874
 30
0.0
 10
146.117026267069
 20
260.9295547740334
 30
0.0
 10
146.1250295583784
 20
277.6496922529479
 30
0.0
 10
146.1287573139433
 20
294.3696849967685
 30
0.0
  0
LINE
  5
11F
330
114
100
AcDbEntity
  8
DV3_Standard
  6
Continuous
 62
     7
100
AcDbLine
 10
85.0231710643
 20
302.369684997
 30
0.0
 11
164.998917961
 21
302.369684997
 31
0.0
  0
LINE
  5
120
330
114
100
AcDbEntity
  8
DV3_Standard
  6
Continuous
 62
     7
100
AcDbLine
 10
164.998917961
 20
295.3696848776
 30
0.0
 11
85.0231710643
 21
295.3696848776
 31
0.0
  0
LINE
  5
121
330
114
100
AcDbEntity
  8
DV3_Standard
  6
Continuous
 62
     7
100
AcDbLine
 10
163.9988934785
 20
294.3696848776
 30
0.0
 11
86.0231955468
 21
294.3696848776
 31
0.0
  0
LINE
  5
122
330
114
100
AcDbEntity
  8
DV3_Standard
  6
Continuous
 62
     7
100
AcDbLine
 10
164.998917961
 20
295.3696848776
 30
0.0
 11
164.998917961
 21
302.369684997
 31
0.0
  0
LINE
  5
123
330
114
100
AcDbEntity
  8
DV3_Standard
  6
Continuous
 62
     7
100
AcDbLine
 10
85.0231710643
 20
302.369684997
 30
0.0
 11
85.0231710643
 21
295.3696848776
 31
0.0
  0
ARC
  5
124
330
114
100
AcDbEntity
  8
DV3_Standard
  6
Continuous
 62
     7
100
AcDbCircle
 10
86.0228643273
 20
295.3693530769
 30
0.0
 40
0.9996682542517688
100
AcDbArc
 50
179.9809829157
 51
270.0189837752
  0
ARC
  5
125
330
114
100
AcDbEntity
  8
DV3_Standard
  6
Continuous
 62
     7
100
AcDbCircle
 10
163.999224698
 20
295.3693530769
 30
0.0
 40
0.9996682542517143
100
AcDbArc
 50
269.9810162248
 51
0.0190170843
  0
ENDBLK
  5
127
330
114
100
AcDbEntity
  8
0
100
AcDbBlockEnd
  0
ENDSEC
  0
SECTION
  2
ENTITIES
  0
INSERT
  5
5F
330
1F
100
AcDbEntity
  8
Default
100
AcDbBlockReference
  2
SEANNOT_GROUP
 10
0.0
 20
0.0
 30
0.0
  0
INSERT
  5
66
330
1F
100
AcDbEntity
  8
Default
100
AcDbBlockReference
  2
SEANNOT_GROUP1
 10
0.0
 20
0.0
 30
0.0
  0
INSERT
  5
6C
330
1F
100
AcDbEntity
  8
Default
100
AcDbBlockReference
  2
SEANNOT_GROUP2
 10
0.0
 20
0.0
 30
0.0
  0
INSERT
  5
76
330
1F
100
AcDbEntity
  8
Default
100
AcDbBlockReference
  2
SE
 10
0.0
 20
0.0
 30
0.0
  0
INSERT
  5
C4
330
1F
100
AcDbEntity
  8
Default
100
AcDbBlockReference
  2
SE1
 10
0.0
 20
0.0
 30
0.0
  0
INSERT
  5
115
330
1F
100
AcDbEntity
  8
Default
100
AcDbBlockReference
  2
SE2
 10
0.0
 20
0.0
 30
0.0
  0
TEXT
  5
129
330
1F
100
AcDbEntity
  8
Default
  6
Continuous
 62
     7
100
AcDbText
 10
5.9362635081
 20
53.4225120485
 30
0.0
 40
10.0
  1
Grohe AG^J
  7
SEACAD_seiso_ttf
 11
5.9362635081
 21
63.4225120485
 31
0.0
100
AcDbText
 73
     3
  0
TEXT
  5
12A
330
1F
100
AcDbEntity
  8
Default
  6
Continuous
 62
     7
100
AcDbText
 10
5.9362635081
 20
37.0588756849
 30
0.0
 40
10.0
  1
 
  7
SEACAD_seiso_ttf
 11
5.9362635081
 21
47.0588756849
 31
0.0
100
AcDbText
 73
     3
  0
TEXT
  5
12B
330
1F
100
AcDbEntity
  8
Default
  6
Continuous
 62
     7
100
AcDbText
 10
5.9362635081
 20
20.6952393213
 30
0.0
 40
10.0
  1
ecn: 
  7
SEACAD_seiso_ttf
 11
5.9362635081
 21
30.6952393213
 31
0.0
100
AcDbText
 73
     3
  0
TEXT
  5
12C
330
1F
100
AcDbEntity
  8
Default
  6
Continuous
 62
     7
100
AcDbText
 10
5.9362635081
 20
4.3316029576
 30
0.0
 40
10.0
  1
unit: mm
  7
SEACAD_seiso_ttf
 11
5.9362635081
 21
14.3316029576
 31
0.0
100
AcDbText
 73
     3
  0
LINE
  5
12D
330
1F
100
AcDbEntity
  8
Default
  6
Continuous
 62
     7
100
AcDbLine
 10
0.0
 20
0.0
 30
0.0
 11
100.0
 21
0.0
 31
0.0
  0
LINE
  5
12E
330
1F
100
AcDbEntity
  8
Default
  6
Continuous
 62
     7
100
AcDbLine
 10
0.0
 20
0.0
 30
0.0
 11
0.0
 21
100.0
 31
0.0
  0
TEXT
  5
12F
330
1F
100
AcDbEntity
  8
Default
  6
Continuous
 62
     7
100
AcDbText
 10
24.3923665681
 20
-18.2375342018
 30
0.0
 40
10.0
  1
100 mm
  7
SEACAD_seiso_ttf
 11
24.3923665681
 21
-8.2375342018
 31
0.0
100
AcDbText
 73
     3
  0
TEXT
  5
130
330
1F
100
AcDbEntity
  8
Default
  6
Continuous
 62
     7
100
AcDbText
 10
-7.6150308803
 20
24.6231930421
 30
0.0
 40
10.0
  1
100 mm
 50
90.0
  7
SEACAD_seiso_ttf
 11
-17.6150308803
 21
24.6231930421
 31
0.0
100
AcDbText
 73
     3
  0
TEXT
  5
131
330
1F
100
AcDbEntity
  8
Default
  6
Continuous
 62
     7
100
AcDbText
 10
28.4878128572
 20
20.0907663715
 30
0.0
 40
10.0
  1
218892
  7
SEACAD_seiso_ttf
 11
28.4878128572
 21
30.0907663715
 31
0.0
100
AcDbText
 73
     3
  0
TEXT
  5
132
330
1F
100
AcDbEntity
  8
Default
  6
Continuous
 62
     7
100
AcDbText
 10
5.9012241913
 20
36.7242780188
 30
0.0
 40
10.0
  1
13285002
  7
SEACAD_seiso_ttf
 11
5.9012241913
 21
46.7242780188
 31
0.0
100
AcDbText
 73
     3
  0
ENDSEC
  0
SECTION
  2
OBJECTS
  0
DICTIONARY
  5
C
330
0
100
AcDbDictionary
281
     1
  3
ACAD_GROUP
350
D
  3
ACAD_LAYOUT
350
1A
  3
ACAD_MLEADERSTYLE
350
136
  3
ACAD_MLINESTYLE
350
17
  3
ACAD_PLOTSETTINGS
350
19
  3
ACAD_PLOTSTYLENAME
350
E
  3
ACAD_SCALELIST
350
3B
  3
ACAD_TABLESTYLE
350
135
  3
ACAD_VISUALSTYLE
350
2A
  3
AcDbVariableDictionary
350
133
  0
DICTIONARY
  5
D
102
{ACAD_REACTORS
330
C
102
}
330
C
100
AcDbDictionary
281
     1
  0
DICTIONARY
  5
1A
102
{ACAD_REACTORS
330
C
102
}
330
C
100
AcDbDictionary
281
     1
  3
Layout1
350
1E
  3
Model
350
22
  0
DICTIONARY
  5
136
102
{ACAD_REACTORS
330
C
102
}
330
C
100
AcDbDictionary
281
     1
  0
DICTIONARY
  5
17
102
{ACAD_REACTORS
330
C
102
}
330
C
100
AcDbDictionary
281
     1
  3
Standard
350
18
  0
DICTIONARY
  5
19
102
{ACAD_REACTORS
330
C
102
}
330
C
100
AcDbDictionary
281
     1
  0
ACDBDICTIONARYWDFLT
  5
E
102
{ACAD_REACTORS
330
C
102
}
330
C
100
AcDbDictionary
281
     1
  3
Normal
350
F
100
AcDbDictionaryWithDefault
340
F
  0
DICTIONARY
  5
3B
102
{ACAD_REACTORS
330
C
102
}
330
C
100
AcDbDictionary
281
     1
  3
A0
350
3C
  3
A1
350
3D
  3
A2
350
3E
  3
A3
350
3F
  3
A4
350
40
  3
A5
350
41
  3
A6
350
42
  3
A7
350
43
  3
A8
350
44
  3
A9
350
45
  3
B0
350
46
  3
B1
350
47
  3
B2
350
48
  3
B3
350
49
  3
B4
350
4A
  3
B5
350
4B
  3
B6
350
4C
  3
B7
350
4D
  3
B8
350
4E
  3
B9
350
4F
  3
C0
350
50
  3
C1
350
51
  3
C2
350
52
  3
C3
350
53
  3
C4
350
54
  3
C5
350
55
  3
C6
350
56
  3
C7
350
57
  3
C8
350
58
  3
C9
350
59
  3
D0
350
5A
  3
D1
350
5B
  3
D2
350
5C
  0
DICTIONARY
  5
135
102
{ACAD_REACTORS
330
C
102
}
330
C
100
AcDbDictionary
281
     1
  0
DICTIONARY
  5
2A
102
{ACAD_REACTORS
330
C
102
}
330
C
100
AcDbDictionary
281
     1
  3
2dWireframe
350
2F
  3
3D Hidden
350
31
  3
3dWireframe
350
30
  3
Basic
350
32
  3
Brighten
350
36
  3
ColorChange
350
3A
  3
Conceptual
350
34
  3
Dim
350
35
  3
Facepattern
350
39
  3
Flat
350
2B
  3
FlatWithEdges
350
2C
  3
Gouraud
350
2D
  3
GouraudWithEdges
350
2E
  3
Linepattern
350
38
  3
Realistic
350
33
  3
Thicken
350
37
  0
DICTIONARY
  5
133
102
{ACAD_REACTORS
330
C
102
}
330
C
100
AcDbDictionary
281
     1
  3
CANNOSCALE
350
134
  3
PSOLHEIGHT
350
138
  3
PSOLWIDTH
350
137
  0
LAYOUT
  5
1E
102
{ACAD_REACTORS
330
1A
102
}
330
1A
100
AcDbPlotSettings
  1

  2
none_device
  4

  6

 40
0.0
 41
0.0
 42
0.0
 43
0.0
 44
0.0
 45
0.0
 46
0.0
 47
0.0
 48
0.0
 49
0.0
140
0.0
141
0.0
142
1.0
143
1.0
 70
   688
 72
     0
 73
     0
 74
     5
  7

 75
    16
147
1.0
148
0.0
149
0.0
100
AcDbLayout
  1
Layout1
 70
     1
 71
     1
 10
0.0
 20
0.0
 11
1682.0
 21
2378.0
 12
0.0
 22
0.0
 32
0.0
 14
0.0
 24
0.0
 34
0.0
 15
1682.0
 25
2378.0
 35
0.0
146
0.0
 13
0.0
 23
0.0
 33
0.0
 16
1.0
 26
0.0
 36
0.0
 17
0.0
 27
1.0
 37
0.0
 76
     0
330
1B
  0
LAYOUT
  5
22
102
{ACAD_REACTORS
330
1A
102
}
330
1A
100
AcDbPlotSettings
  1

  2
none_device
  4

  6

 40
0.0
 41
0.0
 42
0.0
 43
0.0
 44
0.0
 45
0.0
 46
0.0
 47
0.0
 48
0.0
 49
0.0
140
0.0
141
0.0
142
1.0
143
1.0
 70
  1712
 72
     0
 73
     0
 74
     0
  7

 75
     0
147
1.0
148
0.0
149
0.0
100
AcDbLayout
  1
Model
 70
     1
 71
     0
 10
0.0
 20
0.0
 11
1682.0
 21
2378.0
 12
0.0
 22
0.0
 32
0.0
 14
0.0
 24
0.0
 34
0.0
 15
1682.0
 25
2378.0
 35
0.0
146
0.0
 13
0.0
 23
0.0
 33
0.0
 16
1.0
 26
0.0
 36
0.0
 17
0.0
 27
1.0
 37
0.0
 76
     0
330
1F
331
29
  0
MLINESTYLE
  5
18
102
{ACAD_REACTORS
330
17
102
}
330
17
100
AcDbMlineStyle
  2
Standard
 70
     0
  3

 62
   256
 51
90.0
 52
90.0
 71
     2
 49
0.5
 62
   256
  6
BYLAYER
 49
-0.5
 62
   256
  6
BYLAYER
  0
ACDBPLACEHOLDER
  5
F
102
{ACAD_REACTORS
330
E
102
}
330
E
  0
SCALE
  5
3C
102
{ACAD_REACTORS
330
3B
102
}
330
3B
100
AcDbScale
 70
     0
300
1:1
140
1.0
141
1.0
290
     1
  0
SCALE
  5
3D
102
{ACAD_REACTORS
330
3B
102
}
330
3B
100
AcDbScale
 70
     0
300
1:2
140
1.0
141
2.0
290
     0
  0
SCALE
  5
3E
102
{ACAD_REACTORS
330
3B
102
}
330
3B
100
AcDbScale
 70
     0
300
1:4
140
1.0
141
4.0
290
     0
  0
SCALE
  5
3F
102
{ACAD_REACTORS
330
3B
102
}
330
3B
100
AcDbScale
 70
     0
300
1:5
140
1.0
141
5.0
290
     0
  0
SCALE
  5
40
102
{ACAD_REACTORS
330
3B
102
}
330
3B
100
AcDbScale
 70
     0
300
1:8
140
1.0
141
8.0
290
     0
  0
SCALE
  5
41
102
{ACAD_REACTORS
330
3B
102
}
330
3B
100
AcDbScale
 70
     0
300
1:10
140
1.0
141
10.0
290
     0
  0
SCALE
  5
42
102
{ACAD_REACTORS
330
3B
102
}
330
3B
100
AcDbScale
 70
     0
300
1:16
140
1.0
141
16.0
290
     0
  0
SCALE
  5
43
102
{ACAD_REACTORS
330
3B
102
}
330
3B
100
AcDbScale
 70
     0
300
1:20
140
1.0
141
20.0
290
     0
  0
SCALE
  5
44
102
{ACAD_REACTORS
330
3B
102
}
330
3B
100
AcDbScale
 70
     0
300
1:30
140
1.0
141
30.0
290
     0
  0
SCALE
  5
45
102
{ACAD_REACTORS
330
3B
102
}
330
3B
100
AcDbScale
 70
     0
300
1:40
140
1.0
141
40.0
290
     0
  0
SCALE
  5
46
102
{ACAD_REACTORS
330
3B
102
}
330
3B
100
AcDbScale
 70
     0
300
1:50
140
1.0
141
50.0
290
     0
  0
SCALE
  5
47
102
{ACAD_REACTORS
330
3B
102
}
330
3B
100
AcDbScale
 70
     0
300
1:100
140
1.0
141
100.0
290
     0
  0
SCALE
  5
48
102
{ACAD_REACTORS
330
3B
102
}
330
3B
100
AcDbScale
 70
     0
300
2:1
140
2.0
141
1.0
290
     0
  0
SCALE
  5
49
102
{ACAD_REACTORS
330
3B
102
}
330
3B
100
AcDbScale
 70
     0
300
4:1
140
4.0
141
1.0
290
     0
  0
SCALE
  5
4A
102
{ACAD_REACTORS
330
3B
102
}
330
3B
100
AcDbScale
 70
     0
300
8:1
140
8.0
141
1.0
290
     0
  0
SCALE
  5
4B
102
{ACAD_REACTORS
330
3B
102
}
330
3B
100
AcDbScale
 70
     0
300
10:1
140
10.0
141
1.0
290
     0
  0
SCALE
  5
4C
102
{ACAD_REACTORS
330
3B
102
}
330
3B
100
AcDbScale
 70
     0
300
100:1
140
100.0
141
1.0
290
     0
  0
SCALE
  5
4D
102
{ACAD_REACTORS
330
3B
102
}
330
3B
100
AcDbScale
 70
     0
300
1/128" = 1'-0"
140
0.0078125
141
12.0
290
     0
  0
SCALE
  5
4E
102
{ACAD_REACTORS
330
3B
102
}
330
3B
100
AcDbScale
 70
     0
300
1/64" = 1'-0"
140
0.015625
141
12.0
290
     0
  0
SCALE
  5
4F
102
{ACAD_REACTORS
330
3B
102
}
330
3B
100
AcDbScale
 70
     0
300
1/32" = 1'-0"
140
0.03125
141
12.0
290
     0
  0
SCALE
  5
50
102
{ACAD_REACTORS
330
3B
102
}
330
3B
100
AcDbScale
 70
     0
300
1/16" = 1'-0"
140
0.0625
141
12.0
290
     0
  0
SCALE
  5
51
102
{ACAD_REACTORS
330
3B
102
}
330
3B
100
AcDbScale
 70
     0
300
3/32" = 1'-0"
140
0.09375
141
12.0
290
     0
  0
SCALE
  5
52
102
{ACAD_REACTORS
330
3B
102
}
330
3B
100
AcDbScale
 70
     0
300
1/8" = 1'-0"
140
0.125
141
12.0
290
     0
  0
SCALE
  5
53
102
{ACAD_REACTORS
330
3B
102
}
330
3B
100
AcDbScale
 70
     0
300
3/16" = 1'-0"
140
0.1875
141
12.0
290
     0
  0
SCALE
  5
54
102
{ACAD_REACTORS
330
3B
102
}
330
3B
100
AcDbScale
 70
     0
300
1/4" = 1'-0"
140
0.25
141
12.0
290
     0
  0
SCALE
  5
55
102
{ACAD_REACTORS
330
3B
102
}
330
3B
100
AcDbScale
 70
     0
300
3/8" = 1'-0"
140
0.375
141
12.0
290
     0
  0
SCALE
  5
56
102
{ACAD_REACTORS
330
3B
102
}
330
3B
100
AcDbScale
 70
     0
300
1/2" = 1'-0"
140
0.5
141
12.0
290
     0
  0
SCALE
  5
57
102
{ACAD_REACTORS
330
3B
102
}
330
3B
100
AcDbScale
 70
     0
300
3/4" = 1'-0"
140
0.75
141
12.0
290
     0
  0
SCALE
  5
58
102
{ACAD_REACTORS
330
3B
102
}
330
3B
100
AcDbScale
 70
     0
300
1" = 1'-0"
140
1.0
141
12.0
290
     0
  0
SCALE
  5
59
102
{ACAD_REACTORS
330
3B
102
}
330
3B
100
AcDbScale
 70
     0
300
1-1/2" = 1'-0"
140
1.5
141
12.0
290
     0
  0
SCALE
  5
5A
102
{ACAD_REACTORS
330
3B
102
}
330
3B
100
AcDbScale
 70
     0
300
3" = 1'-0"
140
3.0
141
12.0
290
     0
  0
SCALE
  5
5B
102
{ACAD_REACTORS
330
3B
102
}
330
3B
100
AcDbScale
 70
     0
300
6" = 1'-0"
140
6.0
141
12.0
290
     0
  0
SCALE
  5
5C
102
{ACAD_REACTORS
330
3B
102
}
330
3B
100
AcDbScale
 70
     0
300
1'-0" = 1'-0"
140
12.0
141
12.0
290
     0
  0
VISUALSTYLE
  5
2F
102
{ACAD_REACTORS
330
2A
102
}
330
2A
100
AcDbVisualStyle
  2
2dWireframe
 70
     4
 71
     0
 72
     2
 73
     0
 90
        0
 40
-0.6
 41
-30.0
 62
     5
 63
     7
 74
     1
 91
        4
 64
     7
 65
   257
 75
     1
175
     1
 42
1.0
 92
        0
 66
   257
 43
1.0
 76
     1
 77
     6
 78
     2
 67
     7
 79
     5
170
     0
171
     0
290
     0
174
     0
 93
        1
 44
0.0
173
     0
291
     0
 45
0.0
1001
ACAD
1000
AcDbSavedByObjectVersion
1070
     0
  0
VISUALSTYLE
  5
31
102
{ACAD_REACTORS
330
2A
102
}
330
2A
100
AcDbVisualStyle
  2
3D Hidden
 70
     6
 71
     1
 72
     2
 73
     2
 90
        0
 40
-0.6
 41
-30.0
 62
     5
 63
     7
 74
     2
 91
        2
 64
     7
 65
   257
 75
     2
175
     1
 42
40.0
 92
        0
 66
   257
 43
1.0
 76
     1
 77
     6
 78
     2
 67
     7
 79
     3
170
     0
171
     0
290
     0
174
     0
 93
        1
 44
0.0
173
     0
291
     0
 45
0.0
1001
ACAD
1000
AcDbSavedByObjectVersion
1070
     0
  0
VISUALSTYLE
  5
30
102
{ACAD_REACTORS
330
2A
102
}
330
2A
100
AcDbVisualStyle
  2
3dWireframe
 70
     5
 71
     0
 72
     2
 73
     0
 90
        0
 40
-0.6
 41
-30.0
 62
     5
 63
     7
 74
     1
 91
        4
 64
     7
 65
   257
 75
     1
175
     1
 42
1.0
 92
        0
 66
   257
 43
1.0
 76
     1
 77
     6
 78
     2
 67
     7
 79
     5
170
     0
171
     0
290
     0
174
     0
 93
        1
 44
0.0
173
     0
291
     0
 45
0.0
1001
ACAD
1000
AcDbSavedByObjectVersion
1070
     0
  0
VISUALSTYLE
  5
32
102
{ACAD_REACTORS
330
2A
102
}
330
2A
100
AcDbVisualStyle
  2
Basic
 70
     7
 71
     1
 72
     0
 73
     1
 90
        0
 40
-0.6
 41
-30.0
 62
     5
 63
     7
 74
     0
 91
        4
 64
     7
 65
   257
 75
     1
175
     1
 42
1.0
 92
        8
 66
     7
 43
1.0
 76
     1
 77
     6
 78
     2
 67
     7
 79
     5
170
     0
171
     0
290
     0
174
     0
 93
        1
 44
0.0
173
     0
291
     1
 45
0.0
1001
ACAD
1000
AcDbSavedByObjectVersion
1070
     0
  0
VISUALSTYLE
  5
36
102
{ACAD_REACTORS
330
2A
102
}
330
2A
100
AcDbVisualStyle
  2
Brighten
 70
    12
 71
     2
 72
     2
 73
     0
 90
        0
 40
-0.6
 41
-30.0
 62
     5
 63
     7
 74
     1
 91
        4
 64
     7
 65
   257
 75
     1
175
     1
 42
1.0
 92
        8
 66
     7
 43
1.0
 76
     1
 77
     6
 78
     2
 67
     7
 79
     5
170
     0
171
     0
290
     0
174
     0
 93
        1
 44
50.0
173
     0
291
     1
 45
0.0
1001
ACAD
1000
AcDbSavedByObjectVersion
1070
     0
  0
VISUALSTYLE
  5
3A
102
{ACAD_REACTORS
330
2A
102
}
330
2A
100
AcDbVisualStyle
  2
ColorChange
 70
    16
 71
     2
 72
     2
 73
     3
 90
        0
 40
-0.6
 41
-30.0
 62
     5
 63
     8
 74
     1
 91
        4
 64
     7
 65
   257
 75
     1
175
     1
 42
1.0
 92
        8
 66
     8
 43
1.0
 76
     1
 77
     6
 78
     2
 67
     7
 79
     5
170
     0
171
     0
290
     0
174
     0
 93
        1
 44
0.0
173
     0
291
     1
 45
0.0
1001
ACAD
1000
AcDbSavedByObjectVersion
1070
     0
  0
VISUALSTYLE
  5
34
102
{ACAD_REACTORS
330
2A
102
}
330
2A
100
AcDbVisualStyle
  2
Conceptual
 70
     9
 71
     3
 72
     2
 73
     0
 90
        0
 40
-0.6
 41
-30.0
 62
     5
 63
     7
 74
     2
 91
        2
 64
     7
 65
   257
 75
     1
175
     1
 42
40.0
 92
        8
 66
     7
 43
1.0
 76
     1
 77
     6
 78
     2
 67
     7
 79
     3
170
     0
171
     0
290
     0
174
     0
 93
        1
 44
0.0
173
     0
291
     0
 45
0.0
1001
ACAD
1000
AcDbSavedByObjectVersion
1070
     0
  0
VISUALSTYLE
  5
35
102
{ACAD_REACTORS
330
2A
102
}
330
2A
100
AcDbVisualStyle
  2
Dim
 70
    11
 71
     2
 72
     2
 73
     0
 90
        0
 40
-0.6
 41
-30.0
 62
     5
 63
     7
 74
     1
 91
        4
 64
     7
 65
   257
 75
     1
175
     1
 42
1.0
 92
        8
 66
     7
 43
1.0
 76
     1
 77
     6
 78
     2
 67
     7
 79
     5
170
     0
171
     0
290
     0
174
     0
 93
        1
 44
-50.0
173
     0
291
     1
 45
0.0
1001
ACAD
1000
AcDbSavedByObjectVersion
1070
     0
  0
VISUALSTYLE
  5
39
102
{ACAD_REACTORS
330
2A
102
}
330
2A
100
AcDbVisualStyle
  2
Facepattern
 70
    15
 71
     2
 72
     2
 73
     0
 90
        0
 40
-0.6
 41
-30.0
 62
     5
 63
     7
 74
     1
 91
        4
 64
     7
 65
   257
 75
     1
175
     1
 42
1.0
 92
        8
 66
     7
 43
1.0
 76
     1
 77
     6
 78
     2
 67
     7
 79
     5
170
     0
171
     0
290
     0
174
     0
 93
        1
 44
0.0
173
     0
291
     1
 45
0.0
1001
ACAD
1000
AcDbSavedByObjectVersion
1070
     0
  0
VISUALSTYLE
  5
2B
102
{ACAD_REACTORS
330
2A
102
}
330
2A
100
AcDbVisualStyle
  2
Flat
 70
     0
 71
     2
 72
     1
 73
     1
 90
        2
 40
-0.6
 41
30.0
 62
     5
 63
     7
 74
     0
 91
        4
 64
     7
 65
   257
 75
     1
175
     1
 42
1.0
 92
        8
 66
     7
 43
1.0
 76
     1
 77
     6
 78
     2
 67
     7
 79
     5
170
     0
171
     0
290
     0
174
     0
 93
       13
 44
0.0
173
     0
291
     1
 45
0.0
1001
ACAD
1000
AcDbSavedByObjectVersion
1070
     0
  0
VISUALSTYLE
  5
2C
102
{ACAD_REACTORS
330
2A
102
}
330
2A
100
AcDbVisualStyle
  2
FlatWithEdges
 70
     1
 71
     2
 72
     1
 73
     1
 90
        2
 40
-0.6
 41
30.0
 62
     5
 63
     7
 74
     1
 91
        4
 64
     7
 65
   257
 75
     1
175
     1
 42
1.0
 92
        0
 66
   257
 43
1.0
 76
     1
 77
     6
 78
     2
 67
     7
 79
     5
170
     0
171
     0
290
     0
174
     0
 93
       13
 44
0.0
173
     0
291
     1
 45
0.0
1001
ACAD
1000
AcDbSavedByObjectVersion
1070
     0
  0
VISUALSTYLE
  5
2D
102
{ACAD_REACTORS
330
2A
102
}
330
2A
100
AcDbVisualStyle
  2
Gouraud
 70
     2
 71
     2
 72
     2
 73
     1
 90
        2
 40
-0.6
 41
30.0
 62
     5
 63
     7
 74
     0
 91
        4
 64
     7
 65
   257
 75
     1
175
     1
 42
1.0
 92
        0
 66
     7
 43
1.0
 76
     1
 77
     6
 78
     2
 67
     7
 79
     5
170
     0
171
     0
290
     0
174
     0
 93
       13
 44
0.0
173
     0
291
     1
 45
0.0
1001
ACAD
1000
AcDbSavedByObjectVersion
1070
     0
  0
VISUALSTYLE
  5
2E
102
{ACAD_REACTORS
330
2A
102
}
330
2A
100
AcDbVisualStyle
  2
GouraudWithEdges
 70
     3
 71
     2
 72
     2
 73
     1
 90
        2
 40
-0.6
 41
30.0
 62
     5
 63
     7
 74
     1
 91
        4
 64
     7
 65
   257
 75
     1
175
     1
 42
1.0
 92
        0
 66
   257
 43
1.0
 76
     1
 77
     6
 78
     2
 67
     7
 79
     5
170
     0
171
     0
290
     0
174
     0
 93
       13
 44
0.0
173
     0
291
     1
 45
0.0
1001
ACAD
1000
AcDbSavedByObjectVersion
1070
     0
  0
VISUALSTYLE
  5
38
102
{ACAD_REACTORS
330
2A
102
}
330
2A
100
AcDbVisualStyle
  2
Linepattern
 70
    14
 71
     2
 72
     2
 73
     0
 90
        0
 40
-0.6
 41
-30.0
 62
     5
 63
     7
 74
     1
 91
        4
 64
     7
 65
   257
 75
     7
175
     7
 42
1.0
 92
        8
 66
     7
 43
1.0
 76
     1
 77
     6
 78
     2
 67
     7
 79
     5
170
     0
171
     0
290
     0
174
     0
 93
        1
 44
0.0
173
     0
291
     1
 45
0.0
1001
ACAD
1000
AcDbSavedByObjectVersion
1070
     0
  0
VISUALSTYLE
  5
33
102
{ACAD_REACTORS
330
2A
102
}
330
2A
100
AcDbVisualStyle
  2
Realistic
 70
     8
 71
     2
 72
     2
 73
     0
 90
        0
 40
-0.6
 41
-30.0
 62
     5
 63
     7
 74
     1
 91
        0
 64
     7
 65
   257
 75
     1
175
     1
 42
1.0
 92
        8
 66
     8
 43
1.0
 76
     1
 77
     6
 78
     2
 67
     7
 79
     5
170
     0
171
     0
290
     0
174
     0
 93
       13
 44
0.0
173
     0
291
     0
 45
0.0
1001
ACAD
1000
AcDbSavedByObjectVersion
1070
     0
  0
VISUALSTYLE
  5
37
102
{ACAD_REACTORS
330
2A
102
}
330
2A
100
AcDbVisualStyle
  2
Thicken
 70
    13
 71
     2
 72
     2
 73
     0
 90
        0
 40
-0.6
 41
-30.0
 62
     5
 63
     7
 74
     1
 91
        4
 64
     7
 65
   257
 75
     1
175
     1
 42
1.0
 92
       12
 66
     7
 43
1.0
 76
     1
 77
     6
 78
     2
 67
     7
 79
     5
170
     0
171
     0
290
     0
174
     0
 93
        1
 44
0.0
173
     0
291
     1
 45
0.0
1001
ACAD
1000
AcDbSavedByObjectVersion
1070
     0
  0
DICTIONARYVAR
  5
134
102
{ACAD_REACTORS
330
133
102
}
330
133
100
DictionaryVariables
280
     0
  1
1:1
  0
DICTIONARYVAR
  5
138
102
{ACAD_REACTORS
330
133
102
}
330
133
100
DictionaryVariables
280
     0
  1
80.000000
  0
DICTIONARYVAR
  5
137
102
{ACAD_REACTORS
330
133
102
}
330
133
100
DictionaryVariables
280
     0
  1
5.000000
  0
ENDSEC
  0
EOF
