  0
SECTION
  2
HEADER
  9
$ACADVER
  1
AC1015
  9
$ACADMAINTVER
 70
     6
  9
$DWGCODEPAGE
  3
ANSI_1252
  9
$INSBASE
 10
0.0
 20
0.0
 30
0.0
  9
$EXTMIN
 10
0.0
 20
0.0
 30
0.0
  9
$EXTMAX
 10
1682.0
 20
2378.0
 30
0.0
  9
$LIMMIN
 10
0.0
 20
0.0
  9
$LIMMAX
 10
1682.0
 20
2378.0
  9
$ORTHOMODE
 70
     0
  9
$REGENMODE
 70
     1
  9
$FILLMODE
 70
     1
  9
$QTEXTMODE
 70
     0
  9
$MIRRTEXT
 70
     1
  9
$LTSCALE
 40
1.0
  9
$ATTMODE
 70
     1
  9
$TEXTSIZE
 40
2.5
  9
$TRACEWID
 40
1.0
  9
$TEXTSTYLE
  7
Standard
  9
$CLAYER
  8
0
  9
$CELTYPE
  6
ByLayer
  9
$CECOLOR
 62
   256
  9
$CELTSCALE
 40
1.0
  9
$DISPSILH
 70
     0
  9
$DIMSCALE
 40
1.0
  9
$DIMASZ
 40
2.5
  9
$DIMEXO
 40
0.625
  9
$DIMDLI
 40
3.75
  9
$DIMRND
 40
0.0
  9
$DIMDLE
 40
0.0
  9
$DIMEXE
 40
1.25
  9
$DIMTP
 40
0.0
  9
$DIMTM
 40
0.0
  9
$DIMTXT
 40
2.5
  9
$DIMCEN
 40
2.5
  9
$DIMTSZ
 40
0.0
  9
$DIMTOL
 70
     0
  9
$DIMLIM
 70
     0
  9
$DIMTIH
 70
     0
  9
$DIMTOH
 70
     0
  9
$DIMSE1
 70
     0
  9
$DIMSE2
 70
     0
  9
$DIMTAD
 70
     1
  9
$DIMZIN
 70
     8
  9
$DIMBLK
  1

  9
$DIMASO
 70
     1
  9
$DIMSHO
 70
     1
  9
$DIMPOST
  1

  9
$DIMAPOST
  1

  9
$DIMALT
 70
     0
  9
$DIMALTD
 70
     3
  9
$DIMALTF
 40
0.0393700787
  9
$DIMLFAC
 40
1.0
  9
$DIMTOFL
 70
     1
  9
$DIMTVP
 40
0.0
  9
$DIMTIX
 70
     0
  9
$DIMSOXD
 70
     0
  9
$DIMSAH
 70
     0
  9
$DIMBLK1
  1

  9
$DIMBLK2
  1

  9
$DIMSTYLE
  2
ISO-25
  9
$DIMCLRD
 70
     0
  9
$DIMCLRE
 70
     0
  9
$DIMCLRT
 70
     0
  9
$DIMTFAC
 40
1.0
  9
$DIMGAP
 40
0.625
  9
$DIMJUST
 70
     0
  9
$DIMSD1
 70
     0
  9
$DIMSD2
 70
     0
  9
$DIMTOLJ
 70
     0
  9
$DIMTZIN
 70
     8
  9
$DIMALTZ
 70
     0
  9
$DIMALTTZ
 70
     0
  9
$DIMUPT
 70
     0
  9
$DIMDEC
 70
     2
  9
$DIMTDEC
 70
     2
  9
$DIMALTU
 70
     2
  9
$DIMALTTD
 70
     3
  9
$DIMTXSTY
  7
Standard
  9
$DIMAUNIT
 70
     0
  9
$DIMADEC
 70
     0
  9
$DIMALTRND
 40
0.0
  9
$DIMAZIN
 70
     0
  9
$DIMDSEP
 70
    44
  9
$DIMATFIT
 70
     3
  9
$DIMFRAC
 70
     0
  9
$DIMLDRBLK
  1

  9
$DIMLUNIT
 70
     2
  9
$DIMLWD
 70
    -2
  9
$DIMLWE
 70
    -2
  9
$DIMTMOVE
 70
     0
  9
$LUNITS
 70
     2
  9
$LUPREC
 70
     4
  9
$SKETCHINC
 40
1.0
  9
$FILLETRAD
 40
10.0
  9
$AUNITS
 70
     0
  9
$AUPREC
 70
     0
  9
$MENU
  1
.
  9
$ELEVATION
 40
0.0
  9
$PELEVATION
 40
0.0
  9
$THICKNESS
 40
0.0
  9
$LIMCHECK
 70
     0
  9
$CHAMFERA
 40
10.0
  9
$CHAMFERB
 40
10.0
  9
$CHAMFERC
 40
20.0
  9
$CHAMFERD
 40
0.0
  9
$SKPOLY
 70
     0
  9
$TDCREATE
 40
2455436.628811979
  9
$TDUCREATE
 40
2455436.545478646
  9
$TDUPDATE
 40
2455436.628811991
  9
$TDUUPDATE
 40
2455436.545478657
  9
$TDINDWG
 40
0.0000000116
  9
$TDUSRTIMER
 40
0.0000000116
  9
$USRTIMER
 70
     1
  9
$ANGBASE
 50
0.0
  9
$ANGDIR
 70
     0
  9
$PDMODE
 70
     0
  9
$PDSIZE
 40
0.0
  9
$PLINEWID
 40
0.0
  9
$SPLFRAME
 70
     0
  9
$SPLINETYPE
 70
     6
  9
$SPLINESEGS
 70
     8
  9
$HANDSEED
  5
47D
  9
$SURFTAB1
 70
     6
  9
$SURFTAB2
 70
     6
  9
$SURFTYPE
 70
     6
  9
$SURFU
 70
     6
  9
$SURFV
 70
     6
  9
$UCSBASE
  2

  9
$UCSNAME
  2

  9
$UCSORG
 10
0.0
 20
0.0
 30
0.0
  9
$UCSXDIR
 10
1.0
 20
0.0
 30
0.0
  9
$UCSYDIR
 10
0.0
 20
1.0
 30
0.0
  9
$UCSORTHOREF
  2

  9
$UCSORTHOVIEW
 70
     0
  9
$UCSORGTOP
 10
0.0
 20
0.0
 30
0.0
  9
$UCSORGBOTTOM
 10
0.0
 20
0.0
 30
0.0
  9
$UCSORGLEFT
 10
0.0
 20
0.0
 30
0.0
  9
$UCSORGRIGHT
 10
0.0
 20
0.0
 30
0.0
  9
$UCSORGFRONT
 10
0.0
 20
0.0
 30
0.0
  9
$UCSORGBACK
 10
0.0
 20
0.0
 30
0.0
  9
$PUCSBASE
  2

  9
$PUCSNAME
  2

  9
$PUCSORG
 10
0.0
 20
0.0
 30
0.0
  9
$PUCSXDIR
 10
1.0
 20
0.0
 30
0.0
  9
$PUCSYDIR
 10
0.0
 20
1.0
 30
0.0
  9
$PUCSORTHOREF
  2

  9
$PUCSORTHOVIEW
 70
     0
  9
$PUCSORGTOP
 10
0.0
 20
0.0
 30
0.0
  9
$PUCSORGBOTTOM
 10
0.0
 20
0.0
 30
0.0
  9
$PUCSORGLEFT
 10
0.0
 20
0.0
 30
0.0
  9
$PUCSORGRIGHT
 10
0.0
 20
0.0
 30
0.0
  9
$PUCSORGFRONT
 10
0.0
 20
0.0
 30
0.0
  9
$PUCSORGBACK
 10
0.0
 20
0.0
 30
0.0
  9
$USERI1
 70
     0
  9
$USERI2
 70
     0
  9
$USERI3
 70
     0
  9
$USERI4
 70
     0
  9
$USERI5
 70
     0
  9
$USERR1
 40
0.0
  9
$USERR2
 40
0.0
  9
$USERR3
 40
0.0
  9
$USERR4
 40
0.0
  9
$USERR5
 40
0.0
  9
$WORLDVIEW
 70
     1
  9
$SHADEDGE
 70
     3
  9
$SHADEDIF
 70
    70
  9
$TILEMODE
 70
     1
  9
$MAXACTVP
 70
    64
  9
$PINSBASE
 10
0.0
 20
0.0
 30
0.0
  9
$PLIMCHECK
 70
     0
  9
$PEXTMIN
 10
0.0
 20
0.0
 30
0.0
  9
$PEXTMAX
 10
1682.0
 20
2378.0
 30
0.0
  9
$PLIMMIN
 10
0.0
 20
0.0
  9
$PLIMMAX
 10
1682.0
 20
2378.0
  9
$UNITMODE
 70
     0
  9
$VISRETAIN
 70
     1
  9
$PLINEGEN
 70
     0
  9
$PSLTSCALE
 70
     1
  9
$TREEDEPTH
 70
  3020
  9
$CMLSTYLE
  2
Standard
  9
$CMLJUST
 70
     0
  9
$CMLSCALE
 40
20.0
  9
$PROXYGRAPHICS
 70
     1
  9
$MEASUREMENT
 70
     1
  9
$CELWEIGHT
370
    -1
  9
$ENDCAPS
280
     0
  9
$JOINSTYLE
280
     0
  9
$LWDISPLAY
290
     0
  9
$INSUNITS
 70
     4
  9
$HYPERLINKBASE
  1

  9
$STYLESHEET
  1

  9
$XEDIT
290
     1
  9
$CEPSNTYPE
380
     0
  9
$PSTYLEMODE
290
     1
  9
$FINGERPRINTGUID
  2
{C5438DF4-E941-427F-9BF4-DDA2E53888FE}
  9
$VERSIONGUID
  2
{FAEB1C32-E019-11D5-929B-00C0DF256EC4}
  9
$EXTNAMES
290
     1
  9
$PSVPSCALE
 40
0.0
  9
$OLESTARTUP
290
     0
  0
ENDSEC
  0
SECTION
  2
CLASSES
  0
CLASS
  1
ACDBDICTIONARYWDFLT
  2
AcDbDictionaryWithDefault
  3
ObjectDBX Classes
 90
        0
280
     0
281
     0
  0
CLASS
  1
VISUALSTYLE
  2
AcDbVisualStyle
  3
ObjectDBX Classes
 90
     4095
280
     0
281
     0
  0
CLASS
  1
SCALE
  2
AcDbScale
  3
ObjectDBX Classes
 90
     1153
280
     0
281
     0
  0
CLASS
  1
DICTIONARYVAR
  2
AcDbDictionaryVar
  3
ObjectDBX Classes
 90
        0
280
     0
281
     0
  0
CLASS
  1
ACDBPLACEHOLDER
  2
AcDbPlaceHolder
  3
ObjectDBX Classes
 90
        0
280
     0
281
     0
  0
CLASS
  1
LAYOUT
  2
AcDbLayout
  3
ObjectDBX Classes
 90
        0
280
     0
281
     0
  0
ENDSEC
  0
SECTION
  2
TABLES
  0
TABLE
  2
VPORT
  5
8
330
0
100
AcDbSymbolTable
 70
     1
  0
VPORT
  5
29
330
8
100
AcDbSymbolTableRecord
100
AcDbViewportTableRecord
  2
*Active
 70
     0
 10
0.0
 20
0.0
 11
1.0
 21
1.0
 12
344.1869158879
 22
148.5
 13
0.0
 23
0.0
 14
10.0
 24
10.0
 15
10.0
 25
10.0
 16
0.0
 26
0.0
 36
1.0
 17
0.0
 27
0.0
 37
0.0
 40
297.0
 41
1.9729729729
 42
50.0
 43
0.0
 44
0.0
 50
0.0
 51
0.0
 71
     0
 72
   100
 73
     1
 74
     3
 75
     0
 76
     0
 77
     0
 78
     0
281
     0
 65
     1
110
0.0
120
0.0
130
0.0
111
1.0
121
0.0
131
0.0
112
0.0
122
1.0
132
0.0
 79
     0
146
0.0
  0
ENDTAB
  0
TABLE
  2
LTYPE
  5
5
330
0
100
AcDbSymbolTable
 70
     1
  0
LTYPE
  5
14
330
5
100
AcDbSymbolTableRecord
100
AcDbLinetypeTableRecord
  2
ByBlock
 70
     0
  3

 72
    65
 73
     0
 40
0.0
  0
LTYPE
  5
15
330
5
100
AcDbSymbolTableRecord
100
AcDbLinetypeTableRecord
  2
ByLayer
 70
     0
  3

 72
    65
 73
     0
 40
0.0
  0
LTYPE
  5
16
330
5
100
AcDbSymbolTableRecord
100
AcDbLinetypeTableRecord
  2
Continuous
 70
     0
  3
Solid line
 72
    65
 73
     0
 40
0.0
  0
ENDTAB
  0
TABLE
  2
LAYER
  5
2
330
0
100
AcDbSymbolTable
 70
    10
  0
LAYER
  5
10
330
2
100
AcDbSymbolTableRecord
100
AcDbLayerTableRecord
  2
0
 70
     0
 62
     7
  6
Continuous
370
    -3
390
F
  0
LAYER
  5
5D
330
2
100
AcDbSymbolTableRecord
100
AcDbLayerTableRecord
  2
Default
 70
     0
 62
     7
  6
Continuous
370
    -3
390
F
  0
LAYER
  5
60
330
2
100
AcDbSymbolTableRecord
100
AcDbLayerTableRecord
  2
$DDT_AUDIT_GENERATED_(60)
 70
     0
 62
     7
  6
Continuous
370
    -3
390
F
  0
LAYER
  5
83
330
2
100
AcDbSymbolTableRecord
100
AcDbLayerTableRecord
  2
$DDT_AUDIT_GENERATED_(83)
 70
     0
 62
     7
  6
Continuous
370
    -3
390
F
  0
LAYER
  5
86
330
2
100
AcDbSymbolTableRecord
100
AcDbLayerTableRecord
  2
$DDT_AUDIT_GENERATED_(86)
 70
     0
 62
     7
  6
Continuous
370
    -3
390
F
  0
LAYER
  5
9B
330
2
100
AcDbSymbolTableRecord
100
AcDbLayerTableRecord
  2
4221035_0__HUELS
 70
     0
 62
     7
  6
Continuous
370
    -3
390
F
  0
LAYER
  5
AB
330
2
100
AcDbSymbolTableRecord
100
AcDbLayerTableRecord
  2
4221039_0__SIEB_
 70
     0
 62
     7
  6
Continuous
370
    -3
390
F
  0
LAYER
  5
3BE
330
2
100
AcDbSymbolTableRecord
100
AcDbLayerTableRecord
  2
$DDT_AUDIT_GENERATED_(3BE)
 70
     0
 62
     7
  6
Continuous
370
    -3
390
F
  0
LAYER
  5
3EE
330
2
100
AcDbSymbolTableRecord
100
AcDbLayerTableRecord
  2
$DDT_AUDIT_GENERATED_(3EE)
 70
     0
 62
     7
  6
Continuous
370
    -3
390
F
  0
LAYER
  5
438
330
2
100
AcDbSymbolTableRecord
100
AcDbLayerTableRecord
  2
$DDT_AUDIT_GENERATED_(438)
 70
     0
 62
     7
  6
Continuous
370
    -3
390
F
  0
ENDTAB
  0
TABLE
  2
STYLE
  5
3
330
0
100
AcDbSymbolTable
 70
     2
  0
STYLE
  5
11
330
3
100
AcDbSymbolTableRecord
100
AcDbTextStyleTableRecord
  2
Standard
 70
     0
 40
0.0
 41
1.0
 50
0.0
 71
     0
 42
2.5
  3
txt
  4

  0
STYLE
  5
46C
330
3
100
AcDbSymbolTableRecord
100
AcDbTextStyleTableRecord
  2
SEACAD_seiso_ttf
 70
     0
 40
0.0
 41
1.0
 50
0.0
 71
     0
 42
0.2
  3
seiso.ttf
  4

  0
ENDTAB
  0
TABLE
  2
VIEW
  5
6
330
0
100
AcDbSymbolTable
 70
     0
  0
ENDTAB
  0
TABLE
  2
UCS
  5
7
330
0
100
AcDbSymbolTable
 70
     0
  0
ENDTAB
  0
TABLE
  2
APPID
  5
9
330
0
100
AcDbSymbolTable
 70
     1
  0
APPID
  5
12
330
9
100
AcDbSymbolTableRecord
100
AcDbRegAppTableRecord
  2
ACAD
 70
     0
  0
ENDTAB
  0
TABLE
  2
DIMSTYLE
  5
A
330
0
100
AcDbSymbolTable
 70
     1
100
AcDbDimStyleTable
  0
DIMSTYLE
105
27
330
A
100
AcDbSymbolTableRecord
100
AcDbDimStyleTableRecord
  2
ISO-25
 70
     0
 41
2.5
 42
0.625
 43
3.75
 44
1.25
 73
     0
 74
     0
 77
     1
 78
     8
140
2.5
141
2.5
143
0.0393700787
147
0.625
171
     3
172
     1
271
     2
272
     2
274
     3
278
    44
283
     0
284
     8
340
11
  0
ENDTAB
  0
TABLE
  2
BLOCK_RECORD
  5
1
330
0
100
AcDbSymbolTable
 70
     4
  0
BLOCK_RECORD
  5
1F
330
1
100
AcDbSymbolTableRecord
100
AcDbBlockTableRecord
  2
*Model_Space
340
22
  0
BLOCK_RECORD
  5
1B
330
1
100
AcDbSymbolTableRecord
100
AcDbBlockTableRecord
  2
*Paper_Space
340
1E
  0
BLOCK_RECORD
  5
5E
330
1
100
AcDbSymbolTableRecord
100
AcDbBlockTableRecord
  2
SE
340
0
102
{BLKREFS
331
5F
102
}
  0
BLOCK_RECORD
  5
3F4
330
1
100
AcDbSymbolTableRecord
100
AcDbBlockTableRecord
  2
SE1
340
0
102
{BLKREFS
331
3F5
102
}
  0
BLOCK_RECORD
  5
447
330
1
100
AcDbSymbolTableRecord
100
AcDbBlockTableRecord
  2
SE2
340
0
102
{BLKREFS
331
448
102
}
  0
ENDTAB
  0
ENDSEC
  0
SECTION
  2
BLOCKS
  0
BLOCK
  5
20
330
1F
100
AcDbEntity
  8
0
100
AcDbBlockBegin
  2
*Model_Space
 70
     0
 10
0.0
 20
0.0
 30
0.0
  3
*Model_Space
  1

  0
ENDBLK
  5
21
330
1F
100
AcDbEntity
  8
0
100
AcDbBlockEnd
  0
BLOCK
  5
1C
330
1B
100
AcDbEntity
 67
     1
  8
0
100
AcDbBlockBegin
  2
*Paper_Space
 70
     0
 10
0.0
 20
0.0
 30
0.0
  3
*Paper_Space
  1

  0
ENDBLK
  5
1D
330
1B
100
AcDbEntity
 67
     1
  8
0
100
AcDbBlockEnd
  0
BLOCK
  5
3F2
330
5E
100
AcDbEntity
  8
0
100
AcDbBlockBegin
  2
SE
 70
     0
 10
0.0
 20
0.0
 30
0.0
  3
SE
  1

  0
LINE
  5
61
330
5E
100
AcDbEntity
  8
$DDT_AUDIT_GENERATED_(60)
  6
Continuous
 62
     7
100
AcDbLine
 10
31.4035910276
 20
676.5105229334
 30
0.0
 11
6.4035910276
 21
676.5105229325
 31
0.0
  0
LINE
  5
62
330
5E
100
AcDbEntity
  8
$DDT_AUDIT_GENERATED_(60)
  6
Continuous
 62
     7
100
AcDbLine
 10
56.4035910276
 20
676.510522122
 30
0.0
 11
31.4035910276
 21
676.5105229334
 31
0.0
  0
SPLINE
  5
63
330
5E
100
AcDbEntity
  8
$DDT_AUDIT_GENERATED_(60)
  6
Continuous
 62
     7
100
AcDbSpline
210
0.0
220
0.0
230
1.0
 70
     8
 71
     3
 72
    19
 73
    15
 74
     0
 42
0.0000000001242844
 43
0.0000000001
 40
0.0
 40
0.0
 40
0.0
 40
0.0
 40
0.0115866844587369
 40
0.0228664154380244
 40
0.0340263353227238
 40
0.0517297637462827
 40
0.0678589427218355
 40
0.1016882696251547
 40
0.1355394296928353
 40
0.1518271117032411
 40
0.1693319946767756
 40
0.1851922173916891
 40
0.2031487734314397
 40
0.2133102149612028
 40
0.2133102149612028
 40
0.2133102149612028
 40
0.2133102149612028
 10
31.40359102758864
 20
772.3151495384111
 30
0.0
 10
30.99935798566259
 20
772.3160963800799
 30
0.0
 10
30.20160216271961
 20
772.3179649715253
 30
0.0
 10
29.01978669796289
 20
772.3364262825289
 30
0.0
 10
27.63827622123496
 20
772.3785808094145
 30
0.0
 10
26.11568620900578
 20
772.4582465004053
 30
0.0
 10
23.8976150327838
 20
772.617008351254
 30
0.0
 10
21.31087601106922
 20
772.8327642737003
 30
0.0
 10
19.045010536107
 20
773.103538396046
 30
0.0
 10
17.46931309434152
 20
773.3589726987117
 30
0.0
 10
16.44026523314576
 20
773.5580103137257
 30
0.0
 10
15.52198535482325
 20
773.7442989891576
 30
0.0
 10
14.85349700061559
 20
773.8895085548093
 30
0.0
 10
14.49289602192575
 20
773.9993615463611
 30
0.0
 10
14.37206381458167
 20
774.0428784829929
 30
0.0
  0
SPLINE
  5
64
330
5E
100
AcDbEntity
  8
$DDT_AUDIT_GENERATED_(60)
  6
Continuous
 62
     7
100
AcDbSpline
210
0.0
220
0.0
230
1.0
 70
     8
 71
     3
 72
    11
 73
     7
 74
     0
 42
0.0000000003996073
 43
0.0000000001
 40
0.2133102149612028
 40
0.2133102149612028
 40
0.2133102149612028
 40
0.2133102149612028
 40
0.2219749194251051
 40
0.2374128564176843
 40
0.2507038333569974
 40
0.2586613131476033
 40
0.2586613131476033
 40
0.2586613131476033
 40
0.2586613131476033
 10
14.37206381458167
 20
774.0428784829929
 30
0.0
 10
14.2690296768276
 20
774.0799855601714
 30
0.0
 10
14.00160109912115
 20
774.1909279751482
 30
0.0
 10
13.67513565482156
 20
774.4082494368458
 30
0.0
 10
13.53334719817278
 20
774.5579697859431
 30
0.0
 10
13.49122117646901
 20
774.6492686413739
 30
0.0
 10
13.47895855631012
 20
774.6840869909483
 30
0.0
  0
SPLINE
  5
65
330
5E
100
AcDbEntity
  8
$DDT_AUDIT_GENERATED_(60)
  6
Continuous
 62
     7
100
AcDbSpline
210
0.0
220
0.0
230
1.0
 70
     8
 71
     3
 72
    12
 73
     8
 74
     0
 42
0.0000000009957503
 43
0.0000000001
 40
0.368949622004884
 40
0.368949622004884
 40
0.368949622004884
 40
0.368949622004884
 40
0.3969209005629887
 40
0.4610838968968655
 40
0.5252074754995153
 40
0.6554064442912163
 40
0.6585539529527381
 40
0.6585539529527381
 40
0.6585539529527381
 40
0.6585539529527381
 10
49.62412970367622
 20
776.7454337174257
 30
0.0
 10
49.63258128988153
 20
776.8741051906438
 30
0.0
 10
49.65915583857342
 20
777.2939050659118
 30
0.0
 10
49.6957511430167
 20
777.9362749024604
 30
0.0
 10
49.7498463626265
 20
778.834273768864
 30
0.0
 10
49.78429296217355
 20
779.3514600322519
 30
0.0
 10
49.80514682172214
 20
779.641328056572
 30
0.0
 10
49.80563771608136
 20
779.6481370483998
 30
0.0
  0
SPLINE
  5
66
330
5E
100
AcDbEntity
  8
$DDT_AUDIT_GENERATED_(60)
  6
Continuous
 62
     7
100
AcDbSpline
210
0.0
220
0.0
230
1.0
 70
     8
 71
     3
 72
    12
 73
     8
 74
     0
 42
0.0000000010055258
 43
0.0000000001
 40
0.3428901085369357
 40
0.3428901085369357
 40
0.3428901085369357
 40
0.3428901085369357
 40
0.3449872901505214
 40
0.4753502952417657
 40
0.539578313091922
 40
0.6038170280628055
 40
0.6227534841585868
 40
0.6227534841585868
 40
0.6227534841585868
 40
0.6227534841585868
 10
13.00220717294368
 20
779.6388925540717
 30
0.0
 10
13.00253586739478
 20
779.6343236837827
 30
0.0
 10
13.02333367597707
 20
779.3448403457461
 30
0.0
 10
13.05769335807623
 20
778.8298608819018
 30
0.0
 10
13.1116930803363
 20
777.929603848279
 30
0.0
 10
13.14680383298256
 20
777.3213185338485
 30
0.0
 10
13.16977698135209
 20
776.9471925720612
 30
0.0
 10
13.17521591927468
 20
776.8610481211613
 30
0.0
  0
SPLINE
  5
67
330
5E
100
AcDbEntity
  8
$DDT_AUDIT_GENERATED_(60)
  6
Continuous
 62
     7
100
AcDbSpline
210
0.0
220
0.0
230
1.0
 70
     8
 71
     3
 72
    11
 73
     7
 74
     0
 42
0.0000000003880823
 43
0.0000000001
 40
0.741614076648061
 40
0.741614076648061
 40
0.741614076648061
 40
0.741614076648061
 40
0.7484079123223877
 40
0.7617331309793736
 40
0.7769865917070525
 40
0.7889270981014436
 40
0.7889270981014436
 40
0.7889270981014436
 40
0.7889270981014436
 10
49.32800182490426
 20
774.6822890870783
 30
0.0
 10
49.31730150239488
 20
774.652609736868
 30
0.0
 10
49.27786421824271
 20
774.566098497303
 30
0.0
 10
49.14966308890915
 20
774.4236243554492
 30
0.0
 10
48.8064417141664
 20
774.187279613163
 30
0.0
 10
48.50121862784412
 20
774.0641352572164
 30
0.0
 10
48.35428522740965
 20
774.014759486801
 30
0.0
  0
SPLINE
  5
68
330
5E
100
AcDbEntity
  8
$DDT_AUDIT_GENERATED_(60)
  6
Continuous
 62
     7
100
AcDbSpline
210
0.0
220
0.0
230
1.0
 70
     8
 71
     3
 72
    18
 73
    14
 74
     0
 42
0.0000000001235968
 43
0.0000000001
 40
0.7889270981014436
 40
0.7889270981014436
 40
0.7889270981014436
 40
0.7889270981014436
 40
0.7961778901913842
 40
0.8141956055201214
 40
0.8300340532754564
 40
0.8475912422316533
 40
0.8639334374485342
 40
0.8979996486762372
 40
0.9318391030329651
 40
0.9480977530614155
 40
0.9659636526680497
 40
0.982739598441757
 40
1.0
 40
1.0
 40
1.0
 40
1.0
 10
48.35428522740965
 20
774.014759486801
 30
0.0
 10
48.2650609095768
 20
773.9847763827571
 30
0.0
 10
47.93752518908107
 20
773.8863209893747
 30
0.0
 10
47.31733611223264
 20
773.7508733308722
 30
0.0
 10
46.40276896681598
 20
773.5653890347562
 30
0.0
 10
45.37689210939211
 20
773.3658470905724
 30
0.0
 10
43.79953850367309
 20
773.1088708567565
 30
0.0
 10
41.53001276354473
 20
772.8343102507552
 30
0.0
 10
38.93550270808095
 20
772.6193102775221
 30
0.0
 10
36.70852871280935
 20
772.4591274934545
 30
0.0
 10
34.98645371963789
 20
772.3690117397383
 30
0.0
 10
33.19372351917613
 20
772.3211071656449
 30
0.0
 10
32.00593775808556
 20
772.3171541718967
 30
0.0
 10
31.40359102758864
 20
772.3151495384111
 30
0.0
  0
LINE
  5
69
330
5E
100
AcDbEntity
  8
$DDT_AUDIT_GENERATED_(60)
  6
Continuous
 62
     7
100
AcDbLine
 10
49.9159159204
 20
780.7283363001
 30
0.0
 11
49.915947544
 21
786.7957453866
 31
0.0
  0
LINE
  5
6A
330
5E
100
AcDbEntity
  8
$DDT_AUDIT_GENERATED_(60)
  6
Continuous
 62
     7
100
AcDbLine
 10
12.8912345112
 20
786.7957453866
 30
0.0
 11
12.8912661347
 21
780.7283347302
 31
0.0
  0
ARC
  5
6B
330
5E
100
AcDbEntity
  8
$DDT_AUDIT_GENERATED_(60)
  6
Continuous
 62
     7
100
AcDbCircle
 10
51.2413191236
 20
769.1081838164
 30
0.0
 40
18.27886364061986
100
AcDbArc
 50
88.9313585239
 51
95.291229078
  0
ARC
  5
6C
330
5E
100
AcDbEntity
  8
$DDT_AUDIT_GENERATED_(60)
  6
Continuous
 62
     7
100
AcDbCircle
 10
43.9339935798
 20
1269.0656348594
 30
0.0
 40
481.7657913929219
100
AcDbArc
 50
270.9096763498
 51
271.4231801714
  0
ARC
  5
6D
330
5E
100
AcDbEntity
  8
$DDT_AUDIT_GENERATED_(60)
  6
Continuous
 62
     7
100
AcDbCircle
 10
18.8730091637
 20
1270.530480362
 30
0.0
 40
483.2301474903466
100
AcDbArc
 50
268.5809906418
 51
269.0931024829
  0
SPLINE
  5
6E
330
5E
100
AcDbEntity
  8
$DDT_AUDIT_GENERATED_(60)
  6
Continuous
 62
     7
100
AcDbSpline
210
0.0
220
0.0
230
1.0
 70
     8
 71
     3
 72
    14
 73
    10
 74
     0
 42
0.0000000038016112
 43
0.0000000001
 40
0.0
 40
0.0
 40
0.0
 40
0.0
 40
0.4999999999999998
 40
0.4999999999999998
 40
0.6249999999999998
 40
0.6249999999999998
 40
0.7499999999999999
 40
0.7499999999999999
 40
0.7834234842509411
 40
0.7834234842509411
 40
0.7834234842509411
 40
0.7834234842509411
 10
11.22495790370705
 20
787.3838682017459
 30
0.0
 10
11.92930273623764
 20
787.3747327050327
 30
0.0
 10
12.46388753548527
 20
787.3635398365113
 30
0.0
 10
12.92385799831133
 20
787.3454004083635
 30
0.0
 10
13.00539133902946
 20
787.3415473211523
 30
0.0
 10
13.14469366183345
 20
787.3334770190256
 30
0.0
 10
13.20275266564103
 20
787.3292524524682
 30
0.0
 10
13.26183440636297
 20
787.3236393117534
 30
0.0
 10
13.27348460845376
 20
787.3224404667915
 30
0.0
 10
13.28431754725203
 20
787.3212267210507
 30
0.0
  0
SPLINE
  5
6F
330
5E
100
AcDbEntity
  8
$DDT_AUDIT_GENERATED_(60)
  6
Continuous
 62
     7
100
AcDbSpline
210
0.0
220
0.0
230
1.0
 70
     8
 71
     3
 72
    32
 73
    28
 74
     0
 42
0.0000000004059628
 43
0.0000000001
 40
0.0
 40
0.0
 40
0.0
 40
0.0
 40
0.0312500000000002
 40
0.0312500000000002
 40
0.0625000000000005
 40
0.0625000000000005
 40
0.0937500000000007
 40
0.0937500000000007
 40
0.125000000000001
 40
0.125000000000001
 40
0.1875000000000015
 40
0.1875000000000015
 40
0.2187500000000016
 40
0.2187500000000016
 40
0.2500000000000016
 40
0.2500000000000016
 40
0.2812500000000017
 40
0.2812500000000017
 40
0.3125000000000017
 40
0.3125000000000017
 40
0.3750000000000018
 40
0.3750000000000018
 40
0.5000000000000017
 40
0.5000000000000017
 40
0.7500000000000009
 40
0.7500000000000009
 40
1.0
 40
1.0
 40
1.0
 40
1.0
 10
31.40359102758864
 20
778.0216602192371
 30
0.0
 10
30.28672648347488
 20
778.0216599801244
 30
0.0
 10
29.18607764421076
 20
778.0400720075206
 30
0.0
 10
27.01597947821297
 20
778.111917991197
 30
0.0
 10
25.93636068960814
 20
778.1661814526998
 30
0.0
 10
23.87549806953239
 20
778.3057492673742
 30
0.0
 10
22.89154319934305
 20
778.390721181725
 30
0.0
 10
21.01510614317014
 20
778.5888508281574
 30
0.0
 10
20.11888102809082
 20
778.7029484168199
 30
0.0
 10
17.6729326753978
 20
779.0717734057481
 30
0.0
 10
16.31123385096696
 20
779.3620710445173
 30
0.0
 10
14.79652891126426
 20
779.8174603909231
 30
0.0
 10
14.37184995927631
 20
779.9726242535102
 30
0.0
 10
13.69473650400157
 20
780.2869981593057
 30
0.0
 10
13.46983840083729
 20
780.4417096721211
 30
0.0
 10
13.33100667593007
 20
780.7595173697744
 30
0.0
 10
13.31435526414138
 20
780.9196329320705
 30
0.0
 10
13.27186442826998
 20
781.229921429785
 30
0.0
 10
13.25672938485241
 20
781.3815815032173
 30
0.0
 10
13.2161320892087
 20
781.8258109098849
 30
0.0
 10
13.19633912344428
 20
782.107629718149
 30
0.0
 10
13.14185630704933
 20
782.9117313916166
 30
0.0
 10
13.1135980506385
 20
783.3927859127723
 30
0.0
 10
13.03583981776586
 20
784.6848930100853
 30
0.0
 10
12.99509788427434
 20
785.3450533696389
 30
0.0
 10
12.92930046290921
 20
786.3204731164531
 30
0.0
 10
12.90508213786227
 20
786.6444912692048
 30
0.0
 10
12.89123451115698
 20
786.7957453865617
 30
0.0
  0
SPLINE
  5
70
330
5E
100
AcDbEntity
  8
$DDT_AUDIT_GENERATED_(60)
  6
Continuous
 62
     7
100
AcDbSpline
210
0.0
220
0.0
230
1.0
 70
     8
 71
     3
 72
    26
 73
    22
 74
     0
 42
0.0000000004059251
 43
0.0000000001
 40
0.0
 40
0.0
 40
0.0
 40
0.0
 40
0.4999999999999996
 40
0.4999999999999996
 40
0.6249999999999992
 40
0.6249999999999992
 40
0.6874999999999991
 40
0.6874999999999991
 40
0.7187499999999991
 40
0.7187499999999991
 40
0.7499999999999992
 40
0.7499999999999992
 40
0.7812499999999993
 40
0.7812499999999993
 40
0.8124999999999993
 40
0.8124999999999993
 40
0.8749999999999996
 40
0.8749999999999996
 40
0.9374999999999997
 40
0.9374999999999997
 40
1.0
 40
1.0
 40
1.0
 40
1.0
 10
49.9159475440204
 20
786.7957453865617
 30
0.0
 10
49.88824982372686
 20
786.4932102067106
 30
0.0
 10
49.8231345258656
 20
785.5455117658416
 30
0.0
 10
49.69350726306897
 20
783.391513889155
 30
0.0
 10
49.66523068242181
 20
782.9101355604205
 30
0.0
 10
49.61070362248171
 20
782.1056705622947
 30
0.0
 10
49.59089433870149
 20
781.8237248970312
 30
0.0
 10
49.55023340046324
 20
781.3793758277611
 30
0.0
 10
49.53507300088908
 20
781.2276717735663
 30
0.0
 10
49.49244028881233
 20
780.9172806978481
 30
0.0
 10
49.47591662305992
 20
780.7570183202092
 30
0.0
 10
49.33557475973119
 20
780.4395949290963
 30
0.0
 10
49.10821928672801
 20
780.2847822263442
 30
0.0
 10
48.4337270885847
 20
779.9721350174768
 30
0.0
 10
48.0088711270933
 20
779.8166553344116
 30
0.0
 10
46.4780878354601
 20
779.3572457028596
 30
0.0
 10
45.13617933061322
 20
779.071585694728
 30
0.0
 10
41.84275730356491
 20
778.5759315892316
 30
0.0
 10
39.9564366934536
 20
778.3748427537939
 30
0.0
 10
35.8204710914317
 20
778.0953563211029
 30
0.0
 10
33.63637690415576
 20
778.0216597412135
 30
0.0
 10
31.40359102758864
 20
778.0216602192371
 30
0.0
  0
ARC
  5
71
330
5E
100
AcDbEntity
  8
$DDT_AUDIT_GENERATED_(60)
  6
Continuous
 62
     7
100
AcDbCircle
 10
31.4026849659
 20
1406.940558942
 30
0.0
 40
619.9314521037286
100
AcDbArc
 50
267.8426815376
 51
272.1187298076
  0
SPLINE
  5
72
330
5E
100
AcDbEntity
  8
$DDT_AUDIT_GENERATED_(60)
  6
Continuous
 62
     7
100
AcDbSpline
210
0.0
220
0.0
230
1.0
 70
     8
 71
     3
 72
     8
 73
     4
 74
     0
 42
0.0000000010968832
 43
0.0000000001
 40
0.6193614539205492
 40
0.6193614539205492
 40
0.6193614539205492
 40
0.6193614539205492
 40
0.6215772381795988
 40
0.6215772381795988
 40
0.6215772381795988
 40
0.6215772381795988
 10
18.52361072035863
 20
766.6685329959159
 30
0.0
 10
18.51931399817068
 20
766.6737870668935
 30
0.0
 10
18.51507284328984
 20
766.6790170925589
 30
0.0
 10
18.51088740504914
 20
766.6842231854715
 30
0.0
  0
SPLINE
  5
73
330
5E
100
AcDbEntity
  8
$DDT_AUDIT_GENERATED_(60)
  6
Continuous
 62
     7
100
AcDbSpline
210
0.0
220
0.0
230
1.0
 70
     8
 71
     3
 72
     8
 73
     4
 74
     0
 42
0.0000000005808356
 43
0.0000000001
 40
0.6623607448270564
 40
0.6623607448270564
 40
0.6623607448270564
 40
0.6623607448270564
 40
0.6664653036011989
 40
0.6664653036011989
 40
0.6664653036011989
 40
0.6664653036011989
 10
44.28501558514106
 20
766.6715314729195
 30
0.0
 10
44.27051945733817
 20
766.653693246472
 30
0.0
 10
44.25541153019763
 20
766.635626144514
 30
0.0
 10
44.23969409599391
 20
766.6173179755093
 30
0.0
  0
LINE
  5
74
330
5E
100
AcDbEntity
  8
$DDT_AUDIT_GENERATED_(60)
  6
Continuous
 62
     7
100
AcDbLine
 10
6.4035910276
 20
786.9485661564
 30
0.0
 11
6.4035910276
 21
676.5105229325
 31
0.0
  0
ARC
  5
75
330
5E
100
AcDbEntity
  8
$DDT_AUDIT_GENERATED_(60)
  6
Continuous
 62
     7
100
AcDbCircle
 10
65.7921962353
 20
801.995684579
 30
0.0
 40
59.0107568216002
100
AcDbArc
 50
207.5763074425
 51
216.7586732346
  0
ARC
  5
76
330
5E
100
AcDbEntity
  8
$DDT_AUDIT_GENERATED_(60)
  6
Continuous
 62
     7
100
AcDbCircle
 10
-2.8256248566
 20
801.9027314463
 30
0.0
 40
58.82719385111412
100
AcDbArc
 50
323.2058087519
 51
332.428906213
  0
LINE
  5
77
330
5E
100
AcDbEntity
  8
$DDT_AUDIT_GENERATED_(60)
  6
Continuous
 62
     7
100
AcDbLine
 10
56.4035910276
 20
676.5105229325
 30
0.0
 11
56.4035910276
 21
786.9484478421
 31
0.0
  0
SPLINE
  5
78
330
5E
100
AcDbEntity
  8
$DDT_AUDIT_GENERATED_(60)
  6
Continuous
 62
     7
100
AcDbSpline
210
0.0
220
0.0
230
1.0
 70
     8
 71
     3
 72
    30
 73
    26
 74
     0
 42
0.0000000090886979
 43
0.0000000001
 40
0.0
 40
0.0
 40
0.0
 40
0.0
 40
0.0447230010009423
 40
0.0946242689790937
 40
0.1406987684897721
 40
0.1834858910813314
 40
0.2233915516181501
 40
0.2783681651886913
 40
0.3281740961481774
 40
0.3735818441949223
 40
0.4152052469047702
 40
0.4533339892578573
 40
0.488223261009025
 40
0.5201286183742302
 40
0.549305583226414
 40
0.5909271721274677
 40
0.62699685755799
 40
0.6582007220103632
 40
0.685223668198201
 40
0.7087505163730619
 40
0.7342858493307316
 40
0.7567656941914218
 40
0.7773544364302786
 40
0.7963752882501842
 40
0.8292548900965322
 40
0.8292548900965322
 40
0.8292548900965322
 40
0.8292548900965322
 10
49.80334391983661
 20
779.5849542961491
 30
0.0
 10
49.80571387049083
 20
779.617638743487
 30
0.0
 10
49.80993583473882
 20
779.6757806633029
 30
0.0
 10
49.81656063760826
 20
779.7641514522902
 30
0.0
 10
49.82273714442517
 20
779.8446126694834
 30
0.0
 10
49.82833013573397
 20
779.9156508362927
 30
0.0
 10
49.83412512516329
 20
779.9874657137776
 30
0.0
 10
49.8400059198599
 20
780.0581761469945
 30
0.0
 10
49.84586233741606
 20
780.1261211788293
 30
0.0
 10
49.85099058254222
 20
780.1835685722425
 30
0.0
 10
49.85550491627347
 20
780.2324281326022
 30
0.0
 10
49.85947098080699
 20
780.2740127525458
 30
0.0
 10
49.86295317377835
 20
780.3093796379617
 30
0.0
 10
49.86600624294319
 20
780.3394312786884
 30
0.0
 10
49.86913491975173
 20
780.3692896442793
 30
0.0
 10
49.87221123677607
 20
780.3975184000763
 30
0.0
 10
49.87511470937415
 20
780.4229275474663
 30
0.0
 10
49.87742252587251
 20
780.4422205265631
 30
0.0
 10
49.87923592154519
 20
780.4567296433571
 30
0.0
 10
49.88073958959626
 20
780.4682686176337
 30
0.0
 10
49.88195399461945
 20
780.4771778031128
 30
0.0
 10
49.88290248725795
 20
780.4838167240695
 30
0.0
 10
49.88359959927364
 20
780.4884709391666
 30
0.0
 10
49.88421702594576
 20
780.492375096693
 30
0.0
 10
49.88444166387038
 20
780.4936012799059
 30
0.0
 10
49.8844585552995
 20
780.4936013753012
 30
0.0
  0
SPLINE
  5
79
330
5E
100
AcDbEntity
  8
$DDT_AUDIT_GENERATED_(60)
  6
Continuous
 62
     7
100
AcDbSpline
210
0.0
220
0.0
230
1.0
 70
     8
 71
     3
 72
    91
 73
    87
 74
     0
 42
0.0000000012184602
 43
0.0000000001
 40
0.15718376739163
 40
0.15718376739163
 40
0.15718376739163
 40
0.15718376739163
 40
0.1572646999309054
 40
0.1573016868759973
 40
0.1573155926591135
 40
0.1573278492489269
 40
0.1573401876832452
 40
0.157354320577616
 40
0.1573921119394875
 40
0.1575176961342414
 40
0.1579931482687299
 40
0.1598896304578035
 40
0.1676638836268305
 40
0.1736444434604097
 40
0.1810900582983369
 40
0.1961890052464519
 40
0.215351011726486
 40
0.2386608153835677
 40
0.2663064391030511
 40
0.298525090623474
 40
0.3245356696632941
 40
0.3533353826475434
 40
0.3853116043749901
 40
0.4201114748928346
 40
0.4564718378176345
 40
0.4946030470456818
 40
0.5352056946636747
 40
0.572075895550669
 40
0.6089478365090963
 40
0.644602256700584
 40
0.6778078469374229
 40
0.6979724493446012
 40
0.7161313401737371
 40
0.731918346420372
 40
0.7419816821254263
 40
0.7503501997853942
 40
0.7568693396999078
 40
0.7613846166082223
 40
0.763741989338349
 40
0.7639766392607802
 40
0.7640395368551252
 40
0.7640575691747465
 40
0.7640634216128851
 40
0.764065647448227
 40
0.7640674899790644
 40
0.7640690758709594
 40
0.7640705979782084
 40
0.7640722719740219
 40
0.7640742653329236
 40
0.764086862097428
 40
0.7641386646891951
 40
0.7643549447623232
 40
0.7652513223242152
 40
0.7677943346600813
 40
0.7718342917018091
 40
0.7796627855375826
 40
0.7904242494161464
 40
0.80427386068024
 40
0.8213669008631975
 40
0.8346409351324068
 40
0.849254210661296
 40
0.8629257568648856
 40
0.8704765971396237
 40
0.8728635265576381
 40
0.8736296391647022
 40
0.8740803225364429
 40
0.8741802923896581
 40
0.8741917853461487
 40
0.8741978614070216
 40
0.8741985769295693
 40
0.8741990390187793
 40
0.8741994357664675
 40
0.8741996980704486
 40
0.8742000260351532
 40
0.8742055275285201
 40
0.8742332451637669
 40
0.8744551679428498
 40
0.8761297093965358
 40
0.8795247948413258
 40
0.8848239909850587
 40
0.8951688905631491
 40
0.90965968287969
 40
0.9287302933257402
 40
0.9486064270525035
 40
0.9722774129844974
 40
1.0
 40
1.0
 40
1.0
 40
1.0
 10
45.58735255138166
 20
773.5628337094292
 30
0.0
 10
45.586847266794
 20
773.563047953233
 30
0.0
 10
45.58615400743139
 20
773.5634493137132
 30
0.0
 10
45.58554969083423
 20
773.564228332011
 30
0.0
 10
45.5854393777968
 20
773.5648097183653
 30
0.0
 10
45.58548459234769
 20
773.5652451177251
 30
0.0
 10
45.58565468521819
 20
773.5657022604454
 30
0.0
 10
45.58606873502181
 20
773.5663787275603
 30
0.0
 10
45.58746162645032
 20
773.567802074246
 30
0.0
 10
45.59263235227614
 20
773.5710308948998
 30
0.0
 10
45.61243300793845
 20
773.5792295096177
 30
0.0
 10
45.69112720340861
 20
773.6027601943779
 30
0.0
 10
45.80954582978774
 20
773.6315654221513
 30
0.0
 10
45.9666752858498
 20
773.668736233204
 30
0.0
 10
46.17380765334096
 20
773.7164021668141
 30
0.0
 10
46.46667579300582
 20
773.7835325456568
 30
0.0
 10
46.85050528732489
 20
773.8711344915811
 30
0.0
 10
47.28718932751099
 20
773.9697839688419
 30
0.0
 10
47.7606692009287
 20
774.0821490837361
 30
0.0
 10
48.19545896438517
 20
774.1963723499085
 30
0.0
 10
48.58284266890897
 20
774.3248408945993
 30
0.0
 10
48.91465706854179
 20
774.4752184093204
 30
0.0
 10
49.20867040131751
 20
774.6796202373403
 30
0.0
 10
49.38145984896944
 20
774.853582265782
 30
0.0
 10
49.44117701447158
 20
775.0015893751894
 30
0.0
 10
49.48215978377733
 20
775.2191760806375
 30
0.0
 10
49.51285709272672
 20
775.4168221529096
 30
0.0
 10
49.53623478238271
 20
775.6082257606187
 30
0.0
 10
49.55396602138631
 20
775.7870901479347
 30
0.0
 10
49.56849500262356
 20
775.9592727729533
 30
0.0
 10
49.58032998538639
 20
776.1058793167825
 30
0.0
 10
49.58969944548082
 20
776.2253292948487
 30
0.0
 10
49.59652818526654
 20
776.3163530741002
 30
0.0
 10
49.60198038744186
 20
776.3910523311811
 30
0.0
 10
49.60618131947957
 20
776.4496851004716
 30
0.0
 10
49.60926962265902
 20
776.4931054652494
 30
0.0
 10
49.61168098094871
 20
776.5272140061214
 30
0.0
 10
49.61349819568997
 20
776.5523414755585
 30
0.0
 10
49.61445153184023
 20
776.5656099614381
 30
0.0
 10
49.61501557015044
 20
776.5725670150101
 30
0.0
 10
49.61511398756461
 20
776.5736943658428
 30
0.0
 10
49.61515555881742
 20
776.5741425614257
 30
0.0
 10
49.61517421082532
 20
776.5743353651991
 30
0.0
 10
49.61518343344654
 20
776.5744284123634
 30
0.0
 10
49.6151896464853
 20
776.574490148192
 30
0.0
 10
49.6151959059961
 20
776.5745513019156
 30
0.0
 10
49.61520205461871
 20
776.574610231197
 30
0.0
 10
49.61520780201259
 20
776.5746641925964
 30
0.0
 10
49.6152220347109
 20
776.5747948143181
 30
0.0
 10
49.61524843035524
 20
776.575012225118
 30
0.0
 10
49.61528495435809
 20
776.5752054367376
 30
0.0
 10
49.61529434193769
 20
776.5746231725808
 30
0.0
 10
49.61510810225292
 20
776.5707283093628
 30
0.0
 10
49.61455342422898
 20
776.5610966510103
 30
0.0
 10
49.61332289738615
 20
776.5410637790927
 30
0.0
 10
49.61121417762248
 20
776.5081274582229
 30
0.0
 10
49.60801128763954
 20
776.4597229286372
 30
0.0
 10
49.60368662939203
 20
776.3965146969567
 30
0.0
 10
49.59887874477113
 20
776.3288641059079
 30
0.0
 10
49.59378241976467
 20
776.2597872292276
 30
0.0
 10
49.5888994063552
 20
776.1958305940185
 30
0.0
 10
49.58455163818387
 20
776.1410364041865
 30
0.0
 10
49.58173425707469
 20
776.1053941376217
 30
0.0
 10
49.58048798723821
 20
776.0898147733582
 30
0.0
 10
49.58007793799258
 20
776.0847277389032
 30
0.0
 10
49.57994358312129
 20
776.0831067372811
 30
0.0
 10
49.5798880611306
 20
776.0824448423757
 30
0.0
 10
49.57988583572305
 20
776.0824497156218
 30
0.0
 10
49.57988592400067
 20
776.0824573392096
 30
0.0
 10
49.57988789605769
 20
776.0824897514116
 30
0.0
 10
49.57988880415417
 20
776.0825040783994
 30
0.0
 10
49.57988981916974
 20
776.082519546534
 30
0.0
 10
49.57989046010559
 20
776.0825291510012
 30
0.0
 10
49.57989385733998
 20
776.082579622263
 30
0.0
 10
49.57990217079821
 20
776.0826956723388
 30
0.0
 10
49.579953684027
 20
776.0834022340352
 30
0.0
 10
49.5802213252085
 20
776.0868573803763
 30
0.0
 10
49.58094159821847
 20
776.0961472535621
 30
0.0
 10
49.58227320291586
 20
776.1131405076019
 30
0.0
 10
49.5847070445998
 20
776.1443083878102
 30
0.0
 10
49.5885480748728
 20
776.1930964850804
 30
0.0
 10
49.59401271124808
 20
776.2641157512758
 30
0.0
 10
49.60040574373315
 20
776.350583215625
 30
0.0
 10
49.60755951366105
 20
776.4513309038016
 30
0.0
 10
49.6155411819873
 20
776.5685530661342
 30
0.0
 10
49.62048369175953
 20
776.6448901875332
 30
0.0
 10
49.62364233959934
 20
776.6938724831148
 30
0.0
  0
SPLINE
  5
7A
330
5E
100
AcDbEntity
  8
$DDT_AUDIT_GENERATED_(60)
  6
Continuous
 62
     7
100
AcDbSpline
210
0.0
220
0.0
230
1.0
 70
     8
 71
     3
 72
    91
 73
    87
 74
     0
 42
0.0000000012809147
 43
0.0000000001
 40
0.0
 40
0.0
 40
0.0
 40
0.0
 40
0.0269145512541009
 40
0.0510996432477157
 40
0.072174557252175
 40
0.0903120993216915
 40
0.1102250050542301
 40
0.1256329819510164
 40
0.1369457783947867
 40
0.1429892299882337
 40
0.1471327692967742
 40
0.1495496967504706
 40
0.1501648541050776
 40
0.1503336143246347
 40
0.1503844985453564
 40
0.1504135496850794
 40
0.1504200710453464
 40
0.1504209119835921
 40
0.1504212267714415
 40
0.1504214811994433
 40
0.1504218774470518
 40
0.15042234088857
 40
0.1504230428040789
 40
0.1504269579121921
 40
0.1504366702560459
 40
0.1505270355755898
 40
0.1509473774778674
 40
0.1526715260939893
 40
0.1590481464549397
 40
0.1681748673132639
 40
0.178665815819595
 40
0.1891513947779328
 40
0.1988559932138754
 40
0.2208221331693777
 40
0.2373675003475966
 40
0.2488332512991352
 40
0.2543041457016467
 40
0.2572535724032801
 40
0.2576140802851186
 40
0.2578287318052791
 40
0.2578825592175464
 40
0.2578967286823143
 40
0.2579010479683656
 40
0.2579027269025051
 40
0.2579042634444723
 40
0.2579058504872963
 40
0.2579076643864676
 40
0.2579123947705369
 40
0.2579275243685986
 40
0.2579829340550881
 40
0.2585476681223142
 40
0.2596522272344737
 40
0.2634113330981325
 40
0.2691183420695668
 40
0.2816458516008132
 40
0.298058248843638
 40
0.317803263050017
 40
0.3403289508818021
 40
0.3650832643139554
 40
0.3999454632558584
 40
0.4364404620390578
 40
0.4733405522371461
 40
0.5134088570730865
 40
0.5511470029572909
 40
0.5867846662065235
 40
0.6211336375692058
 40
0.6530548657156362
 40
0.6817517196442145
 40
0.7076808616862835
 40
0.7398629999882484
 40
0.7675794846048194
 40
0.7909621662827077
 40
0.8101630345673807
 40
0.8253694422726814
 40
0.8390802820650757
 40
0.8472827320043784
 40
0.84943815374374
 40
0.8500519330322364
 40
0.8503693956163858
 40
0.85040706251662
 40
0.8504213158190872
 40
0.8504338061011385
 40
0.8504461176485473
 40
0.8504598852109476
 40
0.8504959570036532
 40
0.8506238819442028
 40
0.8506238819442028
 40
0.8506238819442028
 40
0.8506238819442028
 10
13.17674545428348
 20
776.8017657266471
 30
0.0
 10
13.17967225713751
 20
776.7549542498247
 30
0.0
 10
13.18436395424509
 20
776.6801751485061
 30
0.0
 10
13.19203494723111
 20
776.5629012122299
 30
0.0
 10
13.19888877035012
 20
776.4620224407537
 30
0.0
 10
13.20556982064544
 20
776.3672591036577
 30
0.0
 10
13.21184862002266
 20
776.2816755659018
 30
0.0
 10
13.21753906467937
 20
776.2069717141311
 30
0.0
 10
13.22169178522158
 20
776.1543664752181
 30
0.0
 10
13.22441459168383
 20
776.1197022119661
 30
0.0
 10
13.22602688472713
 20
776.0991471185681
 30
0.0
 10
13.22696046932476
 20
776.0872253959177
 30
0.0
 10
13.2273986891752
 20
776.0815810327642
 30
0.0
 10
13.22752288302886
 20
776.0799578025441
 30
0.0
 10
13.22756451288142
 20
776.0794035966468
 30
0.0
 10
13.22758135435409
 20
776.0791745352433
 30
0.0
 10
13.22759061610281
 20
776.0790450027338
 30
0.0
 10
13.22759408323745
 20
776.078994353145
 30
0.0
 10
13.22759490502454
 20
776.0789821733127
 30
0.0
 10
13.22759554990349
 20
776.0789725428785
 30
0.0
 10
13.22759655038097
 20
776.0789573613538
 30
0.0
 10
13.22759745280022
 20
776.0789432253488
 30
0.0
 10
13.22759892476289
 20
776.0789193198318
 30
0.0
 10
13.22759977750412
 20
776.0789016341863
 30
0.0
 10
13.22759889422987
 20
776.0788815985742
 30
0.0
 10
13.22754993507236
 20
776.0794581433001
 30
0.0
 10
13.2273244011701
 20
776.082173386396
 30
0.0
 10
13.22633633227715
 20
776.0944885145187
 30
0.0
 10
13.22432123136488
 20
776.1197870263923
 30
0.0
 10
13.22120069400383
 20
776.1589808101196
 30
0.0
 10
13.21760888871159
 20
776.2046313174303
 30
0.0
 10
13.21405079865975
 20
776.251289106023
 30
0.0
 10
13.20928771488496
 20
776.3152807408391
 30
0.0
 10
13.20406444619271
 20
776.3882810962231
 30
0.0
 10
13.19899675206962
 20
776.4627179659284
 30
0.0
 10
13.1957777918514
 20
776.5117956061111
 30
0.0
 10
13.19411255553193
 20
776.5388707195843
 30
0.0
 10
13.19341376738074
 20
776.5505399665324
 30
0.0
 10
13.19332382146431
 20
776.553406157053
 30
0.0
 10
13.19333125216328
 20
776.553693010753
 30
0.0
 10
13.19336844323323
 20
776.5534961084544
 30
0.0
 10
13.19339460905997
 20
776.5532847856992
 30
0.0
 10
13.1934101463161
 20
776.5531450752172
 30
0.0
 10
13.19341851159109
 20
776.5530669612806
 30
0.0
 10
13.19342464044493
 20
776.5530086055008
 30
0.0
 10
13.19343089396516
 20
776.552947989429
 30
0.0
 10
13.19343999857166
 20
776.5528582963735
 30
0.0
 10
13.19345864158067
 20
776.5526699417964
 30
0.0
 10
13.19349938994116
 20
776.5522395570404
 30
0.0
 10
13.19371042044623
 20
776.5498637715098
 30
0.0
 10
13.19399211883399
 20
776.5461835145392
 30
0.0
 10
13.19488492726439
 20
776.5345588628784
 30
0.0
 10
13.196264370587
 20
776.5153818746751
 30
0.0
 10
13.19910412173405
 20
776.4759466032826
 30
0.0
 10
13.20335620554098
 20
776.4164711655235
 30
0.0
 10
13.20936732340265
 20
776.3339171050915
 30
0.0
 10
13.21671725522205
 20
776.2356997021186
 30
0.0
 10
13.22540954426823
 20
776.1244944810877
 30
0.0
 10
13.2363863003041
 20
775.9897459512532
 30
0.0
 10
13.2491459090978
 20
775.8342251293498
 30
0.0
 10
13.26556334238938
 20
775.6591389859375
 30
0.0
 10
13.28682176413129
 20
775.4723055911595
 30
0.0
 10
13.31499604827413
 20
775.2796794201946
 30
0.0
 10
13.35109075642813
 20
775.072170463615
 30
0.0
 10
13.39852547043189
 20
774.8989330417689
 30
0.0
 10
13.50678833310943
 20
774.7628246753602
 30
0.0
 10
13.74505676818112
 20
774.5644971745189
 30
0.0
 10
14.04275335881816
 20
774.3973949433316
 30
0.0
 10
14.39505667224107
 20
774.25835378127
 30
0.0
 10
14.79774798350568
 20
774.1407431272287
 30
0.0
 10
15.23976293294102
 20
774.0293189877214
 30
0.0
 10
15.64977346520413
 20
773.9328494820858
 30
0.0
 10
16.01199469604007
 20
773.8494833596225
 30
0.0
 10
16.33062636785677
 20
773.7748251354097
 30
0.0
 10
16.58793575117691
 20
773.7130908377941
 30
0.0
 10
16.76043630404537
 20
773.6685331932526
 30
0.0
 10
16.84140514051951
 20
773.6448773096689
 30
0.0
 10
16.86447331700389
 20
773.6351362240481
 30
0.0
 10
16.87203477477676
 20
773.6317312701862
 30
0.0
 10
16.87482642639784
 20
773.6287907016399
 30
0.0
 10
16.8752303669807
 20
773.62811736214
 30
0.0
 10
16.87540433771921
 20
773.6276623845717
 30
0.0
 10
16.87546481893196
 20
773.6272267871152
 30
0.0
 10
16.87539123198223
 20
773.6266422957676
 30
0.0
 10
16.87466259064937
 20
773.6255672871399
 30
0.0
 10
16.87378071093289
 20
773.6249868210185
 30
0.0
 10
16.87301893425862
 20
773.6246823799273
 30
0.0
  0
SPLINE
  5
7B
330
5E
100
AcDbEntity
  8
$DDT_AUDIT_GENERATED_(60)
  6
Continuous
 62
     7
100
AcDbSpline
210
0.0
220
0.0
230
1.0
 70
     8
 71
     3
 72
    30
 73
    26
 74
     0
 42
0.0000000090029191
 43
0.0000000001
 40
0.1698861928209211
 40
0.1698861928209211
 40
0.1698861928209211
 40
0.1698861928209211
 40
0.2028771901168743
 40
0.2218508878122014
 40
0.2423915697313296
 40
0.2648166472287581
 40
0.2902849998070932
 40
0.3137485019540447
 40
0.3406985009894447
 40
0.3718188168669491
 40
0.4077931665043091
 40
0.4493061828287159
 40
0.48207680275439
 40
0.5182965852259794
 40
0.558320884276029
 40
0.6025049278901233
 40
0.640370183205903
 40
0.6812813558808425
 40
0.7257227333893139
 40
0.7742141476044078
 40
0.8189216101745225
 40
0.8672664819501442
 40
0.9198616396740931
 40
0.9774602103403761
 40
1.0
 40
1.0
 40
1.0
 40
1.0
 10
12.92271935428515
 20
780.4936180592093
 30
0.0
 10
12.92273643815762
 20
780.493618618364
 30
0.0
 10
12.92296409557141
 20
780.4923758925102
 30
0.0
 10
12.92358792016726
 20
780.4884294575911
 30
0.0
 10
12.92428947358346
 20
780.4837432299489
 30
0.0
 10
12.9252427888553
 20
780.47706684039
 30
0.0
 10
12.92646207029826
 20
780.4681167280522
 30
0.0
 10
12.9279709772093
 20
780.4565307794752
 30
0.0
 10
12.92979017066902
 20
780.4419665907949
 30
0.0
 10
12.93210500570113
 20
780.4226031297843
 30
0.0
 10
12.93501705746018
 20
780.3971029050227
 30
0.0
 10
12.9382085213408
 20
780.3677986170343
 30
0.0
 10
12.94160295553598
 20
780.3353211705164
 30
0.0
 10
12.94511757827585
 20
780.3005066041673
 30
0.0
 10
12.94918734953085
 20
780.2587449797163
 30
0.0
 10
12.95350959976598
 20
780.212785110042
 30
0.0
 10
12.95804164373502
 20
780.1630035300601
 30
0.0
 10
12.96273795740473
 20
780.1098025636909
 30
0.0
 10
12.96802285319074
 20
780.048056480895
 30
0.0
 10
12.97366031783972
 20
779.9800822532981
 30
0.0
 10
12.97966056788061
 20
779.9055557187613
 30
0.0
 10
12.98605621802382
 20
779.8239233063309
 30
0.0
 10
12.99321464309314
 20
779.7298027096069
 30
0.0
 10
12.99959898772455
 20
779.6439787573987
 30
0.0
 10
13.00329333943119
 20
779.5924034922613
 30
0.0
 10
13.0045140968156
 20
779.5753487198256
 30
0.0
  0
ARC
  5
7C
330
5E
100
AcDbEntity
  8
$DDT_AUDIT_GENERATED_(60)
  6
Continuous
 62
     7
100
AcDbCircle
 10
14.5885304652
 20
780.7246883599
 30
0.0
 40
1.695142156807882
100
AcDbArc
 50
183.1959595072
 51
183.8054972962
  0
ARC
  5
7D
330
5E
100
AcDbEntity
  8
$DDT_AUDIT_GENERATED_(60)
  6
Continuous
 62
     7
100
AcDbCircle
 10
55.9049185836
 20
786.9576487114
 30
0.0
 40
0.4912994388187137
100
AcDbArc
 50
358.8626726011
 51
87.1709694536
  0
ARC
  5
7E
330
5E
100
AcDbEntity
  8
$DDT_AUDIT_GENERATED_(60)
  6
Continuous
 62
     7
100
AcDbCircle
 10
6.9018274235
 20
786.9582787659
 30
0.0
 40
0.4907678851017511
100
AcDbArc
 50
92.5808356423
 51
181.1492147542
  0
ARC
  5
7F
330
5E
100
AcDbEntity
  8
$DDT_AUDIT_GENERATED_(60)
  6
Continuous
 62
     7
100
AcDbCircle
 10
30.6377414038
 20
713.0193794395
 30
0.0
 40
56.07330197071771
100
AcDbArc
 50
76.5822275623
 51
99.6312507471
  0
ARC
  5
80
330
5E
100
AcDbEntity
  8
$DDT_AUDIT_GENERATED_(60)
  6
Continuous
 62
     7
100
AcDbCircle
 10
30.8843416296
 20
779.443871062
 30
0.0
 40
18.50978588272649
100
AcDbArc
 50
311.7529920108
 51
316.0969240985
  0
SPLINE
  5
81
330
5E
100
AcDbEntity
  8
$DDT_AUDIT_GENERATED_(60)
  6
Continuous
 62
     7
100
AcDbSpline
210
0.0
220
0.0
230
1.0
 70
     8
 71
     3
 72
    18
 73
    14
 74
     0
 42
0.0000000038980952
 43
0.0000000001
 40
0.1236723875420171
 40
0.1236723875420171
 40
0.1236723875420171
 40
0.1236723875420171
 40
0.2030682102472628
 40
0.2810423509365894
 40
0.3635008333525072
 40
0.4452991106381363
 40
0.5304305381209516
 40
0.6198251852204442
 40
0.711837745278082
 40
0.8059945326214015
 40
0.9017848088992195
 40
0.9987587040766513
 40
1.0
 40
1.0
 40
1.0
 40
1.0
 10
19.16008063260889
 20
767.5580343817207
 30
0.0
 10
19.16019452266586
 20
767.557694122361
 30
0.0
 10
19.163483233146
 20
767.5669676089398
 30
0.0
 10
19.20116278581138
 20
767.608972016504
 30
0.0
 10
19.28282239973032
 20
767.6735850373163
 30
0.0
 10
19.41409293760679
 20
767.7532855871026
 30
0.0
 10
19.59141822277053
 20
767.839767918178
 30
0.0
 10
19.82056604689953
 20
767.9315828753494
 30
0.0
 10
20.10175422209105
 20
768.0254603148658
 30
0.0
 10
20.43355351093583
 20
768.1194237364908
 30
0.0
 10
20.81317990296315
 20
768.2098318289605
 30
0.0
 10
21.10012551779027
 20
768.2721155536345
 30
0.0
 10
21.24996216811711
 20
768.2989666034724
 30
0.0
 10
21.2521563030125
 20
768.2993597466876
 30
0.0
  0
ARC
  5
82
330
5E
100
AcDbEntity
  8
$DDT_AUDIT_GENERATED_(60)
  6
Continuous
 62
     7
100
AcDbCircle
 10
31.871089698
 20
779.335740451
 30
0.0
 40
18.38578384301926
100
AcDbArc
 50
223.5293084229
 51
228.1387194376
  0
ELLIPSE
  5
84
330
5E
100
AcDbEntity
  8
$DDT_AUDIT_GENERATED_(83)
  6
Continuous
 62
     7
100
AcDbEllipse
 10
31.4035910276
 20
803.0166196949
 30
0.0
 11
0.0
 21
3.596307325254587
 31
0.0
210
0.0
220
0.0
230
1.0
 40
1.0
 41
4.011400314964926
 42
4.71238898038469
  0
ELLIPSE
  5
85
330
5E
100
AcDbEntity
  8
$DDT_AUDIT_GENERATED_(83)
  6
Continuous
 62
     7
100
AcDbEllipse
 10
31.4035910276
 20
803.0166196949
 30
0.0
 11
0.0
 21
3.45000000000001
 31
0.0
210
0.0
220
0.0
230
1.0
 40
1.0
 41
1.570796326794897
 42
1.960058053520124
  0
ELLIPSE
  5
87
330
5E
100
AcDbEntity
  8
$DDT_AUDIT_GENERATED_(86)
  6
Continuous
 62
     7
100
AcDbEllipse
 10
31.4035910276
 20
761.0243546381
 30
0.0
 11
-10.05000000000001
 21
1.387778780781446E-14
 31
0.0
210
0.0
220
0.0
230
1.0
 40
0.3420201433
 41
0.0
 42
6.283185307179586
  0
ELLIPSE
  5
88
330
5E
100
AcDbEntity
  8
$DDT_AUDIT_GENERATED_(86)
  6
Continuous
 62
     7
100
AcDbEllipse
 10
31.4035910276
 20
761.0243546381
 30
0.0
 11
-10.75
 21
0.0
 31
0.0
210
0.0
220
0.0
230
1.0
 40
0.3420201433
 41
0.0
 42
6.283185307179586
  0
ELLIPSE
  5
89
330
5E
100
AcDbEntity
  8
$DDT_AUDIT_GENERATED_(86)
  6
Continuous
 62
     7
100
AcDbEllipse
 10
31.4035910276
 20
761.3227471212
 30
0.0
 11
11.30000000000003
 21
0.0
 31
0.0
210
0.0
220
0.0
230
1.0
 40
0.3420201433
 41
-0.6820876318288098
 42
-0.6125073104169063
  0
ELLIPSE
  5
8A
330
5E
100
AcDbEntity
  8
$DDT_AUDIT_GENERATED_(86)
  6
Continuous
 62
     7
100
AcDbEllipse
 10
31.4035910276
 20
761.3227471212
 30
0.0
 11
11.30000000000003
 21
0.0
 31
0.0
210
0.0
220
0.0
230
1.0
 40
0.3420201433
 41
3.760484447486553
 42
3.823680285418606
  0
LINE
  5
8B
330
5E
100
AcDbEntity
  8
$DDT_AUDIT_GENERATED_(86)
  6
Continuous
 62
     7
100
AcDbLine
 10
42.4035910276
 20
760.438110847
 30
0.0
 11
42.4035910276
 21
762.2073833955
 31
0.0
  0
ELLIPSE
  5
8C
330
5E
100
AcDbEntity
  8
$DDT_AUDIT_GENERATED_(86)
  6
Continuous
 62
     7
100
AcDbEllipse
 10
31.4035910276
 20
763.8434325004
 30
0.0
 11
-11.79999999999958
 21
0.0
 31
0.0
210
0.0
220
0.0
230
1.0
 40
0.3420201433
 41
2.771250021498067
 42
3.511935285681514
  0
LINE
  5
8D
330
5E
100
AcDbEntity
  8
$DDT_AUDIT_GENERATED_(86)
  6
Continuous
 62
     7
100
AcDbLine
 10
42.4035910276
 20
760.438110847
 30
0.0
 11
42.4035910276
 21
760.3101503841
 31
0.0
  0
LINE
  5
8E
330
5E
100
AcDbEntity
  8
$DDT_AUDIT_GENERATED_(86)
  6
Continuous
 62
     7
100
AcDbLine
 10
42.4035910276
 20
762.2073833955
 30
0.0
 11
42.4035910276
 21
763.5972551362
 31
0.0
  0
LINE
  5
8F
330
5E
100
AcDbEntity
  8
$DDT_AUDIT_GENERATED_(86)
  6
Continuous
 62
     7
100
AcDbLine
 10
42.4035910276
 20
763.5972551362
 30
0.0
 11
42.4035910276
 21
765.304142834
 31
0.0
  0
LINE
  5
90
330
5E
100
AcDbEntity
  8
$DDT_AUDIT_GENERATED_(86)
  6
Continuous
 62
     7
100
AcDbLine
 10
20.4035910276
 20
762.2073833955
 30
0.0
 11
20.4035910276
 21
760.438110847
 31
0.0
  0
ELLIPSE
  5
91
330
5E
100
AcDbEntity
  8
$DDT_AUDIT_GENERATED_(86)
  6
Continuous
 62
     7
100
AcDbEllipse
 10
31.4035910276
 20
763.8434325004
 30
0.0
 11
11.80000000000016
 21
0.0
 31
0.0
210
0.0
220
0.0
230
1.0
 40
0.3420201433
 41
2.771250021498084
 42
3.511935285681503
  0
LINE
  5
92
330
5E
100
AcDbEntity
  8
$DDT_AUDIT_GENERATED_(86)
  6
Continuous
 62
     7
100
AcDbLine
 10
20.4035910276
 20
765.304142834
 30
0.0
 11
20.4035910276
 21
763.5972551362
 31
0.0
  0
LINE
  5
93
330
5E
100
AcDbEntity
  8
$DDT_AUDIT_GENERATED_(86)
  6
Continuous
 62
     7
100
AcDbLine
 10
20.4035910276
 20
763.5972551362
 30
0.0
 11
20.4035910276
 21
762.2073833955
 31
0.0
  0
LINE
  5
94
330
5E
100
AcDbEntity
  8
$DDT_AUDIT_GENERATED_(86)
  6
Continuous
 62
     7
100
AcDbLine
 10
20.4035910276
 20
760.3101394072
 30
0.0
 11
20.4035910276
 21
760.438110847
 31
0.0
  0
LINE
  5
95
330
5E
100
AcDbEntity
  8
$DDT_AUDIT_GENERATED_(86)
  6
Continuous
 62
     7
100
AcDbLine
 10
22.6318718199
 20
758.8863020563
 30
0.0
 11
23.0588139052
 21
758.7064976073
 31
0.0
  0
LINE
  5
96
330
5E
100
AcDbEntity
  8
$DDT_AUDIT_GENERATED_(86)
  6
Continuous
 62
     7
100
AcDbLine
 10
39.7483681499
 20
758.7064976073
 30
0.0
 11
40.1753102353
 21
758.8863020563
 31
0.0
  0
ARC
  5
97
330
5E
100
AcDbEntity
  8
$DDT_AUDIT_GENERATED_(86)
  6
Continuous
 62
     7
100
AcDbCircle
 10
38.3738403404
 20
764.2786839235
 30
0.0
 40
5.651734758202148
100
AcDbArc
 50
294.011156153
 51
315.5031182834
  0
ARC
  5
98
330
5E
100
AcDbEntity
  8
$DDT_AUDIT_GENERATED_(86)
  6
Continuous
 62
     7
100
AcDbCircle
 10
24.5333402355
 20
764.4320627082
 30
0.0
 40
5.834150495179246
100
AcDbArc
 50
224.8895059501
 51
246.1948148716
  0
LINE
  5
99
330
5E
100
AcDbEntity
  8
$DDT_AUDIT_GENERATED_(86)
  6
Continuous
 62
     7
100
AcDbLine
 10
19.6035910276
 20
767.8418798958
 30
0.0
 11
19.6035910276
 21
763.8434325004
 31
0.0
  0
LINE
  5
9A
330
5E
100
AcDbEntity
  8
$DDT_AUDIT_GENERATED_(86)
  6
Continuous
 62
     7
100
AcDbLine
 10
43.2035910276
 20
763.8434325004
 30
0.0
 11
43.2035910276
 21
767.8423736263
 31
0.0
  0
ELLIPSE
  5
9C
330
5E
100
AcDbEntity
  8
4221035_0__HUELS
  6
Continuous
 62
     7
100
AcDbEllipse
 10
31.4035910276
 20
761.2592777933
 30
0.0
 11
8.5
 21
-1.387778780781446E-14
 31
0.0
210
0.0
220
0.0
230
1.0
 40
0.3420201433
 41
3.548468582304108
 42
3.615228077919423
  0
ELLIPSE
  5
9D
330
5E
100
AcDbEntity
  8
4221035_0__HUELS
  6
Continuous
 62
     7
100
AcDbEllipse
 10
31.4035910276
 20
761.2592777933
 30
0.0
 11
8.5
 21
-1.387778780781446E-14
 31
0.0
210
0.0
220
0.0
230
1.0
 40
0.3420201433
 41
3.755926754298488
 42
3.923964176089797
  0
ELLIPSE
  5
9E
330
5E
100
AcDbEntity
  8
4221035_0__HUELS
  6
Continuous
 62
     7
100
AcDbEllipse
 10
31.4035910276
 20
761.2592777933
 30
0.0
 11
8.5
 21
-1.387778780781446E-14
 31
0.0
210
0.0
220
0.0
230
1.0
 40
0.3420201433
 41
4.000435024160859
 42
4.155472170691372
  0
ELLIPSE
  5
9F
330
5E
100
AcDbEntity
  8
4221035_0__HUELS
  6
Continuous
 62
     7
100
AcDbEllipse
 10
31.4035910276
 20
761.2592777933
 30
0.0
 11
8.5
 21
-1.387778780781446E-14
 31
0.0
210
0.0
220
0.0
230
1.0
 40
0.3420201433
 41
4.38204360595244
 42
4.544372702921137
  0
ELLIPSE
  5
A0
330
5E
100
AcDbEntity
  8
4221035_0__HUELS
  6
Continuous
 62
     7
100
AcDbEllipse
 10
31.4035910276
 20
761.2592777933
 30
0.0
 11
8.5
 21
-1.387778780781446E-14
 31
0.0
210
0.0
220
0.0
230
1.0
 40
0.3420201433
 41
4.56819231483261
 42
4.725834763674103
  0
ELLIPSE
  5
A1
330
5E
100
AcDbEntity
  8
4221035_0__HUELS
  6
Continuous
 62
     7
100
AcDbEllipse
 10
31.4035910276
 20
761.2592777933
 30
0.0
 11
8.5
 21
-1.387778780781446E-14
 31
0.0
210
0.0
220
0.0
230
1.0
 40
0.3420201433
 41
4.7493722004101
 42
4.904879684687881
  0
ELLIPSE
  5
A2
330
5E
100
AcDbEntity
  8
4221035_0__HUELS
  6
Continuous
 62
     7
100
AcDbEllipse
 10
31.4035910276
 20
761.2592777933
 30
0.0
 11
8.5
 21
-1.387778780781446E-14
 31
0.0
210
0.0
220
0.0
230
1.0
 40
0.3420201433
 41
-1.351393239323183
 42
-1.216120282113447
  0
ELLIPSE
  5
A3
330
5E
100
AcDbEntity
  8
4221035_0__HUELS
  6
Continuous
 62
     7
100
AcDbEllipse
 10
31.4035910276
 20
761.2592777933
 30
0.0
 11
8.5
 21
-1.387778780781446E-14
 31
0.0
210
0.0
220
0.0
230
1.0
 40
0.3420201433
 41
-1.159279480727404
 42
-0.9818776470059003
  0
ELLIPSE
  5
A4
330
5E
100
AcDbEntity
  8
4221035_0__HUELS
  6
Continuous
 62
     7
100
AcDbEllipse
 10
31.4035910276
 20
761.2592777933
 30
0.0
 11
8.5
 21
-1.387778780781446E-14
 31
0.0
210
0.0
220
0.0
230
1.0
 40
0.3420201433
 41
-0.9533526067933806
 42
-0.8588423705710673
  0
ELLIPSE
  5
A5
330
5E
100
AcDbEntity
  8
4221035_0__HUELS
  6
Continuous
 62
     7
100
AcDbEllipse
 10
31.4035910276
 20
761.2592777933
 30
0.0
 11
8.5
 21
-1.387778780781446E-14
 31
0.0
210
0.0
220
0.0
230
1.0
 40
0.3420201433
 41
-0.7080002466401174
 42
-0.6143341007086942
  0
ELLIPSE
  5
A6
330
5E
100
AcDbEntity
  8
4221035_0__HUELS
  6
Continuous
 62
     7
100
AcDbEllipse
 10
31.4035910276
 20
761.2592777933
 30
0.0
 11
8.5
 21
-1.387778780781446E-14
 31
0.0
210
0.0
220
0.0
230
1.0
 40
0.3420201433
 41
-0.347179452743978
 42
-0.2167634735838186
  0
ELLIPSE
  5
A7
330
5E
100
AcDbEntity
  8
4221035_0__HUELS
  6
Continuous
 62
     7
100
AcDbEllipse
 10
31.4035910276
 20
760.977370007
 30
0.0
 11
8.5
 21
-1.387778780781446E-14
 31
0.0
210
0.0
220
0.0
230
1.0
 40
0.3420201433
 41
0.0
 42
6.283185307179586
  0
ELLIPSE
  5
A8
330
5E
100
AcDbEntity
  8
4221035_0__HUELS
  6
Continuous
 62
     7
100
AcDbEllipse
 10
31.4035910276
 20
760.977370007
 30
0.0
 11
9.4
 21
-1.387778780781446E-14
 31
0.0
210
0.0
220
0.0
230
1.0
 40
0.3420201433
 41
0.0
 42
6.283185307179586
  0
LINE
  5
A9
330
5E
100
AcDbEntity
  8
4221035_0__HUELS
  6
Continuous
 62
     7
100
AcDbLine
 10
40.8035910276
 20
760.977370007
 30
0.0
 11
40.8035910276
 21
762.2404514944
 31
0.0
  0
LINE
  5
AA
330
5E
100
AcDbEntity
  8
4221035_0__HUELS
  6
Continuous
 62
     7
100
AcDbLine
 10
22.0035910276
 20
762.2404514944
 30
0.0
 11
22.0035910276
 21
760.977370007
 31
0.0
  0
ELLIPSE
  5
AC
330
5E
100
AcDbEntity
  8
4221039_0__SIEB_
  6
Continuous
 62
     7
100
AcDbEllipse
 10
30.0821624562
 20
763.8855038938
 30
0.0
 11
0.08191520442889515
 21
-0.08191520442890621
 31
0.0
210
0.0
220
0.0
230
0.9999999999999998
 40
0.7002075382
 41
4.516364876710881
 42
5.323254218583299
  0
ELLIPSE
  5
AD
330
5E
100
AcDbEntity
  8
4221039_0__SIEB_
  6
Continuous
 62
     7
100
AcDbEllipse
 10
30.0821624562
 20
763.8855038938
 30
0.0
 11
0.08191520442889448
 21
0.08191520442890619
 31
0.0
210
0.0
220
0.0
230
0.9999999999999998
 40
0.7002075382
 41
3.752457891786848
 42
4.101523742185572
  0
ELLIPSE
  5
AE
330
5E
100
AcDbEntity
  8
4221039_0__SIEB_
  6
Continuous
 62
     7
100
AcDbEllipse
 10
30.0821624562
 20
763.8855038938
 30
0.0
 11
-0.0819152044288919
 21
0.08191520442890621
 31
0.0
210
0.0
220
0.0
230
1.0
 40
0.7002075382
 41
2.18166156499356
 42
2.530727415392167
  0
ELLIPSE
  5
AF
330
5E
100
AcDbEntity
  8
4221039_0__SIEB_
  6
Continuous
 62
     7
100
AcDbEllipse
 10
30.0821624562
 20
763.8855038938
 30
0.0
 11
-0.08191520442890207
 21
-0.08191520442889232
 31
0.0
210
0.0
220
0.0
230
0.9999999999999999
 40
0.7002075382
 41
0.9599310885956852
 42
1.853390083865355
  0
ELLIPSE
  5
B0
330
5E
100
AcDbEntity
  8
4221039_0__SIEB_
  6
Continuous
 62
     7
100
AcDbEllipse
 10
31.6178767419
 20
763.8855038938
 30
0.0
 11
0.08191520442889562
 21
-0.08191520442890619
 31
0.0
210
0.0
220
0.0
230
1.0
 40
0.7002075382
 41
4.114084512434813
 42
5.323254218583294
  0
ELLIPSE
  5
B1
330
5E
100
AcDbEntity
  8
4221039_0__SIEB_
  6
Continuous
 62
     7
100
AcDbEllipse
 10
31.6178767419
 20
763.8855038938
 30
0.0
 11
0.08191520442889436
 21
0.08191520442890621
 31
0.0
210
0.0
220
0.0
230
1.0
 40
0.7002075382
 41
3.752457891786884
 42
4.101523742185571
  0
ELLIPSE
  5
B2
330
5E
100
AcDbEntity
  8
4221039_0__SIEB_
  6
Continuous
 62
     7
100
AcDbEllipse
 10
31.6178767419
 20
763.8855038938
 30
0.0
 11
-0.08191520442889173
 21
0.08191520442890621
 31
0.0
210
0.0
220
0.0
230
1.0
 40
0.7002075382
 41
2.181661564993535
 42
2.530727415392245
  0
ELLIPSE
  5
B3
330
5E
100
AcDbEntity
  8
4221039_0__SIEB_
  6
Continuous
 62
     7
100
AcDbEllipse
 10
31.6178767419
 20
763.8855038938
 30
0.0
 11
-0.08191520442890202
 21
-0.08191520442889232
 31
0.0
210
0.0
220
0.0
230
1.0
 40
0.7002075382
 41
0.9599310885956318
 42
2.153033618428467
  0
ELLIPSE
  5
B4
330
5E
100
AcDbEntity
  8
4221039_0__SIEB_
  6
Continuous
 62
     7
100
AcDbEllipse
 10
33.1535910276
 20
763.8855038938
 30
0.0
 11
0.08191520442890207
 21
-0.08191520442889232
 31
0.0
210
0.0
220
0.0
230
0.9999999999999999
 40
0.7002075382
 41
4.736628476407601
 42
5.323254218583345
  0
ELLIPSE
  5
B5
330
5E
100
AcDbEntity
  8
4221039_0__SIEB_
  6
Continuous
 62
     7
100
AcDbEllipse
 10
33.1535910276
 20
763.8855038938
 30
0.0
 11
0.08191520442889819
 21
0.08191520442890621
 31
0.0
210
0.0
220
0.0
230
1.0
 40
0.7002075382
 41
3.752457891786783
 42
4.101523742185524
  0
ELLIPSE
  5
B6
330
5E
100
AcDbEntity
  8
4221039_0__SIEB_
  6
Continuous
 62
     7
100
AcDbEllipse
 10
33.1535910276
 20
763.8855038938
 30
0.0
 11
-0.08191520442889448
 21
0.08191520442890619
 31
0.0
210
0.0
220
0.0
230
0.9999999999999998
 40
0.7002075382
 41
2.181661564992452
 42
2.530727415393078
  0
ELLIPSE
  5
B7
330
5E
100
AcDbEntity
  8
4221039_0__SIEB_
  6
Continuous
 62
     7
100
AcDbEllipse
 10
33.1535910276
 20
763.8855038938
 30
0.0
 11
-0.08191520442889776
 21
-0.08191520442889233
 31
0.0
210
0.0
220
0.0
230
1.0
 40
0.7002075382
 41
0.9599310885961512
 42
1.451634853617582
  0
ELLIPSE
  5
B8
330
5E
100
AcDbEntity
  8
4221039_0__SIEB_
  6
Continuous
 62
     7
100
AcDbEllipse
 10
36.225019599
 20
763.3602586737
 30
0.0
 11
-0.08191520442890274
 21
0.08191520442889233
 31
0.0
210
0.0
220
0.0
230
1.0
 40
0.7002075382
 41
2.181661564992435
 42
2.530727415391899
  0
ELLIPSE
  5
B9
330
5E
100
AcDbEntity
  8
4221039_0__SIEB_
  6
Continuous
 62
     7
100
AcDbEllipse
 10
36.225019599
 20
763.3602586737
 30
0.0
 11
-0.08191520442889494
 21
-0.08191520442890621
 31
0.0
210
0.0
220
0.0
230
0.9999999999999999
 40
0.7002075382
 41
0.9599310885962862
 42
2.079963773834486
  0
ELLIPSE
  5
BA
330
5E
100
AcDbEntity
  8
4221039_0__SIEB_
  6
Continuous
 62
     7
100
AcDbEllipse
 10
34.6893053133
 20
763.3602586737
 30
0.0
 11
-0.08191520442890274
 21
0.08191520442889233
 31
0.0
210
0.0
220
0.0
230
1.0
 40
0.7002075382
 41
2.18166156499254
 42
2.530727415393184
  0
ELLIPSE
  5
BB
330
5E
100
AcDbEntity
  8
4221039_0__SIEB_
  6
Continuous
 62
     7
100
AcDbEllipse
 10
34.6893053133
 20
763.3602586737
 30
0.0
 11
-0.08191520442889537
 21
-0.08191520442890621
 31
0.0
210
0.0
220
0.0
230
1.0
 40
0.7002075382
 41
0.9599310885956545
 42
2.530727415390404
  0
ELLIPSE
  5
BC
330
5E
100
AcDbEntity
  8
4221039_0__SIEB_
  6
Continuous
 62
     7
100
AcDbEllipse
 10
36.225019599
 20
763.3602586737
 30
0.0
 11
0.08191520442889494
 21
-0.08191520442890621
 31
0.0
210
0.0
220
0.0
230
0.9999999999999999
 40
0.7002075382
 41
3.752457891789256
 42
5.323254218583247
  0
ELLIPSE
  5
BD
330
5E
100
AcDbEntity
  8
4221039_0__SIEB_
  6
Continuous
 62
     7
100
AcDbEllipse
 10
36.225019599
 20
763.3602586737
 30
0.0
 11
0.08191520442890274
 21
0.08191520442889233
 31
0.0
210
0.0
220
0.0
230
1.0
 40
0.7002075382
 41
3.752457891788216
 42
4.101523742187046
  0
ELLIPSE
  5
BE
330
5E
100
AcDbEntity
  8
4221039_0__SIEB_
  6
Continuous
 62
     7
100
AcDbEllipse
 10
33.1535910276
 20
763.3602586737
 30
0.0
 11
-0.08191520442889276
 21
0.08191520442890621
 31
0.0
210
0.0
220
0.0
230
0.9999999999999998
 40
0.7002075382
 41
2.181661564994002
 42
2.53072741539174
  0
ELLIPSE
  5
BF
330
5E
100
AcDbEntity
  8
4221039_0__SIEB_
  6
Continuous
 62
     7
100
AcDbEllipse
 10
33.1535910276
 20
763.3602586737
 30
0.0
 11
-0.08191520442889602
 21
-0.08191520442890621
 31
0.0
210
0.0
220
0.0
230
0.9999999999999998
 40
0.7002075382
 41
0.9599310885957131
 42
2.530727415390325
  0
ELLIPSE
  5
C0
330
5E
100
AcDbEntity
  8
4221039_0__SIEB_
  6
Continuous
 62
     7
100
AcDbEllipse
 10
34.6893053133
 20
763.3602586737
 30
0.0
 11
0.08191520442889448
 21
-0.08191520442890619
 31
0.0
210
0.0
220
0.0
230
0.9999999999999998
 40
0.7002075382
 41
3.752457891789255
 42
5.323254218583833
  0
ELLIPSE
  5
C1
330
5E
100
AcDbEntity
  8
4221039_0__SIEB_
  6
Continuous
 62
     7
100
AcDbEllipse
 10
34.6893053133
 20
763.3602586737
 30
0.0
 11
0.08191520442889147
 21
0.08191520442890621
 31
0.0
210
0.0
220
0.0
230
1.0
 40
0.7002075382
 41
3.752457891786241
 42
4.101523742185414
  0
ELLIPSE
  5
C2
330
5E
100
AcDbEntity
  8
4221039_0__SIEB_
  6
Continuous
 62
     7
100
AcDbEllipse
 10
31.6178767419
 20
763.3602586737
 30
0.0
 11
-0.08191520442890197
 21
0.08191520442889233
 31
0.0
210
0.0
220
0.0
230
1.0
 40
0.7002075382
 41
2.181661564992494
 42
2.530727415392098
  0
ELLIPSE
  5
C3
330
5E
100
AcDbEntity
  8
4221039_0__SIEB_
  6
Continuous
 62
     7
100
AcDbEllipse
 10
31.6178767419
 20
763.3602586737
 30
0.0
 11
-0.08191520442890202
 21
-0.08191520442889232
 31
0.0
210
0.0
220
0.0
230
1.0
 40
0.7002075382
 41
0.9599310885956318
 42
2.530727415390517
  0
ELLIPSE
  5
C4
330
5E
100
AcDbEntity
  8
4221039_0__SIEB_
  6
Continuous
 62
     7
100
AcDbEllipse
 10
33.1535910276
 20
763.3602586737
 30
0.0
 11
0.08191520442888908
 21
-0.08191520442892009
 31
0.0
210
0.0
220
0.0
230
1.0
 40
0.7002075382
 41
3.752457891789486
 42
5.32325421858372
  0
ELLIPSE
  5
C5
330
5E
100
AcDbEntity
  8
4221039_0__SIEB_
  6
Continuous
 62
     7
100
AcDbEllipse
 10
33.1535910276
 20
763.3602586737
 30
0.0
 11
0.08191520442889147
 21
0.08191520442890621
 31
0.0
210
0.0
220
0.0
230
1.0
 40
0.7002075382
 41
3.752457891786241
 42
4.101523742185414
  0
ELLIPSE
  5
C6
330
5E
100
AcDbEntity
  8
4221039_0__SIEB_
  6
Continuous
 62
     7
100
AcDbEllipse
 10
30.0821624562
 20
763.3602586737
 30
0.0
 11
-0.08191520442890207
 21
0.08191520442889232
 31
0.0
210
0.0
220
0.0
230
0.9999999999999999
 40
0.7002075382
 41
2.181661564992572
 42
2.530727415391983
  0
ELLIPSE
  5
C7
330
5E
100
AcDbEntity
  8
4221039_0__SIEB_
  6
Continuous
 62
     7
100
AcDbEllipse
 10
30.0821624562
 20
763.3602586737
 30
0.0
 11
-0.08191520442890207
 21
-0.08191520442889232
 31
0.0
210
0.0
220
0.0
230
0.9999999999999999
 40
0.7002075382
 41
0.9599310885956852
 42
2.530727415390479
  0
ELLIPSE
  5
C8
330
5E
100
AcDbEntity
  8
4221039_0__SIEB_
  6
Continuous
 62
     7
100
AcDbEllipse
 10
31.6178767419
 20
763.3602586737
 30
0.0
 11
0.08191520442889434
 21
-0.08191520442890621
 31
0.0
210
0.0
220
0.0
230
1.0
 40
0.7002075382
 41
3.752457891789329
 42
5.323254218583782
  0
ELLIPSE
  5
C9
330
5E
100
AcDbEntity
  8
4221039_0__SIEB_
  6
Continuous
 62
     7
100
AcDbEllipse
 10
31.6178767419
 20
763.3602586737
 30
0.0
 11
0.08191520442889436
 21
0.08191520442890621
 31
0.0
210
0.0
220
0.0
230
1.0
 40
0.7002075382
 41
3.752457891786543
 42
4.101523742185571
  0
ELLIPSE
  5
CA
330
5E
100
AcDbEntity
  8
4221039_0__SIEB_
  6
Continuous
 62
     7
100
AcDbEllipse
 10
28.5464481704
 20
763.3602586737
 30
0.0
 11
-0.08191520442889795
 21
0.08191520442889232
 31
0.0
210
0.0
220
0.0
230
1.0
 40
0.7002075382
 41
2.181661564992502
 42
2.530727415391961
  0
ELLIPSE
  5
CB
330
5E
100
AcDbEntity
  8
4221039_0__SIEB_
  6
Continuous
 62
     7
100
AcDbEllipse
 10
28.5464481704
 20
763.3602586737
 30
0.0
 11
-0.08191520442890231
 21
-0.08191520442889233
 31
0.0
210
0.0
220
0.0
230
0.9999999999999998
 40
0.7002075382
 41
0.9599310885956343
 42
2.530727415390478
  0
ELLIPSE
  5
CC
330
5E
100
AcDbEntity
  8
4221039_0__SIEB_
  6
Continuous
 62
     7
100
AcDbEllipse
 10
30.0821624562
 20
763.3602586737
 30
0.0
 11
0.08191520442889448
 21
-0.08191520442890619
 31
0.0
210
0.0
220
0.0
230
0.9999999999999998
 40
0.7002075382
 41
3.752457891789292
 42
5.323254218583754
  0
ELLIPSE
  5
CD
330
5E
100
AcDbEntity
  8
4221039_0__SIEB_
  6
Continuous
 62
     7
100
AcDbEllipse
 10
30.0821624562
 20
763.3602586737
 30
0.0
 11
0.08191520442889448
 21
0.08191520442890619
 31
0.0
210
0.0
220
0.0
230
0.9999999999999998
 40
0.7002075382
 41
3.75245789178647
 42
4.101523742185599
  0
ELLIPSE
  5
CE
330
5E
100
AcDbEntity
  8
4221039_0__SIEB_
  6
Continuous
 62
     7
100
AcDbEllipse
 10
27.0107338847
 20
763.3602586737
 30
0.0
 11
-0.08191520442890274
 21
0.08191520442889233
 31
0.0
210
0.0
220
0.0
230
1.0
 40
0.7002075382
 41
2.181661564992488
 42
2.530727415391937
  0
ELLIPSE
  5
CF
330
5E
100
AcDbEntity
  8
4221039_0__SIEB_
  6
Continuous
 62
     7
100
AcDbEllipse
 10
27.0107338847
 20
763.3602586737
 30
0.0
 11
-0.08191520442889665
 21
-0.08191520442890619
 31
0.0
210
0.0
220
0.0
230
1.0
 40
0.7002075382
 41
0.959931088595692
 42
2.530727415390322
  0
ELLIPSE
  5
D0
330
5E
100
AcDbEntity
  8
4221039_0__SIEB_
  6
Continuous
 62
     7
100
AcDbEllipse
 10
28.5464481704
 20
763.3602586737
 30
0.0
 11
0.08191520442889752
 21
-0.08191520442890619
 31
0.0
210
0.0
220
0.0
230
0.9999999999999998
 40
0.7002075382
 41
3.752457891789306
 42
5.323254218583834
  0
ELLIPSE
  5
D1
330
5E
100
AcDbEntity
  8
4221039_0__SIEB_
  6
Continuous
 62
     7
100
AcDbEllipse
 10
28.5464481704
 20
763.3602586737
 30
0.0
 11
0.08191520442889494
 21
0.08191520442890621
 31
0.0
210
0.0
220
0.0
230
0.9999999999999999
 40
0.7002075382
 41
3.752457891786438
 42
4.101523742185629
  0
ELLIPSE
  5
D2
330
5E
100
AcDbEntity
  8
4221039_0__SIEB_
  6
Continuous
 62
     7
100
AcDbEllipse
 10
27.0107338847
 20
763.3602586737
 30
0.0
 11
0.08191520442889494
 21
-0.08191520442890621
 31
0.0
210
0.0
220
0.0
230
0.9999999999999999
 40
0.7002075382
 41
3.752457891789295
 42
5.323254218583274
  0
ELLIPSE
  5
D3
330
5E
100
AcDbEntity
  8
4221039_0__SIEB_
  6
Continuous
 62
     7
100
AcDbEllipse
 10
27.0107338847
 20
763.3602586737
 30
0.0
 11
0.08191520442889233
 21
0.08191520442890621
 31
0.0
210
0.0
220
0.0
230
1.0
 40
0.7002075382
 41
3.75245789178629
 42
4.101523742185394
  0
ELLIPSE
  5
D4
330
5E
100
AcDbEntity
  8
4221039_0__SIEB_
  6
Continuous
 62
     7
100
AcDbEllipse
 10
25.475019599
 20
762.8350134536
 30
0.0
 11
0.08191520442889666
 21
-0.08191520442889233
 31
0.0
210
0.0
220
0.0
230
1.0
 40
0.7002075382
 41
3.752457891787912
 42
5.323254218583074
  0
ELLIPSE
  5
D5
330
5E
100
AcDbEntity
  8
4221039_0__SIEB_
  6
Continuous
 62
     7
100
AcDbEllipse
 10
25.475019599
 20
762.8350134536
 30
0.0
 11
0.08191520442889147
 21
0.08191520442890621
 31
0.0
210
0.0
220
0.0
230
1.0
 40
0.7002075382
 41
3.752457891789115
 42
4.101523742187029
  0
ELLIPSE
  5
D6
330
5E
100
AcDbEntity
  8
4221039_0__SIEB_
  6
Continuous
 62
     7
100
AcDbEllipse
 10
25.475019599
 20
762.8350134536
 30
0.0
 11
-0.08191520442889666
 21
0.08191520442889233
 31
0.0
210
0.0
220
0.0
230
1.0
 40
0.7002075382
 41
2.181661564993281
 42
2.530727415392394
  0
ELLIPSE
  5
D7
330
5E
100
AcDbEntity
  8
4221039_0__SIEB_
  6
Continuous
 62
     7
100
AcDbEllipse
 10
25.475019599
 20
762.8350134536
 30
0.0
 11
-0.08191520442889841
 21
-0.08191520442889233
 31
0.0
210
0.0
220
0.0
230
1.0
 40
0.7002075382
 41
0.9599310885971364
 42
2.530727415392877
  0
ELLIPSE
  5
D8
330
5E
100
AcDbEntity
  8
4221039_0__SIEB_
  6
Continuous
 62
     7
100
AcDbEllipse
 10
27.0107338847
 20
762.8350134536
 30
0.0
 11
0.08191520442890013
 21
-0.08191520442890621
 31
0.0
210
0.0
220
0.0
230
1.0
 40
0.7002075382
 41
3.75245789178807
 42
5.323254218582382
  0
ELLIPSE
  5
D9
330
5E
100
AcDbEntity
  8
4221039_0__SIEB_
  6
Continuous
 62
     7
100
AcDbEllipse
 10
27.0107338847
 20
762.8350134536
 30
0.0
 11
0.08191520442889666
 21
0.08191520442889233
 31
0.0
210
0.0
220
0.0
230
1.0
 40
0.7002075382
 41
3.752457891789045
 42
4.101523742186915
  0
ELLIPSE
  5
DA
330
5E
100
AcDbEntity
  8
4221039_0__SIEB_
  6
Continuous
 62
     7
100
AcDbEllipse
 10
27.0107338847
 20
762.8350134536
 30
0.0
 11
-0.08191520442889233
 21
0.08191520442890621
 31
0.0
210
0.0
220
0.0
230
1.0
 40
0.7002075382
 41
2.181661564993132
 42
2.530727415391141
  0
ELLIPSE
  5
DB
330
5E
100
AcDbEntity
  8
4221039_0__SIEB_
  6
Continuous
 62
     7
100
AcDbEllipse
 10
27.0107338847
 20
762.8350134536
 30
0.0
 11
-0.08191520442889666
 21
-0.08191520442889233
 31
0.0
210
0.0
220
0.0
230
1.0
 40
0.7002075382
 41
0.9599310885971215
 42
2.530727415392884
  0
ELLIPSE
  5
DC
330
5E
100
AcDbEntity
  8
4221039_0__SIEB_
  6
Continuous
 62
     7
100
AcDbEllipse
 10
28.5464481704
 20
762.8350134536
 30
0.0
 11
0.08191520442889666
 21
-0.08191520442889233
 31
0.0
210
0.0
220
0.0
230
1.0
 40
0.7002075382
 41
3.75245789178674
 42
5.323254218582465
  0
ELLIPSE
  5
DD
330
5E
100
AcDbEntity
  8
4221039_0__SIEB_
  6
Continuous
 62
     7
100
AcDbEllipse
 10
28.5464481704
 20
762.8350134536
 30
0.0
 11
0.08191520442889537
 21
0.08191520442890621
 31
0.0
210
0.0
220
0.0
230
1.0
 40
0.7002075382
 41
3.752457891789317
 42
4.101523742187062
  0
ELLIPSE
  5
DE
330
5E
100
AcDbEntity
  8
4221039_0__SIEB_
  6
Continuous
 62
     7
100
AcDbEllipse
 10
28.5464481704
 20
762.8350134536
 30
0.0
 11
-0.08191520442889666
 21
0.08191520442889233
 31
0.0
210
0.0
220
0.0
230
1.0
 40
0.7002075382
 41
2.181661564992672
 42
2.530727415392167
  0
ELLIPSE
  5
DF
330
5E
100
AcDbEntity
  8
4221039_0__SIEB_
  6
Continuous
 62
     7
100
AcDbEllipse
 10
28.5464481704
 20
762.8350134536
 30
0.0
 11
-0.08191520442889537
 21
-0.08191520442890621
 31
0.0
210
0.0
220
0.0
230
1.0
 40
0.7002075382
 41
0.9599310885972957
 42
2.530727415392747
  0
ELLIPSE
  5
E0
330
5E
100
AcDbEntity
  8
4221039_0__SIEB_
  6
Continuous
 62
     7
100
AcDbEllipse
 10
30.0821624562
 20
762.8350134536
 30
0.0
 11
0.08191520442889687
 21
-0.08191520442889233
 31
0.0
210
0.0
220
0.0
230
1.0
 40
0.7002075382
 41
3.752457891786703
 42
5.323254218582463
  0
ELLIPSE
  5
E1
330
5E
100
AcDbEntity
  8
4221039_0__SIEB_
  6
Continuous
 62
     7
100
AcDbEllipse
 10
30.0821624562
 20
762.8350134536
 30
0.0
 11
0.08191520442889645
 21
0.08191520442889233
 31
0.0
210
0.0
220
0.0
230
1.0
 40
0.7002075382
 41
3.752457891788854
 42
4.101523742186913
  0
ELLIPSE
  5
E2
330
5E
100
AcDbEntity
  8
4221039_0__SIEB_
  6
Continuous
 62
     7
100
AcDbEllipse
 10
30.0821624562
 20
762.8350134536
 30
0.0
 11
-0.08191520442889687
 21
0.08191520442889233
 31
0.0
210
0.0
220
0.0
230
1.0
 40
0.7002075382
 41
2.18166156499267
 42
2.530727415390727
  0
ELLIPSE
  5
E3
330
5E
100
AcDbEntity
  8
4221039_0__SIEB_
  6
Continuous
 62
     7
100
AcDbEllipse
 10
30.0821624562
 20
762.8350134536
 30
0.0
 11
-0.08191520442889687
 21
-0.08191520442889233
 31
0.0
210
0.0
220
0.0
230
1.0
 40
0.7002075382
 41
0.9599310885971233
 42
2.530727415392846
  0
ELLIPSE
  5
E4
330
5E
100
AcDbEntity
  8
4221039_0__SIEB_
  6
Continuous
 62
     7
100
AcDbEllipse
 10
31.6178767419
 20
762.8350134536
 30
0.0
 11
0.08191520442889665
 21
-0.08191520442889233
 31
0.0
210
0.0
220
0.0
230
1.0
 40
0.7002075382
 41
3.75245789178674
 42
5.323254218582385
  0
ELLIPSE
  5
E5
330
5E
100
AcDbEntity
  8
4221039_0__SIEB_
  6
Continuous
 62
     7
100
AcDbEllipse
 10
31.6178767419
 20
762.8350134536
 30
0.0
 11
0.0819152044288968
 21
0.08191520442889233
 31
0.0
210
0.0
220
0.0
230
1.0
 40
0.7002075382
 41
3.752457891788934
 42
4.101523742186941
  0
ELLIPSE
  5
E6
330
5E
100
AcDbEntity
  8
4221039_0__SIEB_
  6
Continuous
 62
     7
100
AcDbEllipse
 10
31.6178767419
 20
762.8350134536
 30
0.0
 11
-0.08191520442889672
 21
0.08191520442889233
 31
0.0
210
0.0
220
0.0
230
1.0
 40
0.7002075382
 41
2.181661564992645
 42
2.530727415390654
  0
ELLIPSE
  5
E7
330
5E
100
AcDbEntity
  8
4221039_0__SIEB_
  6
Continuous
 62
     7
100
AcDbEllipse
 10
31.6178767419
 20
762.8350134536
 30
0.0
 11
-0.08191520442889674
 21
-0.08191520442889233
 31
0.0
210
0.0
220
0.0
230
1.0
 40
0.7002075382
 41
0.9599310885971486
 42
2.530727415392884
  0
ELLIPSE
  5
E8
330
5E
100
AcDbEntity
  8
4221039_0__SIEB_
  6
Continuous
 62
     7
100
AcDbEllipse
 10
33.1535910276
 20
762.8350134536
 30
0.0
 11
0.08191520442889448
 21
-0.08191520442890619
 31
0.0
210
0.0
220
0.0
230
0.9999999999999998
 40
0.7002075382
 41
3.752457891786835
 42
5.323254218582351
  0
ELLIPSE
  5
E9
330
5E
100
AcDbEntity
  8
4221039_0__SIEB_
  6
Continuous
 62
     7
100
AcDbEllipse
 10
33.1535910276
 20
762.8350134536
 30
0.0
 11
0.08191520442889687
 21
0.08191520442889233
 31
0.0
210
0.0
220
0.0
230
1.0
 40
0.7002075382
 41
3.752457891788897
 42
4.101523742186943
  0
ELLIPSE
  5
EA
330
5E
100
AcDbEntity
  8
4221039_0__SIEB_
  6
Continuous
 62
     7
100
AcDbEllipse
 10
33.1535910276
 20
762.8350134536
 30
0.0
 11
-0.08191520442890207
 21
0.08191520442889232
 31
0.0
210
0.0
220
0.0
230
0.9999999999999999
 40
0.7002075382
 41
2.181661564991699
 42
2.530727415390547
  0
ELLIPSE
  5
EB
330
5E
100
AcDbEntity
  8
4221039_0__SIEB_
  6
Continuous
 62
     7
100
AcDbEllipse
 10
33.1535910276
 20
762.8350134536
 30
0.0
 11
-0.08191520442889623
 21
-0.08191520442889233
 31
0.0
210
0.0
220
0.0
230
1.0
 40
0.7002075382
 41
0.9599310885971443
 42
2.530727415392924
  0
ELLIPSE
  5
EC
330
5E
100
AcDbEntity
  8
4221039_0__SIEB_
  6
Continuous
 62
     7
100
AcDbEllipse
 10
34.6893053133
 20
762.8350134536
 30
0.0
 11
0.08191520442889448
 21
-0.08191520442890619
 31
0.0
210
0.0
220
0.0
230
0.9999999999999998
 40
0.7002075382
 41
3.752457891786835
 42
5.323254218582351
  0
ELLIPSE
  5
ED
330
5E
100
AcDbEntity
  8
4221039_0__SIEB_
  6
Continuous
 62
     7
100
AcDbEllipse
 10
34.6893053133
 20
762.8350134536
 30
0.0
 11
0.08191520442890231
 21
0.08191520442889233
 31
0.0
210
0.0
220
0.0
230
0.9999999999999998
 40
0.7002075382
 41
3.752457891788967
 42
4.101523742187889
  0
ELLIPSE
  5
EE
330
5E
100
AcDbEntity
  8
4221039_0__SIEB_
  6
Continuous
 62
     7
100
AcDbEllipse
 10
34.6893053133
 20
762.8350134536
 30
0.0
 11
-0.08191520442890186
 21
0.08191520442889232
 31
0.0
210
0.0
220
0.0
230
1.0
 40
0.7002075382
 41
2.181661564991753
 42
2.530727415390473
  0
ELLIPSE
  5
EF
330
5E
100
AcDbEntity
  8
4221039_0__SIEB_
  6
Continuous
 62
     7
100
AcDbEllipse
 10
34.6893053133
 20
762.8350134536
 30
0.0
 11
-0.08191520442889448
 21
-0.08191520442890619
 31
0.0
210
0.0
220
0.0
230
0.9999999999999998
 40
0.7002075382
 41
0.9599310885972353
 42
2.530727415392676
  0
ELLIPSE
  5
F0
330
5E
100
AcDbEntity
  8
4221039_0__SIEB_
  6
Continuous
 62
     7
100
AcDbEllipse
 10
36.225019599
 20
762.8350134536
 30
0.0
 11
0.08191520442889494
 21
-0.08191520442890621
 31
0.0
210
0.0
220
0.0
230
0.9999999999999999
 40
0.7002075382
 41
3.752457891786837
 42
5.3232542185824
  0
ELLIPSE
  5
F1
330
5E
100
AcDbEntity
  8
4221039_0__SIEB_
  6
Continuous
 62
     7
100
AcDbEllipse
 10
36.225019599
 20
762.8350134536
 30
0.0
 11
0.08191520442890274
 21
0.08191520442889233
 31
0.0
210
0.0
220
0.0
230
1.0
 40
0.7002075382
 41
3.752457891789124
 42
4.101523742187893
  0
ELLIPSE
  5
F2
330
5E
100
AcDbEntity
  8
4221039_0__SIEB_
  6
Continuous
 62
     7
100
AcDbEllipse
 10
36.225019599
 20
762.8350134536
 30
0.0
 11
-0.08191520442890274
 21
0.08191520442889233
 31
0.0
210
0.0
220
0.0
230
1.0
 40
0.7002075382
 41
2.181661564991587
 42
2.530727415390538
  0
ELLIPSE
  5
F3
330
5E
100
AcDbEntity
  8
4221039_0__SIEB_
  6
Continuous
 62
     7
100
AcDbEllipse
 10
36.225019599
 20
762.8350134536
 30
0.0
 11
-0.08191520442889494
 21
-0.08191520442890621
 31
0.0
210
0.0
220
0.0
230
0.9999999999999999
 40
0.7002075382
 41
0.9599310885971333
 42
2.530727415392674
  0
ELLIPSE
  5
F4
330
5E
100
AcDbEntity
  8
4221039_0__SIEB_
  6
Continuous
 62
     7
100
AcDbEllipse
 10
37.7607338847
 20
762.8350134536
 30
0.0
 11
0.08191520442889494
 21
-0.08191520442889233
 31
0.0
210
0.0
220
0.0
230
1.0
 40
0.7002075382
 41
3.752457891786732
 42
5.323254218582453
  0
ELLIPSE
  5
F5
330
5E
100
AcDbEntity
  8
4221039_0__SIEB_
  6
Continuous
 62
     7
100
AcDbEllipse
 10
37.7607338847
 20
762.8350134536
 30
0.0
 11
0.08191520442889666
 21
0.08191520442889233
 31
0.0
210
0.0
220
0.0
230
1.0
 40
0.7002075382
 41
3.752457891788819
 42
4.101523742186941
  0
ELLIPSE
  5
F6
330
5E
100
AcDbEntity
  8
4221039_0__SIEB_
  6
Continuous
 62
     7
100
AcDbEllipse
 10
37.7607338847
 20
762.8350134536
 30
0.0
 11
-0.08191520442889666
 21
0.08191520442889233
 31
0.0
210
0.0
220
0.0
230
1.0
 40
0.7002075382
 41
2.181661564992645
 42
2.530727415390541
  0
ELLIPSE
  5
F7
330
5E
100
AcDbEntity
  8
4221039_0__SIEB_
  6
Continuous
 62
     7
100
AcDbEllipse
 10
37.7607338847
 20
762.8350134536
 30
0.0
 11
-0.08191520442889666
 21
-0.08191520442889233
 31
0.0
210
0.0
220
0.0
230
1.0
 40
0.7002075382
 41
0.959931088597148
 42
2.530727415392847
  0
ELLIPSE
  5
F8
330
5E
100
AcDbEntity
  8
4221039_0__SIEB_
  6
Continuous
 62
     7
100
AcDbEllipse
 10
37.7607338847
 20
762.3097682335
 30
0.0
 11
-0.08191520442889494
 21
0.08191520442890621
 31
0.0
210
0.0
220
0.0
230
0.9999999999999999
 40
0.7002075382
 41
2.181661564992607
 42
2.530727415391031
  0
ELLIPSE
  5
F9
330
5E
100
AcDbEntity
  8
4221039_0__SIEB_
  6
Continuous
 62
     7
100
AcDbEllipse
 10
37.7607338847
 20
762.3097682335
 30
0.0
 11
-0.08191520442889666
 21
-0.08191520442889233
 31
0.0
210
0.0
220
0.0
230
1.0
 40
0.7002075382
 41
0.959931088597148
 42
2.530727415391637
  0
ELLIPSE
  5
FA
330
5E
100
AcDbEntity
  8
4221039_0__SIEB_
  6
Continuous
 62
     7
100
AcDbEllipse
 10
36.225019599
 20
762.3097682335
 30
0.0
 11
-0.08191520442889666
 21
0.08191520442889233
 31
0.0
210
0.0
220
0.0
230
1.0
 40
0.7002075382
 41
2.181661564992645
 42
2.530727415391222
  0
ELLIPSE
  5
FB
330
5E
100
AcDbEntity
  8
4221039_0__SIEB_
  6
Continuous
 62
     7
100
AcDbEllipse
 10
36.225019599
 20
762.3097682335
 30
0.0
 11
-0.08191520442889666
 21
-0.08191520442889233
 31
0.0
210
0.0
220
0.0
230
1.0
 40
0.7002075382
 41
0.9599310885977304
 42
2.530727415392847
  0
ELLIPSE
  5
FC
330
5E
100
AcDbEntity
  8
4221039_0__SIEB_
  6
Continuous
 62
     7
100
AcDbEllipse
 10
37.7607338847
 20
762.3097682335
 30
0.0
 11
0.08191520442890274
 21
-0.08191520442889233
 31
0.0
210
0.0
220
0.0
230
1.0
 40
0.7002075382
 41
3.752457891787901
 42
5.323254218582386
  0
ELLIPSE
  5
FD
330
5E
100
AcDbEntity
  8
4221039_0__SIEB_
  6
Continuous
 62
     7
100
AcDbEllipse
 10
37.7607338847
 20
762.3097682335
 30
0.0
 11
0.08191520442889666
 21
0.08191520442889233
 31
0.0
210
0.0
220
0.0
230
1.0
 40
0.7002075382
 41
3.752457891787382
 42
4.101523742186941
  0
ELLIPSE
  5
FE
330
5E
100
AcDbEntity
  8
4221039_0__SIEB_
  6
Continuous
 62
     7
100
AcDbEllipse
 10
34.6893053133
 20
762.3097682335
 30
0.0
 11
-0.08191520442889666
 21
0.08191520442889233
 31
0.0
210
0.0
220
0.0
230
1.0
 40
0.7002075382
 41
2.181661564992645
 42
2.530727415391222
  0
ELLIPSE
  5
FF
330
5E
100
AcDbEntity
  8
4221039_0__SIEB_
  6
Continuous
 62
     7
100
AcDbEllipse
 10
34.6893053133
 20
762.3097682335
 30
0.0
 11
-0.08191520442889666
 21
-0.08191520442889233
 31
0.0
210
0.0
220
0.0
230
1.0
 40
0.7002075382
 41
0.959931088597148
 42
2.530727415391637
  0
ELLIPSE
  5
100
330
5E
100
AcDbEntity
  8
4221039_0__SIEB_
  6
Continuous
 62
     7
100
AcDbEllipse
 10
36.225019599
 20
762.3097682335
 30
0.0
 11
0.08191520442889666
 21
-0.08191520442889233
 31
0.0
210
0.0
220
0.0
230
1.0
 40
0.7002075382
 41
3.752457891787874
 42
5.323254218582438
  0
ELLIPSE
  5
101
330
5E
100
AcDbEntity
  8
4221039_0__SIEB_
  6
Continuous
 62
     7
100
AcDbEllipse
 10
36.225019599
 20
762.3097682335
 30
0.0
 11
0.08191520442889666
 21
0.08191520442889233
 31
0.0
210
0.0
220
0.0
230
1.0
 40
0.7002075382
 41
3.752457891789121
 42
4.101523742187523
  0
ELLIPSE
  5
102
330
5E
100
AcDbEntity
  8
4221039_0__SIEB_
  6
Continuous
 62
     7
100
AcDbEllipse
 10
33.1535910276
 20
762.3097682335
 30
0.0
 11
-0.08191520442889731
 21
0.08191520442889233
 31
0.0
210
0.0
220
0.0
230
1.0
 40
0.7002075382
 41
2.18166156499264
 42
2.530727415391213
  0
ELLIPSE
  5
103
330
5E
100
AcDbEntity
  8
4221039_0__SIEB_
  6
Continuous
 62
     7
100
AcDbEllipse
 10
33.1535910276
 20
762.3097682335
 30
0.0
 11
-0.08191520442889319
 21
-0.08191520442890621
 31
0.0
210
0.0
220
0.0
230
0.9999999999999998
 40
0.7002075382
 41
0.959931088597277
 42
2.530727415391623
  0
ELLIPSE
  5
104
330
5E
100
AcDbEntity
  8
4221039_0__SIEB_
  6
Continuous
 62
     7
100
AcDbEllipse
 10
34.6893053133
 20
762.3097682335
 30
0.0
 11
0.0819152044288958
 21
-0.08191520442889233
 31
0.0
210
0.0
220
0.0
230
1.0
 40
0.7002075382
 41
3.752457891787945
 42
5.323254218582446
  0
ELLIPSE
  5
105
330
5E
100
AcDbEntity
  8
4221039_0__SIEB_
  6
Continuous
 62
     7
100
AcDbEllipse
 10
34.6893053133
 20
762.3097682335
 30
0.0
 11
0.08191520442889666
 21
0.08191520442889233
 31
0.0
210
0.0
220
0.0
230
1.0
 40
0.7002075382
 41
3.752457891788743
 42
4.101523742186941
  0
ELLIPSE
  5
106
330
5E
100
AcDbEntity
  8
4221039_0__SIEB_
  6
Continuous
 62
     7
100
AcDbEllipse
 10
31.6178767419
 20
762.3097682335
 30
0.0
 11
-0.08191520442889409
 21
0.08191520442890621
 31
0.0
210
0.0
220
0.0
230
1.0
 40
0.7002075382
 41
2.181661564992508
 42
2.53072741539108
  0
ELLIPSE
  5
107
330
5E
100
AcDbEntity
  8
4221039_0__SIEB_
  6
Continuous
 62
     7
100
AcDbEllipse
 10
31.6178767419
 20
762.3097682335
 30
0.0
 11
-0.08191520442889674
 21
-0.08191520442889233
 31
0.0
210
0.0
220
0.0
230
1.0
 40
0.7002075382
 41
0.9599310885971486
 42
2.530727415391675
  0
ELLIPSE
  5
108
330
5E
100
AcDbEntity
  8
4221039_0__SIEB_
  6
Continuous
 62
     7
100
AcDbEllipse
 10
33.1535910276
 20
762.3097682335
 30
0.0
 11
0.08191520442889645
 21
-0.08191520442889233
 31
0.0
210
0.0
220
0.0
230
1.0
 40
0.7002075382
 41
3.752457891787949
 42
5.32325421858244
  0
ELLIPSE
  5
109
330
5E
100
AcDbEntity
  8
4221039_0__SIEB_
  6
Continuous
 62
     7
100
AcDbEllipse
 10
33.1535910276
 20
762.3097682335
 30
0.0
 11
0.08191520442888864
 21
0.08191520442892009
 31
0.0
210
0.0
220
0.0
230
1.0
 40
0.7002075382
 41
3.752457891788762
 42
4.101523742186926
  0
ELLIPSE
  5
10A
330
5E
100
AcDbEntity
  8
4221039_0__SIEB_
  6
Continuous
 62
     7
100
AcDbEllipse
 10
30.0821624562
 20
762.3097682335
 30
0.0
 11
-0.08191520442889448
 21
0.08191520442890619
 31
0.0
210
0.0
220
0.0
230
0.9999999999999998
 40
0.7002075382
 41
2.181661564992505
 42
2.530727415391075
  0
ELLIPSE
  5
10B
330
5E
100
AcDbEntity
  8
4221039_0__SIEB_
  6
Continuous
 62
     7
100
AcDbEllipse
 10
30.0821624562
 20
762.3097682335
 30
0.0
 11
-0.08191520442889687
 21
-0.08191520442889233
 31
0.0
210
0.0
220
0.0
230
1.0
 40
0.7002075382
 41
0.9599310885971233
 42
2.530727415391636
  0
ELLIPSE
  5
10C
330
5E
100
AcDbEntity
  8
4221039_0__SIEB_
  6
Continuous
 62
     7
100
AcDbEllipse
 10
31.6178767419
 20
762.3097682335
 30
0.0
 11
0.08191520442890192
 21
-0.08191520442889233
 31
0.0
210
0.0
220
0.0
230
1.0
 40
0.7002075382
 41
3.752457891787973
 42
5.323254218582499
  0
ELLIPSE
  5
10D
330
5E
100
AcDbEntity
  8
4221039_0__SIEB_
  6
Continuous
 62
     7
100
AcDbEllipse
 10
31.6178767419
 20
762.3097682335
 30
0.0
 11
0.0819152044288968
 21
0.08191520442889233
 31
0.0
210
0.0
220
0.0
230
1.0
 40
0.7002075382
 41
3.752457891787459
 42
4.101523742186941
  0
ELLIPSE
  5
10E
330
5E
100
AcDbEntity
  8
4221039_0__SIEB_
  6
Continuous
 62
     7
100
AcDbEllipse
 10
28.5464481704
 20
762.3097682335
 30
0.0
 11
-0.08191520442889448
 21
0.08191520442890619
 31
0.0
210
0.0
220
0.0
230
0.9999999999999998
 40
0.7002075382
 41
2.181661564992558
 42
2.530727415391075
  0
ELLIPSE
  5
10F
330
5E
100
AcDbEntity
  8
4221039_0__SIEB_
  6
Continuous
 62
     7
100
AcDbEllipse
 10
28.5464481704
 20
762.3097682335
 30
0.0
 11
-0.08191520442889666
 21
-0.08191520442889233
 31
0.0
210
0.0
220
0.0
230
1.0
 40
0.7002075382
 41
0.9599310885977304
 42
2.530727415392847
  0
ELLIPSE
  5
110
330
5E
100
AcDbEntity
  8
4221039_0__SIEB_
  6
Continuous
 62
     7
100
AcDbEllipse
 10
30.0821624562
 20
762.3097682335
 30
0.0
 11
0.08191520442890186
 21
-0.08191520442889232
 31
0.0
210
0.0
220
0.0
230
1.0
 40
0.7002075382
 41
3.752457891787897
 42
5.323254218582526
  0
ELLIPSE
  5
111
330
5E
100
AcDbEntity
  8
4221039_0__SIEB_
  6
Continuous
 62
     7
100
AcDbEllipse
 10
30.0821624562
 20
762.3097682335
 30
0.0
 11
0.08191520442889645
 21
0.08191520442889233
 31
0.0
210
0.0
220
0.0
230
1.0
 40
0.7002075382
 41
3.752457891787341
 42
4.101523742186913
  0
ELLIPSE
  5
112
330
5E
100
AcDbEntity
  8
4221039_0__SIEB_
  6
Continuous
 62
     7
100
AcDbEllipse
 10
27.0107338847
 20
762.3097682335
 30
0.0
 11
-0.08191520442889666
 21
0.08191520442889233
 31
0.0
210
0.0
220
0.0
230
1.0
 40
0.7002075382
 41
2.181661564992672
 42
2.530727415391259
  0
ELLIPSE
  5
113
330
5E
100
AcDbEntity
  8
4221039_0__SIEB_
  6
Continuous
 62
     7
100
AcDbEllipse
 10
27.0107338847
 20
762.3097682335
 30
0.0
 11
-0.08191520442889666
 21
-0.08191520442889233
 31
0.0
210
0.0
220
0.0
230
1.0
 40
0.7002075382
 41
0.9599310885971215
 42
2.530727415391675
  0
ELLIPSE
  5
114
330
5E
100
AcDbEntity
  8
4221039_0__SIEB_
  6
Continuous
 62
     7
100
AcDbEllipse
 10
28.5464481704
 20
762.3097682335
 30
0.0
 11
0.08191520442890231
 21
-0.08191520442889233
 31
0.0
210
0.0
220
0.0
230
0.9999999999999998
 40
0.7002075382
 41
3.752457891787937
 42
5.323254218582496
  0
ELLIPSE
  5
115
330
5E
100
AcDbEntity
  8
4221039_0__SIEB_
  6
Continuous
 62
     7
100
AcDbEllipse
 10
28.5464481704
 20
762.3097682335
 30
0.0
 11
0.08191520442889666
 21
0.08191520442889233
 31
0.0
210
0.0
220
0.0
230
1.0
 40
0.7002075382
 41
3.752457891788969
 42
4.101523742187523
  0
ELLIPSE
  5
116
330
5E
100
AcDbEntity
  8
4221039_0__SIEB_
  6
Continuous
 62
     7
100
AcDbEllipse
 10
25.475019599
 20
762.3097682335
 30
0.0
 11
-0.08191520442889666
 21
0.08191520442889233
 31
0.0
210
0.0
220
0.0
230
1.0
 40
0.7002075382
 41
2.181661564992645
 42
2.530727415391146
  0
ELLIPSE
  5
117
330
5E
100
AcDbEntity
  8
4221039_0__SIEB_
  6
Continuous
 62
     7
100
AcDbEllipse
 10
25.475019599
 20
762.3097682335
 30
0.0
 11
-0.08191520442889666
 21
-0.08191520442889233
 31
0.0
210
0.0
220
0.0
230
1.0
 40
0.7002075382
 41
0.9599310885971215
 42
2.530727415391637
  0
ELLIPSE
  5
118
330
5E
100
AcDbEntity
  8
4221039_0__SIEB_
  6
Continuous
 62
     7
100
AcDbEllipse
 10
27.0107338847
 20
762.3097682335
 30
0.0
 11
0.08191520442889666
 21
-0.08191520442889233
 31
0.0
210
0.0
220
0.0
230
1.0
 40
0.7002075382
 41
3.752457891787949
 42
5.323254218582465
  0
ELLIPSE
  5
119
330
5E
100
AcDbEntity
  8
4221039_0__SIEB_
  6
Continuous
 62
     7
100
AcDbEllipse
 10
27.0107338847
 20
762.3097682335
 30
0.0
 11
0.08191520442889666
 21
0.08191520442889233
 31
0.0
210
0.0
220
0.0
230
1.0
 40
0.7002075382
 41
3.752457891788478
 42
4.101523742186915
  0
ELLIPSE
  5
11A
330
5E
100
AcDbEntity
  8
4221039_0__SIEB_
  6
Continuous
 62
     7
100
AcDbEllipse
 10
23.9393053133
 20
762.3097682335
 30
0.0
 11
-0.08191520442889666
 21
0.08191520442889233
 31
0.0
210
0.0
220
0.0
230
1.0
 40
0.7002075382
 41
2.181661564992672
 42
2.530727415392243
  0
ELLIPSE
  5
11B
330
5E
100
AcDbEntity
  8
4221039_0__SIEB_
  6
Continuous
 62
     7
100
AcDbEllipse
 10
23.9393053133
 20
762.3097682335
 30
0.0
 11
-0.08191520442889666
 21
-0.08191520442889233
 31
0.0
210
0.0
220
0.0
230
1.0
 40
0.7002075382
 41
0.959931088597148
 42
2.530727415391675
  0
ELLIPSE
  5
11C
330
5E
100
AcDbEntity
  8
4221039_0__SIEB_
  6
Continuous
 62
     7
100
AcDbEllipse
 10
25.475019599
 20
762.3097682335
 30
0.0
 11
0.08191520442889666
 21
-0.08191520442889233
 31
0.0
210
0.0
220
0.0
230
1.0
 40
0.7002075382
 41
3.752457891787912
 42
5.323254218582438
  0
ELLIPSE
  5
11D
330
5E
100
AcDbEntity
  8
4221039_0__SIEB_
  6
Continuous
 62
     7
100
AcDbEllipse
 10
25.475019599
 20
762.3097682335
 30
0.0
 11
0.08191520442889666
 21
0.08191520442889233
 31
0.0
210
0.0
220
0.0
230
1.0
 40
0.7002075382
 41
3.752457891787419
 42
4.101523742186915
  0
ELLIPSE
  5
11E
330
5E
100
AcDbEntity
  8
4221039_0__SIEB_
  6
Continuous
 62
     7
100
AcDbEllipse
 10
23.9393053133
 20
762.3097682335
 30
0.0
 11
0.08191520442889666
 21
-0.08191520442889233
 31
0.0
210
0.0
220
0.0
230
1.0
 40
0.7002075382
 41
4.120576670554017
 42
5.323254218582465
  0
ELLIPSE
  5
11F
330
5E
100
AcDbEntity
  8
4221039_0__SIEB_
  6
Continuous
 62
     7
100
AcDbEllipse
 10
23.9393053133
 20
762.3097682335
 30
0.0
 11
0.08191520442889666
 21
0.08191520442889233
 31
0.0
210
0.0
220
0.0
230
1.0
 40
0.7002075382
 41
3.75245789178776
 42
4.101523742186941
  0
ELLIPSE
  5
120
330
5E
100
AcDbEntity
  8
4221039_0__SIEB_
  6
Continuous
 62
     7
100
AcDbEllipse
 10
23.9393053133
 20
761.7845230134
 30
0.0
 11
0.08191520442889494
 21
-0.08191520442890621
 31
0.0
210
0.0
220
0.0
230
0.9999999999999999
 40
0.7002075382
 41
3.752457891786837
 42
5.323254218582612
  0
ELLIPSE
  5
121
330
5E
100
AcDbEntity
  8
4221039_0__SIEB_
  6
Continuous
 62
     7
100
AcDbEllipse
 10
23.9393053133
 20
761.7845230134
 30
0.0
 11
0.08191520442889494
 21
0.08191520442889233
 31
0.0
210
0.0
220
0.0
230
1.0
 40
0.7002075382
 41
3.752457891787548
 42
4.101523742186687
  0
ELLIPSE
  5
122
330
5E
100
AcDbEntity
  8
4221039_0__SIEB_
  6
Continuous
 62
     7
100
AcDbEllipse
 10
23.9393053133
 20
761.7845230134
 30
0.0
 11
-0.08191520442890274
 21
0.08191520442889233
 31
0.0
210
0.0
220
0.0
230
1.0
 40
0.7002075382
 41
2.181661564992726
 42
2.530727415391635
  0
ELLIPSE
  5
123
330
5E
100
AcDbEntity
  8
4221039_0__SIEB_
  6
Continuous
 62
     7
100
AcDbEllipse
 10
23.9393053133
 20
761.7845230134
 30
0.0
 11
-0.08191520442889841
 21
-0.08191520442889233
 31
0.0
210
0.0
220
0.0
230
1.0
 40
0.7002075382
 41
0.9599310885969247
 42
2.530727415392914
  0
ELLIPSE
  5
124
330
5E
100
AcDbEntity
  8
4221039_0__SIEB_
  6
Continuous
 62
     7
100
AcDbEllipse
 10
25.475019599
 20
761.7845230134
 30
0.0
 11
0.08191520442890274
 21
-0.08191520442889233
 31
0.0
210
0.0
220
0.0
230
1.0
 40
0.7002075382
 41
3.752457891786691
 42
5.323254218582704
  0
ELLIPSE
  5
125
330
5E
100
AcDbEntity
  8
4221039_0__SIEB_
  6
Continuous
 62
     7
100
AcDbEllipse
 10
25.475019599
 20
761.7845230134
 30
0.0
 11
0.08191520442889841
 21
0.08191520442889233
 31
0.0
210
0.0
220
0.0
230
1.0
 40
0.7002075382
 41
3.752457891787707
 42
4.101523742186691
  0
ELLIPSE
  5
126
330
5E
100
AcDbEntity
  8
4221039_0__SIEB_
  6
Continuous
 62
     7
100
AcDbEllipse
 10
25.475019599
 20
761.7845230134
 30
0.0
 11
-0.08191520442889494
 21
0.08191520442890621
 31
0.0
210
0.0
220
0.0
230
0.9999999999999999
 40
0.7002075382
 41
2.181661564992766
 42
2.530727415391598
  0
ELLIPSE
  5
127
330
5E
100
AcDbEntity
  8
4221039_0__SIEB_
  6
Continuous
 62
     7
100
AcDbEllipse
 10
25.475019599
 20
761.7845230134
 30
0.0
 11
-0.08191520442889666
 21
-0.08191520442889233
 31
0.0
210
0.0
220
0.0
230
1.0
 40
0.7002075382
 41
0.9599310885968833
 42
2.530727415392847
  0
ELLIPSE
  5
128
330
5E
100
AcDbEntity
  8
4221039_0__SIEB_
  6
Continuous
 62
     7
100
AcDbEllipse
 10
27.0107338847
 20
761.7845230134
 30
0.0
 11
0.08191520442890274
 21
-0.08191520442889233
 31
0.0
210
0.0
220
0.0
230
1.0
 40
0.7002075382
 41
3.752457891786691
 42
5.323254218582651
  0
ELLIPSE
  5
129
330
5E
100
AcDbEntity
  8
4221039_0__SIEB_
  6
Continuous
 62
     7
100
AcDbEllipse
 10
27.0107338847
 20
761.7845230134
 30
0.0
 11
0.08191520442889666
 21
0.08191520442889233
 31
0.0
210
0.0
220
0.0
230
1.0
 40
0.7002075382
 41
3.75245789178776
 42
4.101523742186703
  0
ELLIPSE
  5
12A
330
5E
100
AcDbEntity
  8
4221039_0__SIEB_
  6
Continuous
 62
     7
100
AcDbEllipse
 10
27.0107338847
 20
761.7845230134
 30
0.0
 11
-0.08191520442889494
 21
0.08191520442890621
 31
0.0
210
0.0
220
0.0
230
0.9999999999999999
 40
0.7002075382
 41
2.181661564992792
 42
2.530727415391674
  0
ELLIPSE
  5
12B
330
5E
100
AcDbEntity
  8
4221039_0__SIEB_
  6
Continuous
 62
     7
100
AcDbEllipse
 10
27.0107338847
 20
761.7845230134
 30
0.0
 11
-0.08191520442889666
 21
-0.08191520442889233
 31
0.0
210
0.0
220
0.0
230
1.0
 40
0.7002075382
 41
0.9599310885969098
 42
2.530727415392884
  0
ELLIPSE
  5
12C
330
5E
100
AcDbEntity
  8
4221039_0__SIEB_
  6
Continuous
 62
     7
100
AcDbEllipse
 10
28.5464481704
 20
761.7845230134
 30
0.0
 11
0.08191520442889537
 21
-0.08191520442890621
 31
0.0
210
0.0
220
0.0
230
1.0
 40
0.7002075382
 41
3.752457891786876
 42
5.323254218582661
  0
ELLIPSE
  5
12D
330
5E
100
AcDbEntity
  8
4221039_0__SIEB_
  6
Continuous
 62
     7
100
AcDbEllipse
 10
28.5464481704
 20
761.7845230134
 30
0.0
 11
0.08191520442889841
 21
0.08191520442889233
 31
0.0
210
0.0
220
0.0
230
1.0
 40
0.7002075382
 41
3.752457891787858
 42
4.10152374218685
  0
ELLIPSE
  5
12E
330
5E
100
AcDbEntity
  8
4221039_0__SIEB_
  6
Continuous
 62
     7
100
AcDbEllipse
 10
28.5464481704
 20
761.7845230134
 30
0.0
 11
-0.08191520442890186
 21
0.08191520442889232
 31
0.0
210
0.0
220
0.0
230
1.0
 40
0.7002075382
 41
2.181661564992865
 42
2.530727415391721
  0
ELLIPSE
  5
12F
330
5E
100
AcDbEntity
  8
4221039_0__SIEB_
  6
Continuous
 62
     7
100
AcDbEllipse
 10
28.5464481704
 20
761.7845230134
 30
0.0
 11
-0.08191520442889884
 21
-0.08191520442890621
 31
0.0
210
0.0
220
0.0
230
1.0
 40
0.7002075382
 41
0.9599310885969814
 42
2.530727415392732
  0
ELLIPSE
  5
130
330
5E
100
AcDbEntity
  8
4221039_0__SIEB_
  6
Continuous
 62
     7
100
AcDbEllipse
 10
30.0821624562
 20
761.7845230134
 30
0.0
 11
0.08191520442890186
 21
-0.08191520442889232
 31
0.0
210
0.0
220
0.0
230
1.0
 40
0.7002075382
 41
3.752457891786687
 42
5.323254218582711
  0
ELLIPSE
  5
131
330
5E
100
AcDbEntity
  8
4221039_0__SIEB_
  6
Continuous
 62
     7
100
AcDbEllipse
 10
30.0821624562
 20
761.7845230134
 30
0.0
 11
0.08191520442889448
 21
0.08191520442890619
 31
0.0
210
0.0
220
0.0
230
0.9999999999999998
 40
0.7002075382
 41
3.752457891787907
 42
4.101523742186817
  0
ELLIPSE
  5
132
330
5E
100
AcDbEntity
  8
4221039_0__SIEB_
  6
Continuous
 62
     7
100
AcDbEllipse
 10
30.0821624562
 20
761.7845230134
 30
0.0
 11
-0.08191520442889448
 21
0.08191520442890619
 31
0.0
210
0.0
220
0.0
230
0.9999999999999998
 40
0.7002075382
 41
2.181661564992743
 42
2.530727415391679
  0
ELLIPSE
  5
133
330
5E
100
AcDbEntity
  8
4221039_0__SIEB_
  6
Continuous
 62
     7
100
AcDbEllipse
 10
30.0821624562
 20
761.7845230134
 30
0.0
 11
-0.08191520442890207
 21
-0.08191520442889232
 31
0.0
210
0.0
220
0.0
230
0.9999999999999999
 40
0.7002075382
 41
0.959931088596903
 42
2.530727415392898
  0
ELLIPSE
  5
134
330
5E
100
AcDbEntity
  8
4221039_0__SIEB_
  6
Continuous
 62
     7
100
AcDbEllipse
 10
31.6178767419
 20
761.7845230134
 30
0.0
 11
0.08191520442890192
 21
-0.08191520442889233
 31
0.0
210
0.0
220
0.0
230
1.0
 40
0.7002075382
 41
3.752457891786763
 42
5.323254218582737
  0
ELLIPSE
  5
135
330
5E
100
AcDbEntity
  8
4221039_0__SIEB_
  6
Continuous
 62
     7
100
AcDbEllipse
 10
31.6178767419
 20
761.7845230134
 30
0.0
 11
0.08191520442889436
 21
0.08191520442890621
 31
0.0
210
0.0
220
0.0
230
1.0
 40
0.7002075382
 41
3.752457891787905
 42
4.101523742186815
  0
ELLIPSE
  5
136
330
5E
100
AcDbEntity
  8
4221039_0__SIEB_
  6
Continuous
 62
     7
100
AcDbEllipse
 10
31.6178767419
 20
761.7845230134
 30
0.0
 11
-0.08191520442889409
 21
0.08191520442890621
 31
0.0
210
0.0
220
0.0
230
1.0
 40
0.7002075382
 41
2.181661564992747
 42
2.530727415391685
  0
ELLIPSE
  5
137
330
5E
100
AcDbEntity
  8
4221039_0__SIEB_
  6
Continuous
 62
     7
100
AcDbEllipse
 10
31.6178767419
 20
761.7845230134
 30
0.0
 11
-0.08191520442890202
 21
-0.08191520442889232
 31
0.0
210
0.0
220
0.0
230
1.0
 40
0.7002075382
 41
0.959931088596929
 42
2.530727415392936
  0
ELLIPSE
  5
138
330
5E
100
AcDbEntity
  8
4221039_0__SIEB_
  6
Continuous
 62
     7
100
AcDbEllipse
 10
33.1535910276
 20
761.7845230134
 30
0.0
 11
0.08191520442889448
 21
-0.08191520442890619
 31
0.0
210
0.0
220
0.0
230
0.9999999999999998
 40
0.7002075382
 41
3.752457891786835
 42
5.323254218582615
  0
ELLIPSE
  5
139
330
5E
100
AcDbEntity
  8
4221039_0__SIEB_
  6
Continuous
 62
     7
100
AcDbEllipse
 10
33.1535910276
 20
761.7845230134
 30
0.0
 11
0.08191520442889687
 21
0.08191520442889233
 31
0.0
210
0.0
220
0.0
230
1.0
 40
0.7002075382
 41
3.752457891787687
 42
4.101523742186679
  0
ELLIPSE
  5
13A
330
5E
100
AcDbEntity
  8
4221039_0__SIEB_
  6
Continuous
 62
     7
100
AcDbEllipse
 10
33.1535910276
 20
761.7845230134
 30
0.0
 11
-0.08191520442890207
 21
0.08191520442889232
 31
0.0
210
0.0
220
0.0
230
0.9999999999999999
 40
0.7002075382
 41
2.181661564992811
 42
2.530727415391756
  0
ELLIPSE
  5
13B
330
5E
100
AcDbEntity
  8
4221039_0__SIEB_
  6
Continuous
 62
     7
100
AcDbEllipse
 10
33.1535910276
 20
761.7845230134
 30
0.0
 11
-0.08191520442889623
 21
-0.08191520442889233
 31
0.0
210
0.0
220
0.0
230
1.0
 40
0.7002075382
 41
0.9599310885968796
 42
2.530727415392924
  0
ELLIPSE
  5
13C
330
5E
100
AcDbEntity
  8
4221039_0__SIEB_
  6
Continuous
 62
     7
100
AcDbEllipse
 10
34.6893053133
 20
761.7845230134
 30
0.0
 11
0.08191520442890186
 21
-0.08191520442889232
 31
0.0
210
0.0
220
0.0
230
1.0
 40
0.7002075382
 41
3.752457891786687
 42
5.323254218582711
  0
ELLIPSE
  5
13D
330
5E
100
AcDbEntity
  8
4221039_0__SIEB_
  6
Continuous
 62
     7
100
AcDbEllipse
 10
34.6893053133
 20
761.7845230134
 30
0.0
 11
0.08191520442889666
 21
0.08191520442889233
 31
0.0
210
0.0
220
0.0
230
1.0
 40
0.7002075382
 41
3.752457891787684
 42
4.101523742186624
  0
ELLIPSE
  5
13E
330
5E
100
AcDbEntity
  8
4221039_0__SIEB_
  6
Continuous
 62
     7
100
AcDbEllipse
 10
34.6893053133
 20
761.7845230134
 30
0.0
 11
-0.08191520442889448
 21
0.08191520442890619
 31
0.0
210
0.0
220
0.0
230
0.9999999999999998
 40
0.7002075382
 41
2.18166156499277
 42
2.530727415391642
  0
ELLIPSE
  5
13F
330
5E
100
AcDbEntity
  8
4221039_0__SIEB_
  6
Continuous
 62
     7
100
AcDbEllipse
 10
34.6893053133
 20
761.7845230134
 30
0.0
 11
-0.0819152044288958
 21
-0.08191520442889233
 31
0.0
210
0.0
220
0.0
230
1.0
 40
0.7002075382
 41
0.9599310885968229
 42
2.530727415392851
  0
ELLIPSE
  5
140
330
5E
100
AcDbEntity
  8
4221039_0__SIEB_
  6
Continuous
 62
     7
100
AcDbEllipse
 10
36.225019599
 20
761.7845230134
 30
0.0
 11
0.08191520442890274
 21
-0.08191520442889233
 31
0.0
210
0.0
220
0.0
230
1.0
 40
0.7002075382
 41
3.752457891786691
 42
5.323254218582599
  0
ELLIPSE
  5
141
330
5E
100
AcDbEntity
  8
4221039_0__SIEB_
  6
Continuous
 62
     7
100
AcDbEllipse
 10
36.225019599
 20
761.7845230134
 30
0.0
 11
0.08191520442890013
 21
0.08191520442890621
 31
0.0
210
0.0
220
0.0
230
1.0
 40
0.7002075382
 41
3.752457891788396
 42
4.101523742186123
  0
ELLIPSE
  5
142
330
5E
100
AcDbEntity
  8
4221039_0__SIEB_
  6
Continuous
 62
     7
100
AcDbEllipse
 10
36.225019599
 20
761.7845230134
 30
0.0
 11
-0.08191520442889494
 21
0.08191520442890621
 31
0.0
210
0.0
220
0.0
230
0.9999999999999999
 40
0.7002075382
 41
2.181661564992819
 42
2.530727415391711
  0
ELLIPSE
  5
143
330
5E
100
AcDbEntity
  8
4221039_0__SIEB_
  6
Continuous
 62
     7
100
AcDbEllipse
 10
36.225019599
 20
761.7845230134
 30
0.0
 11
-0.08191520442889233
 21
-0.08191520442890621
 31
0.0
210
0.0
220
0.0
230
1.0
 40
0.7002075382
 41
0.9599310885970049
 42
2.530727415392761
  0
ELLIPSE
  5
144
330
5E
100
AcDbEntity
  8
4221039_0__SIEB_
  6
Continuous
 62
     7
100
AcDbEllipse
 10
37.7607338847
 20
761.7845230134
 30
0.0
 11
0.08191520442889494
 21
-0.08191520442890621
 31
0.0
210
0.0
220
0.0
230
0.9999999999999999
 40
0.7002075382
 41
3.752457891786912
 42
5.323254218582664
  0
ELLIPSE
  5
145
330
5E
100
AcDbEntity
  8
4221039_0__SIEB_
  6
Continuous
 62
     7
100
AcDbEllipse
 10
37.7607338847
 20
761.7845230134
 30
0.0
 11
0.08191520442889494
 21
0.08191520442889233
 31
0.0
210
0.0
220
0.0
230
1.0
 40
0.7002075382
 41
3.752457891787737
 42
4.101523742186661
  0
ELLIPSE
  5
146
330
5E
100
AcDbEntity
  8
4221039_0__SIEB_
  6
Continuous
 62
     7
100
AcDbEllipse
 10
37.7607338847
 20
761.7845230134
 30
0.0
 11
-0.08191520442890274
 21
0.08191520442889233
 31
0.0
210
0.0
220
0.0
230
1.0
 40
0.7002075382
 41
2.181661564992752
 42
2.530727415391596
  0
ELLIPSE
  5
147
330
5E
100
AcDbEntity
  8
4221039_0__SIEB_
  6
Continuous
 62
     7
100
AcDbEllipse
 10
37.7607338847
 20
761.7845230134
 30
0.0
 11
-0.08191520442889841
 21
-0.08191520442889233
 31
0.0
210
0.0
220
0.0
230
1.0
 40
0.7002075382
 41
0.9599310885970039
 42
2.530727415392914
  0
ELLIPSE
  5
148
330
5E
100
AcDbEntity
  8
4221039_0__SIEB_
  6
Continuous
 62
     7
100
AcDbEllipse
 10
39.2964481704
 20
761.7845230134
 30
0.0
 11
0.08191520442890274
 21
-0.08191520442889233
 31
0.0
210
0.0
220
0.0
230
1.0
 40
0.7002075382
 41
3.752457891786766
 42
5.323254218582704
  0
ELLIPSE
  5
149
330
5E
100
AcDbEntity
  8
4221039_0__SIEB_
  6
Continuous
 62
     7
100
AcDbEllipse
 10
39.2964481704
 20
761.7845230134
 30
0.0
 11
0.0819152044288958
 21
0.08191520442889233
 31
0.0
210
0.0
220
0.0
230
1.0
 40
0.7002075382
 41
3.7524578917879
 42
4.101523742186669
  0
ELLIPSE
  5
14A
330
5E
100
AcDbEntity
  8
4221039_0__SIEB_
  6
Continuous
 62
     7
100
AcDbEllipse
 10
39.2964481704
 20
761.7845230134
 30
0.0
 11
-0.08191520442889406
 21
0.08191520442890621
 31
0.0
210
0.0
220
0.0
230
0.9999999999999998
 40
0.7002075382
 41
2.181661564992773
 42
2.530727415391572
  0
ELLIPSE
  5
14B
330
5E
100
AcDbEntity
  8
4221039_0__SIEB_
  6
Continuous
 62
     7
100
AcDbEllipse
 10
39.2964481704
 20
761.7845230134
 30
0.0
 11
-0.08191520442889752
 21
-0.08191520442889232
 31
0.0
210
0.0
220
0.0
230
1.0
 40
0.7002075382
 41
0.9599310885968906
 42
2.530727415392843
  0
ELLIPSE
  5
14C
330
5E
100
AcDbEntity
  8
4221039_0__SIEB_
  6
Continuous
 62
     7
100
AcDbEllipse
 10
39.2964481704
 20
761.2592777933
 30
0.0
 11
-0.08191520442890274
 21
0.08191520442889233
 31
0.0
210
0.0
220
0.0
230
1.0
 40
0.7002075382
 41
2.181661564992752
 42
2.530727415392353
  0
ELLIPSE
  5
14D
330
5E
100
AcDbEntity
  8
4221039_0__SIEB_
  6
Continuous
 62
     7
100
AcDbEllipse
 10
39.2964481704
 20
761.2592777933
 30
0.0
 11
-0.081915204428901
 21
-0.08191520442890621
 31
0.0
210
0.0
220
0.0
230
1.0
 40
0.7002075382
 41
0.959931088596338
 42
2.530727415391588
  0
ELLIPSE
  5
14E
330
5E
100
AcDbEntity
  8
4221039_0__SIEB_
  6
Continuous
 62
     7
100
AcDbEllipse
 10
37.7607338847
 20
761.2592777933
 30
0.0
 11
-0.08191520442890274
 21
0.08191520442889233
 31
0.0
210
0.0
220
0.0
230
1.0
 40
0.7002075382
 41
2.181661564992752
 42
2.530727415393411
  0
ELLIPSE
  5
14F
330
5E
100
AcDbEntity
  8
4221039_0__SIEB_
  6
Continuous
 62
     7
100
AcDbEllipse
 10
37.7607338847
 20
761.2592777933
 30
0.0
 11
-0.081915204428901
 21
-0.08191520442890621
 31
0.0
210
0.0
220
0.0
230
1.0
 40
0.7002075382
 41
0.959931088596338
 42
2.530727415391588
  0
ELLIPSE
  5
150
330
5E
100
AcDbEntity
  8
4221039_0__SIEB_
  6
Continuous
 62
     7
100
AcDbEllipse
 10
39.2964481704
 20
761.2592777933
 30
0.0
 11
0.08191520442889406
 21
-0.08191520442890621
 31
0.0
210
0.0
220
0.0
230
0.9999999999999998
 40
0.7002075382
 41
3.752457891788118
 42
5.323254218582672
  0
ELLIPSE
  5
151
330
5E
100
AcDbEntity
  8
4221039_0__SIEB_
  6
Continuous
 62
     7
100
AcDbEllipse
 10
39.2964481704
 20
761.2592777933
 30
0.0
 11
0.08191520442889927
 21
0.08191520442890621
 31
0.0
210
0.0
220
0.0
230
1.0
 40
0.7002075382
 41
3.752457891788007
 42
4.101523742186222
  0
ELLIPSE
  5
152
330
5E
100
AcDbEntity
  8
4221039_0__SIEB_
  6
Continuous
 62
     7
100
AcDbEllipse
 10
36.225019599
 20
761.2592777933
 30
0.0
 11
-0.08191520442889666
 21
0.08191520442889233
 31
0.0
210
0.0
220
0.0
230
1.0
 40
0.7002075382
 41
2.181661564993493
 42
2.530727415393339
  0
ELLIPSE
  5
153
330
5E
100
AcDbEntity
  8
4221039_0__SIEB_
  6
Continuous
 62
     7
100
AcDbEllipse
 10
36.225019599
 20
761.2592777933
 30
0.0
 11
-0.08191520442889494
 21
-0.08191520442890621
 31
0.0
210
0.0
220
0.0
230
0.9999999999999999
 40
0.7002075382
 41
0.9599310885962862
 42
2.530727415391464
  0
ELLIPSE
  5
154
330
5E
100
AcDbEntity
  8
4221039_0__SIEB_
  6
Continuous
 62
     7
100
AcDbEllipse
 10
37.7607338847
 20
761.2592777933
 30
0.0
 11
0.08191520442889494
 21
-0.08191520442890621
 31
0.0
210
0.0
220
0.0
230
0.9999999999999999
 40
0.7002075382
 41
3.752457891788122
 42
5.323254218582664
  0
ELLIPSE
  5
155
330
5E
100
AcDbEntity
  8
4221039_0__SIEB_
  6
Continuous
 62
     7
100
AcDbEllipse
 10
37.7607338847
 20
761.2592777933
 30
0.0
 11
0.08191520442889927
 21
0.08191520442890621
 31
0.0
210
0.0
220
0.0
230
1.0
 40
0.7002075382
 41
3.752457891787931
 42
4.101523742186116
  0
ELLIPSE
  5
156
330
5E
100
AcDbEntity
  8
4221039_0__SIEB_
  6
Continuous
 62
     7
100
AcDbEllipse
 10
34.6893053133
 20
761.2592777933
 30
0.0
 11
-0.08191520442889666
 21
0.08191520442889233
 31
0.0
210
0.0
220
0.0
230
1.0
 40
0.7002075382
 41
2.181661564993439
 42
2.530727415393414
  0
ELLIPSE
  5
157
330
5E
100
AcDbEntity
  8
4221039_0__SIEB_
  6
Continuous
 62
     7
100
AcDbEllipse
 10
34.6893053133
 20
761.2592777933
 30
0.0
 11
-0.08191520442889448
 21
-0.08191520442890619
 31
0.0
210
0.0
220
0.0
230
0.9999999999999998
 40
0.7002075382
 41
0.9599310885963882
 42
2.530727415391542
  0
ELLIPSE
  5
158
330
5E
100
AcDbEntity
  8
4221039_0__SIEB_
  6
Continuous
 62
     7
100
AcDbEllipse
 10
36.225019599
 20
761.2592777933
 30
0.0
 11
0.08191520442889666
 21
-0.08191520442889233
 31
0.0
210
0.0
220
0.0
230
1.0
 40
0.7002075382
 41
3.752457891787874
 42
5.323254218583285
  0
ELLIPSE
  5
159
330
5E
100
AcDbEntity
  8
4221039_0__SIEB_
  6
Continuous
 62
     7
100
AcDbEllipse
 10
36.225019599
 20
761.2592777933
 30
0.0
 11
0.08191520442890274
 21
0.08191520442889233
 31
0.0
210
0.0
220
0.0
230
1.0
 40
0.7002075382
 41
3.752457891787914
 42
4.101523742187151
  0
ELLIPSE
  5
15A
330
5E
100
AcDbEntity
  8
4221039_0__SIEB_
  6
Continuous
 62
     7
100
AcDbEllipse
 10
33.1535910276
 20
761.2592777933
 30
0.0
 11
-0.0819152044288997
 21
0.08191520442890621
 31
0.0
210
0.0
220
0.0
230
1.0
 40
0.7002075382
 41
2.181661564992884
 42
2.530727415393162
  0
ELLIPSE
  5
15B
330
5E
100
AcDbEntity
  8
4221039_0__SIEB_
  6
Continuous
 62
     7
100
AcDbEllipse
 10
33.1535910276
 20
761.2592777933
 30
0.0
 11
-0.08191520442889494
 21
-0.08191520442890621
 31
0.0
210
0.0
220
0.0
230
0.9999999999999999
 40
0.7002075382
 41
0.9599310885962862
 42
2.53072741539154
  0
ELLIPSE
  5
15C
330
5E
100
AcDbEntity
  8
4221039_0__SIEB_
  6
Continuous
 62
     7
100
AcDbEllipse
 10
34.6893053133
 20
761.2592777933
 30
0.0
 11
0.08191520442889666
 21
-0.08191520442889233
 31
0.0
210
0.0
220
0.0
230
1.0
 40
0.7002075382
 41
3.752457891787874
 42
5.323254218583233
  0
ELLIPSE
  5
15D
330
5E
100
AcDbEntity
  8
4221039_0__SIEB_
  6
Continuous
 62
     7
100
AcDbEllipse
 10
34.6893053133
 20
761.2592777933
 30
0.0
 11
0.08191520442890231
 21
0.08191520442889233
 31
0.0
210
0.0
220
0.0
230
0.9999999999999998
 40
0.7002075382
 41
3.752457891787606
 42
4.101523742187043
  0
ELLIPSE
  5
15E
330
5E
100
AcDbEntity
  8
4221039_0__SIEB_
  6
Continuous
 62
     7
100
AcDbEllipse
 10
31.6178767419
 20
761.2592777933
 30
0.0
 11
-0.08191520442890197
 21
0.08191520442889233
 31
0.0
210
0.0
220
0.0
230
1.0
 40
0.7002075382
 41
2.181661564992732
 42
2.5307274153924
  0
ELLIPSE
  5
15F
330
5E
100
AcDbEntity
  8
4221039_0__SIEB_
  6
Continuous
 62
     7
100
AcDbEllipse
 10
31.6178767419
 20
761.2592777933
 30
0.0
 11
-0.08191520442889948
 21
-0.08191520442890619
 31
0.0
210
0.0
220
0.0
230
1.0
 40
0.7002075382
 41
0.9599310885962722
 42
2.530727415391557
  0
ELLIPSE
  5
160
330
5E
100
AcDbEntity
  8
4221039_0__SIEB_
  6
Continuous
 62
     7
100
AcDbEllipse
 10
33.1535910276
 20
761.2592777933
 30
0.0
 11
0.08191520442889927
 21
-0.08191520442890621
 31
0.0
210
0.0
220
0.0
230
1.0
 40
0.7002075382
 41
3.752457891788066
 42
5.323254218583157
  0
ELLIPSE
  5
161
330
5E
100
AcDbEntity
  8
4221039_0__SIEB_
  6
Continuous
 62
     7
100
AcDbEllipse
 10
33.1535910276
 20
761.2592777933
 30
0.0
 11
0.08191520442889688
 21
0.08191520442890621
 31
0.0
210
0.0
220
0.0
230
1.0
 40
0.7002075382
 41
3.752457891787975
 42
4.101523742186202
  0
ELLIPSE
  5
162
330
5E
100
AcDbEntity
  8
4221039_0__SIEB_
  6
Continuous
 62
     7
100
AcDbEllipse
 10
30.0821624562
 20
761.2592777933
 30
0.0
 11
-0.08191520442890207
 21
0.08191520442889232
 31
0.0
210
0.0
220
0.0
230
0.9999999999999999
 40
0.7002075382
 41
2.181661564992572
 42
2.530727415391756
  0
ELLIPSE
  5
163
330
5E
100
AcDbEntity
  8
4221039_0__SIEB_
  6
Continuous
 62
     7
100
AcDbEllipse
 10
30.0821624562
 20
761.2592777933
 30
0.0
 11
-0.08191520442889948
 21
-0.08191520442890619
 31
0.0
210
0.0
220
0.0
230
1.0
 40
0.7002075382
 41
0.9599310885962987
 42
2.530727415391519
  0
ELLIPSE
  5
164
330
5E
100
AcDbEntity
  8
4221039_0__SIEB_
  6
Continuous
 62
     7
100
AcDbEllipse
 10
31.6178767419
 20
761.2592777933
 30
0.0
 11
0.08191520442889434
 21
-0.08191520442890621
 31
0.0
210
0.0
220
0.0
230
1.0
 40
0.7002075382
 41
3.752457891788119
 42
5.323254218582537
  0
ELLIPSE
  5
165
330
5E
100
AcDbEntity
  8
4221039_0__SIEB_
  6
Continuous
 62
     7
100
AcDbEllipse
 10
31.6178767419
 20
761.2592777933
 30
0.0
 11
0.08191520442889959
 21
0.08191520442890621
 31
0.0
210
0.0
220
0.0
230
1.0
 40
0.7002075382
 41
3.752457891787973
 42
4.101523742186119
  0
ELLIPSE
  5
166
330
5E
100
AcDbEntity
  8
4221039_0__SIEB_
  6
Continuous
 62
     7
100
AcDbEllipse
 10
28.5464481704
 20
761.2592777933
 30
0.0
 11
-0.08191520442889448
 21
0.08191520442890619
 31
0.0
210
0.0
220
0.0
230
0.9999999999999998
 40
0.7002075382
 41
2.18166156499277
 42
2.530727415392398
  0
ELLIPSE
  5
167
330
5E
100
AcDbEntity
  8
4221039_0__SIEB_
  6
Continuous
 62
     7
100
AcDbEllipse
 10
28.5464481704
 20
761.2592777933
 30
0.0
 11
-0.08191520442889448
 21
-0.08191520442890619
 31
0.0
210
0.0
220
0.0
230
0.9999999999999998
 40
0.7002075382
 41
0.9599310885963617
 42
2.530727415391504
  0
ELLIPSE
  5
168
330
5E
100
AcDbEntity
  8
4221039_0__SIEB_
  6
Continuous
 62
     7
100
AcDbEllipse
 10
30.0821624562
 20
761.2592777933
 30
0.0
 11
0.08191520442889448
 21
-0.08191520442890619
 31
0.0
210
0.0
220
0.0
230
0.9999999999999998
 40
0.7002075382
 41
3.752457891788082
 42
5.323254218583145
  0
ELLIPSE
  5
169
330
5E
100
AcDbEntity
  8
4221039_0__SIEB_
  6
Continuous
 62
     7
100
AcDbEllipse
 10
30.0821624562
 20
761.2592777933
 30
0.0
 11
0.08191520442889992
 21
0.08191520442890621
 31
0.0
210
0.0
220
0.0
230
1.0
 40
0.7002075382
 41
3.752457891787977
 42
4.101523742186095
  0
ELLIPSE
  5
16A
330
5E
100
AcDbEntity
  8
4221039_0__SIEB_
  6
Continuous
 62
     7
100
AcDbEllipse
 10
27.0107338847
 20
761.2592777933
 30
0.0
 11
-0.08191520442889666
 21
0.08191520442889233
 31
0.0
210
0.0
220
0.0
230
1.0
 40
0.7002075382
 41
2.181661564992884
 42
2.530727415392545
  0
ELLIPSE
  5
16B
330
5E
100
AcDbEntity
  8
4221039_0__SIEB_
  6
Continuous
 62
     7
100
AcDbEllipse
 10
27.0107338847
 20
761.2592777933
 30
0.0
 11
-0.08191520442889494
 21
-0.08191520442890621
 31
0.0
210
0.0
220
0.0
230
0.9999999999999999
 40
0.7002075382
 41
0.9599310885969481
 42
2.53072741539154
  0
ELLIPSE
  5
16C
330
5E
100
AcDbEntity
  8
4221039_0__SIEB_
  6
Continuous
 62
     7
100
AcDbEllipse
 10
28.5464481704
 20
761.2592777933
 30
0.0
 11
0.08191520442890231
 21
-0.08191520442889233
 31
0.0
210
0.0
220
0.0
230
0.9999999999999998
 40
0.7002075382
 41
3.752457891787861
 42
5.323254218582655
  0
ELLIPSE
  5
16D
330
5E
100
AcDbEntity
  8
4221039_0__SIEB_
  6
Continuous
 62
     7
100
AcDbEllipse
 10
28.5464481704
 20
761.2592777933
 30
0.0
 11
0.08191520442890231
 21
0.08191520442889233
 31
0.0
210
0.0
220
0.0
230
0.9999999999999998
 40
0.7002075382
 41
3.75245789178753
 42
4.101523742186777
  0
ELLIPSE
  5
16E
330
5E
100
AcDbEntity
  8
4221039_0__SIEB_
  6
Continuous
 62
     7
100
AcDbEllipse
 10
25.475019599
 20
761.2592777933
 30
0.0
 11
-0.08191520442889666
 21
0.08191520442889233
 31
0.0
210
0.0
220
0.0
230
1.0
 40
0.7002075382
 41
2.181661564992884
 42
2.530727415392431
  0
ELLIPSE
  5
16F
330
5E
100
AcDbEntity
  8
4221039_0__SIEB_
  6
Continuous
 62
     7
100
AcDbEllipse
 10
25.475019599
 20
761.2592777933
 30
0.0
 11
-0.08191520442889494
 21
-0.08191520442890621
 31
0.0
210
0.0
220
0.0
230
0.9999999999999999
 40
0.7002075382
 41
0.9599310885969216
 42
2.530727415391502
  0
ELLIPSE
  5
170
330
5E
100
AcDbEntity
  8
4221039_0__SIEB_
  6
Continuous
 62
     7
100
AcDbEllipse
 10
27.0107338847
 20
761.2592777933
 30
0.0
 11
0.08191520442889666
 21
-0.08191520442889233
 31
0.0
210
0.0
220
0.0
230
1.0
 40
0.7002075382
 41
3.752457891787949
 42
5.323254218582677
  0
ELLIPSE
  5
171
330
5E
100
AcDbEntity
  8
4221039_0__SIEB_
  6
Continuous
 62
     7
100
AcDbEllipse
 10
27.0107338847
 20
761.2592777933
 30
0.0
 11
0.08191520442890274
 21
0.08191520442889233
 31
0.0
210
0.0
220
0.0
230
1.0
 40
0.7002075382
 41
3.752457891787574
 42
4.101523742186886
  0
ELLIPSE
  5
172
330
5E
100
AcDbEntity
  8
4221039_0__SIEB_
  6
Continuous
 62
     7
100
AcDbEllipse
 10
23.9393053133
 20
761.2592777933
 30
0.0
 11
-0.08191520442889233
 21
0.08191520442890621
 31
0.0
210
0.0
220
0.0
230
1.0
 40
0.7002075382
 41
2.181661564992947
 42
2.53072741539235
  0
ELLIPSE
  5
173
330
5E
100
AcDbEntity
  8
4221039_0__SIEB_
  6
Continuous
 62
     7
100
AcDbEllipse
 10
23.9393053133
 20
761.2592777933
 30
0.0
 11
-0.08191520442889494
 21
-0.08191520442890621
 31
0.0
210
0.0
220
0.0
230
0.9999999999999999
 40
0.7002075382
 41
0.9599310885969481
 42
2.53072741539154
  0
ELLIPSE
  5
174
330
5E
100
AcDbEntity
  8
4221039_0__SIEB_
  6
Continuous
 62
     7
100
AcDbEllipse
 10
25.475019599
 20
761.2592777933
 30
0.0
 11
0.08191520442889666
 21
-0.08191520442889233
 31
0.0
210
0.0
220
0.0
230
1.0
 40
0.7002075382
 41
3.752457891787912
 42
5.323254218582677
  0
ELLIPSE
  5
175
330
5E
100
AcDbEntity
  8
4221039_0__SIEB_
  6
Continuous
 62
     7
100
AcDbEllipse
 10
25.475019599
 20
761.2592777933
 30
0.0
 11
0.08191520442890274
 21
0.08191520442889233
 31
0.0
210
0.0
220
0.0
230
1.0
 40
0.7002075382
 41
3.752457891787498
 42
4.10152374218686
  0
ELLIPSE
  5
176
330
5E
100
AcDbEntity
  8
4221039_0__SIEB_
  6
Continuous
 62
     7
100
AcDbEllipse
 10
23.9393053133
 20
761.2592777933
 30
0.0
 11
0.08191520442889665
 21
-0.08191520442890619
 31
0.0
210
0.0
220
0.0
230
1.0
 40
0.7002075382
 41
3.752457891788054
 42
5.323254218582677
  0
ELLIPSE
  5
177
330
5E
100
AcDbEntity
  8
4221039_0__SIEB_
  6
Continuous
 62
     7
100
AcDbEllipse
 10
23.9393053133
 20
761.2592777933
 30
0.0
 11
0.08191520442890099
 21
0.08191520442889233
 31
0.0
210
0.0
220
0.0
230
1.0
 40
0.7002075382
 41
3.752457891787627
 42
4.101523742186792
  0
ELLIPSE
  5
178
330
5E
100
AcDbEntity
  8
4221039_0__SIEB_
  6
Continuous
 62
     7
100
AcDbEllipse
 10
23.9393053133
 20
760.7340325732
 30
0.0
 11
0.08191520442889841
 21
-0.08191520442889233
 31
0.0
210
0.0
220
0.0
230
1.0
 40
0.7002075382
 41
3.752457891787919
 42
5.323254218583377
  0
ELLIPSE
  5
179
330
5E
100
AcDbEntity
  8
4221039_0__SIEB_
  6
Continuous
 62
     7
100
AcDbEllipse
 10
23.9393053133
 20
760.7340325732
 30
0.0
 11
0.08191520442888972
 21
0.08191520442892009
 31
0.0
210
0.0
220
0.0
230
1.0
 40
0.7002075382
 41
3.752457891788133
 42
4.101523742186087
  0
ELLIPSE
  5
17A
330
5E
100
AcDbEntity
  8
4221039_0__SIEB_
  6
Continuous
 62
     7
100
AcDbEllipse
 10
23.9393053133
 20
760.7340325732
 30
0.0
 11
-0.08191520442889841
 21
0.08191520442890621
 31
0.0
210
0.0
220
0.0
230
1.0
 40
0.7002075382
 41
2.181661564993425
 42
2.530727415391628
  0
ELLIPSE
  5
17B
330
5E
100
AcDbEntity
  8
4221039_0__SIEB_
  6
Continuous
 62
     7
100
AcDbEllipse
 10
23.9393053133
 20
760.7340325732
 30
0.0
 11
-0.08191520442889406
 21
-0.08191520442890621
 31
0.0
210
0.0
220
0.0
230
0.9999999999999998
 40
0.7002075382
 41
0.9599310885964375
 42
2.530727415391544
  0
ELLIPSE
  5
17C
330
5E
100
AcDbEntity
  8
4221039_0__SIEB_
  6
Continuous
 62
     7
100
AcDbEllipse
 10
25.475019599
 20
760.7340325732
 30
0.0
 11
0.08191520442890274
 21
-0.08191520442889233
 31
0.0
210
0.0
220
0.0
230
1.0
 40
0.7002075382
 41
3.752457891787863
 42
5.32325421858326
  0
ELLIPSE
  5
17D
330
5E
100
AcDbEntity
  8
4221039_0__SIEB_
  6
Continuous
 62
     7
100
AcDbEllipse
 10
25.475019599
 20
760.7340325732
 30
0.0
 11
0.08191520442889233
 21
0.08191520442890621
 31
0.0
210
0.0
220
0.0
230
1.0
 40
0.7002075382
 41
3.752457891787841
 42
4.101523742186215
  0
ELLIPSE
  5
17E
330
5E
100
AcDbEntity
  8
4221039_0__SIEB_
  6
Continuous
 62
     7
100
AcDbEllipse
 10
25.475019599
 20
760.7340325732
 30
0.0
 11
-0.08191520442889494
 21
0.08191520442890621
 31
0.0
210
0.0
220
0.0
230
0.9999999999999999
 40
0.7002075382
 41
2.181661564993401
 42
2.530727415391636
  0
ELLIPSE
  5
17F
330
5E
100
AcDbEntity
  8
4221039_0__SIEB_
  6
Continuous
 62
     7
100
AcDbEllipse
 10
25.475019599
 20
760.7340325732
 30
0.0
 11
-0.08191520442890012
 21
-0.08191520442889232
 31
0.0
210
0.0
220
0.0
230
1.0
 40
0.7002075382
 41
0.9599310885972571
 42
2.530727415391659
  0
ELLIPSE
  5
180
330
5E
100
AcDbEntity
  8
4221039_0__SIEB_
  6
Continuous
 62
     7
100
AcDbEllipse
 10
27.0107338847
 20
760.7340325732
 30
0.0
 11
0.08191520442890274
 21
-0.08191520442889233
 31
0.0
210
0.0
220
0.0
230
1.0
 40
0.7002075382
 41
3.752457891787901
 42
5.323254218583287
  0
ELLIPSE
  5
181
330
5E
100
AcDbEntity
  8
4221039_0__SIEB_
  6
Continuous
 62
     7
100
AcDbEllipse
 10
27.0107338847
 20
760.7340325732
 30
0.0
 11
0.08191520442889666
 21
0.08191520442889233
 31
0.0
210
0.0
220
0.0
230
1.0
 40
0.7002075382
 41
3.75245789178776
 42
4.101523742186068
  0
ELLIPSE
  5
182
330
5E
100
AcDbEntity
  8
4221039_0__SIEB_
  6
Continuous
 62
     7
100
AcDbEllipse
 10
27.0107338847
 20
760.7340325732
 30
0.0
 11
-0.08191520442889494
 21
0.08191520442890621
 31
0.0
210
0.0
220
0.0
230
0.9999999999999999
 40
0.7002075382
 41
2.181661564993401
 42
2.530727415391711
  0
ELLIPSE
  5
183
330
5E
100
AcDbEntity
  8
4221039_0__SIEB_
  6
Continuous
 62
     7
100
AcDbEllipse
 10
27.0107338847
 20
760.7340325732
 30
0.0
 11
-0.08191520442889666
 21
-0.08191520442889233
 31
0.0
210
0.0
220
0.0
230
1.0
 40
0.7002075382
 41
0.9599310885962744
 42
2.530727415391675
  0
ELLIPSE
  5
184
330
5E
100
AcDbEntity
  8
4221039_0__SIEB_
  6
Continuous
 62
     7
100
AcDbEllipse
 10
28.5464481704
 20
760.7340325732
 30
0.0
 11
0.08191520442889752
 21
-0.08191520442889232
 31
0.0
210
0.0
220
0.0
230
1.0
 40
0.7002075382
 41
3.752457891787915
 42
5.323254218583278
  0
ELLIPSE
  5
185
330
5E
100
AcDbEntity
  8
4221039_0__SIEB_
  6
Continuous
 62
     7
100
AcDbEllipse
 10
28.5464481704
 20
760.7340325732
 30
0.0
 11
0.08191520442889623
 21
0.08191520442889233
 31
0.0
210
0.0
220
0.0
230
1.0
 40
0.7002075382
 41
3.752457891787489
 42
4.101523742186064
  0
ELLIPSE
  5
186
330
5E
100
AcDbEntity
  8
4221039_0__SIEB_
  6
Continuous
 62
     7
100
AcDbEllipse
 10
28.5464481704
 20
760.7340325732
 30
0.0
 11
-0.08191520442889666
 21
0.08191520442889233
 31
0.0
210
0.0
220
0.0
230
1.0
 40
0.7002075382
 41
2.181661564993493
 42
2.53072741539228
  0
ELLIPSE
  5
187
330
5E
100
AcDbEntity
  8
4221039_0__SIEB_
  6
Continuous
 62
     7
100
AcDbEllipse
 10
28.5464481704
 20
760.7340325732
 30
0.0
 11
-0.08191520442889666
 21
-0.08191520442889233
 31
0.0
210
0.0
220
0.0
230
1.0
 40
0.7002075382
 41
0.9599310885962744
 42
2.530727415391637
  0
ELLIPSE
  5
188
330
5E
100
AcDbEntity
  8
4221039_0__SIEB_
  6
Continuous
 62
     7
100
AcDbEllipse
 10
30.0821624562
 20
760.7340325732
 30
0.0
 11
0.08191520442889687
 21
-0.08191520442889233
 31
0.0
210
0.0
220
0.0
230
1.0
 40
0.7002075382
 41
3.752457891787913
 42
5.32325421858331
  0
ELLIPSE
  5
189
330
5E
100
AcDbEntity
  8
4221039_0__SIEB_
  6
Continuous
 62
     7
100
AcDbEllipse
 10
30.0821624562
 20
760.7340325732
 30
0.0
 11
0.08191520442889687
 21
0.08191520442889233
 31
0.0
210
0.0
220
0.0
230
1.0
 40
0.7002075382
 41
3.752457891786213
 42
4.101523742186069
  0
ELLIPSE
  5
18A
330
5E
100
AcDbEntity
  8
4221039_0__SIEB_
  6
Continuous
 62
     7
100
AcDbEllipse
 10
30.0821624562
 20
760.7340325732
 30
0.0
 11
-0.08191520442889687
 21
0.08191520442889233
 31
0.0
210
0.0
220
0.0
230
1.0
 40
0.7002075382
 41
2.181661564993517
 42
2.530727415392051
  0
ELLIPSE
  5
18B
330
5E
100
AcDbEntity
  8
4221039_0__SIEB_
  6
Continuous
 62
     7
100
AcDbEllipse
 10
30.0821624562
 20
760.7340325732
 30
0.0
 11
-0.08191520442889687
 21
-0.08191520442889233
 31
0.0
210
0.0
220
0.0
230
1.0
 40
0.7002075382
 41
0.9599310885962762
 42
2.530727415391636
  0
ELLIPSE
  5
18C
330
5E
100
AcDbEntity
  8
4221039_0__SIEB_
  6
Continuous
 62
     7
100
AcDbEllipse
 10
31.6178767419
 20
760.7340325732
 30
0.0
 11
0.08191520442889665
 21
-0.08191520442889233
 31
0.0
210
0.0
220
0.0
230
1.0
 40
0.7002075382
 41
3.752457891787949
 42
5.323254218583233
  0
ELLIPSE
  5
18D
330
5E
100
AcDbEntity
  8
4221039_0__SIEB_
  6
Continuous
 62
     7
100
AcDbEllipse
 10
31.6178767419
 20
760.7340325732
 30
0.0
 11
0.0819152044288968
 21
0.08191520442889233
 31
0.0
210
0.0
220
0.0
230
1.0
 40
0.7002075382
 41
3.752457891786249
 42
4.101523742186095
  0
ELLIPSE
  5
18E
330
5E
100
AcDbEntity
  8
4221039_0__SIEB_
  6
Continuous
 62
     7
100
AcDbEllipse
 10
31.6178767419
 20
760.7340325732
 30
0.0
 11
-0.08191520442889672
 21
0.08191520442889233
 31
0.0
210
0.0
220
0.0
230
1.0
 40
0.7002075382
 41
2.181661564993492
 42
2.530727415393376
  0
ELLIPSE
  5
18F
330
5E
100
AcDbEntity
  8
4221039_0__SIEB_
  6
Continuous
 62
     7
100
AcDbEllipse
 10
31.6178767419
 20
760.7340325732
 30
0.0
 11
-0.08191520442889674
 21
-0.08191520442889233
 31
0.0
210
0.0
220
0.0
230
1.0
 40
0.7002075382
 41
0.9599310885963015
 42
2.530727415391675
  0
ELLIPSE
  5
190
330
5E
100
AcDbEntity
  8
4221039_0__SIEB_
  6
Continuous
 62
     7
100
AcDbEllipse
 10
33.1535910276
 20
760.7340325732
 30
0.0
 11
0.08191520442889776
 21
-0.08191520442889233
 31
0.0
210
0.0
220
0.0
230
1.0
 40
0.7002075382
 41
3.752457891789164
 42
5.323254218583382
  0
ELLIPSE
  5
191
330
5E
100
AcDbEntity
  8
4221039_0__SIEB_
  6
Continuous
 62
     7
100
AcDbEllipse
 10
33.1535910276
 20
760.7340325732
 30
0.0
 11
0.08191520442888864
 21
0.08191520442892009
 31
0.0
210
0.0
220
0.0
230
1.0
 40
0.7002075382
 41
3.752457891786644
 42
4.101523742186078
  0
ELLIPSE
  5
192
330
5E
100
AcDbEntity
  8
4221039_0__SIEB_
  6
Continuous
 62
     7
100
AcDbEllipse
 10
33.1535910276
 20
760.7340325732
 30
0.0
 11
-0.08191520442889819
 21
0.08191520442890621
 31
0.0
210
0.0
220
0.0
230
1.0
 40
0.7002075382
 41
2.181661564993373
 42
2.530727415393333
  0
ELLIPSE
  5
193
330
5E
100
AcDbEntity
  8
4221039_0__SIEB_
  6
Continuous
 62
     7
100
AcDbEllipse
 10
33.1535910276
 20
760.7340325732
 30
0.0
 11
-0.08191520442889319
 21
-0.08191520442890621
 31
0.0
210
0.0
220
0.0
230
0.9999999999999998
 40
0.7002075382
 41
0.95993108859643
 42
2.530727415391623
  0
ELLIPSE
  5
194
330
5E
100
AcDbEntity
  8
4221039_0__SIEB_
  6
Continuous
 62
     7
100
AcDbEllipse
 10
34.6893053133
 20
760.7340325732
 30
0.0
 11
0.08191520442890143
 21
-0.08191520442889233
 31
0.0
210
0.0
220
0.0
230
0.9999999999999998
 40
0.7002075382
 41
3.752457891787895
 42
5.323254218583298
  0
ELLIPSE
  5
195
330
5E
100
AcDbEntity
  8
4221039_0__SIEB_
  6
Continuous
 62
     7
100
AcDbEllipse
 10
34.6893053133
 20
760.7340325732
 30
0.0
 11
0.08191520442889666
 21
0.08191520442889233
 31
0.0
210
0.0
220
0.0
230
1.0
 40
0.7002075382
 41
3.752457891786096
 42
4.101523742186094
  0
ELLIPSE
  5
196
330
5E
100
AcDbEntity
  8
4221039_0__SIEB_
  6
Continuous
 62
     7
100
AcDbEllipse
 10
34.6893053133
 20
760.7340325732
 30
0.0
 11
-0.08191520442889448
 21
0.08191520442890619
 31
0.0
210
0.0
220
0.0
230
0.9999999999999998
 40
0.7002075382
 41
2.181661564993352
 42
2.53072741539323
  0
ELLIPSE
  5
197
330
5E
100
AcDbEntity
  8
4221039_0__SIEB_
  6
Continuous
 62
     7
100
AcDbEllipse
 10
34.6893053133
 20
760.7340325732
 30
0.0
 11
-0.0819152044288958
 21
-0.08191520442889233
 31
0.0
210
0.0
220
0.0
230
1.0
 40
0.7002075382
 41
0.9599310885962934
 42
2.530727415391641
  0
ELLIPSE
  5
198
330
5E
100
AcDbEntity
  8
4221039_0__SIEB_
  6
Continuous
 62
     7
100
AcDbEllipse
 10
36.225019599
 20
760.7340325732
 30
0.0
 11
0.08191520442890274
 21
-0.08191520442889233
 31
0.0
210
0.0
220
0.0
230
1.0
 40
0.7002075382
 41
3.752457891789111
 42
5.323254218583234
  0
ELLIPSE
  5
199
330
5E
100
AcDbEntity
  8
4221039_0__SIEB_
  6
Continuous
 62
     7
100
AcDbEllipse
 10
36.225019599
 20
760.7340325732
 30
0.0
 11
0.08191520442889666
 21
0.08191520442889233
 31
0.0
210
0.0
220
0.0
230
1.0
 40
0.7002075382
 41
3.752457891786172
 42
4.101523742186094
  0
ELLIPSE
  5
19A
330
5E
100
AcDbEntity
  8
4221039_0__SIEB_
  6
Continuous
 62
     7
100
AcDbEllipse
 10
36.225019599
 20
760.7340325732
 30
0.0
 11
-0.08191520442889494
 21
0.08191520442890621
 31
0.0
210
0.0
220
0.0
230
0.9999999999999999
 40
0.7002075382
 41
2.181661564993454
 42
2.530727415392165
  0
ELLIPSE
  5
19B
330
5E
100
AcDbEntity
  8
4221039_0__SIEB_
  6
Continuous
 62
     7
100
AcDbEllipse
 10
36.225019599
 20
760.7340325732
 30
0.0
 11
-0.08191520442889666
 21
-0.08191520442889233
 31
0.0
210
0.0
220
0.0
230
1.0
 40
0.7002075382
 41
0.9599310885963008
 42
2.530727415391637
  0
ELLIPSE
  5
19C
330
5E
100
AcDbEntity
  8
4221039_0__SIEB_
  6
Continuous
 62
     7
100
AcDbEllipse
 10
37.7607338847
 20
760.7340325732
 30
0.0
 11
0.08191520442889494
 21
-0.08191520442889233
 31
0.0
210
0.0
220
0.0
230
1.0
 40
0.7002075382
 41
3.752457891787942
 42
5.3232542185833
  0
ELLIPSE
  5
19D
330
5E
100
AcDbEntity
  8
4221039_0__SIEB_
  6
Continuous
 62
     7
100
AcDbEllipse
 10
37.7607338847
 20
760.7340325732
 30
0.0
 11
0.08191520442889494
 21
0.08191520442889233
 31
0.0
210
0.0
220
0.0
230
1.0
 40
0.7002075382
 41
3.75245789178751
 42
4.101523742186079
  0
ELLIPSE
  5
19E
330
5E
100
AcDbEntity
  8
4221039_0__SIEB_
  6
Continuous
 62
     7
100
AcDbEllipse
 10
37.7607338847
 20
760.7340325732
 30
0.0
 11
-0.08191520442889666
 21
0.08191520442889233
 31
0.0
210
0.0
220
0.0
230
1.0
 40
0.7002075382
 41
2.181661564993493
 42
2.530727415392053
  0
ELLIPSE
  5
19F
330
5E
100
AcDbEntity
  8
4221039_0__SIEB_
  6
Continuous
 62
     7
100
AcDbEllipse
 10
37.7607338847
 20
760.7340325732
 30
0.0
 11
-0.08191520442889841
 21
-0.08191520442889233
 31
0.0
210
0.0
220
0.0
230
1.0
 40
0.7002075382
 41
0.9599310885971629
 42
2.530727415391705
  0
ELLIPSE
  5
1A0
330
5E
100
AcDbEntity
  8
4221039_0__SIEB_
  6
Continuous
 62
     7
100
AcDbEllipse
 10
39.2964481704
 20
760.7340325732
 30
0.0
 11
0.08191520442889752
 21
-0.08191520442889232
 31
0.0
210
0.0
220
0.0
230
1.0
 40
0.7002075382
 41
3.752457891787953
 42
5.323254218583278
  0
ELLIPSE
  5
1A1
330
5E
100
AcDbEntity
  8
4221039_0__SIEB_
  6
Continuous
 62
     7
100
AcDbEllipse
 10
39.2964481704
 20
760.7340325732
 30
0.0
 11
0.0819152044288958
 21
0.08191520442889233
 31
0.0
210
0.0
220
0.0
230
1.0
 40
0.7002075382
 41
3.752457891787597
 42
4.101523742186086
  0
ELLIPSE
  5
1A2
330
5E
100
AcDbEntity
  8
4221039_0__SIEB_
  6
Continuous
 62
     7
100
AcDbEllipse
 10
39.2964481704
 20
760.7340325732
 30
0.0
 11
-0.0819152044288958
 21
0.08191520442889233
 31
0.0
210
0.0
220
0.0
230
1.0
 40
0.7002075382
 41
2.181661564993553
 42
2.53072741539335
  0
ELLIPSE
  5
1A3
330
5E
100
AcDbEntity
  8
4221039_0__SIEB_
  6
Continuous
 62
     7
100
AcDbEllipse
 10
39.2964481704
 20
760.7340325732
 30
0.0
 11
-0.08191520442889752
 21
-0.08191520442889232
 31
0.0
210
0.0
220
0.0
230
1.0
 40
0.7002075382
 41
0.9599310885963082
 42
2.530727415391633
  0
ELLIPSE
  5
1A4
330
5E
100
AcDbEntity
  8
4221039_0__SIEB_
  6
Continuous
 62
     7
100
AcDbEllipse
 10
39.2964481704
 20
760.208787353
 30
0.0
 11
-0.08191520442890274
 21
0.08191520442889233
 31
0.0
210
0.0
220
0.0
230
1.0
 40
0.7002075382
 41
2.181661564991694
 42
2.530727415392126
  0
ELLIPSE
  5
1A5
330
5E
100
AcDbEntity
  8
4221039_0__SIEB_
  6
Continuous
 62
     7
100
AcDbEllipse
 10
39.2964481704
 20
760.208787353
 30
0.0
 11
-0.08191520442889752
 21
-0.08191520442889232
 31
0.0
210
0.0
220
0.0
230
1.0
 40
0.7002075382
 41
0.95993108859652
 42
2.530727415391633
  0
ELLIPSE
  5
1A6
330
5E
100
AcDbEntity
  8
4221039_0__SIEB_
  6
Continuous
 62
     7
100
AcDbEllipse
 10
37.7607338847
 20
760.208787353
 30
0.0
 11
-0.0819152044288906
 21
0.08191520442890621
 31
0.0
210
0.0
220
0.0
230
1.0
 40
0.7002075382
 41
2.181661564992539
 42
2.530727415390558
  0
ELLIPSE
  5
1A7
330
5E
100
AcDbEntity
  8
4221039_0__SIEB_
  6
Continuous
 62
     7
100
AcDbEllipse
 10
37.7607338847
 20
760.208787353
 30
0.0
 11
-0.08191520442889666
 21
-0.08191520442889233
 31
0.0
210
0.0
220
0.0
230
1.0
 40
0.7002075382
 41
0.9599310885965127
 42
2.530727415391637
  0
ELLIPSE
  5
1A8
330
5E
100
AcDbEntity
  8
4221039_0__SIEB_
  6
Continuous
 62
     7
100
AcDbEllipse
 10
39.2964481704
 20
760.208787353
 30
0.0
 11
0.08191520442889406
 21
-0.08191520442890621
 31
0.0
210
0.0
220
0.0
230
0.9999999999999998
 40
0.7002075382
 41
3.752457891788043
 42
5.323254218582354
  0
ELLIPSE
  5
1A9
330
5E
100
AcDbEntity
  8
4221039_0__SIEB_
  6
Continuous
 62
     7
100
AcDbEllipse
 10
39.2964481704
 20
760.208787353
 30
0.0
 11
0.08191520442889752
 21
0.08191520442889232
 31
0.0
210
0.0
220
0.0
230
1.0
 40
0.7002075382
 41
3.752457891787771
 42
4.101523742186313
  0
ELLIPSE
  5
1AA
330
5E
100
AcDbEntity
  8
4221039_0__SIEB_
  6
Continuous
 62
     7
100
AcDbEllipse
 10
36.225019599
 20
760.208787353
 30
0.0
 11
-0.08191520442889666
 21
0.08191520442889233
 31
0.0
210
0.0
220
0.0
230
1.0
 40
0.7002075382
 41
2.181661564992645
 42
2.530727415391373
  0
ELLIPSE
  5
1AB
330
5E
100
AcDbEntity
  8
4221039_0__SIEB_
  6
Continuous
 62
     7
100
AcDbEllipse
 10
36.225019599
 20
760.208787353
 30
0.0
 11
-0.08191520442889666
 21
-0.08191520442889233
 31
0.0
210
0.0
220
0.0
230
1.0
 40
0.7002075382
 41
0.9599310885965127
 42
2.530727415391637
  0
ELLIPSE
  5
1AC
330
5E
100
AcDbEntity
  8
4221039_0__SIEB_
  6
Continuous
 62
     7
100
AcDbEllipse
 10
37.7607338847
 20
760.208787353
 30
0.0
 11
0.08191520442888972
 21
-0.08191520442892009
 31
0.0
210
0.0
220
0.0
230
1.0
 40
0.7002075382
 41
3.752457891786994
 42
5.323254218582868
  0
ELLIPSE
  5
1AD
330
5E
100
AcDbEntity
  8
4221039_0__SIEB_
  6
Continuous
 62
     7
100
AcDbEllipse
 10
37.7607338847
 20
760.208787353
 30
0.0
 11
0.08191520442889666
 21
0.08191520442889233
 31
0.0
210
0.0
220
0.0
230
1.0
 40
0.7002075382
 41
3.752457891788819
 42
4.101523742186306
  0
ELLIPSE
  5
1AE
330
5E
100
AcDbEntity
  8
4221039_0__SIEB_
  6
Continuous
 62
     7
100
AcDbEllipse
 10
34.6893053133
 20
760.208787353
 30
0.0
 11
-0.08191520442889666
 21
0.08191520442889233
 31
0.0
210
0.0
220
0.0
230
1.0
 40
0.7002075382
 41
2.181661564992592
 42
2.530727415391297
  0
ELLIPSE
  5
1AF
330
5E
100
AcDbEntity
  8
4221039_0__SIEB_
  6
Continuous
 62
     7
100
AcDbEllipse
 10
34.6893053133
 20
760.208787353
 30
0.0
 11
-0.08191520442889666
 21
-0.08191520442889233
 31
0.0
210
0.0
220
0.0
230
1.0
 40
0.7002075382
 41
0.9599310885965127
 42
2.530727415391637
  0
ELLIPSE
  5
1B0
330
5E
100
AcDbEntity
  8
4221039_0__SIEB_
  6
Continuous
 62
     7
100
AcDbEllipse
 10
36.225019599
 20
760.208787353
 30
0.0
 11
0.08191520442889666
 21
-0.08191520442889233
 31
0.0
210
0.0
220
0.0
230
1.0
 40
0.7002075382
 41
3.752457891787949
 42
5.323254218582438
  0
ELLIPSE
  5
1B1
330
5E
100
AcDbEntity
  8
4221039_0__SIEB_
  6
Continuous
 62
     7
100
AcDbEllipse
 10
36.225019599
 20
760.208787353
 30
0.0
 11
0.08191520442889666
 21
0.08191520442889233
 31
0.0
210
0.0
220
0.0
230
1.0
 40
0.7002075382
 41
3.75245789178776
 42
4.101523742186306
  0
ELLIPSE
  5
1B2
330
5E
100
AcDbEntity
  8
4221039_0__SIEB_
  6
Continuous
 62
     7
100
AcDbEllipse
 10
33.1535910276
 20
760.208787353
 30
0.0
 11
-0.08191520442889687
 21
0.08191520442889233
 31
0.0
210
0.0
220
0.0
230
1.0
 40
0.7002075382
 41
2.181661564992591
 42
2.530727415391294
  0
ELLIPSE
  5
1B3
330
5E
100
AcDbEntity
  8
4221039_0__SIEB_
  6
Continuous
 62
     7
100
AcDbEllipse
 10
33.1535910276
 20
760.208787353
 30
0.0
 11
-0.08191520442889319
 21
-0.08191520442892009
 31
0.0
210
0.0
220
0.0
230
1.0
 40
0.7002075382
 41
0.9599310885973299
 42
2.530727415392653
  0
ELLIPSE
  5
1B4
330
5E
100
AcDbEntity
  8
4221039_0__SIEB_
  6
Continuous
 62
     7
100
AcDbEllipse
 10
34.6893053133
 20
760.208787353
 30
0.0
 11
0.08191520442889666
 21
-0.08191520442889233
 31
0.0
210
0.0
220
0.0
230
1.0
 40
0.7002075382
 41
3.752457891787874
 42
5.323254218582385
  0
ELLIPSE
  5
1B5
330
5E
100
AcDbEntity
  8
4221039_0__SIEB_
  6
Continuous
 62
     7
100
AcDbEllipse
 10
34.6893053133
 20
760.208787353
 30
0.0
 11
0.08191520442889623
 21
0.08191520442889233
 31
0.0
210
0.0
220
0.0
230
1.0
 40
0.7002075382
 41
3.752457891788813
 42
4.101523742186302
  0
ELLIPSE
  5
1B6
330
5E
100
AcDbEntity
  8
4221039_0__SIEB_
  6
Continuous
 62
     7
100
AcDbEllipse
 10
31.6178767419
 20
760.208787353
 30
0.0
 11
-0.08191520442889672
 21
0.08191520442889233
 31
0.0
210
0.0
220
0.0
230
1.0
 40
0.7002075382
 41
2.181661564992645
 42
2.530727415391334
  0
ELLIPSE
  5
1B7
330
5E
100
AcDbEntity
  8
4221039_0__SIEB_
  6
Continuous
 62
     7
100
AcDbEllipse
 10
31.6178767419
 20
760.208787353
 30
0.0
 11
-0.08191520442889436
 21
-0.08191520442890621
 31
0.0
210
0.0
220
0.0
230
1.0
 40
0.7002075382
 41
0.959931088596625
 42
2.53072741539158
  0
ELLIPSE
  5
1B8
330
5E
100
AcDbEntity
  8
4221039_0__SIEB_
  6
Continuous
 62
     7
100
AcDbEllipse
 10
33.1535910276
 20
760.208787353
 30
0.0
 11
0.08191520442889687
 21
-0.08191520442889233
 31
0.0
210
0.0
220
0.0
230
1.0
 40
0.7002075382
 41
3.75245789178795
 42
5.323254218582384
  0
ELLIPSE
  5
1B9
330
5E
100
AcDbEntity
  8
4221039_0__SIEB_
  6
Continuous
 62
     7
100
AcDbEllipse
 10
33.1535910276
 20
760.208787353
 30
0.0
 11
0.08191520442888929
 21
0.08191520442892009
 31
0.0
210
0.0
220
0.0
230
1.0
 40
0.7002075382
 41
3.752457891787938
 42
4.101523742187142
  0
ELLIPSE
  5
1BA
330
5E
100
AcDbEntity
  8
4221039_0__SIEB_
  6
Continuous
 62
     7
100
AcDbEllipse
 10
30.0821624562
 20
760.208787353
 30
0.0
 11
-0.08191520442889687
 21
0.08191520442889233
 31
0.0
210
0.0
220
0.0
230
1.0
 40
0.7002075382
 41
2.18166156499267
 42
2.530727415391181
  0
ELLIPSE
  5
1BB
330
5E
100
AcDbEntity
  8
4221039_0__SIEB_
  6
Continuous
 62
     7
100
AcDbEllipse
 10
30.0821624562
 20
760.208787353
 30
0.0
 11
-0.08191520442889448
 21
-0.08191520442890619
 31
0.0
210
0.0
220
0.0
230
0.9999999999999998
 40
0.7002075382
 41
0.9599310885966263
 42
2.530727415391466
  0
ELLIPSE
  5
1BC
330
5E
100
AcDbEntity
  8
4221039_0__SIEB_
  6
Continuous
 62
     7
100
AcDbEllipse
 10
31.6178767419
 20
760.208787353
 30
0.0
 11
0.08191520442889665
 21
-0.08191520442889233
 31
0.0
210
0.0
220
0.0
230
1.0
 40
0.7002075382
 41
3.752457891787949
 42
5.323254218582385
  0
ELLIPSE
  5
1BD
330
5E
100
AcDbEntity
  8
4221039_0__SIEB_
  6
Continuous
 62
     7
100
AcDbEllipse
 10
31.6178767419
 20
760.208787353
 30
0.0
 11
0.08191520442890214
 21
0.08191520442889233
 31
0.0
210
0.0
220
0.0
230
1.0
 40
0.7002075382
 41
3.752457891789079
 42
4.101523742187888
  0
ELLIPSE
  5
1BE
330
5E
100
AcDbEntity
  8
4221039_0__SIEB_
  6
Continuous
 62
     7
100
AcDbEllipse
 10
28.5464481704
 20
760.208787353
 30
0.0
 11
-0.08191520442889666
 21
0.08191520442889233
 31
0.0
210
0.0
220
0.0
230
1.0
 40
0.7002075382
 41
2.181661564992672
 42
2.530727415391335
  0
ELLIPSE
  5
1BF
330
5E
100
AcDbEntity
  8
4221039_0__SIEB_
  6
Continuous
 62
     7
100
AcDbEllipse
 10
28.5464481704
 20
760.208787353
 30
0.0
 11
-0.08191520442889448
 21
-0.08191520442890619
 31
0.0
210
0.0
220
0.0
230
0.9999999999999998
 40
0.7002075382
 41
0.9599310885972088
 42
2.530727415391504
  0
ELLIPSE
  5
1C0
330
5E
100
AcDbEntity
  8
4221039_0__SIEB_
  6
Continuous
 62
     7
100
AcDbEllipse
 10
30.0821624562
 20
760.208787353
 30
0.0
 11
0.08191520442889687
 21
-0.08191520442889233
 31
0.0
210
0.0
220
0.0
230
1.0
 40
0.7002075382
 41
3.752457891787913
 42
5.323254218582463
  0
ELLIPSE
  5
1C1
330
5E
100
AcDbEntity
  8
4221039_0__SIEB_
  6
Continuous
 62
     7
100
AcDbEllipse
 10
30.0821624562
 20
760.208787353
 30
0.0
 11
0.08191520442890252
 21
0.08191520442889233
 31
0.0
210
0.0
220
0.0
230
0.9999999999999998
 40
0.7002075382
 41
3.752457891787798
 42
4.101523742187891
  0
ELLIPSE
  5
1C2
330
5E
100
AcDbEntity
  8
4221039_0__SIEB_
  6
Continuous
 62
     7
100
AcDbEllipse
 10
27.0107338847
 20
760.208787353
 30
0.0
 11
-0.08191520442889666
 21
0.08191520442889233
 31
0.0
210
0.0
220
0.0
230
1.0
 40
0.7002075382
 41
2.181661564992672
 42
2.530727415391335
  0
ELLIPSE
  5
1C3
330
5E
100
AcDbEntity
  8
4221039_0__SIEB_
  6
Continuous
 62
     7
100
AcDbEllipse
 10
27.0107338847
 20
760.208787353
 30
0.0
 11
-0.08191520442889666
 21
-0.08191520442889233
 31
0.0
210
0.0
220
0.0
230
1.0
 40
0.7002075382
 41
0.9599310885965127
 42
2.530727415391675
  0
ELLIPSE
  5
1C4
330
5E
100
AcDbEntity
  8
4221039_0__SIEB_
  6
Continuous
 62
     7
100
AcDbEllipse
 10
28.5464481704
 20
760.208787353
 30
0.0
 11
0.08191520442889666
 21
-0.08191520442889233
 31
0.0
210
0.0
220
0.0
230
1.0
 40
0.7002075382
 41
3.752457891787949
 42
5.323254218582465
  0
ELLIPSE
  5
1C5
330
5E
100
AcDbEntity
  8
4221039_0__SIEB_
  6
Continuous
 62
     7
100
AcDbEllipse
 10
28.5464481704
 20
760.208787353
 30
0.0
 11
0.08191520442890186
 21
0.08191520442889232
 31
0.0
210
0.0
220
0.0
230
1.0
 40
0.7002075382
 41
3.75245789178866
 42
4.101523742187859
  0
ELLIPSE
  5
1C6
330
5E
100
AcDbEntity
  8
4221039_0__SIEB_
  6
Continuous
 62
     7
100
AcDbEllipse
 10
25.475019599
 20
760.208787353
 30
0.0
 11
-0.08191520442889666
 21
0.08191520442889233
 31
0.0
210
0.0
220
0.0
230
1.0
 40
0.7002075382
 41
2.181661564992645
 42
2.530727415391222
  0
ELLIPSE
  5
1C7
330
5E
100
AcDbEntity
  8
4221039_0__SIEB_
  6
Continuous
 62
     7
100
AcDbEllipse
 10
25.475019599
 20
760.208787353
 30
0.0
 11
-0.08191520442888972
 21
-0.08191520442892009
 31
0.0
210
0.0
220
0.0
230
1.0
 40
0.7002075382
 41
0.9599310885967446
 42
2.530727415392554
  0
ELLIPSE
  5
1C8
330
5E
100
AcDbEntity
  8
4221039_0__SIEB_
  6
Continuous
 62
     7
100
AcDbEllipse
 10
27.0107338847
 20
760.208787353
 30
0.0
 11
0.08191520442889666
 21
-0.08191520442889233
 31
0.0
210
0.0
220
0.0
230
1.0
 40
0.7002075382
 41
3.752457891787949
 42
5.323254218582465
  0
ELLIPSE
  5
1C9
330
5E
100
AcDbEntity
  8
4221039_0__SIEB_
  6
Continuous
 62
     7
100
AcDbEllipse
 10
27.0107338847
 20
760.208787353
 30
0.0
 11
0.08191520442889666
 21
0.08191520442889233
 31
0.0
210
0.0
220
0.0
230
1.0
 40
0.7002075382
 41
3.752457891787798
 42
4.101523742186306
  0
ELLIPSE
  5
1CA
330
5E
100
AcDbEntity
  8
4221039_0__SIEB_
  6
Continuous
 62
     7
100
AcDbEllipse
 10
23.9393053133
 20
760.208787353
 30
0.0
 11
-0.08191520442889666
 21
0.08191520442889233
 31
0.0
210
0.0
220
0.0
230
1.0
 40
0.7002075382
 41
2.181661564992672
 42
2.530727415391259
  0
ELLIPSE
  5
1CB
330
5E
100
AcDbEntity
  8
4221039_0__SIEB_
  6
Continuous
 62
     7
100
AcDbEllipse
 10
23.9393053133
 20
760.208787353
 30
0.0
 11
-0.08191520442889146
 21
-0.08191520442892009
 31
0.0
210
0.0
220
0.0
230
1.0
 40
0.7002075382
 41
0.9599310885967858
 42
2.530727415392585
  0
ELLIPSE
  5
1CC
330
5E
100
AcDbEntity
  8
4221039_0__SIEB_
  6
Continuous
 62
     7
100
AcDbEllipse
 10
25.475019599
 20
760.208787353
 30
0.0
 11
0.08191520442889666
 21
-0.08191520442889233
 31
0.0
210
0.0
220
0.0
230
1.0
 40
0.7002075382
 41
3.752457891787912
 42
5.323254218582438
  0
ELLIPSE
  5
1CD
330
5E
100
AcDbEntity
  8
4221039_0__SIEB_
  6
Continuous
 62
     7
100
AcDbEllipse
 10
25.475019599
 20
760.208787353
 30
0.0
 11
0.08191520442889233
 21
0.08191520442890621
 31
0.0
210
0.0
220
0.0
230
1.0
 40
0.7002075382
 41
3.75245789178803
 42
4.101523742186375
  0
ELLIPSE
  5
1CE
330
5E
100
AcDbEntity
  8
4221039_0__SIEB_
  6
Continuous
 62
     7
100
AcDbEllipse
 10
23.9393053133
 20
760.208787353
 30
0.0
 11
0.08191520442889494
 21
-0.08191520442889233
 31
0.0
210
0.0
220
0.0
230
1.0
 40
0.7002075382
 41
3.752457891787942
 42
5.32325421858248
  0
ELLIPSE
  5
1CF
330
5E
100
AcDbEntity
  8
4221039_0__SIEB_
  6
Continuous
 62
     7
100
AcDbEllipse
 10
23.9393053133
 20
760.208787353
 30
0.0
 11
0.0819152044288906
 21
0.08191520442890621
 31
0.0
210
0.0
220
0.0
230
1.0
 40
0.7002075382
 41
3.752457891788007
 42
4.101523742186385
  0
ELLIPSE
  5
1D0
330
5E
100
AcDbEntity
  8
4221039_0__SIEB_
  6
Continuous
 62
     7
100
AcDbEllipse
 10
25.475019599
 20
759.6835421329
 30
0.0
 11
0.08191520442890274
 21
-0.08191520442889233
 31
0.0
210
0.0
220
0.0
230
1.0
 40
0.7002075382
 41
3.752457891787863
 42
5.323254218583048
  0
ELLIPSE
  5
1D1
330
5E
100
AcDbEntity
  8
4221039_0__SIEB_
  6
Continuous
 62
     7
100
AcDbEllipse
 10
25.475019599
 20
759.6835421329
 30
0.0
 11
0.08191520442889233
 21
0.08191520442890621
 31
0.0
210
0.0
220
0.0
230
1.0
 40
0.7002075382
 41
3.752457891787576
 42
4.101523742186215
  0
ELLIPSE
  5
1D2
330
5E
100
AcDbEntity
  8
4221039_0__SIEB_
  6
Continuous
 62
     7
100
AcDbEllipse
 10
25.475019599
 20
759.6835421329
 30
0.0
 11
-0.08191520442889494
 21
0.08191520442890621
 31
0.0
210
0.0
220
0.0
230
0.9999999999999999
 40
0.7002075382
 41
2.181661564993163
 42
2.530727415391938
  0
ELLIPSE
  5
1D3
330
5E
100
AcDbEntity
  8
4221039_0__SIEB_
  6
Continuous
 62
     7
100
AcDbEllipse
 10
25.475019599
 20
759.6835421329
 30
0.0
 11
-0.08191520442889665
 21
-0.08191520442890619
 31
0.0
210
0.0
220
0.0
230
1.0
 40
0.7002075382
 41
0.9599310885965125
 42
2.530727415391532
  0
ELLIPSE
  5
1D4
330
5E
100
AcDbEntity
  8
4221039_0__SIEB_
  6
Continuous
 62
     7
100
AcDbEllipse
 10
27.0107338847
 20
759.6835421329
 30
0.0
 11
0.08191520442890274
 21
-0.08191520442889233
 31
0.0
210
0.0
220
0.0
230
1.0
 40
0.7002075382
 41
3.752457891787901
 42
5.323254218583048
  0
ELLIPSE
  5
1D5
330
5E
100
AcDbEntity
  8
4221039_0__SIEB_
  6
Continuous
 62
     7
100
AcDbEllipse
 10
27.0107338847
 20
759.6835421329
 30
0.0
 11
0.08191520442889494
 21
0.08191520442890621
 31
0.0
210
0.0
220
0.0
230
0.9999999999999999
 40
0.7002075382
 41
3.75245789178761
 42
4.101523742186397
  0
ELLIPSE
  5
1D6
330
5E
100
AcDbEntity
  8
4221039_0__SIEB_
  6
Continuous
 62
     7
100
AcDbEllipse
 10
27.0107338847
 20
759.6835421329
 30
0.0
 11
-0.08191520442889494
 21
0.08191520442890621
 31
0.0
210
0.0
220
0.0
230
0.9999999999999999
 40
0.7002075382
 41
2.181661564993163
 42
2.530727415391938
  0
ELLIPSE
  5
1D7
330
5E
100
AcDbEntity
  8
4221039_0__SIEB_
  6
Continuous
 62
     7
100
AcDbEllipse
 10
27.0107338847
 20
759.6835421329
 30
0.0
 11
-0.08191520442890274
 21
-0.08191520442889233
 31
0.0
210
0.0
220
0.0
230
1.0
 40
0.7002075382
 41
0.959931088596538
 42
2.530727415391686
  0
ELLIPSE
  5
1D8
330
5E
100
AcDbEntity
  8
4221039_0__SIEB_
  6
Continuous
 62
     7
100
AcDbEllipse
 10
28.5464481704
 20
759.6835421329
 30
0.0
 11
0.08191520442889537
 21
-0.08191520442890621
 31
0.0
210
0.0
220
0.0
230
1.0
 40
0.7002075382
 41
3.752457891788048
 42
5.323254218583084
  0
ELLIPSE
  5
1D9
330
5E
100
AcDbEntity
  8
4221039_0__SIEB_
  6
Continuous
 62
     7
100
AcDbEllipse
 10
28.5464481704
 20
759.6835421329
 30
0.0
 11
0.08191520442889448
 21
0.08191520442890619
 31
0.0
210
0.0
220
0.0
230
0.9999999999999998
 40
0.7002075382
 41
3.75245789178768
 42
4.101523742186446
  0
ELLIPSE
  5
1DA
330
5E
100
AcDbEntity
  8
4221039_0__SIEB_
  6
Continuous
 62
     7
100
AcDbEllipse
 10
28.5464481704
 20
759.6835421329
 30
0.0
 11
-0.08191520442889147
 21
0.08191520442890621
 31
0.0
210
0.0
220
0.0
230
1.0
 40
0.7002075382
 41
2.181661564993378
 42
2.530727415392059
  0
ELLIPSE
  5
1DB
330
5E
100
AcDbEntity
  8
4221039_0__SIEB_
  6
Continuous
 62
     7
100
AcDbEllipse
 10
28.5464481704
 20
759.6835421329
 30
0.0
 11
-0.08191520442890231
 21
-0.08191520442889233
 31
0.0
210
0.0
220
0.0
230
0.9999999999999998
 40
0.7002075382
 41
0.9599310885964549
 42
2.53072741539165
  0
ELLIPSE
  5
1DC
330
5E
100
AcDbEntity
  8
4221039_0__SIEB_
  6
Continuous
 62
     7
100
AcDbEllipse
 10
30.0821624562
 20
759.6835421329
 30
0.0
 11
0.08191520442889448
 21
-0.08191520442890619
 31
0.0
210
0.0
220
0.0
230
0.9999999999999998
 40
0.7002075382
 41
3.752457891788082
 42
5.323254218582907
  0
ELLIPSE
  5
1DD
330
5E
100
AcDbEntity
  8
4221039_0__SIEB_
  6
Continuous
 62
     7
100
AcDbEllipse
 10
30.0821624562
 20
759.6835421329
 30
0.0
 11
0.08191520442889448
 21
0.08191520442890619
 31
0.0
210
0.0
220
0.0
230
0.9999999999999998
 40
0.7002075382
 41
3.752457891787755
 42
4.101523742187002
  0
ELLIPSE
  5
1DE
330
5E
100
AcDbEntity
  8
4221039_0__SIEB_
  6
Continuous
 62
     7
100
AcDbEllipse
 10
30.0821624562
 20
759.6835421329
 30
0.0
 11
-0.08191520442890207
 21
0.08191520442889232
 31
0.0
210
0.0
220
0.0
230
0.9999999999999999
 40
0.7002075382
 41
2.181661564991725
 42
2.530727415390773
  0
ELLIPSE
  5
1DF
330
5E
100
AcDbEntity
  8
4221039_0__SIEB_
  6
Continuous
 62
     7
100
AcDbEllipse
 10
30.0821624562
 20
759.6835421329
 30
0.0
 11
-0.08191520442890207
 21
-0.08191520442889232
 31
0.0
210
0.0
220
0.0
230
0.9999999999999999
 40
0.7002075382
 41
0.9599310885971413
 42
2.530727415392898
  0
ELLIPSE
  5
1E0
330
5E
100
AcDbEntity
  8
4221039_0__SIEB_
  6
Continuous
 62
     7
100
AcDbEllipse
 10
31.6178767419
 20
759.6835421329
 30
0.0
 11
0.08191520442889434
 21
-0.08191520442890621
 31
0.0
210
0.0
220
0.0
230
1.0
 40
0.7002075382
 41
3.752457891788119
 42
5.323254218582935
  0
ELLIPSE
  5
1E1
330
5E
100
AcDbEntity
  8
4221039_0__SIEB_
  6
Continuous
 62
     7
100
AcDbEllipse
 10
31.6178767419
 20
759.6835421329
 30
0.0
 11
0.08191520442889436
 21
0.08191520442890621
 31
0.0
210
0.0
220
0.0
230
1.0
 40
0.7002075382
 41
3.75245789178764
 42
4.101523742186417
  0
ELLIPSE
  5
1E2
330
5E
100
AcDbEntity
  8
4221039_0__SIEB_
  6
Continuous
 62
     7
100
AcDbEllipse
 10
31.6178767419
 20
759.6835421329
 30
0.0
 11
-0.08191520442890197
 21
0.08191520442889233
 31
0.0
210
0.0
220
0.0
230
1.0
 40
0.7002075382
 41
2.181661564991647
 42
2.530727415390888
  0
ELLIPSE
  5
1E3
330
5E
100
AcDbEntity
  8
4221039_0__SIEB_
  6
Continuous
 62
     7
100
AcDbEllipse
 10
31.6178767419
 20
759.6835421329
 30
0.0
 11
-0.08191520442890202
 21
-0.08191520442889232
 31
0.0
210
0.0
220
0.0
230
1.0
 40
0.7002075382
 41
0.959931088596479
 42
2.530727415391727
  0
ELLIPSE
  5
1E4
330
5E
100
AcDbEntity
  8
4221039_0__SIEB_
  6
Continuous
 62
     7
100
AcDbEllipse
 10
33.1535910276
 20
759.6835421329
 30
0.0
 11
0.08191520442890186
 21
-0.08191520442889232
 31
0.0
210
0.0
220
0.0
230
1.0
 40
0.7002075382
 41
3.752457891787973
 42
5.323254218583135
  0
ELLIPSE
  5
1E5
330
5E
100
AcDbEntity
  8
4221039_0__SIEB_
  6
Continuous
 62
     7
100
AcDbEllipse
 10
33.1535910276
 20
759.6835421329
 30
0.0
 11
0.08191520442889448
 21
0.08191520442890619
 31
0.0
210
0.0
220
0.0
230
0.9999999999999998
 40
0.7002075382
 41
3.752457891789079
 42
4.101523742186975
  0
ELLIPSE
  5
1E6
330
5E
100
AcDbEntity
  8
4221039_0__SIEB_
  6
Continuous
 62
     7
100
AcDbEllipse
 10
33.1535910276
 20
759.6835421329
 30
0.0
 11
-0.08191520442889448
 21
0.08191520442890619
 31
0.0
210
0.0
220
0.0
230
0.9999999999999998
 40
0.7002075382
 41
2.181661564993246
 42
2.53072741539202
  0
ELLIPSE
  5
1E7
330
5E
100
AcDbEntity
  8
4221039_0__SIEB_
  6
Continuous
 62
     7
100
AcDbEllipse
 10
33.1535910276
 20
759.6835421329
 30
0.0
 11
-0.08191520442890207
 21
-0.08191520442889232
 31
0.0
210
0.0
220
0.0
230
0.9999999999999999
 40
0.7002075382
 41
0.9599310885971942
 42
2.530727415392974
  0
ELLIPSE
  5
1E8
330
5E
100
AcDbEntity
  8
4221039_0__SIEB_
  6
Continuous
 62
     7
100
AcDbEllipse
 10
34.6893053133
 20
759.6835421329
 30
0.0
 11
0.08191520442889448
 21
-0.08191520442890619
 31
0.0
210
0.0
220
0.0
230
0.9999999999999998
 40
0.7002075382
 41
3.752457891788044
 42
5.323254218582987
  0
ELLIPSE
  5
1E9
330
5E
100
AcDbEntity
  8
4221039_0__SIEB_
  6
Continuous
 62
     7
100
AcDbEllipse
 10
34.6893053133
 20
759.6835421329
 30
0.0
 11
0.08191520442889103
 21
0.08191520442890621
 31
0.0
210
0.0
220
0.0
230
1.0
 40
0.7002075382
 41
3.752457891788656
 42
4.101523742186893
  0
ELLIPSE
  5
1EA
330
5E
100
AcDbEntity
  8
4221039_0__SIEB_
  6
Continuous
 62
     7
100
AcDbEllipse
 10
34.6893053133
 20
759.6835421329
 30
0.0
 11
-0.08191520442890274
 21
0.08191520442889233
 31
0.0
210
0.0
220
0.0
230
1.0
 40
0.7002075382
 41
2.181661564991694
 42
2.530727415392277
  0
ELLIPSE
  5
1EB
330
5E
100
AcDbEntity
  8
4221039_0__SIEB_
  6
Continuous
 62
     7
100
AcDbEllipse
 10
34.6893053133
 20
759.6835421329
 30
0.0
 11
-0.08191520442889494
 21
-0.08191520442890621
 31
0.0
210
0.0
220
0.0
230
0.9999999999999999
 40
0.7002075382
 41
0.9599310885964979
 42
2.530727415391615
  0
ELLIPSE
  5
1EC
330
5E
100
AcDbEntity
  8
4221039_0__SIEB_
  6
Continuous
 62
     7
100
AcDbEllipse
 10
36.225019599
 20
759.6835421329
 30
0.0
 11
0.08191520442889927
 21
-0.08191520442890621
 31
0.0
210
0.0
220
0.0
230
1.0
 40
0.7002075382
 41
3.752457891788066
 42
5.323254218582469
  0
ELLIPSE
  5
1ED
330
5E
100
AcDbEntity
  8
4221039_0__SIEB_
  6
Continuous
 62
     7
100
AcDbEllipse
 10
36.225019599
 20
759.6835421329
 30
0.0
 11
0.08191520442889233
 21
0.08191520442890621
 31
0.0
210
0.0
220
0.0
230
1.0
 40
0.7002075382
 41
3.752457891787462
 42
4.101523742186904
  0
ELLIPSE
  5
1EE
330
5E
100
AcDbEntity
  8
4221039_0__SIEB_
  6
Continuous
 62
     7
100
AcDbEllipse
 10
36.225019599
 20
759.6835421329
 30
0.0
 11
-0.08191520442889927
 21
0.08191520442890621
 31
0.0
210
0.0
220
0.0
230
1.0
 40
0.7002075382
 41
2.181661564992623
 42
2.530727415392184
  0
ELLIPSE
  5
1EF
330
5E
100
AcDbEntity
  8
4221039_0__SIEB_
  6
Continuous
 62
     7
100
AcDbEllipse
 10
36.225019599
 20
759.6835421329
 30
0.0
 11
-0.08191520442889665
 21
-0.08191520442890619
 31
0.0
210
0.0
220
0.0
230
1.0
 40
0.7002075382
 41
0.9599310885965655
 42
2.530727415391532
  0
ELLIPSE
  5
1F0
330
5E
100
AcDbEntity
  8
4221039_0__SIEB_
  6
Continuous
 62
     7
100
AcDbEllipse
 10
37.7607338847
 20
759.6835421329
 30
0.0
 11
0.081915204428901
 21
-0.08191520442890621
 31
0.0
210
0.0
220
0.0
230
1.0
 40
0.7002075382
 41
3.752457891787998
 42
5.323254218582401
  0
ELLIPSE
  5
1F1
330
5E
100
AcDbEntity
  8
4221039_0__SIEB_
  6
Continuous
 62
     7
100
AcDbEllipse
 10
37.7607338847
 20
759.6835421329
 30
0.0
 11
0.08191520442889146
 21
0.08191520442892009
 31
0.0
210
0.0
220
0.0
230
1.0
 40
0.7002075382
 41
3.752457891788723
 42
4.101523742186314
  0
ELLIPSE
  5
1F2
330
5E
100
AcDbEntity
  8
4221039_0__SIEB_
  6
Continuous
 62
     7
100
AcDbEllipse
 10
37.7607338847
 20
759.6835421329
 30
0.0
 11
-0.08191520442889927
 21
0.08191520442890621
 31
0.0
210
0.0
220
0.0
230
1.0
 40
0.7002075382
 41
2.181661564992623
 42
2.530727415392033
  0
ELLIPSE
  5
1F3
330
5E
100
AcDbEntity
  8
4221039_0__SIEB_
  6
Continuous
 62
     7
100
AcDbEllipse
 10
37.7607338847
 20
759.6835421329
 30
0.0
 11
-0.08191520442889233
 21
-0.08191520442890621
 31
0.0
210
0.0
220
0.0
230
1.0
 40
0.7002075382
 41
0.9599310885965813
 42
2.530727415391476
  0
ELLIPSE
  5
1F4
330
5E
100
AcDbEntity
  8
4221039_0__SIEB_
  6
Continuous
 62
     7
100
AcDbEllipse
 10
36.225019599
 20
759.1582969128
 30
0.0
 11
-0.08191520442889233
 21
0.08191520442890621
 31
0.0
210
0.0
220
0.0
230
1.0
 40
0.7002075382
 41
2.181661564993371
 42
2.530727415393258
  0
ELLIPSE
  5
1F5
330
5E
100
AcDbEntity
  8
4221039_0__SIEB_
  6
Continuous
 62
     7
100
AcDbEllipse
 10
36.225019599
 20
759.1582969128
 30
0.0
 11
-0.08191520442889666
 21
-0.08191520442889233
 31
0.0
210
0.0
220
0.0
230
1.0
 40
0.7002075382
 41
0.9599310885963008
 42
2.530727415391637
  0
ELLIPSE
  5
1F6
330
5E
100
AcDbEntity
  8
4221039_0__SIEB_
  6
Continuous
 62
     7
100
AcDbEllipse
 10
34.6893053133
 20
759.1582969128
 30
0.0
 11
-0.08191520442889666
 21
0.08191520442889233
 31
0.0
210
0.0
220
0.0
230
1.0
 40
0.7002075382
 41
2.181661564993493
 42
2.530727415392129
  0
ELLIPSE
  5
1F7
330
5E
100
AcDbEntity
  8
4221039_0__SIEB_
  6
Continuous
 62
     7
100
AcDbEllipse
 10
34.6893053133
 20
759.1582969128
 30
0.0
 11
-0.08191520442889666
 21
-0.08191520442889233
 31
0.0
210
0.0
220
0.0
230
1.0
 40
0.7002075382
 41
0.9599310885963008
 42
2.530727415391637
  0
ELLIPSE
  5
1F8
330
5E
100
AcDbEntity
  8
4221039_0__SIEB_
  6
Continuous
 62
     7
100
AcDbEllipse
 10
36.225019599
 20
759.1582969128
 30
0.0
 11
0.08191520442890013
 21
-0.08191520442890621
 31
0.0
210
0.0
220
0.0
230
1.0
 40
0.7002075382
 41
3.75245789178807
 42
5.323254218583256
  0
ELLIPSE
  5
1F9
330
5E
100
AcDbEntity
  8
4221039_0__SIEB_
  6
Continuous
 62
     7
100
AcDbEllipse
 10
36.225019599
 20
759.1582969128
 30
0.0
 11
0.08191520442889666
 21
0.08191520442889233
 31
0.0
210
0.0
220
0.0
230
1.0
 40
0.7002075382
 41
3.752457891787835
 42
4.101523742186094
  0
ELLIPSE
  5
1FA
330
5E
100
AcDbEntity
  8
4221039_0__SIEB_
  6
Continuous
 62
     7
100
AcDbEllipse
 10
33.1535910276
 20
759.1582969128
 30
0.0
 11
-0.08191520442889687
 21
0.08191520442889233
 31
0.0
210
0.0
220
0.0
230
1.0
 40
0.7002075382
 41
2.181661564993437
 42
2.530727415391899
  0
ELLIPSE
  5
1FB
330
5E
100
AcDbEntity
  8
4221039_0__SIEB_
  6
Continuous
 62
     7
100
AcDbEllipse
 10
33.1535910276
 20
759.1582969128
 30
0.0
 11
-0.08191520442889687
 21
-0.08191520442889233
 31
0.0
210
0.0
220
0.0
230
1.0
 40
0.7002075382
 41
0.9599310885963026
 42
2.530727415391711
  0
ELLIPSE
  5
1FC
330
5E
100
AcDbEntity
  8
4221039_0__SIEB_
  6
Continuous
 62
     7
100
AcDbEllipse
 10
34.6893053133
 20
759.1582969128
 30
0.0
 11
0.08191520442889666
 21
-0.08191520442889233
 31
0.0
210
0.0
220
0.0
230
1.0
 40
0.7002075382
 41
3.752457891787949
 42
5.323254218583285
  0
ELLIPSE
  5
1FD
330
5E
100
AcDbEntity
  8
4221039_0__SIEB_
  6
Continuous
 62
     7
100
AcDbEllipse
 10
34.6893053133
 20
759.1582969128
 30
0.0
 11
0.08191520442889666
 21
0.08191520442889233
 31
0.0
210
0.0
220
0.0
230
1.0
 40
0.7002075382
 41
3.75245789178776
 42
4.101523742186094
  0
ELLIPSE
  5
1FE
330
5E
100
AcDbEntity
  8
4221039_0__SIEB_
  6
Continuous
 62
     7
100
AcDbEllipse
 10
31.6178767419
 20
759.1582969128
 30
0.0
 11
-0.08191520442890197
 21
0.08191520442889233
 31
0.0
210
0.0
220
0.0
230
1.0
 40
0.7002075382
 41
2.181661564992494
 42
2.530727415391795
  0
ELLIPSE
  5
1FF
330
5E
100
AcDbEntity
  8
4221039_0__SIEB_
  6
Continuous
 62
     7
100
AcDbEllipse
 10
31.6178767419
 20
759.1582969128
 30
0.0
 11
-0.08191520442889674
 21
-0.08191520442889233
 31
0.0
210
0.0
220
0.0
230
1.0
 40
0.7002075382
 41
0.9599310885963015
 42
2.530727415391675
  0
ELLIPSE
  5
200
330
5E
100
AcDbEntity
  8
4221039_0__SIEB_
  6
Continuous
 62
     7
100
AcDbEllipse
 10
33.1535910276
 20
759.1582969128
 30
0.0
 11
0.08191520442889687
 21
-0.08191520442889233
 31
0.0
210
0.0
220
0.0
230
1.0
 40
0.7002075382
 41
3.75245789178795
 42
5.323254218583231
  0
ELLIPSE
  5
201
330
5E
100
AcDbEntity
  8
4221039_0__SIEB_
  6
Continuous
 62
     7
100
AcDbEllipse
 10
33.1535910276
 20
759.1582969128
 30
0.0
 11
0.08191520442889687
 21
0.08191520442889233
 31
0.0
210
0.0
220
0.0
230
1.0
 40
0.7002075382
 41
3.752457891787762
 42
4.101523742186096
  0
ELLIPSE
  5
202
330
5E
100
AcDbEntity
  8
4221039_0__SIEB_
  6
Continuous
 62
     7
100
AcDbEllipse
 10
30.0821624562
 20
759.1582969128
 30
0.0
 11
-0.08191520442890207
 21
0.08191520442889232
 31
0.0
210
0.0
220
0.0
230
0.9999999999999999
 40
0.7002075382
 41
2.181661564992572
 42
2.53072741539168
  0
ELLIPSE
  5
203
330
5E
100
AcDbEntity
  8
4221039_0__SIEB_
  6
Continuous
 62
     7
100
AcDbEllipse
 10
30.0821624562
 20
759.1582969128
 30
0.0
 11
-0.08191520442889687
 21
-0.08191520442889233
 31
0.0
210
0.0
220
0.0
230
1.0
 40
0.7002075382
 41
0.9599310885962762
 42
2.530727415391636
  0
ELLIPSE
  5
204
330
5E
100
AcDbEntity
  8
4221039_0__SIEB_
  6
Continuous
 62
     7
100
AcDbEllipse
 10
31.6178767419
 20
759.1582969128
 30
0.0
 11
0.08191520442889434
 21
-0.08191520442890621
 31
0.0
210
0.0
220
0.0
230
1.0
 40
0.7002075382
 41
3.752457891788119
 42
5.323254218582299
  0
ELLIPSE
  5
205
330
5E
100
AcDbEntity
  8
4221039_0__SIEB_
  6
Continuous
 62
     7
100
AcDbEllipse
 10
31.6178767419
 20
759.1582969128
 30
0.0
 11
0.0819152044288968
 21
0.08191520442889233
 31
0.0
210
0.0
220
0.0
230
1.0
 40
0.7002075382
 41
3.752457891787648
 42
4.101523742186095
  0
ELLIPSE
  5
206
330
5E
100
AcDbEntity
  8
4221039_0__SIEB_
  6
Continuous
 62
     7
100
AcDbEllipse
 10
28.5464481704
 20
759.1582969128
 30
0.0
 11
-0.08191520442889796
 21
0.08191520442890621
 31
0.0
210
0.0
220
0.0
230
1.0
 40
0.7002075382
 41
2.181661564993402
 42
2.530727415393184
  0
ELLIPSE
  5
207
330
5E
100
AcDbEntity
  8
4221039_0__SIEB_
  6
Continuous
 62
     7
100
AcDbEllipse
 10
28.5464481704
 20
759.1582969128
 30
0.0
 11
-0.08191520442889233
 21
-0.08191520442890621
 31
0.0
210
0.0
220
0.0
230
1.0
 40
0.7002075382
 41
0.9599310885964225
 42
2.530727415391513
  0
ELLIPSE
  5
208
330
5E
100
AcDbEntity
  8
4221039_0__SIEB_
  6
Continuous
 62
     7
100
AcDbEllipse
 10
30.0821624562
 20
759.1582969128
 30
0.0
 11
0.08191520442889448
 21
-0.08191520442890619
 31
0.0
210
0.0
220
0.0
230
0.9999999999999998
 40
0.7002075382
 41
3.752457891788082
 42
5.323254218583145
  0
ELLIPSE
  5
209
330
5E
100
AcDbEntity
  8
4221039_0__SIEB_
  6
Continuous
 62
     7
100
AcDbEllipse
 10
30.0821624562
 20
759.1582969128
 30
0.0
 11
0.08191520442889645
 21
0.08191520442889233
 31
0.0
210
0.0
220
0.0
230
1.0
 40
0.7002075382
 41
3.752457891787606
 42
4.101523742186066
  0
ELLIPSE
  5
20A
330
5E
100
AcDbEntity
  8
4221039_0__SIEB_
  6
Continuous
 62
     7
100
AcDbEllipse
 10
27.0107338847
 20
759.1582969128
 30
0.0
 11
-0.08191520442889666
 21
0.08191520442889233
 31
0.0
210
0.0
220
0.0
230
1.0
 40
0.7002075382
 41
2.181661564993519
 42
2.530727415392129
  0
ELLIPSE
  5
20B
330
5E
100
AcDbEntity
  8
4221039_0__SIEB_
  6
Continuous
 62
     7
100
AcDbEllipse
 10
27.0107338847
 20
759.1582969128
 30
0.0
 11
-0.08191520442889666
 21
-0.08191520442889233
 31
0.0
210
0.0
220
0.0
230
1.0
 40
0.7002075382
 41
0.9599310885962744
 42
2.530727415391675
  0
ELLIPSE
  5
20C
330
5E
100
AcDbEntity
  8
4221039_0__SIEB_
  6
Continuous
 62
     7
100
AcDbEllipse
 10
28.5464481704
 20
759.1582969128
 30
0.0
 11
0.08191520442889795
 21
-0.08191520442889232
 31
0.0
210
0.0
220
0.0
230
1.0
 40
0.7002075382
 41
3.752457891787917
 42
5.323254218583354
  0
ELLIPSE
  5
20D
330
5E
100
AcDbEntity
  8
4221039_0__SIEB_
  6
Continuous
 62
     7
100
AcDbEllipse
 10
28.5464481704
 20
759.1582969128
 30
0.0
 11
0.08191520442888887
 21
0.0819152044289201
 31
0.0
210
0.0
220
0.0
230
1.0
 40
0.7002075382
 41
3.752457891788122
 42
4.101523742186107
  0
ELLIPSE
  5
20E
330
5E
100
AcDbEntity
  8
4221039_0__SIEB_
  6
Continuous
 62
     7
100
AcDbEllipse
 10
27.0107338847
 20
759.1582969128
 30
0.0
 11
0.08191520442889666
 21
-0.08191520442889233
 31
0.0
210
0.0
220
0.0
230
1.0
 40
0.7002075382
 41
3.752457891787949
 42
5.323254218583312
  0
ELLIPSE
  5
20F
330
5E
100
AcDbEntity
  8
4221039_0__SIEB_
  6
Continuous
 62
     7
100
AcDbEllipse
 10
27.0107338847
 20
759.1582969128
 30
0.0
 11
0.08191520442889666
 21
0.08191520442889233
 31
0.0
210
0.0
220
0.0
230
1.0
 40
0.7002075382
 41
3.752457891787835
 42
4.101523742186068
  0
ELLIPSE
  5
210
330
5E
100
AcDbEntity
  8
4221039_0__SIEB_
  6
Continuous
 62
     7
100
AcDbEllipse
 10
28.5464481704
 20
758.6330516927
 30
0.0
 11
0.08191520442889666
 21
-0.08191520442889233
 31
0.0
210
0.0
220
0.0
230
1.0
 40
0.7002075382
 41
3.752457891787949
 42
5.323254218583312
  0
ELLIPSE
  5
211
330
5E
100
AcDbEntity
  8
4221039_0__SIEB_
  6
Continuous
 62
     7
100
AcDbEllipse
 10
28.5464481704
 20
758.6330516927
 30
0.0
 11
0.08191520442889623
 21
0.08191520442889233
 31
0.0
210
0.0
220
0.0
230
1.0
 40
0.7002075382
 41
3.752457891787489
 42
4.101523742186064
  0
ELLIPSE
  5
212
330
5E
100
AcDbEntity
  8
4221039_0__SIEB_
  6
Continuous
 62
     7
100
AcDbEllipse
 10
28.5464481704
 20
758.6330516927
 30
0.0
 11
-0.08191520442889666
 21
0.08191520442889233
 31
0.0
210
0.0
220
0.0
230
1.0
 40
0.7002075382
 41
2.181661564993519
 42
2.530727415392431
  0
ELLIPSE
  5
213
330
5E
100
AcDbEntity
  8
4221039_0__SIEB_
  6
Continuous
 62
     7
100
AcDbEllipse
 10
28.5464481704
 20
758.6330516927
 30
0.0
 11
-0.08191520442889666
 21
-0.08191520442889233
 31
0.0
210
0.0
220
0.0
230
1.0
 40
0.7002075382
 41
0.9599310885962744
 42
2.530727415391637
  0
ELLIPSE
  5
214
330
5E
100
AcDbEntity
  8
4221039_0__SIEB_
  6
Continuous
 62
     7
100
AcDbEllipse
 10
30.0821624562
 20
758.6330516927
 30
0.0
 11
0.08191520442889687
 21
-0.08191520442889233
 31
0.0
210
0.0
220
0.0
230
1.0
 40
0.7002075382
 41
3.752457891787913
 42
5.32325421858331
  0
ELLIPSE
  5
215
330
5E
100
AcDbEntity
  8
4221039_0__SIEB_
  6
Continuous
 62
     7
100
AcDbEllipse
 10
30.0821624562
 20
758.6330516927
 30
0.0
 11
0.08191520442889233
 21
0.08191520442890621
 31
0.0
210
0.0
220
0.0
230
1.0
 40
0.7002075382
 41
3.752457891786479
 42
4.101523742186163
  0
ELLIPSE
  5
216
330
5E
100
AcDbEntity
  8
4221039_0__SIEB_
  6
Continuous
 62
     7
100
AcDbEllipse
 10
30.0821624562
 20
758.6330516927
 30
0.0
 11
-0.08191520442889687
 21
0.08191520442889233
 31
0.0
210
0.0
220
0.0
230
1.0
 40
0.7002075382
 41
2.181661564993517
 42
2.530727415392391
  0
ELLIPSE
  5
217
330
5E
100
AcDbEntity
  8
4221039_0__SIEB_
  6
Continuous
 62
     7
100
AcDbEllipse
 10
30.0821624562
 20
758.6330516927
 30
0.0
 11
-0.08191520442888908
 21
-0.08191520442892009
 31
0.0
210
0.0
220
0.0
230
1.0
 40
0.7002075382
 41
0.9599310885971095
 42
2.530727415392557
  0
ELLIPSE
  5
218
330
5E
100
AcDbEntity
  8
4221039_0__SIEB_
  6
Continuous
 62
     7
100
AcDbEllipse
 10
31.6178767419
 20
758.6330516927
 30
0.0
 11
0.08191520442889665
 21
-0.08191520442889233
 31
0.0
210
0.0
220
0.0
230
1.0
 40
0.7002075382
 41
3.752457891787949
 42
5.323254218583233
  0
ELLIPSE
  5
219
330
5E
100
AcDbEntity
  8
4221039_0__SIEB_
  6
Continuous
 62
     7
100
AcDbEllipse
 10
31.6178767419
 20
758.6330516927
 30
0.0
 11
0.0819152044288968
 21
0.08191520442889233
 31
0.0
210
0.0
220
0.0
230
1.0
 40
0.7002075382
 41
3.752457891786174
 42
4.101523742186095
  0
ELLIPSE
  5
21A
330
5E
100
AcDbEntity
  8
4221039_0__SIEB_
  6
Continuous
 62
     7
100
AcDbEllipse
 10
31.6178767419
 20
758.6330516927
 30
0.0
 11
-0.08191520442889672
 21
0.08191520442889233
 31
0.0
210
0.0
220
0.0
230
1.0
 40
0.7002075382
 41
2.181661564993492
 42
2.530727415392545
  0
ELLIPSE
  5
21B
330
5E
100
AcDbEntity
  8
4221039_0__SIEB_
  6
Continuous
 62
     7
100
AcDbEllipse
 10
31.6178767419
 20
758.6330516927
 30
0.0
 11
-0.08191520442889674
 21
-0.08191520442889233
 31
0.0
210
0.0
220
0.0
230
1.0
 40
0.7002075382
 41
0.9599310885963015
 42
2.530727415391675
  0
ELLIPSE
  5
21C
330
5E
100
AcDbEntity
  8
4221039_0__SIEB_
  6
Continuous
 62
     7
100
AcDbEllipse
 10
33.1535910276
 20
758.6330516927
 30
0.0
 11
0.08191520442889687
 21
-0.08191520442889233
 31
0.0
210
0.0
220
0.0
230
1.0
 40
0.7002075382
 41
3.75245789178795
 42
5.323254218583283
  0
ELLIPSE
  5
21D
330
5E
100
AcDbEntity
  8
4221039_0__SIEB_
  6
Continuous
 62
     7
100
AcDbEllipse
 10
33.1535910276
 20
758.6330516927
 30
0.0
 11
0.08191520442890207
 21
0.08191520442889232
 31
0.0
210
0.0
220
0.0
230
0.9999999999999999
 40
0.7002075382
 41
3.752457891787225
 42
4.10152374218704
  0
ELLIPSE
  5
21E
330
5E
100
AcDbEntity
  8
4221039_0__SIEB_
  6
Continuous
 62
     7
100
AcDbEllipse
 10
33.1535910276
 20
758.6330516927
 30
0.0
 11
-0.08191520442889731
 21
0.08191520442889233
 31
0.0
210
0.0
220
0.0
230
1.0
 40
0.7002075382
 41
2.181661564993487
 42
2.53072741539265
  0
ELLIPSE
  5
21F
330
5E
100
AcDbEntity
  8
4221039_0__SIEB_
  6
Continuous
 62
     7
100
AcDbEllipse
 10
33.1535910276
 20
758.6330516927
 30
0.0
 11
-0.08191520442889448
 21
-0.08191520442890619
 31
0.0
210
0.0
220
0.0
230
0.9999999999999998
 40
0.7002075382
 41
0.9599310885964413
 42
2.530727415391542
  0
ELLIPSE
  5
220
330
5E
100
AcDbEntity
  8
4221039_0__SIEB_
  6
Continuous
 62
     7
100
AcDbEllipse
 10
34.6893053133
 20
758.6330516927
 30
0.0
 11
0.08191520442890143
 21
-0.08191520442889233
 31
0.0
210
0.0
220
0.0
230
0.9999999999999998
 40
0.7002075382
 41
3.752457891787895
 42
5.323254218583298
  0
ELLIPSE
  5
221
330
5E
100
AcDbEntity
  8
4221039_0__SIEB_
  6
Continuous
 62
     7
100
AcDbEllipse
 10
34.6893053133
 20
758.6330516927
 30
0.0
 11
0.08191520442890231
 21
0.08191520442889233
 31
0.0
210
0.0
220
0.0
230
0.9999999999999998
 40
0.7002075382
 41
3.75245789178753
 42
4.101523742187043
  0
ELLIPSE
  5
222
330
5E
100
AcDbEntity
  8
4221039_0__SIEB_
  6
Continuous
 62
     7
100
AcDbEllipse
 10
34.6893053133
 20
758.6330516927
 30
0.0
 11
-0.08191520442889448
 21
0.08191520442890619
 31
0.0
210
0.0
220
0.0
230
0.9999999999999998
 40
0.7002075382
 41
2.181661564993352
 42
2.530727415392322
  0
ELLIPSE
  5
223
330
5E
100
AcDbEntity
  8
4221039_0__SIEB_
  6
Continuous
 62
     7
100
AcDbEllipse
 10
34.6893053133
 20
758.6330516927
 30
0.0
 11
-0.08191520442889448
 21
-0.08191520442890619
 31
0.0
210
0.0
220
0.0
230
0.9999999999999998
 40
0.7002075382
 41
0.9599310885963882
 42
2.530727415391466
  0
ELLIPSE
  5
224
330
5E
100
AcDbEntity
  8
4221039_0__SIEB_
  6
Continuous
 62
     7
100
AcDbEllipse
 10
31.4035910276
 20
762.6688167244
 30
0.0
 11
-8.800000000000004
 21
0.0
 31
0.0
210
0.0
220
0.0
230
1.0
 40
0.3420201433
 41
-3.573236570547942
 42
-3.49135701335555
  0
ELLIPSE
  5
225
330
5E
100
AcDbEntity
  8
4221039_0__SIEB_
  6
Continuous
 62
     7
100
AcDbEllipse
 10
31.4035910276
 20
762.6688167244
 30
0.0
 11
-8.800000000000004
 21
0.0
 31
0.0
210
0.0
220
0.0
230
1.0
 40
0.3420201433
 41
-3.797158578949074
 42
-3.666976436947417
  0
ELLIPSE
  5
226
330
5E
100
AcDbEntity
  8
4221039_0__SIEB_
  6
Continuous
 62
     7
100
AcDbEllipse
 10
31.4035910276
 20
762.6688167244
 30
0.0
 11
-8.800000000000004
 21
0.0
 31
0.0
210
0.0
220
0.0
230
1.0
 40
0.3420201433
 41
-3.88854004370596
 42
-3.883992326758888
  0
ELLIPSE
  5
227
330
5E
100
AcDbEntity
  8
4221039_0__SIEB_
  6
Continuous
 62
     7
100
AcDbEllipse
 10
31.4035910276
 20
762.6688167244
 30
0.0
 11
-8.800000000000004
 21
0.0
 31
0.0
210
0.0
220
0.0
230
1.0
 40
0.3420201433
 41
-4.042871058758127
 42
-3.92141429726178
  0
ELLIPSE
  5
228
330
5E
100
AcDbEntity
  8
4221039_0__SIEB_
  6
Continuous
 62
     7
100
AcDbEllipse
 10
31.4035910276
 20
762.6688167244
 30
0.0
 11
-8.800000000000004
 21
0.0
 31
0.0
210
0.0
220
0.0
230
1.0
 40
0.3420201433
 41
-4.3157031722734
 42
-4.158662909227635
  0
ELLIPSE
  5
229
330
5E
100
AcDbEntity
  8
4221039_0__SIEB_
  6
Continuous
 62
     7
100
AcDbEllipse
 10
31.4035910276
 20
762.6688167244
 30
0.0
 11
-8.800000000000004
 21
0.0
 31
0.0
210
0.0
220
0.0
230
1.0
 40
0.3420201433
 41
-4.423756152404227
 42
-4.341962533661806
  0
ELLIPSE
  5
22A
330
5E
100
AcDbEntity
  8
4221039_0__SIEB_
  6
Continuous
 62
     7
100
AcDbEllipse
 10
31.4035910276
 20
762.6688167244
 30
0.0
 11
-8.800000000000004
 21
0.0
 31
0.0
210
0.0
220
0.0
230
1.0
 40
0.3420201433
 41
1.252118019909137
 42
1.282163498814434
  0
ELLIPSE
  5
22B
330
5E
100
AcDbEntity
  8
4221039_0__SIEB_
  6
Continuous
 62
     7
100
AcDbEllipse
 10
31.4035910276
 20
762.6688167244
 30
0.0
 11
-8.800000000000004
 21
0.0
 31
0.0
210
0.0
220
0.0
230
1.0
 40
0.3420201433
 41
1.06120026143837
 42
1.228088204526911
  0
ELLIPSE
  5
22C
330
5E
100
AcDbEntity
  8
4221039_0__SIEB_
  6
Continuous
 62
     7
100
AcDbEllipse
 10
31.4035910276
 20
762.6688167244
 30
0.0
 11
-8.800000000000004
 21
0.0
 31
0.0
210
0.0
220
0.0
230
1.0
 40
0.3420201433
 41
1.017070255637842
 42
1.034969744432707
  0
ELLIPSE
  5
22D
330
5E
100
AcDbEntity
  8
4221039_0__SIEB_
  6
Continuous
 62
     7
100
AcDbEllipse
 10
31.4035910276
 20
762.6688167244
 30
0.0
 11
-8.800000000000004
 21
0.0
 31
0.0
210
0.0
220
0.0
230
1.0
 40
0.3420201433
 41
0.8468616638448414
 42
0.9012784051683331
  0
ELLIPSE
  5
22E
330
5E
100
AcDbEntity
  8
4221039_0__SIEB_
  6
Continuous
 62
     7
100
AcDbEllipse
 10
31.4035910276
 20
762.6688167244
 30
0.0
 11
-8.800000000000004
 21
0.0
 31
0.0
210
0.0
220
0.0
230
1.0
 40
0.3420201433
 41
0.7423996731690953
 42
0.8161034941818703
  0
ELLIPSE
  5
22F
330
5E
100
AcDbEntity
  8
4221039_0__SIEB_
  6
Continuous
 62
     7
100
AcDbEllipse
 10
31.4035910276
 20
762.6688167244
 30
0.0
 11
-8.800000000000004
 21
0.0
 31
0.0
210
0.0
220
0.0
230
1.0
 40
0.3420201433
 41
0.579291619742459
 42
0.6555659253592812
  0
ELLIPSE
  5
230
330
5E
100
AcDbEntity
  8
4221039_0__SIEB_
  6
Continuous
 62
     7
100
AcDbEllipse
 10
31.4035910276
 20
762.6688167244
 30
0.0
 11
-8.800000000000004
 21
0.0
 31
0.0
210
0.0
220
0.0
230
1.0
 40
0.3420201433
 41
0.5253837833576245
 42
0.5363532056210889
  0
ELLIPSE
  5
231
330
5E
100
AcDbEntity
  8
4221039_0__SIEB_
  6
Continuous
 62
     7
100
AcDbEllipse
 10
31.4035910276
 20
762.6688167244
 30
0.0
 11
-8.800000000000004
 21
0.0
 31
0.0
210
0.0
220
0.0
230
1.0
 40
0.3420201433
 41
0.3497643597657754
 42
0.450143745324513
  0
LINE
  5
232
330
5E
100
AcDbEntity
  8
4221039_0__SIEB_
  6
Continuous
 62
     7
100
AcDbLine
 10
29.2038705883
 20
763.7855038938
 30
0.0
 11
30.0479604418
 21
763.7855038938
 31
0.0
  0
LINE
  5
233
330
5E
100
AcDbEntity
  8
4221039_0__SIEB_
  6
Continuous
 62
     7
100
AcDbLine
 10
30.1163644705
 20
763.7855038938
 30
0.0
 11
31.5836747275
 21
763.7855038938
 31
0.0
  0
LINE
  5
234
330
5E
100
AcDbEntity
  8
4221039_0__SIEB_
  6
Continuous
 62
     7
100
AcDbLine
 10
31.6520787562
 20
763.7855038938
 30
0.0
 11
33.1193890133
 21
763.7855038938
 31
0.0
  0
LINE
  5
235
330
5E
100
AcDbEntity
  8
4221039_0__SIEB_
  6
Continuous
 62
     7
100
AcDbLine
 10
33.1877930419
 20
763.7855038938
 30
0.0
 11
33.6033114669
 21
763.7855038938
 31
0.0
  0
LINE
  5
236
330
5E
100
AcDbEntity
  8
4221039_0__SIEB_
  6
Continuous
 62
     7
100
AcDbLine
 10
26.9107338847
 20
763.4452351797
 30
0.0
 11
26.9107338847
 21
763.394460688
 31
0.0
  0
LINE
  5
237
330
5E
100
AcDbEntity
  8
4221039_0__SIEB_
  6
Continuous
 62
     7
100
AcDbLine
 10
27.1107338847
 20
763.394460688
 30
0.0
 11
27.1107338847
 21
763.4865342461
 31
0.0
  0
LINE
  5
238
330
5E
100
AcDbEntity
  8
4221039_0__SIEB_
  6
Continuous
 62
     7
100
AcDbLine
 10
28.4464481704
 20
763.7029359353
 30
0.0
 11
28.4464481704
 21
763.394460688
 31
0.0
  0
LINE
  5
239
330
5E
100
AcDbEntity
  8
4221039_0__SIEB_
  6
Continuous
 62
     7
100
AcDbLine
 10
28.6464481704
 20
763.394460688
 30
0.0
 11
28.6464481704
 21
763.7273515559
 31
0.0
  0
LINE
  5
23A
330
5E
100
AcDbEntity
  8
4221039_0__SIEB_
  6
Continuous
 62
     7
100
AcDbLine
 10
29.9821624562
 20
763.7855038938
 30
0.0
 11
29.9821624562
 21
763.394460688
 31
0.0
  0
LINE
  5
23B
330
5E
100
AcDbEntity
  8
4221039_0__SIEB_
  6
Continuous
 62
     7
100
AcDbLine
 10
30.1821624562
 20
763.394460688
 30
0.0
 11
30.1821624562
 21
763.7855038938
 31
0.0
  0
LINE
  5
23C
330
5E
100
AcDbEntity
  8
4221039_0__SIEB_
  6
Continuous
 62
     7
100
AcDbLine
 10
31.5178767419
 20
763.7855038938
 30
0.0
 11
31.5178767419
 21
763.394460688
 31
0.0
  0
LINE
  5
23D
330
5E
100
AcDbEntity
  8
4221039_0__SIEB_
  6
Continuous
 62
     7
100
AcDbLine
 10
31.7178767419
 20
763.394460688
 30
0.0
 11
31.7178767419
 21
763.7855038938
 31
0.0
  0
LINE
  5
23E
330
5E
100
AcDbEntity
  8
4221039_0__SIEB_
  6
Continuous
 62
     7
100
AcDbLine
 10
33.0535910276
 20
763.7855038938
 30
0.0
 11
33.0535910276
 21
763.394460688
 31
0.0
  0
LINE
  5
23F
330
5E
100
AcDbEntity
  8
4221039_0__SIEB_
  6
Continuous
 62
     7
100
AcDbLine
 10
33.2535910276
 20
763.394460688
 30
0.0
 11
33.2535910276
 21
763.7855038938
 31
0.0
  0
LINE
  5
240
330
5E
100
AcDbEntity
  8
4221039_0__SIEB_
  6
Continuous
 62
     7
100
AcDbLine
 10
34.5893053133
 20
763.672636836
 30
0.0
 11
34.5893053133
 21
763.394460688
 31
0.0
  0
LINE
  5
241
330
5E
100
AcDbEntity
  8
4221039_0__SIEB_
  6
Continuous
 62
     7
100
AcDbLine
 10
34.7893053133
 20
763.394460688
 30
0.0
 11
34.7893053133
 21
763.6439635374
 31
0.0
  0
LINE
  5
242
330
5E
100
AcDbEntity
  8
4221039_0__SIEB_
  6
Continuous
 62
     7
100
AcDbLine
 10
36.125019599
 20
763.3948043878
 30
0.0
 11
36.125019599
 21
763.394460688
 31
0.0
  0
LINE
  5
243
330
5E
100
AcDbEntity
  8
4221039_0__SIEB_
  6
Continuous
 62
     7
100
AcDbLine
 10
36.2592216133
 20
763.2602586737
 30
0.0
 11
36.6664907866
 21
763.2602586737
 31
0.0
  0
LINE
  5
244
330
5E
100
AcDbEntity
  8
4221039_0__SIEB_
  6
Continuous
 62
     7
100
AcDbLine
 10
34.7235073276
 20
763.2602586737
 30
0.0
 11
36.1908175847
 21
763.2602586737
 31
0.0
  0
LINE
  5
245
330
5E
100
AcDbEntity
  8
4221039_0__SIEB_
  6
Continuous
 62
     7
100
AcDbLine
 10
35.8251222542
 20
763.4602586737
 30
0.0
 11
34.7893053133
 21
763.4602586737
 31
0.0
  0
LINE
  5
246
330
5E
100
AcDbEntity
  8
4221039_0__SIEB_
  6
Continuous
 62
     7
100
AcDbLine
 10
33.1877930419
 20
763.2602586737
 30
0.0
 11
34.655103299
 21
763.2602586737
 31
0.0
  0
LINE
  5
247
330
5E
100
AcDbEntity
  8
4221039_0__SIEB_
  6
Continuous
 62
     7
100
AcDbLine
 10
34.5893053133
 20
763.4602586737
 30
0.0
 11
33.2535910276
 21
763.4602586737
 31
0.0
  0
LINE
  5
248
330
5E
100
AcDbEntity
  8
4221039_0__SIEB_
  6
Continuous
 62
     7
100
AcDbLine
 10
31.6520787562
 20
763.2602586737
 30
0.0
 11
33.1193890133
 21
763.2602586737
 31
0.0
  0
LINE
  5
249
330
5E
100
AcDbEntity
  8
4221039_0__SIEB_
  6
Continuous
 62
     7
100
AcDbLine
 10
33.0535910276
 20
763.4602586737
 30
0.0
 11
31.7178767419
 21
763.4602586737
 31
0.0
  0
LINE
  5
24A
330
5E
100
AcDbEntity
  8
4221039_0__SIEB_
  6
Continuous
 62
     7
100
AcDbLine
 10
30.1163644705
 20
763.2602586737
 30
0.0
 11
31.5836747275
 21
763.2602586737
 31
0.0
  0
LINE
  5
24B
330
5E
100
AcDbEntity
  8
4221039_0__SIEB_
  6
Continuous
 62
     7
100
AcDbLine
 10
31.5178767419
 20
763.4602586737
 30
0.0
 11
30.1821624562
 21
763.4602586737
 31
0.0
  0
LINE
  5
24C
330
5E
100
AcDbEntity
  8
4221039_0__SIEB_
  6
Continuous
 62
     7
100
AcDbLine
 10
28.5806501848
 20
763.2602586737
 30
0.0
 11
30.0479604418
 21
763.2602586737
 31
0.0
  0
LINE
  5
24D
330
5E
100
AcDbEntity
  8
4221039_0__SIEB_
  6
Continuous
 62
     7
100
AcDbLine
 10
29.9821624562
 20
763.4602586737
 30
0.0
 11
28.6464481704
 21
763.4602586737
 31
0.0
  0
LINE
  5
24E
330
5E
100
AcDbEntity
  8
4221039_0__SIEB_
  6
Continuous
 62
     7
100
AcDbLine
 10
27.0449358991
 20
763.2602586737
 30
0.0
 11
28.5122461561
 21
763.2602586737
 31
0.0
  0
LINE
  5
24F
330
5E
100
AcDbEntity
  8
4221039_0__SIEB_
  6
Continuous
 62
     7
100
AcDbLine
 10
28.4464481704
 20
763.4602586737
 30
0.0
 11
27.1107338847
 21
763.4602586737
 31
0.0
  0
LINE
  5
250
330
5E
100
AcDbEntity
  8
4221039_0__SIEB_
  6
Continuous
 62
     7
100
AcDbLine
 10
26.1406912685
 20
763.2602586737
 30
0.0
 11
26.9765318704
 21
763.2602586737
 31
0.0
  0
LINE
  5
251
330
5E
100
AcDbEntity
  8
4221039_0__SIEB_
  6
Continuous
 62
     7
100
AcDbLine
 10
37.6607338847
 20
762.9450462022
 30
0.0
 11
37.6607338847
 21
762.8692154679
 31
0.0
  0
LINE
  5
252
330
5E
100
AcDbEntity
  8
4221039_0__SIEB_
  6
Continuous
 62
     7
100
AcDbLine
 10
36.125019599
 20
763.2602586737
 30
0.0
 11
36.125019599
 21
762.8692154679
 31
0.0
  0
LINE
  5
253
330
5E
100
AcDbEntity
  8
4221039_0__SIEB_
  6
Continuous
 62
     7
100
AcDbLine
 10
36.325019599
 20
762.8692154679
 30
0.0
 11
36.325019599
 21
763.2602586737
 31
0.0
  0
LINE
  5
254
330
5E
100
AcDbEntity
  8
4221039_0__SIEB_
  6
Continuous
 62
     7
100
AcDbLine
 10
34.5893053133
 20
763.2602586737
 30
0.0
 11
34.5893053133
 21
762.8692154679
 31
0.0
  0
LINE
  5
255
330
5E
100
AcDbEntity
  8
4221039_0__SIEB_
  6
Continuous
 62
     7
100
AcDbLine
 10
34.7893053133
 20
762.8692154679
 30
0.0
 11
34.7893053133
 21
763.2602586737
 31
0.0
  0
LINE
  5
256
330
5E
100
AcDbEntity
  8
4221039_0__SIEB_
  6
Continuous
 62
     7
100
AcDbLine
 10
33.0535910276
 20
763.2602586737
 30
0.0
 11
33.0535910276
 21
762.8692154679
 31
0.0
  0
LINE
  5
257
330
5E
100
AcDbEntity
  8
4221039_0__SIEB_
  6
Continuous
 62
     7
100
AcDbLine
 10
33.2535910276
 20
762.8692154679
 30
0.0
 11
33.2535910276
 21
763.2602586737
 31
0.0
  0
LINE
  5
258
330
5E
100
AcDbEntity
  8
4221039_0__SIEB_
  6
Continuous
 62
     7
100
AcDbLine
 10
31.5178767419
 20
763.2602586737
 30
0.0
 11
31.5178767419
 21
762.8692154679
 31
0.0
  0
LINE
  5
259
330
5E
100
AcDbEntity
  8
4221039_0__SIEB_
  6
Continuous
 62
     7
100
AcDbLine
 10
31.7178767419
 20
762.8692154679
 30
0.0
 11
31.7178767419
 21
763.2602586737
 31
0.0
  0
LINE
  5
25A
330
5E
100
AcDbEntity
  8
4221039_0__SIEB_
  6
Continuous
 62
     7
100
AcDbLine
 10
29.9821624562
 20
763.2602586737
 30
0.0
 11
29.9821624562
 21
762.8692154679
 31
0.0
  0
LINE
  5
25B
330
5E
100
AcDbEntity
  8
4221039_0__SIEB_
  6
Continuous
 62
     7
100
AcDbLine
 10
30.1821624562
 20
762.8692154679
 30
0.0
 11
30.1821624562
 21
763.2602586737
 31
0.0
  0
LINE
  5
25C
330
5E
100
AcDbEntity
  8
4221039_0__SIEB_
  6
Continuous
 62
     7
100
AcDbLine
 10
28.4464481704
 20
763.2602586737
 30
0.0
 11
28.4464481704
 21
762.8692154679
 31
0.0
  0
LINE
  5
25D
330
5E
100
AcDbEntity
  8
4221039_0__SIEB_
  6
Continuous
 62
     7
100
AcDbLine
 10
28.6464481704
 20
762.8692154679
 30
0.0
 11
28.6464481704
 21
763.2602586737
 31
0.0
  0
LINE
  5
25E
330
5E
100
AcDbEntity
  8
4221039_0__SIEB_
  6
Continuous
 62
     7
100
AcDbLine
 10
26.9107338847
 20
763.2602586737
 30
0.0
 11
26.9107338847
 21
762.8692154679
 31
0.0
  0
LINE
  5
25F
330
5E
100
AcDbEntity
  8
4221039_0__SIEB_
  6
Continuous
 62
     7
100
AcDbLine
 10
27.1107338847
 20
762.8692154679
 30
0.0
 11
27.1107338847
 21
763.2602586737
 31
0.0
  0
LINE
  5
260
330
5E
100
AcDbEntity
  8
4221039_0__SIEB_
  6
Continuous
 62
     7
100
AcDbLine
 10
25.375019599
 20
763.0268192768
 30
0.0
 11
25.375019599
 21
762.8692154679
 31
0.0
  0
LINE
  5
261
330
5E
100
AcDbEntity
  8
4221039_0__SIEB_
  6
Continuous
 62
     7
100
AcDbLine
 10
25.575019599
 20
762.8692154679
 30
0.0
 11
25.575019599
 21
763.0934150811
 31
0.0
  0
LINE
  5
262
330
5E
100
AcDbEntity
  8
4221039_0__SIEB_
  6
Continuous
 62
     7
100
AcDbLine
 10
24.6330208151
 20
762.7350134536
 30
0.0
 11
25.4408175847
 21
762.7350134536
 31
0.0
  0
LINE
  5
263
330
5E
100
AcDbEntity
  8
4221039_0__SIEB_
  6
Continuous
 62
     7
100
AcDbLine
 10
25.375019599
 20
762.9350134536
 30
0.0
 11
25.1196036955
 21
762.9350134536
 31
0.0
  0
LINE
  5
264
330
5E
100
AcDbEntity
  8
4221039_0__SIEB_
  6
Continuous
 62
     7
100
AcDbLine
 10
25.5092216133
 20
762.7350134536
 30
0.0
 11
26.9765318704
 21
762.7350134536
 31
0.0
  0
LINE
  5
265
330
5E
100
AcDbEntity
  8
4221039_0__SIEB_
  6
Continuous
 62
     7
100
AcDbLine
 10
26.9107338847
 20
762.9350134536
 30
0.0
 11
25.575019599
 21
762.9350134536
 31
0.0
  0
LINE
  5
266
330
5E
100
AcDbEntity
  8
4221039_0__SIEB_
  6
Continuous
 62
     7
100
AcDbLine
 10
27.0449358991
 20
762.7350134536
 30
0.0
 11
28.5122461561
 21
762.7350134536
 31
0.0
  0
LINE
  5
267
330
5E
100
AcDbEntity
  8
4221039_0__SIEB_
  6
Continuous
 62
     7
100
AcDbLine
 10
28.4464481704
 20
762.9350134536
 30
0.0
 11
27.1107338847
 21
762.9350134536
 31
0.0
  0
LINE
  5
268
330
5E
100
AcDbEntity
  8
4221039_0__SIEB_
  6
Continuous
 62
     7
100
AcDbLine
 10
28.5806501848
 20
762.7350134536
 30
0.0
 11
30.0479604418
 21
762.7350134536
 31
0.0
  0
LINE
  5
269
330
5E
100
AcDbEntity
  8
4221039_0__SIEB_
  6
Continuous
 62
     7
100
AcDbLine
 10
29.9821624562
 20
762.9350134536
 30
0.0
 11
28.6464481704
 21
762.9350134536
 31
0.0
  0
LINE
  5
26A
330
5E
100
AcDbEntity
  8
4221039_0__SIEB_
  6
Continuous
 62
     7
100
AcDbLine
 10
30.1163644705
 20
762.7350134536
 30
0.0
 11
31.5836747275
 21
762.7350134536
 31
0.0
  0
LINE
  5
26B
330
5E
100
AcDbEntity
  8
4221039_0__SIEB_
  6
Continuous
 62
     7
100
AcDbLine
 10
31.5178767419
 20
762.9350134536
 30
0.0
 11
30.1821624562
 21
762.9350134536
 31
0.0
  0
LINE
  5
26C
330
5E
100
AcDbEntity
  8
4221039_0__SIEB_
  6
Continuous
 62
     7
100
AcDbLine
 10
31.6520787562
 20
762.7350134536
 30
0.0
 11
33.1193890133
 21
762.7350134536
 31
0.0
  0
LINE
  5
26D
330
5E
100
AcDbEntity
  8
4221039_0__SIEB_
  6
Continuous
 62
     7
100
AcDbLine
 10
33.0535910276
 20
762.9350134536
 30
0.0
 11
31.7178767419
 21
762.9350134536
 31
0.0
  0
LINE
  5
26E
330
5E
100
AcDbEntity
  8
4221039_0__SIEB_
  6
Continuous
 62
     7
100
AcDbLine
 10
33.1877930419
 20
762.7350134536
 30
0.0
 11
34.655103299
 21
762.7350134536
 31
0.0
  0
LINE
  5
26F
330
5E
100
AcDbEntity
  8
4221039_0__SIEB_
  6
Continuous
 62
     7
100
AcDbLine
 10
34.5893053133
 20
762.9350134536
 30
0.0
 11
33.2535910276
 21
762.9350134536
 31
0.0
  0
LINE
  5
270
330
5E
100
AcDbEntity
  8
4221039_0__SIEB_
  6
Continuous
 62
     7
100
AcDbLine
 10
34.7235073276
 20
762.7350134536
 30
0.0
 11
36.1908175847
 21
762.7350134536
 31
0.0
  0
LINE
  5
271
330
5E
100
AcDbEntity
  8
4221039_0__SIEB_
  6
Continuous
 62
     7
100
AcDbLine
 10
36.125019599
 20
762.9350134536
 30
0.0
 11
34.7893053133
 21
762.9350134536
 31
0.0
  0
LINE
  5
272
330
5E
100
AcDbEntity
  8
4221039_0__SIEB_
  6
Continuous
 62
     7
100
AcDbLine
 10
36.2592216133
 20
762.7350134536
 30
0.0
 11
37.7265318704
 21
762.7350134536
 31
0.0
  0
LINE
  5
273
330
5E
100
AcDbEntity
  8
4221039_0__SIEB_
  6
Continuous
 62
     7
100
AcDbLine
 10
37.6607338847
 20
762.9350134536
 30
0.0
 11
36.325019599
 21
762.9350134536
 31
0.0
  0
LINE
  5
274
330
5E
100
AcDbEntity
  8
4221039_0__SIEB_
  6
Continuous
 62
     7
100
AcDbLine
 10
37.7949358991
 20
762.7350134536
 30
0.0
 11
38.17416124
 21
762.7350134536
 31
0.0
  0
LINE
  5
275
330
5E
100
AcDbEntity
  8
4221039_0__SIEB_
  6
Continuous
 62
     7
100
AcDbLine
 10
24.0393053133
 20
762.3439702478
 30
0.0
 11
24.0393053133
 21
762.4291355701
 31
0.0
  0
LINE
  5
276
330
5E
100
AcDbEntity
  8
4221039_0__SIEB_
  6
Continuous
 62
     7
100
AcDbLine
 10
25.375019599
 20
762.7350134536
 30
0.0
 11
25.375019599
 21
762.3439702478
 31
0.0
  0
LINE
  5
277
330
5E
100
AcDbEntity
  8
4221039_0__SIEB_
  6
Continuous
 62
     7
100
AcDbLine
 10
25.575019599
 20
762.3439702478
 30
0.0
 11
25.575019599
 21
762.7350134536
 31
0.0
  0
LINE
  5
278
330
5E
100
AcDbEntity
  8
4221039_0__SIEB_
  6
Continuous
 62
     7
100
AcDbLine
 10
26.9107338847
 20
762.7350134536
 30
0.0
 11
26.9107338847
 21
762.3439702478
 31
0.0
  0
LINE
  5
279
330
5E
100
AcDbEntity
  8
4221039_0__SIEB_
  6
Continuous
 62
     7
100
AcDbLine
 10
27.1107338847
 20
762.3439702478
 30
0.0
 11
27.1107338847
 21
762.7350134536
 31
0.0
  0
LINE
  5
27A
330
5E
100
AcDbEntity
  8
4221039_0__SIEB_
  6
Continuous
 62
     7
100
AcDbLine
 10
28.4464481704
 20
762.7350134536
 30
0.0
 11
28.4464481704
 21
762.3439702478
 31
0.0
  0
LINE
  5
27B
330
5E
100
AcDbEntity
  8
4221039_0__SIEB_
  6
Continuous
 62
     7
100
AcDbLine
 10
28.6464481704
 20
762.3439702478
 30
0.0
 11
28.6464481704
 21
762.7350134536
 31
0.0
  0
LINE
  5
27C
330
5E
100
AcDbEntity
  8
4221039_0__SIEB_
  6
Continuous
 62
     7
100
AcDbLine
 10
29.9821624562
 20
762.7350134536
 30
0.0
 11
29.9821624562
 21
762.3439702478
 31
0.0
  0
LINE
  5
27D
330
5E
100
AcDbEntity
  8
4221039_0__SIEB_
  6
Continuous
 62
     7
100
AcDbLine
 10
30.1821624562
 20
762.3439702478
 30
0.0
 11
30.1821624562
 21
762.7350134536
 31
0.0
  0
LINE
  5
27E
330
5E
100
AcDbEntity
  8
4221039_0__SIEB_
  6
Continuous
 62
     7
100
AcDbLine
 10
31.5178767419
 20
762.7350134536
 30
0.0
 11
31.5178767419
 21
762.3439702478
 31
0.0
  0
LINE
  5
27F
330
5E
100
AcDbEntity
  8
4221039_0__SIEB_
  6
Continuous
 62
     7
100
AcDbLine
 10
31.7178767419
 20
762.3439702478
 30
0.0
 11
31.7178767419
 21
762.7350134536
 31
0.0
  0
LINE
  5
280
330
5E
100
AcDbEntity
  8
4221039_0__SIEB_
  6
Continuous
 62
     7
100
AcDbLine
 10
33.0535910276
 20
762.7350134536
 30
0.0
 11
33.0535910276
 21
762.3439702478
 31
0.0
  0
LINE
  5
281
330
5E
100
AcDbEntity
  8
4221039_0__SIEB_
  6
Continuous
 62
     7
100
AcDbLine
 10
33.2535910276
 20
762.3439702478
 30
0.0
 11
33.2535910276
 21
762.7350134536
 31
0.0
  0
LINE
  5
282
330
5E
100
AcDbEntity
  8
4221039_0__SIEB_
  6
Continuous
 62
     7
100
AcDbLine
 10
34.5893053133
 20
762.7350134536
 30
0.0
 11
34.5893053133
 21
762.3439702478
 31
0.0
  0
LINE
  5
283
330
5E
100
AcDbEntity
  8
4221039_0__SIEB_
  6
Continuous
 62
     7
100
AcDbLine
 10
34.7893053133
 20
762.3439702478
 30
0.0
 11
34.7893053133
 21
762.7350134536
 31
0.0
  0
LINE
  5
284
330
5E
100
AcDbEntity
  8
4221039_0__SIEB_
  6
Continuous
 62
     7
100
AcDbLine
 10
36.125019599
 20
762.7350134536
 30
0.0
 11
36.125019599
 21
762.3439702478
 31
0.0
  0
LINE
  5
285
330
5E
100
AcDbEntity
  8
4221039_0__SIEB_
  6
Continuous
 62
     7
100
AcDbLine
 10
36.325019599
 20
762.3439702478
 30
0.0
 11
36.325019599
 21
762.7350134536
 31
0.0
  0
LINE
  5
286
330
5E
100
AcDbEntity
  8
4221039_0__SIEB_
  6
Continuous
 62
     7
100
AcDbLine
 10
37.6607338847
 20
762.7350134536
 30
0.0
 11
37.6607338847
 21
762.3439702478
 31
0.0
  0
LINE
  5
287
330
5E
100
AcDbEntity
  8
4221039_0__SIEB_
  6
Continuous
 62
     7
100
AcDbLine
 10
37.8607338847
 20
762.3439702478
 30
0.0
 11
37.8607338847
 21
762.7350134536
 31
0.0
  0
LINE
  5
288
330
5E
100
AcDbEntity
  8
4221039_0__SIEB_
  6
Continuous
 62
     7
100
AcDbLine
 10
37.7949358991
 20
762.2097682335
 30
0.0
 11
39.1020513538
 21
762.2097682335
 31
0.0
  0
LINE
  5
289
330
5E
100
AcDbEntity
  8
4221039_0__SIEB_
  6
Continuous
 62
     7
100
AcDbLine
 10
38.8002266451
 20
762.4097682335
 30
0.0
 11
37.8607338847
 21
762.4097682335
 31
0.0
  0
LINE
  5
28A
330
5E
100
AcDbEntity
  8
4221039_0__SIEB_
  6
Continuous
 62
     7
100
AcDbLine
 10
36.2592216133
 20
762.2097682335
 30
0.0
 11
37.7265318704
 21
762.2097682335
 31
0.0
  0
LINE
  5
28B
330
5E
100
AcDbEntity
  8
4221039_0__SIEB_
  6
Continuous
 62
     7
100
AcDbLine
 10
37.6607338847
 20
762.4097682335
 30
0.0
 11
36.325019599
 21
762.4097682335
 31
0.0
  0
LINE
  5
28C
330
5E
100
AcDbEntity
  8
4221039_0__SIEB_
  6
Continuous
 62
     7
100
AcDbLine
 10
34.7235073276
 20
762.2097682335
 30
0.0
 11
36.1908175847
 21
762.2097682335
 31
0.0
  0
LINE
  5
28D
330
5E
100
AcDbEntity
  8
4221039_0__SIEB_
  6
Continuous
 62
     7
100
AcDbLine
 10
36.125019599
 20
762.4097682335
 30
0.0
 11
34.7893053133
 21
762.4097682335
 31
0.0
  0
LINE
  5
28E
330
5E
100
AcDbEntity
  8
4221039_0__SIEB_
  6
Continuous
 62
     7
100
AcDbLine
 10
33.1877930419
 20
762.2097682335
 30
0.0
 11
34.655103299
 21
762.2097682335
 31
0.0
  0
LINE
  5
28F
330
5E
100
AcDbEntity
  8
4221039_0__SIEB_
  6
Continuous
 62
     7
100
AcDbLine
 10
34.5893053133
 20
762.4097682335
 30
0.0
 11
33.2535910276
 21
762.4097682335
 31
0.0
  0
LINE
  5
290
330
5E
100
AcDbEntity
  8
4221039_0__SIEB_
  6
Continuous
 62
     7
100
AcDbLine
 10
31.6520787562
 20
762.2097682335
 30
0.0
 11
33.1193890133
 21
762.2097682335
 31
0.0
  0
LINE
  5
291
330
5E
100
AcDbEntity
  8
4221039_0__SIEB_
  6
Continuous
 62
     7
100
AcDbLine
 10
33.0535910276
 20
762.4097682335
 30
0.0
 11
31.7178767419
 21
762.4097682335
 31
0.0
  0
LINE
  5
292
330
5E
100
AcDbEntity
  8
4221039_0__SIEB_
  6
Continuous
 62
     7
100
AcDbLine
 10
30.1163644705
 20
762.2097682335
 30
0.0
 11
31.5836747275
 21
762.2097682335
 31
0.0
  0
LINE
  5
293
330
5E
100
AcDbEntity
  8
4221039_0__SIEB_
  6
Continuous
 62
     7
100
AcDbLine
 10
31.5178767419
 20
762.4097682335
 30
0.0
 11
30.1821624562
 21
762.4097682335
 31
0.0
  0
LINE
  5
294
330
5E
100
AcDbEntity
  8
4221039_0__SIEB_
  6
Continuous
 62
     7
100
AcDbLine
 10
28.5806501848
 20
762.2097682335
 30
0.0
 11
30.0479604418
 21
762.2097682335
 31
0.0
  0
LINE
  5
295
330
5E
100
AcDbEntity
  8
4221039_0__SIEB_
  6
Continuous
 62
     7
100
AcDbLine
 10
29.9821624562
 20
762.4097682335
 30
0.0
 11
28.6464481704
 21
762.4097682335
 31
0.0
  0
LINE
  5
296
330
5E
100
AcDbEntity
  8
4221039_0__SIEB_
  6
Continuous
 62
     7
100
AcDbLine
 10
27.0449358991
 20
762.2097682335
 30
0.0
 11
28.5122461561
 21
762.2097682335
 31
0.0
  0
LINE
  5
297
330
5E
100
AcDbEntity
  8
4221039_0__SIEB_
  6
Continuous
 62
     7
100
AcDbLine
 10
28.4464481704
 20
762.4097682335
 30
0.0
 11
27.1107338847
 21
762.4097682335
 31
0.0
  0
LINE
  5
298
330
5E
100
AcDbEntity
  8
4221039_0__SIEB_
  6
Continuous
 62
     7
100
AcDbLine
 10
25.5092216133
 20
762.2097682335
 30
0.0
 11
26.9765318704
 21
762.2097682335
 31
0.0
  0
LINE
  5
299
330
5E
100
AcDbEntity
  8
4221039_0__SIEB_
  6
Continuous
 62
     7
100
AcDbLine
 10
26.9107338847
 20
762.4097682335
 30
0.0
 11
25.575019599
 21
762.4097682335
 31
0.0
  0
LINE
  5
29A
330
5E
100
AcDbEntity
  8
4221039_0__SIEB_
  6
Continuous
 62
     7
100
AcDbLine
 10
23.9735073276
 20
762.2097682335
 30
0.0
 11
25.4408175847
 21
762.2097682335
 31
0.0
  0
LINE
  5
29B
330
5E
100
AcDbEntity
  8
4221039_0__SIEB_
  6
Continuous
 62
     7
100
AcDbLine
 10
25.375019599
 20
762.4097682335
 30
0.0
 11
24.0393053133
 21
762.4097682335
 31
0.0
  0
LINE
  5
29C
330
5E
100
AcDbEntity
  8
4221039_0__SIEB_
  6
Continuous
 62
     7
100
AcDbLine
 10
23.7051307013
 20
762.2097682335
 30
0.0
 11
23.905103299
 21
762.2097682335
 31
0.0
  0
LINE
  5
29D
330
5E
100
AcDbEntity
  8
4221039_0__SIEB_
  6
Continuous
 62
     7
100
AcDbLine
 10
39.1964481704
 20
762.1382942726
 30
0.0
 11
39.1964481704
 21
761.8187250277
 31
0.0
  0
LINE
  5
29E
330
5E
100
AcDbEntity
  8
4221039_0__SIEB_
  6
Continuous
 62
     7
100
AcDbLine
 10
39.3964481704
 20
761.8187250277
 30
0.0
 11
39.3964481704
 21
761.9665260073
 31
0.0
  0
LINE
  5
29F
330
5E
100
AcDbEntity
  8
4221039_0__SIEB_
  6
Continuous
 62
     7
100
AcDbLine
 10
37.6607338847
 20
762.2097682335
 30
0.0
 11
37.6607338847
 21
761.8187250277
 31
0.0
  0
LINE
  5
2A0
330
5E
100
AcDbEntity
  8
4221039_0__SIEB_
  6
Continuous
 62
     7
100
AcDbLine
 10
37.8607338847
 20
761.8187250277
 30
0.0
 11
37.8607338847
 21
762.2097682335
 31
0.0
  0
LINE
  5
2A1
330
5E
100
AcDbEntity
  8
4221039_0__SIEB_
  6
Continuous
 62
     7
100
AcDbLine
 10
36.125019599
 20
762.2097682335
 30
0.0
 11
36.125019599
 21
761.8187250277
 31
0.0
  0
LINE
  5
2A2
330
5E
100
AcDbEntity
  8
4221039_0__SIEB_
  6
Continuous
 62
     7
100
AcDbLine
 10
36.325019599
 20
761.8187250277
 30
0.0
 11
36.325019599
 21
762.2097682335
 31
0.0
  0
LINE
  5
2A3
330
5E
100
AcDbEntity
  8
4221039_0__SIEB_
  6
Continuous
 62
     7
100
AcDbLine
 10
34.5893053133
 20
762.2097682335
 30
0.0
 11
34.5893053133
 21
761.8187250277
 31
0.0
  0
LINE
  5
2A4
330
5E
100
AcDbEntity
  8
4221039_0__SIEB_
  6
Continuous
 62
     7
100
AcDbLine
 10
34.7893053133
 20
761.8187250277
 30
0.0
 11
34.7893053133
 21
762.2097682335
 31
0.0
  0
LINE
  5
2A5
330
5E
100
AcDbEntity
  8
4221039_0__SIEB_
  6
Continuous
 62
     7
100
AcDbLine
 10
33.0535910276
 20
762.2097682335
 30
0.0
 11
33.0535910276
 21
761.8187250277
 31
0.0
  0
LINE
  5
2A6
330
5E
100
AcDbEntity
  8
4221039_0__SIEB_
  6
Continuous
 62
     7
100
AcDbLine
 10
33.2535910276
 20
761.8187250277
 30
0.0
 11
33.2535910276
 21
762.2097682335
 31
0.0
  0
LINE
  5
2A7
330
5E
100
AcDbEntity
  8
4221039_0__SIEB_
  6
Continuous
 62
     7
100
AcDbLine
 10
31.5178767419
 20
762.2097682335
 30
0.0
 11
31.5178767419
 21
761.8187250277
 31
0.0
  0
LINE
  5
2A8
330
5E
100
AcDbEntity
  8
4221039_0__SIEB_
  6
Continuous
 62
     7
100
AcDbLine
 10
31.7178767419
 20
761.8187250277
 30
0.0
 11
31.7178767419
 21
762.2097682335
 31
0.0
  0
LINE
  5
2A9
330
5E
100
AcDbEntity
  8
4221039_0__SIEB_
  6
Continuous
 62
     7
100
AcDbLine
 10
29.9821624562
 20
762.2097682335
 30
0.0
 11
29.9821624562
 21
761.8187250277
 31
0.0
  0
LINE
  5
2AA
330
5E
100
AcDbEntity
  8
4221039_0__SIEB_
  6
Continuous
 62
     7
100
AcDbLine
 10
30.1821624562
 20
761.8187250277
 30
0.0
 11
30.1821624562
 21
762.2097682335
 31
0.0
  0
LINE
  5
2AB
330
5E
100
AcDbEntity
  8
4221039_0__SIEB_
  6
Continuous
 62
     7
100
AcDbLine
 10
28.4464481704
 20
762.2097682335
 30
0.0
 11
28.4464481704
 21
761.8187250277
 31
0.0
  0
LINE
  5
2AC
330
5E
100
AcDbEntity
  8
4221039_0__SIEB_
  6
Continuous
 62
     7
100
AcDbLine
 10
28.6464481704
 20
761.8187250277
 30
0.0
 11
28.6464481704
 21
762.2097682335
 31
0.0
  0
LINE
  5
2AD
330
5E
100
AcDbEntity
  8
4221039_0__SIEB_
  6
Continuous
 62
     7
100
AcDbLine
 10
26.9107338847
 20
762.2097682335
 30
0.0
 11
26.9107338847
 21
761.8187250277
 31
0.0
  0
LINE
  5
2AE
330
5E
100
AcDbEntity
  8
4221039_0__SIEB_
  6
Continuous
 62
     7
100
AcDbLine
 10
27.1107338847
 20
761.8187250277
 30
0.0
 11
27.1107338847
 21
762.2097682335
 31
0.0
  0
LINE
  5
2AF
330
5E
100
AcDbEntity
  8
4221039_0__SIEB_
  6
Continuous
 62
     7
100
AcDbLine
 10
25.375019599
 20
762.2097682335
 30
0.0
 11
25.375019599
 21
761.8187250277
 31
0.0
  0
LINE
  5
2B0
330
5E
100
AcDbEntity
  8
4221039_0__SIEB_
  6
Continuous
 62
     7
100
AcDbLine
 10
25.575019599
 20
761.8187250277
 30
0.0
 11
25.575019599
 21
762.2097682335
 31
0.0
  0
LINE
  5
2B1
330
5E
100
AcDbEntity
  8
4221039_0__SIEB_
  6
Continuous
 62
     7
100
AcDbLine
 10
23.8393053133
 20
762.2097682335
 30
0.0
 11
23.8393053133
 21
761.8187250277
 31
0.0
  0
LINE
  5
2B2
330
5E
100
AcDbEntity
  8
4221039_0__SIEB_
  6
Continuous
 62
     7
100
AcDbLine
 10
24.0393053133
 20
761.8187250277
 30
0.0
 11
24.0393053133
 21
762.2097682335
 31
0.0
  0
LINE
  5
2B3
330
5E
100
AcDbEntity
  8
4221039_0__SIEB_
  6
Continuous
 62
     7
100
AcDbLine
 10
23.1588881795
 20
761.6845230134
 30
0.0
 11
23.905103299
 21
761.6845230134
 31
0.0
  0
LINE
  5
2B4
330
5E
100
AcDbEntity
  8
4221039_0__SIEB_
  6
Continuous
 62
     7
100
AcDbLine
 10
23.8393053133
 20
761.8845230134
 30
0.0
 11
23.3280041517
 21
761.8845230134
 31
0.0
  0
LINE
  5
2B5
330
5E
100
AcDbEntity
  8
4221039_0__SIEB_
  6
Continuous
 62
     7
100
AcDbLine
 10
23.9735073276
 20
761.6845230134
 30
0.0
 11
25.4408175847
 21
761.6845230134
 31
0.0
  0
LINE
  5
2B6
330
5E
100
AcDbEntity
  8
4221039_0__SIEB_
  6
Continuous
 62
     7
100
AcDbLine
 10
25.375019599
 20
761.8845230134
 30
0.0
 11
24.0393053133
 21
761.8845230134
 31
0.0
  0
LINE
  5
2B7
330
5E
100
AcDbEntity
  8
4221039_0__SIEB_
  6
Continuous
 62
     7
100
AcDbLine
 10
25.5092216133
 20
761.6845230134
 30
0.0
 11
26.9765318704
 21
761.6845230134
 31
0.0
  0
LINE
  5
2B8
330
5E
100
AcDbEntity
  8
4221039_0__SIEB_
  6
Continuous
 62
     7
100
AcDbLine
 10
26.9107338847
 20
761.8845230134
 30
0.0
 11
25.575019599
 21
761.8845230134
 31
0.0
  0
LINE
  5
2B9
330
5E
100
AcDbEntity
  8
4221039_0__SIEB_
  6
Continuous
 62
     7
100
AcDbLine
 10
27.0449358991
 20
761.6845230134
 30
0.0
 11
28.5122461561
 21
761.6845230134
 31
0.0
  0
LINE
  5
2BA
330
5E
100
AcDbEntity
  8
4221039_0__SIEB_
  6
Continuous
 62
     7
100
AcDbLine
 10
28.4464481704
 20
761.8845230134
 30
0.0
 11
27.1107338847
 21
761.8845230134
 31
0.0
  0
LINE
  5
2BB
330
5E
100
AcDbEntity
  8
4221039_0__SIEB_
  6
Continuous
 62
     7
100
AcDbLine
 10
28.5806501848
 20
761.6845230134
 30
0.0
 11
30.0479604418
 21
761.6845230134
 31
0.0
  0
LINE
  5
2BC
330
5E
100
AcDbEntity
  8
4221039_0__SIEB_
  6
Continuous
 62
     7
100
AcDbLine
 10
29.9821624562
 20
761.8845230134
 30
0.0
 11
28.6464481704
 21
761.8845230134
 31
0.0
  0
LINE
  5
2BD
330
5E
100
AcDbEntity
  8
4221039_0__SIEB_
  6
Continuous
 62
     7
100
AcDbLine
 10
30.1163644705
 20
761.6845230134
 30
0.0
 11
31.5836747275
 21
761.6845230134
 31
0.0
  0
LINE
  5
2BE
330
5E
100
AcDbEntity
  8
4221039_0__SIEB_
  6
Continuous
 62
     7
100
AcDbLine
 10
31.5178767419
 20
761.8845230134
 30
0.0
 11
30.1821624562
 21
761.8845230134
 31
0.0
  0
LINE
  5
2BF
330
5E
100
AcDbEntity
  8
4221039_0__SIEB_
  6
Continuous
 62
     7
100
AcDbLine
 10
31.6520787562
 20
761.6845230134
 30
0.0
 11
33.1193890133
 21
761.6845230134
 31
0.0
  0
LINE
  5
2C0
330
5E
100
AcDbEntity
  8
4221039_0__SIEB_
  6
Continuous
 62
     7
100
AcDbLine
 10
33.0535910276
 20
761.8845230134
 30
0.0
 11
31.7178767419
 21
761.8845230134
 31
0.0
  0
LINE
  5
2C1
330
5E
100
AcDbEntity
  8
4221039_0__SIEB_
  6
Continuous
 62
     7
100
AcDbLine
 10
33.1877930419
 20
761.6845230134
 30
0.0
 11
34.655103299
 21
761.6845230134
 31
0.0
  0
LINE
  5
2C2
330
5E
100
AcDbEntity
  8
4221039_0__SIEB_
  6
Continuous
 62
     7
100
AcDbLine
 10
34.5893053133
 20
761.8845230134
 30
0.0
 11
33.2535910276
 21
761.8845230134
 31
0.0
  0
LINE
  5
2C3
330
5E
100
AcDbEntity
  8
4221039_0__SIEB_
  6
Continuous
 62
     7
100
AcDbLine
 10
34.7235073276
 20
761.6845230134
 30
0.0
 11
36.1908175847
 21
761.6845230134
 31
0.0
  0
LINE
  5
2C4
330
5E
100
AcDbEntity
  8
4221039_0__SIEB_
  6
Continuous
 62
     7
100
AcDbLine
 10
36.125019599
 20
761.8845230134
 30
0.0
 11
34.7893053133
 21
761.8845230134
 31
0.0
  0
LINE
  5
2C5
330
5E
100
AcDbEntity
  8
4221039_0__SIEB_
  6
Continuous
 62
     7
100
AcDbLine
 10
36.2592216133
 20
761.6845230134
 30
0.0
 11
37.7265318704
 21
761.6845230134
 31
0.0
  0
LINE
  5
2C6
330
5E
100
AcDbEntity
  8
4221039_0__SIEB_
  6
Continuous
 62
     7
100
AcDbLine
 10
37.6607338847
 20
761.8845230134
 30
0.0
 11
36.325019599
 21
761.8845230134
 31
0.0
  0
LINE
  5
2C7
330
5E
100
AcDbEntity
  8
4221039_0__SIEB_
  6
Continuous
 62
     7
100
AcDbLine
 10
37.7949358991
 20
761.6845230134
 30
0.0
 11
39.2622461561
 21
761.6845230134
 31
0.0
  0
LINE
  5
2C8
330
5E
100
AcDbEntity
  8
4221039_0__SIEB_
  6
Continuous
 62
     7
100
AcDbLine
 10
39.1964481704
 20
761.8845230134
 30
0.0
 11
37.8607338847
 21
761.8845230134
 31
0.0
  0
LINE
  5
2C9
330
5E
100
AcDbEntity
  8
4221039_0__SIEB_
  6
Continuous
 62
     7
100
AcDbLine
 10
39.3306501848
 20
761.6845230134
 30
0.0
 11
39.6482938757
 21
761.6845230134
 31
0.0
  0
LINE
  5
2CA
330
5E
100
AcDbEntity
  8
4221039_0__SIEB_
  6
Continuous
 62
     7
100
AcDbLine
 10
39.4791779035
 20
761.8845230134
 30
0.0
 11
39.3964481704
 21
761.8845230134
 31
0.0
  0
LINE
  5
2CB
330
5E
100
AcDbEntity
  8
4221039_0__SIEB_
  6
Continuous
 62
     7
100
AcDbLine
 10
23.8393053133
 20
761.6845230134
 30
0.0
 11
23.8393053133
 21
761.2934798076
 31
0.0
  0
LINE
  5
2CC
330
5E
100
AcDbEntity
  8
4221039_0__SIEB_
  6
Continuous
 62
     7
100
AcDbLine
 10
24.0393053133
 20
761.2934798076
 30
0.0
 11
24.0393053133
 21
761.6845230134
 31
0.0
  0
LINE
  5
2CD
330
5E
100
AcDbEntity
  8
4221039_0__SIEB_
  6
Continuous
 62
     7
100
AcDbLine
 10
25.375019599
 20
761.6845230134
 30
0.0
 11
25.375019599
 21
761.2934798076
 31
0.0
  0
LINE
  5
2CE
330
5E
100
AcDbEntity
  8
4221039_0__SIEB_
  6
Continuous
 62
     7
100
AcDbLine
 10
25.575019599
 20
761.2934798076
 30
0.0
 11
25.575019599
 21
761.6845230134
 31
0.0
  0
LINE
  5
2CF
330
5E
100
AcDbEntity
  8
4221039_0__SIEB_
  6
Continuous
 62
     7
100
AcDbLine
 10
26.9107338847
 20
761.6845230134
 30
0.0
 11
26.9107338847
 21
761.2934798076
 31
0.0
  0
LINE
  5
2D0
330
5E
100
AcDbEntity
  8
4221039_0__SIEB_
  6
Continuous
 62
     7
100
AcDbLine
 10
27.1107338847
 20
761.2934798076
 30
0.0
 11
27.1107338847
 21
761.6845230134
 31
0.0
  0
LINE
  5
2D1
330
5E
100
AcDbEntity
  8
4221039_0__SIEB_
  6
Continuous
 62
     7
100
AcDbLine
 10
28.4464481704
 20
761.6845230134
 30
0.0
 11
28.4464481704
 21
761.2934798076
 31
0.0
  0
LINE
  5
2D2
330
5E
100
AcDbEntity
  8
4221039_0__SIEB_
  6
Continuous
 62
     7
100
AcDbLine
 10
28.6464481704
 20
761.2934798076
 30
0.0
 11
28.6464481704
 21
761.6845230134
 31
0.0
  0
LINE
  5
2D3
330
5E
100
AcDbEntity
  8
4221039_0__SIEB_
  6
Continuous
 62
     7
100
AcDbLine
 10
29.9821624562
 20
761.6845230134
 30
0.0
 11
29.9821624562
 21
761.2934798076
 31
0.0
  0
LINE
  5
2D4
330
5E
100
AcDbEntity
  8
4221039_0__SIEB_
  6
Continuous
 62
     7
100
AcDbLine
 10
30.1821624562
 20
761.2934798076
 30
0.0
 11
30.1821624562
 21
761.6845230134
 31
0.0
  0
LINE
  5
2D5
330
5E
100
AcDbEntity
  8
4221039_0__SIEB_
  6
Continuous
 62
     7
100
AcDbLine
 10
31.5178767419
 20
761.6845230134
 30
0.0
 11
31.5178767419
 21
761.2934798076
 31
0.0
  0
LINE
  5
2D6
330
5E
100
AcDbEntity
  8
4221039_0__SIEB_
  6
Continuous
 62
     7
100
AcDbLine
 10
31.7178767419
 20
761.2934798076
 30
0.0
 11
31.7178767419
 21
761.6845230134
 31
0.0
  0
LINE
  5
2D7
330
5E
100
AcDbEntity
  8
4221039_0__SIEB_
  6
Continuous
 62
     7
100
AcDbLine
 10
33.0535910276
 20
761.6845230134
 30
0.0
 11
33.0535910276
 21
761.2934798076
 31
0.0
  0
LINE
  5
2D8
330
5E
100
AcDbEntity
  8
4221039_0__SIEB_
  6
Continuous
 62
     7
100
AcDbLine
 10
33.2535910276
 20
761.2934798076
 30
0.0
 11
33.2535910276
 21
761.6845230134
 31
0.0
  0
LINE
  5
2D9
330
5E
100
AcDbEntity
  8
4221039_0__SIEB_
  6
Continuous
 62
     7
100
AcDbLine
 10
34.5893053133
 20
761.6845230134
 30
0.0
 11
34.5893053133
 21
761.2934798076
 31
0.0
  0
LINE
  5
2DA
330
5E
100
AcDbEntity
  8
4221039_0__SIEB_
  6
Continuous
 62
     7
100
AcDbLine
 10
34.7893053133
 20
761.2934798076
 30
0.0
 11
34.7893053133
 21
761.6845230134
 31
0.0
  0
LINE
  5
2DB
330
5E
100
AcDbEntity
  8
4221039_0__SIEB_
  6
Continuous
 62
     7
100
AcDbLine
 10
36.125019599
 20
761.6845230134
 30
0.0
 11
36.125019599
 21
761.2934798076
 31
0.0
  0
LINE
  5
2DC
330
5E
100
AcDbEntity
  8
4221039_0__SIEB_
  6
Continuous
 62
     7
100
AcDbLine
 10
36.325019599
 20
761.2934798076
 30
0.0
 11
36.325019599
 21
761.6845230134
 31
0.0
  0
LINE
  5
2DD
330
5E
100
AcDbEntity
  8
4221039_0__SIEB_
  6
Continuous
 62
     7
100
AcDbLine
 10
37.6607338847
 20
761.6845230134
 30
0.0
 11
37.6607338847
 21
761.2934798076
 31
0.0
  0
LINE
  5
2DE
330
5E
100
AcDbEntity
  8
4221039_0__SIEB_
  6
Continuous
 62
     7
100
AcDbLine
 10
37.8607338847
 20
761.2934798076
 30
0.0
 11
37.8607338847
 21
761.6845230134
 31
0.0
  0
LINE
  5
2DF
330
5E
100
AcDbEntity
  8
4221039_0__SIEB_
  6
Continuous
 62
     7
100
AcDbLine
 10
39.1964481704
 20
761.6845230134
 30
0.0
 11
39.1964481704
 21
761.2934798076
 31
0.0
  0
LINE
  5
2E0
330
5E
100
AcDbEntity
  8
4221039_0__SIEB_
  6
Continuous
 62
     7
100
AcDbLine
 10
39.3964481704
 20
761.2934798076
 30
0.0
 11
39.3964481704
 21
761.6845230134
 31
0.0
  0
LINE
  5
2E1
330
5E
100
AcDbEntity
  8
4221039_0__SIEB_
  6
Continuous
 62
     7
100
AcDbLine
 10
39.3306501848
 20
761.1592777933
 30
0.0
 11
39.8869348245
 21
761.1592777933
 31
0.0
  0
LINE
  5
2E2
330
5E
100
AcDbEntity
  8
4221039_0__SIEB_
  6
Continuous
 62
     7
100
AcDbLine
 10
39.8299278111
 20
761.3592777933
 30
0.0
 11
39.3964481704
 21
761.3592777933
 31
0.0
  0
LINE
  5
2E3
330
5E
100
AcDbEntity
  8
4221039_0__SIEB_
  6
Continuous
 62
     7
100
AcDbLine
 10
37.7949358991
 20
761.1592777933
 30
0.0
 11
39.2622461561
 21
761.1592777933
 31
0.0
  0
LINE
  5
2E4
330
5E
100
AcDbEntity
  8
4221039_0__SIEB_
  6
Continuous
 62
     7
100
AcDbLine
 10
39.1964481704
 20
761.3592777933
 30
0.0
 11
37.8607338847
 21
761.3592777933
 31
0.0
  0
LINE
  5
2E5
330
5E
100
AcDbEntity
  8
4221039_0__SIEB_
  6
Continuous
 62
     7
100
AcDbLine
 10
36.2592216133
 20
761.1592777933
 30
0.0
 11
37.7265318704
 21
761.1592777933
 31
0.0
  0
LINE
  5
2E6
330
5E
100
AcDbEntity
  8
4221039_0__SIEB_
  6
Continuous
 62
     7
100
AcDbLine
 10
37.6607338847
 20
761.3592777933
 30
0.0
 11
36.325019599
 21
761.3592777933
 31
0.0
  0
LINE
  5
2E7
330
5E
100
AcDbEntity
  8
4221039_0__SIEB_
  6
Continuous
 62
     7
100
AcDbLine
 10
34.7235073276
 20
761.1592777933
 30
0.0
 11
36.1908175847
 21
761.1592777933
 31
0.0
  0
LINE
  5
2E8
330
5E
100
AcDbEntity
  8
4221039_0__SIEB_
  6
Continuous
 62
     7
100
AcDbLine
 10
36.125019599
 20
761.3592777933
 30
0.0
 11
34.7893053133
 21
761.3592777933
 31
0.0
  0
LINE
  5
2E9
330
5E
100
AcDbEntity
  8
4221039_0__SIEB_
  6
Continuous
 62
     7
100
AcDbLine
 10
33.1877930419
 20
761.1592777933
 30
0.0
 11
34.655103299
 21
761.1592777933
 31
0.0
  0
LINE
  5
2EA
330
5E
100
AcDbEntity
  8
4221039_0__SIEB_
  6
Continuous
 62
     7
100
AcDbLine
 10
34.5893053133
 20
761.3592777933
 30
0.0
 11
33.2535910276
 21
761.3592777933
 31
0.0
  0
LINE
  5
2EB
330
5E
100
AcDbEntity
  8
4221039_0__SIEB_
  6
Continuous
 62
     7
100
AcDbLine
 10
31.6520787562
 20
761.1592777933
 30
0.0
 11
33.1193890133
 21
761.1592777933
 31
0.0
  0
LINE
  5
2EC
330
5E
100
AcDbEntity
  8
4221039_0__SIEB_
  6
Continuous
 62
     7
100
AcDbLine
 10
33.0535910276
 20
761.3592777933
 30
0.0
 11
31.7178767419
 21
761.3592777933
 31
0.0
  0
LINE
  5
2ED
330
5E
100
AcDbEntity
  8
4221039_0__SIEB_
  6
Continuous
 62
     7
100
AcDbLine
 10
30.1163644705
 20
761.1592777933
 30
0.0
 11
31.5836747275
 21
761.1592777933
 31
0.0
  0
LINE
  5
2EE
330
5E
100
AcDbEntity
  8
4221039_0__SIEB_
  6
Continuous
 62
     7
100
AcDbLine
 10
31.5178767419
 20
761.3592777933
 30
0.0
 11
30.1821624562
 21
761.3592777933
 31
0.0
  0
LINE
  5
2EF
330
5E
100
AcDbEntity
  8
4221039_0__SIEB_
  6
Continuous
 62
     7
100
AcDbLine
 10
28.5806501848
 20
761.1592777933
 30
0.0
 11
30.0479604418
 21
761.1592777933
 31
0.0
  0
LINE
  5
2F0
330
5E
100
AcDbEntity
  8
4221039_0__SIEB_
  6
Continuous
 62
     7
100
AcDbLine
 10
29.9821624562
 20
761.3592777933
 30
0.0
 11
28.6464481704
 21
761.3592777933
 31
0.0
  0
LINE
  5
2F1
330
5E
100
AcDbEntity
  8
4221039_0__SIEB_
  6
Continuous
 62
     7
100
AcDbLine
 10
27.0449358991
 20
761.1592777933
 30
0.0
 11
28.5122461561
 21
761.1592777933
 31
0.0
  0
LINE
  5
2F2
330
5E
100
AcDbEntity
  8
4221039_0__SIEB_
  6
Continuous
 62
     7
100
AcDbLine
 10
28.4464481704
 20
761.3592777933
 30
0.0
 11
27.1107338847
 21
761.3592777933
 31
0.0
  0
LINE
  5
2F3
330
5E
100
AcDbEntity
  8
4221039_0__SIEB_
  6
Continuous
 62
     7
100
AcDbLine
 10
25.5092216133
 20
761.1592777933
 30
0.0
 11
26.9765318704
 21
761.1592777933
 31
0.0
  0
LINE
  5
2F4
330
5E
100
AcDbEntity
  8
4221039_0__SIEB_
  6
Continuous
 62
     7
100
AcDbLine
 10
26.9107338847
 20
761.3592777933
 30
0.0
 11
25.575019599
 21
761.3592777933
 31
0.0
  0
LINE
  5
2F5
330
5E
100
AcDbEntity
  8
4221039_0__SIEB_
  6
Continuous
 62
     7
100
AcDbLine
 10
23.9735073276
 20
761.1592777933
 30
0.0
 11
25.4408175847
 21
761.1592777933
 31
0.0
  0
LINE
  5
2F6
330
5E
100
AcDbEntity
  8
4221039_0__SIEB_
  6
Continuous
 62
     7
100
AcDbLine
 10
25.375019599
 20
761.3592777933
 30
0.0
 11
24.0393053133
 21
761.3592777933
 31
0.0
  0
LINE
  5
2F7
330
5E
100
AcDbEntity
  8
4221039_0__SIEB_
  6
Continuous
 62
     7
100
AcDbLine
 10
22.9202472306
 20
761.1592777933
 30
0.0
 11
23.905103299
 21
761.1592777933
 31
0.0
  0
LINE
  5
2F8
330
5E
100
AcDbEntity
  8
4221039_0__SIEB_
  6
Continuous
 62
     7
100
AcDbLine
 10
23.8393053133
 20
761.3592777933
 30
0.0
 11
22.9772542441
 21
761.3592777933
 31
0.0
  0
LINE
  5
2F9
330
5E
100
AcDbEntity
  8
4221039_0__SIEB_
  6
Continuous
 62
     7
100
AcDbLine
 10
39.1964481704
 20
761.1592777933
 30
0.0
 11
39.1964481704
 21
760.7682345875
 31
0.0
  0
LINE
  5
2FA
330
5E
100
AcDbEntity
  8
4221039_0__SIEB_
  6
Continuous
 62
     7
100
AcDbLine
 10
39.3964481704
 20
760.7682345875
 30
0.0
 11
39.3964481704
 21
761.1592777933
 31
0.0
  0
LINE
  5
2FB
330
5E
100
AcDbEntity
  8
4221039_0__SIEB_
  6
Continuous
 62
     7
100
AcDbLine
 10
37.6607338847
 20
761.1592777933
 30
0.0
 11
37.6607338847
 21
760.7682345875
 31
0.0
  0
LINE
  5
2FC
330
5E
100
AcDbEntity
  8
4221039_0__SIEB_
  6
Continuous
 62
     7
100
AcDbLine
 10
37.8607338847
 20
760.7682345875
 30
0.0
 11
37.8607338847
 21
761.1592777933
 31
0.0
  0
LINE
  5
2FD
330
5E
100
AcDbEntity
  8
4221039_0__SIEB_
  6
Continuous
 62
     7
100
AcDbLine
 10
36.125019599
 20
761.1592777933
 30
0.0
 11
36.125019599
 21
760.7682345875
 31
0.0
  0
LINE
  5
2FE
330
5E
100
AcDbEntity
  8
4221039_0__SIEB_
  6
Continuous
 62
     7
100
AcDbLine
 10
36.325019599
 20
760.7682345875
 30
0.0
 11
36.325019599
 21
761.1592777933
 31
0.0
  0
LINE
  5
2FF
330
5E
100
AcDbEntity
  8
4221039_0__SIEB_
  6
Continuous
 62
     7
100
AcDbLine
 10
34.5893053133
 20
761.1592777933
 30
0.0
 11
34.5893053133
 21
760.7682345875
 31
0.0
  0
LINE
  5
300
330
5E
100
AcDbEntity
  8
4221039_0__SIEB_
  6
Continuous
 62
     7
100
AcDbLine
 10
34.7893053133
 20
760.7682345875
 30
0.0
 11
34.7893053133
 21
761.1592777933
 31
0.0
  0
LINE
  5
301
330
5E
100
AcDbEntity
  8
4221039_0__SIEB_
  6
Continuous
 62
     7
100
AcDbLine
 10
33.0535910276
 20
761.1592777933
 30
0.0
 11
33.0535910276
 21
760.7682345875
 31
0.0
  0
LINE
  5
302
330
5E
100
AcDbEntity
  8
4221039_0__SIEB_
  6
Continuous
 62
     7
100
AcDbLine
 10
33.2535910276
 20
760.7682345875
 30
0.0
 11
33.2535910276
 21
761.1592777933
 31
0.0
  0
LINE
  5
303
330
5E
100
AcDbEntity
  8
4221039_0__SIEB_
  6
Continuous
 62
     7
100
AcDbLine
 10
31.5178767419
 20
761.1592777933
 30
0.0
 11
31.5178767419
 21
760.7682345875
 31
0.0
  0
LINE
  5
304
330
5E
100
AcDbEntity
  8
4221039_0__SIEB_
  6
Continuous
 62
     7
100
AcDbLine
 10
31.7178767419
 20
760.7682345875
 30
0.0
 11
31.7178767419
 21
761.1592777933
 31
0.0
  0
LINE
  5
305
330
5E
100
AcDbEntity
  8
4221039_0__SIEB_
  6
Continuous
 62
     7
100
AcDbLine
 10
29.9821624562
 20
761.1592777933
 30
0.0
 11
29.9821624562
 21
760.7682345875
 31
0.0
  0
LINE
  5
306
330
5E
100
AcDbEntity
  8
4221039_0__SIEB_
  6
Continuous
 62
     7
100
AcDbLine
 10
30.1821624562
 20
760.7682345875
 30
0.0
 11
30.1821624562
 21
761.1592777933
 31
0.0
  0
LINE
  5
307
330
5E
100
AcDbEntity
  8
4221039_0__SIEB_
  6
Continuous
 62
     7
100
AcDbLine
 10
28.4464481704
 20
761.1592777933
 30
0.0
 11
28.4464481704
 21
760.7682345875
 31
0.0
  0
LINE
  5
308
330
5E
100
AcDbEntity
  8
4221039_0__SIEB_
  6
Continuous
 62
     7
100
AcDbLine
 10
28.6464481704
 20
760.7682345875
 30
0.0
 11
28.6464481704
 21
761.1592777933
 31
0.0
  0
LINE
  5
309
330
5E
100
AcDbEntity
  8
4221039_0__SIEB_
  6
Continuous
 62
     7
100
AcDbLine
 10
26.9107338847
 20
761.1592777933
 30
0.0
 11
26.9107338847
 21
760.7682345875
 31
0.0
  0
LINE
  5
30A
330
5E
100
AcDbEntity
  8
4221039_0__SIEB_
  6
Continuous
 62
     7
100
AcDbLine
 10
27.1107338847
 20
760.7682345875
 30
0.0
 11
27.1107338847
 21
761.1592777933
 31
0.0
  0
LINE
  5
30B
330
5E
100
AcDbEntity
  8
4221039_0__SIEB_
  6
Continuous
 62
     7
100
AcDbLine
 10
25.375019599
 20
761.1592777933
 30
0.0
 11
25.375019599
 21
760.7682345875
 31
0.0
  0
LINE
  5
30C
330
5E
100
AcDbEntity
  8
4221039_0__SIEB_
  6
Continuous
 62
     7
100
AcDbLine
 10
25.575019599
 20
760.7682345875
 30
0.0
 11
25.575019599
 21
761.1592777933
 31
0.0
  0
LINE
  5
30D
330
5E
100
AcDbEntity
  8
4221039_0__SIEB_
  6
Continuous
 62
     7
100
AcDbLine
 10
23.8393053133
 20
761.1592777933
 30
0.0
 11
23.8393053133
 21
760.7682345875
 31
0.0
  0
LINE
  5
30E
330
5E
100
AcDbEntity
  8
4221039_0__SIEB_
  6
Continuous
 62
     7
100
AcDbLine
 10
24.0393053133
 20
760.7682345875
 30
0.0
 11
24.0393053133
 21
761.1592777933
 31
0.0
  0
LINE
  5
30F
330
5E
100
AcDbEntity
  8
4221039_0__SIEB_
  6
Continuous
 62
     7
100
AcDbLine
 10
22.5414967223
 20
760.6340325732
 30
0.0
 11
23.905103299
 21
760.6340325732
 31
0.0
  0
LINE
  5
310
330
5E
100
AcDbEntity
  8
4221039_0__SIEB_
  6
Continuous
 62
     7
100
AcDbLine
 10
23.8393053133
 20
760.8340325732
 30
0.0
 11
22.9950167758
 21
760.8340325732
 31
0.0
  0
LINE
  5
311
330
5E
100
AcDbEntity
  8
4221039_0__SIEB_
  6
Continuous
 62
     7
100
AcDbLine
 10
23.9735073276
 20
760.6340325732
 30
0.0
 11
25.4408175847
 21
760.6340325732
 31
0.0
  0
LINE
  5
312
330
5E
100
AcDbEntity
  8
4221039_0__SIEB_
  6
Continuous
 62
     7
100
AcDbLine
 10
25.375019599
 20
760.8340325732
 30
0.0
 11
24.0393053133
 21
760.8340325732
 31
0.0
  0
LINE
  5
313
330
5E
100
AcDbEntity
  8
4221039_0__SIEB_
  6
Continuous
 62
     7
100
AcDbLine
 10
25.5092216133
 20
760.6340325732
 30
0.0
 11
26.9765318704
 21
760.6340325732
 31
0.0
  0
LINE
  5
314
330
5E
100
AcDbEntity
  8
4221039_0__SIEB_
  6
Continuous
 62
     7
100
AcDbLine
 10
26.9107338847
 20
760.8340325732
 30
0.0
 11
25.575019599
 21
760.8340325732
 31
0.0
  0
LINE
  5
315
330
5E
100
AcDbEntity
  8
4221039_0__SIEB_
  6
Continuous
 62
     7
100
AcDbLine
 10
27.0449358991
 20
760.6340325732
 30
0.0
 11
28.5122461561
 21
760.6340325732
 31
0.0
  0
LINE
  5
316
330
5E
100
AcDbEntity
  8
4221039_0__SIEB_
  6
Continuous
 62
     7
100
AcDbLine
 10
28.4464481704
 20
760.8340325732
 30
0.0
 11
27.1107338847
 21
760.8340325732
 31
0.0
  0
LINE
  5
317
330
5E
100
AcDbEntity
  8
4221039_0__SIEB_
  6
Continuous
 62
     7
100
AcDbLine
 10
28.5806501848
 20
760.6340325732
 30
0.0
 11
30.0479604418
 21
760.6340325732
 31
0.0
  0
LINE
  5
318
330
5E
100
AcDbEntity
  8
4221039_0__SIEB_
  6
Continuous
 62
     7
100
AcDbLine
 10
29.9821624562
 20
760.8340325732
 30
0.0
 11
28.6464481704
 21
760.8340325732
 31
0.0
  0
LINE
  5
319
330
5E
100
AcDbEntity
  8
4221039_0__SIEB_
  6
Continuous
 62
     7
100
AcDbLine
 10
30.1163644705
 20
760.6340325732
 30
0.0
 11
31.5836747275
 21
760.6340325732
 31
0.0
  0
LINE
  5
31A
330
5E
100
AcDbEntity
  8
4221039_0__SIEB_
  6
Continuous
 62
     7
100
AcDbLine
 10
31.5178767419
 20
760.8340325732
 30
0.0
 11
30.1821624562
 21
760.8340325732
 31
0.0
  0
LINE
  5
31B
330
5E
100
AcDbEntity
  8
4221039_0__SIEB_
  6
Continuous
 62
     7
100
AcDbLine
 10
31.6520787562
 20
760.6340325732
 30
0.0
 11
33.1193890133
 21
760.6340325732
 31
0.0
  0
LINE
  5
31C
330
5E
100
AcDbEntity
  8
4221039_0__SIEB_
  6
Continuous
 62
     7
100
AcDbLine
 10
33.0535910276
 20
760.8340325732
 30
0.0
 11
31.7178767419
 21
760.8340325732
 31
0.0
  0
LINE
  5
31D
330
5E
100
AcDbEntity
  8
4221039_0__SIEB_
  6
Continuous
 62
     7
100
AcDbLine
 10
33.1877930419
 20
760.6340325732
 30
0.0
 11
34.655103299
 21
760.6340325732
 31
0.0
  0
LINE
  5
31E
330
5E
100
AcDbEntity
  8
4221039_0__SIEB_
  6
Continuous
 62
     7
100
AcDbLine
 10
34.5893053133
 20
760.8340325732
 30
0.0
 11
33.2535910276
 21
760.8340325732
 31
0.0
  0
LINE
  5
31F
330
5E
100
AcDbEntity
  8
4221039_0__SIEB_
  6
Continuous
 62
     7
100
AcDbLine
 10
34.7235073276
 20
760.6340325732
 30
0.0
 11
36.1908175847
 21
760.6340325732
 31
0.0
  0
LINE
  5
320
330
5E
100
AcDbEntity
  8
4221039_0__SIEB_
  6
Continuous
 62
     7
100
AcDbLine
 10
36.125019599
 20
760.8340325732
 30
0.0
 11
34.7893053133
 21
760.8340325732
 31
0.0
  0
LINE
  5
321
330
5E
100
AcDbEntity
  8
4221039_0__SIEB_
  6
Continuous
 62
     7
100
AcDbLine
 10
36.2592216133
 20
760.6340325732
 30
0.0
 11
37.7265318704
 21
760.6340325732
 31
0.0
  0
LINE
  5
322
330
5E
100
AcDbEntity
  8
4221039_0__SIEB_
  6
Continuous
 62
     7
100
AcDbLine
 10
37.6607338847
 20
760.8340325732
 30
0.0
 11
36.325019599
 21
760.8340325732
 31
0.0
  0
LINE
  5
323
330
5E
100
AcDbEntity
  8
4221039_0__SIEB_
  6
Continuous
 62
     7
100
AcDbLine
 10
37.7949358991
 20
760.6340325732
 30
0.0
 11
39.2622461561
 21
760.6340325732
 31
0.0
  0
LINE
  5
324
330
5E
100
AcDbEntity
  8
4221039_0__SIEB_
  6
Continuous
 62
     7
100
AcDbLine
 10
39.1964481704
 20
760.8340325732
 30
0.0
 11
37.8607338847
 21
760.8340325732
 31
0.0
  0
LINE
  5
325
330
5E
100
AcDbEntity
  8
4221039_0__SIEB_
  6
Continuous
 62
     7
100
AcDbLine
 10
39.3306501848
 20
760.6340325732
 30
0.0
 11
40.2656187097
 21
760.6340325732
 31
0.0
  0
LINE
  5
326
330
5E
100
AcDbEntity
  8
4221039_0__SIEB_
  6
Continuous
 62
     7
100
AcDbLine
 10
39.8121652794
 20
760.8340325732
 30
0.0
 11
39.3964481704
 21
760.8340325732
 31
0.0
  0
LINE
  5
327
330
5E
100
AcDbEntity
  8
4221039_0__SIEB_
  6
Continuous
 62
     7
100
AcDbLine
 10
23.8393053133
 20
760.6340325732
 30
0.0
 11
23.8393053133
 21
760.2429893674
 31
0.0
  0
LINE
  5
328
330
5E
100
AcDbEntity
  8
4221039_0__SIEB_
  6
Continuous
 62
     7
100
AcDbLine
 10
24.0393053133
 20
760.2429893674
 30
0.0
 11
24.0393053133
 21
760.6340325732
 31
0.0
  0
LINE
  5
329
330
5E
100
AcDbEntity
  8
4221039_0__SIEB_
  6
Continuous
 62
     7
100
AcDbLine
 10
25.375019599
 20
760.6340325732
 30
0.0
 11
25.375019599
 21
760.2429893674
 31
0.0
  0
LINE
  5
32A
330
5E
100
AcDbEntity
  8
4221039_0__SIEB_
  6
Continuous
 62
     7
100
AcDbLine
 10
25.575019599
 20
760.2429893674
 30
0.0
 11
25.575019599
 21
760.6340325732
 31
0.0
  0
LINE
  5
32B
330
5E
100
AcDbEntity
  8
4221039_0__SIEB_
  6
Continuous
 62
     7
100
AcDbLine
 10
26.9107338847
 20
760.6340325732
 30
0.0
 11
26.9107338847
 21
760.2429893674
 31
0.0
  0
LINE
  5
32C
330
5E
100
AcDbEntity
  8
4221039_0__SIEB_
  6
Continuous
 62
     7
100
AcDbLine
 10
27.1107338847
 20
760.2429893674
 30
0.0
 11
27.1107338847
 21
760.6340325732
 31
0.0
  0
LINE
  5
32D
330
5E
100
AcDbEntity
  8
4221039_0__SIEB_
  6
Continuous
 62
     7
100
AcDbLine
 10
28.4464481704
 20
760.6340325732
 30
0.0
 11
28.4464481704
 21
760.2429893674
 31
0.0
  0
LINE
  5
32E
330
5E
100
AcDbEntity
  8
4221039_0__SIEB_
  6
Continuous
 62
     7
100
AcDbLine
 10
28.6464481704
 20
760.2429893674
 30
0.0
 11
28.6464481704
 21
760.6340325732
 31
0.0
  0
LINE
  5
32F
330
5E
100
AcDbEntity
  8
4221039_0__SIEB_
  6
Continuous
 62
     7
100
AcDbLine
 10
29.9821624562
 20
760.6340325732
 30
0.0
 11
29.9821624562
 21
760.2429893674
 31
0.0
  0
LINE
  5
330
330
5E
100
AcDbEntity
  8
4221039_0__SIEB_
  6
Continuous
 62
     7
100
AcDbLine
 10
30.1821624562
 20
760.2429893674
 30
0.0
 11
30.1821624562
 21
760.6340325732
 31
0.0
  0
LINE
  5
331
330
5E
100
AcDbEntity
  8
4221039_0__SIEB_
  6
Continuous
 62
     7
100
AcDbLine
 10
31.5178767419
 20
760.6340325732
 30
0.0
 11
31.5178767419
 21
760.2429893674
 31
0.0
  0
LINE
  5
332
330
5E
100
AcDbEntity
  8
4221039_0__SIEB_
  6
Continuous
 62
     7
100
AcDbLine
 10
31.7178767419
 20
760.2429893674
 30
0.0
 11
31.7178767419
 21
760.6340325732
 31
0.0
  0
LINE
  5
333
330
5E
100
AcDbEntity
  8
4221039_0__SIEB_
  6
Continuous
 62
     7
100
AcDbLine
 10
33.0535910276
 20
760.6340325732
 30
0.0
 11
33.0535910276
 21
760.2429893674
 31
0.0
  0
LINE
  5
334
330
5E
100
AcDbEntity
  8
4221039_0__SIEB_
  6
Continuous
 62
     7
100
AcDbLine
 10
33.2535910276
 20
760.2429893674
 30
0.0
 11
33.2535910276
 21
760.6340325732
 31
0.0
  0
LINE
  5
335
330
5E
100
AcDbEntity
  8
4221039_0__SIEB_
  6
Continuous
 62
     7
100
AcDbLine
 10
34.5893053133
 20
760.6340325732
 30
0.0
 11
34.5893053133
 21
760.2429893674
 31
0.0
  0
LINE
  5
336
330
5E
100
AcDbEntity
  8
4221039_0__SIEB_
  6
Continuous
 62
     7
100
AcDbLine
 10
34.7893053133
 20
760.2429893674
 30
0.0
 11
34.7893053133
 21
760.6340325732
 31
0.0
  0
LINE
  5
337
330
5E
100
AcDbEntity
  8
4221039_0__SIEB_
  6
Continuous
 62
     7
100
AcDbLine
 10
36.125019599
 20
760.6340325732
 30
0.0
 11
36.125019599
 21
760.2429893674
 31
0.0
  0
LINE
  5
338
330
5E
100
AcDbEntity
  8
4221039_0__SIEB_
  6
Continuous
 62
     7
100
AcDbLine
 10
36.325019599
 20
760.2429893674
 30
0.0
 11
36.325019599
 21
760.6340325732
 31
0.0
  0
LINE
  5
339
330
5E
100
AcDbEntity
  8
4221039_0__SIEB_
  6
Continuous
 62
     7
100
AcDbLine
 10
37.6607338847
 20
760.6340325732
 30
0.0
 11
37.6607338847
 21
760.2429893674
 31
0.0
  0
LINE
  5
33A
330
5E
100
AcDbEntity
  8
4221039_0__SIEB_
  6
Continuous
 62
     7
100
AcDbLine
 10
37.8607338847
 20
760.2429893674
 30
0.0
 11
37.8607338847
 21
760.6340325732
 31
0.0
  0
LINE
  5
33B
330
5E
100
AcDbEntity
  8
4221039_0__SIEB_
  6
Continuous
 62
     7
100
AcDbLine
 10
39.1964481704
 20
760.6340325732
 30
0.0
 11
39.1964481704
 21
760.2429893674
 31
0.0
  0
LINE
  5
33C
330
5E
100
AcDbEntity
  8
4221039_0__SIEB_
  6
Continuous
 62
     7
100
AcDbLine
 10
39.3964481704
 20
760.270121793
 30
0.0
 11
39.3964481704
 21
760.6340325732
 31
0.0
  0
LINE
  5
33D
330
5E
100
AcDbEntity
  8
4221039_0__SIEB_
  6
Continuous
 62
     7
100
AcDbLine
 10
39.4364542458
 20
760.308787353
 30
0.0
 11
39.3964481704
 21
760.308787353
 31
0.0
  0
LINE
  5
33E
330
5E
100
AcDbEntity
  8
4221039_0__SIEB_
  6
Continuous
 62
     7
100
AcDbLine
 10
37.7949358991
 20
760.108787353
 30
0.0
 11
39.2622461561
 21
760.108787353
 31
0.0
  0
LINE
  5
33F
330
5E
100
AcDbEntity
  8
4221039_0__SIEB_
  6
Continuous
 62
     7
100
AcDbLine
 10
39.1964481704
 20
760.308787353
 30
0.0
 11
37.8607338847
 21
760.308787353
 31
0.0
  0
LINE
  5
340
330
5E
100
AcDbEntity
  8
4221039_0__SIEB_
  6
Continuous
 62
     7
100
AcDbLine
 10
36.2592216133
 20
760.108787353
 30
0.0
 11
37.7265318704
 21
760.108787353
 31
0.0
  0
LINE
  5
341
330
5E
100
AcDbEntity
  8
4221039_0__SIEB_
  6
Continuous
 62
     7
100
AcDbLine
 10
37.6607338847
 20
760.308787353
 30
0.0
 11
36.325019599
 21
760.308787353
 31
0.0
  0
LINE
  5
342
330
5E
100
AcDbEntity
  8
4221039_0__SIEB_
  6
Continuous
 62
     7
100
AcDbLine
 10
34.7235073276
 20
760.108787353
 30
0.0
 11
36.1908175847
 21
760.108787353
 31
0.0
  0
LINE
  5
343
330
5E
100
AcDbEntity
  8
4221039_0__SIEB_
  6
Continuous
 62
     7
100
AcDbLine
 10
36.125019599
 20
760.308787353
 30
0.0
 11
34.7893053133
 21
760.308787353
 31
0.0
  0
LINE
  5
344
330
5E
100
AcDbEntity
  8
4221039_0__SIEB_
  6
Continuous
 62
     7
100
AcDbLine
 10
33.1877930419
 20
760.108787353
 30
0.0
 11
34.655103299
 21
760.108787353
 31
0.0
  0
LINE
  5
345
330
5E
100
AcDbEntity
  8
4221039_0__SIEB_
  6
Continuous
 62
     7
100
AcDbLine
 10
34.5893053133
 20
760.308787353
 30
0.0
 11
33.2535910276
 21
760.308787353
 31
0.0
  0
LINE
  5
346
330
5E
100
AcDbEntity
  8
4221039_0__SIEB_
  6
Continuous
 62
     7
100
AcDbLine
 10
31.6520787562
 20
760.108787353
 30
0.0
 11
33.1193890133
 21
760.108787353
 31
0.0
  0
LINE
  5
347
330
5E
100
AcDbEntity
  8
4221039_0__SIEB_
  6
Continuous
 62
     7
100
AcDbLine
 10
33.0535910276
 20
760.308787353
 30
0.0
 11
31.7178767419
 21
760.308787353
 31
0.0
  0
LINE
  5
348
330
5E
100
AcDbEntity
  8
4221039_0__SIEB_
  6
Continuous
 62
     7
100
AcDbLine
 10
30.1163644705
 20
760.108787353
 30
0.0
 11
31.5836747275
 21
760.108787353
 31
0.0
  0
LINE
  5
349
330
5E
100
AcDbEntity
  8
4221039_0__SIEB_
  6
Continuous
 62
     7
100
AcDbLine
 10
31.5178767419
 20
760.308787353
 30
0.0
 11
30.1821624562
 21
760.308787353
 31
0.0
  0
LINE
  5
34A
330
5E
100
AcDbEntity
  8
4221039_0__SIEB_
  6
Continuous
 62
     7
100
AcDbLine
 10
28.5806501848
 20
760.108787353
 30
0.0
 11
30.0479604418
 21
760.108787353
 31
0.0
  0
LINE
  5
34B
330
5E
100
AcDbEntity
  8
4221039_0__SIEB_
  6
Continuous
 62
     7
100
AcDbLine
 10
29.9821624562
 20
760.308787353
 30
0.0
 11
28.6464481704
 21
760.308787353
 31
0.0
  0
LINE
  5
34C
330
5E
100
AcDbEntity
  8
4221039_0__SIEB_
  6
Continuous
 62
     7
100
AcDbLine
 10
27.0449358991
 20
760.108787353
 30
0.0
 11
28.5122461561
 21
760.108787353
 31
0.0
  0
LINE
  5
34D
330
5E
100
AcDbEntity
  8
4221039_0__SIEB_
  6
Continuous
 62
     7
100
AcDbLine
 10
28.4464481704
 20
760.308787353
 30
0.0
 11
27.1107338847
 21
760.308787353
 31
0.0
  0
LINE
  5
34E
330
5E
100
AcDbEntity
  8
4221039_0__SIEB_
  6
Continuous
 62
     7
100
AcDbLine
 10
25.5092216133
 20
760.108787353
 30
0.0
 11
26.9765318704
 21
760.108787353
 31
0.0
  0
LINE
  5
34F
330
5E
100
AcDbEntity
  8
4221039_0__SIEB_
  6
Continuous
 62
     7
100
AcDbLine
 10
26.9107338847
 20
760.308787353
 30
0.0
 11
25.575019599
 21
760.308787353
 31
0.0
  0
LINE
  5
350
330
5E
100
AcDbEntity
  8
4221039_0__SIEB_
  6
Continuous
 62
     7
100
AcDbLine
 10
23.9735073276
 20
760.108787353
 30
0.0
 11
25.4408175847
 21
760.108787353
 31
0.0
  0
LINE
  5
351
330
5E
100
AcDbEntity
  8
4221039_0__SIEB_
  6
Continuous
 62
     7
100
AcDbLine
 10
25.375019599
 20
760.308787353
 30
0.0
 11
24.0393053133
 21
760.308787353
 31
0.0
  0
LINE
  5
352
330
5E
100
AcDbEntity
  8
4221039_0__SIEB_
  6
Continuous
 62
     7
100
AcDbLine
 10
23.8393053133
 20
760.308787353
 30
0.0
 11
23.3707278093
 21
760.308787353
 31
0.0
  0
LINE
  5
353
330
5E
100
AcDbEntity
  8
4221039_0__SIEB_
  6
Continuous
 62
     7
100
AcDbLine
 10
39.1964481704
 20
760.108787353
 30
0.0
 11
39.1964481704
 21
760.0983535276
 31
0.0
  0
LINE
  5
354
330
5E
100
AcDbEntity
  8
4221039_0__SIEB_
  6
Continuous
 62
     7
100
AcDbLine
 10
37.6607338847
 20
760.108787353
 30
0.0
 11
37.6607338847
 21
759.7177441473
 31
0.0
  0
LINE
  5
355
330
5E
100
AcDbEntity
  8
4221039_0__SIEB_
  6
Continuous
 62
     7
100
AcDbLine
 10
37.8607338847
 20
759.7177441473
 30
0.0
 11
37.8607338847
 21
760.108787353
 31
0.0
  0
LINE
  5
356
330
5E
100
AcDbEntity
  8
4221039_0__SIEB_
  6
Continuous
 62
     7
100
AcDbLine
 10
36.125019599
 20
760.108787353
 30
0.0
 11
36.125019599
 21
759.7177441473
 31
0.0
  0
LINE
  5
357
330
5E
100
AcDbEntity
  8
4221039_0__SIEB_
  6
Continuous
 62
     7
100
AcDbLine
 10
36.325019599
 20
759.7177441473
 30
0.0
 11
36.325019599
 21
760.108787353
 31
0.0
  0
LINE
  5
358
330
5E
100
AcDbEntity
  8
4221039_0__SIEB_
  6
Continuous
 62
     7
100
AcDbLine
 10
34.5893053133
 20
760.108787353
 30
0.0
 11
34.5893053133
 21
759.7177441473
 31
0.0
  0
LINE
  5
359
330
5E
100
AcDbEntity
  8
4221039_0__SIEB_
  6
Continuous
 62
     7
100
AcDbLine
 10
34.7893053133
 20
759.7177441473
 30
0.0
 11
34.7893053133
 21
760.108787353
 31
0.0
  0
LINE
  5
35A
330
5E
100
AcDbEntity
  8
4221039_0__SIEB_
  6
Continuous
 62
     7
100
AcDbLine
 10
33.0535910276
 20
760.108787353
 30
0.0
 11
33.0535910276
 21
759.7177441473
 31
0.0
  0
LINE
  5
35B
330
5E
100
AcDbEntity
  8
4221039_0__SIEB_
  6
Continuous
 62
     7
100
AcDbLine
 10
33.2535910276
 20
759.7177441473
 30
0.0
 11
33.2535910276
 21
760.108787353
 31
0.0
  0
LINE
  5
35C
330
5E
100
AcDbEntity
  8
4221039_0__SIEB_
  6
Continuous
 62
     7
100
AcDbLine
 10
31.5178767419
 20
760.108787353
 30
0.0
 11
31.5178767419
 21
759.7177441473
 31
0.0
  0
LINE
  5
35D
330
5E
100
AcDbEntity
  8
4221039_0__SIEB_
  6
Continuous
 62
     7
100
AcDbLine
 10
31.7178767419
 20
759.7177441473
 30
0.0
 11
31.7178767419
 21
760.108787353
 31
0.0
  0
LINE
  5
35E
330
5E
100
AcDbEntity
  8
4221039_0__SIEB_
  6
Continuous
 62
     7
100
AcDbLine
 10
29.9821624562
 20
760.108787353
 30
0.0
 11
29.9821624562
 21
759.7177441473
 31
0.0
  0
LINE
  5
35F
330
5E
100
AcDbEntity
  8
4221039_0__SIEB_
  6
Continuous
 62
     7
100
AcDbLine
 10
30.1821624562
 20
759.7177441473
 30
0.0
 11
30.1821624562
 21
760.108787353
 31
0.0
  0
LINE
  5
360
330
5E
100
AcDbEntity
  8
4221039_0__SIEB_
  6
Continuous
 62
     7
100
AcDbLine
 10
28.4464481704
 20
760.108787353
 30
0.0
 11
28.4464481704
 21
759.7177441473
 31
0.0
  0
LINE
  5
361
330
5E
100
AcDbEntity
  8
4221039_0__SIEB_
  6
Continuous
 62
     7
100
AcDbLine
 10
28.6464481704
 20
759.7177441473
 30
0.0
 11
28.6464481704
 21
760.108787353
 31
0.0
  0
LINE
  5
362
330
5E
100
AcDbEntity
  8
4221039_0__SIEB_
  6
Continuous
 62
     7
100
AcDbLine
 10
26.9107338847
 20
760.108787353
 30
0.0
 11
26.9107338847
 21
759.7177441473
 31
0.0
  0
LINE
  5
363
330
5E
100
AcDbEntity
  8
4221039_0__SIEB_
  6
Continuous
 62
     7
100
AcDbLine
 10
27.1107338847
 20
759.7177441473
 30
0.0
 11
27.1107338847
 21
760.108787353
 31
0.0
  0
LINE
  5
364
330
5E
100
AcDbEntity
  8
4221039_0__SIEB_
  6
Continuous
 62
     7
100
AcDbLine
 10
25.375019599
 20
760.108787353
 30
0.0
 11
25.375019599
 21
759.7177441473
 31
0.0
  0
LINE
  5
365
330
5E
100
AcDbEntity
  8
4221039_0__SIEB_
  6
Continuous
 62
     7
100
AcDbLine
 10
25.575019599
 20
759.7177441473
 30
0.0
 11
25.575019599
 21
760.108787353
 31
0.0
  0
LINE
  5
366
330
5E
100
AcDbEntity
  8
4221039_0__SIEB_
  6
Continuous
 62
     7
100
AcDbLine
 10
23.8393053133
 20
760.108787353
 30
0.0
 11
23.8393053133
 21
759.9332457326
 31
0.0
  0
LINE
  5
367
330
5E
100
AcDbEntity
  8
4221039_0__SIEB_
  6
Continuous
 62
     7
100
AcDbLine
 10
24.0393053133
 20
759.8075122302
 30
0.0
 11
24.0393053133
 21
760.108787353
 31
0.0
  0
LINE
  5
368
330
5E
100
AcDbEntity
  8
4221039_0__SIEB_
  6
Continuous
 62
     7
100
AcDbLine
 10
23.9735073276
 20
759.5835421329
 30
0.0
 11
25.4408175847
 21
759.5835421329
 31
0.0
  0
LINE
  5
369
330
5E
100
AcDbEntity
  8
4221039_0__SIEB_
  6
Continuous
 62
     7
100
AcDbLine
 10
25.375019599
 20
759.7835421329
 30
0.0
 11
24.0801474876
 21
759.7835421329
 31
0.0
  0
LINE
  5
36A
330
5E
100
AcDbEntity
  8
4221039_0__SIEB_
  6
Continuous
 62
     7
100
AcDbLine
 10
25.5092216133
 20
759.5835421329
 30
0.0
 11
26.9765318704
 21
759.5835421329
 31
0.0
  0
LINE
  5
36B
330
5E
100
AcDbEntity
  8
4221039_0__SIEB_
  6
Continuous
 62
     7
100
AcDbLine
 10
26.9107338847
 20
759.7835421329
 30
0.0
 11
25.575019599
 21
759.7835421329
 31
0.0
  0
LINE
  5
36C
330
5E
100
AcDbEntity
  8
4221039_0__SIEB_
  6
Continuous
 62
     7
100
AcDbLine
 10
27.0449358991
 20
759.5835421329
 30
0.0
 11
28.5122461561
 21
759.5835421329
 31
0.0
  0
LINE
  5
36D
330
5E
100
AcDbEntity
  8
4221039_0__SIEB_
  6
Continuous
 62
     7
100
AcDbLine
 10
28.4464481704
 20
759.7835421329
 30
0.0
 11
27.1107338847
 21
759.7835421329
 31
0.0
  0
LINE
  5
36E
330
5E
100
AcDbEntity
  8
4221039_0__SIEB_
  6
Continuous
 62
     7
100
AcDbLine
 10
28.5806501848
 20
759.5835421329
 30
0.0
 11
30.0479604418
 21
759.5835421329
 31
0.0
  0
LINE
  5
36F
330
5E
100
AcDbEntity
  8
4221039_0__SIEB_
  6
Continuous
 62
     7
100
AcDbLine
 10
29.9821624562
 20
759.7835421329
 30
0.0
 11
28.6464481704
 21
759.7835421329
 31
0.0
  0
LINE
  5
370
330
5E
100
AcDbEntity
  8
4221039_0__SIEB_
  6
Continuous
 62
     7
100
AcDbLine
 10
30.1163644705
 20
759.5835421329
 30
0.0
 11
31.5836747275
 21
759.5835421329
 31
0.0
  0
LINE
  5
371
330
5E
100
AcDbEntity
  8
4221039_0__SIEB_
  6
Continuous
 62
     7
100
AcDbLine
 10
31.5178767419
 20
759.7835421329
 30
0.0
 11
30.1821624562
 21
759.7835421329
 31
0.0
  0
LINE
  5
372
330
5E
100
AcDbEntity
  8
4221039_0__SIEB_
  6
Continuous
 62
     7
100
AcDbLine
 10
31.6520787562
 20
759.5835421329
 30
0.0
 11
33.1193890133
 21
759.5835421329
 31
0.0
  0
LINE
  5
373
330
5E
100
AcDbEntity
  8
4221039_0__SIEB_
  6
Continuous
 62
     7
100
AcDbLine
 10
33.0535910276
 20
759.7835421329
 30
0.0
 11
31.7178767419
 21
759.7835421329
 31
0.0
  0
LINE
  5
374
330
5E
100
AcDbEntity
  8
4221039_0__SIEB_
  6
Continuous
 62
     7
100
AcDbLine
 10
33.1877930419
 20
759.5835421329
 30
0.0
 11
34.655103299
 21
759.5835421329
 31
0.0
  0
LINE
  5
375
330
5E
100
AcDbEntity
  8
4221039_0__SIEB_
  6
Continuous
 62
     7
100
AcDbLine
 10
34.5893053133
 20
759.7835421329
 30
0.0
 11
33.2535910276
 21
759.7835421329
 31
0.0
  0
LINE
  5
376
330
5E
100
AcDbEntity
  8
4221039_0__SIEB_
  6
Continuous
 62
     7
100
AcDbLine
 10
34.7235073276
 20
759.5835421329
 30
0.0
 11
36.1908175847
 21
759.5835421329
 31
0.0
  0
LINE
  5
377
330
5E
100
AcDbEntity
  8
4221039_0__SIEB_
  6
Continuous
 62
     7
100
AcDbLine
 10
36.125019599
 20
759.7835421329
 30
0.0
 11
34.7893053133
 21
759.7835421329
 31
0.0
  0
LINE
  5
378
330
5E
100
AcDbEntity
  8
4221039_0__SIEB_
  6
Continuous
 62
     7
100
AcDbLine
 10
36.2592216133
 20
759.5835421329
 30
0.0
 11
37.7265318704
 21
759.5835421329
 31
0.0
  0
LINE
  5
379
330
5E
100
AcDbEntity
  8
4221039_0__SIEB_
  6
Continuous
 62
     7
100
AcDbLine
 10
37.6607338847
 20
759.7835421329
 30
0.0
 11
36.325019599
 21
759.7835421329
 31
0.0
  0
LINE
  5
37A
330
5E
100
AcDbEntity
  8
4221039_0__SIEB_
  6
Continuous
 62
     7
100
AcDbLine
 10
37.7949358991
 20
759.5835421329
 30
0.0
 11
39.1146761999
 21
759.5835421329
 31
0.0
  0
LINE
  5
37B
330
5E
100
AcDbEntity
  8
4221039_0__SIEB_
  6
Continuous
 62
     7
100
AcDbLine
 10
38.7270345676
 20
759.7835421329
 30
0.0
 11
37.8607338847
 21
759.7835421329
 31
0.0
  0
LINE
  5
37C
330
5E
100
AcDbEntity
  8
4221039_0__SIEB_
  6
Continuous
 62
     7
100
AcDbLine
 10
25.375019599
 20
759.5835421329
 30
0.0
 11
25.375019599
 21
759.2098285235
 31
0.0
  0
LINE
  5
37D
330
5E
100
AcDbEntity
  8
4221039_0__SIEB_
  6
Continuous
 62
     7
100
AcDbLine
 10
25.575019599
 20
759.1924989272
 30
0.0
 11
25.575019599
 21
759.5835421329
 31
0.0
  0
LINE
  5
37E
330
5E
100
AcDbEntity
  8
4221039_0__SIEB_
  6
Continuous
 62
     7
100
AcDbLine
 10
26.9107338847
 20
759.5835421329
 30
0.0
 11
26.9107338847
 21
759.1924989272
 31
0.0
  0
LINE
  5
37F
330
5E
100
AcDbEntity
  8
4221039_0__SIEB_
  6
Continuous
 62
     7
100
AcDbLine
 10
27.1107338847
 20
759.1924989272
 30
0.0
 11
27.1107338847
 21
759.5835421329
 31
0.0
  0
LINE
  5
380
330
5E
100
AcDbEntity
  8
4221039_0__SIEB_
  6
Continuous
 62
     7
100
AcDbLine
 10
28.4464481704
 20
759.5835421329
 30
0.0
 11
28.4464481704
 21
759.1924989272
 31
0.0
  0
LINE
  5
381
330
5E
100
AcDbEntity
  8
4221039_0__SIEB_
  6
Continuous
 62
     7
100
AcDbLine
 10
28.6464481704
 20
759.1924989272
 30
0.0
 11
28.6464481704
 21
759.5835421329
 31
0.0
  0
LINE
  5
382
330
5E
100
AcDbEntity
  8
4221039_0__SIEB_
  6
Continuous
 62
     7
100
AcDbLine
 10
29.9821624562
 20
759.5835421329
 30
0.0
 11
29.9821624562
 21
759.1924989272
 31
0.0
  0
LINE
  5
383
330
5E
100
AcDbEntity
  8
4221039_0__SIEB_
  6
Continuous
 62
     7
100
AcDbLine
 10
30.1821624562
 20
759.1924989272
 30
0.0
 11
30.1821624562
 21
759.5835421329
 31
0.0
  0
LINE
  5
384
330
5E
100
AcDbEntity
  8
4221039_0__SIEB_
  6
Continuous
 62
     7
100
AcDbLine
 10
31.5178767419
 20
759.5835421329
 30
0.0
 11
31.5178767419
 21
759.1924989272
 31
0.0
  0
LINE
  5
385
330
5E
100
AcDbEntity
  8
4221039_0__SIEB_
  6
Continuous
 62
     7
100
AcDbLine
 10
31.7178767419
 20
759.1924989272
 30
0.0
 11
31.7178767419
 21
759.5835421329
 31
0.0
  0
LINE
  5
386
330
5E
100
AcDbEntity
  8
4221039_0__SIEB_
  6
Continuous
 62
     7
100
AcDbLine
 10
33.0535910276
 20
759.5835421329
 30
0.0
 11
33.0535910276
 21
759.1924989272
 31
0.0
  0
LINE
  5
387
330
5E
100
AcDbEntity
  8
4221039_0__SIEB_
  6
Continuous
 62
     7
100
AcDbLine
 10
33.2535910276
 20
759.1924989272
 30
0.0
 11
33.2535910276
 21
759.5835421329
 31
0.0
  0
LINE
  5
388
330
5E
100
AcDbEntity
  8
4221039_0__SIEB_
  6
Continuous
 62
     7
100
AcDbLine
 10
34.5893053133
 20
759.5835421329
 30
0.0
 11
34.5893053133
 21
759.1924989272
 31
0.0
  0
LINE
  5
389
330
5E
100
AcDbEntity
  8
4221039_0__SIEB_
  6
Continuous
 62
     7
100
AcDbLine
 10
34.7893053133
 20
759.1924989272
 30
0.0
 11
34.7893053133
 21
759.5835421329
 31
0.0
  0
LINE
  5
38A
330
5E
100
AcDbEntity
  8
4221039_0__SIEB_
  6
Continuous
 62
     7
100
AcDbLine
 10
36.125019599
 20
759.5835421329
 30
0.0
 11
36.125019599
 21
759.1924989272
 31
0.0
  0
LINE
  5
38B
330
5E
100
AcDbEntity
  8
4221039_0__SIEB_
  6
Continuous
 62
     7
100
AcDbLine
 10
36.325019599
 20
759.1924989272
 30
0.0
 11
36.325019599
 21
759.5835421329
 31
0.0
  0
LINE
  5
38C
330
5E
100
AcDbEntity
  8
4221039_0__SIEB_
  6
Continuous
 62
     7
100
AcDbLine
 10
37.6607338847
 20
759.5835421329
 30
0.0
 11
37.6607338847
 21
759.291601598
 31
0.0
  0
LINE
  5
38D
330
5E
100
AcDbEntity
  8
4221039_0__SIEB_
  6
Continuous
 62
     7
100
AcDbLine
 10
37.8607338847
 20
759.368698033
 30
0.0
 11
37.8607338847
 21
759.5835421329
 31
0.0
  0
LINE
  5
38E
330
5E
100
AcDbEntity
  8
4221039_0__SIEB_
  6
Continuous
 62
     7
100
AcDbLine
 10
36.2592216133
 20
759.0582969128
 30
0.0
 11
37.7265318704
 21
759.0582969128
 31
0.0
  0
LINE
  5
38F
330
5E
100
AcDbEntity
  8
4221039_0__SIEB_
  6
Continuous
 62
     7
100
AcDbLine
 10
37.5697829115
 20
759.2582969128
 30
0.0
 11
36.325019599
 21
759.2582969128
 31
0.0
  0
LINE
  5
390
330
5E
100
AcDbEntity
  8
4221039_0__SIEB_
  6
Continuous
 62
     7
100
AcDbLine
 10
34.7235073276
 20
759.0582969128
 30
0.0
 11
36.1908175847
 21
759.0582969128
 31
0.0
  0
LINE
  5
391
330
5E
100
AcDbEntity
  8
4221039_0__SIEB_
  6
Continuous
 62
     7
100
AcDbLine
 10
36.125019599
 20
759.2582969128
 30
0.0
 11
34.7893053133
 21
759.2582969128
 31
0.0
  0
LINE
  5
392
330
5E
100
AcDbEntity
  8
4221039_0__SIEB_
  6
Continuous
 62
     7
100
AcDbLine
 10
33.1877930419
 20
759.0582969128
 30
0.0
 11
34.655103299
 21
759.0582969128
 31
0.0
  0
LINE
  5
393
330
5E
100
AcDbEntity
  8
4221039_0__SIEB_
  6
Continuous
 62
     7
100
AcDbLine
 10
34.5893053133
 20
759.2582969128
 30
0.0
 11
33.2535910276
 21
759.2582969128
 31
0.0
  0
LINE
  5
394
330
5E
100
AcDbEntity
  8
4221039_0__SIEB_
  6
Continuous
 62
     7
100
AcDbLine
 10
31.6520787562
 20
759.0582969128
 30
0.0
 11
33.1193890133
 21
759.0582969128
 31
0.0
  0
LINE
  5
395
330
5E
100
AcDbEntity
  8
4221039_0__SIEB_
  6
Continuous
 62
     7
100
AcDbLine
 10
33.0535910276
 20
759.2582969128
 30
0.0
 11
31.7178767419
 21
759.2582969128
 31
0.0
  0
LINE
  5
396
330
5E
100
AcDbEntity
  8
4221039_0__SIEB_
  6
Continuous
 62
     7
100
AcDbLine
 10
30.1163644705
 20
759.0582969128
 30
0.0
 11
31.5836747275
 21
759.0582969128
 31
0.0
  0
LINE
  5
397
330
5E
100
AcDbEntity
  8
4221039_0__SIEB_
  6
Continuous
 62
     7
100
AcDbLine
 10
31.5178767419
 20
759.2582969128
 30
0.0
 11
30.1821624562
 21
759.2582969128
 31
0.0
  0
LINE
  5
398
330
5E
100
AcDbEntity
  8
4221039_0__SIEB_
  6
Continuous
 62
     7
100
AcDbLine
 10
28.5806501848
 20
759.0582969128
 30
0.0
 11
30.0479604418
 21
759.0582969128
 31
0.0
  0
LINE
  5
399
330
5E
100
AcDbEntity
  8
4221039_0__SIEB_
  6
Continuous
 62
     7
100
AcDbLine
 10
29.9821624562
 20
759.2582969128
 30
0.0
 11
28.6464481704
 21
759.2582969128
 31
0.0
  0
LINE
  5
39A
330
5E
100
AcDbEntity
  8
4221039_0__SIEB_
  6
Continuous
 62
     7
100
AcDbLine
 10
27.0449358991
 20
759.0582969128
 30
0.0
 11
28.5122461561
 21
759.0582969128
 31
0.0
  0
LINE
  5
39B
330
5E
100
AcDbEntity
  8
4221039_0__SIEB_
  6
Continuous
 62
     7
100
AcDbLine
 10
28.4464481704
 20
759.2582969128
 30
0.0
 11
27.1107338847
 21
759.2582969128
 31
0.0
  0
LINE
  5
39C
330
5E
100
AcDbEntity
  8
4221039_0__SIEB_
  6
Continuous
 62
     7
100
AcDbLine
 10
25.5092216133
 20
759.0582969128
 30
0.0
 11
26.9765318704
 21
759.0582969128
 31
0.0
  0
LINE
  5
39D
330
5E
100
AcDbEntity
  8
4221039_0__SIEB_
  6
Continuous
 62
     7
100
AcDbLine
 10
26.9107338847
 20
759.2582969128
 30
0.0
 11
25.575019599
 21
759.2582969128
 31
0.0
  0
LINE
  5
39E
330
5E
100
AcDbEntity
  8
4221039_0__SIEB_
  6
Continuous
 62
     7
100
AcDbLine
 10
25.375019599
 20
759.2582969128
 30
0.0
 11
25.2373991437
 21
759.2582969128
 31
0.0
  0
LINE
  5
39F
330
5E
100
AcDbEntity
  8
4221039_0__SIEB_
  6
Continuous
 62
     7
100
AcDbLine
 10
36.125019599
 20
759.0582969128
 30
0.0
 11
36.125019599
 21
758.8418434125
 31
0.0
  0
LINE
  5
3A0
330
5E
100
AcDbEntity
  8
4221039_0__SIEB_
  6
Continuous
 62
     7
100
AcDbLine
 10
36.325019599
 20
758.8889636824
 30
0.0
 11
36.325019599
 21
759.0582969128
 31
0.0
  0
LINE
  5
3A1
330
5E
100
AcDbEntity
  8
4221039_0__SIEB_
  6
Continuous
 62
     7
100
AcDbLine
 10
34.5893053133
 20
759.0582969128
 30
0.0
 11
34.5893053133
 21
758.6672537071
 31
0.0
  0
LINE
  5
3A2
330
5E
100
AcDbEntity
  8
4221039_0__SIEB_
  6
Continuous
 62
     7
100
AcDbLine
 10
34.7893053133
 20
758.6672537071
 30
0.0
 11
34.7893053133
 21
759.0582969128
 31
0.0
  0
LINE
  5
3A3
330
5E
100
AcDbEntity
  8
4221039_0__SIEB_
  6
Continuous
 62
     7
100
AcDbLine
 10
33.0535910276
 20
759.0582969128
 30
0.0
 11
33.0535910276
 21
758.6672537071
 31
0.0
  0
LINE
  5
3A4
330
5E
100
AcDbEntity
  8
4221039_0__SIEB_
  6
Continuous
 62
     7
100
AcDbLine
 10
33.2535910276
 20
758.6672537071
 30
0.0
 11
33.2535910276
 21
759.0582969128
 31
0.0
  0
LINE
  5
3A5
330
5E
100
AcDbEntity
  8
4221039_0__SIEB_
  6
Continuous
 62
     7
100
AcDbLine
 10
31.5178767419
 20
759.0582969128
 30
0.0
 11
31.5178767419
 21
758.6672537071
 31
0.0
  0
LINE
  5
3A6
330
5E
100
AcDbEntity
  8
4221039_0__SIEB_
  6
Continuous
 62
     7
100
AcDbLine
 10
31.7178767419
 20
758.6672537071
 30
0.0
 11
31.7178767419
 21
759.0582969128
 31
0.0
  0
LINE
  5
3A7
330
5E
100
AcDbEntity
  8
4221039_0__SIEB_
  6
Continuous
 62
     7
100
AcDbLine
 10
29.9821624562
 20
759.0582969128
 30
0.0
 11
29.9821624562
 21
758.6672537071
 31
0.0
  0
LINE
  5
3A8
330
5E
100
AcDbEntity
  8
4221039_0__SIEB_
  6
Continuous
 62
     7
100
AcDbLine
 10
30.1821624562
 20
758.6672537071
 30
0.0
 11
30.1821624562
 21
759.0582969128
 31
0.0
  0
LINE
  5
3A9
330
5E
100
AcDbEntity
  8
4221039_0__SIEB_
  6
Continuous
 62
     7
100
AcDbLine
 10
28.4464481704
 20
759.0582969128
 30
0.0
 11
28.4464481704
 21
758.6672537071
 31
0.0
  0
LINE
  5
3AA
330
5E
100
AcDbEntity
  8
4221039_0__SIEB_
  6
Continuous
 62
     7
100
AcDbLine
 10
28.6464481704
 20
758.6672537071
 30
0.0
 11
28.6464481704
 21
759.0582969128
 31
0.0
  0
LINE
  5
3AB
330
5E
100
AcDbEntity
  8
4221039_0__SIEB_
  6
Continuous
 62
     7
100
AcDbLine
 10
26.9107338847
 20
759.0582969128
 30
0.0
 11
26.9107338847
 21
758.7914126205
 31
0.0
  0
LINE
  5
3AC
330
5E
100
AcDbEntity
  8
4221039_0__SIEB_
  6
Continuous
 62
     7
100
AcDbLine
 10
27.1107338847
 20
758.7501135542
 30
0.0
 11
27.1107338847
 21
759.0582969128
 31
0.0
  0
LINE
  5
3AD
330
5E
100
AcDbEntity
  8
4221039_0__SIEB_
  6
Continuous
 62
     7
100
AcDbLine
 10
28.4464481704
 20
758.7330516927
 30
0.0
 11
27.197145654
 21
758.7330516927
 31
0.0
  0
LINE
  5
3AE
330
5E
100
AcDbEntity
  8
4221039_0__SIEB_
  6
Continuous
 62
     7
100
AcDbLine
 10
28.5806501848
 20
758.5330516927
 30
0.0
 11
30.0479604418
 21
758.5330516927
 31
0.0
  0
LINE
  5
3AF
330
5E
100
AcDbEntity
  8
4221039_0__SIEB_
  6
Continuous
 62
     7
100
AcDbLine
 10
29.9821624562
 20
758.7330516927
 30
0.0
 11
28.6464481704
 21
758.7330516927
 31
0.0
  0
LINE
  5
3B0
330
5E
100
AcDbEntity
  8
4221039_0__SIEB_
  6
Continuous
 62
     7
100
AcDbLine
 10
30.1163644705
 20
758.5330516927
 30
0.0
 11
31.5836747275
 21
758.5330516927
 31
0.0
  0
LINE
  5
3B1
330
5E
100
AcDbEntity
  8
4221039_0__SIEB_
  6
Continuous
 62
     7
100
AcDbLine
 10
31.5178767419
 20
758.7330516927
 30
0.0
 11
30.1821624562
 21
758.7330516927
 31
0.0
  0
LINE
  5
3B2
330
5E
100
AcDbEntity
  8
4221039_0__SIEB_
  6
Continuous
 62
     7
100
AcDbLine
 10
31.6520787562
 20
758.5330516927
 30
0.0
 11
33.1193890133
 21
758.5330516927
 31
0.0
  0
LINE
  5
3B3
330
5E
100
AcDbEntity
  8
4221039_0__SIEB_
  6
Continuous
 62
     7
100
AcDbLine
 10
33.0535910276
 20
758.7330516927
 30
0.0
 11
31.7178767419
 21
758.7330516927
 31
0.0
  0
LINE
  5
3B4
330
5E
100
AcDbEntity
  8
4221039_0__SIEB_
  6
Continuous
 62
     7
100
AcDbLine
 10
33.1877930419
 20
758.5330516927
 30
0.0
 11
34.655103299
 21
758.5330516927
 31
0.0
  0
LINE
  5
3B5
330
5E
100
AcDbEntity
  8
4221039_0__SIEB_
  6
Continuous
 62
     7
100
AcDbLine
 10
34.5893053133
 20
758.7330516927
 30
0.0
 11
33.2535910276
 21
758.7330516927
 31
0.0
  0
LINE
  5
3B6
330
5E
100
AcDbEntity
  8
4221039_0__SIEB_
  6
Continuous
 62
     7
100
AcDbLine
 10
35.6100364011
 20
758.7330516927
 30
0.0
 11
34.7893053133
 21
758.7330516927
 31
0.0
  0
LINE
  5
3B7
330
5E
100
AcDbEntity
  8
4221039_0__SIEB_
  6
Continuous
 62
     7
100
AcDbLine
 10
28.6464481704
 20
758.5092962444
 30
0.0
 11
28.6464481704
 21
758.5330516927
 31
0.0
  0
LINE
  5
3B8
330
5E
100
AcDbEntity
  8
4221039_0__SIEB_
  6
Continuous
 62
     7
100
AcDbLine
 10
29.9821624562
 20
758.5330516927
 30
0.0
 11
29.9821624562
 21
758.3930440858
 31
0.0
  0
LINE
  5
3B9
330
5E
100
AcDbEntity
  8
4221039_0__SIEB_
  6
Continuous
 62
     7
100
AcDbLine
 10
30.1821624562
 20
758.3822781796
 30
0.0
 11
30.1821624562
 21
758.5330516927
 31
0.0
  0
LINE
  5
3BA
330
5E
100
AcDbEntity
  8
4221039_0__SIEB_
  6
Continuous
 62
     7
100
AcDbLine
 10
31.5178767419
 20
758.5330516927
 30
0.0
 11
31.5178767419
 21
758.3523693635
 31
0.0
  0
LINE
  5
3BB
330
5E
100
AcDbEntity
  8
4221039_0__SIEB_
  6
Continuous
 62
     7
100
AcDbLine
 10
31.7178767419
 20
758.3540945026
 30
0.0
 11
31.7178767419
 21
758.5330516927
 31
0.0
  0
LINE
  5
3BC
330
5E
100
AcDbEntity
  8
4221039_0__SIEB_
  6
Continuous
 62
     7
100
AcDbLine
 10
33.0535910276
 20
758.5330516927
 30
0.0
 11
33.0535910276
 21
758.4074060411
 31
0.0
  0
LINE
  5
3BD
330
5E
100
AcDbEntity
  8
4221039_0__SIEB_
  6
Continuous
 62
     7
100
AcDbLine
 10
33.2535910276
 20
758.4217986223
 30
0.0
 11
33.2535910276
 21
758.5330516927
 31
0.0
  0
SPLINE
  5
3BF
330
5E
100
AcDbEntity
  8
$DDT_AUDIT_GENERATED_(3BE)
  6
Continuous
 62
     7
100
AcDbSpline
210
0.0
220
0.0
230
1.0
 70
     8
 71
     3
 72
    42
 73
    38
 74
     0
 42
0.0000000002640835
 43
0.0000000001
 40
0.0
 40
0.0
 40
0.0
 40
0.0
 40
0.2500000000000032
 40
0.2500000000000032
 40
0.3125000000000039
 40
0.3125000000000039
 40
0.3437500000000042
 40
0.3437500000000042
 40
0.3750000000000046
 40
0.3750000000000046
 40
0.3906250000000046
 40
0.3906250000000046
 40
0.4062500000000047
 40
0.4062500000000047
 40
0.4375000000000046
 40
0.4375000000000046
 40
0.4687500000000044
 40
0.4687500000000044
 40
0.4843750000000043
 40
0.4843750000000043
 40
0.5000000000000042
 40
0.5000000000000042
 40
0.562500000000004
 40
0.562500000000004
 40
0.5937500000000039
 40
0.5937500000000039
 40
0.6093750000000039
 40
0.6093750000000039
 40
0.625000000000004
 40
0.625000000000004
 40
0.6562500000000039
 40
0.6562500000000039
 40
0.6875000000000037
 40
0.6875000000000037
 40
0.7500000000000031
 40
0.7500000000000031
 40
1.0
 40
1.0
 40
1.0
 40
1.0
 10
45.75080428084618
 20
825.3309483063225
 30
0.0
 10
45.73933960192561
 20
826.9375410648278
 30
0.0
 10
45.70125502736565
 20
828.2284964933107
 30
0.0
 10
45.7359131764752
 20
829.2699574565473
 30
0.0
 10
45.74935656374468
 20
829.4511825647446
 30
0.0
 10
45.78556453376947
 20
829.6547292436085
 30
0.0
 10
45.80363424554556
 20
829.7101453080822
 30
0.0
 10
45.81570927615233
 20
829.7833117289284
 30
0.0
 10
45.83327265349259
 20
829.8086920675033
 30
0.0
 10
45.5492027655087
 20
829.882145493158
 30
0.0
 10
45.39087642603582
 20
829.907399208797
 30
0.0
 10
44.8929548568014
 20
829.9417664179682
 30
0.0
 10
44.55246982881312
 20
829.9504252754878
 30
0.0
 10
43.29732825601069
 20
829.9613946340725
 30
0.0
 10
42.17381810929699
 20
829.9514791379672
 30
0.0
 10
39.55154198096275
 20
829.9272378847267
 30
0.0
 10
38.04693179858726
 20
829.9139836353812
 30
0.0
 10
35.64205462162365
 20
829.9085847899707
 30
0.0
 10
34.81887635170758
 20
829.9089147244118
 30
0.0
 10
33.12571569932117
 20
829.9111756927749
 30
0.0
 10
32.24747326462001
 20
829.9127889674965
 30
0.0
 10
27.93350962653173
 20
829.9127028292304
 30
0.0
 10
24.51351124777782
 20
829.9156250446655
 30
0.0
 10
20.60942396325212
 20
829.9516606324272
 30
0.0
 10
19.47829115921132
 20
829.961351963062
 30
0.0
 10
18.24761182395899
 20
829.9502478392642
 30
0.0
 10
17.91034634744459
 20
829.9417408599065
 30
0.0
 10
17.40657836712171
 20
829.9065522057122
 30
0.0
 10
17.2529887752499
 20
829.8811491617138
 30
0.0
 10
16.97525376385351
 20
829.8084474434758
 30
0.0
 10
16.99134173855093
 20
829.7830411311451
 30
0.0
 10
17.0037763727229
 20
829.7097416100388
 30
0.0
 10
17.02171563382651
 20
829.6542792336406
 30
0.0
 10
17.05790560470519
 20
829.4506608954345
 30
0.0
 10
17.07130439341242
 20
829.269440470906
 30
0.0
 10
17.10590799519946
 20
828.2281611151114
 30
0.0
 10
17.06784191862923
 20
826.9371179057742
 30
0.0
 10
17.05638021066991
 20
825.3309710345106
 30
0.0
  0
SPLINE
  5
3C0
330
5E
100
AcDbEntity
  8
$DDT_AUDIT_GENERATED_(3BE)
  6
Continuous
 62
     7
100
AcDbSpline
210
0.0
220
0.0
230
1.0
 70
     8
 71
     3
 72
    16
 73
    12
 74
     0
 42
0.0000000049722805
 43
0.0000000001
 40
0.0
 40
0.0
 40
0.0
 40
0.0
 40
0.2500000000000006
 40
0.2500000000000006
 40
0.3749999999999999
 40
0.3749999999999999
 40
0.4999999999999993
 40
0.4999999999999993
 40
0.7499999999999997
 40
0.7499999999999997
 40
1.0
 40
1.0
 40
1.0
 40
1.0
 10
46.67153796054615
 20
826.321184082495
 30
0.0
 10
46.67187921992907
 20
826.2655687620052
 30
0.0
 10
46.71352690169144
 20
826.2142287924025
 30
0.0
 10
46.83592521515195
 20
826.1437532091143
 30
0.0
 10
46.88679021538717
 20
826.121365276278
 30
0.0
 10
47.00926804365468
 20
826.0790137946109
 30
0.0
 10
47.08101839729849
 20
826.0590778727415
 30
0.0
 10
47.32263194398488
 20
826.0046372104315
 30
0.0
 10
47.5198828346475
 20
825.9748845885962
 30
0.0
 10
47.9874251492224
 20
825.9310893475888
 30
0.0
 10
48.258472126921
 20
825.9172186829198
 30
0.0
 10
48.55886247166458
 20
825.9140342125614
 30
0.0
  0
LINE
  5
3C1
330
5E
100
AcDbEntity
  8
$DDT_AUDIT_GENERATED_(3BE)
  6
Continuous
 62
     7
100
AcDbLine
 10
14.2483195512
 20
825.9140451183
 30
0.0
 11
14.2485888868
 21
828.208134194
 31
0.0
  0
SPLINE
  5
3C2
330
5E
100
AcDbEntity
  8
$DDT_AUDIT_GENERATED_(3BE)
  6
Continuous
 62
     7
100
AcDbSpline
210
0.0
220
0.0
230
1.0
 70
     8
 71
     3
 72
    16
 73
    12
 74
     0
 42
0.0000000049703849
 43
0.0000000001
 40
0.0
 40
0.0
 40
0.0
 40
0.0
 40
0.2500000000000014
 40
0.2500000000000014
 40
0.3750000000000021
 40
0.3750000000000021
 40
0.5000000000000028
 40
0.5000000000000028
 40
0.7500000000000013
 40
0.7500000000000013
 40
1.0
 40
1.0
 40
1.0
 40
1.0
 10
14.24831955123217
 20
825.914045118292
 30
0.0
 10
14.54862170645334
 20
825.9172324760258
 30
0.0
 10
14.81462176088797
 20
825.9308104262104
 30
0.0
 10
15.16453009102687
 20
825.9633148552805
 30
0.0
 10
15.27291699514487
 20
825.9762046204355
 30
0.0
 10
15.47278822545193
 20
826.0058398009182
 30
0.0
 10
15.56382260697232
 20
826.0225584480909
 30
0.0
 10
15.80556140366803
 20
826.0769152341434
 30
0.0
 10
15.92748149908133
 20
826.1189969474422
 30
0.0
 10
16.09291282019504
 20
826.2134075787961
 30
0.0
 10
16.13530291810198
 20
826.26560919994
 30
0.0
 10
16.13564405307111
 20
826.3212070289128
 30
0.0
  0
SPLINE
  5
3C3
330
5E
100
AcDbEntity
  8
$DDT_AUDIT_GENERATED_(3BE)
  6
Continuous
 62
     7
100
AcDbSpline
210
0.0
220
0.0
230
1.0
 70
     8
 71
     3
 72
    10
 73
     6
 74
     0
 42
0.0000000006820096
 43
0.0000000001
 40
0.0
 40
0.0
 40
0.0
 40
0.0
 40
0.2500000000000004
 40
0.2500000000000004
 40
0.2707807871026182
 40
0.2707807871026182
 40
0.2707807871026182
 40
0.2707807871026182
 10
16.13564405307111
 20
826.3212070289128
 30
0.0
 10
16.14730449157944
 20
827.9535895627005
 30
0.0
 10
16.18685242035414
 20
829.2611756850572
 30
0.0
 10
16.15796524095186
 20
830.1621310838658
 30
0.0
 10
16.15490597553191
 20
830.22815434576
 30
0.0
 10
16.15113719710886
 20
830.290256139836
 30
0.0
  0
SPLINE
  5
3C4
330
5E
100
AcDbEntity
  8
$DDT_AUDIT_GENERATED_(3BE)
  6
Continuous
 62
     7
100
AcDbSpline
210
0.0
220
0.0
230
1.0
 70
     8
 71
     3
 72
     8
 73
     4
 74
     0
 42
0.0000000024517249
 43
0.0000000001
 40
0.3321873246071907
 40
0.3321873246071907
 40
0.3321873246071907
 40
0.3321873246071907
 40
0.3367258452974295
 40
0.3367258452974295
 40
0.3367258452974295
 40
0.3367258452974295
 10
16.10572752637781
 20
830.7138961709492
 30
0.0
 10
16.10524548062992
 20
830.7203932421604
 30
0.0
 10
16.10504313020733
 20
830.7265556367648
 30
0.0
 10
16.10520445517064
 20
830.7323843008874
 30
0.0
  0
SPLINE
  5
3C5
330
5E
100
AcDbEntity
  8
$DDT_AUDIT_GENERATED_(3BE)
  6
Continuous
 62
     7
100
AcDbSpline
210
0.0
220
0.0
230
1.0
 70
     8
 71
     3
 72
    32
 73
    28
 74
     0
 42
0.000000000106217
 43
0.0000000001
 40
0.3367258452974295
 40
0.3367258452974295
 40
0.3367258452974295
 40
0.3367258452974295
 40
0.3437500000000008
 40
0.3437500000000008
 40
0.375000000000001
 40
0.375000000000001
 40
0.3906250000000009
 40
0.3906250000000009
 40
0.4062500000000009
 40
0.4062500000000009
 40
0.4375000000000009
 40
0.4375000000000009
 40
0.4687500000000009
 40
0.4687500000000009
 40
0.5000000000000009
 40
0.5000000000000009
 40
0.5312500000000008
 40
0.5312500000000008
 40
0.5625000000000008
 40
0.5625000000000008
 40
0.5937500000000007
 40
0.5937500000000007
 40
0.6250000000000007
 40
0.6250000000000007
 40
0.6562500000000006
 40
0.6562500000000006
 40
0.6636655773700028
 40
0.6636655773700028
 40
0.6636655773700028
 40
0.6636655773700028
 10
16.10520445517064
 20
830.7323843008874
 30
0.0
 10
16.10545413377233
 20
830.7414051782393
 30
0.0
 10
16.10657492318812
 20
830.7496266717369
 30
0.0
 10
16.11912505082488
 20
830.7900883683095
 30
0.0
 10
16.12836533796661
 20
830.8299290833288
 30
0.0
 10
16.53763895519354
 20
830.9193153084044
 30
0.0
 10
16.75277713924384
 20
830.9485098029481
 30
0.0
 10
17.35013117212459
 20
830.9892545360099
 30
0.0
 10
17.729774443963
 20
831.0015557608015
 30
0.0
 10
19.09432592478922
 20
831.0264273069484
 30
0.0
 10
20.2700524371061
 20
831.0261695863398
 30
0.0
 10
23.00805890929889
 20
831.0188495996053
 30
0.0
 10
24.5286948188595
 20
831.0131674955968
 30
0.0
 10
27.85124739666054
 20
831.0145691839309
 30
0.0
 10
29.58223560546123
 20
831.021014914008
 30
0.0
 10
33.13059567574209
 20
831.0211971746651
 30
0.0
 10
34.87534374802652
 20
831.0147268174921
 30
0.0
 10
38.21171491160555
 20
831.0130619757217
 30
0.0
 10
39.74221509666032
 20
831.0186321511442
 30
0.0
 10
42.48854317237396
 20
831.0261431920995
 30
0.0
 10
43.65839672475703
 20
831.026704129529
 30
0.0
 10
45.50506428870595
 20
830.9944465954263
 30
0.0
 10
46.10675315453532
 20
830.952550800535
 30
0.0
 10
46.67675881651555
 20
830.8325366433036
 30
0.0
 10
46.68682351575868
 20
830.791319197195
 30
0.0
 10
46.70049939313919
 20
830.750640402283
 30
0.0
 10
46.70175542876913
 20
830.741976557884
 30
0.0
 10
46.70202358741062
 20
830.7324359602846
 30
0.0
  0
SPLINE
  5
3C6
330
5E
100
AcDbEntity
  8
$DDT_AUDIT_GENERATED_(3BE)
  6
Continuous
 62
     7
100
AcDbSpline
210
0.0
220
0.0
230
1.0
 70
     8
 71
     3
 72
     8
 73
     4
 74
     0
 42
0.0000000025519812
 43
0.0000000001
 40
0.6636655773700028
 40
0.6636655773700028
 40
0.6636655773700028
 40
0.6636655773700028
 40
0.6648820579496291
 40
0.6648820579496291
 40
0.6648820579496291
 40
0.6648820579496291
 10
46.70202358741062
 20
830.7324359602846
 30
0.0
 10
46.70206757721254
 20
830.7308708829996
 30
0.0
 10
46.70208498283327
 20
830.7292822119208
 30
0.0
 10
46.70207747714749
 20
830.7276698826129
 30
0.0
  0
SPLINE
  5
3C7
330
5E
100
AcDbEntity
  8
$DDT_AUDIT_GENERATED_(3BE)
  6
Continuous
 62
     7
100
AcDbSpline
210
0.0
220
0.0
230
1.0
 70
     8
 71
     3
 72
    10
 73
     6
 74
     0
 42
0.0000000006784875
 43
0.0000000001
 40
0.7323131241126404
 40
0.7323131241126404
 40
0.7323131241126404
 40
0.7323131241126404
 40
0.7500000000000004
 40
0.7500000000000004
 40
1.0
 40
1.0
 40
1.0
 40
1.0
 10
46.65458807324105
 20
830.2652786768043
 30
0.0
 10
46.65153248507071
 20
830.2114751015247
 30
0.0
 10
46.64900750692733
 20
830.1549048842343
 30
0.0
 10
46.62017874463115
 20
829.2644622398102
 30
0.0
 10
46.65986242321465
 20
827.9555984875844
 30
0.0
 10
46.67153796054615
 20
826.321184082495
 30
0.0
  0
ARC
  5
3C8
330
5E
100
AcDbEntity
  8
$DDT_AUDIT_GENERATED_(3BE)
  6
Continuous
 62
     7
100
AcDbCircle
 10
31.4083258322
 20
6375.2088993015
 30
0.0
 40
5551.890574331751
100
AcDbArc
 50
269.8612734156
 51
270.1386289289
  0
SPLINE
  5
3C9
330
5E
100
AcDbEntity
  8
$DDT_AUDIT_GENERATED_(3BE)
  6
Continuous
 62
     7
100
AcDbSpline
210
0.0
220
0.0
230
1.0
 70
     8
 71
     3
 72
    16
 73
    12
 74
     0
 42
0.0000000021250212
 43
0.0000000001
 40
0.0
 40
0.0
 40
0.0
 40
0.0
 40
0.2500000000000011
 40
0.2500000000000011
 40
0.5000000000000022
 40
0.5000000000000022
 40
0.7500000000000033
 40
0.7500000000000033
 40
0.8750000000000017
 40
0.8750000000000017
 40
1.0
 40
1.0
 40
1.0
 40
1.0
 10
17.96590354380453
 20
823.334598613734
 30
0.0
 10
17.57367662619883
 20
823.3371597902263
 30
0.0
 10
17.2008087324372
 20
823.4239997378468
 30
0.0
 10
16.48621024889796
 20
823.7210650583764
 30
0.0
 10
16.16001984742406
 20
823.9249614872404
 30
0.0
 10
15.54906172042728
 20
824.405066931093
 30
0.0
 10
15.26407113260238
 20
824.6829655394299
 30
0.0
 10
14.86597811607761
 20
825.126577400374
 30
0.0
 10
14.73774778976747
 20
825.2793137109816
 30
0.0
 10
14.48823541657563
 20
825.5919324912624
 30
0.0
 10
14.36638387706333
 20
825.7526756958886
 30
0.0
 10
14.24831955123217
 20
825.914045118292
 30
0.0
  0
SPLINE
  5
3CA
330
5E
100
AcDbEntity
  8
$DDT_AUDIT_GENERATED_(3BE)
  6
Continuous
 62
     7
100
AcDbSpline
210
0.0
220
0.0
230
1.0
 70
     8
 71
     3
 72
    20
 73
    16
 74
     0
 42
0.0000000021288157
 43
0.0000000001
 40
0.0
 40
0.0
 40
0.0
 40
0.0
 40
0.1250000000000002
 40
0.1250000000000002
 40
0.2500000000000004
 40
0.2500000000000004
 40
0.5000000000000009
 40
0.5000000000000009
 40
0.6250000000000007
 40
0.6250000000000007
 40
0.7500000000000004
 40
0.7500000000000004
 40
0.8750000000000002
 40
0.8750000000000002
 40
1.0
 40
1.0
 40
1.0
 40
1.0
 10
48.55886247166458
 20
825.9140342125614
 30
0.0
 10
48.44116536242397
 20
825.7531642907389
 30
0.0
 10
48.31948543106757
 20
825.5926348948195
 30
0.0
 10
48.07089138001005
 20
825.2810794351875
 30
0.0
 10
47.94326796123928
 20
825.1290031518188
 30
0.0
 10
47.54768952396027
 20
824.6877620924342
 30
0.0
 10
47.26733264803295
 20
824.4132345829837
 30
0.0
 10
46.8072378309782
 20
824.0502733644324
 30
0.0
 10
46.64662593408288
 20
823.9372856869322
 30
0.0
 10
46.31611956078832
 20
823.7366959114382
 30
0.0
 10
46.14556390637676
 20
823.6484547082382
 30
0.0
 10
45.79190966088974
 20
823.5007840418256
 30
0.0
 10
45.60759455545276
 20
823.4410628060516
 30
0.0
 10
45.22978592382437
 20
823.3586060901132
 30
0.0
 10
45.03744316067277
 20
823.3358570756318
 30
0.0
 10
44.84128545889464
 20
823.3345757104194
 30
0.0
  0
SPLINE
  5
3CB
330
5E
100
AcDbEntity
  8
$DDT_AUDIT_GENERATED_(3BE)
  6
Continuous
 62
     7
100
AcDbSpline
210
0.0
220
0.0
230
1.0
 70
     8
 71
     3
 72
    30
 73
    26
 74
     0
 42
0.0000000001199347
 43
0.0000000001
 40
0.2716196147255867
 40
0.2716196147255867
 40
0.2716196147255867
 40
0.2716196147255867
 40
0.3124999999999993
 40
0.3124999999999993
 40
0.3437499999999993
 40
0.3437499999999993
 40
0.3749999999999993
 40
0.3749999999999993
 40
0.3906249999999993
 40
0.3906249999999993
 40
0.4062499999999993
 40
0.4062499999999993
 40
0.4374999999999993
 40
0.4374999999999993
 40
0.4999999999999994
 40
0.4999999999999994
 40
0.5312499999999994
 40
0.5312499999999994
 40
0.5624999999999994
 40
0.5624999999999994
 40
0.5937499999999996
 40
0.5937499999999996
 40
0.6249999999999996
 40
0.6249999999999996
 40
0.6302552664669011
 40
0.6302552664669011
 40
0.6302552664669011
 40
0.6302552664669011
 10
16.65140925426893
 20
833.2635537445524
 30
0.0
 10
16.64418818810154
 20
833.3661483870702
 30
0.0
 10
16.63430086045003
 20
833.4527007513628
 30
0.0
 10
16.61351334630847
 20
833.5757235621455
 30
0.0
 10
16.60097724751688
 20
833.6191847003789
 30
0.0
 10
16.61338262569904
 20
833.685675329308
 30
0.0
 10
16.61362575430393
 20
833.7086424325117
 30
0.0
 10
16.95876676021429
 20
833.7271516756246
 30
0.0
 10
17.14546483920089
 20
833.7306727961954
 30
0.0
 10
17.69691809117955
 20
833.7325884639029
 30
0.0
 10
18.05493710971658
 20
833.7310717745878
 30
0.0
 10
19.35308686913998
 20
833.7208451762467
 30
0.0
 10
20.50393796626755
 20
833.7064079916199
 30
0.0
 10
24.51050390105065
 20
833.6580130223425
 30
0.0
 10
27.9133583581315
 20
833.6220262463703
 30
0.0
 10
33.15563425930864
 20
833.6220675953032
 30
0.0
 10
34.88306205059943
 20
833.6303228846962
 30
0.0
 10
38.15943769883888
 20
833.6569094297281
 30
0.0
 10
39.66065238445763
 20
833.6744794935807
 30
0.0
 10
42.33185520783986
 20
833.7067626651549
 30
0.0
 10
43.46295172938958
 20
833.7209698888364
 30
0.0
 10
45.20298279478429
 20
833.734566729999
 30
0.0
 10
45.73470989480054
 20
833.7333918505497
 30
0.0
 10
46.00428302271656
 20
833.7187691148546
 30
0.0
 10
46.0365061478693
 20
833.7163642547787
 30
0.0
 10
46.0632900284654
 20
833.7136614335172
 30
0.0
  0
LINE
  5
3CC
330
5E
100
AcDbEntity
  8
$DDT_AUDIT_GENERATED_(3BE)
  6
Continuous
 62
     7
100
AcDbLine
 10
48.5585931252
 20
828.2081341993
 30
0.0
 11
48.5588624717
 21
825.9140342126
 31
0.0
  0
SPLINE
  5
3CD
330
5E
100
AcDbEntity
  8
$DDT_AUDIT_GENERATED_(3BE)
  6
Continuous
 62
     7
100
AcDbSpline
210
0.0
220
0.0
230
1.0
 70
     8
 71
     3
 72
     8
 73
     4
 74
     0
 42
0.0000000005557045
 43
0.0000000001
 40
0.1708802473592043
 40
0.1708802473592043
 40
0.1708802473592043
 40
0.1708802473592043
 40
0.17119797306786
 40
0.17119797306786
 40
0.17119797306786
 40
0.17119797306786
 10
6.403795308169376
 20
825.6351458841409
 30
0.0
 10
6.403795695529669
 20
825.6332402922335
 30
0.0
 10
6.403805894344753
 20
825.6313344932408
 30
0.0
 10
6.403825902562117
 20
825.6294284870199
 30
0.0
  0
SPLINE
  5
3CE
330
5E
100
AcDbEntity
  8
$DDT_AUDIT_GENERATED_(3BE)
  6
Continuous
 62
     7
100
AcDbSpline
210
0.0
220
0.0
230
1.0
 70
     8
 71
     3
 72
     8
 73
     4
 74
     0
 42
0.000000000527955
 43
0.0000000001
 40
0.0
 40
0.0
 40
0.0
 40
0.0
 40
0.0776630635182534
 40
0.0776630635182534
 40
0.0776630635182534
 40
0.0776630635182534
 10
46.67128414562936
 20
828.8170568201969
 30
0.0
 10
46.66769475332739
 20
829.3488634778412
 30
0.0
 10
46.66164379471077
 20
829.840660099112
 30
0.0
 10
46.65569884443391
 20
830.2879847212714
 30
0.0
  0
SPLINE
  5
3CF
330
5E
100
AcDbEntity
  8
$DDT_AUDIT_GENERATED_(3BE)
  6
Continuous
 62
     7
100
AcDbSpline
210
0.0
220
0.0
230
1.0
 70
     8
 71
     3
 72
    34
 73
    30
 74
     0
 42
0.0000000001234851
 43
0.0000000001
 40
0.3434161014507837
 40
0.3434161014507837
 40
0.3434161014507837
 40
0.3434161014507837
 40
0.3437500000000029
 40
0.3437500000000029
 40
0.3750000000000029
 40
0.3750000000000029
 40
0.390625000000003
 40
0.390625000000003
 40
0.4062500000000031
 40
0.4062500000000031
 40
0.4375000000000029
 40
0.4375000000000029
 40
0.4687500000000028
 40
0.4687500000000028
 40
0.5000000000000026
 40
0.5000000000000026
 40
0.5312500000000026
 40
0.5312500000000026
 40
0.5625000000000023
 40
0.5625000000000023
 40
0.5937500000000022
 40
0.5937500000000022
 40
0.6250000000000021
 40
0.6250000000000021
 40
0.6562500000000019
 40
0.6562500000000019
 40
0.6875000000000018
 40
0.6875000000000018
 40
0.7267754197090358
 40
0.7267754197090358
 40
0.7267754197090358
 40
0.7267754197090358
 10
46.70134163789095
 20
833.1369647086473
 30
0.0
 10
46.70133827590479
 20
833.1373507283113
 30
0.0
 10
46.70133351054617
 20
833.1377356612679
 30
0.0
 10
46.70074820269575
 20
833.1740441839198
 30
0.0
 10
46.70911849659911
 20
833.2001442533702
 30
0.0
 10
46.47398389767245
 20
833.2298377151349
 30
0.0
 10
46.34555822018547
 20
833.2384121055647
 30
0.0
 10
45.90615834942786
 20
833.2514513690815
 30
0.0
 10
45.59343798715471
 20
833.2557115581802
 30
0.0
 10
44.4344173970114
 20
833.2605947036371
 30
0.0
 10
43.34287398828231
 20
833.2539507365591
 30
0.0
 10
40.78375024197139
 20
833.2331513464453
 30
0.0
 10
39.2868745538692
 20
833.2189374510523
 30
0.0
 10
36.08297889793577
 20
833.1957177414112
 30
0.0
 10
34.32452628413945
 20
833.1866321377736
 30
0.0
 10
30.80471263698632
 20
833.181360384623
 30
0.0
 10
28.99043330531175
 20
833.1851853446765
 30
0.0
 10
25.58992868780204
 20
833.2024979903922
 30
0.0
 10
23.96346580370922
 20
833.215900493792
 30
0.0
 10
21.0825817398078
 20
833.2408204607647
 30
0.0
 10
19.79700087364753
 20
833.2523597222529
 30
0.0
 10
17.76093135500274
 20
833.2606779170466
 30
0.0
 10
16.99763236324566
 20
833.2565143653003
 30
0.0
 10
16.20517345832621
 20
833.2281429896271
 30
0.0
 10
16.14439570396981
 20
833.2068390391885
 30
0.0
 10
16.0929591898085
 20
833.1476597542098
 30
0.0
 10
16.10729716118826
 20
833.1084573727237
 30
0.0
 10
16.12726546200289
 20
832.9961909226855
 30
0.0
 10
16.13812587034486
 20
832.9173358771059
 30
0.0
 10
16.14656340315531
 20
832.8228197323592
 30
0.0
  0
SPLINE
  5
3D0
330
5E
100
AcDbEntity
  8
$DDT_AUDIT_GENERATED_(3BE)
  6
Continuous
 62
     7
100
AcDbSpline
210
0.0
220
0.0
230
1.0
 70
     8
 71
     3
 72
     8
 73
     4
 74
     0
 42
0.0000000007039253
 43
0.0000000001
 40
0.8024682625276135
 40
0.8024682625276135
 40
0.8024682625276135
 40
0.8024682625276135
 40
0.8998922890064758
 40
0.8998922890064758
 40
0.8998922890064758
 40
0.8998922890064758
 10
16.16926792994726
 20
832.1074481600532
 30
0.0
 10
16.17117872777489
 20
831.7303996813788
 30
0.0
 10
16.16538797351771
 20
831.2657640900891
 30
0.0
 10
16.15789307616263
 20
830.7235299357587
 30
0.0
  0
SPLINE
  5
3D1
330
5E
100
AcDbEntity
  8
$DDT_AUDIT_GENERATED_(3BE)
  6
Continuous
 62
     7
100
AcDbSpline
210
0.0
220
0.0
230
1.0
 70
     8
 71
     3
 72
     8
 73
     4
 74
     0
 42
0.000000000509056
 43
0.0000000001
 40
0.9257375815438624
 40
0.9257375815438624
 40
0.9257375815438624
 40
0.9257375815438624
 40
1.0
 40
1.0
 40
1.0
 40
1.0
 10
16.15168036242995
 20
830.2757905313821
 30
0.0
 10
16.14559982329592
 20
829.8316195274924
 30
0.0
 10
16.13945356236468
 20
829.3439003113916
 30
0.0
 10
16.1358978526333
 20
828.8170568459232
 30
0.0
  0
ELLIPSE
  5
3D2
330
5E
100
AcDbEntity
  8
$DDT_AUDIT_GENERATED_(3BE)
  6
Continuous
 62
     7
100
AcDbEllipse
 10
48.2158638522
 20
828.2081695843
 30
0.0
 11
-0.06176886116016078
 21
-0.4961699384192497
 31
0.0
210
0.0
220
0.0
230
1.0
 40
0.6826645142
 41
3.127673594343585
 42
3.155865431652769
  0
ELLIPSE
  5
3D3
330
5E
100
AcDbEntity
  8
$DDT_AUDIT_GENERATED_(3BE)
  6
Continuous
 62
     7
100
AcDbEllipse
 10
48.2158638522
 20
828.2081695843
 30
0.0
 11
-0.06176886116016078
 21
-0.4961699384192497
 31
0.0
210
0.0
220
0.0
230
1.0
 40
0.6826645142
 41
1.655507363963794
 42
3.127673594343585
  0
ELLIPSE
  5
3D4
330
5E
100
AcDbEntity
  8
$DDT_AUDIT_GENERATED_(3BE)
  6
Continuous
 62
     7
100
AcDbEllipse
 10
14.5913181608
 20
828.208169579
 30
0.0
 11
0.06176886148798189
 21
-0.4961699383784491
 31
0.0
210
0.0
220
0.0
230
0.9999999999999999
 40
0.6826645159
 41
3.148739894652862
 42
4.627677942537323
  0
ELLIPSE
  5
3D5
330
5E
100
AcDbEntity
  8
$DDT_AUDIT_GENERATED_(3BE)
  6
Continuous
 62
     7
100
AcDbEllipse
 10
14.5913181608
 20
828.208169579
 30
0.0
 11
0.06176886148798189
 21
-0.4961699383784491
 31
0.0
210
0.0
220
0.0
230
0.9999999999999999
 40
0.6826645159
 41
3.125835098550708
 42
3.148739894652862
  0
SPLINE
  5
3D6
330
5E
100
AcDbEntity
  8
$DDT_AUDIT_GENERATED_(3BE)
  6
Continuous
 62
     7
100
AcDbSpline
210
0.0
220
0.0
230
1.0
 70
     8
 71
     3
 72
     8
 73
     4
 74
     0
 42
0.0000000002061565
 43
0.0000000001
 40
0.0199019139356008
 40
0.0199019139356008
 40
0.0199019139356008
 40
0.0199019139356008
 40
0.0373804238227746
 40
0.0373804238227746
 40
0.0373804238227746
 40
0.0373804238227746
 10
56.36288203683514
 20
791.6245308811663
 30
0.0
 10
56.38942637519347
 20
791.9065285791278
 30
0.0
 10
56.40276036598886
 20
792.1887518551583
 30
0.0
 10
56.40284983899554
 20
792.4707969291613
 30
0.0
  0
SPLINE
  5
3D7
330
5E
100
AcDbEntity
  8
$DDT_AUDIT_GENERATED_(3BE)
  6
Continuous
 62
     7
100
AcDbSpline
210
0.0
220
0.0
230
1.0
 70
     8
 71
     3
 72
     8
 73
     4
 74
     0
 42
0.0000000002056432
 43
0.0000000001
 40
0.9627177825251456
 40
0.9627177825251456
 40
0.9627177825251456
 40
0.9627177825251456
 40
0.9801316751173024
 40
0.9801316751173024
 40
0.9801316751173024
 40
0.9801316751173024
 10
6.4043402999766
 20
792.4709398687917
 30
0.0
 10
6.404424472512646
 20
792.1892866533686
 30
0.0
 10
6.417715217595581
 20
791.9074037676421
 30
0.0
 10
6.444194438464054
 20
791.6256933050636
 30
0.0
  0
ELLIPSE
  5
3D8
330
5E
100
AcDbEntity
  8
$DDT_AUDIT_GENERATED_(3BE)
  6
Continuous
 62
     7
100
AcDbEllipse
 10
55.7246330552
 20
790.6627139432
 30
0.0
 11
-0.4905427592082588
 21
0.09678740304584765
 31
0.0
210
0.0
220
0.0
230
1.0
 40
0.8434502891
 41
3.140022975891284
 42
3.371388568432054
  0
LINE
  5
3D9
330
5E
100
AcDbEntity
  8
$DDT_AUDIT_GENERATED_(3BE)
  6
Continuous
 62
     7
100
AcDbLine
 10
54.5569821869
 20
789.7828341836
 30
0.0
 11
8.2501998684
 21
789.7828341836
 31
0.0
  0
SPLINE
  5
3DA
330
5E
100
AcDbEntity
  8
$DDT_AUDIT_GENERATED_(3BE)
  6
Continuous
 62
     7
100
AcDbSpline
210
0.0
220
0.0
230
1.0
 70
     8
 71
     3
 72
     8
 73
     4
 74
     0
 42
0.0000000102529456
 43
0.0000000001
 40
0.0
 40
0.0
 40
0.0
 40
0.0
 40
1.0
 40
1.0
 40
1.0
 40
1.0
 10
54.55698218690461
 20
789.7828341836324
 30
0.0
 10
54.97980231213848
 20
789.7828341836324
 30
0.0
 10
55.30510558716692
 20
789.7828903212132
 30
0.0
 10
55.53231165268178
 20
789.7829051239065
 30
0.0
  0
SPLINE
  5
3DB
330
5E
100
AcDbEntity
  8
$DDT_AUDIT_GENERATED_(3BE)
  6
Continuous
 62
     7
100
AcDbSpline
210
0.0
220
0.0
230
1.0
 70
     8
 71
     3
 72
     8
 73
     4
 74
     0
 42
0.0000000102529456
 43
0.0000000001
 40
0.0
 40
0.0
 40
0.0
 40
0.0
 40
1.0
 40
1.0
 40
1.0
 40
1.0
 10
7.274870402495491
 20
789.7829051239065
 30
0.0
 10
7.502079217286017
 20
789.7828903210341
 30
0.0
 10
7.827375948183199
 20
789.7828341836324
 30
0.0
 10
8.250199868398756
 20
789.7828341836324
 30
0.0
  0
SPLINE
  5
3DC
330
5E
100
AcDbEntity
  8
$DDT_AUDIT_GENERATED_(3BE)
  6
Continuous
 62
     7
100
AcDbSpline
210
0.0
220
0.0
230
1.0
 70
    11
 71
     3
 72
    22
 73
    18
 74
     0
 42
0.0000000004266663
 43
0.0000000001
 40
0.0
 40
0.0
 40
0.0
 40
0.0
 40
0.1249999999999999
 40
0.1249999999999999
 40
0.2499999999999998
 40
0.2499999999999998
 40
0.3749999999999999
 40
0.3749999999999999
 40
0.5
 40
0.5
 40
0.6250000000000001
 40
0.6250000000000001
 40
0.7500000000000002
 40
0.7500000000000002
 40
0.8750000000000002
 40
0.8750000000000002
 40
1.0
 40
1.0
 40
1.0
 40
1.0
 10
31.40359102758864
 20
806.7752579073895
 30
0.0
 10
32.36586462265073
 20
806.7752579073895
 30
0.0
 10
33.30133233418086
 20
806.3480115962642
 30
0.0
 10
34.56951798961256
 20
804.942117060403
 30
0.0
 10
34.89941149197431
 20
803.9776663766212
 30
0.0
 10
34.86382121851081
 20
802.0661544116942
 30
0.0
 10
34.5214551310889
 20
801.1302253190627
 30
0.0
 10
33.27777662103023
 20
799.6755981350663
 30
0.0
 10
32.36913756165417
 20
799.1971969940881
 30
0.0
 10
30.45983342734602
 20
799.1902861022556
 30
0.0
 10
29.54004484960004
 20
799.6678142746778
 30
0.0
 10
28.29084288958701
 20
801.1196399246861
 30
0.0
 10
27.94442303188718
 20
802.0625172690835
 30
0.0
 10
27.90687317690178
 20
803.9726920808905
 30
0.0
 10
28.23216612917061
 20
804.9335967335034
 30
0.0
 10
29.50338258512203
 20
806.3476868094355
 30
0.0
 10
30.44131743252655
 20
806.7752579073895
 30
0.0
 10
31.40359102758864
 20
806.7752579073895
 30
0.0
  0
LINE
  5
3DD
330
5E
100
AcDbEntity
  8
$DDT_AUDIT_GENERATED_(3BE)
  6
Continuous
 62
     7
100
AcDbLine
 10
45.2038089837
 20
833.7319123177
 30
0.0
 11
17.6011465529
 21
833.7319123177
 31
0.0
  0
LINE
  5
3DE
330
5E
100
AcDbEntity
  8
$DDT_AUDIT_GENERATED_(3BE)
  6
Continuous
 62
     7
100
AcDbLine
 10
46.7013427643
 20
830.7326290406
 30
0.0
 11
46.7013427644
 21
833.1348527395
 31
0.0
  0
SPLINE
  5
3DF
330
5E
100
AcDbEntity
  8
$DDT_AUDIT_GENERATED_(3BE)
  6
Continuous
 62
     7
100
AcDbSpline
210
0.0
220
0.0
230
1.0
 70
     8
 71
     3
 72
    17
 73
    13
 74
     0
 42
0.0000000170964005
 43
0.0000000001
 40
0.0
 40
0.0
 40
0.0
 40
0.0
 40
0.0530108077522464
 40
0.1310857516496176
 40
0.2177588124177614
 40
0.3169357977928256
 40
0.4320866545695283
 40
0.5660348177641052
 40
0.6613987929827578
 40
0.7071975388324626
 40
0.7510231277809774
 40
1.0
 40
1.0
 40
1.0
 40
1.0
 10
16.09508436402621
 20
830.7124507313639
 30
0.0
 10
16.09532085155247
 20
830.6735407326238
 30
0.0
 10
16.09574128860747
 20
830.5929146990605
 30
0.0
 10
16.11174291670597
 20
830.4940359371573
 30
0.0
 10
16.12821715579276
 20
830.4133507907857
 30
0.0
 10
16.14203232755081
 20
830.3586970948824
 30
0.0
 10
16.14807668655889
 20
830.3352621374784
 30
0.0
 10
16.14744327675026
 20
830.3300729230858
 30
0.0
 10
16.14194573464183
 20
830.3771615171806
 30
0.0
 10
16.14441318666891
 20
830.3521341483951
 30
0.0
 10
16.147885825402
 20
830.3123039616478
 30
0.0
 10
16.15036070801968
 20
830.2703571481215
 30
0.0
 10
16.15278331968097
 20
830.2279211723229
 30
0.0
  0
SPLINE
  5
3E0
330
5E
100
AcDbEntity
  8
$DDT_AUDIT_GENERATED_(3BE)
  6
Continuous
 62
     7
100
AcDbSpline
210
0.0
220
0.0
230
1.0
 70
     8
 71
     3
 72
    15
 73
    11
 74
     0
 42
0.0000000191053136
 43
0.0000000001
 40
0.0
 40
0.0
 40
0.0
 40
0.0
 40
0.3089182622097235
 40
0.4978482492019425
 40
0.662807404600517
 40
0.7684978474450392
 40
0.855869561396369
 40
0.92887520120734
 40
0.9913514274004777
 40
1.0
 40
1.0
 40
1.0
 40
1.0
 10
46.65326395934259
 20
830.2063175009545
 30
0.0
 10
46.6568399118151
 20
830.2642658800563
 30
0.0
 10
46.66185664150481
 20
830.3425661218077
 30
0.0
 10
46.66999458777578
 20
830.4226034474029
 30
0.0
 10
46.67736780859702
 20
830.4779332408889
 30
0.0
 10
46.67732225284226
 20
830.4783421858897
 30
0.0
 10
46.6859066823159
 20
830.5246469331191
 30
0.0
 10
46.69482685647476
 20
830.5988558487085
 30
0.0
 10
46.7037218576549
 20
830.6683044779304
 30
0.0
 10
46.70161265704934
 20
830.7193708734821
 30
0.0
 10
46.70131740620593
 20
830.7266169396214
 30
0.0
  0
SPLINE
  5
3E1
330
5E
100
AcDbEntity
  8
$DDT_AUDIT_GENERATED_(3BE)
  6
Continuous
 62
     7
100
AcDbSpline
210
0.0
220
0.0
230
1.0
 70
     8
 71
     3
 72
    15
 73
    11
 74
     0
 42
0.0000000108139226
 43
0.0000000001
 40
0.0
 40
0.0
 40
0.0
 40
0.0
 40
0.0366798514648429
 40
0.1628961500372193
 40
0.2968409179363784
 40
0.4309853907992493
 40
0.5648745349968642
 40
0.7071619742450072
 40
0.896254125343412
 40
1.0
 40
1.0
 40
1.0
 40
1.0
 10
46.70720603198531
 20
833.1355760959076
 30
0.0
 10
46.70794650159284
 20
833.1455053752491
 30
0.0
 10
46.71020794230278
 20
833.1832317928462
 30
0.0
 10
46.69349052628293
 20
833.2970569523432
 30
0.0
 10
46.6251313996689
 20
833.4468804910339
 30
0.0
 10
46.51523636289809
 20
833.5658443659003
 30
0.0
 10
46.40564671668604
 20
833.6350398495746
 30
0.0
 10
46.29978036943357
 20
833.6783864928884
 30
0.0
 10
46.19735344205007
 20
833.7020191690762
 30
0.0
 10
46.13678831013207
 20
833.7075164627113
 30
0.0
 10
46.11150476148126
 20
833.7095436398333
 30
0.0
  0
SPLINE
  5
3E2
330
5E
100
AcDbEntity
  8
$DDT_AUDIT_GENERATED_(3BE)
  6
Continuous
 62
     7
100
AcDbSpline
210
0.0
220
0.0
230
1.0
 70
     8
 71
     3
 72
    14
 73
    10
 74
     0
 42
0.0000000037269787
 43
0.0000000001
 40
0.0
 40
0.0
 40
0.0
 40
0.0
 40
0.0210527910966887
 40
0.1271616245225287
 40
0.2327767779206362
 40
0.3372360562946452
 40
0.439670785445079
 40
0.5388545472265676
 40
0.6153461181877253
 40
0.6153461181877253
 40
0.6153461181877253
 40
0.6153461181877253
 10
48.28248852287276
 20
828.7049490065375
 30
0.0
 10
48.25236045438155
 20
828.7084685461348
 30
0.0
 10
48.09656027028411
 20
828.726714052179
 30
0.0
 10
47.81812641293656
 20
828.767188363352
 30
0.0
 10
47.48368612711128
 20
828.8221839096802
 30
0.0
 10
47.19321652847763
 20
828.8797702884572
 30
0.0
 10
46.95333314301987
 20
828.9370741292793
 30
0.0
 10
46.77969963586638
 20
828.9883535225615
 30
0.0
 10
46.69750943518298
 20
829.018429856534
 30
0.0
 10
46.66760290443119
 20
829.0304864751619
 30
0.0
  0
SPLINE
  5
3E3
330
5E
100
AcDbEntity
  8
$DDT_AUDIT_GENERATED_(3BE)
  6
Continuous
 62
     7
100
AcDbSpline
210
0.0
220
0.0
230
1.0
 70
     8
 71
     3
 72
    15
 73
    11
 74
     0
 42
0.0000000037477357
 43
0.0000000001
 40
0.3809047472605739
 40
0.3809047472605739
 40
0.3809047472605739
 40
0.3809047472605739
 40
0.4100106262478401
 40
0.4970666834334074
 40
0.590257164424316
 40
0.6874853091117269
 40
0.7883075036761368
 40
0.8919015102508309
 40
0.9972829683890142
 40
1.0
 40
1.0
 40
1.0
 40
1.0
 10
16.14243330383769
 20
829.0316121480482
 30
0.0
 10
16.13118387116708
 20
829.0270493911249
 30
0.0
 10
16.08287835185129
 20
829.008194773758
 30
0.0
 10
15.97272805281053
 20
828.9710707843042
 30
0.0
 10
15.78451734087751
 20
828.9195418336468
 30
0.0
 10
15.54491034401036
 20
828.8653230354437
 30
0.0
 10
15.25600569944496
 20
828.8102754871625
 30
0.0
 10
14.92130298022713
 20
828.7572448905771
 30
0.0
 10
14.66503605510337
 20
828.7205446218779
 30
0.0
 10
14.53083207406843
 20
828.7051341743762
 30
0.0
 10
14.52692137539114
 20
828.7046852428874
 30
0.0
  0
SPLINE
  5
3E4
330
5E
100
AcDbEntity
  8
$DDT_AUDIT_GENERATED_(3BE)
  6
Continuous
 62
     7
100
AcDbSpline
210
0.0
220
0.0
230
1.0
 70
     8
 71
     3
 72
    27
 73
    23
 74
     0
 42
0.0000000010956063
 43
0.0000000001
 40
0.0
 40
0.0
 40
0.0
 40
0.0
 40
0.0180387738806343
 40
0.0581272723385925
 40
0.0987686711324077
 40
0.1419228328179356
 40
0.1893773902316174
 40
0.2422083673519331
 40
0.2996586224410214
 40
0.3592212831505249
 40
0.4186521290251064
 40
0.4773784861816661
 40
0.5354184416074348
 40
0.5928528059619917
 40
0.649739112462987
 40
0.7061053548390279
 40
0.7619589798310055
 40
0.8172963460364473
 40
0.8721100447865908
 40
0.9263980083389995
 40
0.9798718118995041
 40
1.0
 40
1.0
 40
1.0
 40
1.0
 10
56.3967077957513
 20
825.6354472736784
 30
0.0
 10
56.3983538777502
 20
825.6735251165331
 30
0.0
 10
56.40223721216685
 20
825.7776107519634
 30
0.0
 10
56.35626526043001
 20
825.9669873496363
 30
0.0
 10
56.26621108874798
 20
826.1772469915558
 30
0.0
 10
56.13182369821035
 20
826.3781427965126
 30
0.0
 10
55.95283922543981
 20
826.5727358431961
 30
0.0
 10
55.72081330831456
 20
826.7654870195682
 30
0.0
 10
55.43102922447051
 20
826.9558870911969
 30
0.0
 10
55.08504672825975
 20
827.140954852356
 30
0.0
 10
54.68945653166512
 20
827.3178354121256
 30
0.0
 10
54.25011964846819
 20
827.4856722980365
 30
0.0
 10
53.76934040235442
 20
827.6451729177062
 30
0.0
 10
53.24813597692209
 20
827.7971210614654
 30
0.0
 10
52.68748470687035
 20
827.9419968153352
 30
0.0
 10
52.08863241274583
 20
828.0800208907733
 30
0.0
 10
51.45288979049281
 20
828.2112975094755
 30
0.0
 10
50.78239735118975
 20
828.3356833831891
 30
0.0
 10
50.07707113327907
 20
828.4535660655308
 30
0.0
 10
49.34681531367374
 20
828.5630069142873
 30
0.0
 10
48.72702729845872
 20
828.6483712026437
 30
0.0
 10
48.38312519373524
 20
828.6901775152018
 30
0.0
 10
48.27267626753547
 20
828.7035621985093
 30
0.0
  0
SPLINE
  5
3E5
330
5E
100
AcDbEntity
  8
$DDT_AUDIT_GENERATED_(3BE)
  6
Continuous
 62
     7
100
AcDbSpline
210
0.0
220
0.0
230
1.0
 70
     8
 71
     3
 72
    27
 73
    23
 74
     0
 42
0.0000000010944385
 43
0.0000000001
 40
0.0
 40
0.0
 40
0.0
 40
0.0
 40
0.0262951564766896
 40
0.0800607822824429
 40
0.1335079262348944
 40
0.186918853694257
 40
0.2412609466441247
 40
0.2961371080361879
 40
0.3515352710771862
 40
0.407441174130923
 40
0.4638460199190255
 40
0.5207538207450977
 40
0.5781908234522876
 40
0.6362146941497678
 40
0.6949110177394989
 40
0.7543244310174466
 40
0.8139985429358408
 40
0.8627614933793845
 40
0.9064227127235914
 40
0.9465471894592408
 40
0.9848221772375135
 40
1.0
 40
1.0
 40
1.0
 40
1.0
 10
14.53499052768274
 20
828.7034815855453
 30
0.0
 10
14.3909520814957
 20
828.6858886653921
 30
0.0
 10
14.01868755743394
 20
828.6402345031398
 30
0.0
 10
13.37449332297972
 20
828.5507222038344
 30
0.0
 10
12.65603248635936
 20
828.4416658772702
 30
0.0
 10
11.96719866348533
 20
828.3254210773488
 30
0.0
 10
11.31223272765495
 20
828.2029618095805
 30
0.0
 10
10.68901017988259
 20
828.0734817923963
 30
0.0
 10
10.1013098465302
 20
827.9374157819553
 30
0.0
 10
9.55063542527325
 20
827.794713473315
 30
0.0
 10
9.03848677996718
 20
827.6452570188507
 30
0.0
 10
8.566072375289183
 20
827.4887257640017
 30
0.0
 10
8.134298866526679
 20
827.324465370416
 30
0.0
 10
7.743733789504804
 20
827.151250727535
 30
0.0
 10
7.394724102833847
 20
826.9669196965842
 30
0.0
 10
7.088392107935437
 20
826.7682067854698
 30
0.0
 10
6.841879022754346
 20
826.5625907004812
 30
0.0
 10
6.65556142532776
 20
826.3533309504818
 30
0.0
 10
6.524363360253367
 20
826.1465274418855
 30
0.0
 10
6.441758942122379
 20
825.9357569348349
 30
0.0
 10
6.402523688923925
 20
825.7544649388226
 30
0.0
 10
6.408037303011125
 20
825.6585849780485
 30
0.0
 10
6.410043196188625
 20
825.6265522371947
 30
0.0
  0
LINE
  5
3E6
330
5E
100
AcDbEntity
  8
$DDT_AUDIT_GENERATED_(3BE)
  6
Continuous
 62
     7
100
AcDbLine
 10
56.4035910276
 20
792.4708579205
 30
0.0
 11
56.4035910276
 21
825.6348935441
 31
0.0
  0
LINE
  5
3E7
330
5E
100
AcDbEntity
  8
$DDT_AUDIT_GENERATED_(3BE)
  6
Continuous
 62
     7
100
AcDbLine
 10
6.4035910276
 20
825.6345709128
 30
0.0
 11
6.4035910276
 21
792.470978658
 31
0.0
  0
ARC
  5
3E8
330
5E
100
AcDbEntity
  8
$DDT_AUDIT_GENERATED_(3BE)
  6
Continuous
 62
     7
100
AcDbCircle
 10
13.2242617168
 20
792.0717816949
 30
0.0
 40
6.794896478205456
100
AcDbArc
 50
184.1576058372
 51
192.8010805349
  0
ARC
  5
3E9
330
5E
100
AcDbEntity
  8
$DDT_AUDIT_GENERATED_(3BE)
  6
Continuous
 62
     7
100
AcDbCircle
 10
50.2274664484
 20
791.9482452161
 30
0.0
 40
6.140860304641772
100
AcDbArc
 50
346.992728941
 51
356.5449746631
  0
SPLINE
  5
3EA
330
5E
100
AcDbEntity
  8
$DDT_AUDIT_GENERATED_(3BE)
  6
Continuous
 62
     7
100
AcDbSpline
210
0.0
220
0.0
230
1.0
 70
     8
 71
     3
 72
    15
 73
    11
 74
     0
 42
0.0000000087565884
 43
0.0000000001
 40
0.0
 40
0.0
 40
0.0
 40
0.0
 40
0.0288816107474766
 40
0.1512166204534047
 40
0.2650538024933757
 40
0.3786798958198214
 40
0.5009741463409051
 40
0.6443912164579916
 40
0.8313629192844831
 40
1.0
 40
1.0
 40
1.0
 40
1.0
 10
55.53377707080926
 20
789.7870573772896
 30
0.0
 10
55.5483983549784
 20
789.7858967945157
 30
0.0
 10
55.61391950259068
 20
789.780972982161
 30
0.0
 10
55.7400234566359
 20
789.8181576843537
 30
0.0
 10
55.87453022770789
 20
789.8926513420425
 30
0.0
 10
55.97920579254019
 20
789.9907223088225
 30
0.0
 10
56.0596993038908
 20
790.1026460041709
 30
0.0
 10
56.12609306014473
 20
790.2377881489163
 30
0.0
 10
56.17775653320012
 20
790.3902835192642
 30
0.0
 10
56.20086193848389
 20
790.5056424369772
 30
0.0
 10
56.21314064922108
 20
790.5703501429194
 30
0.0
  0
SPLINE
  5
3EB
330
5E
100
AcDbEntity
  8
$DDT_AUDIT_GENERATED_(3BE)
  6
Continuous
 62
     7
100
AcDbSpline
210
0.0
220
0.0
230
1.0
 70
     8
 71
     3
 72
    14
 73
    10
 74
     0
 42
0.0000000088174576
 43
0.0000000001
 40
0.0
 40
0.0
 40
0.0
 40
0.0
 40
0.2174878887598563
 40
0.414832801793777
 40
0.5511791784988577
 40
0.6765737840348476
 40
0.7948285432610713
 40
0.9106366627434768
 40
0.9644367989811273
 40
0.9644367989811273
 40
0.9644367989811273
 40
0.9644367989811273
 10
6.592948910596651
 20
790.5675263645879
 30
0.0
 10
6.609731281093858
 20
790.4861757494333
 30
0.0
 10
6.638972892523135
 20
790.3550755248446
 30
0.0
 10
6.701132971565084
 20
790.1893187853973
 30
0.0
 10
6.779948952143719
 20
790.0511056420759
 30
0.0
 10
6.876726178313981
 20
789.9384395269817
 30
0.0
 10
7.001982383176619
 20
789.8481111385098
 30
0.0
 10
7.129826657939945
 20
789.7966898934418
 30
0.0
 10
7.204012558651572
 20
789.7903460695981
 30
0.0
 10
7.229046452685524
 20
789.7893831595453
 30
0.0
  0
ARC
  5
3EC
330
5E
100
AcDbEntity
  8
$DDT_AUDIT_GENERATED_(3BE)
  6
Continuous
 62
     7
100
AcDbCircle
 10
31.4062352566
 20
803.4234429705
 30
0.0
 40
3.151983113462453
100
AcDbArc
 50
92.2878616023
 51
140.1266000318
  0
ARC
  5
3ED
330
5E
100
AcDbEntity
  8
$DDT_AUDIT_GENERATED_(3BE)
  6
Continuous
 62
     7
100
AcDbCircle
 10
31.4027245515
 20
803.43008166
 30
0.0
 40
3.145211239961559
100
AcDbArc
 50
39.8522572855
 51
92.2287864246
  0
LINE
  5
3EF
330
5E
100
AcDbEntity
  8
$DDT_AUDIT_GENERATED_(3EE)
  6
Continuous
 62
     7
100
AcDbLine
 10
55.052903914
 20
787.4628552381
 30
0.0
 11
7.7542781412
 21
787.4628552381
 31
0.0
  0
ARC
  5
3F0
330
5E
100
AcDbEntity
  8
$DDT_AUDIT_GENERATED_(3EE)
  6
Continuous
 62
     7
100
AcDbCircle
 10
31.4035910276
 20
781.0628552381
 30
0.0
 40
24.5
100
AcDbArc
 50
159.1330689921
 51
164.8572685595
  0
ARC
  5
3F1
330
5E
100
AcDbEntity
  8
$DDT_AUDIT_GENERATED_(3EE)
  6
Continuous
 62
     7
100
AcDbCircle
 10
31.4035910276
 20
781.0628552381
 30
0.0
 40
24.5
100
AcDbArc
 50
15.1427314405
 51
20.873295811
  0
ENDBLK
  5
3F3
330
5E
100
AcDbEntity
  8
0
100
AcDbBlockEnd
  0
BLOCK
  5
445
330
3F4
100
AcDbEntity
  8
0
100
AcDbBlockBegin
  2
SE1
 70
     0
 10
0.0
 20
0.0
 30
0.0
  3
SE1
  1

  0
LINE
  5
3F6
330
3F4
100
AcDbEntity
  8
$DDT_AUDIT_GENERATED_(60)
  6
Continuous
 62
     7
100
AcDbLine
 10
188.6313275883
 20
676.5105229325
 30
0.0
 11
188.6313275883
 21
751.9237872222
 31
0.0
  0
LINE
  5
3F7
330
3F4
100
AcDbEntity
  8
$DDT_AUDIT_GENERATED_(60)
  6
Continuous
 62
     7
100
AcDbLine
 10
188.6313275883
 20
676.5105229334
 30
0.0
 11
138.6313277485
 21
676.5105229334
 31
0.0
  0
LINE
  5
3F8
330
3F4
100
AcDbEntity
  8
$DDT_AUDIT_GENERATED_(60)
  6
Continuous
 62
     7
100
AcDbLine
 10
280.5973592208
 20
772.7786766348
 30
0.0
 11
280.5973598878
 21
778.0216602192
 31
0.0
  0
SPLINE
  5
3F9
330
3F4
100
AcDbEntity
  8
$DDT_AUDIT_GENERATED_(60)
  6
Continuous
 62
     7
100
AcDbSpline
210
0.0
220
0.0
230
1.0
 70
    12
 71
     2
 72
     6
 73
     3
 74
     0
 42
0.0000000185410844
 43
0.0000000001
 40
0.0
 40
0.0
 40
0.0
 40
1.0
 40
1.0
 40
1.0
 10
280.5973592207679
 20
772.7786766348434
 30
0.0
 41
1.0
 10
280.5973591864572
 20
772.509005248524
 30
0.0
 41
0.9270542322225428
 10
280.4098955276029
 20
772.3151495384111
 30
0.0
 41
1.0
  0
ARC
  5
3FA
330
3F4
100
AcDbEntity
  8
$DDT_AUDIT_GENERATED_(60)
  6
Continuous
 62
     7
100
AcDbCircle
 10
184.2149113498
 20
192.4976602435
 30
0.0
 40
588.2309361482162
100
AcDbArc
 50
80.5694849708
 51
89.9707555854
  0
SPLINE
  5
3FB
330
3F4
100
AcDbEntity
  8
$DDT_AUDIT_GENERATED_(60)
  6
Continuous
 62
     7
100
AcDbSpline
210
0.0
220
0.0
230
1.0
 70
     8
 71
     3
 72
    11
 73
     7
 74
     0
 42
0.0000000001927501
 43
0.0000000001
 40
0.0
 40
0.0
 40
0.0
 40
0.0
 40
0.413218401067773
 40
0.562461438736196
 40
0.8609475140730422
 40
1.0
 40
1.0
 40
1.0
 40
1.0
 10
200.4065115390784
 20
763.9216811100423
 30
0.0
 10
208.8995088378647
 20
764.080822549088
 30
0.0
 10
219.8341838598052
 20
763.9724342552945
 30
0.0
 10
234.9545386592255
 20
763.2509112997343
 30
0.0
 10
245.0435016066315
 20
762.8247261732157
 30
0.0
 10
250.4245554277201
 20
761.4340837146734
 30
0.0
 10
252.0122319894116
 20
760.9578042614163
 30
0.0
  0
ARC
  5
3FC
330
3F4
100
AcDbEntity
  8
$DDT_AUDIT_GENERATED_(60)
  6
Continuous
 62
     7
100
AcDbCircle
 10
181.2438728782
 20
5650.2898925241
 30
0.0
 40
4869.562471546253
100
AcDbArc
 50
269.959267836
 51
270.038490203
  0
SPLINE
  5
3FD
330
3F4
100
AcDbEntity
  8
$DDT_AUDIT_GENERATED_(60)
  6
Continuous
 62
     7
100
AcDbSpline
210
0.0
220
0.0
230
1.0
 70
     8
 71
     3
 72
    14
 73
    10
 74
     0
 42
0.000000000533588
 43
0.0000000001
 40
0.0
 40
0.0
 40
0.0
 40
0.0
 40
0.25
 40
0.25
 40
0.5
 40
0.5
 40
0.75
 40
0.75
 40
1.0
 40
1.0
 40
1.0
 40
1.0
 10
200.4065115390784
 20
763.9216811100423
 30
0.0
 10
198.8547233803002
 20
763.8926037664386
 30
0.0
 10
197.3092282128282
 20
763.5587581169203
 30
0.0
 10
194.4583689251898
 20
762.3306826922716
 30
0.0
 10
193.1540741164935
 20
761.4369135484824
 30
0.0
 10
190.9797870225518
 20
759.2215030764346
 30
0.0
 10
190.1106102774275
 20
757.900692713015
 30
0.0
 10
188.9361603016565
 20
755.0273261890659
 30
0.0
 10
188.6313275883078
 20
753.4758477821086
 30
0.0
 10
188.6313275883078
 20
751.9237872221964
 30
0.0
  0
ARC
  5
3FE
330
3F4
100
AcDbEntity
  8
$DDT_AUDIT_GENERATED_(60)
  6
Continuous
 62
     7
100
AcDbCircle
 10
148.6553002792
 20
-3908.8621527203
 30
0.0
 40
4696.334634514234
100
AcDbArc
 50
89.6480273103
 51
90.1161934813
  0
ARC
  5
3FF
330
3F4
100
AcDbEntity
  8
$DDT_AUDIT_GENERATED_(60)
  6
Continuous
 62
     7
100
AcDbCircle
 10
179.3420035068
 20
205.4317465499
 30
0.0
 40
581.8869939393725
100
AcDbArc
 50
80.0198961922
 51
89.4898587949
  0
ARC
  5
400
330
3F4
100
AcDbEntity
  8
$DDT_AUDIT_GENERATED_(60)
  6
Continuous
 62
     7
100
AcDbCircle
 10
170.3115112835
 20
-64.2933516022
 30
0.0
 40
851.7075990585283
100
AcDbArc
 50
89.0439353951
 51
89.5160703666
  0
LINE
  5
401
330
3F4
100
AcDbEntity
  8
$DDT_AUDIT_GENERATED_(60)
  6
Continuous
 62
     7
100
AcDbLine
 10
138.6313275883
 20
786.9628246846
 30
0.0
 11
138.6313275883
 21
729.745401916
 31
0.0
  0
ARC
  5
402
330
3F4
100
AcDbEntity
  8
$DDT_AUDIT_GENERATED_(60)
  6
Continuous
 62
     7
100
AcDbCircle
 10
280.0973598878
 20
778.0216602829
 30
0.0
 40
0.5000000000007816
100
AcDbArc
 50
0.0
 51
74.2608779743
  0
SPLINE
  5
403
330
3F4
100
AcDbEntity
  8
$DDT_AUDIT_GENERATED_(60)
  6
Continuous
 62
     7
100
AcDbSpline
210
0.0
220
0.0
230
1.0
 70
     8
 71
     3
 72
    10
 73
     6
 74
     0
 42
0.0000000124188139
 43
0.0000000001
 40
0.0
 40
0.0
 40
0.0
 40
0.0
 40
0.5
 40
0.5
 40
1.0
 40
1.0
 40
1.0
 40
1.0
 10
139.1313335711096
 20
787.4628246845332
 30
0.0
 10
139.0004328800858
 20
787.4628262508389
 30
0.0
 10
138.8703376330234
 20
787.4089404029131
 30
0.0
 10
138.6852149928981
 20
787.2238199778786
 30
0.0
 10
138.6313275883078
 20
787.0937253756023
 30
0.0
 10
138.6313275883078
 20
786.962824684569
 30
0.0
  0
SPLINE
  5
404
330
3F4
100
AcDbEntity
  8
$DDT_AUDIT_GENERATED_(60)
  6
Continuous
 62
     7
100
AcDbSpline
210
0.0
220
0.0
230
1.0
 70
     8
 71
     3
 72
     9
 73
     5
 74
     0
 42
0.0000000020762021
 43
0.0000000001
 40
0.0
 40
0.0
 40
0.0
 40
0.0
 40
0.3192339599942904
 40
1.0
 40
1.0
 40
1.0
 40
1.0
 10
276.7195577546716
 20
769.2365860593872
 30
0.0
 10
277.1105586761801
 20
769.5146311682743
 30
0.0
 10
278.3495548069319
 20
770.4282478726085
 30
0.0
 10
279.6264744711706
 20
771.505015744836
 30
0.0
 10
280.4098955276029
 20
772.3151495384111
 30
0.0
  0
LINE
  5
405
330
3F4
100
AcDbEntity
  8
$DDT_AUDIT_GENERATED_(60)
  6
Continuous
 62
     7
100
AcDbLine
 10
138.6313275883
 20
709.0660569009
 30
0.0
 11
138.6313275883
 21
676.5105229325
 31
0.0
  0
ARC
  5
406
330
3F4
100
AcDbEntity
  8
$DDT_AUDIT_GENERATED_(60)
  6
Continuous
 62
     7
100
AcDbCircle
 10
-169.4462769708
 20
719.4057294085
 30
0.0
 40
308.251065299808
100
AcDbArc
 50
358.0777657852
 51
1.9222342148
  0
ARC
  5
407
330
3F4
100
AcDbEntity
  8
$DDT_AUDIT_GENERATED_(60)
  6
Continuous
 62
     7
100
AcDbCircle
 10
266.3890028201
 20
820.5966038941
 30
0.0
 40
52.38866096052307
100
AcDbArc
 50
275.4296703467
 51
281.3727246879
  0
SPLINE
  5
408
330
3F4
100
AcDbEntity
  8
$DDT_AUDIT_GENERATED_(60)
  6
Continuous
 62
     7
100
AcDbSpline
210
0.0
220
0.0
230
1.0
 70
     8
 71
     3
 72
    14
 73
    10
 74
     0
 42
0.0000000004260687
 43
0.0000000001
 40
0.0
 40
0.0
 40
0.0
 40
0.0
 40
0.0625000000000004
 40
0.0625000000000004
 40
0.1250000000000008
 40
0.1250000000000008
 40
0.1875000000000012
 40
0.1875000000000012
 40
0.2268915866152998
 40
0.2268915866152998
 40
0.2268915866152998
 40
0.2268915866152998
 10
271.3462194960618
 20
768.4430057433854
 30
0.0
 10
272.2335399102974
 20
768.5596680417095
 30
0.0
 10
273.0550351395348
 20
768.6458473094207
 30
0.0
 10
274.4530116184997
 20
768.806145267501
 30
0.0
 10
275.0410203960397
 20
768.8804260853511
 30
0.0
 10
275.9569670217164
 20
769.0186843288448
 30
0.0
 10
276.2721752441802
 20
769.0806636806897
 30
0.0
 10
276.5625276768295
 20
769.1480833921433
 30
0.0
 10
276.6185438563998
 20
769.1629846567635
 30
0.0
 10
276.619012014018
 20
769.1636914581628
 30
0.0
  0
ARC
  5
409
330
3F4
100
AcDbEntity
  8
$DDT_AUDIT_GENERATED_(60)
  6
Continuous
 62
     7
100
AcDbCircle
 10
252.1558994246
 20
761.4367193563
 30
0.0
 40
0.5000000000000118
100
AcDbArc
 50
253.3015343142
 51
326.0588968041
  0
ARC
  5
40A
330
3F4
100
AcDbEntity
  8
$DDT_AUDIT_GENERATED_(60)
  6
Continuous
 62
     7
100
AcDbCircle
 10
280.0670426855
 20
778.0454182571
 30
0.0
 40
0.4853973079156232
100
AcDbArc
 50
70.1498451702
 51
76.3183931343
  0
ARC
  5
40B
330
3F4
100
AcDbEntity
  8
$DDT_AUDIT_GENERATED_(60)
  6
Continuous
 62
     7
100
AcDbCircle
 10
280.0672470936
 20
778.0457148254
 30
0.0
 40
0.485060823887623
100
AcDbArc
 50
357.036246213
 51
76.3335671568
  0
SPLINE
  5
40C
330
3F4
100
AcDbEntity
  8
$DDT_AUDIT_GENERATED_(60)
  6
Continuous
 62
     7
100
AcDbSpline
210
0.0
220
0.0
230
1.0
 70
     8
 71
     3
 72
    25
 73
    21
 74
     0
 42
0.0000000018033443
 43
0.0000000001
 40
0.0
 40
0.0
 40
0.0
 40
0.0
 40
0.0359277202771245
 40
0.1393825873526374
 40
0.2430206538863175
 40
0.3463683996932347
 40
0.4492316411259484
 40
0.5517130539138474
 40
0.6394641313267175
 40
0.7308798920067175
 40
0.8306407701852596
 40
0.9314467716727738
 40
0.9570585803901712
 40
0.9722004463319949
 40
0.978465373769617
 40
0.9808267940154846
 40
0.9827834129745602
 40
0.9856121104743586
 40
0.9984256969376786
 40
1.0
 40
1.0
 40
1.0
 40
1.0
 10
271.177678077012
 20
768.2970070091926
 30
0.0
 10
271.3082147585332
 20
768.3151683261154
 30
0.0
 10
271.7397326642097
 20
768.3752027128783
 30
0.0
 10
272.4928561419999
 20
768.4748077928281
 30
0.0
 10
273.3540184694936
 20
768.5879293655213
 30
0.0
 10
274.1292014429769
 20
768.69022002794
 30
0.0
 10
274.8008623760568
 20
768.7822640098223
 30
0.0
 10
275.343557321686
 20
768.8641481681689
 30
0.0
 10
275.7565806737032
 20
768.9330411259278
 30
0.0
 10
276.0726122407552
 20
768.984528389207
 30
0.0
 10
276.2984829366501
 20
769.021894573041
 30
0.0
 10
276.3872907649168
 20
769.0367121173433
 30
0.0
 10
276.4117887196242
 20
769.0408584503156
 30
0.0
 10
276.4188719748302
 20
769.0421520720421
 30
0.0
 10
276.4272489950557
 20
769.043644898996
 30
0.0
 10
276.441210947767
 20
769.0465838889313
 30
0.0
 10
276.4608883645319
 20
769.051233137568
 30
0.0
 10
276.526496497787
 20
769.0709949303327
 30
0.0
 10
276.5983446581408
 20
769.0992857686747
 30
0.0
 10
276.6357156079264
 20
769.1398676460951
 30
0.0
 10
276.6404634660562
 20
769.1450276962992
 30
0.0
  0
SPLINE
  5
40D
330
3F4
100
AcDbEntity
  8
$DDT_AUDIT_GENERATED_(60)
  6
Continuous
 62
     7
100
AcDbSpline
210
0.0
220
0.0
230
1.0
 70
     8
 71
     3
 72
    12
 73
     8
 74
     0
 42
0.0000000012741293
 43
0.0000000001
 40
0.869389818496736
 40
0.869389818496736
 40
0.869389818496736
 40
0.869389818496736
 40
0.8920823012524246
 40
0.9215280726758628
 40
0.951322052988993
 40
0.9663319384042162
 40
0.9771806560376457
 40
0.9771806560376457
 40
0.9771806560376457
 40
0.9771806560376457
 10
275.5711034390961
 20
768.9026531837188
 30
0.0
 10
275.6827876958175
 20
768.9210037188019
 30
0.0
 10
275.9110862623548
 20
768.9592212997467
 30
0.0
 10
276.1821702274908
 20
769.0036437498518
 30
0.0
 10
276.3334699829838
 20
769.0284449202511
 30
0.0
 10
276.3908207327524
 20
769.0377077644306
 30
0.0
 10
276.4051419716718
 20
769.0399807599277
 30
0.0
 10
276.4044257822008
 20
769.0398623633969
 30
0.0
  0
SPLINE
  5
40E
330
3F4
100
AcDbEntity
  8
$DDT_AUDIT_GENERATED_(60)
  6
Continuous
 62
     7
100
AcDbSpline
210
0.0
220
0.0
230
1.0
 70
     8
 71
     3
 72
     9
 73
     5
 74
     0
 42
0.000000000244163
 43
0.0000000001
 40
0.9882703162732684
 40
0.9882703162732684
 40
0.9882703162732684
 40
0.9882703162732684
 40
0.9888329892439467
 40
0.9902983277847222
 40
0.9902983277847222
 40
0.9902983277847222
 40
0.9902983277847222
 10
276.1687205657864
 20
769.061848983051
 30
0.0
 10
276.161447190053
 20
769.0643528254761
 30
0.0
 10
276.135452735855
 20
769.0739800443735
 30
0.0
 10
276.1104239129481
 20
769.0857534569187
 30
0.0
 10
276.0928793776937
 20
769.0953297308063
 30
0.0
  0
SPLINE
  5
40F
330
3F4
100
AcDbEntity
  8
$DDT_AUDIT_GENERATED_(60)
  6
Continuous
 62
     7
100
AcDbSpline
210
0.0
220
0.0
230
1.0
 70
     8
 71
     3
 72
    32
 73
    28
 74
     0
 42
0.0000000004772925
 43
0.0000000001
 40
0.0205598643339038
 40
0.0205598643339038
 40
0.0205598643339038
 40
0.0205598643339038
 40
0.0242568488448802
 40
0.0433236144040447
 40
0.0767312918661734
 40
0.1170308269981709
 40
0.1587206001571812
 40
0.2004225934163579
 40
0.2420952656187064
 40
0.2865295741891369
 40
0.3313932625964995
 40
0.3761576155103276
 40
0.420024369409462
 40
0.4624469159843737
 40
0.5031897806489609
 40
0.5423429907664393
 40
0.5804003968638641
 40
0.6194707990700373
 40
0.6599738743193778
 40
0.7018253257458705
 40
0.7447874881073903
 40
0.7884771507089432
 40
0.8324081167089586
 40
0.8755822098299594
 40
0.9194798030861008
 40
0.9635788226211954
 40
1.0
 40
1.0
 40
1.0
 40
1.0
 10
252.5414060677348
 20
761.1298189319535
 30
0.0
 10
252.5414418142937
 20
761.1298619909304
 30
0.0
 10
252.5438024435894
 20
761.1325609718871
 30
0.0
 10
252.5661076653252
 20
761.1565566859158
 30
0.0
 10
252.6458506180562
 20
761.2401986427496
 30
0.0
 10
252.8126242957285
 20
761.4122120487901
 30
0.0
 10
253.0700991241792
 20
761.6743266145527
 30
0.0
 10
253.4118934460234
 20
762.0197142061429
 30
0.0
 10
253.8338167291944
 20
762.4379886158266
 30
0.0
 10
254.3456823914853
 20
762.9186570124618
 30
0.0
 10
254.9566439017235
 20
763.4488431421767
 30
0.0
 10
255.6551327310315
 20
763.9967833351164
 30
0.0
 10
256.4316546302136
 20
764.5360101272593
 30
0.0
 10
257.2728343704721
 20
765.0416739121995
 30
0.0
 10
258.1650391092784
 20
765.4950931590171
 30
0.0
 10
259.1009720324217
 20
765.8831717377154
 30
0.0
 10
260.0828639784015
 20
766.2205062837784
 30
0.0
 10
261.1194826855786
 20
766.5205637913455
 30
0.0
 10
262.2212844026884
 20
766.7921053913694
 30
0.0
 10
263.3782935863437
 20
767.038412665684
 30
0.0
 10
264.572444367052
 20
767.2627508982636
 30
0.0
 10
265.7813545419372
 20
767.4689827800289
 30
0.0
 10
266.9736891575192
 20
767.6624823793468
 30
0.0
 10
268.139860021274
 20
767.8469772138859
 30
0.0
 10
269.2593560202325
 20
768.0167622402645
 30
0.0
 10
270.3054040812887
 20
768.1702328515054
 30
0.0
 10
270.8786837381938
 20
768.2512369182128
 30
0.0
 10
271.1840368908856
 20
768.2942637390064
 30
0.0
  0
LINE
  5
410
330
3F4
100
AcDbEntity
  8
$DDT_AUDIT_GENERATED_(86)
  6
Continuous
 62
     7
100
AcDbLine
 10
275.9759501802
 20
764.7010711788
 30
0.0
 11
255.7725588333
 21
757.3476380973
 31
0.0
  0
SPLINE
  5
411
330
3F4
100
AcDbEntity
  8
$DDT_AUDIT_GENERATED_(86)
  6
Continuous
 62
     7
100
AcDbSpline
210
0.0
220
0.0
230
1.0
 70
     8
 71
     3
 72
    10
 73
     6
 74
     0
 42
0.0000000019260148
 43
0.0000000001
 40
0.0
 40
0.0
 40
0.0
 40
0.0
 40
0.5
 40
0.5
 40
1.0
 40
1.0
 40
1.0
 40
1.0
 10
268.1961667127586
 20
762.2073833955051
 30
0.0
 10
267.4248312980559
 20
761.8053700799618
 30
0.0
 10
266.6348543176644
 20
761.4547803993719
 30
0.0
 10
265.0145019656433
 20
760.8650418988163
 30
0.0
 10
264.1841271381821
 20
760.6258915777362
 30
0.0
 10
263.3351303367444
 20
760.4381108469507
 30
0.0
  0
LINE
  5
412
330
3F4
100
AcDbEntity
  8
$DDT_AUDIT_GENERATED_(86)
  6
Continuous
 62
     7
100
AcDbLine
 10
268.8614627348
 20
765.304142834
 30
0.0
 11
260.8349254188
 21
762.3827221668
 31
0.0
  0
LINE
  5
413
330
3F4
100
AcDbEntity
  8
$DDT_AUDIT_GENERATED_(86)
  6
Continuous
 62
     7
100
AcDbLine
 10
268.8614627348
 20
765.304142834
 30
0.0
 11
269.48271905
 21
763.5972551362
 31
0.0
  0
SPLINE
  5
414
330
3F4
100
AcDbEntity
  8
$DDT_AUDIT_GENERATED_(86)
  6
Continuous
 62
     7
100
AcDbSpline
210
0.0
220
0.0
230
1.0
 70
     8
 71
     3
 72
    14
 73
    10
 74
     0
 42
0.0000000049320844
 43
0.0000000001
 40
0.0
 40
0.0
 40
0.0
 40
0.0
 40
0.1249999999999997
 40
0.1249999999999997
 40
0.2499999999999994
 40
0.2499999999999994
 40
0.4999999999999996
 40
0.4999999999999996
 40
1.0
 40
1.0
 40
1.0
 40
1.0
 10
269.4827190500205
 20
763.5972551362009
 30
0.0
 10
269.5115941659348
 20
763.5179214072425
 30
0.0
 10
269.510103591288
 20
763.4279431237543
 30
0.0
 10
269.4676644605826
 20
763.264384812607
 30
0.0
 10
269.4285125424925
 20
763.1873263486373
 30
0.0
 10
269.2900535076856
 20
762.9761210234432
 30
0.0
 10
269.1678897041884
 20
762.8556852247156
 30
0.0
 10
268.7840957541716
 20
762.5336433050935
 30
0.0
 10
268.49240657639
 20
762.3617810382226
 30
0.0
 10
268.1961667127586
 20
762.2073833955051
 30
0.0
  0
SPLINE
  5
415
330
3F4
100
AcDbEntity
  8
$DDT_AUDIT_GENERATED_(86)
  6
Continuous
 62
     7
100
AcDbSpline
210
0.0
220
0.0
230
1.0
 70
     8
 71
     3
 72
    14
 73
    10
 74
     0
 42
0.0000000049319876
 43
0.0000000001
 40
0.0
 40
0.0
 40
0.0
 40
0.0
 40
0.4999999999999996
 40
0.4999999999999996
 40
0.7499999999999993
 40
0.7499999999999993
 40
0.8749999999999997
 40
0.8749999999999997
 40
1.0
 40
1.0
 40
1.0
 40
1.0
 10
263.3351303367444
 20
760.4381108469507
 30
0.0
 10
263.0075529365731
 20
760.365657424878
 30
0.0
 10
262.6762889707459
 20
760.3100728318568
 30
0.0
 10
262.1727440609008
 20
760.3101544664981
 30
0.0
 10
262.0031767836613
 20
760.3240088722749
 30
0.0
 10
261.7628483139069
 20
760.3960639402974
 30
0.0
 10
261.682863192961
 20
760.4298483076724
 30
0.0
 10
261.5443799222481
 20
760.5281146934256
 30
0.0
 10
261.485193761424
 20
760.5961245787906
 30
0.0
 10
261.4561817340304
 20
760.6758344689537
 30
0.0
  0
LINE
  5
416
330
3F4
100
AcDbEntity
  8
$DDT_AUDIT_GENERATED_(86)
  6
Continuous
 62
     7
100
AcDbLine
 10
261.456181734
 20
760.675834469
 30
0.0
 11
260.8349254188
 21
762.3827221668
 31
0.0
  0
LINE
  5
417
330
3F4
100
AcDbEntity
  8
$DDT_AUDIT_GENERATED_(86)
  6
Continuous
 62
     7
100
AcDbLine
 10
255.1471219099
 20
757.4579195016
 30
0.0
 11
255.7725588333
 21
757.3476380973
 31
0.0
  0
LINE
  5
418
330
3F4
100
AcDbEntity
  8
$DDT_AUDIT_GENERATED_(86)
  6
Continuous
 62
     7
100
AcDbLine
 10
275.9759501802
 20
764.7010711788
 30
0.0
 11
276.3841751396
 21
765.1875747408
 31
0.0
  0
ARC
  5
419
330
3F4
100
AcDbEntity
  8
$DDT_AUDIT_GENERATED_(86)
  6
Continuous
 62
     7
100
AcDbCircle
 10
275.6181306965
 20
765.8303623505
 30
0.0
 40
0.9999999999999929
100
AcDbArc
 50
320.0
 51
20.0
  0
ARC
  5
41A
330
3F4
100
AcDbEntity
  8
$DDT_AUDIT_GENERATED_(86)
  6
Continuous
 62
     7
100
AcDbCircle
 10
255.3207700875
 20
758.4427272547
 30
0.0
 40
1.000000000000001
100
AcDbArc
 50
200.0
 51
260.0
  0
LINE
  5
41B
330
3F4
100
AcDbEntity
  8
$DDT_AUDIT_GENERATED_(86)
  6
Continuous
 62
     7
100
AcDbLine
 10
253.0777185972
 20
761.681656175
 30
0.0
 11
254.3810774668
 21
758.1007071113
 31
0.0
  0
LINE
  5
41C
330
3F4
100
AcDbEntity
  8
$DDT_AUDIT_GENERATED_(86)
  6
Continuous
 62
     7
100
AcDbLine
 10
276.5578233173
 20
766.1723824938
 30
0.0
 11
275.5645302694
 21
768.9014327139
 31
0.0
  0
LINE
  5
41D
330
3F4
100
AcDbEntity
  8
4221035_0__HUELS
  6
Continuous
 62
     7
100
AcDbLine
 10
257.0582448785
 20
757.7623806598
 30
0.0
 11
274.7244661493
 21
764.1923593543
 31
0.0
  0
LINE
  5
41E
330
3F4
100
AcDbEntity
  8
4221035_0__HUELS
  6
Continuous
 62
     7
100
AcDbLine
 10
274.7244661493
 20
764.1923593543
 30
0.0
 11
274.7073651421
 21
764.2393439853
 31
0.0
  0
LINE
  5
41F
330
3F4
100
AcDbEntity
  8
4221035_0__HUELS
  6
Continuous
 62
     7
100
AcDbLine
 10
257.0411438714
 20
757.8093652908
 30
0.0
 11
257.0582448785
 21
757.7623806598
 31
0.0
  0
ARC
  5
420
330
3F4
100
AcDbEntity
  8
$DDT_AUDIT_GENERATED_(3BE)
  6
Continuous
 62
     7
100
AcDbCircle
 10
258.2839309678
 20
263.138937881
 30
0.0
 40
566.7809805239604
100
AcDbArc
 50
89.7123125337
 51
97.2959369104
  0
ARC
  5
421
330
3F4
100
AcDbEntity
  8
$DDT_AUDIT_GENERATED_(3BE)
  6
Continuous
 62
     7
100
AcDbCircle
 10
180.4285658603
 20
864.4955114993
 30
0.0
 40
38.60681730028136
100
AcDbArc
 50
272.0764728332
 51
278.5844290082
  0
ARC
  5
422
330
3F4
100
AcDbEntity
  8
$DDT_AUDIT_GENERATED_(3BE)
  6
Continuous
 62
     7
100
AcDbCircle
 10
261.7863373839
 20
220.7267271611
 30
0.0
 40
610.2944041168956
100
AcDbArc
 50
89.9838395049
 51
97.1153051899
  0
ARC
  5
423
330
3F4
100
AcDbEntity
  8
$DDT_AUDIT_GENERATED_(3BE)
  6
Continuous
 62
     7
100
AcDbCircle
 10
261.7863373839
 20
220.7267271611
 30
0.0
 40
610.2944041168956
100
AcDbArc
 50
89.9838147646
 51
89.9838395049
  0
ARC
  5
424
330
3F4
100
AcDbEntity
  8
$DDT_AUDIT_GENERATED_(3BE)
  6
Continuous
 62
     7
100
AcDbCircle
 10
252.2574489837
 20
333.3352102413
 30
0.0
 40
500.3669161054846
100
AcDbArc
 50
88.9749597567
 51
97.5944106051
  0
ARC
  5
425
330
3F4
100
AcDbEntity
  8
$DDT_AUDIT_GENERATED_(3BE)
  6
Continuous
 62
     7
100
AcDbCircle
 10
273.0251428591
 20
135.9200076781
 30
0.0
 40
698.816812838154
100
AcDbArc
 50
97.143068712
 51
97.534151279
  0
ARC
  5
426
330
3F4
100
AcDbEntity
  8
$DDT_AUDIT_GENERATED_(3BE)
  6
Continuous
 62
     7
100
AcDbCircle
 10
306.9161471361
 20
-102.6059295564
 30
0.0
 40
939.7300917881377
100
AcDbArc
 50
97.6758214719
 51
100.2900000817
  0
LINE
  5
427
330
3F4
100
AcDbEntity
  8
$DDT_AUDIT_GENERATED_(3BE)
  6
Continuous
 62
     7
100
AcDbLine
 10
166.2678965345
 20
790.2386898952
 30
0.0
 11
138.8741019906
 21
807.3562325381
 31
0.0
  0
LINE
  5
428
330
3F4
100
AcDbEntity
  8
$DDT_AUDIT_GENERATED_(3BE)
  6
Continuous
 62
     7
100
AcDbLine
 10
171.565829517
 20
789.7828341836
 30
0.0
 11
188.1412468583
 21
789.7828341836
 31
0.0
  0
SPLINE
  5
429
330
3F4
100
AcDbEntity
  8
$DDT_AUDIT_GENERATED_(3BE)
  6
Continuous
 62
     7
100
AcDbSpline
210
0.0
220
0.0
230
1.0
 70
     8
 71
     3
 72
     8
 73
     4
 74
     0
 42
0.0000000026978277
 43
0.0000000001
 40
0.0
 40
0.0
 40
0.0
 40
0.0
 40
1.0
 40
1.0
 40
1.0
 40
1.0
 10
167.8591435657419
 20
789.7829051239065
 30
0.0
 10
169.1188940536809
 20
789.7828903210341
 30
0.0
 10
170.3575818125802
 20
789.7828341836324
 30
0.0
 10
171.5658295173172
 20
789.7828341836324
 30
0.0
  0
ARC
  5
42A
330
3F4
100
AcDbEntity
  8
$DDT_AUDIT_GENERATED_(3BE)
  6
Continuous
 62
     7
100
AcDbCircle
 10
167.8609802333
 20
792.7918026603
 30
0.0
 40
3.009368781478151
100
AcDbArc
 50
238.036784378
 51
261.2692185896
  0
LINE
  5
42B
330
3F4
100
AcDbEntity
  8
$DDT_AUDIT_GENERATED_(3BE)
  6
Continuous
 62
     7
100
AcDbLine
 10
167.404182567
 20
789.817304996
 30
0.0
 11
167.8591435657
 21
789.7829051239
 31
0.0
  0
ARC
  5
42C
330
3F4
100
AcDbEntity
  8
$DDT_AUDIT_GENERATED_(3BE)
  6
Continuous
 62
     7
100
AcDbCircle
 10
216.7493731694
 20
802.9746941558
 30
0.0
 40
28.35820530819477
100
AcDbArc
 50
172.2980508954
 51
187.6620053076
  0
LINE
  5
42D
330
3F4
100
AcDbEntity
  8
$DDT_AUDIT_GENERATED_(3BE)
  6
Continuous
 62
     7
100
AcDbLine
 10
261.9585656478
 20
831.0224995118
 30
0.0
 11
261.6922011679
 21
833.1918635914
 31
0.0
  0
SPLINE
  5
42E
330
3F4
100
AcDbEntity
  8
$DDT_AUDIT_GENERATED_(3BE)
  6
Continuous
 62
     7
100
AcDbSpline
210
0.0
220
0.0
230
1.0
 70
     8
 71
     3
 72
    34
 73
    30
 74
     0
 42
0.0000000001411288
 43
0.0000000001
 40
0.0
 40
0.0
 40
0.0
 40
0.0
 40
0.0055303295370126
 40
0.0836340505997884
 40
0.1571817149495922
 40
0.2253300314245268
 40
0.2882826202293276
 40
0.3463667502291037
 40
0.3999090864856923
 40
0.4492356108380336
 40
0.5090030330984214
 40
0.5623454439721968
 40
0.6093727800370318
 40
0.6501651271468233
 40
0.6848034087246674
 40
0.7134780353050413
 40
0.7397940578556688
 40
0.7618836871223508
 40
0.7817104444443742
 40
0.8011867899550916
 40
0.8215783707739552
 40
0.8436809644186594
 40
0.8599272742512092
 40
0.8775496824604134
 40
0.8968612859827724
 40
0.9186555282566402
 40
0.9439306591554082
 40
0.9736926456714776
 40
1.0
 40
1.0
 40
1.0
 40
1.0
 10
190.4351909080587
 20
825.3127497969685
 30
0.0
 10
190.5779629743413
 20
825.3288737193441
 30
0.0
 10
192.4369636160812
 20
825.5387608631195
 30
0.0
 10
196.2584613283712
 20
825.9342564394492
 30
0.0
 10
201.3773225399489
 20
826.4441169045435
 30
0.0
 10
206.2014893205822
 20
826.8912496927837
 30
0.0
 10
210.650529973479
 20
827.275406674913
 30
0.0
 10
214.7614195431118
 20
827.6034408906124
 30
0.0
 10
218.5525732717374
 20
827.8814962888961
 30
0.0
 10
222.3852490059267
 20
828.1384396439515
 30
0.0
 10
226.2147987752631
 20
828.3696026973299
 30
0.0
 10
229.9917099325796
 20
828.5701730407703
 30
0.0
 10
233.3224909600775
 20
828.7184624882991
 30
0.0
 10
236.2131169573562
 20
828.8175913157105
 30
0.0
 10
238.6714254126181
 20
828.8712828488667
 30
0.0
 10
240.7884168580163
 20
828.8816549398383
 30
0.0
 10
242.6088573376692
 20
828.8540670914944
 30
0.0
 10
244.2195596875723
 20
828.8008034090384
 30
0.0
 10
245.6684283866626
 20
828.7435444435048
 30
0.0
 10
247.0779407728167
 20
828.7070244388774
 30
0.0
 10
248.5417334313983
 20
828.7033861909694
 30
0.0
 10
249.9288971633569
 20
828.7348381250104
 30
0.0
 10
251.2496511198691
 20
828.7918437842986
 30
0.0
 10
252.5036555849768
 20
828.8657977156224
 30
0.0
 10
253.8866590779186
 20
828.9667857754758
 30
0.0
 10
255.4497702134017
 20
829.1134494376371
 30
0.0
 10
257.2426908883115
 20
829.3247830454562
 30
0.0
 10
259.1859605206622
 20
829.5968309065099
 30
0.0
 10
260.3989310170813
 20
829.7959649833053
 30
0.0
 10
261.0731950274488
 20
829.9077843155492
 30
0.0
  0
SPLINE
  5
42F
330
3F4
100
AcDbEntity
  8
$DDT_AUDIT_GENERATED_(3BE)
  6
Continuous
 62
     7
100
AcDbSpline
210
0.0
220
0.0
230
1.0
 70
     8
 71
     3
 72
    13
 73
     9
 74
     0
 42
0.0000000068375122
 43
0.0000000001
 40
0.0
 40
0.0
 40
0.0
 40
0.0
 40
0.0741937315516754
 40
0.3053349526481101
 40
0.509070318592418
 40
0.7213763737770019
 40
0.9487406938437704
 40
1.0
 40
1.0
 40
1.0
 40
1.0
 10
261.2035285003626
 20
829.9344606150116
 30
0.0
 10
261.241638748225
 20
829.9432639020451
 30
0.0
 10
261.3756431693263
 20
829.9755806087895
 30
0.0
 10
261.5960542728296
 20
830.1090305509161
 30
0.0
 10
261.8065528272484
 20
830.3410081271329
 30
0.0
 10
261.9326060853937
 20
830.6228619700385
 30
0.0
 10
261.9775284062712
 20
830.8711782108564
 30
0.0
 10
261.9472456477098
 20
830.9940037859469
 30
0.0
 10
261.9406311842071
 20
831.0202262329423
 30
0.0
  0
ARC
  5
430
330
3F4
100
AcDbEntity
  8
$DDT_AUDIT_GENERATED_(3BE)
  6
Continuous
 62
     7
100
AcDbCircle
 10
190.6527660224
 20
823.3259598063
 30
0.0
 40
2.000000000000805
100
AcDbArc
 50
96.2192249063
 51
180.0048982369
  0
SPLINE
  5
431
330
3F4
100
AcDbEntity
  8
$DDT_AUDIT_GENERATED_(3BE)
  6
Continuous
 62
     7
100
AcDbSpline
210
0.0
220
0.0
230
1.0
 70
     8
 71
     3
 72
    13
 73
     9
 74
     0
 42
0.0000000169999582
 43
0.0000000001
 40
0.0
 40
0.0
 40
0.0
 40
0.0
 40
0.0892528509820713
 40
0.3606838177052408
 40
0.5830783279651091
 40
0.7711741057791067
 40
0.9271204513014062
 40
1.0
 40
1.0
 40
1.0
 40
1.0
 10
261.676183840077
 20
833.1865385810787
 30
0.0
 10
261.6759968580172
 20
833.2055980983831
 30
0.0
 10
261.6748642532398
 20
833.2718618500828
 30
0.0
 10
261.6220089910458
 20
833.3805545212936
 30
0.0
 10
261.5400198264995
 20
833.4841932760811
 30
0.0
 10
261.4521159772108
 20
833.5506472560878
 30
0.0
 10
261.3771363978942
 20
833.5879735489036
 30
0.0
 10
261.3378935077923
 20
833.5989385119904
 30
0.0
 10
261.3232300716693
 20
833.6029140726755
 30
0.0
  0
ARC
  5
432
330
3F4
100
AcDbEntity
  8
$DDT_AUDIT_GENERATED_(3BE)
  6
Continuous
 62
     7
100
AcDbCircle
 10
139.1390562876
 20
821.5174493398
 30
0.0
 40
0.499999999997485
100
AcDbArc
 50
100.1871401966
 51
179.8800542621
  0
LINE
  5
433
330
3F4
100
AcDbEntity
  8
$DDT_AUDIT_GENERATED_(3BE)
  6
Continuous
 62
     7
100
AcDbLine
 10
188.6469974073
 20
806.7752579074
 30
0.0
 11
188.6527661439
 21
823.3266567685
 31
0.0
  0
LINE
  5
434
330
3F4
100
AcDbEntity
  8
$DDT_AUDIT_GENERATED_(3BE)
  6
Continuous
 62
     7
100
AcDbLine
 10
188.6412491625
 20
790.2826530207
 30
0.0
 11
188.6443658118
 21
799.2248027361
 31
0.0
  0
LINE
  5
435
330
3F4
100
AcDbEntity
  8
$DDT_AUDIT_GENERATED_(3BE)
  6
Continuous
 62
     7
100
AcDbLine
 10
138.6390562875
 20
821.5183689744
 30
0.0
 11
138.6390562875
 21
807.778171899
 31
0.0
  0
ARC
  5
436
330
3F4
100
AcDbEntity
  8
$DDT_AUDIT_GENERATED_(3BE)
  6
Continuous
 62
     7
100
AcDbCircle
 10
139.1390565052
 20
807.7802597756
 30
0.0
 40
0.4999999929009598
100
AcDbArc
 50
180.249722699
 51
238.0008525829
  0
ARC
  5
437
330
3F4
100
AcDbEntity
  8
$DDT_AUDIT_GENERATED_(3BE)
  6
Continuous
 62
     7
100
AcDbCircle
 10
188.1412491953
 20
790.2828341836
 30
0.0
 40
0.4999999999999246
100
AcDbArc
 50
270.0000000805
 51
0.3922396828
  0
LINE
  5
439
330
3F4
100
AcDbEntity
  8
$DDT_AUDIT_GENERATED_(438)
  6
Continuous
 62
     7
100
AcDbLine
 10
131.2943603962
 20
737.1867333766
 30
0.0
 11
119.9239879802
 21
737.1867333766
 31
0.0
  0
LINE
  5
43A
330
3F4
100
AcDbEntity
  8
$DDT_AUDIT_GENERATED_(438)
  6
Continuous
 62
     7
100
AcDbLine
 10
119.9239879802
 20
733.1867333766
 30
0.0
 11
131.2943603962
 21
733.1867333766
 31
0.0
  0
ARC
  5
43B
330
3F4
100
AcDbEntity
  8
$DDT_AUDIT_GENERATED_(438)
  6
Continuous
 62
     7
100
AcDbCircle
 10
131.2943603962
 20
732.1867333766
 30
0.0
 40
1.000000000000001
100
AcDbArc
 50
18.0
 51
90.0
  0
ARC
  5
43C
330
3F4
100
AcDbEntity
  8
$DDT_AUDIT_GENERATED_(438)
  6
Continuous
 62
     7
100
AcDbCircle
 10
131.2943603962
 20
732.1867333766
 30
0.0
 40
5.000000000000004
100
AcDbArc
 50
18.0
 51
90.0
  0
LINE
  5
43D
330
3F4
100
AcDbEntity
  8
$DDT_AUDIT_GENERATED_(438)
  6
Continuous
 62
     7
100
AcDbLine
 10
138.7366174758
 20
725.4621611707
 30
0.0
 11
136.0496429777
 21
733.7318183485
 31
0.0
  0
LINE
  5
43E
330
3F4
100
AcDbEntity
  8
$DDT_AUDIT_GENERATED_(438)
  6
Continuous
 62
     7
100
AcDbLine
 10
132.2454169125
 20
732.495750371
 30
0.0
 11
138.7354126407
 21
712.5215973618
 31
0.0
  0
ARC
  5
43F
330
3F4
100
AcDbEntity
  8
$DDT_AUDIT_GENERATED_(438)
  6
Continuous
 62
     7
100
AcDbCircle
 10
119.9239879802
 20
735.1867333766
 30
0.0
 40
2.000000000000002
100
AcDbArc
 50
90.0
 51
270.0
  0
LINE
  5
440
330
3F4
100
AcDbEntity
  8
$DDT_AUDIT_GENERATED_(3EE)
  6
Continuous
 62
     7
100
AcDbLine
 10
187.2806430497
 20
787.4628552381
 30
0.0
 11
139.9820172768
 21
787.4628552381
 31
0.0
  0
LINE
  5
441
330
3F4
100
AcDbEntity
  8
$DDT_AUDIT_GENERATED_(3EE)
  6
Continuous
 62
     7
100
AcDbLine
 10
149.9062820819
 20
800.4342258659
 30
0.0
 11
148.6313301632
 21
800.4342258659
 31
0.0
  0
LINE
  5
442
330
3F4
100
AcDbEntity
  8
$DDT_AUDIT_GENERATED_(3EE)
  6
Continuous
 62
     7
100
AcDbLine
 10
186.5313301632
 20
787.2393212372
 30
0.0
 11
186.5313301632
 21
787.4628552381
 31
0.0
  0
ARC
  5
443
330
3F4
100
AcDbEntity
  8
$DDT_AUDIT_GENERATED_(3EE)
  6
Continuous
 62
     7
100
AcDbCircle
 10
163.6313301632
 20
781.0628552381
 30
0.0
 40
24.5
100
AcDbArc
 50
15.1427314405
 51
20.9071148078
  0
ARC
  5
444
330
3F4
100
AcDbEntity
  8
$DDT_AUDIT_GENERATED_(3EE)
  6
Continuous
 62
     7
100
AcDbCircle
 10
163.6313301632
 20
781.0628552381
 30
0.0
 40
24.5
100
AcDbArc
 50
127.7520013062
 51
164.8572685595
  0
ENDBLK
  5
446
330
3F4
100
AcDbEntity
  8
0
100
AcDbBlockEnd
  0
BLOCK
  5
46A
330
447
100
AcDbEntity
  8
0
100
AcDbBlockBegin
  2
SE2
 70
     0
 10
0.0
 20
0.0
 30
0.0
  3
SE2
  1

  0
SPLINE
  5
449
330
447
100
AcDbEntity
  8
$DDT_AUDIT_GENERATED_(60)
  6
Continuous
 62
     7
100
AcDbSpline
210
0.0
220
0.0
230
1.0
 70
     8
 71
     3
 72
    15
 73
    11
 74
     0
 42
0.0000000000940327
 43
0.0000000001
 40
0.1085630792078813
 40
0.1085630792078813
 40
0.1085630792078813
 40
0.1085630792078813
 40
0.1342805422302321
 40
0.1514345142070704
 40
0.1677643703770246
 40
0.20119112318427
 40
0.2145250949264329
 40
0.2280947477262487
 40
0.2350241699461213
 40
0.2391009269859239
 40
0.2391009269859239
 40
0.2391009269859239
 40
0.2391009269859239
 10
42.20701296535713
 20
109.9398719845359
 30
0.0
 10
42.93932135303346
 20
110.4853704611038
 30
0.0
 10
44.09026001231882
 20
111.4859961649056
 30
0.0
 10
45.4889995293154
 20
113.0508416605447
 30
0.0
 10
46.88754493465918
 20
114.9622543121312
 30
0.0
 10
47.94440695472225
 20
116.9513337043404
 30
0.0
 10
48.7058365350083
 20
118.9459972889638
 30
0.0
 10
49.0478147912784
 20
120.0902310615546
 30
0.0
 10
49.23089976165966
 20
120.9332053199422
 30
0.0
 10
49.29153950480633
 20
121.3167486895022
 30
0.0
 10
49.31125352445159
 20
121.4593833263919
 30
0.0
  0
SPLINE
  5
44A
330
447
100
AcDbEntity
  8
$DDT_AUDIT_GENERATED_(60)
  6
Continuous
 62
     7
100
AcDbSpline
210
0.0
220
0.0
230
1.0
 70
     8
 71
     3
 72
    14
 73
    10
 74
     0
 42
0.0000000000939553
 43
0.0000000001
 40
0.7609599856946878
 40
0.7609599856946878
 40
0.7609599856946878
 40
0.7609599856946878
 40
0.7708451321101746
 40
0.781308252185556
 40
0.8090416832531294
 40
0.8267808883109697
 40
0.8472140195882374
 40
0.8853856312640955
 40
0.8914502711714182
 40
0.8914502711714182
 40
0.8914502711714182
 40
0.8914502711714182
 10
13.49558062631803
 20
121.4585371074823
 30
0.0
 10
13.54314181286572
 20
121.1129392287375
 30
0.0
 10
13.67943490085003
 20
120.4091253258387
 30
0.0
 10
14.13541087458866
 20
118.779536309005
 30
0.0
 10
14.87707631525591
 20
116.9320591662317
 30
0.0
 10
16.00206979810984
 20
114.8837438362818
 30
0.0
 10
17.55496843543215
 20
112.6672289080236
 30
0.0
 10
19.18471749409379
 20
111.0292159834195
 30
0.0
 10
20.42728918170596
 20
110.0686070850901
 30
0.0
 10
20.59993797875374
 20
109.9399818845238
 30
0.0
  0
ARC
  5
44B
330
447
100
AcDbEntity
  8
$DDT_AUDIT_GENERATED_(60)
  6
Continuous
 62
     7
100
AcDbCircle
 10
0.8912459094
 20
202.4135866066
 30
0.0
 40
12.00000305802542
100
AcDbArc
 50
0.0889355572
 51
34.2391045978
  0
SPLINE
  5
44C
330
447
100
AcDbEntity
  8
$DDT_AUDIT_GENERATED_(60)
  6
Continuous
 62
     7
100
AcDbSpline
210
0.0
220
0.0
230
1.0
 70
     8
 71
     3
 72
    32
 73
    28
 74
     0
 42
0.0000000000939081
 43
0.0000000001
 40
0.0
 40
0.0
 40
0.0
 40
0.0
 40
0.0312500000000002
 40
0.0312500000000002
 40
0.0625000000000005
 40
0.0625000000000005
 40
0.0937500000000007
 40
0.0937500000000007
 40
0.125000000000001
 40
0.125000000000001
 40
0.1875000000000015
 40
0.1875000000000015
 40
0.2187500000000016
 40
0.2187500000000016
 40
0.2500000000000016
 40
0.2500000000000016
 40
0.2812500000000017
 40
0.2812500000000017
 40
0.3125000000000017
 40
0.3125000000000017
 40
0.3750000000000018
 40
0.3750000000000018
 40
0.5000000000000017
 40
0.5000000000000017
 40
0.7500000000000009
 40
0.7500000000000009
 40
1.0
 40
1.0
 40
1.0
 40
1.0
 10
31.40359102758864
 20
106.3500025256132
 30
0.0
 10
30.28672648347488
 20
106.3500012622732
 30
0.0
 10
29.18607764421076
 20
106.4531605382074
 30
0.0
 10
27.01597947821297
 20
106.8580346920552
 30
0.0
 10
25.93636068960814
 20
107.1644744867357
 30
0.0
 10
23.87549806953239
 20
107.9602633832085
 30
0.0
 10
22.89154319934305
 20
108.447698845435
 30
0.0
 10
21.01510614317014
 20
109.5990957130451
 30
0.0
 10
20.11888102809082
 20
110.268796871466
 30
0.0
 10
17.6729326753978
 20
112.4688918873075
 30
0.0
 10
16.31123385096696
 20
114.2469207681923
 30
0.0
 10
14.79652891126426
 20
117.1532754210647
 30
0.0
 10
14.37184995927631
 20
118.15992459647
 30
0.0
 10
13.69473650400157
 20
120.2550144696941
 30
0.0
 10
13.46983840083729
 20
121.346714038682
 30
0.0
 10
13.33100667593007
 20
123.5500564957465
 30
0.0
 10
13.31435526414138
 20
124.6546500554886
 30
0.0
 10
13.27186442826998
 20
126.8632380323244
 30
0.0
 10
13.25672938485241
 20
127.9681528943596
 30
0.0
 10
13.2161320892087
 20
131.2845065854021
 30
0.0
 10
13.19633912344428
 20
133.4970655648775
 30
0.0
 10
13.14185630704933
 20
140.1392772565377
 30
0.0
 10
13.1135980506385
 20
144.5735196867893
 30
0.0
 10
13.03583981776586
 20
157.8928899318236
 30
0.0
 10
12.99509788427434
 20
166.7912401427384
 30
0.0
 10
12.92930046290921
 20
184.5988620660848
 30
0.0
 10
12.90508213786227
 20
193.5110925030717
 30
0.0
 10
12.89123451115698
 20
202.432213223447
 30
0.0
  0
SPLINE
  5
44D
330
447
100
AcDbEntity
  8
$DDT_AUDIT_GENERATED_(60)
  6
Continuous
 62
     7
100
AcDbSpline
210
0.0
220
0.0
230
1.0
 70
     8
 71
     3
 72
    26
 73
    22
 74
     0
 42
0.0000000000938581
 43
0.0000000001
 40
0.0
 40
0.0
 40
0.0
 40
0.0
 40
0.4999999999999996
 40
0.4999999999999996
 40
0.6249999999999992
 40
0.6249999999999992
 40
0.6874999999999991
 40
0.6874999999999991
 40
0.7187499999999991
 40
0.7187499999999991
 40
0.7499999999999992
 40
0.7499999999999992
 40
0.7812499999999993
 40
0.7812499999999993
 40
0.8124999999999993
 40
0.8124999999999993
 40
0.8749999999999996
 40
0.8749999999999996
 40
0.9374999999999997
 40
0.9374999999999997
 40
1.0
 40
1.0
 40
1.0
 40
1.0
 10
49.9159475440204
 20
202.4322132234469
 30
0.0
 10
49.88824982372686
 20
184.5883825312679
 30
0.0
 10
49.8231345258656
 20
166.7605488366221
 30
0.0
 10
49.69350726306897
 20
144.5613637750888
 30
0.0
 10
49.66523068242181
 20
140.1250428615783
 30
0.0
 10
49.61070362248171
 20
133.4814109236839
 30
0.0
 10
49.59089433870149
 20
131.2684070485653
 30
0.0
 10
49.55023340046324
 20
127.9519528260473
 30
0.0
 10
49.53507300088908
 20
126.8469787884283
 30
0.0
 10
49.49244028881233
 20
124.638157401788
 30
0.0
 10
49.47591662305992
 20
123.5329994898865
 30
0.0
 10
49.33557475973119
 20
121.3317799699111
 30
0.0
 10
49.10821928672801
 20
120.2400767126671
 30
0.0
 10
48.4337270885847
 20
118.1568357067519
 30
0.0
 10
48.0088711270933
 20
117.1479689740883
 30
0.0
 10
46.4780878354601
 20
114.2164653098782
 30
0.0
 10
45.13617933061322
 20
112.4675232308513
 30
0.0
 10
41.84275730356491
 20
109.5113739962057
 30
0.0
 10
39.9564366934536
 20
108.354170273378
 30
0.0
 10
35.8204710914317
 20
106.7606944044862
 30
0.0
 10
33.63637690415576
 20
106.3499999999999
 30
0.0
 10
31.40359102758864
 20
106.3500025256132
 30
0.0
  0
ARC
  5
44E
330
447
100
AcDbEntity
  8
$DDT_AUDIT_GENERATED_(60)
  6
Continuous
 62
     7
100
AcDbCircle
 10
31.3892582142
 20
223.3178029879
 30
0.0
 40
24.99823594608674
100
AcDbArc
 50
352.7581890397
 51
356.9907464706
  0
ARC
  5
44F
330
447
100
AcDbEntity
  8
$DDT_AUDIT_GENERATED_(60)
  6
Continuous
 62
     7
100
AcDbCircle
 10
61.9159363104
 20
202.4135865558
 30
0.0
 40
12.00000322270659
100
AcDbArc
 50
145.7608956437
 51
179.9110642013
  0
ARC
  5
450
330
447
100
AcDbEntity
  8
$DDT_AUDIT_GENERATED_(60)
  6
Continuous
 62
     7
100
AcDbCircle
 10
31.411549937
 20
224.1986918781
 30
0.0
 40
24.11734426026825
100
AcDbArc
 50
96.8622503342
 51
96.8636366425
  0
ARC
  5
451
330
447
100
AcDbEntity
  8
$DDT_AUDIT_GENERATED_(60)
  6
Continuous
 62
     7
100
AcDbCircle
 10
31.3956216574
 20
224.1986486408
 30
0.0
 40
24.11738750110018
100
AcDbArc
 50
83.1363358548
 51
83.1380785704
  0
LINE
  5
452
330
447
100
AcDbEntity
  8
$DDT_AUDIT_GENERATED_(60)
  6
Continuous
 62
     7
100
AcDbLine
 10
13.2191417835
 20
131.2226746725
 30
0.0
 11
13.2210110619
 21
131.0405814286
 31
0.0
  0
ARC
  5
453
330
447
100
AcDbEntity
  8
$DDT_AUDIT_GENERATED_(3BE)
  6
Continuous
 62
     7
100
AcDbCircle
 10
52.6717681537
 20
200.7510984449
 30
0.0
 40
6.000232267162263
100
AcDbArc
 50
152.3597254136
 51
179.9523616075
  0
ARC
  5
454
330
447
100
AcDbEntity
  8
$DDT_AUDIT_GENERATED_(3BE)
  6
Continuous
 62
     7
100
AcDbCircle
 10
10.1354256538
 20
200.751103584
 30
0.0
 40
6.0002204688551
100
AcDbArc
 50
0.0475873158
 51
27.6471715016
  0
SPLINE
  5
455
330
447
100
AcDbEntity
  8
$DDT_AUDIT_GENERATED_(3BE)
  6
Continuous
 62
     7
100
AcDbSpline
210
0.0
220
0.0
230
1.0
 70
     8
 71
     3
 72
     8
 73
     4
 74
     0
 42
0.0000000000594145
 43
0.0000000001
 40
0.0
 40
0.0
 40
0.0
 40
0.0
 40
0.201784604463393
 40
0.201784604463393
 40
0.201784604463393
 40
0.201784604463393
 10
16.13564405307111
 20
200.7560870986199
 30
0.0
 10
16.14505564096021
 20
189.4587433959595
 30
0.0
 10
16.17263515977633
 20
178.1374762472554
 30
0.0
 10
16.16889916706635
 20
166.7939398653772
 30
0.0
  0
SPLINE
  5
456
330
447
100
AcDbEntity
  8
$DDT_AUDIT_GENERATED_(3BE)
  6
Continuous
 62
     7
100
AcDbSpline
210
0.0
220
0.0
230
1.0
 70
     8
 71
     3
 72
     8
 73
     4
 74
     0
 42
0.000000000059238
 43
0.0000000001
 40
0.7985074223343389
 40
0.7985074223343389
 40
0.7985074223343389
 40
0.7985074223343389
 40
0.8260446037603141
 40
0.8260446037603141
 40
0.8260446037603141
 40
0.8260446037603141
 10
46.63826225545392
 20
166.8008226005298
 30
0.0
 10
46.63775135369316
 20
168.3507546851448
 30
0.0
 10
46.63782584905171
 20
169.9002797063534
 30
0.0
 10
46.6383592964302
 20
171.4493914818498
 30
0.0
  0
SPLINE
  5
457
330
447
100
AcDbEntity
  8
$DDT_AUDIT_GENERATED_(3BE)
  6
Continuous
 62
     7
100
AcDbSpline
210
0.0
220
0.0
230
1.0
 70
     8
 71
     3
 72
     8
 73
     4
 74
     0
 42
0.0000000000593669
 43
0.0000000001
 40
0.8429611982938368
 40
0.8429611982938368
 40
0.8429611982938368
 40
0.8429611982938368
 40
1.0
 40
1.0
 40
1.0
 40
1.0
 10
46.63983270894683
 20
174.3038653341859
 30
0.0
 10
46.64581843805675
 20
183.1352178846381
 30
0.0
 10
46.66420391097889
 20
191.9530074135637
 30
0.0
 10
46.67153796054615
 20
200.7560873182749
 30
0.0
  0
ARC
  5
458
330
447
100
AcDbEntity
  8
$DDT_AUDIT_GENERATED_(3BE)
  6
Continuous
 62
     7
100
AcDbCircle
 10
31.4035910275
 20
223.3060493461
 30
0.0
 40
25.00091858191453
100
AcDbArc
 50
313.3280743304
 51
226.671925534
  0
ARC
  5
459
330
447
100
AcDbEntity
  8
$DDT_AUDIT_GENERATED_(3BE)
  6
Continuous
 62
     7
100
AcDbCircle
 10
52.6716057724
 20
200.7505969272
 30
0.0
 40
6.000323775204195
100
AcDbArc
 50
133.2721970621
 51
179.9515141509
  0
ARC
  5
45A
330
447
100
AcDbEntity
  8
$DDT_AUDIT_GENERATED_(3BE)
  6
Continuous
 62
     7
100
AcDbCircle
 10
10.1355750525
 20
200.7505964736
 30
0.0
 40
6.000324948843876
100
AcDbArc
 50
0.0484882172
 51
46.7277979187
  0
SPLINE
  5
45B
330
447
100
AcDbEntity
  8
$DDT_AUDIT_GENERATED_(3BE)
  6
Continuous
 62
     7
100
AcDbSpline
210
0.0
220
0.0
230
1.0
 70
     8
 71
     3
 72
    40
 73
    36
 74
     0
 42
0.0000000000593307
 43
0.0000000001
 40
0.0
 40
0.0
 40
0.0
 40
0.0
 40
0.2500000000000024
 40
0.2500000000000024
 40
0.3125000000000028
 40
0.3125000000000028
 40
0.3437500000000029
 40
0.3437500000000029
 40
0.3750000000000029
 40
0.3750000000000029
 40
0.390625000000003
 40
0.390625000000003
 40
0.4062500000000031
 40
0.4062500000000031
 40
0.4375000000000029
 40
0.4375000000000029
 40
0.4687500000000028
 40
0.4687500000000028
 40
0.5000000000000026
 40
0.5000000000000026
 40
0.5312500000000026
 40
0.5312500000000026
 40
0.5625000000000023
 40
0.5625000000000023
 40
0.5937500000000022
 40
0.5937500000000022
 40
0.6250000000000021
 40
0.6250000000000021
 40
0.6562500000000019
 40
0.6562500000000019
 40
0.6875000000000018
 40
0.6875000000000018
 40
0.7500000000000014
 40
0.7500000000000014
 40
1.0
 40
1.0
 40
1.0
 40
1.0
 10
46.67128414562936
 20
200.75567462687
 30
0.0
 10
46.65972977171157
 20
187.0924748024853
 30
0.0
 10
46.6226682133947
 20
173.401286385843
 30
0.0
 10
46.65151292827847
 20
156.2383986355002
 30
0.0
 10
46.66379675582364
 20
152.8033321087848
 30
0.0
 10
46.69002631660759
 20
147.6467497999876
 30
0.0
 10
46.70190644288559
 20
145.9272002150701
 30
0.0
 10
46.70074820269575
 20
142.4870878385065
 30
0.0
 10
46.70911849659911
 20
140.7662590010837
 30
0.0
 10
46.47398389767245
 20
138.1872069564609
 30
0.0
 10
46.34555822018547
 20
137.3280057560794
 30
0.0
 10
45.90615834942786
 20
135.6114133814482
 30
0.0
 10
45.59343798715471
 20
134.7607081648926
 30
0.0
 10
44.4344173970114
 20
132.3719484273148
 30
0.0
 10
43.34287398828231
 20
130.9162282199115
 30
0.0
 10
40.78375024197139
 20
128.4589605272217
 30
0.0
 10
39.2868745538692
 20
127.4282828675994
 30
0.0
 10
36.08297889793577
 20
125.92953446302
 30
0.0
 10
34.32452628413945
 20
125.4454658688652
 30
0.0
 10
30.80471263698632
 20
125.1575957933142
 30
0.0
 10
28.99043330531175
 20
125.3527146843008
 30
0.0
 10
25.58992868780204
 20
126.3576720540395
 30
0.0
 10
23.96346580370922
 20
127.1696394608474
 30
0.0
 10
21.0825817398078
 20
129.2430526041967
 30
0.0
 10
19.79700087364753
 20
130.5239636422082
 30
0.0
 10
17.76093135500274
 20
133.4162386842513
 30
0.0
 10
16.99763236324566
 20
135.0749980587374
 30
0.0
 10
16.20517345832621
 20
138.5218616793695
 30
0.0
 10
16.14439570396981
 20
140.3324508932679
 30
0.0
 10
16.09295918980851
 20
143.8982532077506
 30
0.0
 10
16.10729716118826
 20
145.681139992893
 30
0.0
 10
16.13384118189872
 20
151.0287506170238
 30
0.0
 10
16.1508790826143
 20
154.5927562639263
 30
0.0
 10
16.18919653254028
 20
172.405049121418
 30
0.0
 10
16.14786793725115
 20
186.6001592915416
 30
0.0
 10
16.1358978526333
 20
200.7556744222484
 30
0.0
  0
ARC
  5
45C
330
447
100
AcDbEntity
  8
$DDT_AUDIT_GENERATED_(3BE)
  6
Continuous
 62
     7
100
AcDbCircle
 10
31.4035910276
 20
223.3026336903
 30
0.0
 40
24.99191958765207
100
AcDbArc
 50
353.2227015655
 51
186.7772984345
  0
ARC
  5
45D
330
447
100
AcDbEntity
  8
$DDT_AUDIT_GENERATED_(3BE)
  6
Continuous
 62
     7
100
AcDbCircle
 10
31.2263621776
 20
223.3929577056
 30
0.0
 40
24.82683472599669
100
AcDbArc
 50
187.0325616321
 51
190.1887598434
  0
ARC
  5
45E
330
447
100
AcDbEntity
  8
$DDT_AUDIT_GENERATED_(3BE)
  6
Continuous
 62
     7
100
AcDbCircle
 10
31.5803913001
 20
223.3930226034
 30
0.0
 40
24.82726802486954
100
AcDbArc
 50
349.8112677054
 51
352.9674108191
  0
ARC
  5
45F
330
447
100
AcDbEntity
  8
$DDT_AUDIT_GENERATED_(3BE)
  6
Continuous
 62
     7
100
AcDbCircle
 10
31.4035910276
 20
223.3028409053
 30
0.0
 40
24.98561621341579
100
AcDbArc
 50
189.9134752486
 51
226.6753205825
  0
ARC
  5
460
330
447
100
AcDbEntity
  8
$DDT_AUDIT_GENERATED_(3BE)
  6
Continuous
 62
     7
100
AcDbCircle
 10
31.4035910276
 20
223.3028409053
 30
0.0
 40
24.98561621341579
100
AcDbArc
 50
313.3248956765
 51
350.0865247514
  0
LINE
  5
461
330
447
100
AcDbEntity
  8
$DDT_AUDIT_GENERATED_(3BE)
  6
Continuous
 62
     7
100
AcDbLine
 10
46.7013427643
 20
144.0044193493
 30
0.0
 11
46.7013427644
 21
144.2993754037
 31
0.0
  0
ARC
  5
462
330
447
100
AcDbEntity
  8
$DDT_AUDIT_GENERATED_(3BE)
  6
Continuous
 62
     7
100
AcDbCircle
 10
1013.1538518465
 20
145.4124324075
 30
0.0
 40
997.0472392224071
100
AcDbArc
 50
179.5502941496
 51
180.2135817409
  0
LINE
  5
463
330
447
100
AcDbEntity
  8
$DDT_AUDIT_GENERATED_(438)
  6
Continuous
 62
     7
100
AcDbLine
 10
33.4035910276
 20
255.6530020173
 30
0.0
 11
33.4035910276
 21
267.0233744333
 31
0.0
  0
LINE
  5
464
330
447
100
AcDbEntity
  8
$DDT_AUDIT_GENERATED_(438)
  6
Continuous
 62
     7
100
AcDbLine
 10
29.4035910276
 20
267.0233744333
 30
0.0
 11
29.4035910276
 21
255.6530020173
 31
0.0
  0
LINE
  5
465
330
447
100
AcDbEntity
  8
$DDT_AUDIT_GENERATED_(438)
  6
Continuous
 62
     7
100
AcDbLine
 10
29.4035910276
 20
255.6530020173
 30
0.0
 11
29.4035910276
 21
252.7998324684
 31
0.0
  0
LINE
  5
466
330
447
100
AcDbEntity
  8
$DDT_AUDIT_GENERATED_(438)
  6
Continuous
 62
     7
100
AcDbLine
 10
33.4035910276
 20
252.7998324684
 30
0.0
 11
33.4035910276
 21
255.6530020173
 31
0.0
  0
LINE
  5
467
330
447
100
AcDbEntity
  8
$DDT_AUDIT_GENERATED_(438)
  6
Continuous
 62
     7
100
AcDbLine
 10
33.4035910276
 20
248.2265092972
 30
0.0
 11
33.4035910276
 21
252.7998324684
 31
0.0
  0
LINE
  5
468
330
447
100
AcDbEntity
  8
$DDT_AUDIT_GENERATED_(438)
  6
Continuous
 62
     7
100
AcDbLine
 10
29.4035910276
 20
252.7998324684
 30
0.0
 11
29.4035910276
 21
248.224877129
 31
0.0
  0
ARC
  5
469
330
447
100
AcDbEntity
  8
$DDT_AUDIT_GENERATED_(438)
  6
Continuous
 62
     7
100
AcDbCircle
 10
31.4035910276
 20
267.0233744333
 30
0.0
 40
2.000000000000001
100
AcDbArc
 50
0.0
 51
180.0
  0
ENDBLK
  5
46B
330
447
100
AcDbEntity
  8
0
100
AcDbBlockEnd
  0
ENDSEC
  0
SECTION
  2
ENTITIES
  0
INSERT
  5
5F
330
1F
100
AcDbEntity
  8
Default
100
AcDbBlockReference
  2
SE
 10
0.0
 20
0.0
 30
0.0
  0
INSERT
  5
3F5
330
1F
100
AcDbEntity
  8
Default
100
AcDbBlockReference
  2
SE1
 10
0.0
 20
0.0
 30
0.0
  0
INSERT
  5
448
330
1F
100
AcDbEntity
  8
Default
100
AcDbBlockReference
  2
SE2
 10
0.0
 20
0.0
 30
0.0
  0
TEXT
  5
46D
330
1F
100
AcDbEntity
  8
Default
  6
Continuous
 62
     7
100
AcDbText
 10
5.9362635081
 20
53.4225120485
 30
0.0
 40
10.0
  1
Grohe AG^J
  7
SEACAD_seiso_ttf
 11
5.9362635081
 21
63.4225120485
 31
0.0
100
AcDbText
 73
     3
  0
TEXT
  5
46E
330
1F
100
AcDbEntity
  8
Default
  6
Continuous
 62
     7
100
AcDbText
 10
5.9362635081
 20
37.0588756849
 30
0.0
 40
10.0
  1
 
  7
SEACAD_seiso_ttf
 11
5.9362635081
 21
47.0588756849
 31
0.0
100
AcDbText
 73
     3
  0
TEXT
  5
46F
330
1F
100
AcDbEntity
  8
Default
  6
Continuous
 62
     7
100
AcDbText
 10
5.9362635081
 20
20.6952393213
 30
0.0
 40
10.0
  1
ecn: 
  7
SEACAD_seiso_ttf
 11
5.9362635081
 21
30.6952393213
 31
0.0
100
AcDbText
 73
     3
  0
TEXT
  5
470
330
1F
100
AcDbEntity
  8
Default
  6
Continuous
 62
     7
100
AcDbText
 10
5.9362635081
 20
4.3316029576
 30
0.0
 40
10.0
  1
unit: mm
  7
SEACAD_seiso_ttf
 11
5.9362635081
 21
14.3316029576
 31
0.0
100
AcDbText
 73
     3
  0
LINE
  5
471
330
1F
100
AcDbEntity
  8
Default
  6
Continuous
 62
     7
100
AcDbLine
 10
0.0
 20
0.0
 30
0.0
 11
100.0
 21
0.0
 31
0.0
  0
LINE
  5
472
330
1F
100
AcDbEntity
  8
Default
  6
Continuous
 62
     7
100
AcDbLine
 10
0.0
 20
0.0
 30
0.0
 11
0.0
 21
100.0
 31
0.0
  0
TEXT
  5
473
330
1F
100
AcDbEntity
  8
Default
  6
Continuous
 62
     7
100
AcDbText
 10
24.3923665681
 20
-18.2375342018
 30
0.0
 40
10.0
  1
100 mm
  7
SEACAD_seiso_ttf
 11
24.3923665681
 21
-8.2375342018
 31
0.0
100
AcDbText
 73
     3
  0
TEXT
  5
474
330
1F
100
AcDbEntity
  8
Default
  6
Continuous
 62
     7
100
AcDbText
 10
-7.6150308803
 20
24.6231930421
 30
0.0
 40
10.0
  1
100 mm
 50
90.0
  7
SEACAD_seiso_ttf
 11
-17.6150308803
 21
24.6231930421
 31
0.0
100
AcDbText
 73
     3
  0
TEXT
  5
475
330
1F
100
AcDbEntity
  8
Default
  6
Continuous
 62
     7
100
AcDbText
 10
28.4878128572
 20
20.0907663715
 30
0.0
 40
10.0
  1
218774
  7
SEACAD_seiso_ttf
 11
28.4878128572
 21
30.0907663715
 31
0.0
100
AcDbText
 73
     3
  0
TEXT
  5
476
330
1F
100
AcDbEntity
  8
Default
  6
Continuous
 62
     7
100
AcDbText
 10
5.9012241913
 20
36.7242780188
 30
0.0
 40
10.0
  1
23036002
  7
SEACAD_seiso_ttf
 11
5.9012241913
 21
46.7242780188
 31
0.0
100
AcDbText
 73
     3
  0
ENDSEC
  0
SECTION
  2
OBJECTS
  0
DICTIONARY
  5
C
330
0
100
AcDbDictionary
281
     1
  3
ACAD_GROUP
350
D
  3
ACAD_LAYOUT
350
1A
  3
ACAD_MLEADERSTYLE
350
47A
  3
ACAD_MLINESTYLE
350
17
  3
ACAD_PLOTSETTINGS
350
19
  3
ACAD_PLOTSTYLENAME
350
E
  3
ACAD_SCALELIST
350
3B
  3
ACAD_TABLESTYLE
350
479
  3
ACAD_VISUALSTYLE
350
2A
  3
AcDbVariableDictionary
350
477
  0
DICTIONARY
  5
D
102
{ACAD_REACTORS
330
C
102
}
330
C
100
AcDbDictionary
281
     1
  0
DICTIONARY
  5
1A
102
{ACAD_REACTORS
330
C
102
}
330
C
100
AcDbDictionary
281
     1
  3
Layout1
350
1E
  3
Model
350
22
  0
DICTIONARY
  5
47A
102
{ACAD_REACTORS
330
C
102
}
330
C
100
AcDbDictionary
281
     1
  0
DICTIONARY
  5
17
102
{ACAD_REACTORS
330
C
102
}
330
C
100
AcDbDictionary
281
     1
  3
Standard
350
18
  0
DICTIONARY
  5
19
102
{ACAD_REACTORS
330
C
102
}
330
C
100
AcDbDictionary
281
     1
  0
ACDBDICTIONARYWDFLT
  5
E
102
{ACAD_REACTORS
330
C
102
}
330
C
100
AcDbDictionary
281
     1
  3
Normal
350
F
100
AcDbDictionaryWithDefault
340
F
  0
DICTIONARY
  5
3B
102
{ACAD_REACTORS
330
C
102
}
330
C
100
AcDbDictionary
281
     1
  3
A0
350
3C
  3
A1
350
3D
  3
A2
350
3E
  3
A3
350
3F
  3
A4
350
40
  3
A5
350
41
  3
A6
350
42
  3
A7
350
43
  3
A8
350
44
  3
A9
350
45
  3
B0
350
46
  3
B1
350
47
  3
B2
350
48
  3
B3
350
49
  3
B4
350
4A
  3
B5
350
4B
  3
B6
350
4C
  3
B7
350
4D
  3
B8
350
4E
  3
B9
350
4F
  3
C0
350
50
  3
C1
350
51
  3
C2
350
52
  3
C3
350
53
  3
C4
350
54
  3
C5
350
55
  3
C6
350
56
  3
C7
350
57
  3
C8
350
58
  3
C9
350
59
  3
D0
350
5A
  3
D1
350
5B
  3
D2
350
5C
  0
DICTIONARY
  5
479
102
{ACAD_REACTORS
330
C
102
}
330
C
100
AcDbDictionary
281
     1
  0
DICTIONARY
  5
2A
102
{ACAD_REACTORS
330
C
102
}
330
C
100
AcDbDictionary
281
     1
  3
2dWireframe
350
2F
  3
3D Hidden
350
31
  3
3dWireframe
350
30
  3
Basic
350
32
  3
Brighten
350
36
  3
ColorChange
350
3A
  3
Conceptual
350
34
  3
Dim
350
35
  3
Facepattern
350
39
  3
Flat
350
2B
  3
FlatWithEdges
350
2C
  3
Gouraud
350
2D
  3
GouraudWithEdges
350
2E
  3
Linepattern
350
38
  3
Realistic
350
33
  3
Thicken
350
37
  0
DICTIONARY
  5
477
102
{ACAD_REACTORS
330
C
102
}
330
C
100
AcDbDictionary
281
     1
  3
CANNOSCALE
350
478
  3
PSOLHEIGHT
350
47C
  3
PSOLWIDTH
350
47B
  0
LAYOUT
  5
1E
102
{ACAD_REACTORS
330
1A
102
}
330
1A
100
AcDbPlotSettings
  1

  2
none_device
  4

  6

 40
0.0
 41
0.0
 42
0.0
 43
0.0
 44
0.0
 45
0.0
 46
0.0
 47
0.0
 48
0.0
 49
0.0
140
0.0
141
0.0
142
1.0
143
1.0
 70
   688
 72
     0
 73
     0
 74
     5
  7

 75
    16
147
1.0
148
0.0
149
0.0
100
AcDbLayout
  1
Layout1
 70
     1
 71
     1
 10
0.0
 20
0.0
 11
1682.0
 21
2378.0
 12
0.0
 22
0.0
 32
0.0
 14
0.0
 24
0.0
 34
0.0
 15
1682.0
 25
2378.0
 35
0.0
146
0.0
 13
0.0
 23
0.0
 33
0.0
 16
1.0
 26
0.0
 36
0.0
 17
0.0
 27
1.0
 37
0.0
 76
     0
330
1B
  0
LAYOUT
  5
22
102
{ACAD_REACTORS
330
1A
102
}
330
1A
100
AcDbPlotSettings
  1

  2
none_device
  4

  6

 40
0.0
 41
0.0
 42
0.0
 43
0.0
 44
0.0
 45
0.0
 46
0.0
 47
0.0
 48
0.0
 49
0.0
140
0.0
141
0.0
142
1.0
143
1.0
 70
  1712
 72
     0
 73
     0
 74
     0
  7

 75
     0
147
1.0
148
0.0
149
0.0
100
AcDbLayout
  1
Model
 70
     1
 71
     0
 10
0.0
 20
0.0
 11
1682.0
 21
2378.0
 12
0.0
 22
0.0
 32
0.0
 14
0.0
 24
0.0
 34
0.0
 15
1682.0
 25
2378.0
 35
0.0
146
0.0
 13
0.0
 23
0.0
 33
0.0
 16
1.0
 26
0.0
 36
0.0
 17
0.0
 27
1.0
 37
0.0
 76
     0
330
1F
331
29
  0
MLINESTYLE
  5
18
102
{ACAD_REACTORS
330
17
102
}
330
17
100
AcDbMlineStyle
  2
Standard
 70
     0
  3

 62
   256
 51
90.0
 52
90.0
 71
     2
 49
0.5
 62
   256
  6
BYLAYER
 49
-0.5
 62
   256
  6
BYLAYER
  0
ACDBPLACEHOLDER
  5
F
102
{ACAD_REACTORS
330
E
102
}
330
E
  0
SCALE
  5
3C
102
{ACAD_REACTORS
330
3B
102
}
330
3B
100
AcDbScale
 70
     0
300
1:1
140
1.0
141
1.0
290
     1
  0
SCALE
  5
3D
102
{ACAD_REACTORS
330
3B
102
}
330
3B
100
AcDbScale
 70
     0
300
1:2
140
1.0
141
2.0
290
     0
  0
SCALE
  5
3E
102
{ACAD_REACTORS
330
3B
102
}
330
3B
100
AcDbScale
 70
     0
300
1:4
140
1.0
141
4.0
290
     0
  0
SCALE
  5
3F
102
{ACAD_REACTORS
330
3B
102
}
330
3B
100
AcDbScale
 70
     0
300
1:5
140
1.0
141
5.0
290
     0
  0
SCALE
  5
40
102
{ACAD_REACTORS
330
3B
102
}
330
3B
100
AcDbScale
 70
     0
300
1:8
140
1.0
141
8.0
290
     0
  0
SCALE
  5
41
102
{ACAD_REACTORS
330
3B
102
}
330
3B
100
AcDbScale
 70
     0
300
1:10
140
1.0
141
10.0
290
     0
  0
SCALE
  5
42
102
{ACAD_REACTORS
330
3B
102
}
330
3B
100
AcDbScale
 70
     0
300
1:16
140
1.0
141
16.0
290
     0
  0
SCALE
  5
43
102
{ACAD_REACTORS
330
3B
102
}
330
3B
100
AcDbScale
 70
     0
300
1:20
140
1.0
141
20.0
290
     0
  0
SCALE
  5
44
102
{ACAD_REACTORS
330
3B
102
}
330
3B
100
AcDbScale
 70
     0
300
1:30
140
1.0
141
30.0
290
     0
  0
SCALE
  5
45
102
{ACAD_REACTORS
330
3B
102
}
330
3B
100
AcDbScale
 70
     0
300
1:40
140
1.0
141
40.0
290
     0
  0
SCALE
  5
46
102
{ACAD_REACTORS
330
3B
102
}
330
3B
100
AcDbScale
 70
     0
300
1:50
140
1.0
141
50.0
290
     0
  0
SCALE
  5
47
102
{ACAD_REACTORS
330
3B
102
}
330
3B
100
AcDbScale
 70
     0
300
1:100
140
1.0
141
100.0
290
     0
  0
SCALE
  5
48
102
{ACAD_REACTORS
330
3B
102
}
330
3B
100
AcDbScale
 70
     0
300
2:1
140
2.0
141
1.0
290
     0
  0
SCALE
  5
49
102
{ACAD_REACTORS
330
3B
102
}
330
3B
100
AcDbScale
 70
     0
300
4:1
140
4.0
141
1.0
290
     0
  0
SCALE
  5
4A
102
{ACAD_REACTORS
330
3B
102
}
330
3B
100
AcDbScale
 70
     0
300
8:1
140
8.0
141
1.0
290
     0
  0
SCALE
  5
4B
102
{ACAD_REACTORS
330
3B
102
}
330
3B
100
AcDbScale
 70
     0
300
10:1
140
10.0
141
1.0
290
     0
  0
SCALE
  5
4C
102
{ACAD_REACTORS
330
3B
102
}
330
3B
100
AcDbScale
 70
     0
300
100:1
140
100.0
141
1.0
290
     0
  0
SCALE
  5
4D
102
{ACAD_REACTORS
330
3B
102
}
330
3B
100
AcDbScale
 70
     0
300
1/128" = 1'-0"
140
0.0078125
141
12.0
290
     0
  0
SCALE
  5
4E
102
{ACAD_REACTORS
330
3B
102
}
330
3B
100
AcDbScale
 70
     0
300
1/64" = 1'-0"
140
0.015625
141
12.0
290
     0
  0
SCALE
  5
4F
102
{ACAD_REACTORS
330
3B
102
}
330
3B
100
AcDbScale
 70
     0
300
1/32" = 1'-0"
140
0.03125
141
12.0
290
     0
  0
SCALE
  5
50
102
{ACAD_REACTORS
330
3B
102
}
330
3B
100
AcDbScale
 70
     0
300
1/16" = 1'-0"
140
0.0625
141
12.0
290
     0
  0
SCALE
  5
51
102
{ACAD_REACTORS
330
3B
102
}
330
3B
100
AcDbScale
 70
     0
300
3/32" = 1'-0"
140
0.09375
141
12.0
290
     0
  0
SCALE
  5
52
102
{ACAD_REACTORS
330
3B
102
}
330
3B
100
AcDbScale
 70
     0
300
1/8" = 1'-0"
140
0.125
141
12.0
290
     0
  0
SCALE
  5
53
102
{ACAD_REACTORS
330
3B
102
}
330
3B
100
AcDbScale
 70
     0
300
3/16" = 1'-0"
140
0.1875
141
12.0
290
     0
  0
SCALE
  5
54
102
{ACAD_REACTORS
330
3B
102
}
330
3B
100
AcDbScale
 70
     0
300
1/4" = 1'-0"
140
0.25
141
12.0
290
     0
  0
SCALE
  5
55
102
{ACAD_REACTORS
330
3B
102
}
330
3B
100
AcDbScale
 70
     0
300
3/8" = 1'-0"
140
0.375
141
12.0
290
     0
  0
SCALE
  5
56
102
{ACAD_REACTORS
330
3B
102
}
330
3B
100
AcDbScale
 70
     0
300
1/2" = 1'-0"
140
0.5
141
12.0
290
     0
  0
SCALE
  5
57
102
{ACAD_REACTORS
330
3B
102
}
330
3B
100
AcDbScale
 70
     0
300
3/4" = 1'-0"
140
0.75
141
12.0
290
     0
  0
SCALE
  5
58
102
{ACAD_REACTORS
330
3B
102
}
330
3B
100
AcDbScale
 70
     0
300
1" = 1'-0"
140
1.0
141
12.0
290
     0
  0
SCALE
  5
59
102
{ACAD_REACTORS
330
3B
102
}
330
3B
100
AcDbScale
 70
     0
300
1-1/2" = 1'-0"
140
1.5
141
12.0
290
     0
  0
SCALE
  5
5A
102
{ACAD_REACTORS
330
3B
102
}
330
3B
100
AcDbScale
 70
     0
300
3" = 1'-0"
140
3.0
141
12.0
290
     0
  0
SCALE
  5
5B
102
{ACAD_REACTORS
330
3B
102
}
330
3B
100
AcDbScale
 70
     0
300
6" = 1'-0"
140
6.0
141
12.0
290
     0
  0
SCALE
  5
5C
102
{ACAD_REACTORS
330
3B
102
}
330
3B
100
AcDbScale
 70
     0
300
1'-0" = 1'-0"
140
12.0
141
12.0
290
     0
  0
VISUALSTYLE
  5
2F
102
{ACAD_REACTORS
330
2A
102
}
330
2A
100
AcDbVisualStyle
  2
2dWireframe
 70
     4
 71
     0
 72
     2
 73
     0
 90
        0
 40
-0.6
 41
-30.0
 62
     5
 63
     7
 74
     1
 91
        4
 64
     7
 65
   257
 75
     1
175
     1
 42
1.0
 92
        0
 66
   257
 43
1.0
 76
     1
 77
     6
 78
     2
 67
     7
 79
     5
170
     0
171
     0
290
     0
174
     0
 93
        1
 44
0.0
173
     0
291
     0
 45
0.0
1001
ACAD
1000
AcDbSavedByObjectVersion
1070
     0
  0
VISUALSTYLE
  5
31
102
{ACAD_REACTORS
330
2A
102
}
330
2A
100
AcDbVisualStyle
  2
3D Hidden
 70
     6
 71
     1
 72
     2
 73
     2
 90
        0
 40
-0.6
 41
-30.0
 62
     5
 63
     7
 74
     2
 91
        2
 64
     7
 65
   257
 75
     2
175
     1
 42
40.0
 92
        0
 66
   257
 43
1.0
 76
     1
 77
     6
 78
     2
 67
     7
 79
     3
170
     0
171
     0
290
     0
174
     0
 93
        1
 44
0.0
173
     0
291
     0
 45
0.0
1001
ACAD
1000
AcDbSavedByObjectVersion
1070
     0
  0
VISUALSTYLE
  5
30
102
{ACAD_REACTORS
330
2A
102
}
330
2A
100
AcDbVisualStyle
  2
3dWireframe
 70
     5
 71
     0
 72
     2
 73
     0
 90
        0
 40
-0.6
 41
-30.0
 62
     5
 63
     7
 74
     1
 91
        4
 64
     7
 65
   257
 75
     1
175
     1
 42
1.0
 92
        0
 66
   257
 43
1.0
 76
     1
 77
     6
 78
     2
 67
     7
 79
     5
170
     0
171
     0
290
     0
174
     0
 93
        1
 44
0.0
173
     0
291
     0
 45
0.0
1001
ACAD
1000
AcDbSavedByObjectVersion
1070
     0
  0
VISUALSTYLE
  5
32
102
{ACAD_REACTORS
330
2A
102
}
330
2A
100
AcDbVisualStyle
  2
Basic
 70
     7
 71
     1
 72
     0
 73
     1
 90
        0
 40
-0.6
 41
-30.0
 62
     5
 63
     7
 74
     0
 91
        4
 64
     7
 65
   257
 75
     1
175
     1
 42
1.0
 92
        8
 66
     7
 43
1.0
 76
     1
 77
     6
 78
     2
 67
     7
 79
     5
170
     0
171
     0
290
     0
174
     0
 93
        1
 44
0.0
173
     0
291
     1
 45
0.0
1001
ACAD
1000
AcDbSavedByObjectVersion
1070
     0
  0
VISUALSTYLE
  5
36
102
{ACAD_REACTORS
330
2A
102
}
330
2A
100
AcDbVisualStyle
  2
Brighten
 70
    12
 71
     2
 72
     2
 73
     0
 90
        0
 40
-0.6
 41
-30.0
 62
     5
 63
     7
 74
     1
 91
        4
 64
     7
 65
   257
 75
     1
175
     1
 42
1.0
 92
        8
 66
     7
 43
1.0
 76
     1
 77
     6
 78
     2
 67
     7
 79
     5
170
     0
171
     0
290
     0
174
     0
 93
        1
 44
50.0
173
     0
291
     1
 45
0.0
1001
ACAD
1000
AcDbSavedByObjectVersion
1070
     0
  0
VISUALSTYLE
  5
3A
102
{ACAD_REACTORS
330
2A
102
}
330
2A
100
AcDbVisualStyle
  2
ColorChange
 70
    16
 71
     2
 72
     2
 73
     3
 90
        0
 40
-0.6
 41
-30.0
 62
     5
 63
     8
 74
     1
 91
        4
 64
     7
 65
   257
 75
     1
175
     1
 42
1.0
 92
        8
 66
     8
 43
1.0
 76
     1
 77
     6
 78
     2
 67
     7
 79
     5
170
     0
171
     0
290
     0
174
     0
 93
        1
 44
0.0
173
     0
291
     1
 45
0.0
1001
ACAD
1000
AcDbSavedByObjectVersion
1070
     0
  0
VISUALSTYLE
  5
34
102
{ACAD_REACTORS
330
2A
102
}
330
2A
100
AcDbVisualStyle
  2
Conceptual
 70
     9
 71
     3
 72
     2
 73
     0
 90
        0
 40
-0.6
 41
-30.0
 62
     5
 63
     7
 74
     2
 91
        2
 64
     7
 65
   257
 75
     1
175
     1
 42
40.0
 92
        8
 66
     7
 43
1.0
 76
     1
 77
     6
 78
     2
 67
     7
 79
     3
170
     0
171
     0
290
     0
174
     0
 93
        1
 44
0.0
173
     0
291
     0
 45
0.0
1001
ACAD
1000
AcDbSavedByObjectVersion
1070
     0
  0
VISUALSTYLE
  5
35
102
{ACAD_REACTORS
330
2A
102
}
330
2A
100
AcDbVisualStyle
  2
Dim
 70
    11
 71
     2
 72
     2
 73
     0
 90
        0
 40
-0.6
 41
-30.0
 62
     5
 63
     7
 74
     1
 91
        4
 64
     7
 65
   257
 75
     1
175
     1
 42
1.0
 92
        8
 66
     7
 43
1.0
 76
     1
 77
     6
 78
     2
 67
     7
 79
     5
170
     0
171
     0
290
     0
174
     0
 93
        1
 44
-50.0
173
     0
291
     1
 45
0.0
1001
ACAD
1000
AcDbSavedByObjectVersion
1070
     0
  0
VISUALSTYLE
  5
39
102
{ACAD_REACTORS
330
2A
102
}
330
2A
100
AcDbVisualStyle
  2
Facepattern
 70
    15
 71
     2
 72
     2
 73
     0
 90
        0
 40
-0.6
 41
-30.0
 62
     5
 63
     7
 74
     1
 91
        4
 64
     7
 65
   257
 75
     1
175
     1
 42
1.0
 92
        8
 66
     7
 43
1.0
 76
     1
 77
     6
 78
     2
 67
     7
 79
     5
170
     0
171
     0
290
     0
174
     0
 93
        1
 44
0.0
173
     0
291
     1
 45
0.0
1001
ACAD
1000
AcDbSavedByObjectVersion
1070
     0
  0
VISUALSTYLE
  5
2B
102
{ACAD_REACTORS
330
2A
102
}
330
2A
100
AcDbVisualStyle
  2
Flat
 70
     0
 71
     2
 72
     1
 73
     1
 90
        2
 40
-0.6
 41
30.0
 62
     5
 63
     7
 74
     0
 91
        4
 64
     7
 65
   257
 75
     1
175
     1
 42
1.0
 92
        8
 66
     7
 43
1.0
 76
     1
 77
     6
 78
     2
 67
     7
 79
     5
170
     0
171
     0
290
     0
174
     0
 93
       13
 44
0.0
173
     0
291
     1
 45
0.0
1001
ACAD
1000
AcDbSavedByObjectVersion
1070
     0
  0
VISUALSTYLE
  5
2C
102
{ACAD_REACTORS
330
2A
102
}
330
2A
100
AcDbVisualStyle
  2
FlatWithEdges
 70
     1
 71
     2
 72
     1
 73
     1
 90
        2
 40
-0.6
 41
30.0
 62
     5
 63
     7
 74
     1
 91
        4
 64
     7
 65
   257
 75
     1
175
     1
 42
1.0
 92
        0
 66
   257
 43
1.0
 76
     1
 77
     6
 78
     2
 67
     7
 79
     5
170
     0
171
     0
290
     0
174
     0
 93
       13
 44
0.0
173
     0
291
     1
 45
0.0
1001
ACAD
1000
AcDbSavedByObjectVersion
1070
     0
  0
VISUALSTYLE
  5
2D
102
{ACAD_REACTORS
330
2A
102
}
330
2A
100
AcDbVisualStyle
  2
Gouraud
 70
     2
 71
     2
 72
     2
 73
     1
 90
        2
 40
-0.6
 41
30.0
 62
     5
 63
     7
 74
     0
 91
        4
 64
     7
 65
   257
 75
     1
175
     1
 42
1.0
 92
        0
 66
     7
 43
1.0
 76
     1
 77
     6
 78
     2
 67
     7
 79
     5
170
     0
171
     0
290
     0
174
     0
 93
       13
 44
0.0
173
     0
291
     1
 45
0.0
1001
ACAD
1000
AcDbSavedByObjectVersion
1070
     0
  0
VISUALSTYLE
  5
2E
102
{ACAD_REACTORS
330
2A
102
}
330
2A
100
AcDbVisualStyle
  2
GouraudWithEdges
 70
     3
 71
     2
 72
     2
 73
     1
 90
        2
 40
-0.6
 41
30.0
 62
     5
 63
     7
 74
     1
 91
        4
 64
     7
 65
   257
 75
     1
175
     1
 42
1.0
 92
        0
 66
   257
 43
1.0
 76
     1
 77
     6
 78
     2
 67
     7
 79
     5
170
     0
171
     0
290
     0
174
     0
 93
       13
 44
0.0
173
     0
291
     1
 45
0.0
1001
ACAD
1000
AcDbSavedByObjectVersion
1070
     0
  0
VISUALSTYLE
  5
38
102
{ACAD_REACTORS
330
2A
102
}
330
2A
100
AcDbVisualStyle
  2
Linepattern
 70
    14
 71
     2
 72
     2
 73
     0
 90
        0
 40
-0.6
 41
-30.0
 62
     5
 63
     7
 74
     1
 91
        4
 64
     7
 65
   257
 75
     7
175
     7
 42
1.0
 92
        8
 66
     7
 43
1.0
 76
     1
 77
     6
 78
     2
 67
     7
 79
     5
170
     0
171
     0
290
     0
174
     0
 93
        1
 44
0.0
173
     0
291
     1
 45
0.0
1001
ACAD
1000
AcDbSavedByObjectVersion
1070
     0
  0
VISUALSTYLE
  5
33
102
{ACAD_REACTORS
330
2A
102
}
330
2A
100
AcDbVisualStyle
  2
Realistic
 70
     8
 71
     2
 72
     2
 73
     0
 90
        0
 40
-0.6
 41
-30.0
 62
     5
 63
     7
 74
     1
 91
        0
 64
     7
 65
   257
 75
     1
175
     1
 42
1.0
 92
        8
 66
     8
 43
1.0
 76
     1
 77
     6
 78
     2
 67
     7
 79
     5
170
     0
171
     0
290
     0
174
     0
 93
       13
 44
0.0
173
     0
291
     0
 45
0.0
1001
ACAD
1000
AcDbSavedByObjectVersion
1070
     0
  0
VISUALSTYLE
  5
37
102
{ACAD_REACTORS
330
2A
102
}
330
2A
100
AcDbVisualStyle
  2
Thicken
 70
    13
 71
     2
 72
     2
 73
     0
 90
        0
 40
-0.6
 41
-30.0
 62
     5
 63
     7
 74
     1
 91
        4
 64
     7
 65
   257
 75
     1
175
     1
 42
1.0
 92
       12
 66
     7
 43
1.0
 76
     1
 77
     6
 78
     2
 67
     7
 79
     5
170
     0
171
     0
290
     0
174
     0
 93
        1
 44
0.0
173
     0
291
     1
 45
0.0
1001
ACAD
1000
AcDbSavedByObjectVersion
1070
     0
  0
DICTIONARYVAR
  5
478
102
{ACAD_REACTORS
330
477
102
}
330
477
100
DictionaryVariables
280
     0
  1
1:1
  0
DICTIONARYVAR
  5
47C
102
{ACAD_REACTORS
330
477
102
}
330
477
100
DictionaryVariables
280
     0
  1
80.000000
  0
DICTIONARYVAR
  5
47B
102
{ACAD_REACTORS
330
477
102
}
330
477
100
DictionaryVariables
280
     0
  1
5.000000
  0
ENDSEC
  0
EOF
