  0
SECTION
  2
HEADER
  9
$ACADVER
  1
AC1009
  9
$DWGCODEPAGE
  3
ansi_1252
  9
$INSBASE
 10
0.0
 20
0.0
 30
0.0
  9
$EXTMIN
 10
1.000000000000000E+20
 20
1.000000000000000E+20
 30
1.000000000000000E+20
  9
$EXTMAX
 10
-1.000000000000000E+20
 20
-1.000000000000000E+20
 30
-1.000000000000000E+20
  9
$LIMMIN
 10
0.0
 20
0.0
  9
$LIMMAX
 10
12.0
 20
9.0
  9
$ORTHOMODE
 70
     0
  9
$REGENMODE
 70
     1
  9
$FILLMODE
 70
     1
  9
$QTEXTMODE
 70
     0
  9
$MIRRTEXT
 70
     1
  9
$DRAGMODE
 70
     2
  9
$LTSCALE
 40
1.0
  9
$OSMODE
 70
    37
  9
$ATTMODE
 70
     1
  9
$TEXTSIZE
 40
0.2
  9
$TRACEWID
 40
0.05
  9
$TEXTSTYLE
  7
STANDARD
  9
$CLAYER
  8
0
  9
$CELTYPE
  6
BYLAYER
  9
$CECOLOR
 62
   256
  9
$DIMSCALE
 40
1.0
  9
$DIMASZ
 40
0.18
  9
$DIMEXO
 40
0.0625
  9
$DIMDLI
 40
0.38
  9
$DIMRND
 40
0.0
  9
$DIMDLE
 40
0.0
  9
$DIMEXE
 40
0.18
  9
$DIMTP
 40
0.0
  9
$DIMTM
 40
0.0
  9
$DIMTXT
 40
0.18
  9
$DIMCEN
 40
0.09
  9
$DIMTSZ
 40
0.0
  9
$DIMTOL
 70
     0
  9
$DIMLIM
 70
     0
  9
$DIMTIH
 70
     1
  9
$DIMTOH
 70
     1
  9
$DIMSE1
 70
     0
  9
$DIMSE2
 70
     0
  9
$DIMTAD
 70
     0
  9
$DIMZIN
 70
     0
  9
$DIMBLK
  1

  9
$DIMASO
 70
     1
  9
$DIMSHO
 70
     1
  9
$DIMPOST
  1

  9
$DIMAPOST
  1

  9
$DIMALT
 70
     0
  9
$DIMALTD
 70
     2
  9
$DIMALTF
 40
25.4
  9
$DIMLFAC
 40
1.0
  9
$DIMTOFL
 70
     0
  9
$DIMTVP
 40
0.0
  9
$DIMTIX
 70
     0
  9
$DIMSOXD
 70
     0
  9
$DIMSAH
 70
     0
  9
$DIMBLK1
  1

  9
$DIMBLK2
  1

  9
$DIMSTYLE
  2
STANDARD
  9
$DIMCLRD
 70
     0
  9
$DIMCLRE
 70
     0
  9
$DIMCLRT
 70
     0
  9
$DIMTFAC
 40
1.0
  9
$DIMGAP
 40
0.09
  9
$LUNITS
 70
     2
  9
$LUPREC
 70
     4
  9
$SKETCHINC
 40
0.1
  9
$FILLETRAD
 40
0.5
  9
$AUNITS
 70
     0
  9
$AUPREC
 70
     0
  9
$MENU
  1
.
  9
$ELEVATION
 40
0.0
  9
$PELEVATION
 40
0.0
  9
$THICKNESS
 40
0.0
  9
$LIMCHECK
 70
     0
  9
$CHAMFERA
 40
0.5
  9
$CHAMFERB
 40
0.5
  9
$SKPOLY
 70
     0
  9
$TDCREATE
 40
2455351.747079526
  9
$TDUPDATE
 40
2455351.747079526
  9
$TDINDWG
 40
0.0000000116
  9
$TDUSRTIMER
 40
0.0000000116
  9
$USRTIMER
 70
     1
  9
$ANGBASE
 50
0.0
  9
$ANGDIR
 70
     0
  9
$PDMODE
 70
     0
  9
$PDSIZE
 40
0.0
  9
$PLINEWID
 40
0.0
  9
$COORDS
 70
     1
  9
$SPLFRAME
 70
     0
  9
$SPLINETYPE
 70
     6
  9
$SPLINESEGS
 70
     8
  9
$ATTDIA
 70
     0
  9
$ATTREQ
 70
     1
  9
$HANDLING
 70
     1
  9
$HANDSEED
  5
67C
  9
$SURFTAB1
 70
     6
  9
$SURFTAB2
 70
     6
  9
$SURFTYPE
 70
     6
  9
$SURFU
 70
     6
  9
$SURFV
 70
     6
  9
$UCSNAME
  2

  9
$UCSORG
 10
0.0
 20
0.0
 30
0.0
  9
$UCSXDIR
 10
1.0
 20
0.0
 30
0.0
  9
$UCSYDIR
 10
0.0
 20
1.0
 30
0.0
  9
$PUCSNAME
  2

  9
$PUCSORG
 10
0.0
 20
0.0
 30
0.0
  9
$PUCSXDIR
 10
1.0
 20
0.0
 30
0.0
  9
$PUCSYDIR
 10
0.0
 20
1.0
 30
0.0
  9
$USERI1
 70
     0
  9
$USERI2
 70
     0
  9
$USERI3
 70
     0
  9
$USERI4
 70
     0
  9
$USERI5
 70
     0
  9
$USERR1
 40
0.0
  9
$USERR2
 40
0.0
  9
$USERR3
 40
0.0
  9
$USERR4
 40
0.0
  9
$USERR5
 40
0.0
  9
$WORLDVIEW
 70
     1
  9
$SHADEDGE
 70
     3
  9
$SHADEDIF
 70
    70
  9
$TILEMODE
 70
     1
  9
$MAXACTVP
 70
    64
  9
$PLIMCHECK
 70
     0
  9
$PEXTMIN
 10
1.000000000000000E+20
 20
1.000000000000000E+20
 30
1.000000000000000E+20
  9
$PEXTMAX
 10
-1.000000000000000E+20
 20
-1.000000000000000E+20
 30
-1.000000000000000E+20
  9
$PLIMMIN
 10
0.0
 20
0.0
  9
$PLIMMAX
 10
12.0
 20
9.0
  9
$UNITMODE
 70
     0
  9
$VISRETAIN
 70
     1
  9
$PLINEGEN
 70
     0
  9
$PSLTSCALE
 70
     1
  0
ENDSEC
  0
SECTION
  2
TABLES
  0
TABLE
  2
VPORT
 70
     1
  0
VPORT
  2
*ACTIVE
 70
     0
 10
0.0
 20
0.0
 11
1.0
 21
1.0
 12
0.0
 22
0.0
 13
0.0
 23
0.0
 14
0.5
 24
0.5
 15
0.5
 25
0.5
 16
555.5565795898438
 26
317.4335632324219
 36
555.5565185546875
 17
88.2864990234375
 27
31.09149169921875
 37
79.9515380859375
 40
319.0118065601237
 41
1.972972972850329
 42
50.0
 43
0.0
 44
0.0
 50
0.0
 51
0.0
 71
     0
 72
   100
 73
     1
 74
     3
 75
     0
 76
     0
 77
     0
 78
     0
  0
ENDTAB
  0
TABLE
  2
LTYPE
 70
     1
  0
LTYPE
  2
CONTINUOUS
 70
     0
  3
Solid line
 72
    65
 73
     0
 40
0.0
  0
ENDTAB
  0
TABLE
  2
LAYER
 70
     2
  0
LAYER
  2
0
 70
     0
 62
     7
  6
CONTINUOUS
  0
LAYER
  2
LAYER_1
 70
     0
 62
     7
  6
CONTINUOUS
  0
ENDTAB
  0
TABLE
  2
STYLE
 70
     1
  0
STYLE
  2
STANDARD
 70
     0
 40
0.0
 41
1.0
 50
0.0
 71
     0
 42
0.2
  3
txt
  4

  0
ENDTAB
  0
TABLE
  2
VIEW
 70
     0
  0
ENDTAB
  0
TABLE
  2
UCS
 70
     0
  0
ENDTAB
  0
TABLE
  2
APPID
 70
     1
  0
APPID
  2
ACAD
 70
     0
  0
ENDTAB
  0
TABLE
  2
DIMSTYLE
 70
     1
  0
DIMSTYLE
  2
STANDARD
 70
     0
  3

  4

  5

  6

  7

 40
1.0
 41
0.18
 42
0.0625
 43
0.38
 44
0.18
 45
0.0
 46
0.0
 47
0.0
 48
0.0
140
0.18
141
0.09
142
0.0
143
25.4
144
1.0
145
0.0
146
1.0
147
0.09
 71
     0
 72
     0
 73
     1
 74
     1
 75
     0
 76
     0
 77
     0
 78
     0
170
     0
171
     2
172
     0
173
     0
174
     0
175
     0
176
     0
177
     0
178
     0
  0
ENDTAB
  0
ENDSEC
  0
SECTION
  2
BLOCKS
  0
BLOCK
  8
0
  2
$MODEL_SPACE
 70
     0
 10
0.0
 20
0.0
 30
0.0
  3
$MODEL_SPACE
  1

  0
ENDBLK
  5
21
  8
0
  0
BLOCK
 67
     1
  8
0
  2
$PAPER_SPACE
 70
     0
 10
0.0
 20
0.0
 30
0.0
  3
$PAPER_SPACE
  1

  0
ENDBLK
  5
1D
 67
     1
  8
0
  0
BLOCK
  8
0
  2
E3_NODE
 70
     0
 10
0.0
 20
0.0
 30
0.0
  3
E3_NODE
  1

  0
POLYLINE
  5
3C
  8
0
 62
     9
 66
     1
 10
0.0
 20
0.0
 30
0.0
 70
    64
 71
     7
 72
     5
  0
VERTEX
  5
3D
  8
0
 10
104.5879974365234
 20
-2.532000064849854
 30
221.2489929199219
 70
   192
  0
VERTEX
  5
3E
  8
0
 10
104.5879974365234
 20
0.1720000058412552
 30
233.0930023193359
 70
   192
  0
VERTEX
  5
3F
  8
0
 10
104.5879974365234
 20
-7.402999877929688
 30
242.5910034179688
 70
   192
  0
VERTEX
  5
40
  8
0
 10
104.5879974365234
 20
-19.55200004577637
 30
242.5910034179688
 70
   192
  0
VERTEX
  5
41
  8
0
 10
104.5879974365234
 20
-27.12599945068359
 30
233.0930023193359
 70
   192
  0
VERTEX
  5
42
  8
0
 10
104.5879974365234
 20
-24.42300033569336
 30
221.2489929199219
 70
   192
  0
VERTEX
  5
43
  8
0
 10
104.5879974365234
 20
-13.47700023651123
 30
215.9770050048828
 70
   192
  0
VERTEX
  5
44
  8
0
 62
     9
 10
0.0
 20
0.0
 30
0.0
 70
   128
 71
     3
 72
     2
 73
     1
  0
VERTEX
  5
45
  8
0
 62
     9
 10
0.0
 20
0.0
 30
0.0
 70
   128
 71
     1
 72
     4
 73
     3
  0
VERTEX
  5
46
  8
0
 62
     9
 10
0.0
 20
0.0
 30
0.0
 70
   128
 71
     6
 72
     5
 73
     1
  0
VERTEX
  5
47
  8
0
 62
     9
 10
0.0
 20
0.0
 30
0.0
 70
   128
 71
     1
 72
     7
 73
     6
  0
VERTEX
  5
48
  8
0
 62
     9
 10
0.0
 20
0.0
 30
0.0
 70
   128
 71
     1
 72
     5
 73
     4
  0
SEQEND
  5
49
  8
0
 62
     9
  0
ENDBLK
  5
4D
  8
0
  0
BLOCK
  8
0
  2
E3_NODE_1_
 70
     0
 10
0.0
 20
0.0
 30
0.0
  3
E3_NODE_1_
  1

  0
POLYLINE
  5
4F
  8
0
 62
     9
 66
     1
 10
0.0
 20
0.0
 30
0.0
 70
    64
 71
    22
 72
    22
  0
VERTEX
  5
50
  8
0
 10
104.5879974365234
 20
-13.47700023651123
 30
215.9770050048828
 70
   192
  0
VERTEX
  5
51
  8
0
 10
26.58799934387207
 20
-13.47700023651123
 30
215.9770050048828
 70
   192
  0
VERTEX
  5
52
  8
0
 10
26.58799934387207
 20
-4.478000164031982
 30
219.2530059814453
 70
   192
  0
VERTEX
  5
53
  8
0
 10
104.5879974365234
 20
-2.532000064849854
 30
221.2489929199219
 70
   192
  0
VERTEX
  5
54
  8
0
 10
26.58799934387207
 20
-3.127000093460083
 30
221.5930023193359
 70
   192
  0
VERTEX
  5
55
  8
0
 10
26.58799934387207
 20
0.3100000023841858
 30
227.5460052490234
 70
   192
  0
VERTEX
  5
56
  8
0
 10
104.5879974365234
 20
0.1720000058412552
 30
233.0930023193359
 70
   192
  0
VERTEX
  5
57
  8
0
 10
104.5879974365234
 20
-7.402999877929688
 30
242.5910034179688
 70
   192
  0
VERTEX
  5
58
  8
0
 10
26.58799934387207
 20
-1.353000044822693
 30
236.9770050048828
 70
   192
  0
VERTEX
  5
59
  8
0
 10
26.58799934387207
 20
-0.6430000066757202
 30
232.9490051269531
 70
   192
  0
VERTEX
  5
5A
  8
0
 10
104.5879974365234
 20
-19.55200004577637
 30
242.5910034179688
 70
   192
  0
VERTEX
  5
5B
  8
0
 10
26.58799934387207
 20
-8.689000129699707
 30
243.1329956054688
 70
   192
  0
VERTEX
  5
5C
  8
0
 10
26.58799934387207
 20
-18.26600074768066
 30
243.1329956054688
 70
   192
  0
VERTEX
  5
5D
  8
0
 10
26.58799934387207
 20
-7.666999816894531
 30
242.2760009765625
 70
   192
  0
VERTEX
  5
5E
  8
0
 10
26.58799934387207
 20
-19.28700065612793
 30
242.2760009765625
 70
   192
  0
VERTEX
  5
5F
  8
0
 10
26.58799934387207
 20
-25.60199928283691
 30
236.9770050048828
 70
   192
  0
VERTEX
  5
60
  8
0
 10
104.5879974365234
 20
-27.12599945068359
 30
233.0930023193359
 70
   192
  0
VERTEX
  5
61
  8
0
 10
104.5879974365234
 20
-24.42300033569336
 30
221.2489929199219
 70
   192
  0
VERTEX
  5
62
  8
0
 10
26.58799934387207
 20
-27.26499938964844
 30
227.5460052490234
 70
   192
  0
VERTEX
  5
63
  8
0
 10
26.58799934387207
 20
-26.3120002746582
 30
232.9490051269531
 70
   192
  0
VERTEX
  5
64
  8
0
 10
26.58799934387207
 20
-22.47599983215332
 30
219.2530059814453
 70
   192
  0
VERTEX
  5
65
  8
0
 10
26.58799934387207
 20
-23.82699966430664
 30
221.5930023193359
 70
   192
  0
VERTEX
  5
66
  8
0
 62
     9
 10
0.0
 20
0.0
 30
0.0
 70
   128
 71
     3
 72
     2
 73
     1
  0
VERTEX
  5
67
  8
0
 62
     9
 10
0.0
 20
0.0
 30
0.0
 70
   128
 71
     1
 72
     4
 73
     3
  0
VERTEX
  5
68
  8
0
 62
     9
 10
0.0
 20
0.0
 30
0.0
 70
   128
 71
     6
 72
     5
 73
     4
  0
VERTEX
  5
69
  8
0
 62
     9
 10
0.0
 20
0.0
 30
0.0
 70
   128
 71
     4
 72
     7
 73
     6
  0
VERTEX
  5
6A
  8
0
 62
     9
 10
0.0
 20
0.0
 30
0.0
 70
   128
 71
     9
 72
     7
 73
     8
  0
VERTEX
  5
6B
  8
0
 62
     9
 10
0.0
 20
0.0
 30
0.0
 70
   128
 71
     9
 72
    10
 73
     7
  0
VERTEX
  5
6C
  8
0
 62
     9
 10
0.0
 20
0.0
 30
0.0
 70
   128
 71
    12
 72
     8
 73
    11
  0
VERTEX
  5
6D
  8
0
 62
     9
 10
0.0
 20
0.0
 30
0.0
 70
   128
 71
    11
 72
    13
 73
    12
  0
VERTEX
  5
6E
  8
0
 62
     9
 10
0.0
 20
0.0
 30
0.0
 70
   128
 71
    12
 72
    14
 73
     8
  0
VERTEX
  5
6F
  8
0
 62
     9
 10
0.0
 20
0.0
 30
0.0
 70
   128
 71
    16
 72
    15
 73
    11
  0
VERTEX
  5
70
  8
0
 62
     9
 10
0.0
 20
0.0
 30
0.0
 70
   128
 71
    11
 72
    17
 73
    16
  0
VERTEX
  5
71
  8
0
 62
     9
 10
0.0
 20
0.0
 30
0.0
 70
   128
 71
    19
 72
    17
 73
    18
  0
VERTEX
  5
72
  8
0
 62
     9
 10
0.0
 20
0.0
 30
0.0
 70
   128
 71
    19
 72
    20
 73
    17
  0
VERTEX
  5
73
  8
0
 62
     9
 10
0.0
 20
0.0
 30
0.0
 70
   128
 71
    21
 72
    18
 73
     1
  0
VERTEX
  5
74
  8
0
 62
     9
 10
0.0
 20
0.0
 30
0.0
 70
   128
 71
    21
 72
    22
 73
    18
  0
VERTEX
  5
75
  8
0
 62
     9
 10
0.0
 20
0.0
 30
0.0
 70
   128
 71
     1
 72
     2
 73
    21
  0
VERTEX
  5
76
  8
0
 62
     9
 10
0.0
 20
0.0
 30
0.0
 70
   128
 71
    18
 72
    22
 73
    19
  0
VERTEX
  5
77
  8
0
 62
     9
 10
0.0
 20
0.0
 30
0.0
 70
   128
 71
    17
 72
    20
 73
    16
  0
VERTEX
  5
78
  8
0
 62
     9
 10
0.0
 20
0.0
 30
0.0
 70
   128
 71
    11
 72
    15
 73
    13
  0
VERTEX
  5
79
  8
0
 62
     9
 10
0.0
 20
0.0
 30
0.0
 70
   128
 71
     8
 72
    14
 73
     9
  0
VERTEX
  5
7A
  8
0
 62
     9
 10
0.0
 20
0.0
 30
0.0
 70
   128
 71
     7
 72
    10
 73
     6
  0
VERTEX
  5
7B
  8
0
 62
     9
 10
0.0
 20
0.0
 30
0.0
 70
   128
 71
     4
 72
     5
 73
     3
  0
SEQEND
  5
7C
  8
0
 62
     9
  0
ENDBLK
  5
7F
  8
0
  0
BLOCK
  8
0
  2
E3_NODE_2_
 70
     0
 10
0.0
 20
0.0
 30
0.0
  3
E3_NODE_2_
  1

  0
POLYLINE
  5
81
  8
0
 62
     9
 66
     1
 10
0.0
 20
0.0
 30
0.0
 70
    64
 71
    66
 72
   102
  0
VERTEX
  5
82
  8
0
 10
-10.6870002746582
 20
-22.47599983215332
 30
181.9770050048828
 70
   192
  0
VERTEX
  5
83
  8
0
 10
-7.412000179290771
 20
-13.47700023651123
 30
181.9770050048828
 70
   192
  0
VERTEX
  5
84
  8
0
 10
-5.748000144958496
 20
-13.47700023651123
 30
192.4839935302734
 70
   192
  0
VERTEX
  5
85
  8
0
 10
-0.9179999828338623
 20
-13.47700023651123
 30
201.9620056152344
 70
   192
  0
VERTEX
  5
86
  8
0
 10
-3.568000078201294
 20
-22.47599983215332
 30
203.8869934082031
 70
   192
  0
VERTEX
  5
87
  8
0
 10
6.604000091552734
 20
-13.47700023651123
 30
209.4839935302734
 70
   192
  0
VERTEX
  5
88
  8
0
 10
4.677999973297119
 20
-22.47599983215332
 30
212.1340026855469
 70
   192
  0
VERTEX
  5
89
  8
0
 10
16.08200073242188
 20
-13.47700023651123
 30
214.3130035400391
 70
   192
  0
VERTEX
  5
8A
  8
0
 10
15.06999969482422
 20
-22.47599983215332
 30
217.4279937744141
 70
   192
  0
VERTEX
  5
8B
  8
0
 10
26.58799934387207
 20
-22.47599983215332
 30
219.2530059814453
 70
   192
  0
VERTEX
  5
8C
  8
0
 10
-8.86299991607666
 20
-22.47599983215332
 30
193.4960021972656
 70
   192
  0
VERTEX
  5
8D
  8
0
 10
-16.75
 20
-27.26499938964844
 30
196.0590057373047
 70
   192
  0
VERTEX
  5
8E
  8
0
 10
-13.02700042724609
 20
-23.82699966430664
 30
181.9770050048828
 70
   192
  0
VERTEX
  5
8F
  8
0
 10
-18.98100090026855
 20
-27.26499938964844
 30
181.9770050048828
 70
   192
  0
VERTEX
  5
90
  8
0
 10
-10.27799987792969
 20
-27.26499938964844
 30
208.7619934082031
 70
   192
  0
VERTEX
  5
91
  8
0
 10
-0.1959999948740005
 20
-27.26499938964844
 30
218.8430023193359
 70
   192
  0
VERTEX
  5
92
  8
0
 10
12.50699996948242
 20
-27.26499938964844
 30
225.3159942626953
 70
   192
  0
VERTEX
  5
93
  8
0
 10
26.58799934387207
 20
-23.82699966430664
 30
221.5930023193359
 70
   192
  0
VERTEX
  5
94
  8
0
 10
-24.38299942016602
 20
-26.3120002746582
 30
181.9770050048828
 70
   192
  0
VERTEX
  5
95
  8
0
 10
-25.71999931335449
 20
-25.60199928283691
 30
198.9730072021484
 70
   192
  0
VERTEX
  5
96
  8
0
 10
-28.41200065612793
 20
-25.60199928283691
 30
181.9770050048828
 70
   192
  0
VERTEX
  5
97
  8
0
 10
-17.90800094604492
 20
-25.60199928283691
 30
214.3059997558594
 70
   192
  0
VERTEX
  5
98
  8
0
 10
-5.739999771118164
 20
-25.60199928283691
 30
226.4730072021484
 70
   192
  0
VERTEX
  5
99
  8
0
 10
9.592000007629395
 20
-25.60199928283691
 30
234.2859954833984
 70
   192
  0
VERTEX
  5
9A
  8
0
 10
26.58799934387207
 20
-26.3120002746582
 30
232.9490051269531
 70
   192
  0
VERTEX
  5
9B
  8
0
 10
26.58799934387207
 20
-27.26499938964844
 30
227.5460052490234
 70
   192
  0
VERTEX
  5
9C
  8
0
 10
-33.70999908447266
 20
-19.28700065612793
 30
181.9770050048828
 70
   192
  0
VERTEX
  5
9D
  8
0
 10
-31.57399940490723
 20
-18.26600074768066
 30
200.8760070800781
 70
   192
  0
VERTEX
  5
9E
  8
0
 10
-34.56700134277344
 20
-18.26600074768066
 30
181.9770050048828
 70
   192
  0
VERTEX
  5
9F
  8
0
 10
-22.88800048828125
 20
-18.26600074768066
 30
217.9239959716797
 70
   192
  0
VERTEX
  5
A0
  8
0
 10
-9.357999801635742
 20
-18.26600074768066
 30
231.4530029296875
 70
   192
  0
VERTEX
  5
A1
  8
0
 10
7.690000057220459
 20
-18.26600074768066
 30
240.1399993896484
 70
   192
  0
VERTEX
  5
A2
  8
0
 10
26.58799934387207
 20
-19.28700065612793
 30
242.2760009765625
 70
   192
  0
VERTEX
  5
A3
  8
0
 10
26.58799934387207
 20
-25.60199928283691
 30
236.9770050048828
 70
   192
  0
VERTEX
  5
A4
  8
0
 10
-31.57399940490723
 20
-8.689000129699707
 30
200.8760070800781
 70
   192
  0
VERTEX
  5
A5
  8
0
 10
-22.88800048828125
 20
-8.689000129699707
 30
217.9239959716797
 70
   192
  0
VERTEX
  5
A6
  8
0
 10
-9.357999801635742
 20
-8.689000129699707
 30
231.4530029296875
 70
   192
  0
VERTEX
  5
A7
  8
0
 10
7.690000057220459
 20
-8.689000129699707
 30
240.1399993896484
 70
   192
  0
VERTEX
  5
A8
  8
0
 10
26.58799934387207
 20
-8.689000129699707
 30
243.1329956054688
 70
   192
  0
VERTEX
  5
A9
  8
0
 10
-33.70999908447266
 20
-7.666999816894531
 30
181.9770050048828
 70
   192
  0
VERTEX
  5
AA
  8
0
 10
-25.71999931335449
 20
-1.353000044822693
 30
198.9730072021484
 70
   192
  0
VERTEX
  5
AB
  8
0
 10
-28.41200065612793
 20
-1.353000044822693
 30
181.9770050048828
 70
   192
  0
VERTEX
  5
AC
  8
0
 10
-17.90800094604492
 20
-1.353000044822693
 30
214.3059997558594
 70
   192
  0
VERTEX
  5
AD
  8
0
 10
-5.739999771118164
 20
-1.353000044822693
 30
226.4730072021484
 70
   192
  0
VERTEX
  5
AE
  8
0
 10
9.592000007629395
 20
-1.353000044822693
 30
234.2859954833984
 70
   192
  0
VERTEX
  5
AF
  8
0
 10
26.58799934387207
 20
-7.666999816894531
 30
242.2760009765625
 70
   192
  0
VERTEX
  5
B0
  8
0
 10
26.58799934387207
 20
-1.353000044822693
 30
236.9770050048828
 70
   192
  0
VERTEX
  5
B1
  8
0
 10
-24.38299942016602
 20
-0.6430000066757202
 30
181.9770050048828
 70
   192
  0
VERTEX
  5
B2
  8
0
 10
-16.75
 20
0.3100000023841858
 30
196.0590057373047
 70
   192
  0
VERTEX
  5
B3
  8
0
 10
-18.98100090026855
 20
0.3100000023841858
 30
181.9770050048828
 70
   192
  0
VERTEX
  5
B4
  8
0
 10
-10.27799987792969
 20
0.3100000023841858
 30
208.7619934082031
 70
   192
  0
VERTEX
  5
B5
  8
0
 10
-0.1959999948740005
 20
0.3100000023841858
 30
218.8430023193359
 70
   192
  0
VERTEX
  5
B6
  8
0
 10
12.50699996948242
 20
0.3100000023841858
 30
225.3159942626953
 70
   192
  0
VERTEX
  5
B7
  8
0
 10
26.58799934387207
 20
-0.6430000066757202
 30
232.9490051269531
 70
   192
  0
VERTEX
  5
B8
  8
0
 10
26.58799934387207
 20
0.3100000023841858
 30
227.5460052490234
 70
   192
  0
VERTEX
  5
B9
  8
0
 10
-8.86299991607666
 20
-4.478000164031982
 30
193.4960021972656
 70
   192
  0
VERTEX
  5
BA
  8
0
 10
-10.6870002746582
 20
-4.478000164031982
 30
181.9770050048828
 70
   192
  0
VERTEX
  5
BB
  8
0
 10
-13.02700042724609
 20
-3.127000093460083
 30
181.9770050048828
 70
   192
  0
VERTEX
  5
BC
  8
0
 10
-3.568000078201294
 20
-4.478000164031982
 30
203.8869934082031
 70
   192
  0
VERTEX
  5
BD
  8
0
 10
4.677999973297119
 20
-4.478000164031982
 30
212.1340026855469
 70
   192
  0
VERTEX
  5
BE
  8
0
 10
15.06999969482422
 20
-4.478000164031982
 30
217.4279937744141
 70
   192
  0
VERTEX
  5
BF
  8
0
 10
26.58799934387207
 20
-3.127000093460083
 30
221.5930023193359
 70
   192
  0
VERTEX
  5
C0
  8
0
 10
26.58799934387207
 20
-4.478000164031982
 30
219.2530059814453
 70
   192
  0
VERTEX
  5
C1
  8
0
 10
26.58799934387207
 20
-13.47700023651123
 30
215.9770050048828
 70
   192
  0
VERTEX
  5
C2
  8
0
 10
-34.56700134277344
 20
-8.689000129699707
 30
181.9770050048828
 70
   192
  0
VERTEX
  5
C3
  8
0
 10
26.58799934387207
 20
-18.26600074768066
 30
243.1329956054688
 70
   192
  0
VERTEX
  5
C4
  8
0
 62
     9
 10
0.0
 20
0.0
 30
0.0
 70
   128
 71
     3
 72
     2
 73
     1
  0
VERTEX
  5
C5
  8
0
 62
     9
 10
0.0
 20
0.0
 30
0.0
 70
   128
 71
     5
 72
     4
 73
     3
  0
VERTEX
  5
C6
  8
0
 62
     9
 10
0.0
 20
0.0
 30
0.0
 70
   128
 71
     7
 72
     6
 73
     4
  0
VERTEX
  5
C7
  8
0
 62
     9
 10
0.0
 20
0.0
 30
0.0
 70
   128
 71
     9
 72
     8
 73
     6
  0
VERTEX
  5
C8
  8
0
 62
     9
 10
0.0
 20
0.0
 30
0.0
 70
   128
 71
     8
 72
     9
 73
    10
  0
VERTEX
  5
C9
  8
0
 62
     9
 10
0.0
 20
0.0
 30
0.0
 70
   128
 71
    13
 72
    12
 73
    11
  0
VERTEX
  5
CA
  8
0
 62
     9
 10
0.0
 20
0.0
 30
0.0
 70
   128
 71
    13
 72
    14
 73
    12
  0
VERTEX
  5
CB
  8
0
 62
     9
 10
0.0
 20
0.0
 30
0.0
 70
   128
 71
    15
 72
     5
 73
    11
  0
VERTEX
  5
CC
  8
0
 62
     9
 10
0.0
 20
0.0
 30
0.0
 70
   128
 71
    16
 72
     7
 73
     5
  0
VERTEX
  5
CD
  8
0
 62
     9
 10
0.0
 20
0.0
 30
0.0
 70
   128
 71
    17
 72
     9
 73
     7
  0
VERTEX
  5
CE
  8
0
 62
     9
 10
0.0
 20
0.0
 30
0.0
 70
   128
 71
    18
 72
    10
 73
     9
  0
VERTEX
  5
CF
  8
0
 62
     9
 10
0.0
 20
0.0
 30
0.0
 70
   128
 71
     9
 72
    17
 73
    18
  0
VERTEX
  5
D0
  8
0
 62
     9
 10
0.0
 20
0.0
 30
0.0
 70
   128
 71
    12
 72
    14
 73
    19
  0
VERTEX
  5
D1
  8
0
 62
     9
 10
0.0
 20
0.0
 30
0.0
 70
   128
 71
    19
 72
    21
 73
    20
  0
VERTEX
  5
D2
  8
0
 62
     9
 10
0.0
 20
0.0
 30
0.0
 70
   128
 71
    22
 72
    15
 73
    12
  0
VERTEX
  5
D3
  8
0
 62
     9
 10
0.0
 20
0.0
 30
0.0
 70
   128
 71
    23
 72
    16
 73
    15
  0
VERTEX
  5
D4
  8
0
 62
     9
 10
0.0
 20
0.0
 30
0.0
 70
   128
 71
    24
 72
    17
 73
    16
  0
VERTEX
  5
D5
  8
0
 62
     9
 10
0.0
 20
0.0
 30
0.0
 70
   128
 71
    17
 72
    24
 73
    25
  0
VERTEX
  5
D6
  8
0
 62
     9
 10
0.0
 20
0.0
 30
0.0
 70
   128
 71
    25
 72
    26
 73
    17
  0
VERTEX
  5
D7
  8
0
 62
     9
 10
0.0
 20
0.0
 30
0.0
 70
   128
 71
    20
 72
    21
 73
    27
  0
VERTEX
  5
D8
  8
0
 62
     9
 10
0.0
 20
0.0
 30
0.0
 70
   128
 71
    27
 72
    29
 73
    28
  0
VERTEX
  5
D9
  8
0
 62
     9
 10
0.0
 20
0.0
 30
0.0
 70
   128
 71
    30
 72
    22
 73
    20
  0
VERTEX
  5
DA
  8
0
 62
     9
 10
0.0
 20
0.0
 30
0.0
 70
   128
 71
    31
 72
    23
 73
    22
  0
VERTEX
  5
DB
  8
0
 62
     9
 10
0.0
 20
0.0
 30
0.0
 70
   128
 71
    32
 72
    24
 73
    23
  0
VERTEX
  5
DC
  8
0
 62
     9
 10
0.0
 20
0.0
 30
0.0
 70
   128
 71
    24
 72
    32
 73
    33
  0
VERTEX
  5
DD
  8
0
 62
     9
 10
0.0
 20
0.0
 30
0.0
 70
   128
 71
    33
 72
    34
 73
    24
  0
VERTEX
  5
DE
  8
0
 62
     9
 10
0.0
 20
0.0
 30
0.0
 70
   128
 71
    35
 72
    28
 73
    29
  0
VERTEX
  5
DF
  8
0
 62
     9
 10
0.0
 20
0.0
 30
0.0
 70
   128
 71
    36
 72
    30
 73
    28
  0
VERTEX
  5
E0
  8
0
 62
     9
 10
0.0
 20
0.0
 30
0.0
 70
   128
 71
    37
 72
    31
 73
    30
  0
VERTEX
  5
E1
  8
0
 62
     9
 10
0.0
 20
0.0
 30
0.0
 70
   128
 71
    38
 72
    32
 73
    31
  0
VERTEX
  5
E2
  8
0
 62
     9
 10
0.0
 20
0.0
 30
0.0
 70
   128
 71
    32
 72
    38
 73
    39
  0
VERTEX
  5
E3
  8
0
 62
     9
 10
0.0
 20
0.0
 30
0.0
 70
   128
 71
    41
 72
    35
 73
    40
  0
VERTEX
  5
E4
  8
0
 62
     9
 10
0.0
 20
0.0
 30
0.0
 70
   128
 71
    40
 72
    42
 73
    41
  0
VERTEX
  5
E5
  8
0
 62
     9
 10
0.0
 20
0.0
 30
0.0
 70
   128
 71
    43
 72
    36
 73
    35
  0
VERTEX
  5
E6
  8
0
 62
     9
 10
0.0
 20
0.0
 30
0.0
 70
   128
 71
    44
 72
    37
 73
    36
  0
VERTEX
  5
E7
  8
0
 62
     9
 10
0.0
 20
0.0
 30
0.0
 70
   128
 71
    45
 72
    38
 73
    37
  0
VERTEX
  5
E8
  8
0
 62
     9
 10
0.0
 20
0.0
 30
0.0
 70
   128
 71
    45
 72
    47
 73
    46
  0
VERTEX
  5
E9
  8
0
 62
     9
 10
0.0
 20
0.0
 30
0.0
 70
   128
 71
    46
 72
    39
 73
    38
  0
VERTEX
  5
EA
  8
0
 62
     9
 10
0.0
 20
0.0
 30
0.0
 70
   128
 71
    49
 72
    41
 73
    48
  0
VERTEX
  5
EB
  8
0
 62
     9
 10
0.0
 20
0.0
 30
0.0
 70
   128
 71
    48
 72
    50
 73
    49
  0
VERTEX
  5
EC
  8
0
 62
     9
 10
0.0
 20
0.0
 30
0.0
 70
   128
 71
    51
 72
    43
 73
    41
  0
VERTEX
  5
ED
  8
0
 62
     9
 10
0.0
 20
0.0
 30
0.0
 70
   128
 71
    52
 72
    44
 73
    43
  0
VERTEX
  5
EE
  8
0
 62
     9
 10
0.0
 20
0.0
 30
0.0
 70
   128
 71
    53
 72
    45
 73
    44
  0
VERTEX
  5
EF
  8
0
 62
     9
 10
0.0
 20
0.0
 30
0.0
 70
   128
 71
    53
 72
    55
 73
    54
  0
VERTEX
  5
F0
  8
0
 62
     9
 10
0.0
 20
0.0
 30
0.0
 70
   128
 71
    54
 72
    47
 73
    45
  0
VERTEX
  5
F1
  8
0
 62
     9
 10
0.0
 20
0.0
 30
0.0
 70
   128
 71
    58
 72
    57
 73
    56
  0
VERTEX
  5
F2
  8
0
 62
     9
 10
0.0
 20
0.0
 30
0.0
 70
   128
 71
    56
 72
    49
 73
    58
  0
VERTEX
  5
F3
  8
0
 62
     9
 10
0.0
 20
0.0
 30
0.0
 70
   128
 71
    59
 72
    51
 73
    49
  0
VERTEX
  5
F4
  8
0
 62
     9
 10
0.0
 20
0.0
 30
0.0
 70
   128
 71
    60
 72
    52
 73
    51
  0
VERTEX
  5
F5
  8
0
 62
     9
 10
0.0
 20
0.0
 30
0.0
 70
   128
 71
    61
 72
    53
 73
    52
  0
VERTEX
  5
F6
  8
0
 62
     9
 10
0.0
 20
0.0
 30
0.0
 70
   128
 71
    62
 72
    53
 73
    61
  0
VERTEX
  5
F7
  8
0
 62
     9
 10
0.0
 20
0.0
 30
0.0
 70
   128
 71
    62
 72
    55
 73
    53
  0
VERTEX
  5
F8
  8
0
 62
     9
 10
0.0
 20
0.0
 30
0.0
 70
   128
 71
     3
 72
    56
 73
    57
  0
VERTEX
  5
F9
  8
0
 62
     9
 10
0.0
 20
0.0
 30
0.0
 70
   128
 71
     4
 72
    59
 73
    56
  0
VERTEX
  5
FA
  8
0
 62
     9
 10
0.0
 20
0.0
 30
0.0
 70
   128
 71
     6
 72
    60
 73
    59
  0
VERTEX
  5
FB
  8
0
 62
     9
 10
0.0
 20
0.0
 30
0.0
 70
   128
 71
     8
 72
    61
 73
    60
  0
VERTEX
  5
FC
  8
0
 62
     9
 10
0.0
 20
0.0
 30
0.0
 70
   128
 71
     8
 72
    64
 73
    63
  0
VERTEX
  5
FD
  8
0
 62
     9
 10
0.0
 20
0.0
 30
0.0
 70
   128
 71
    63
 72
    61
 73
     8
  0
VERTEX
  5
FE
  8
0
 62
     9
 10
0.0
 20
0.0
 30
0.0
 70
   128
 71
    60
 72
     6
 73
     8
  0
VERTEX
  5
FF
  8
0
 62
     9
 10
0.0
 20
0.0
 30
0.0
 70
   128
 71
    59
 72
     4
 73
     6
  0
VERTEX
  5
100
  8
0
 62
     9
 10
0.0
 20
0.0
 30
0.0
 70
   128
 71
    56
 72
     3
 73
     4
  0
VERTEX
  5
101
  8
0
 62
     9
 10
0.0
 20
0.0
 30
0.0
 70
   128
 71
    57
 72
     2
 73
     3
  0
VERTEX
  5
102
  8
0
 62
     9
 10
0.0
 20
0.0
 30
0.0
 70
   128
 71
    61
 72
    63
 73
    62
  0
VERTEX
  5
103
  8
0
 62
     9
 10
0.0
 20
0.0
 30
0.0
 70
   128
 71
    52
 72
    60
 73
    61
  0
VERTEX
  5
104
  8
0
 62
     9
 10
0.0
 20
0.0
 30
0.0
 70
   128
 71
    51
 72
    59
 73
    60
  0
VERTEX
  5
105
  8
0
 62
     9
 10
0.0
 20
0.0
 30
0.0
 70
   128
 71
    49
 72
    56
 73
    59
  0
VERTEX
  5
106
  8
0
 62
     9
 10
0.0
 20
0.0
 30
0.0
 70
   128
 71
    49
 72
    50
 73
    58
  0
VERTEX
  5
107
  8
0
 62
     9
 10
0.0
 20
0.0
 30
0.0
 70
   128
 71
    54
 72
    45
 73
    53
  0
VERTEX
  5
108
  8
0
 62
     9
 10
0.0
 20
0.0
 30
0.0
 70
   128
 71
    44
 72
    52
 73
    53
  0
VERTEX
  5
109
  8
0
 62
     9
 10
0.0
 20
0.0
 30
0.0
 70
   128
 71
    43
 72
    51
 73
    52
  0
VERTEX
  5
10A
  8
0
 62
     9
 10
0.0
 20
0.0
 30
0.0
 70
   128
 71
    41
 72
    49
 73
    51
  0
VERTEX
  5
10B
  8
0
 62
     9
 10
0.0
 20
0.0
 30
0.0
 70
   128
 71
    41
 72
    42
 73
    48
  0
VERTEX
  5
10C
  8
0
 62
     9
 10
0.0
 20
0.0
 30
0.0
 70
   128
 71
    46
 72
    38
 73
    45
  0
VERTEX
  5
10D
  8
0
 62
     9
 10
0.0
 20
0.0
 30
0.0
 70
   128
 71
    37
 72
    44
 73
    45
  0
VERTEX
  5
10E
  8
0
 62
     9
 10
0.0
 20
0.0
 30
0.0
 70
   128
 71
    36
 72
    43
 73
    44
  0
VERTEX
  5
10F
  8
0
 62
     9
 10
0.0
 20
0.0
 30
0.0
 70
   128
 71
    35
 72
    41
 73
    43
  0
VERTEX
  5
110
  8
0
 62
     9
 10
0.0
 20
0.0
 30
0.0
 70
   128
 71
    35
 72
    65
 73
    40
  0
VERTEX
  5
111
  8
0
 62
     9
 10
0.0
 20
0.0
 30
0.0
 70
   128
 71
    39
 72
    66
 73
    32
  0
VERTEX
  5
112
  8
0
 62
     9
 10
0.0
 20
0.0
 30
0.0
 70
   128
 71
    31
 72
    37
 73
    38
  0
VERTEX
  5
113
  8
0
 62
     9
 10
0.0
 20
0.0
 30
0.0
 70
   128
 71
    30
 72
    36
 73
    37
  0
VERTEX
  5
114
  8
0
 62
     9
 10
0.0
 20
0.0
 30
0.0
 70
   128
 71
    28
 72
    35
 73
    36
  0
VERTEX
  5
115
  8
0
 62
     9
 10
0.0
 20
0.0
 30
0.0
 70
   128
 71
    29
 72
    65
 73
    35
  0
VERTEX
  5
116
  8
0
 62
     9
 10
0.0
 20
0.0
 30
0.0
 70
   128
 71
    32
 72
    66
 73
    33
  0
VERTEX
  5
117
  8
0
 62
     9
 10
0.0
 20
0.0
 30
0.0
 70
   128
 71
    23
 72
    31
 73
    32
  0
VERTEX
  5
118
  8
0
 62
     9
 10
0.0
 20
0.0
 30
0.0
 70
   128
 71
    22
 72
    30
 73
    31
  0
VERTEX
  5
119
  8
0
 62
     9
 10
0.0
 20
0.0
 30
0.0
 70
   128
 71
    20
 72
    28
 73
    30
  0
VERTEX
  5
11A
  8
0
 62
     9
 10
0.0
 20
0.0
 30
0.0
 70
   128
 71
    27
 72
    28
 73
    20
  0
VERTEX
  5
11B
  8
0
 62
     9
 10
0.0
 20
0.0
 30
0.0
 70
   128
 71
    24
 72
    34
 73
    25
  0
VERTEX
  5
11C
  8
0
 62
     9
 10
0.0
 20
0.0
 30
0.0
 70
   128
 71
    16
 72
    23
 73
    24
  0
VERTEX
  5
11D
  8
0
 62
     9
 10
0.0
 20
0.0
 30
0.0
 70
   128
 71
    15
 72
    22
 73
    23
  0
VERTEX
  5
11E
  8
0
 62
     9
 10
0.0
 20
0.0
 30
0.0
 70
   128
 71
    12
 72
    20
 73
    22
  0
VERTEX
  5
11F
  8
0
 62
     9
 10
0.0
 20
0.0
 30
0.0
 70
   128
 71
    19
 72
    20
 73
    12
  0
VERTEX
  5
120
  8
0
 62
     9
 10
0.0
 20
0.0
 30
0.0
 70
   128
 71
    17
 72
    26
 73
    18
  0
VERTEX
  5
121
  8
0
 62
     9
 10
0.0
 20
0.0
 30
0.0
 70
   128
 71
     7
 72
    16
 73
    17
  0
VERTEX
  5
122
  8
0
 62
     9
 10
0.0
 20
0.0
 30
0.0
 70
   128
 71
     5
 72
    15
 73
    16
  0
VERTEX
  5
123
  8
0
 62
     9
 10
0.0
 20
0.0
 30
0.0
 70
   128
 71
    11
 72
    12
 73
    15
  0
VERTEX
  5
124
  8
0
 62
     9
 10
0.0
 20
0.0
 30
0.0
 70
   128
 71
    11
 72
     1
 73
    13
  0
VERTEX
  5
125
  8
0
 62
     9
 10
0.0
 20
0.0
 30
0.0
 70
   128
 71
    10
 72
    64
 73
     8
  0
VERTEX
  5
126
  8
0
 62
     9
 10
0.0
 20
0.0
 30
0.0
 70
   128
 71
     6
 72
     7
 73
     9
  0
VERTEX
  5
127
  8
0
 62
     9
 10
0.0
 20
0.0
 30
0.0
 70
   128
 71
     4
 72
     5
 73
     7
  0
VERTEX
  5
128
  8
0
 62
     9
 10
0.0
 20
0.0
 30
0.0
 70
   128
 71
     3
 72
    11
 73
     5
  0
VERTEX
  5
129
  8
0
 62
     9
 10
0.0
 20
0.0
 30
0.0
 70
   128
 71
     1
 72
    11
 73
     3
  0
SEQEND
  5
12A
  8
0
 62
     9
  0
ENDBLK
  5
12D
  8
0
  0
BLOCK
  8
0
  2
E3_NODE_3_
 70
     0
 10
0.0
 20
0.0
 30
0.0
  3
E3_NODE_3_
  1

  0
POLYLINE
  5
12F
  8
0
 62
     9
 66
     1
 10
0.0
 20
0.0
 30
0.0
 70
    64
 71
    22
 72
    22
  0
VERTEX
  5
130
  8
0
 10
-7.412000179290771
 20
-13.47700023651123
 30
23.97699928283691
 70
   192
  0
VERTEX
  5
131
  8
0
 10
-12.68299961090088
 20
-2.532000064849854
 30
23.97699928283691
 70
   192
  0
VERTEX
  5
132
  8
0
 10
-10.6870002746582
 20
-4.478000164031982
 30
181.9770050048828
 70
   192
  0
VERTEX
  5
133
  8
0
 10
-13.02700042724609
 20
-3.127000093460083
 30
181.9770050048828
 70
   192
  0
VERTEX
  5
134
  8
0
 10
-24.52700042724609
 20
0.1720000058412552
 30
23.97699928283691
 70
   192
  0
VERTEX
  5
135
  8
0
 10
-18.98100090026855
 20
0.3100000023841858
 30
181.9770050048828
 70
   192
  0
VERTEX
  5
136
  8
0
 10
-24.38299942016602
 20
-0.6430000066757202
 30
181.9770050048828
 70
   192
  0
VERTEX
  5
137
  8
0
 10
-34.02500152587891
 20
-7.402999877929688
 30
23.97699928283691
 70
   192
  0
VERTEX
  5
138
  8
0
 10
-33.70999908447266
 20
-7.666999816894531
 30
181.9770050048828
 70
   192
  0
VERTEX
  5
139
  8
0
 10
-28.41200065612793
 20
-1.353000044822693
 30
181.9770050048828
 70
   192
  0
VERTEX
  5
13A
  8
0
 10
-34.02500152587891
 20
-19.55200004577637
 30
23.97699928283691
 70
   192
  0
VERTEX
  5
13B
  8
0
 10
-34.56700134277344
 20
-18.26600074768066
 30
181.9770050048828
 70
   192
  0
VERTEX
  5
13C
  8
0
 10
-34.56700134277344
 20
-8.689000129699707
 30
181.9770050048828
 70
   192
  0
VERTEX
  5
13D
  8
0
 10
-33.70999908447266
 20
-19.28700065612793
 30
181.9770050048828
 70
   192
  0
VERTEX
  5
13E
  8
0
 10
-24.52700042724609
 20
-27.12599945068359
 30
23.97699928283691
 70
   192
  0
VERTEX
  5
13F
  8
0
 10
-28.41200065612793
 20
-25.60199928283691
 30
181.9770050048828
 70
   192
  0
VERTEX
  5
140
  8
0
 10
-24.38299942016602
 20
-26.3120002746582
 30
181.9770050048828
 70
   192
  0
VERTEX
  5
141
  8
0
 10
-12.68299961090088
 20
-24.42300033569336
 30
23.97699928283691
 70
   192
  0
VERTEX
  5
142
  8
0
 10
-13.02700042724609
 20
-23.82699966430664
 30
181.9770050048828
 70
   192
  0
VERTEX
  5
143
  8
0
 10
-18.98100090026855
 20
-27.26499938964844
 30
181.9770050048828
 70
   192
  0
VERTEX
  5
144
  8
0
 10
-7.412000179290771
 20
-13.47700023651123
 30
181.9770050048828
 70
   192
  0
VERTEX
  5
145
  8
0
 10
-10.6870002746582
 20
-22.47599983215332
 30
181.9770050048828
 70
   192
  0
VERTEX
  5
146
  8
0
 62
     9
 10
0.0
 20
0.0
 30
0.0
 70
   128
 71
     3
 72
     2
 73
     1
  0
VERTEX
  5
147
  8
0
 62
     9
 10
0.0
 20
0.0
 30
0.0
 70
   128
 71
     3
 72
     4
 73
     2
  0
VERTEX
  5
148
  8
0
 62
     9
 10
0.0
 20
0.0
 30
0.0
 70
   128
 71
     6
 72
     5
 73
     2
  0
VERTEX
  5
149
  8
0
 62
     9
 10
0.0
 20
0.0
 30
0.0
 70
   128
 71
     6
 72
     7
 73
     5
  0
VERTEX
  5
14A
  8
0
 62
     9
 10
0.0
 20
0.0
 30
0.0
 70
   128
 71
    10
 72
     9
 73
     8
  0
VERTEX
  5
14B
  8
0
 62
     9
 10
0.0
 20
0.0
 30
0.0
 70
   128
 71
     8
 72
     5
 73
    10
  0
VERTEX
  5
14C
  8
0
 62
     9
 10
0.0
 20
0.0
 30
0.0
 70
   128
 71
    13
 72
    12
 73
    11
  0
VERTEX
  5
14D
  8
0
 62
     9
 10
0.0
 20
0.0
 30
0.0
 70
   128
 71
    11
 72
     8
 73
    13
  0
VERTEX
  5
14E
  8
0
 62
     9
 10
0.0
 20
0.0
 30
0.0
 70
   128
 71
    12
 72
    14
 73
    11
  0
VERTEX
  5
14F
  8
0
 62
     9
 10
0.0
 20
0.0
 30
0.0
 70
   128
 71
    16
 72
    15
 73
    11
  0
VERTEX
  5
150
  8
0
 62
     9
 10
0.0
 20
0.0
 30
0.0
 70
   128
 71
    16
 72
    17
 73
    15
  0
VERTEX
  5
151
  8
0
 62
     9
 10
0.0
 20
0.0
 30
0.0
 70
   128
 71
    20
 72
    19
 73
    18
  0
VERTEX
  5
152
  8
0
 62
     9
 10
0.0
 20
0.0
 30
0.0
 70
   128
 71
    18
 72
    15
 73
    20
  0
VERTEX
  5
153
  8
0
 62
     9
 10
0.0
 20
0.0
 30
0.0
 70
   128
 71
    22
 72
    21
 73
     1
  0
VERTEX
  5
154
  8
0
 62
     9
 10
0.0
 20
0.0
 30
0.0
 70
   128
 71
     1
 72
    18
 73
    22
  0
VERTEX
  5
155
  8
0
 62
     9
 10
0.0
 20
0.0
 30
0.0
 70
   128
 71
    18
 72
    19
 73
    22
  0
VERTEX
  5
156
  8
0
 62
     9
 10
0.0
 20
0.0
 30
0.0
 70
   128
 71
    15
 72
    17
 73
    20
  0
VERTEX
  5
157
  8
0
 62
     9
 10
0.0
 20
0.0
 30
0.0
 70
   128
 71
    11
 72
    14
 73
    16
  0
VERTEX
  5
158
  8
0
 62
     9
 10
0.0
 20
0.0
 30
0.0
 70
   128
 71
     8
 72
     9
 73
    13
  0
VERTEX
  5
159
  8
0
 62
     9
 10
0.0
 20
0.0
 30
0.0
 70
   128
 71
     5
 72
     7
 73
    10
  0
VERTEX
  5
15A
  8
0
 62
     9
 10
0.0
 20
0.0
 30
0.0
 70
   128
 71
     2
 72
     4
 73
     6
  0
VERTEX
  5
15B
  8
0
 62
     9
 10
0.0
 20
0.0
 30
0.0
 70
   128
 71
     1
 72
    21
 73
     3
  0
SEQEND
  5
15C
  8
0
 62
     9
  0
ENDBLK
  5
15F
  8
0
  0
BLOCK
  8
0
  2
E3_NODE_4_
 70
     0
 10
0.0
 20
0.0
 30
0.0
  3
E3_NODE_4_
  1

  0
POLYLINE
  5
161
  8
0
 62
     9
 66
     1
 10
0.0
 20
0.0
 30
0.0
 70
    64
 71
    19
 72
    19
  0
VERTEX
  5
162
  8
0
 10
213.3880004882812
 20
-13.47700023651123
 30
225.927001953125
 70
   192
  0
VERTEX
  5
163
  8
0
 10
207.6880035400391
 20
-23.35000038146973
 30
225.927001953125
 70
   192
  0
VERTEX
  5
164
  8
0
 10
210.7209930419922
 20
-20.80500030517578
 30
209.927001953125
 70
   192
  0
VERTEX
  5
165
  8
0
 10
207.3450012207031
 20
-22.7549991607666
 30
209.927001953125
 70
   192
  0
VERTEX
  5
166
  8
0
 10
196.2879943847656
 20
-23.35000038146973
 30
209.927001953125
 70
   192
  0
VERTEX
  5
167
  8
0
 10
203.9680023193359
 20
-24.70400047302246
 30
209.927001953125
 70
   192
  0
VERTEX
  5
168
  8
0
 10
201.9880065917969
 20
-24.87700080871582
 30
225.927001953125
 70
   192
  0
VERTEX
  5
169
  8
0
 10
196.2879943847656
 20
-23.35000038146973
 30
225.927001953125
 70
   192
  0
VERTEX
  5
16A
  8
0
 10
190.5879974365234
 20
-13.47700023651123
 30
225.927001953125
 70
   192
  0
VERTEX
  5
16B
  8
0
 10
191.2760009765625
 20
-17.37599945068359
 30
209.927001953125
 70
   192
  0
VERTEX
  5
16C
  8
0
 10
191.2760009765625
 20
-13.47700023651123
 30
209.927001953125
 70
   192
  0
VERTEX
  5
16D
  8
0
 10
196.2879943847656
 20
-3.605000019073486
 30
225.927001953125
 70
   192
  0
VERTEX
  5
16E
  8
0
 10
196.2879943847656
 20
-3.605000019073486
 30
209.927001953125
 70
   192
  0
VERTEX
  5
16F
  8
0
 10
191.2760009765625
 20
-9.57800006866455
 30
209.927001953125
 70
   192
  0
VERTEX
  5
170
  8
0
 10
207.6880035400391
 20
-3.605000019073486
 30
225.927001953125
 70
   192
  0
VERTEX
  5
171
  8
0
 10
203.9680023193359
 20
-2.250999927520752
 30
209.927001953125
 70
   192
  0
VERTEX
  5
172
  8
0
 10
207.3450012207031
 20
-4.199999809265137
 30
209.927001953125
 70
   192
  0
VERTEX
  5
173
  8
0
 10
213.3880004882812
 20
-13.47700023651123
 30
209.927001953125
 70
   192
  0
VERTEX
  5
174
  8
0
 10
210.7209930419922
 20
-6.150000095367432
 30
209.927001953125
 70
   192
  0
VERTEX
  5
175
  8
0
 62
     9
 10
0.0
 20
0.0
 30
0.0
 70
   128
 71
     3
 72
     2
 73
     1
  0
VERTEX
  5
176
  8
0
 62
     9
 10
0.0
 20
0.0
 30
0.0
 70
   128
 71
     3
 72
     4
 73
     2
  0
VERTEX
  5
177
  8
0
 62
     9
 10
0.0
 20
0.0
 30
0.0
 70
   128
 71
     7
 72
     6
 73
     5
  0
VERTEX
  5
178
  8
0
 62
     9
 10
0.0
 20
0.0
 30
0.0
 70
   128
 71
     6
 72
     7
 73
     2
  0
VERTEX
  5
179
  8
0
 62
     9
 10
0.0
 20
0.0
 30
0.0
 70
   128
 71
     2
 72
     4
 73
     6
  0
VERTEX
  5
17A
  8
0
 62
     9
 10
0.0
 20
0.0
 30
0.0
 70
   128
 71
    10
 72
     9
 73
     8
  0
VERTEX
  5
17B
  8
0
 62
     9
 10
0.0
 20
0.0
 30
0.0
 70
   128
 71
    10
 72
    11
 73
     9
  0
VERTEX
  5
17C
  8
0
 62
     9
 10
0.0
 20
0.0
 30
0.0
 70
   128
 71
    14
 72
    13
 73
    12
  0
VERTEX
  5
17D
  8
0
 62
     9
 10
0.0
 20
0.0
 30
0.0
 70
   128
 71
    12
 72
     9
 73
    14
  0
VERTEX
  5
17E
  8
0
 62
     9
 10
0.0
 20
0.0
 30
0.0
 70
   128
 71
    16
 72
    15
 73
    12
  0
VERTEX
  5
17F
  8
0
 62
     9
 10
0.0
 20
0.0
 30
0.0
 70
   128
 71
    16
 72
    17
 73
    15
  0
VERTEX
  5
180
  8
0
 62
     9
 10
0.0
 20
0.0
 30
0.0
 70
   128
 71
    19
 72
    18
 73
     1
  0
VERTEX
  5
181
  8
0
 62
     9
 10
0.0
 20
0.0
 30
0.0
 70
   128
 71
     1
 72
    15
 73
    19
  0
VERTEX
  5
182
  8
0
 62
     9
 10
0.0
 20
0.0
 30
0.0
 70
   128
 71
    15
 72
    17
 73
    19
  0
VERTEX
  5
183
  8
0
 62
     9
 10
0.0
 20
0.0
 30
0.0
 70
   128
 71
    12
 72
    13
 73
    16
  0
VERTEX
  5
184
  8
0
 62
     9
 10
0.0
 20
0.0
 30
0.0
 70
   128
 71
     9
 72
    11
 73
    14
  0
VERTEX
  5
185
  8
0
 62
     9
 10
0.0
 20
0.0
 30
0.0
 70
   128
 71
     8
 72
     5
 73
    10
  0
VERTEX
  5
186
  8
0
 62
     9
 10
0.0
 20
0.0
 30
0.0
 70
   128
 71
     5
 72
     8
 73
     7
  0
VERTEX
  5
187
  8
0
 62
     9
 10
0.0
 20
0.0
 30
0.0
 70
   128
 71
     1
 72
    18
 73
     3
  0
SEQEND
  5
188
  8
0
 62
     9
  0
ENDBLK
  5
18B
  8
0
  0
BLOCK
  8
0
  2
E3_NODE_5_
 70
     0
 10
0.0
 20
0.0
 30
0.0
  3
E3_NODE_5_
  1

  0
POLYLINE
  5
18D
  8
0
 62
     9
 66
     1
 10
0.0
 20
0.0
 30
0.0
 70
    64
 71
    21
 72
    21
  0
VERTEX
  5
18E
  8
0
 10
213.3880004882812
 20
-13.47700023651123
 30
209.927001953125
 70
   192
  0
VERTEX
  5
18F
  8
0
 10
210.7209930419922
 20
-20.80500030517578
 30
209.927001953125
 70
   192
  0
VERTEX
  5
190
  8
0
 10
209.9550018310547
 20
-20.16200065612793
 30
208.927001953125
 70
   192
  0
VERTEX
  5
191
  8
0
 10
203.7940063476562
 20
-23.7189998626709
 30
208.927001953125
 70
   192
  0
VERTEX
  5
192
  8
0
 10
207.3450012207031
 20
-22.7549991607666
 30
209.927001953125
 70
   192
  0
VERTEX
  5
193
  8
0
 10
196.2879943847656
 20
-23.35000038146973
 30
209.927001953125
 70
   192
  0
VERTEX
  5
194
  8
0
 10
196.7879943847656
 20
-22.48399925231934
 30
208.927001953125
 70
   192
  0
VERTEX
  5
195
  8
0
 10
191.2760009765625
 20
-17.37599945068359
 30
209.927001953125
 70
   192
  0
VERTEX
  5
196
  8
0
 10
192.2160034179688
 20
-17.03400039672852
 30
208.927001953125
 70
   192
  0
VERTEX
  5
197
  8
0
 10
192.2160034179688
 20
-9.920000076293945
 30
208.927001953125
 70
   192
  0
VERTEX
  5
198
  8
0
 10
191.2760009765625
 20
-13.47700023651123
 30
209.927001953125
 70
   192
  0
VERTEX
  5
199
  8
0
 10
196.2879943847656
 20
-3.605000019073486
 30
209.927001953125
 70
   192
  0
VERTEX
  5
19A
  8
0
 10
196.7879943847656
 20
-4.471000194549561
 30
208.927001953125
 70
   192
  0
VERTEX
  5
19B
  8
0
 10
203.9680023193359
 20
-2.250999927520752
 30
209.927001953125
 70
   192
  0
VERTEX
  5
19C
  8
0
 10
203.7940063476562
 20
-3.234999895095825
 30
208.927001953125
 70
   192
  0
VERTEX
  5
19D
  8
0
 10
209.9550018310547
 20
-6.791999816894531
 30
208.927001953125
 70
   192
  0
VERTEX
  5
19E
  8
0
 10
207.3450012207031
 20
-4.199999809265137
 30
209.927001953125
 70
   192
  0
VERTEX
  5
19F
  8
0
 10
212.3880004882812
 20
-13.47700023651123
 30
208.927001953125
 70
   192
  0
VERTEX
  5
1A0
  8
0
 10
210.7209930419922
 20
-6.150000095367432
 30
209.927001953125
 70
   192
  0
VERTEX
  5
1A1
  8
0
 10
191.2760009765625
 20
-9.57800006866455
 30
209.927001953125
 70
   192
  0
VERTEX
  5
1A2
  8
0
 10
203.9680023193359
 20
-24.70400047302246
 30
209.927001953125
 70
   192
  0
VERTEX
  5
1A3
  8
0
 62
     9
 10
0.0
 20
0.0
 30
0.0
 70
   128
 71
     3
 72
     2
 73
     1
  0
VERTEX
  5
1A4
  8
0
 62
     9
 10
0.0
 20
0.0
 30
0.0
 70
   128
 71
     5
 72
     3
 73
     4
  0
VERTEX
  5
1A5
  8
0
 62
     9
 10
0.0
 20
0.0
 30
0.0
 70
   128
 71
     5
 72
     2
 73
     3
  0
VERTEX
  5
1A6
  8
0
 62
     9
 10
0.0
 20
0.0
 30
0.0
 70
   128
 71
     4
 72
     7
 73
     6
  0
VERTEX
  5
1A7
  8
0
 62
     9
 10
0.0
 20
0.0
 30
0.0
 70
   128
 71
     9
 72
     8
 73
     6
  0
VERTEX
  5
1A8
  8
0
 62
     9
 10
0.0
 20
0.0
 30
0.0
 70
   128
 71
    11
 72
     9
 73
    10
  0
VERTEX
  5
1A9
  8
0
 62
     9
 10
0.0
 20
0.0
 30
0.0
 70
   128
 71
    11
 72
     8
 73
     9
  0
VERTEX
  5
1AA
  8
0
 62
     9
 10
0.0
 20
0.0
 30
0.0
 70
   128
 71
    10
 72
    13
 73
    12
  0
VERTEX
  5
1AB
  8
0
 62
     9
 10
0.0
 20
0.0
 30
0.0
 70
   128
 71
    15
 72
    14
 73
    12
  0
VERTEX
  5
1AC
  8
0
 62
     9
 10
0.0
 20
0.0
 30
0.0
 70
   128
 71
    17
 72
    15
 73
    16
  0
VERTEX
  5
1AD
  8
0
 62
     9
 10
0.0
 20
0.0
 30
0.0
 70
   128
 71
    17
 72
    14
 73
    15
  0
VERTEX
  5
1AE
  8
0
 62
     9
 10
0.0
 20
0.0
 30
0.0
 70
   128
 71
    16
 72
    18
 73
     1
  0
VERTEX
  5
1AF
  8
0
 62
     9
 10
0.0
 20
0.0
 30
0.0
 70
   128
 71
     1
 72
    19
 73
    16
  0
VERTEX
  5
1B0
  8
0
 62
     9
 10
0.0
 20
0.0
 30
0.0
 70
   128
 71
    16
 72
    19
 73
    17
  0
VERTEX
  5
1B1
  8
0
 62
     9
 10
0.0
 20
0.0
 30
0.0
 70
   128
 71
    12
 72
    13
 73
    15
  0
VERTEX
  5
1B2
  8
0
 62
     9
 10
0.0
 20
0.0
 30
0.0
 70
   128
 71
    12
 72
    20
 73
    10
  0
VERTEX
  5
1B3
  8
0
 62
     9
 10
0.0
 20
0.0
 30
0.0
 70
   128
 71
    10
 72
    20
 73
    11
  0
VERTEX
  5
1B4
  8
0
 62
     9
 10
0.0
 20
0.0
 30
0.0
 70
   128
 71
     6
 72
     7
 73
     9
  0
VERTEX
  5
1B5
  8
0
 62
     9
 10
0.0
 20
0.0
 30
0.0
 70
   128
 71
     6
 72
    21
 73
     4
  0
VERTEX
  5
1B6
  8
0
 62
     9
 10
0.0
 20
0.0
 30
0.0
 70
   128
 71
     4
 72
    21
 73
     5
  0
VERTEX
  5
1B7
  8
0
 62
     9
 10
0.0
 20
0.0
 30
0.0
 70
   128
 71
     1
 72
    18
 73
     3
  0
SEQEND
  5
1B8
  8
0
 62
     9
  0
ENDBLK
  5
1BB
  8
0
  0
BLOCK
  8
0
  2
E3_NODE_6_
 70
     0
 10
0.0
 20
0.0
 30
0.0
  3
E3_NODE_6_
  1

  0
POLYLINE
  5
1BD
  8
0
 62
     9
 66
     1
 10
0.0
 20
0.0
 30
0.0
 70
    64
 71
     9
 72
     7
  0
VERTEX
  5
1BE
  8
0
 10
203.7940063476562
 20
-3.234999895095825
 30
208.927001953125
 70
   192
  0
VERTEX
  5
1BF
  8
0
 10
196.7879943847656
 20
-22.48399925231934
 30
208.927001953125
 70
   192
  0
VERTEX
  5
1C0
  8
0
 10
192.2160034179688
 20
-17.03400039672852
 30
208.927001953125
 70
   192
  0
VERTEX
  5
1C1
  8
0
 10
212.3880004882812
 20
-13.47700023651123
 30
208.927001953125
 70
   192
  0
VERTEX
  5
1C2
  8
0
 10
209.9550018310547
 20
-20.16200065612793
 30
208.927001953125
 70
   192
  0
VERTEX
  5
1C3
  8
0
 10
203.7940063476562
 20
-23.7189998626709
 30
208.927001953125
 70
   192
  0
VERTEX
  5
1C4
  8
0
 10
209.9550018310547
 20
-6.791999816894531
 30
208.927001953125
 70
   192
  0
VERTEX
  5
1C5
  8
0
 10
192.2160034179688
 20
-9.920000076293945
 30
208.927001953125
 70
   192
  0
VERTEX
  5
1C6
  8
0
 10
196.7879943847656
 20
-4.471000194549561
 30
208.927001953125
 70
   192
  0
VERTEX
  5
1C7
  8
0
 62
     9
 10
0.0
 20
0.0
 30
0.0
 70
   128
 71
     3
 72
     2
 73
     1
  0
VERTEX
  5
1C8
  8
0
 62
     9
 10
0.0
 20
0.0
 30
0.0
 70
   128
 71
     6
 72
     5
 73
     4
  0
VERTEX
  5
1C9
  8
0
 62
     9
 10
0.0
 20
0.0
 30
0.0
 70
   128
 71
     7
 72
     1
 73
     2
  0
VERTEX
  5
1CA
  8
0
 62
     9
 10
0.0
 20
0.0
 30
0.0
 70
   128
 71
     1
 72
     8
 73
     3
  0
VERTEX
  5
1CB
  8
0
 62
     9
 10
0.0
 20
0.0
 30
0.0
 70
   128
 71
     2
 72
     4
 73
     7
  0
VERTEX
  5
1CC
  8
0
 62
     9
 10
0.0
 20
0.0
 30
0.0
 70
   128
 71
     4
 72
     2
 73
     6
  0
VERTEX
  5
1CD
  8
0
 62
     9
 10
0.0
 20
0.0
 30
0.0
 70
   128
 71
     1
 72
     9
 73
     8
  0
SEQEND
  5
1CE
  8
0
 62
     9
  0
ENDBLK
  5
1D1
  8
0
  0
BLOCK
  8
0
  2
E3_NODE_7_
 70
     0
 10
0.0
 20
0.0
 30
0.0
  3
E3_NODE_7_
  1

  0
POLYLINE
  5
1D3
  8
0
 62
     9
 66
     1
 10
0.0
 20
0.0
 30
0.0
 70
    64
 71
    21
 72
    21
  0
VERTEX
  5
1D4
  8
0
 10
-21.41200065612793
 20
37.82300186157227
 30
30.47699928283691
 70
   192
  0
VERTEX
  5
1D5
  8
0
 10
-21.41200065612793
 20
61.12300109863281
 30
30.27400016784668
 70
   192
  0
VERTEX
  5
1D6
  8
0
 10
-37.99300003051758
 20
61.12300109863281
 30
24.23900032043457
 70
   192
  0
VERTEX
  5
1D7
  8
0
 10
-47.01699829101562
 20
37.82300186157227
 30
8.991999626159668
 70
   192
  0
VERTEX
  5
1D8
  8
0
 10
-38.12400054931641
 20
37.82300186157227
 30
24.39500045776367
 70
   192
  0
VERTEX
  5
1D9
  8
0
 10
-43.75199890136719
 20
61.12300109863281
 30
17.37599945068359
 70
   192
  0
VERTEX
  5
1DA
  8
0
 10
-46.81600189208984
 20
61.12300109863281
 30
8.956999778747559
 70
   192
  0
VERTEX
  5
1DB
  8
0
 10
-43.75199890136719
 20
61.12300109863281
 30
-8.420999526977539
 70
   192
  0
VERTEX
  5
1DC
  8
0
 10
-43.92800140380859
 20
37.82300186157227
 30
-8.52299976348877
 70
   192
  0
VERTEX
  5
1DD
  8
0
 10
-30.23500061035156
 20
61.12300109863281
 30
-19.76399993896484
 70
   192
  0
VERTEX
  5
1DE
  8
0
 10
-30.30400085449219
 20
37.82300186157227
 30
-19.95499992370605
 70
   192
  0
VERTEX
  5
1DF
  8
0
 10
-21.41200065612793
 20
61.12300109863281
 30
-21.31900024414062
 70
   192
  0
VERTEX
  5
1E0
  8
0
 10
-12.51900005340576
 20
37.82300186157227
 30
-19.95499992370605
 70
   192
  0
VERTEX
  5
1E1
  8
0
 10
1.105000019073486
 20
37.82300186157227
 30
-8.52299976348877
 70
   192
  0
VERTEX
  5
1E2
  8
0
 10
-12.58899974822998
 20
61.12300109863281
 30
-19.76399993896484
 70
   192
  0
VERTEX
  5
1E3
  8
0
 10
4.192999839782715
 20
37.82300186157227
 30
8.991999626159668
 70
   192
  0
VERTEX
  5
1E4
  8
0
 10
0.9290000200271606
 20
61.12300109863281
 30
-8.420999526977539
 70
   192
  0
VERTEX
  5
1E5
  8
0
 10
-4.698999881744385
 20
37.82300186157227
 30
24.39500045776367
 70
   192
  0
VERTEX
  5
1E6
  8
0
 10
0.9290000200271606
 20
61.12300109863281
 30
17.37599945068359
 70
   192
  0
VERTEX
  5
1E7
  8
0
 10
3.993000030517578
 20
61.12300109863281
 30
8.956999778747559
 70
   192
  0
VERTEX
  5
1E8
  8
0
 10
-4.829999923706055
 20
61.12300109863281
 30
24.23900032043457
 70
   192
  0
VERTEX
  5
1E9
  8
0
 62
     9
 10
0.0
 20
0.0
 30
0.0
 70
   128
 71
     3
 72
     2
 73
     1
  0
VERTEX
  5
1EA
  8
0
 62
     9
 10
0.0
 20
0.0
 30
0.0
 70
   128
 71
     6
 72
     5
 73
     4
  0
VERTEX
  5
1EB
  8
0
 62
     9
 10
0.0
 20
0.0
 30
0.0
 70
   128
 71
     6
 72
     3
 73
     5
  0
VERTEX
  5
1EC
  8
0
 62
     9
 10
0.0
 20
0.0
 30
0.0
 70
   128
 71
     8
 72
     7
 73
     4
  0
VERTEX
  5
1ED
  8
0
 62
     9
 10
0.0
 20
0.0
 30
0.0
 70
   128
 71
    10
 72
     8
 73
     9
  0
VERTEX
  5
1EE
  8
0
 62
     9
 10
0.0
 20
0.0
 30
0.0
 70
   128
 71
    12
 72
    10
 73
    11
  0
VERTEX
  5
1EF
  8
0
 62
     9
 10
0.0
 20
0.0
 30
0.0
 70
   128
 71
    11
 72
    13
 73
    12
  0
VERTEX
  5
1F0
  8
0
 62
     9
 10
0.0
 20
0.0
 30
0.0
 70
   128
 71
    15
 72
    13
 73
    14
  0
VERTEX
  5
1F1
  8
0
 62
     9
 10
0.0
 20
0.0
 30
0.0
 70
   128
 71
    17
 72
    14
 73
    16
  0
VERTEX
  5
1F2
  8
0
 62
     9
 10
0.0
 20
0.0
 30
0.0
 70
   128
 71
    19
 72
    16
 73
    18
  0
VERTEX
  5
1F3
  8
0
 62
     9
 10
0.0
 20
0.0
 30
0.0
 70
   128
 71
    19
 72
    20
 73
    16
  0
VERTEX
  5
1F4
  8
0
 62
     9
 10
0.0
 20
0.0
 30
0.0
 70
   128
 71
    21
 72
    18
 73
     1
  0
VERTEX
  5
1F5
  8
0
 62
     9
 10
0.0
 20
0.0
 30
0.0
 70
   128
 71
     1
 72
     2
 73
    21
  0
VERTEX
  5
1F6
  8
0
 62
     9
 10
0.0
 20
0.0
 30
0.0
 70
   128
 71
    18
 72
    21
 73
    19
  0
VERTEX
  5
1F7
  8
0
 62
     9
 10
0.0
 20
0.0
 30
0.0
 70
   128
 71
    16
 72
    20
 73
    17
  0
VERTEX
  5
1F8
  8
0
 62
     9
 10
0.0
 20
0.0
 30
0.0
 70
   128
 71
    14
 72
    17
 73
    15
  0
VERTEX
  5
1F9
  8
0
 62
     9
 10
0.0
 20
0.0
 30
0.0
 70
   128
 71
    13
 72
    15
 73
    12
  0
VERTEX
  5
1FA
  8
0
 62
     9
 10
0.0
 20
0.0
 30
0.0
 70
   128
 71
     9
 72
    11
 73
    10
  0
VERTEX
  5
1FB
  8
0
 62
     9
 10
0.0
 20
0.0
 30
0.0
 70
   128
 71
     4
 72
     9
 73
     8
  0
VERTEX
  5
1FC
  8
0
 62
     9
 10
0.0
 20
0.0
 30
0.0
 70
   128
 71
     4
 72
     7
 73
     6
  0
VERTEX
  5
1FD
  8
0
 62
     9
 10
0.0
 20
0.0
 30
0.0
 70
   128
 71
     1
 72
     5
 73
     3
  0
SEQEND
  5
1FE
  8
0
 62
     9
  0
ENDBLK
  5
201
  8
0
  0
BLOCK
  8
0
  2
E3_NODE_8_
 70
     0
 10
0.0
 20
0.0
 30
0.0
  3
E3_NODE_8_
  1

  0
POLYLINE
  5
203
  8
0
 62
     9
 66
     1
 10
0.0
 20
0.0
 30
0.0
 70
    64
 71
    27
 72
    27
  0
VERTEX
  5
204
  8
0
 10
-43.75199890136719
 20
61.12300109863281
 30
17.37599945068359
 70
   192
  0
VERTEX
  5
205
  8
0
 10
-37.99300003051758
 20
61.12300109863281
 30
24.23900032043457
 70
   192
  0
VERTEX
  5
206
  8
0
 10
-38.56000137329102
 20
61.12300109863281
 30
21.62599945068359
 70
   192
  0
VERTEX
  5
207
  8
0
 10
-21.41200065612793
 20
61.12300109863281
 30
-21.31900024414062
 70
   192
  0
VERTEX
  5
208
  8
0
 10
-30.23500061035156
 20
61.12300109863281
 30
-19.76399993896484
 70
   192
  0
VERTEX
  5
209
  8
0
 10
-27.68899917602539
 20
61.12300109863281
 30
-18.94799995422363
 70
   192
  0
VERTEX
  5
20A
  8
0
 10
-33.53799819946289
 20
61.12300109863281
 30
25.47999954223633
 70
   192
  0
VERTEX
  5
20B
  8
0
 10
-21.41200065612793
 20
61.12300109863281
 30
30.27400016784668
 70
   192
  0
VERTEX
  5
20C
  8
0
 10
-21.41200065612793
 20
61.12300109863281
 30
28.72900009155273
 70
   192
  0
VERTEX
  5
20D
  8
0
 10
0.9290000200271606
 20
61.12300109863281
 30
17.37599945068359
 70
   192
  0
VERTEX
  5
20E
  8
0
 10
3.993000030517578
 20
61.12300109863281
 30
8.956999778747559
 70
   192
  0
VERTEX
  5
20F
  8
0
 10
2.013999938964844
 20
61.12300109863281
 30
10.75399971008301
 70
   192
  0
VERTEX
  5
210
  8
0
 10
-21.41200065612793
 20
61.12300109863281
 30
-19.77499961853027
 70
   192
  0
VERTEX
  5
211
  8
0
 10
-9.28600025177002
 20
61.12300109863281
 30
-16.52499961853027
 70
   192
  0
VERTEX
  5
212
  8
0
 10
-12.58899974822998
 20
61.12300109863281
 30
-19.76399993896484
 70
   192
  0
VERTEX
  5
213
  8
0
 10
-33.53799819946289
 20
61.12300109863281
 30
-16.52499961853027
 70
   192
  0
VERTEX
  5
214
  8
0
 10
-42.41400146484375
 20
61.12300109863281
 30
16.60300064086914
 70
   192
  0
VERTEX
  5
215
  8
0
 10
-45.66400146484375
 20
61.12300109863281
 30
4.47700023651123
 70
   192
  0
VERTEX
  5
216
  8
0
 10
-46.81600189208984
 20
61.12300109863281
 30
8.956999778747559
 70
   192
  0
VERTEX
  5
217
  8
0
 10
-0.4090000092983246
 20
61.12300109863281
 30
16.60300064086914
 70
   192
  0
VERTEX
  5
218
  8
0
 10
-9.28600025177002
 20
61.12300109863281
 30
25.47999954223633
 70
   192
  0
VERTEX
  5
219
  8
0
 10
-4.829999923706055
 20
61.12300109863281
 30
24.23900032043457
 70
   192
  0
VERTEX
  5
21A
  8
0
 10
2.839999914169312
 20
61.12300109863281
 30
4.47700023651123
 70
   192
  0
VERTEX
  5
21B
  8
0
 10
-43.75199890136719
 20
61.12300109863281
 30
-8.420999526977539
 70
   192
  0
VERTEX
  5
21C
  8
0
 10
-42.41400146484375
 20
61.12300109863281
 30
-7.64900016784668
 70
   192
  0
VERTEX
  5
21D
  8
0
 10
0.9290000200271606
 20
61.12300109863281
 30
-8.420999526977539
 70
   192
  0
VERTEX
  5
21E
  8
0
 10
-0.4090000092983246
 20
61.12300109863281
 30
-7.64900016784668
 70
   192
  0
VERTEX
  5
21F
  8
0
 62
     9
 10
0.0
 20
0.0
 30
0.0
 70
   128
 71
     3
 72
     2
 73
     1
  0
VERTEX
  5
220
  8
0
 62
     9
 10
0.0
 20
0.0
 30
0.0
 70
   128
 71
     6
 72
     5
 73
     4
  0
VERTEX
  5
221
  8
0
 62
     9
 10
0.0
 20
0.0
 30
0.0
 70
   128
 71
     3
 72
     7
 73
     2
  0
VERTEX
  5
222
  8
0
 62
     9
 10
0.0
 20
0.0
 30
0.0
 70
   128
 71
     7
 72
     9
 73
     8
  0
VERTEX
  5
223
  8
0
 62
     9
 10
0.0
 20
0.0
 30
0.0
 70
   128
 71
    12
 72
    11
 73
    10
  0
VERTEX
  5
224
  8
0
 62
     9
 10
0.0
 20
0.0
 30
0.0
 70
   128
 71
    15
 72
    14
 73
    13
  0
VERTEX
  5
225
  8
0
 62
     9
 10
0.0
 20
0.0
 30
0.0
 70
   128
 71
     6
 72
    16
 73
     5
  0
VERTEX
  5
226
  8
0
 62
     9
 10
0.0
 20
0.0
 30
0.0
 70
   128
 71
    19
 72
    18
 73
    17
  0
VERTEX
  5
227
  8
0
 62
     9
 10
0.0
 20
0.0
 30
0.0
 70
   128
 71
     8
 72
     2
 73
     7
  0
VERTEX
  5
228
  8
0
 62
     9
 10
0.0
 20
0.0
 30
0.0
 70
   128
 71
    22
 72
    21
 73
    20
  0
VERTEX
  5
229
  8
0
 62
     9
 10
0.0
 20
0.0
 30
0.0
 70
   128
 71
    12
 72
    23
 73
    11
  0
VERTEX
  5
22A
  8
0
 62
     9
 10
0.0
 20
0.0
 30
0.0
 70
   128
 71
     4
 72
    13
 73
     6
  0
VERTEX
  5
22B
  8
0
 62
     9
 10
0.0
 20
0.0
 30
0.0
 70
   128
 71
    16
 72
    25
 73
    24
  0
VERTEX
  5
22C
  8
0
 62
     9
 10
0.0
 20
0.0
 30
0.0
 70
   128
 71
     1
 72
    17
 73
     3
  0
VERTEX
  5
22D
  8
0
 62
     9
 10
0.0
 20
0.0
 30
0.0
 70
   128
 71
    21
 72
    22
 73
     8
  0
VERTEX
  5
22E
  8
0
 62
     9
 10
0.0
 20
0.0
 30
0.0
 70
   128
 71
    10
 72
    20
 73
    12
  0
VERTEX
  5
22F
  8
0
 62
     9
 10
0.0
 20
0.0
 30
0.0
 70
   128
 71
    23
 72
    27
 73
    26
  0
VERTEX
  5
230
  8
0
 62
     9
 10
0.0
 20
0.0
 30
0.0
 70
   128
 71
    24
 72
     5
 73
    16
  0
VERTEX
  5
231
  8
0
 62
     9
 10
0.0
 20
0.0
 30
0.0
 70
   128
 71
    18
 72
    19
 73
    24
  0
VERTEX
  5
232
  8
0
 62
     9
 10
0.0
 20
0.0
 30
0.0
 70
   128
 71
     8
 72
     9
 73
    21
  0
VERTEX
  5
233
  8
0
 62
     9
 10
0.0
 20
0.0
 30
0.0
 70
   128
 71
    26
 72
    11
 73
    23
  0
VERTEX
  5
234
  8
0
 62
     9
 10
0.0
 20
0.0
 30
0.0
 70
   128
 71
    14
 72
    15
 73
    26
  0
VERTEX
  5
235
  8
0
 62
     9
 10
0.0
 20
0.0
 30
0.0
 70
   128
 71
    24
 72
    25
 73
    18
  0
VERTEX
  5
236
  8
0
 62
     9
 10
0.0
 20
0.0
 30
0.0
 70
   128
 71
    20
 72
    10
 73
    22
  0
VERTEX
  5
237
  8
0
 62
     9
 10
0.0
 20
0.0
 30
0.0
 70
   128
 71
    13
 72
     4
 73
    15
  0
VERTEX
  5
238
  8
0
 62
     9
 10
0.0
 20
0.0
 30
0.0
 70
   128
 71
    26
 72
    27
 73
    14
  0
VERTEX
  5
239
  8
0
 62
     9
 10
0.0
 20
0.0
 30
0.0
 70
   128
 71
    17
 72
     1
 73
    19
  0
SEQEND
  5
23A
  8
0
 62
     9
  0
ENDBLK
  5
23D
  8
0
  0
BLOCK
  8
0
  2
E3_NODE_9_
 70
     0
 10
0.0
 20
0.0
 30
0.0
  3
E3_NODE_9_
  1

  0
POLYLINE
  5
23F
  8
0
 62
     9
 66
     1
 10
0.0
 20
0.0
 30
0.0
 70
    64
 71
    40
 72
    63
  0
VERTEX
  5
240
  8
0
 10
-21.41200065612793
 20
77.6520004272461
 30
15.16800022125244
 70
   192
  0
VERTEX
  5
241
  8
0
 10
-26.75699996948242
 20
77.6520004272461
 30
13.73499965667725
 70
   192
  0
VERTEX
  5
242
  8
0
 10
-31.07500076293945
 20
70.91000366210938
 30
21.21500015258789
 70
   192
  0
VERTEX
  5
243
  8
0
 10
-30.67000007629395
 20
77.6520004272461
 30
9.822999954223633
 70
   192
  0
VERTEX
  5
244
  8
0
 10
-38.15000152587891
 20
70.91000366210938
 30
14.14099979400635
 70
   192
  0
VERTEX
  5
245
  8
0
 10
-32.10200119018555
 20
77.6520004272461
 30
4.47700023651123
 70
   192
  0
VERTEX
  5
246
  8
0
 10
-40.73899841308594
 20
70.91000366210938
 30
4.47700023651123
 70
   192
  0
VERTEX
  5
247
  8
0
 10
-30.67000007629395
 20
77.6520004272461
 30
-0.8679999709129333
 70
   192
  0
VERTEX
  5
248
  8
0
 10
-38.15000152587891
 20
70.91000366210938
 30
-5.185999870300293
 70
   192
  0
VERTEX
  5
249
  8
0
 10
-26.75699996948242
 20
77.6520004272461
 30
-4.781000137329102
 70
   192
  0
VERTEX
  5
24A
  8
0
 10
-31.07500076293945
 20
70.91000366210938
 30
-12.26000022888184
 70
   192
  0
VERTEX
  5
24B
  8
0
 10
-21.41200065612793
 20
77.6520004272461
 30
-6.212999820709229
 70
   192
  0
VERTEX
  5
24C
  8
0
 10
-21.41200065612793
 20
70.91000366210938
 30
-14.85000038146973
 70
   192
  0
VERTEX
  5
24D
  8
0
 10
-16.0669994354248
 20
77.6520004272461
 30
-4.781000137329102
 70
   192
  0
VERTEX
  5
24E
  8
0
 10
-11.7480001449585
 20
70.91000366210938
 30
-12.26000022888184
 70
   192
  0
VERTEX
  5
24F
  8
0
 10
-12.1540002822876
 20
77.6520004272461
 30
-0.8679999709129333
 70
   192
  0
VERTEX
  5
250
  8
0
 10
-4.673999786376953
 20
70.91000366210938
 30
-5.185999870300293
 70
   192
  0
VERTEX
  5
251
  8
0
 10
-10.7209997177124
 20
77.6520004272461
 30
4.47700023651123
 70
   192
  0
VERTEX
  5
252
  8
0
 10
-2.084000110626221
 20
70.91000366210938
 30
4.47700023651123
 70
   192
  0
VERTEX
  5
253
  8
0
 10
-12.1540002822876
 20
77.6520004272461
 30
9.822999954223633
 70
   192
  0
VERTEX
  5
254
  8
0
 10
-4.673999786376953
 20
70.91000366210938
 30
14.14099979400635
 70
   192
  0
VERTEX
  5
255
  8
0
 10
-16.0669994354248
 20
77.6520004272461
 30
13.73499965667725
 70
   192
  0
VERTEX
  5
256
  8
0
 10
-11.7480001449585
 20
70.91000366210938
 30
21.21500015258789
 70
   192
  0
VERTEX
  5
257
  8
0
 10
-21.41200065612793
 20
70.91000366210938
 30
23.80500030517578
 70
   192
  0
VERTEX
  5
258
  8
0
 10
-21.41200065612793
 20
61.12300109863281
 30
28.72900009155273
 70
   192
  0
VERTEX
  5
259
  8
0
 10
-38.56000137329102
 20
61.12300109863281
 30
21.62599945068359
 70
   192
  0
VERTEX
  5
25A
  8
0
 10
-42.41400146484375
 20
61.12300109863281
 30
16.60300064086914
 70
   192
  0
VERTEX
  5
25B
  8
0
 10
-42.41400146484375
 20
61.12300109863281
 30
-7.64900016784668
 70
   192
  0
VERTEX
  5
25C
  8
0
 10
-45.66400146484375
 20
61.12300109863281
 30
4.47700023651123
 70
   192
  0
VERTEX
  5
25D
  8
0
 10
-21.41200065612793
 20
61.12300109863281
 30
-19.77499961853027
 70
   192
  0
VERTEX
  5
25E
  8
0
 10
-27.68899917602539
 20
61.12300109863281
 30
-18.94799995422363
 70
   192
  0
VERTEX
  5
25F
  8
0
 10
-9.28600025177002
 20
61.12300109863281
 30
-16.52499961853027
 70
   192
  0
VERTEX
  5
260
  8
0
 10
-0.4090000092983246
 20
61.12300109863281
 30
-7.64900016784668
 70
   192
  0
VERTEX
  5
261
  8
0
 10
2.013999938964844
 20
61.12300109863281
 30
10.75399971008301
 70
   192
  0
VERTEX
  5
262
  8
0
 10
-0.4090000092983246
 20
61.12300109863281
 30
16.60300064086914
 70
   192
  0
VERTEX
  5
263
  8
0
 10
-9.28600025177002
 20
61.12300109863281
 30
25.47999954223633
 70
   192
  0
VERTEX
  5
264
  8
0
 10
2.839999914169312
 20
61.12300109863281
 30
4.47700023651123
 70
   192
  0
VERTEX
  5
265
  8
0
 10
-33.53799819946289
 20
61.12300109863281
 30
-16.52499961853027
 70
   192
  0
VERTEX
  5
266
  8
0
 10
-33.53799819946289
 20
61.12300109863281
 30
25.47999954223633
 70
   192
  0
VERTEX
  5
267
  8
0
 10
-21.41200065612793
 20
80.0530014038086
 30
4.47700023651123
 70
   192
  0
VERTEX
  5
268
  8
0
 62
     9
 10
0.0
 20
0.0
 30
0.0
 70
   128
 71
     3
 72
     2
 73
     1
  0
VERTEX
  5
269
  8
0
 62
     9
 10
0.0
 20
0.0
 30
0.0
 70
   128
 71
     5
 72
     4
 73
     2
  0
VERTEX
  5
26A
  8
0
 62
     9
 10
0.0
 20
0.0
 30
0.0
 70
   128
 71
     7
 72
     6
 73
     4
  0
VERTEX
  5
26B
  8
0
 62
     9
 10
0.0
 20
0.0
 30
0.0
 70
   128
 71
     9
 72
     8
 73
     6
  0
VERTEX
  5
26C
  8
0
 62
     9
 10
0.0
 20
0.0
 30
0.0
 70
   128
 71
    11
 72
    10
 73
     8
  0
VERTEX
  5
26D
  8
0
 62
     9
 10
0.0
 20
0.0
 30
0.0
 70
   128
 71
    13
 72
    12
 73
    10
  0
VERTEX
  5
26E
  8
0
 62
     9
 10
0.0
 20
0.0
 30
0.0
 70
   128
 71
    15
 72
    14
 73
    12
  0
VERTEX
  5
26F
  8
0
 62
     9
 10
0.0
 20
0.0
 30
0.0
 70
   128
 71
    17
 72
    16
 73
    14
  0
VERTEX
  5
270
  8
0
 62
     9
 10
0.0
 20
0.0
 30
0.0
 70
   128
 71
    19
 72
    18
 73
    16
  0
VERTEX
  5
271
  8
0
 62
     9
 10
0.0
 20
0.0
 30
0.0
 70
   128
 71
    21
 72
    20
 73
    18
  0
VERTEX
  5
272
  8
0
 62
     9
 10
0.0
 20
0.0
 30
0.0
 70
   128
 71
    23
 72
    22
 73
    20
  0
VERTEX
  5
273
  8
0
 62
     9
 10
0.0
 20
0.0
 30
0.0
 70
   128
 71
    24
 72
     1
 73
    22
  0
VERTEX
  5
274
  8
0
 62
     9
 10
0.0
 20
0.0
 30
0.0
 70
   128
 71
     3
 72
    24
 73
    25
  0
VERTEX
  5
275
  8
0
 62
     9
 10
0.0
 20
0.0
 30
0.0
 70
   128
 71
    26
 72
     5
 73
     3
  0
VERTEX
  5
276
  8
0
 62
     9
 10
0.0
 20
0.0
 30
0.0
 70
   128
 71
    26
 72
    27
 73
     5
  0
VERTEX
  5
277
  8
0
 62
     9
 10
0.0
 20
0.0
 30
0.0
 70
   128
 71
     7
 72
     5
 73
    27
  0
VERTEX
  5
278
  8
0
 62
     9
 10
0.0
 20
0.0
 30
0.0
 70
   128
 71
     7
 72
    29
 73
    28
  0
VERTEX
  5
279
  8
0
 62
     9
 10
0.0
 20
0.0
 30
0.0
 70
   128
 71
    11
 72
     9
 73
    28
  0
VERTEX
  5
27A
  8
0
 62
     9
 10
0.0
 20
0.0
 30
0.0
 70
   128
 71
    31
 72
    30
 73
    13
  0
VERTEX
  5
27B
  8
0
 62
     9
 10
0.0
 20
0.0
 30
0.0
 70
   128
 71
    13
 72
    11
 73
    31
  0
VERTEX
  5
27C
  8
0
 62
     9
 10
0.0
 20
0.0
 30
0.0
 70
   128
 71
    13
 72
    30
 73
    32
  0
VERTEX
  5
27D
  8
0
 62
     9
 10
0.0
 20
0.0
 30
0.0
 70
   128
 71
    15
 72
    32
 73
    33
  0
VERTEX
  5
27E
  8
0
 62
     9
 10
0.0
 20
0.0
 30
0.0
 70
   128
 71
    19
 72
    17
 73
    33
  0
VERTEX
  5
27F
  8
0
 62
     9
 10
0.0
 20
0.0
 30
0.0
 70
   128
 71
    34
 72
    21
 73
    19
  0
VERTEX
  5
280
  8
0
 62
     9
 10
0.0
 20
0.0
 30
0.0
 70
   128
 71
    34
 72
    35
 73
    21
  0
VERTEX
  5
281
  8
0
 62
     9
 10
0.0
 20
0.0
 30
0.0
 70
   128
 71
    21
 72
    35
 73
    36
  0
VERTEX
  5
282
  8
0
 62
     9
 10
0.0
 20
0.0
 30
0.0
 70
   128
 71
    23
 72
    36
 73
    25
  0
VERTEX
  5
283
  8
0
 62
     9
 10
0.0
 20
0.0
 30
0.0
 70
   128
 71
    25
 72
    24
 73
    23
  0
VERTEX
  5
284
  8
0
 62
     9
 10
0.0
 20
0.0
 30
0.0
 70
   128
 71
    36
 72
    23
 73
    21
  0
VERTEX
  5
285
  8
0
 62
     9
 10
0.0
 20
0.0
 30
0.0
 70
   128
 71
    19
 72
    37
 73
    34
  0
VERTEX
  5
286
  8
0
 62
     9
 10
0.0
 20
0.0
 30
0.0
 70
   128
 71
    33
 72
    37
 73
    19
  0
VERTEX
  5
287
  8
0
 62
     9
 10
0.0
 20
0.0
 30
0.0
 70
   128
 71
    33
 72
    17
 73
    15
  0
VERTEX
  5
288
  8
0
 62
     9
 10
0.0
 20
0.0
 30
0.0
 70
   128
 71
    32
 72
    15
 73
    13
  0
VERTEX
  5
289
  8
0
 62
     9
 10
0.0
 20
0.0
 30
0.0
 70
   128
 71
    11
 72
    38
 73
    31
  0
VERTEX
  5
28A
  8
0
 62
     9
 10
0.0
 20
0.0
 30
0.0
 70
   128
 71
    28
 72
    38
 73
    11
  0
VERTEX
  5
28B
  8
0
 62
     9
 10
0.0
 20
0.0
 30
0.0
 70
   128
 71
    28
 72
     9
 73
     7
  0
VERTEX
  5
28C
  8
0
 62
     9
 10
0.0
 20
0.0
 30
0.0
 70
   128
 71
    27
 72
    29
 73
     7
  0
VERTEX
  5
28D
  8
0
 62
     9
 10
0.0
 20
0.0
 30
0.0
 70
   128
 71
     3
 72
    39
 73
    26
  0
VERTEX
  5
28E
  8
0
 62
     9
 10
0.0
 20
0.0
 30
0.0
 70
   128
 71
    25
 72
    39
 73
     3
  0
VERTEX
  5
28F
  8
0
 62
     9
 10
0.0
 20
0.0
 30
0.0
 70
   128
 71
    22
 72
    23
 73
    24
  0
VERTEX
  5
290
  8
0
 62
     9
 10
0.0
 20
0.0
 30
0.0
 70
   128
 71
    20
 72
    21
 73
    23
  0
VERTEX
  5
291
  8
0
 62
     9
 10
0.0
 20
0.0
 30
0.0
 70
   128
 71
    18
 72
    19
 73
    21
  0
VERTEX
  5
292
  8
0
 62
     9
 10
0.0
 20
0.0
 30
0.0
 70
   128
 71
    16
 72
    17
 73
    19
  0
VERTEX
  5
293
  8
0
 62
     9
 10
0.0
 20
0.0
 30
0.0
 70
   128
 71
    14
 72
    15
 73
    17
  0
VERTEX
  5
294
  8
0
 62
     9
 10
0.0
 20
0.0
 30
0.0
 70
   128
 71
    12
 72
    13
 73
    15
  0
VERTEX
  5
295
  8
0
 62
     9
 10
0.0
 20
0.0
 30
0.0
 70
   128
 71
    10
 72
    11
 73
    13
  0
VERTEX
  5
296
  8
0
 62
     9
 10
0.0
 20
0.0
 30
0.0
 70
   128
 71
     8
 72
     9
 73
    11
  0
VERTEX
  5
297
  8
0
 62
     9
 10
0.0
 20
0.0
 30
0.0
 70
   128
 71
     6
 72
     7
 73
     9
  0
VERTEX
  5
298
  8
0
 62
     9
 10
0.0
 20
0.0
 30
0.0
 70
   128
 71
     4
 72
     5
 73
     7
  0
VERTEX
  5
299
  8
0
 62
     9
 10
0.0
 20
0.0
 30
0.0
 70
   128
 71
     2
 72
     3
 73
     5
  0
VERTEX
  5
29A
  8
0
 62
     9
 10
0.0
 20
0.0
 30
0.0
 70
   128
 71
     1
 72
    24
 73
     3
  0
VERTEX
  5
29B
  8
0
 62
     9
 10
0.0
 20
0.0
 30
0.0
 70
   128
 71
    40
 72
    22
 73
     1
  0
VERTEX
  5
29C
  8
0
 62
     9
 10
0.0
 20
0.0
 30
0.0
 70
   128
 71
    40
 72
    20
 73
    22
  0
VERTEX
  5
29D
  8
0
 62
     9
 10
0.0
 20
0.0
 30
0.0
 70
   128
 71
    40
 72
    18
 73
    20
  0
VERTEX
  5
29E
  8
0
 62
     9
 10
0.0
 20
0.0
 30
0.0
 70
   128
 71
    40
 72
    16
 73
    18
  0
VERTEX
  5
29F
  8
0
 62
     9
 10
0.0
 20
0.0
 30
0.0
 70
   128
 71
    40
 72
    14
 73
    16
  0
VERTEX
  5
2A0
  8
0
 62
     9
 10
0.0
 20
0.0
 30
0.0
 70
   128
 71
    40
 72
    12
 73
    14
  0
VERTEX
  5
2A1
  8
0
 62
     9
 10
0.0
 20
0.0
 30
0.0
 70
   128
 71
    40
 72
    10
 73
    12
  0
VERTEX
  5
2A2
  8
0
 62
     9
 10
0.0
 20
0.0
 30
0.0
 70
   128
 71
    40
 72
     8
 73
    10
  0
VERTEX
  5
2A3
  8
0
 62
     9
 10
0.0
 20
0.0
 30
0.0
 70
   128
 71
    40
 72
     6
 73
     8
  0
VERTEX
  5
2A4
  8
0
 62
     9
 10
0.0
 20
0.0
 30
0.0
 70
   128
 71
    40
 72
     4
 73
     6
  0
VERTEX
  5
2A5
  8
0
 62
     9
 10
0.0
 20
0.0
 30
0.0
 70
   128
 71
    40
 72
     2
 73
     4
  0
VERTEX
  5
2A6
  8
0
 62
     9
 10
0.0
 20
0.0
 30
0.0
 70
   128
 71
    40
 72
     1
 73
     2
  0
SEQEND
  5
2A7
  8
0
 62
     9
  0
ENDBLK
  5
2AA
  8
0
  0
BLOCK
  8
0
  2
E3_NODE_10_
 70
     0
 10
0.0
 20
0.0
 30
0.0
  3
E3_NODE_10_
  1

  0
POLYLINE
  5
2AC
  8
0
 62
     9
 66
     1
 10
0.0
 20
0.0
 30
0.0
 70
    64
 71
     7
 72
     5
  0
VERTEX
  5
2AD
  8
0
 10
104.7880020141602
 20
-16.5930004119873
 30
243.6260070800781
 70
   192
  0
VERTEX
  5
2AE
  8
0
 10
104.7880020141602
 20
-4.749000072479248
 30
219.0319976806641
 70
   192
  0
VERTEX
  5
2AF
  8
0
 10
104.7880020141602
 20
-16.5930004119873
 30
216.3280029296875
 70
   192
  0
VERTEX
  5
2B0
  8
0
 10
104.7880020141602
 20
-4.749000072479248
 30
240.9230041503906
 70
   192
  0
VERTEX
  5
2B1
  8
0
 10
104.7880020141602
 20
0.5230000019073486
 30
229.9770050048828
 70
   192
  0
VERTEX
  5
2B2
  8
0
 10
104.7880020141602
 20
-26.09099960327148
 30
223.9029998779297
 70
   192
  0
VERTEX
  5
2B3
  8
0
 10
104.7880020141602
 20
-26.09099960327148
 30
236.052001953125
 70
   192
  0
VERTEX
  5
2B4
  8
0
 62
     9
 10
0.0
 20
0.0
 30
0.0
 70
   128
 71
     3
 72
     2
 73
     1
  0
VERTEX
  5
2B5
  8
0
 62
     9
 10
0.0
 20
0.0
 30
0.0
 70
   128
 71
     5
 72
     4
 73
     1
  0
VERTEX
  5
2B6
  8
0
 62
     9
 10
0.0
 20
0.0
 30
0.0
 70
   128
 71
     1
 72
     6
 73
     3
  0
VERTEX
  5
2B7
  8
0
 62
     9
 10
0.0
 20
0.0
 30
0.0
 70
   128
 71
     1
 72
     7
 73
     6
  0
VERTEX
  5
2B8
  8
0
 62
     9
 10
0.0
 20
0.0
 30
0.0
 70
   128
 71
     1
 72
     2
 73
     5
  0
SEQEND
  5
2B9
  8
0
 62
     9
  0
ENDBLK
  5
2BC
  8
0
  0
BLOCK
  8
0
  2
E3_NODE_11_
 70
     0
 10
0.0
 20
0.0
 30
0.0
  3
E3_NODE_11_
  1

  0
POLYLINE
  5
2BE
  8
0
 62
     9
 66
     1
 10
0.0
 20
0.0
 30
0.0
 70
    64
 71
    14
 72
    14
  0
VERTEX
  5
2BF
  8
0
 10
224.7879943847656
 20
-4.749000072479248
 30
219.0319976806641
 70
   192
  0
VERTEX
  5
2C0
  8
0
 10
104.7880020141602
 20
-4.749000072479248
 30
219.0319976806641
 70
   192
  0
VERTEX
  5
2C1
  8
0
 10
104.7880020141602
 20
0.5230000019073486
 30
229.9770050048828
 70
   192
  0
VERTEX
  5
2C2
  8
0
 10
104.7880020141602
 20
-16.5930004119873
 30
216.3280029296875
 70
   192
  0
VERTEX
  5
2C3
  8
0
 10
224.7879943847656
 20
-26.09099960327148
 30
223.9029998779297
 70
   192
  0
VERTEX
  5
2C4
  8
0
 10
104.7880020141602
 20
-26.09099960327148
 30
223.9029998779297
 70
   192
  0
VERTEX
  5
2C5
  8
0
 10
224.7879943847656
 20
-26.09099960327148
 30
236.052001953125
 70
   192
  0
VERTEX
  5
2C6
  8
0
 10
104.7880020141602
 20
-26.09099960327148
 30
236.052001953125
 70
   192
  0
VERTEX
  5
2C7
  8
0
 10
224.7879943847656
 20
-16.5930004119873
 30
243.6260070800781
 70
   192
  0
VERTEX
  5
2C8
  8
0
 10
104.7880020141602
 20
-16.5930004119873
 30
243.6260070800781
 70
   192
  0
VERTEX
  5
2C9
  8
0
 10
224.7879943847656
 20
-4.749000072479248
 30
240.9230041503906
 70
   192
  0
VERTEX
  5
2CA
  8
0
 10
104.7880020141602
 20
-4.749000072479248
 30
240.9230041503906
 70
   192
  0
VERTEX
  5
2CB
  8
0
 10
224.7879943847656
 20
0.5230000019073486
 30
229.9770050048828
 70
   192
  0
VERTEX
  5
2CC
  8
0
 10
224.7879943847656
 20
-16.5930004119873
 30
216.3280029296875
 70
   192
  0
VERTEX
  5
2CD
  8
0
 62
     9
 10
0.0
 20
0.0
 30
0.0
 70
   128
 71
     3
 72
     2
 73
     1
  0
VERTEX
  5
2CE
  8
0
 62
     9
 10
0.0
 20
0.0
 30
0.0
 70
   128
 71
     1
 72
     2
 73
     4
  0
VERTEX
  5
2CF
  8
0
 62
     9
 10
0.0
 20
0.0
 30
0.0
 70
   128
 71
     4
 72
     6
 73
     5
  0
VERTEX
  5
2D0
  8
0
 62
     9
 10
0.0
 20
0.0
 30
0.0
 70
   128
 71
     6
 72
     8
 73
     7
  0
VERTEX
  5
2D1
  8
0
 62
     9
 10
0.0
 20
0.0
 30
0.0
 70
   128
 71
     8
 72
    10
 73
     9
  0
VERTEX
  5
2D2
  8
0
 62
     9
 10
0.0
 20
0.0
 30
0.0
 70
   128
 71
    10
 72
    12
 73
    11
  0
VERTEX
  5
2D3
  8
0
 62
     9
 10
0.0
 20
0.0
 30
0.0
 70
   128
 71
    12
 72
     3
 73
    13
  0
VERTEX
  5
2D4
  8
0
 62
     9
 10
0.0
 20
0.0
 30
0.0
 70
   128
 71
    13
 72
    11
 73
    12
  0
VERTEX
  5
2D5
  8
0
 62
     9
 10
0.0
 20
0.0
 30
0.0
 70
   128
 71
    11
 72
     9
 73
    10
  0
VERTEX
  5
2D6
  8
0
 62
     9
 10
0.0
 20
0.0
 30
0.0
 70
   128
 71
     9
 72
     7
 73
     8
  0
VERTEX
  5
2D7
  8
0
 62
     9
 10
0.0
 20
0.0
 30
0.0
 70
   128
 71
     7
 72
     5
 73
     6
  0
VERTEX
  5
2D8
  8
0
 62
     9
 10
0.0
 20
0.0
 30
0.0
 70
   128
 71
     5
 72
    14
 73
     4
  0
VERTEX
  5
2D9
  8
0
 62
     9
 10
0.0
 20
0.0
 30
0.0
 70
   128
 71
     4
 72
    14
 73
     1
  0
VERTEX
  5
2DA
  8
0
 62
     9
 10
0.0
 20
0.0
 30
0.0
 70
   128
 71
     1
 72
    13
 73
     3
  0
SEQEND
  5
2DB
  8
0
 62
     9
  0
ENDBLK
  5
2DE
  8
0
  0
BLOCK
  8
0
  2
E3_NODE_12_
 70
     0
 10
0.0
 20
0.0
 30
0.0
  3
E3_NODE_12_
  1

  0
POLYLINE
  5
2E0
  8
0
 62
     9
 66
     1
 10
0.0
 20
0.0
 30
0.0
 70
    64
 71
     7
 72
     5
  0
VERTEX
  5
2E1
  8
0
 10
224.7879943847656
 20
-16.5930004119873
 30
243.6260070800781
 70
   192
  0
VERTEX
  5
2E2
  8
0
 10
224.7879943847656
 20
-26.09099960327148
 30
223.9029998779297
 70
   192
  0
VERTEX
  5
2E3
  8
0
 10
224.7879943847656
 20
-16.5930004119873
 30
216.3280029296875
 70
   192
  0
VERTEX
  5
2E4
  8
0
 10
224.7879943847656
 20
-26.09099960327148
 30
236.052001953125
 70
   192
  0
VERTEX
  5
2E5
  8
0
 10
224.7879943847656
 20
-4.749000072479248
 30
219.0319976806641
 70
   192
  0
VERTEX
  5
2E6
  8
0
 10
224.7879943847656
 20
0.5230000019073486
 30
229.9770050048828
 70
   192
  0
VERTEX
  5
2E7
  8
0
 10
224.7879943847656
 20
-4.749000072479248
 30
240.9230041503906
 70
   192
  0
VERTEX
  5
2E8
  8
0
 62
     9
 10
0.0
 20
0.0
 30
0.0
 70
   128
 71
     3
 72
     2
 73
     1
  0
VERTEX
  5
2E9
  8
0
 62
     9
 10
0.0
 20
0.0
 30
0.0
 70
   128
 71
     2
 72
     4
 73
     1
  0
VERTEX
  5
2EA
  8
0
 62
     9
 10
0.0
 20
0.0
 30
0.0
 70
   128
 71
     6
 72
     5
 73
     1
  0
VERTEX
  5
2EB
  8
0
 62
     9
 10
0.0
 20
0.0
 30
0.0
 70
   128
 71
     1
 72
     7
 73
     6
  0
VERTEX
  5
2EC
  8
0
 62
     9
 10
0.0
 20
0.0
 30
0.0
 70
   128
 71
     1
 72
     5
 73
     3
  0
SEQEND
  5
2ED
  8
0
 62
     9
  0
ENDBLK
  5
2F0
  8
0
  0
BLOCK
  8
0
  2
E3_NODE_13_
 70
     0
 10
0.0
 20
0.0
 30
0.0
  3
E3_NODE_13_
  1

  0
POLYLINE
  5
2F2
  8
0
 62
     9
 66
     1
 10
0.0
 20
0.0
 30
0.0
 70
    64
 71
    16
 72
    16
  0
VERTEX
  5
2F3
  8
0
 10
-21.41200065612793
 20
-25.07699966430664
 30
-82.2229995727539
 70
   192
  0
VERTEX
  5
2F4
  8
0
 10
-8.684000015258789
 20
-19.80500030517578
 30
-82.2229995727539
 70
   192
  0
VERTEX
  5
2F5
  8
0
 10
-8.684000015258789
 20
-19.80500030517578
 30
-7.223000049591064
 70
   192
  0
VERTEX
  5
2F6
  8
0
 10
-21.41200065612793
 20
-25.07699966430664
 30
-7.223000049591064
 70
   192
  0
VERTEX
  5
2F7
  8
0
 10
-3.411999940872192
 20
-7.077000141143799
 30
-82.2229995727539
 70
   192
  0
VERTEX
  5
2F8
  8
0
 10
-3.411999940872192
 20
-7.077000141143799
 30
-7.223000049591064
 70
   192
  0
VERTEX
  5
2F9
  8
0
 10
-8.684000015258789
 20
5.651000022888184
 30
-82.2229995727539
 70
   192
  0
VERTEX
  5
2FA
  8
0
 10
-8.684000015258789
 20
5.651000022888184
 30
-7.223000049591064
 70
   192
  0
VERTEX
  5
2FB
  8
0
 10
-21.41200065612793
 20
10.92300033569336
 30
-82.2229995727539
 70
   192
  0
VERTEX
  5
2FC
  8
0
 10
-21.41200065612793
 20
10.92300033569336
 30
-7.223000049591064
 70
   192
  0
VERTEX
  5
2FD
  8
0
 10
-34.13999938964844
 20
5.651000022888184
 30
-82.2229995727539
 70
   192
  0
VERTEX
  5
2FE
  8
0
 10
-34.13999938964844
 20
5.651000022888184
 30
-7.223000049591064
 70
   192
  0
VERTEX
  5
2FF
  8
0
 10
-39.4119987487793
 20
-7.077000141143799
 30
-82.2229995727539
 70
   192
  0
VERTEX
  5
300
  8
0
 10
-39.4119987487793
 20
-7.077000141143799
 30
-7.223000049591064
 70
   192
  0
VERTEX
  5
301
  8
0
 10
-34.13999938964844
 20
-19.80500030517578
 30
-82.2229995727539
 70
   192
  0
VERTEX
  5
302
  8
0
 10
-34.13999938964844
 20
-19.80500030517578
 30
-7.223000049591064
 70
   192
  0
VERTEX
  5
303
  8
0
 62
     9
 10
0.0
 20
0.0
 30
0.0
 70
   128
 71
     3
 72
     2
 73
     1
  0
VERTEX
  5
304
  8
0
 62
     9
 10
0.0
 20
0.0
 30
0.0
 70
   128
 71
     4
 72
     3
 73
     1
  0
VERTEX
  5
305
  8
0
 62
     9
 10
0.0
 20
0.0
 30
0.0
 70
   128
 71
     6
 72
     5
 73
     2
  0
VERTEX
  5
306
  8
0
 62
     9
 10
0.0
 20
0.0
 30
0.0
 70
   128
 71
     3
 72
     6
 73
     2
  0
VERTEX
  5
307
  8
0
 62
     9
 10
0.0
 20
0.0
 30
0.0
 70
   128
 71
     8
 72
     7
 73
     5
  0
VERTEX
  5
308
  8
0
 62
     9
 10
0.0
 20
0.0
 30
0.0
 70
   128
 71
     6
 72
     8
 73
     5
  0
VERTEX
  5
309
  8
0
 62
     9
 10
0.0
 20
0.0
 30
0.0
 70
   128
 71
    10
 72
     9
 73
     7
  0
VERTEX
  5
30A
  8
0
 62
     9
 10
0.0
 20
0.0
 30
0.0
 70
   128
 71
     8
 72
    10
 73
     7
  0
VERTEX
  5
30B
  8
0
 62
     9
 10
0.0
 20
0.0
 30
0.0
 70
   128
 71
    12
 72
    11
 73
     9
  0
VERTEX
  5
30C
  8
0
 62
     9
 10
0.0
 20
0.0
 30
0.0
 70
   128
 71
    10
 72
    12
 73
     9
  0
VERTEX
  5
30D
  8
0
 62
     9
 10
0.0
 20
0.0
 30
0.0
 70
   128
 71
    14
 72
    13
 73
    11
  0
VERTEX
  5
30E
  8
0
 62
     9
 10
0.0
 20
0.0
 30
0.0
 70
   128
 71
    12
 72
    14
 73
    11
  0
VERTEX
  5
30F
  8
0
 62
     9
 10
0.0
 20
0.0
 30
0.0
 70
   128
 71
    16
 72
    15
 73
    13
  0
VERTEX
  5
310
  8
0
 62
     9
 10
0.0
 20
0.0
 30
0.0
 70
   128
 71
    14
 72
    16
 73
    13
  0
VERTEX
  5
311
  8
0
 62
     9
 10
0.0
 20
0.0
 30
0.0
 70
   128
 71
     4
 72
     1
 73
    15
  0
VERTEX
  5
312
  8
0
 62
     9
 10
0.0
 20
0.0
 30
0.0
 70
   128
 71
    16
 72
     4
 73
    15
  0
SEQEND
  5
313
  8
0
 62
     9
  0
ENDBLK
  5
316
  8
0
  0
BLOCK
  8
0
  2
E3_NODE_14_
 70
     0
 10
0.0
 20
0.0
 30
0.0
  3
E3_NODE_14_
  1

  0
POLYLINE
  5
318
  8
0
 62
     9
 66
     1
 10
0.0
 20
0.0
 30
0.0
 70
    64
 71
    36
 72
    48
  0
VERTEX
  5
319
  8
0
 10
1.610000014305115
 20
-31.07799911499023
 30
16.55999946594238
 70
   192
  0
VERTEX
  5
31A
  8
0
 10
-9.800000190734863
 20
-33.65399932861328
 30
10.57100009918213
 70
   192
  0
VERTEX
  5
31B
  8
0
 10
-8.29800033569336
 20
-33.65399932861328
 30
4.47700023651123
 70
   192
  0
VERTEX
  5
31C
  8
0
 10
0.9330000281333923
 20
-31.07799911499023
 30
17.32500076293945
 70
   192
  0
VERTEX
  5
31D
  8
0
 10
-6.642000198364258
 20
-31.07799911499023
 30
25.875
 70
   192
  0
VERTEX
  5
31E
  8
0
 10
-13.96300029754639
 20
-33.65399932861328
 30
15.26900005340576
 70
   192
  0
VERTEX
  5
31F
  8
0
 10
-12.78600025177002
 20
-31.07799911499023
 30
28.20499992370605
 70
   192
  0
VERTEX
  5
320
  8
0
 10
-19.83099937438965
 20
-33.65399932861328
 30
17.4950008392334
 70
   192
  0
VERTEX
  5
321
  8
0
 10
-30.29400062561035
 20
-31.07799911499023
 30
28.82900047302246
 70
   192
  0
VERTEX
  5
322
  8
0
 10
-26.0620002746582
 20
-33.65399932861328
 30
16.73800086975098
 70
   192
  0
VERTEX
  5
323
  8
0
 10
-18.27799987792969
 20
-31.07799911499023
 30
30.28800010681152
 70
   192
  0
VERTEX
  5
324
  8
0
 10
-30.63100051879883
 20
-31.07799911499023
 30
28.78800010681152
 70
   192
  0
VERTEX
  5
325
  8
0
 10
-40.87300109863281
 20
-31.07799911499023
 30
21.7189998626709
 70
   192
  0
VERTEX
  5
326
  8
0
 10
-31.22699928283691
 20
-33.65399932861328
 30
13.17300033569336
 70
   192
  0
VERTEX
  5
327
  8
0
 10
-43.27799987792969
 20
-31.07799911499023
 30
17.13599967956543
 70
   192
  0
VERTEX
  5
328
  8
0
 10
-46.65599822998047
 20
-31.07799911499023
 30
10.69999980926514
 70
   192
  0
VERTEX
  5
329
  8
0
 10
-34.14400100708008
 20
-33.65399932861328
 30
7.616000175476074
 70
   192
  0
VERTEX
  5
32A
  8
0
 10
-46.65599822998047
 20
-31.07799911499023
 30
-0.0370000004768372
 70
   192
  0
VERTEX
  5
32B
  8
0
 10
-34.14400100708008
 20
-33.65399932861328
 30
1.33899998664856
 70
   192
  0
VERTEX
  5
32C
  8
0
 10
-46.65599822998047
 20
-31.07799911499023
 30
-1.745000004768372
 70
   192
  0
VERTEX
  5
32D
  8
0
 10
-40.87300109863281
 20
-31.07799911499023
 30
-12.76399993896484
 70
   192
  0
VERTEX
  5
32E
  8
0
 10
-31.22699928283691
 20
-33.65399932861328
 30
-4.217999935150146
 70
   192
  0
VERTEX
  5
32F
  8
0
 10
-37.7599983215332
 20
-31.07799911499023
 30
-14.91199970245361
 70
   192
  0
VERTEX
  5
330
  8
0
 10
-30.63100051879883
 20
-31.07799911499023
 30
-19.83300018310547
 70
   192
  0
VERTEX
  5
331
  8
0
 10
-26.0620002746582
 20
-33.65399932861328
 30
-7.783999919891357
 70
   192
  0
VERTEX
  5
332
  8
0
 10
-21.41200065612793
 20
-31.07799911499023
 30
-21.52300071716309
 70
   192
  0
VERTEX
  5
333
  8
0
 10
-19.83099937438965
 20
-33.65399932861328
 30
-8.539999961853027
 70
   192
  0
VERTEX
  5
334
  8
0
 10
-6.642000198364258
 20
-31.07799911499023
 30
-16.92000007629395
 70
   192
  0
VERTEX
  5
335
  8
0
 10
-13.96300029754639
 20
-33.65399932861328
 30
-6.315000057220459
 70
   192
  0
VERTEX
  5
336
  8
0
 10
-5.052999973297119
 20
-31.07799911499023
 30
-15.12600040435791
 70
   192
  0
VERTEX
  5
337
  8
0
 10
1.610000014305115
 20
-31.07799911499023
 30
-7.605000019073486
 70
   192
  0
VERTEX
  5
338
  8
0
 10
-9.800000190734863
 20
-33.65399932861328
 30
-1.616999983787537
 70
   192
  0
VERTEX
  5
339
  8
0
 10
3.516999959945679
 20
-31.07799911499023
 30
0.1289999932050705
 70
   192
  0
VERTEX
  5
33A
  8
0
 10
-21.41200065612793
 20
-34.51699829101562
 30
4.47700023651123
 70
   192
  0
VERTEX
  5
33B
  8
0
 10
4.587999820709229
 20
-31.07799911499023
 30
4.47700023651123
 70
   192
  0
VERTEX
  5
33C
  8
0
 10
-18.27799987792969
 20
-31.07799911499023
 30
-21.33300018310547
 70
   192
  0
VERTEX
  5
33D
  8
0
 62
     9
 10
0.0
 20
0.0
 30
0.0
 70
   128
 71
     3
 72
     2
 73
     1
  0
VERTEX
  5
33E
  8
0
 62
     9
 10
0.0
 20
0.0
 30
0.0
 70
   128
 71
     6
 72
     5
 73
     4
  0
VERTEX
  5
33F
  8
0
 62
     9
 10
0.0
 20
0.0
 30
0.0
 70
   128
 71
     4
 72
     1
 73
     2
  0
VERTEX
  5
340
  8
0
 62
     9
 10
0.0
 20
0.0
 30
0.0
 70
   128
 71
     6
 72
     8
 73
     7
  0
VERTEX
  5
341
  8
0
 62
     9
 10
0.0
 20
0.0
 30
0.0
 70
   128
 71
     7
 72
     5
 73
     6
  0
VERTEX
  5
342
  8
0
 62
     9
 10
0.0
 20
0.0
 30
0.0
 70
   128
 71
     8
 72
    10
 73
     9
  0
VERTEX
  5
343
  8
0
 62
     9
 10
0.0
 20
0.0
 30
0.0
 70
   128
 71
     9
 72
    11
 73
     8
  0
VERTEX
  5
344
  8
0
 62
     9
 10
0.0
 20
0.0
 30
0.0
 70
   128
 71
    14
 72
    13
 73
    12
  0
VERTEX
  5
345
  8
0
 62
     9
 10
0.0
 20
0.0
 30
0.0
 70
   128
 71
    17
 72
    16
 73
    15
  0
VERTEX
  5
346
  8
0
 62
     9
 10
0.0
 20
0.0
 30
0.0
 70
   128
 71
    15
 72
    13
 73
    14
  0
VERTEX
  5
347
  8
0
 62
     9
 10
0.0
 20
0.0
 30
0.0
 70
   128
 71
    17
 72
    19
 73
    18
  0
VERTEX
  5
348
  8
0
 62
     9
 10
0.0
 20
0.0
 30
0.0
 70
   128
 71
    18
 72
    16
 73
    17
  0
VERTEX
  5
349
  8
0
 62
     9
 10
0.0
 20
0.0
 30
0.0
 70
   128
 71
    22
 72
    21
 73
    20
  0
VERTEX
  5
34A
  8
0
 62
     9
 10
0.0
 20
0.0
 30
0.0
 70
   128
 71
    25
 72
    24
 73
    23
  0
VERTEX
  5
34B
  8
0
 62
     9
 10
0.0
 20
0.0
 30
0.0
 70
   128
 71
    23
 72
    21
 73
    22
  0
VERTEX
  5
34C
  8
0
 62
     9
 10
0.0
 20
0.0
 30
0.0
 70
   128
 71
    25
 72
    27
 73
    26
  0
VERTEX
  5
34D
  8
0
 62
     9
 10
0.0
 20
0.0
 30
0.0
 70
   128
 71
    26
 72
    24
 73
    25
  0
VERTEX
  5
34E
  8
0
 62
     9
 10
0.0
 20
0.0
 30
0.0
 70
   128
 71
    27
 72
    29
 73
    28
  0
VERTEX
  5
34F
  8
0
 62
     9
 10
0.0
 20
0.0
 30
0.0
 70
   128
 71
    32
 72
    31
 73
    30
  0
VERTEX
  5
350
  8
0
 62
     9
 10
0.0
 20
0.0
 30
0.0
 70
   128
 71
    30
 72
    28
 73
    29
  0
VERTEX
  5
351
  8
0
 62
     9
 10
0.0
 20
0.0
 30
0.0
 70
   128
 71
    32
 72
     3
 73
    33
  0
VERTEX
  5
352
  8
0
 62
     9
 10
0.0
 20
0.0
 30
0.0
 70
   128
 71
    33
 72
    31
 73
    32
  0
VERTEX
  5
353
  8
0
 62
     9
 10
0.0
 20
0.0
 30
0.0
 70
   128
 71
     3
 72
    32
 73
    34
  0
VERTEX
  5
354
  8
0
 62
     9
 10
0.0
 20
0.0
 30
0.0
 70
   128
 71
    32
 72
    29
 73
    34
  0
VERTEX
  5
355
  8
0
 62
     9
 10
0.0
 20
0.0
 30
0.0
 70
   128
 71
    29
 72
    27
 73
    34
  0
VERTEX
  5
356
  8
0
 62
     9
 10
0.0
 20
0.0
 30
0.0
 70
   128
 71
    27
 72
    25
 73
    34
  0
VERTEX
  5
357
  8
0
 62
     9
 10
0.0
 20
0.0
 30
0.0
 70
   128
 71
    25
 72
    22
 73
    34
  0
VERTEX
  5
358
  8
0
 62
     9
 10
0.0
 20
0.0
 30
0.0
 70
   128
 71
    22
 72
    19
 73
    34
  0
VERTEX
  5
359
  8
0
 62
     9
 10
0.0
 20
0.0
 30
0.0
 70
   128
 71
    19
 72
    17
 73
    34
  0
VERTEX
  5
35A
  8
0
 62
     9
 10
0.0
 20
0.0
 30
0.0
 70
   128
 71
    17
 72
    14
 73
    34
  0
VERTEX
  5
35B
  8
0
 62
     9
 10
0.0
 20
0.0
 30
0.0
 70
   128
 71
    14
 72
    10
 73
    34
  0
VERTEX
  5
35C
  8
0
 62
     9
 10
0.0
 20
0.0
 30
0.0
 70
   128
 71
    10
 72
     8
 73
    34
  0
VERTEX
  5
35D
  8
0
 62
     9
 10
0.0
 20
0.0
 30
0.0
 70
   128
 71
     8
 72
     6
 73
    34
  0
VERTEX
  5
35E
  8
0
 62
     9
 10
0.0
 20
0.0
 30
0.0
 70
   128
 71
     6
 72
     2
 73
    34
  0
VERTEX
  5
35F
  8
0
 62
     9
 10
0.0
 20
0.0
 30
0.0
 70
   128
 71
     2
 72
     3
 73
    34
  0
VERTEX
  5
360
  8
0
 62
     9
 10
0.0
 20
0.0
 30
0.0
 70
   128
 71
     3
 72
    35
 73
    33
  0
VERTEX
  5
361
  8
0
 62
     9
 10
0.0
 20
0.0
 30
0.0
 70
   128
 71
    30
 72
    29
 73
    32
  0
VERTEX
  5
362
  8
0
 62
     9
 10
0.0
 20
0.0
 30
0.0
 70
   128
 71
    28
 72
    36
 73
    27
  0
VERTEX
  5
363
  8
0
 62
     9
 10
0.0
 20
0.0
 30
0.0
 70
   128
 71
    27
 72
    36
 73
    26
  0
VERTEX
  5
364
  8
0
 62
     9
 10
0.0
 20
0.0
 30
0.0
 70
   128
 71
    23
 72
    22
 73
    25
  0
VERTEX
  5
365
  8
0
 62
     9
 10
0.0
 20
0.0
 30
0.0
 70
   128
 71
    20
 72
    19
 73
    22
  0
VERTEX
  5
366
  8
0
 62
     9
 10
0.0
 20
0.0
 30
0.0
 70
   128
 71
    19
 72
    20
 73
    18
  0
VERTEX
  5
367
  8
0
 62
     9
 10
0.0
 20
0.0
 30
0.0
 70
   128
 71
    15
 72
    14
 73
    17
  0
VERTEX
  5
368
  8
0
 62
     9
 10
0.0
 20
0.0
 30
0.0
 70
   128
 71
    12
 72
    10
 73
    14
  0
VERTEX
  5
369
  8
0
 62
     9
 10
0.0
 20
0.0
 30
0.0
 70
   128
 71
    10
 72
    12
 73
     9
  0
VERTEX
  5
36A
  8
0
 62
     9
 10
0.0
 20
0.0
 30
0.0
 70
   128
 71
     8
 72
    11
 73
     7
  0
VERTEX
  5
36B
  8
0
 62
     9
 10
0.0
 20
0.0
 30
0.0
 70
   128
 71
     4
 72
     2
 73
     6
  0
VERTEX
  5
36C
  8
0
 62
     9
 10
0.0
 20
0.0
 30
0.0
 70
   128
 71
     1
 72
    35
 73
     3
  0
SEQEND
  5
36D
  8
0
 62
     9
  0
ENDBLK
  5
370
  8
0
  0
BLOCK
  8
0
  2
E3_NODE_15_
 70
     0
 10
0.0
 20
0.0
 30
0.0
  3
E3_NODE_15_
  1

  0
POLYLINE
  5
372
  8
0
 62
     9
 66
     1
 10
0.0
 20
0.0
 30
0.0
 70
    64
 71
    32
 72
    32
  0
VERTEX
  5
373
  8
0
 10
-21.41200065612793
 20
37.82300186157227
 30
-21.52300071716309
 70
   192
  0
VERTEX
  5
374
  8
0
 10
-21.41200065612793
 20
-31.07799911499023
 30
-21.52300071716309
 70
   192
  0
VERTEX
  5
375
  8
0
 10
-30.63100051879883
 20
-31.07799911499023
 30
-19.83300018310547
 70
   192
  0
VERTEX
  5
376
  8
0
 10
-38.12400054931641
 20
37.82300186157227
 30
-15.4399995803833
 70
   192
  0
VERTEX
  5
377
  8
0
 10
-47.01699829101562
 20
37.82300186157227
 30
-0.0370000004768372
 70
   192
  0
VERTEX
  5
378
  8
0
 10
-40.87300109863281
 20
-31.07799911499023
 30
-12.76399993896484
 70
   192
  0
VERTEX
  5
379
  8
0
 10
-46.65599822998047
 20
-31.07799911499023
 30
-1.745000004768372
 70
   192
  0
VERTEX
  5
37A
  8
0
 10
-37.7599983215332
 20
-31.07799911499023
 30
-14.91199970245361
 70
   192
  0
VERTEX
  5
37B
  8
0
 10
-46.65599822998047
 20
-31.07799911499023
 30
-0.0370000004768372
 70
   192
  0
VERTEX
  5
37C
  8
0
 10
-46.65599822998047
 20
-31.07799911499023
 30
10.69999980926514
 70
   192
  0
VERTEX
  5
37D
  8
0
 10
-43.92800140380859
 20
37.82300186157227
 30
17.47699928283691
 70
   192
  0
VERTEX
  5
37E
  8
0
 10
-30.30400085449219
 20
37.82300186157227
 30
28.90900039672852
 70
   192
  0
VERTEX
  5
37F
  8
0
 10
-40.87300109863281
 20
-31.07799911499023
 30
21.7189998626709
 70
   192
  0
VERTEX
  5
380
  8
0
 10
-30.63100051879883
 20
-31.07799911499023
 30
28.78800010681152
 70
   192
  0
VERTEX
  5
381
  8
0
 10
-43.27799987792969
 20
-31.07799911499023
 30
17.13599967956543
 70
   192
  0
VERTEX
  5
382
  8
0
 10
-30.29400062561035
 20
-31.07799911499023
 30
28.82900047302246
 70
   192
  0
VERTEX
  5
383
  8
0
 10
-18.27799987792969
 20
-31.07799911499023
 30
30.28800010681152
 70
   192
  0
VERTEX
  5
384
  8
0
 10
-21.41200065612793
 20
37.82300186157227
 30
30.47699928283691
 70
   192
  0
VERTEX
  5
385
  8
0
 10
-12.51900005340576
 20
37.82300186157227
 30
28.90900039672852
 70
   192
  0
VERTEX
  5
386
  8
0
 10
-12.78600025177002
 20
-31.07799911499023
 30
28.20499992370605
 70
   192
  0
VERTEX
  5
387
  8
0
 10
1.105000019073486
 20
37.82300186157227
 30
17.47699928283691
 70
   192
  0
VERTEX
  5
388
  8
0
 10
-6.642000198364258
 20
-31.07799911499023
 30
25.875
 70
   192
  0
VERTEX
  5
389
  8
0
 10
1.610000014305115
 20
-31.07799911499023
 30
16.55999946594238
 70
   192
  0
VERTEX
  5
38A
  8
0
 10
4.587999820709229
 20
-31.07799911499023
 30
4.47700023651123
 70
   192
  0
VERTEX
  5
38B
  8
0
 10
4.192999839782715
 20
37.82300186157227
 30
-0.0370000004768372
 70
   192
  0
VERTEX
  5
38C
  8
0
 10
0.9330000281333923
 20
-31.07799911499023
 30
17.32500076293945
 70
   192
  0
VERTEX
  5
38D
  8
0
 10
-4.698999881744385
 20
37.82300186157227
 30
-15.4399995803833
 70
   192
  0
VERTEX
  5
38E
  8
0
 10
1.610000014305115
 20
-31.07799911499023
 30
-7.605000019073486
 70
   192
  0
VERTEX
  5
38F
  8
0
 10
3.516999959945679
 20
-31.07799911499023
 30
0.1289999932050705
 70
   192
  0
VERTEX
  5
390
  8
0
 10
-6.642000198364258
 20
-31.07799911499023
 30
-16.92000007629395
 70
   192
  0
VERTEX
  5
391
  8
0
 10
-18.27799987792969
 20
-31.07799911499023
 30
-21.33300018310547
 70
   192
  0
VERTEX
  5
392
  8
0
 10
-5.052999973297119
 20
-31.07799911499023
 30
-15.12600040435791
 70
   192
  0
VERTEX
  5
393
  8
0
 62
     9
 10
0.0
 20
0.0
 30
0.0
 70
   128
 71
     3
 72
     2
 73
     1
  0
VERTEX
  5
394
  8
0
 62
     9
 10
0.0
 20
0.0
 30
0.0
 70
   128
 71
     1
 72
     4
 73
     3
  0
VERTEX
  5
395
  8
0
 62
     9
 10
0.0
 20
0.0
 30
0.0
 70
   128
 71
     6
 72
     4
 73
     5
  0
VERTEX
  5
396
  8
0
 62
     9
 10
0.0
 20
0.0
 30
0.0
 70
   128
 71
     5
 72
     7
 73
     6
  0
VERTEX
  5
397
  8
0
 62
     9
 10
0.0
 20
0.0
 30
0.0
 70
   128
 71
     6
 72
     8
 73
     4
  0
VERTEX
  5
398
  8
0
 62
     9
 10
0.0
 20
0.0
 30
0.0
 70
   128
 71
    10
 72
     9
 73
     5
  0
VERTEX
  5
399
  8
0
 62
     9
 10
0.0
 20
0.0
 30
0.0
 70
   128
 71
     5
 72
    11
 73
    10
  0
VERTEX
  5
39A
  8
0
 62
     9
 10
0.0
 20
0.0
 30
0.0
 70
   128
 71
    13
 72
    11
 73
    12
  0
VERTEX
  5
39B
  8
0
 62
     9
 10
0.0
 20
0.0
 30
0.0
 70
   128
 71
    12
 72
    14
 73
    13
  0
VERTEX
  5
39C
  8
0
 62
     9
 10
0.0
 20
0.0
 30
0.0
 70
   128
 71
    13
 72
    15
 73
    11
  0
VERTEX
  5
39D
  8
0
 62
     9
 10
0.0
 20
0.0
 30
0.0
 70
   128
 71
    18
 72
    17
 73
    16
  0
VERTEX
  5
39E
  8
0
 62
     9
 10
0.0
 20
0.0
 30
0.0
 70
   128
 71
    17
 72
    18
 73
    19
  0
VERTEX
  5
39F
  8
0
 62
     9
 10
0.0
 20
0.0
 30
0.0
 70
   128
 71
    19
 72
    20
 73
    17
  0
VERTEX
  5
3A0
  8
0
 62
     9
 10
0.0
 20
0.0
 30
0.0
 70
   128
 71
    22
 72
    19
 73
    21
  0
VERTEX
  5
3A1
  8
0
 62
     9
 10
0.0
 20
0.0
 30
0.0
 70
   128
 71
    22
 72
    20
 73
    19
  0
VERTEX
  5
3A2
  8
0
 62
     9
 10
0.0
 20
0.0
 30
0.0
 70
   128
 71
    24
 72
    23
 73
    21
  0
VERTEX
  5
3A3
  8
0
 62
     9
 10
0.0
 20
0.0
 30
0.0
 70
   128
 71
    21
 72
    25
 73
    24
  0
VERTEX
  5
3A4
  8
0
 62
     9
 10
0.0
 20
0.0
 30
0.0
 70
   128
 71
    23
 72
    26
 73
    21
  0
VERTEX
  5
3A5
  8
0
 62
     9
 10
0.0
 20
0.0
 30
0.0
 70
   128
 71
    28
 72
    25
 73
    27
  0
VERTEX
  5
3A6
  8
0
 62
     9
 10
0.0
 20
0.0
 30
0.0
 70
   128
 71
    28
 72
    29
 73
    25
  0
VERTEX
  5
3A7
  8
0
 62
     9
 10
0.0
 20
0.0
 30
0.0
 70
   128
 71
    31
 72
    30
 73
    27
  0
VERTEX
  5
3A8
  8
0
 62
     9
 10
0.0
 20
0.0
 30
0.0
 70
   128
 71
    30
 72
    32
 73
    27
  0
VERTEX
  5
3A9
  8
0
 62
     9
 10
0.0
 20
0.0
 30
0.0
 70
   128
 71
    27
 72
     1
 73
    31
  0
VERTEX
  5
3AA
  8
0
 62
     9
 10
0.0
 20
0.0
 30
0.0
 70
   128
 71
     1
 72
     2
 73
    31
  0
VERTEX
  5
3AB
  8
0
 62
     9
 10
0.0
 20
0.0
 30
0.0
 70
   128
 71
    27
 72
    32
 73
    28
  0
VERTEX
  5
3AC
  8
0
 62
     9
 10
0.0
 20
0.0
 30
0.0
 70
   128
 71
    25
 72
    29
 73
    24
  0
VERTEX
  5
3AD
  8
0
 62
     9
 10
0.0
 20
0.0
 30
0.0
 70
   128
 71
    21
 72
    26
 73
    22
  0
VERTEX
  5
3AE
  8
0
 62
     9
 10
0.0
 20
0.0
 30
0.0
 70
   128
 71
    16
 72
    12
 73
    18
  0
VERTEX
  5
3AF
  8
0
 62
     9
 10
0.0
 20
0.0
 30
0.0
 70
   128
 71
    12
 72
    16
 73
    14
  0
VERTEX
  5
3B0
  8
0
 62
     9
 10
0.0
 20
0.0
 30
0.0
 70
   128
 71
    11
 72
    15
 73
    10
  0
VERTEX
  5
3B1
  8
0
 62
     9
 10
0.0
 20
0.0
 30
0.0
 70
   128
 71
     5
 72
     9
 73
     7
  0
VERTEX
  5
3B2
  8
0
 62
     9
 10
0.0
 20
0.0
 30
0.0
 70
   128
 71
     4
 72
     8
 73
     3
  0
SEQEND
  5
3B3
  8
0
 62
     9
  0
ENDBLK
  5
3B6
  8
0
  0
BLOCK
  8
0
  2
E3_NODE_16_
 70
     0
 10
0.0
 20
0.0
 30
0.0
  3
E3_NODE_16_
  1

  0
POLYLINE
  5
3B8
  8
0
 62
     9
 66
     1
 10
0.0
 20
0.0
 30
0.0
 70
    64
 71
    58
 72
    60
  0
VERTEX
  5
3B9
  8
0
 10
-12.6870002746582
 20
96.69999694824219
 30
-3.578999996185303
 70
   192
  0
VERTEX
  5
3BA
  8
0
 10
-30.39800071716309
 20
96.69000244140625
 30
-3.578999996185303
 70
   192
  0
VERTEX
  5
3BB
  8
0
 10
-30.39699935913086
 20
96.21199798583984
 30
14.2480001449585
 70
   192
  0
VERTEX
  5
3BC
  8
0
 10
-42.19800186157227
 20
94.23400115966797
 30
-10.43400001525879
 70
   192
  0
VERTEX
  5
3BD
  8
0
 10
-43.26100158691406
 20
94.19400024414062
 30
-8.923999786376953
 70
   192
  0
VERTEX
  5
3BE
  8
0
 10
-37.33499908447266
 20
94.36499786376953
 30
-15.33199977874756
 70
   192
  0
VERTEX
  5
3BF
  8
0
 10
-30.32900047302246
 20
94.46399688720703
 30
-19.07500076293945
 70
   192
  0
VERTEX
  5
3C0
  8
0
 10
-35.83100128173828
 20
94.39299774169922
 30
-16.4060001373291
 70
   192
  0
VERTEX
  5
3C1
  8
0
 10
-30.16300010681152
 20
94.46700286865234
 30
-19.15500068664551
 70
   192
  0
VERTEX
  5
3C2
  8
0
 10
-43.85900115966797
 20
94.16000366210938
 30
-7.666999816894531
 70
   192
  0
VERTEX
  5
3C3
  8
0
 10
-46.89699935913086
 20
93.69400024414062
 30
9.734999656677246
 70
   192
  0
VERTEX
  5
3C4
  8
0
 10
-47.46799850463867
 20
93.79499816894531
 30
5.945000171661377
 70
   192
  0
VERTEX
  5
3C5
  8
0
 10
-47.35400009155273
 20
93.74600219726562
 30
7.789000034332275
 70
   192
  0
VERTEX
  5
3C6
  8
0
 10
-46.73099899291992
 20
93.97899627685547
 30
-0.9160000085830688
 70
   192
  0
VERTEX
  5
3C7
  8
0
 10
-45.77399826049805
 20
94.052001953125
 30
-3.645999908447266
 70
   192
  0
VERTEX
  5
3C8
  8
0
 10
-46.22800064086914
 20
94.0270004272461
 30
-2.693000078201294
 70
   192
  0
VERTEX
  5
3C9
  8
0
 10
-34.67599868774414
 20
93.21199798583984
 30
27.6569995880127
 70
   192
  0
VERTEX
  5
3CA
  8
0
 10
-33.05199813842773
 20
93.18800354003906
 30
28.53700065612793
 70
   192
  0
VERTEX
  5
3CB
  8
0
 10
-38.05599975585938
 20
93.28299713134766
 30
25.00399971008301
 70
   192
  0
VERTEX
  5
3CC
  8
0
 10
-41.34700012207031
 20
93.36299896240234
 30
22.02700042724609
 70
   192
  0
VERTEX
  5
3CD
  8
0
 10
-40.10599899291992
 20
93.32599639892578
 30
23.39500045776367
 70
   192
  0
VERTEX
  5
3CE
  8
0
 10
-45.85400009155273
 20
93.5739974975586
 30
14.17899990081787
 70
   192
  0
VERTEX
  5
3CF
  8
0
 10
-45.77700042724609
 20
93.56500244140625
 30
14.50699996948242
 70
   192
  0
VERTEX
  5
3D0
  8
0
 10
-45.05899810791016
 20
93.5199966430664
 30
16.20899963378906
 70
   192
  0
VERTEX
  5
3D1
  8
0
 10
-12.6879997253418
 20
96.22200012207031
 30
14.24899959564209
 70
   192
  0
VERTEX
  5
3D2
  8
0
 10
-17.79100036621094
 20
93.12000274658203
 30
30.99300003051758
 70
   192
  0
VERTEX
  5
3D3
  8
0
 10
-15.97200012207031
 20
93.12899780273438
 30
30.66600036621094
 70
   192
  0
VERTEX
  5
3D4
  8
0
 10
-21.47900009155273
 20
93.12000274658203
 30
31.02599906921387
 70
   192
  0
VERTEX
  5
3D5
  8
0
 10
-26.51799964904785
 20
93.12799835205078
 30
30.76199913024902
 70
   192
  0
VERTEX
  5
3D6
  8
0
 10
-24.69400024414062
 20
93.11900329589844
 30
31.05500030517578
 70
   192
  0
VERTEX
  5
3D7
  8
0
 10
-30.16399955749512
 20
93.16100311279297
 30
29.52000045776367
 70
   192
  0
VERTEX
  5
3D8
  8
0
 10
-1.304999947547913
 20
93.36900329589844
 30
21.66200065612793
 70
   192
  0
VERTEX
  5
3D9
  8
0
 10
2.301000118255615
 20
93.5260009765625
 30
15.77799987792969
 70
   192
  0
VERTEX
  5
3DA
  8
0
 10
-2.519999980926514
 20
93.33200073242188
 30
23.05299949645996
 70
   192
  0
VERTEX
  5
3DB
  8
0
 10
-4.907999992370605
 20
93.27999877929688
 30
24.99799919128418
 70
   192
  0
VERTEX
  5
3DC
  8
0
 10
-12.91899967193604
 20
93.15799713134766
 30
29.56399917602539
 70
   192
  0
VERTEX
  5
3DD
  8
0
 10
-9.479000091552734
 20
93.19100189208984
 30
28.32299995422363
 70
   192
  0
VERTEX
  5
3DE
  8
0
 10
-7.870999813079834
 20
93.21499633789062
 30
27.41300010681152
 70
   192
  0
VERTEX
  5
3DF
  8
0
 10
3.66100001335144
 20
93.98600006103516
 30
-1.373999953269958
 70
   192
  0
VERTEX
  5
3E0
  8
0
 10
3.125999927520752
 20
94.03399658203125
 30
-3.141999959945679
 70
   192
  0
VERTEX
  5
3E1
  8
0
 10
4.521999835968018
 20
93.802001953125
 30
5.472000122070312
 70
   192
  0
VERTEX
  5
3E2
  8
0
 10
3.921000003814697
 20
93.68800354003906
 30
9.732999801635742
 70
   192
  0
VERTEX
  5
3E3
  8
0
 10
4.441999912261963
 20
93.75299835205078
 30
7.317999839782715
 70
   192
  0
VERTEX
  5
3E4
  8
0
 10
2.98799991607666
 20
93.5719985961914
 30
14.0629997253418
 70
   192
  0
VERTEX
  5
3E5
  8
0
 10
2.941999912261963
 20
93.56900024414062
 30
14.17899990081787
 70
   192
  0
VERTEX
  5
3E6
  8
0
 10
-5.995999813079834
 20
94.36900329589844
 30
-15.61699962615967
 70
   192
  0
VERTEX
  5
3E7
  8
0
 10
-7.519000053405762
 20
94.39700317382812
 30
-16.66399955749512
 70
   192
  0
VERTEX
  5
3E8
  8
0
 10
0.8769999742507935
 20
94.15499877929688
 30
-7.650000095367432
 70
   192
  0
VERTEX
  5
3E9
  8
0
 10
0.046000000089407
 20
94.19999694824219
 30
-9.317999839782715
 70
   192
  0
VERTEX
  5
3EA
  8
0
 10
-1.044999957084656
 20
94.23999786376953
 30
-10.80900001525879
 70
   192
  0
VERTEX
  5
3EB
  8
0
 10
-12.64200019836426
 20
94.46099853515625
 30
-19.03400039672852
 70
   192
  0
VERTEX
  5
3EC
  8
0
 10
2.874000072479248
 20
94.0469970703125
 30
-3.647000074386597
 70
   192
  0
VERTEX
  5
3ED
  8
0
 10
-24.2810001373291
 20
94.50399780273438
 30
-20.57500076293945
 70
   192
  0
VERTEX
  5
3EE
  8
0
 10
-29.62100028991699
 20
94.4739990234375
 30
-19.41799926757812
 70
   192
  0
VERTEX
  5
3EF
  8
0
 10
-15.56700038909912
 20
94.48899841308594
 30
-20.04599952697754
 70
   192
  0
VERTEX
  5
3F0
  8
0
 10
-22.4379997253418
 20
94.50700378417969
 30
-20.70800018310547
 70
   192
  0
VERTEX
  5
3F1
  8
0
 10
-12.91899967193604
 20
94.46499633789062
 30
-19.16200065612793
 70
   192
  0
VERTEX
  5
3F2
  8
0
 10
-13.78299999237061
 20
94.47599792480469
 30
-19.5620002746582
 70
   192
  0
VERTEX
  5
3F3
  8
0
 62
     9
 10
0.0
 20
0.0
 30
0.0
 70
   128
 71
     3
 72
     2
 73
     1
  0
VERTEX
  5
3F4
  8
0
 62
     9
 10
0.0
 20
0.0
 30
0.0
 70
   128
 71
     5
 72
     4
 73
     2
  0
VERTEX
  5
3F5
  8
0
 62
     9
 10
0.0
 20
0.0
 30
0.0
 70
   128
 71
     4
 72
     6
 73
     2
  0
VERTEX
  5
3F6
  8
0
 62
     9
 10
0.0
 20
0.0
 30
0.0
 70
   128
 71
     8
 72
     7
 73
     2
  0
VERTEX
  5
3F7
  8
0
 62
     9
 10
0.0
 20
0.0
 30
0.0
 70
   128
 71
     2
 72
     6
 73
     8
  0
VERTEX
  5
3F8
  8
0
 62
     9
 10
0.0
 20
0.0
 30
0.0
 70
   128
 71
     7
 72
     9
 73
     2
  0
VERTEX
  5
3F9
  8
0
 62
     9
 10
0.0
 20
0.0
 30
0.0
 70
   128
 71
     2
 72
    10
 73
     5
  0
VERTEX
  5
3FA
  8
0
 62
     9
 10
0.0
 20
0.0
 30
0.0
 70
   128
 71
    11
 72
     2
 73
     3
  0
VERTEX
  5
3FB
  8
0
 62
     9
 10
0.0
 20
0.0
 30
0.0
 70
   128
 71
    13
 72
    12
 73
     2
  0
VERTEX
  5
3FC
  8
0
 62
     9
 10
0.0
 20
0.0
 30
0.0
 70
   128
 71
    12
 72
    14
 73
     2
  0
VERTEX
  5
3FD
  8
0
 62
     9
 10
0.0
 20
0.0
 30
0.0
 70
   128
 71
    16
 72
    15
 73
     2
  0
VERTEX
  5
3FE
  8
0
 62
     9
 10
0.0
 20
0.0
 30
0.0
 70
   128
 71
     2
 72
    14
 73
    16
  0
VERTEX
  5
3FF
  8
0
 62
     9
 10
0.0
 20
0.0
 30
0.0
 70
   128
 71
     2
 72
    11
 73
    13
  0
VERTEX
  5
400
  8
0
 62
     9
 10
0.0
 20
0.0
 30
0.0
 70
   128
 71
    18
 72
    17
 73
     3
  0
VERTEX
  5
401
  8
0
 62
     9
 10
0.0
 20
0.0
 30
0.0
 70
   128
 71
    17
 72
    19
 73
     3
  0
VERTEX
  5
402
  8
0
 62
     9
 10
0.0
 20
0.0
 30
0.0
 70
   128
 71
    21
 72
    20
 73
     3
  0
VERTEX
  5
403
  8
0
 62
     9
 10
0.0
 20
0.0
 30
0.0
 70
   128
 71
    23
 72
    22
 73
     3
  0
VERTEX
  5
404
  8
0
 62
     9
 10
0.0
 20
0.0
 30
0.0
 70
   128
 71
     3
 72
    24
 73
    23
  0
VERTEX
  5
405
  8
0
 62
     9
 10
0.0
 20
0.0
 30
0.0
 70
   128
 71
     3
 72
    20
 73
    24
  0
VERTEX
  5
406
  8
0
 62
     9
 10
0.0
 20
0.0
 30
0.0
 70
   128
 71
     3
 72
    19
 73
    21
  0
VERTEX
  5
407
  8
0
 62
     9
 10
0.0
 20
0.0
 30
0.0
 70
   128
 71
    27
 72
    26
 73
    25
  0
VERTEX
  5
408
  8
0
 62
     9
 10
0.0
 20
0.0
 30
0.0
 70
   128
 71
    28
 72
     3
 73
    25
  0
VERTEX
  5
409
  8
0
 62
     9
 10
0.0
 20
0.0
 30
0.0
 70
   128
 71
    25
 72
    26
 73
    28
  0
VERTEX
  5
40A
  8
0
 62
     9
 10
0.0
 20
0.0
 30
0.0
 70
   128
 71
    30
 72
    29
 73
     3
  0
VERTEX
  5
40B
  8
0
 62
     9
 10
0.0
 20
0.0
 30
0.0
 70
   128
 71
    29
 72
    31
 73
     3
  0
VERTEX
  5
40C
  8
0
 62
     9
 10
0.0
 20
0.0
 30
0.0
 70
   128
 71
     3
 72
    28
 73
    30
  0
VERTEX
  5
40D
  8
0
 62
     9
 10
0.0
 20
0.0
 30
0.0
 70
   128
 71
    33
 72
    32
 73
    25
  0
VERTEX
  5
40E
  8
0
 62
     9
 10
0.0
 20
0.0
 30
0.0
 70
   128
 71
    32
 72
    34
 73
    25
  0
VERTEX
  5
40F
  8
0
 62
     9
 10
0.0
 20
0.0
 30
0.0
 70
   128
 71
    34
 72
    35
 73
    25
  0
VERTEX
  5
410
  8
0
 62
     9
 10
0.0
 20
0.0
 30
0.0
 70
   128
 71
    37
 72
    36
 73
    25
  0
VERTEX
  5
411
  8
0
 62
     9
 10
0.0
 20
0.0
 30
0.0
 70
   128
 71
    25
 72
    38
 73
    37
  0
VERTEX
  5
412
  8
0
 62
     9
 10
0.0
 20
0.0
 30
0.0
 70
   128
 71
    25
 72
    35
 73
    38
  0
VERTEX
  5
413
  8
0
 62
     9
 10
0.0
 20
0.0
 30
0.0
 70
   128
 71
    40
 72
    39
 73
     1
  0
VERTEX
  5
414
  8
0
 62
     9
 10
0.0
 20
0.0
 30
0.0
 70
   128
 71
    39
 72
    41
 73
     1
  0
VERTEX
  5
415
  8
0
 62
     9
 10
0.0
 20
0.0
 30
0.0
 70
   128
 71
    43
 72
    42
 73
     1
  0
VERTEX
  5
416
  8
0
 62
     9
 10
0.0
 20
0.0
 30
0.0
 70
   128
 71
     1
 72
    41
 73
    43
  0
VERTEX
  5
417
  8
0
 62
     9
 10
0.0
 20
0.0
 30
0.0
 70
   128
 71
    42
 72
    44
 73
    25
  0
VERTEX
  5
418
  8
0
 62
     9
 10
0.0
 20
0.0
 30
0.0
 70
   128
 71
    44
 72
    45
 73
    25
  0
VERTEX
  5
419
  8
0
 62
     9
 10
0.0
 20
0.0
 30
0.0
 70
   128
 71
    25
 72
     1
 73
    42
  0
VERTEX
  5
41A
  8
0
 62
     9
 10
0.0
 20
0.0
 30
0.0
 70
   128
 71
    47
 72
    46
 73
     1
  0
VERTEX
  5
41B
  8
0
 62
     9
 10
0.0
 20
0.0
 30
0.0
 70
   128
 71
    49
 72
    48
 73
     1
  0
VERTEX
  5
41C
  8
0
 62
     9
 10
0.0
 20
0.0
 30
0.0
 70
   128
 71
     1
 72
    50
 73
    49
  0
VERTEX
  5
41D
  8
0
 62
     9
 10
0.0
 20
0.0
 30
0.0
 70
   128
 71
     1
 72
    46
 73
    50
  0
VERTEX
  5
41E
  8
0
 62
     9
 10
0.0
 20
0.0
 30
0.0
 70
   128
 71
     1
 72
    51
 73
    47
  0
VERTEX
  5
41F
  8
0
 62
     9
 10
0.0
 20
0.0
 30
0.0
 70
   128
 71
    48
 72
    52
 73
     1
  0
VERTEX
  5
420
  8
0
 62
     9
 10
0.0
 20
0.0
 30
0.0
 70
   128
 71
    53
 72
     1
 73
     2
  0
VERTEX
  5
421
  8
0
 62
     9
 10
0.0
 20
0.0
 30
0.0
 70
   128
 71
     2
 72
    54
 73
    53
  0
VERTEX
  5
422
  8
0
 62
     9
 10
0.0
 20
0.0
 30
0.0
 70
   128
 71
    56
 72
    55
 73
     1
  0
VERTEX
  5
423
  8
0
 62
     9
 10
0.0
 20
0.0
 30
0.0
 70
   128
 71
    58
 72
    57
 73
     1
  0
VERTEX
  5
424
  8
0
 62
     9
 10
0.0
 20
0.0
 30
0.0
 70
   128
 71
     1
 72
    55
 73
    58
  0
VERTEX
  5
425
  8
0
 62
     9
 10
0.0
 20
0.0
 30
0.0
 70
   128
 71
     1
 72
    53
 73
    56
  0
VERTEX
  5
426
  8
0
 62
     9
 10
0.0
 20
0.0
 30
0.0
 70
   128
 71
     2
 72
     9
 73
    54
  0
VERTEX
  5
427
  8
0
 62
     9
 10
0.0
 20
0.0
 30
0.0
 70
   128
 71
     1
 72
    57
 73
    51
  0
VERTEX
  5
428
  8
0
 62
     9
 10
0.0
 20
0.0
 30
0.0
 70
   128
 71
     1
 72
    52
 73
    40
  0
VERTEX
  5
429
  8
0
 62
     9
 10
0.0
 20
0.0
 30
0.0
 70
   128
 71
    25
 72
    45
 73
    33
  0
VERTEX
  5
42A
  8
0
 62
     9
 10
0.0
 20
0.0
 30
0.0
 70
   128
 71
    25
 72
    36
 73
    27
  0
VERTEX
  5
42B
  8
0
 62
     9
 10
0.0
 20
0.0
 30
0.0
 70
   128
 71
     3
 72
    31
 73
    18
  0
VERTEX
  5
42C
  8
0
 62
     9
 10
0.0
 20
0.0
 30
0.0
 70
   128
 71
     3
 72
    22
 73
    11
  0
VERTEX
  5
42D
  8
0
 62
     9
 10
0.0
 20
0.0
 30
0.0
 70
   128
 71
     2
 72
    15
 73
    10
  0
VERTEX
  5
42E
  8
0
 62
     9
 10
0.0
 20
0.0
 30
0.0
 70
   128
 71
     1
 72
    25
 73
     3
  0
SEQEND
  5
42F
  8
0
 62
     9
  0
ENDBLK
  5
432
  8
0
  0
BLOCK
  8
0
  2
E3_NODE_17_
 70
     0
 10
0.0
 20
0.0
 30
0.0
  3
E3_NODE_17_
  1

  0
POLYLINE
  5
434
  8
0
 62
     9
 66
     1
 10
0.0
 20
0.0
 30
0.0
 70
    64
 71
    92
 72
    94
  0
VERTEX
  5
435
  8
0
 10
-7.519000053405762
 20
94.39700317382812
 30
-16.66399955749512
 70
   192
  0
VERTEX
  5
436
  8
0
 10
-8.015000343322754
 20
79.84700012207031
 30
-17.35199928283691
 70
   192
  0
VERTEX
  5
437
  8
0
 10
-12.6560001373291
 20
81.34700012207031
 30
-19.33699989318848
 70
   192
  0
VERTEX
  5
438
  8
0
 10
-12.64200019836426
 20
94.46099853515625
 30
-19.03400039672852
 70
   192
  0
VERTEX
  5
439
  8
0
 10
-2.867000102996826
 20
76.94400024414062
 30
-13.34099960327148
 70
   192
  0
VERTEX
  5
43A
  8
0
 10
-1.044999957084656
 20
94.23999786376953
 30
-10.80900001525879
 70
   192
  0
VERTEX
  5
43B
  8
0
 10
0.046000000089407
 20
94.19999694824219
 30
-9.317999839782715
 70
   192
  0
VERTEX
  5
43C
  8
0
 10
-5.995999813079834
 20
94.36900329589844
 30
-15.61699962615967
 70
   192
  0
VERTEX
  5
43D
  8
0
 10
0.8769999742507935
 20
94.15499877929688
 30
-7.650000095367432
 70
   192
  0
VERTEX
  5
43E
  8
0
 10
0.9330000281333923
 20
73.45700073242188
 30
-8.199000358581543
 70
   192
  0
VERTEX
  5
43F
  8
0
 10
-2.273000001907349
 20
76.51000213623047
 30
-12.72200012207031
 70
   192
  0
VERTEX
  5
440
  8
0
 10
4.441999912261963
 20
93.75299835205078
 30
7.317999839782715
 70
   192
  0
VERTEX
  5
441
  8
0
 10
4.071000099182129
 20
63.3129997253418
 30
8.977999687194824
 70
   192
  0
VERTEX
  5
442
  8
0
 10
4.500999927520752
 20
66.31099700927734
 30
3.457000017166138
 70
   192
  0
VERTEX
  5
443
  8
0
 10
4.521999835968018
 20
93.802001953125
 30
5.472000122070312
 70
   192
  0
VERTEX
  5
444
  8
0
 10
4.238999843597412
 20
67.87200164794922
 30
0.7459999918937683
 70
   192
  0
VERTEX
  5
445
  8
0
 10
3.66100001335144
 20
93.98600006103516
 30
-1.373999953269958
 70
   192
  0
VERTEX
  5
446
  8
0
 10
2.338000059127808
 20
71.84700012207031
 30
-5.748000144958496
 70
   192
  0
VERTEX
  5
447
  8
0
 10
2.874000072479248
 20
94.0469970703125
 30
-3.647000074386597
 70
   192
  0
VERTEX
  5
448
  8
0
 10
3.125999927520752
 20
94.03399658203125
 30
-3.141999959945679
 70
   192
  0
VERTEX
  5
449
  8
0
 10
1.616999983787537
 20
72.80599975585938
 30
-7.234000205993652
 70
   192
  0
VERTEX
  5
44A
  8
0
 10
-4.763999938964844
 20
62.3390007019043
 30
24.36400032043457
 70
   192
  0
VERTEX
  5
44B
  8
0
 10
3.900000095367432
 20
62.71200180053711
 30
10.11200046539307
 70
   192
  0
VERTEX
  5
44C
  8
0
 10
2.301000118255615
 20
93.5260009765625
 30
15.77799987792969
 70
   192
  0
VERTEX
  5
44D
  8
0
 10
2.98799991607666
 20
93.5719985961914
 30
14.0629997253418
 70
   192
  0
VERTEX
  5
44E
  8
0
 10
2.941999912261963
 20
93.56900024414062
 30
14.17899990081787
 70
   192
  0
VERTEX
  5
44F
  8
0
 10
4.031000137329102
 20
63.03300094604492
 30
9.494999885559082
 70
   192
  0
VERTEX
  5
450
  8
0
 10
3.921000003814697
 20
93.68800354003906
 30
9.732999801635742
 70
   192
  0
VERTEX
  5
451
  8
0
 10
-1.304999947547913
 20
93.36900329589844
 30
21.66200065612793
 70
   192
  0
VERTEX
  5
452
  8
0
 10
-2.519999980926514
 20
93.33200073242188
 30
23.05299949645996
 70
   192
  0
VERTEX
  5
453
  8
0
 10
-21.47699928283691
 20
62.18000030517578
 30
30.44499969482422
 70
   192
  0
VERTEX
  5
454
  8
0
 10
-17.48100090026855
 20
68.47200012207031
 30
30.30100059509277
 70
   192
  0
VERTEX
  5
455
  8
0
 10
-9.479000091552734
 20
93.19100189208984
 30
28.32299995422363
 70
   192
  0
VERTEX
  5
456
  8
0
 10
-12.91899967193604
 20
93.15799713134766
 30
29.56399917602539
 70
   192
  0
VERTEX
  5
457
  8
0
 10
-17.63400077819824
 20
86.822998046875
 30
30.80500030517578
 70
   192
  0
VERTEX
  5
458
  8
0
 10
-7.870999813079834
 20
93.21499633789062
 30
27.41300010681152
 70
   192
  0
VERTEX
  5
459
  8
0
 10
-4.907999992370605
 20
93.27999877929688
 30
24.99799919128418
 70
   192
  0
VERTEX
  5
45A
  8
0
 10
-21.47699928283691
 20
86.81600189208984
 30
31.09000015258789
 70
   192
  0
VERTEX
  5
45B
  8
0
 10
-17.79100036621094
 20
93.12000274658203
 30
30.99300003051758
 70
   192
  0
VERTEX
  5
45C
  8
0
 10
-15.97200012207031
 20
93.12899780273438
 30
30.66600036621094
 70
   192
  0
VERTEX
  5
45D
  8
0
 10
-21.47900009155273
 20
93.12000274658203
 30
31.02599906921387
 70
   192
  0
VERTEX
  5
45E
  8
0
 10
-25.31900024414062
 20
86.822998046875
 30
30.80500030517578
 70
   192
  0
VERTEX
  5
45F
  8
0
 10
-24.69400024414062
 20
93.11900329589844
 30
31.05500030517578
 70
   192
  0
VERTEX
  5
460
  8
0
 10
-26.51799964904785
 20
93.12799835205078
 30
30.76199913024902
 70
   192
  0
VERTEX
  5
461
  8
0
 10
-38.18899917602539
 20
62.3390007019043
 30
24.36400032043457
 70
   192
  0
VERTEX
  5
462
  8
0
 10
-30.16399955749512
 20
93.16100311279297
 30
29.52000045776367
 70
   192
  0
VERTEX
  5
463
  8
0
 10
-25.47299957275391
 20
68.47200012207031
 30
30.30100059509277
 70
   192
  0
VERTEX
  5
464
  8
0
 10
-33.05199813842773
 20
93.18800354003906
 30
28.53700065612793
 70
   192
  0
VERTEX
  5
465
  8
0
 10
-34.67599868774414
 20
93.21199798583984
 30
27.6569995880127
 70
   192
  0
VERTEX
  5
466
  8
0
 10
-38.05599975585938
 20
93.28299713134766
 30
25.00399971008301
 70
   192
  0
VERTEX
  5
467
  8
0
 10
-21.47699928283691
 20
68.46399688720703
 30
30.61000061035156
 70
   192
  0
VERTEX
  5
468
  8
0
 10
-45.85400009155273
 20
93.5739974975586
 30
14.17899990081787
 70
   192
  0
VERTEX
  5
469
  8
0
 10
-46.89699935913086
 20
93.69400024414062
 30
9.734999656677246
 70
   192
  0
VERTEX
  5
46A
  8
0
 10
-47.01800155639648
 20
63.31499862670898
 30
8.977999687194824
 70
   192
  0
VERTEX
  5
46B
  8
0
 10
-46.98500061035156
 20
63.03300094604492
 30
9.494999885559082
 70
   192
  0
VERTEX
  5
46C
  8
0
 10
-46.85300064086914
 20
62.71200180053711
 30
10.11200046539307
 70
   192
  0
VERTEX
  5
46D
  8
0
 10
-45.77700042724609
 20
93.56500244140625
 30
14.50699996948242
 70
   192
  0
VERTEX
  5
46E
  8
0
 10
-41.34700012207031
 20
93.36299896240234
 30
22.02700042724609
 70
   192
  0
VERTEX
  5
46F
  8
0
 10
-45.05899810791016
 20
93.5199966430664
 30
16.20899963378906
 70
   192
  0
VERTEX
  5
470
  8
0
 10
-40.10599899291992
 20
93.32599639892578
 30
23.39500045776367
 70
   192
  0
VERTEX
  5
471
  8
0
 10
-45.77399826049805
 20
94.052001953125
 30
-3.645999908447266
 70
   192
  0
VERTEX
  5
472
  8
0
 10
-43.85900115966797
 20
94.16000366210938
 30
-7.666999816894531
 70
   192
  0
VERTEX
  5
473
  8
0
 10
-43.96699905395508
 20
73.48200225830078
 30
-8.258000373840332
 70
   192
  0
VERTEX
  5
474
  8
0
 10
-46.22800064086914
 20
94.0270004272461
 30
-2.693000078201294
 70
   192
  0
VERTEX
  5
475
  8
0
 10
-44.91699981689453
 20
72.36299896240234
 30
-6.551000118255615
 70
   192
  0
VERTEX
  5
476
  8
0
 10
-47.04499816894531
 20
68.38200378417969
 30
-0.1190000027418137
 70
   192
  0
VERTEX
  5
477
  8
0
 10
-46.73099899291992
 20
93.97899627685547
 30
-0.9160000085830688
 70
   192
  0
VERTEX
  5
478
  8
0
 10
-47.46799850463867
 20
93.79499816894531
 30
5.945000171661377
 70
   192
  0
VERTEX
  5
479
  8
0
 10
-47.35400009155273
 20
93.74600219726562
 30
7.789000034332275
 70
   192
  0
VERTEX
  5
47A
  8
0
 10
-47.41500091552734
 20
66.7030029296875
 30
2.766999959945679
 70
   192
  0
VERTEX
  5
47B
  8
0
 10
-39.43500137329102
 20
77.39199829101562
 30
-13.97399997711182
 70
   192
  0
VERTEX
  5
47C
  8
0
 10
-43.58399963378906
 20
73.93199920654297
 30
-8.944000244140625
 70
   192
  0
VERTEX
  5
47D
  8
0
 10
-43.26100158691406
 20
94.19400024414062
 30
-8.923999786376953
 70
   192
  0
VERTEX
  5
47E
  8
0
 10
-42.19800186157227
 20
94.23400115966797
 30
-10.43400001525879
 70
   192
  0
VERTEX
  5
47F
  8
0
 10
-36.58700180053711
 20
79.06099700927734
 30
-16.28700065612793
 70
   192
  0
VERTEX
  5
480
  8
0
 10
-37.33499908447266
 20
94.36499786376953
 30
-15.33199977874756
 70
   192
  0
VERTEX
  5
481
  8
0
 10
-35.83100128173828
 20
94.39299774169922
 30
-16.4060001373291
 70
   192
  0
VERTEX
  5
482
  8
0
 10
-30.32900047302246
 20
94.46399688720703
 30
-19.07500076293945
 70
   192
  0
VERTEX
  5
483
  8
0
 10
-30.36499977111816
 20
81.45600128173828
 30
-19.48900032043457
 70
   192
  0
VERTEX
  5
484
  8
0
 10
-31.0310001373291
 20
81.2760009765625
 30
-19.25300025939941
 70
   192
  0
VERTEX
  5
485
  8
0
 10
-29.62100028991699
 20
94.4739990234375
 30
-19.41799926757812
 70
   192
  0
VERTEX
  5
486
  8
0
 10
-24.2810001373291
 20
94.50399780273438
 30
-20.57500076293945
 70
   192
  0
VERTEX
  5
487
  8
0
 10
-23.54100036621094
 20
82.58699798583984
 30
-20.95599937438965
 70
   192
  0
VERTEX
  5
488
  8
0
 10
-29.60099983215332
 20
81.66300201416016
 30
-19.76000022888184
 70
   192
  0
VERTEX
  5
489
  8
0
 10
-30.16300010681152
 20
94.46700286865234
 30
-19.15500068664551
 70
   192
  0
VERTEX
  5
48A
  8
0
 10
-22.4379997253418
 20
94.50700378417969
 30
-20.70800018310547
 70
   192
  0
VERTEX
  5
48B
  8
0
 10
-21.49200057983398
 20
82.6500015258789
 30
-21.03700065612793
 70
   192
  0
VERTEX
  5
48C
  8
0
 10
-15.56700038909912
 20
94.48899841308594
 30
-20.04599952697754
 70
   192
  0
VERTEX
  5
48D
  8
0
 10
-15.33100032806396
 20
82.08999633789062
 30
-20.31399917602539
 70
   192
  0
VERTEX
  5
48E
  8
0
 10
-14.34000015258789
 20
81.89199829101562
 30
-20.0580005645752
 70
   192
  0
VERTEX
  5
48F
  8
0
 10
-13.78299999237061
 20
94.47599792480469
 30
-19.5620002746582
 70
   192
  0
VERTEX
  5
490
  8
0
 10
-12.91899967193604
 20
94.46499633789062
 30
-19.16200065612793
 70
   192
  0
VERTEX
  5
491
  8
0
 62
     9
 10
0.0
 20
0.0
 30
0.0
 70
   128
 71
     3
 72
     2
 73
     1
  0
VERTEX
  5
492
  8
0
 62
     9
 10
0.0
 20
0.0
 30
0.0
 70
   128
 71
     1
 72
     4
 73
     3
  0
VERTEX
  5
493
  8
0
 62
     9
 10
0.0
 20
0.0
 30
0.0
 70
   128
 71
     7
 72
     6
 73
     5
  0
VERTEX
  5
494
  8
0
 62
     9
 10
0.0
 20
0.0
 30
0.0
 70
   128
 71
     2
 72
     5
 73
     6
  0
VERTEX
  5
495
  8
0
 62
     9
 10
0.0
 20
0.0
 30
0.0
 70
   128
 71
     6
 72
     8
 73
     2
  0
VERTEX
  5
496
  8
0
 62
     9
 10
0.0
 20
0.0
 30
0.0
 70
   128
 71
    11
 72
    10
 73
     9
  0
VERTEX
  5
497
  8
0
 62
     9
 10
0.0
 20
0.0
 30
0.0
 70
   128
 71
     9
 72
     5
 73
    11
  0
VERTEX
  5
498
  8
0
 62
     9
 10
0.0
 20
0.0
 30
0.0
 70
   128
 71
     5
 72
     9
 73
     7
  0
VERTEX
  5
499
  8
0
 62
     9
 10
0.0
 20
0.0
 30
0.0
 70
   128
 71
    14
 72
    13
 73
    12
  0
VERTEX
  5
49A
  8
0
 62
     9
 10
0.0
 20
0.0
 30
0.0
 70
   128
 71
    12
 72
    15
 73
    14
  0
VERTEX
  5
49B
  8
0
 62
     9
 10
0.0
 20
0.0
 30
0.0
 70
   128
 71
    16
 72
    14
 73
    15
  0
VERTEX
  5
49C
  8
0
 62
     9
 10
0.0
 20
0.0
 30
0.0
 70
   128
 71
    15
 72
    17
 73
    16
  0
VERTEX
  5
49D
  8
0
 62
     9
 10
0.0
 20
0.0
 30
0.0
 70
   128
 71
    18
 72
    16
 73
    17
  0
VERTEX
  5
49E
  8
0
 62
     9
 10
0.0
 20
0.0
 30
0.0
 70
   128
 71
    20
 72
    19
 73
    18
  0
VERTEX
  5
49F
  8
0
 62
     9
 10
0.0
 20
0.0
 30
0.0
 70
   128
 71
    17
 72
    20
 73
    18
  0
VERTEX
  5
4A0
  8
0
 62
     9
 10
0.0
 20
0.0
 30
0.0
 70
   128
 71
    10
 72
    21
 73
    19
  0
VERTEX
  5
4A1
  8
0
 62
     9
 10
0.0
 20
0.0
 30
0.0
 70
   128
 71
    21
 72
    18
 73
    19
  0
VERTEX
  5
4A2
  8
0
 62
     9
 10
0.0
 20
0.0
 30
0.0
 70
   128
 71
    19
 72
     9
 73
    10
  0
VERTEX
  5
4A3
  8
0
 62
     9
 10
0.0
 20
0.0
 30
0.0
 70
   128
 71
    24
 72
    23
 73
    22
  0
VERTEX
  5
4A4
  8
0
 62
     9
 10
0.0
 20
0.0
 30
0.0
 70
   128
 71
    26
 72
    25
 73
    23
  0
VERTEX
  5
4A5
  8
0
 62
     9
 10
0.0
 20
0.0
 30
0.0
 70
   128
 71
    13
 72
    27
 73
    25
  0
VERTEX
  5
4A6
  8
0
 62
     9
 10
0.0
 20
0.0
 30
0.0
 70
   128
 71
    27
 72
    23
 73
    25
  0
VERTEX
  5
4A7
  8
0
 62
     9
 10
0.0
 20
0.0
 30
0.0
 70
   128
 71
    25
 72
    28
 73
    13
  0
VERTEX
  5
4A8
  8
0
 62
     9
 10
0.0
 20
0.0
 30
0.0
 70
   128
 71
    23
 72
    24
 73
    26
  0
VERTEX
  5
4A9
  8
0
 62
     9
 10
0.0
 20
0.0
 30
0.0
 70
   128
 71
    22
 72
    29
 73
    24
  0
VERTEX
  5
4AA
  8
0
 62
     9
 10
0.0
 20
0.0
 30
0.0
 70
   128
 71
    22
 72
    30
 73
    29
  0
VERTEX
  5
4AB
  8
0
 62
     9
 10
0.0
 20
0.0
 30
0.0
 70
   128
 71
    32
 72
    22
 73
    31
  0
VERTEX
  5
4AC
  8
0
 62
     9
 10
0.0
 20
0.0
 30
0.0
 70
   128
 71
    34
 72
    33
 73
    22
  0
VERTEX
  5
4AD
  8
0
 62
     9
 10
0.0
 20
0.0
 30
0.0
 70
   128
 71
    22
 72
    35
 73
    34
  0
VERTEX
  5
4AE
  8
0
 62
     9
 10
0.0
 20
0.0
 30
0.0
 70
   128
 71
    33
 72
    36
 73
    22
  0
VERTEX
  5
4AF
  8
0
 62
     9
 10
0.0
 20
0.0
 30
0.0
 70
   128
 71
    36
 72
    37
 73
    22
  0
VERTEX
  5
4B0
  8
0
 62
     9
 10
0.0
 20
0.0
 30
0.0
 70
   128
 71
    39
 72
    35
 73
    38
  0
VERTEX
  5
4B1
  8
0
 62
     9
 10
0.0
 20
0.0
 30
0.0
 70
   128
 71
    39
 72
    40
 73
    35
  0
VERTEX
  5
4B2
  8
0
 62
     9
 10
0.0
 20
0.0
 30
0.0
 70
   128
 71
    40
 72
    34
 73
    35
  0
VERTEX
  5
4B3
  8
0
 62
     9
 10
0.0
 20
0.0
 30
0.0
 70
   128
 71
    38
 72
    41
 73
    39
  0
VERTEX
  5
4B4
  8
0
 62
     9
 10
0.0
 20
0.0
 30
0.0
 70
   128
 71
    22
 72
    32
 73
    35
  0
VERTEX
  5
4B5
  8
0
 62
     9
 10
0.0
 20
0.0
 30
0.0
 70
   128
 71
    44
 72
    43
 73
    42
  0
VERTEX
  5
4B6
  8
0
 62
     9
 10
0.0
 20
0.0
 30
0.0
 70
   128
 71
    43
 72
    41
 73
    38
  0
VERTEX
  5
4B7
  8
0
 62
     9
 10
0.0
 20
0.0
 30
0.0
 70
   128
 71
    38
 72
    42
 73
    43
  0
VERTEX
  5
4B8
  8
0
 62
     9
 10
0.0
 20
0.0
 30
0.0
 70
   128
 71
    46
 72
    42
 73
    45
  0
VERTEX
  5
4B9
  8
0
 62
     9
 10
0.0
 20
0.0
 30
0.0
 70
   128
 71
    42
 72
    47
 73
    45
  0
VERTEX
  5
4BA
  8
0
 62
     9
 10
0.0
 20
0.0
 30
0.0
 70
   128
 71
    45
 72
    48
 73
    46
  0
VERTEX
  5
4BB
  8
0
 62
     9
 10
0.0
 20
0.0
 30
0.0
 70
   128
 71
    45
 72
    49
 73
    48
  0
VERTEX
  5
4BC
  8
0
 62
     9
 10
0.0
 20
0.0
 30
0.0
 70
   128
 71
    45
 72
    50
 73
    49
  0
VERTEX
  5
4BD
  8
0
 62
     9
 10
0.0
 20
0.0
 30
0.0
 70
   128
 71
    47
 72
    51
 73
    31
  0
VERTEX
  5
4BE
  8
0
 62
     9
 10
0.0
 20
0.0
 30
0.0
 70
   128
 71
    31
 72
    45
 73
    47
  0
VERTEX
  5
4BF
  8
0
 62
     9
 10
0.0
 20
0.0
 30
0.0
 70
   128
 71
    54
 72
    53
 73
    52
  0
VERTEX
  5
4C0
  8
0
 62
     9
 10
0.0
 20
0.0
 30
0.0
 70
   128
 71
    52
 72
    55
 73
    54
  0
VERTEX
  5
4C1
  8
0
 62
     9
 10
0.0
 20
0.0
 30
0.0
 70
   128
 71
    52
 72
    57
 73
    56
  0
VERTEX
  5
4C2
  8
0
 62
     9
 10
0.0
 20
0.0
 30
0.0
 70
   128
 71
    59
 72
    58
 73
    45
  0
VERTEX
  5
4C3
  8
0
 62
     9
 10
0.0
 20
0.0
 30
0.0
 70
   128
 71
    45
 72
    56
 73
    59
  0
VERTEX
  5
4C4
  8
0
 62
     9
 10
0.0
 20
0.0
 30
0.0
 70
   128
 71
    56
 72
    57
 73
    59
  0
VERTEX
  5
4C5
  8
0
 62
     9
 10
0.0
 20
0.0
 30
0.0
 70
   128
 71
    58
 72
    60
 73
    45
  0
VERTEX
  5
4C6
  8
0
 62
     9
 10
0.0
 20
0.0
 30
0.0
 70
   128
 71
    60
 72
    50
 73
    45
  0
VERTEX
  5
4C7
  8
0
 62
     9
 10
0.0
 20
0.0
 30
0.0
 70
   128
 71
    63
 72
    62
 73
    61
  0
VERTEX
  5
4C8
  8
0
 62
     9
 10
0.0
 20
0.0
 30
0.0
 70
   128
 71
    65
 72
    61
 73
    64
  0
VERTEX
  5
4C9
  8
0
 62
     9
 10
0.0
 20
0.0
 30
0.0
 70
   128
 71
    64
 72
    67
 73
    66
  0
VERTEX
  5
4CA
  8
0
 62
     9
 10
0.0
 20
0.0
 30
0.0
 70
   128
 71
    66
 72
    67
 73
    68
  0
VERTEX
  5
4CB
  8
0
 62
     9
 10
0.0
 20
0.0
 30
0.0
 70
   128
 71
    70
 72
    68
 73
    69
  0
VERTEX
  5
4CC
  8
0
 62
     9
 10
0.0
 20
0.0
 30
0.0
 70
   128
 71
    69
 72
    53
 73
    54
  0
VERTEX
  5
4CD
  8
0
 62
     9
 10
0.0
 20
0.0
 30
0.0
 70
   128
 71
    69
 72
    54
 73
    70
  0
VERTEX
  5
4CE
  8
0
 62
     9
 10
0.0
 20
0.0
 30
0.0
 70
   128
 71
    68
 72
    70
 73
    66
  0
VERTEX
  5
4CF
  8
0
 62
     9
 10
0.0
 20
0.0
 30
0.0
 70
   128
 71
    64
 72
    66
 73
    65
  0
VERTEX
  5
4D0
  8
0
 62
     9
 10
0.0
 20
0.0
 30
0.0
 70
   128
 71
    72
 72
    71
 73
    62
  0
VERTEX
  5
4D1
  8
0
 62
     9
 10
0.0
 20
0.0
 30
0.0
 70
   128
 71
    74
 72
    73
 73
    71
  0
VERTEX
  5
4D2
  8
0
 62
     9
 10
0.0
 20
0.0
 30
0.0
 70
   128
 71
    73
 72
    62
 73
    71
  0
VERTEX
  5
4D3
  8
0
 62
     9
 10
0.0
 20
0.0
 30
0.0
 70
   128
 71
    71
 72
    75
 73
    74
  0
VERTEX
  5
4D4
  8
0
 62
     9
 10
0.0
 20
0.0
 30
0.0
 70
   128
 71
    77
 72
    76
 73
    75
  0
VERTEX
  5
4D5
  8
0
 62
     9
 10
0.0
 20
0.0
 30
0.0
 70
   128
 71
    76
 72
    74
 73
    75
  0
VERTEX
  5
4D6
  8
0
 62
     9
 10
0.0
 20
0.0
 30
0.0
 70
   128
 71
    79
 72
    78
 73
    77
  0
VERTEX
  5
4D7
  8
0
 62
     9
 10
0.0
 20
0.0
 30
0.0
 70
   128
 71
    77
 72
    80
 73
    79
  0
VERTEX
  5
4D8
  8
0
 62
     9
 10
0.0
 20
0.0
 30
0.0
 70
   128
 71
    75
 72
    80
 73
    77
  0
VERTEX
  5
4D9
  8
0
 62
     9
 10
0.0
 20
0.0
 30
0.0
 70
   128
 71
    83
 72
    82
 73
    81
  0
VERTEX
  5
4DA
  8
0
 62
     9
 10
0.0
 20
0.0
 30
0.0
 70
   128
 71
    81
 72
    85
 73
    84
  0
VERTEX
  5
4DB
  8
0
 62
     9
 10
0.0
 20
0.0
 30
0.0
 70
   128
 71
    85
 72
    78
 73
    84
  0
VERTEX
  5
4DC
  8
0
 62
     9
 10
0.0
 20
0.0
 30
0.0
 70
   128
 71
    81
 72
    84
 73
    83
  0
VERTEX
  5
4DD
  8
0
 62
     9
 10
0.0
 20
0.0
 30
0.0
 70
   128
 71
    86
 72
    82
 73
    83
  0
VERTEX
  5
4DE
  8
0
 62
     9
 10
0.0
 20
0.0
 30
0.0
 70
   128
 71
    83
 72
    87
 73
    86
  0
VERTEX
  5
4DF
  8
0
 62
     9
 10
0.0
 20
0.0
 30
0.0
 70
   128
 71
    87
 72
    89
 73
    88
  0
VERTEX
  5
4E0
  8
0
 62
     9
 10
0.0
 20
0.0
 30
0.0
 70
   128
 71
    88
 72
    86
 73
    87
  0
VERTEX
  5
4E1
  8
0
 62
     9
 10
0.0
 20
0.0
 30
0.0
 70
   128
 71
    91
 72
    89
 73
    90
  0
VERTEX
  5
4E2
  8
0
 62
     9
 10
0.0
 20
0.0
 30
0.0
 70
   128
 71
    90
 72
    92
 73
    91
  0
VERTEX
  5
4E3
  8
0
 62
     9
 10
0.0
 20
0.0
 30
0.0
 70
   128
 71
    90
 72
     4
 73
    92
  0
VERTEX
  5
4E4
  8
0
 62
     9
 10
0.0
 20
0.0
 30
0.0
 70
   128
 71
    90
 72
     3
 73
     4
  0
VERTEX
  5
4E5
  8
0
 62
     9
 10
0.0
 20
0.0
 30
0.0
 70
   128
 71
    89
 72
    91
 73
    88
  0
VERTEX
  5
4E6
  8
0
 62
     9
 10
0.0
 20
0.0
 30
0.0
 70
   128
 71
    78
 72
    79
 73
    84
  0
VERTEX
  5
4E7
  8
0
 62
     9
 10
0.0
 20
0.0
 30
0.0
 70
   128
 71
    62
 72
    63
 73
    72
  0
VERTEX
  5
4E8
  8
0
 62
     9
 10
0.0
 20
0.0
 30
0.0
 70
   128
 71
    61
 72
    65
 73
    63
  0
VERTEX
  5
4E9
  8
0
 62
     9
 10
0.0
 20
0.0
 30
0.0
 70
   128
 71
    52
 72
    56
 73
    55
  0
VERTEX
  5
4EA
  8
0
 62
     9
 10
0.0
 20
0.0
 30
0.0
 70
   128
 71
    42
 72
    46
 73
    44
  0
VERTEX
  5
4EB
  8
0
 62
     9
 10
0.0
 20
0.0
 30
0.0
 70
   128
 71
    31
 72
    51
 73
    32
  0
VERTEX
  5
4EC
  8
0
 62
     9
 10
0.0
 20
0.0
 30
0.0
 70
   128
 71
    22
 72
    37
 73
    30
  0
VERTEX
  5
4ED
  8
0
 62
     9
 10
0.0
 20
0.0
 30
0.0
 70
   128
 71
    13
 72
    28
 73
    12
  0
VERTEX
  5
4EE
  8
0
 62
     9
 10
0.0
 20
0.0
 30
0.0
 70
   128
 71
     2
 72
     8
 73
     1
  0
SEQEND
  5
4EF
  8
0
 62
     9
  0
ENDBLK
  5
4F2
  8
0
  0
BLOCK
  8
0
  2
E3_NODE_18_
 70
     0
 10
0.0
 20
0.0
 30
0.0
  3
E3_NODE_18_
  1

  0
POLYLINE
  5
4F4
  8
0
 62
     9
 66
     1
 10
0.0
 20
0.0
 30
0.0
 70
    64
 71
     5
 72
     3
  0
VERTEX
  5
4F5
  8
0
 10
-4.763999938964844
 20
62.3390007019043
 30
24.36400032043457
 70
   192
  0
VERTEX
  5
4F6
  8
0
 10
-21.47699928283691
 20
62.18000030517578
 30
30.44499969482422
 70
   192
  0
VERTEX
  5
4F7
  8
0
 10
-38.18899917602539
 20
62.3390007019043
 30
24.36400032043457
 70
   192
  0
VERTEX
  5
4F8
  8
0
 10
-46.85300064086914
 20
62.71200180053711
 30
10.11200046539307
 70
   192
  0
VERTEX
  5
4F9
  8
0
 10
3.900000095367432
 20
62.71200180053711
 30
10.11200046539307
 70
   192
  0
VERTEX
  5
4FA
  8
0
 62
     9
 10
0.0
 20
0.0
 30
0.0
 70
   128
 71
     3
 72
     2
 73
     1
  0
VERTEX
  5
4FB
  8
0
 62
     9
 10
0.0
 20
0.0
 30
0.0
 70
   128
 71
     1
 72
     5
 73
     4
  0
VERTEX
  5
4FC
  8
0
 62
     9
 10
0.0
 20
0.0
 30
0.0
 70
   128
 71
     1
 72
     4
 73
     3
  0
SEQEND
  5
4FD
  8
0
 62
     9
  0
ENDBLK
  5
500
  8
0
  0
BLOCK
  8
0
  2
E3_NODE_19_
 70
     0
 10
0.0
 20
0.0
 30
0.0
  3
E3_NODE_19_
  1

  0
POLYLINE
  5
502
  8
0
 62
     9
 66
     1
 10
0.0
 20
0.0
 30
0.0
 70
    64
 71
    31
 72
    31
  0
VERTEX
  5
503
  8
0
 10
-19.94799995422363
 20
68.1760025024414
 30
0.2290000021457672
 70
   192
  0
VERTEX
  5
504
  8
0
 10
2.338000059127808
 20
71.84700012207031
 30
-5.748000144958496
 70
   192
  0
VERTEX
  5
505
  8
0
 10
4.238999843597412
 20
67.87200164794922
 30
0.7459999918937683
 70
   192
  0
VERTEX
  5
506
  8
0
 10
4.500999927520752
 20
66.31099700927734
 30
3.457000017166138
 70
   192
  0
VERTEX
  5
507
  8
0
 10
0.9330000281333923
 20
73.45700073242188
 30
-8.199000358581543
 70
   192
  0
VERTEX
  5
508
  8
0
 10
1.616999983787537
 20
72.80599975585938
 30
-7.234000205993652
 70
   192
  0
VERTEX
  5
509
  8
0
 10
-12.6560001373291
 20
81.34700012207031
 30
-19.33699989318848
 70
   192
  0
VERTEX
  5
50A
  8
0
 10
-8.015000343322754
 20
79.84700012207031
 30
-17.35199928283691
 70
   192
  0
VERTEX
  5
50B
  8
0
 10
-2.867000102996826
 20
76.94400024414062
 30
-13.34099960327148
 70
   192
  0
VERTEX
  5
50C
  8
0
 10
-2.273000001907349
 20
76.51000213623047
 30
-12.72200012207031
 70
   192
  0
VERTEX
  5
50D
  8
0
 10
-15.33100032806396
 20
82.08999633789062
 30
-20.31399917602539
 70
   192
  0
VERTEX
  5
50E
  8
0
 10
-14.34000015258789
 20
81.89199829101562
 30
-20.0580005645752
 70
   192
  0
VERTEX
  5
50F
  8
0
 10
-23.54100036621094
 20
82.58699798583984
 30
-20.95599937438965
 70
   192
  0
VERTEX
  5
510
  8
0
 10
-21.49200057983398
 20
82.6500015258789
 30
-21.03700065612793
 70
   192
  0
VERTEX
  5
511
  8
0
 10
-29.60099983215332
 20
81.66300201416016
 30
-19.76000022888184
 70
   192
  0
VERTEX
  5
512
  8
0
 10
-30.36499977111816
 20
81.45600128173828
 30
-19.48900032043457
 70
   192
  0
VERTEX
  5
513
  8
0
 10
-39.43500137329102
 20
77.39199829101562
 30
-13.97399997711182
 70
   192
  0
VERTEX
  5
514
  8
0
 10
-36.58700180053711
 20
79.06099700927734
 30
-16.28700065612793
 70
   192
  0
VERTEX
  5
515
  8
0
 10
-43.58399963378906
 20
73.93199920654297
 30
-8.944000244140625
 70
   192
  0
VERTEX
  5
516
  8
0
 10
-31.0310001373291
 20
81.2760009765625
 30
-19.25300025939941
 70
   192
  0
VERTEX
  5
517
  8
0
 10
-43.96699905395508
 20
73.48200225830078
 30
-8.258000373840332
 70
   192
  0
VERTEX
  5
518
  8
0
 10
-47.41500091552734
 20
66.7030029296875
 30
2.766999959945679
 70
   192
  0
VERTEX
  5
519
  8
0
 10
-21.47299957275391
 20
63.30500030517578
 30
8.972999572753906
 70
   192
  0
VERTEX
  5
51A
  8
0
 10
-47.01800155639648
 20
63.31499862670898
 30
8.977999687194824
 70
   192
  0
VERTEX
  5
51B
  8
0
 10
-47.04499816894531
 20
68.38200378417969
 30
-0.1190000027418137
 70
   192
  0
VERTEX
  5
51C
  8
0
 10
-44.91699981689453
 20
72.36299896240234
 30
-6.551000118255615
 70
   192
  0
VERTEX
  5
51D
  8
0
 10
4.071000099182129
 20
63.3129997253418
 30
8.977999687194824
 70
   192
  0
VERTEX
  5
51E
  8
0
 10
4.031000137329102
 20
63.03300094604492
 30
9.494999885559082
 70
   192
  0
VERTEX
  5
51F
  8
0
 10
-46.85300064086914
 20
62.71200180053711
 30
10.11200046539307
 70
   192
  0
VERTEX
  5
520
  8
0
 10
-46.98500061035156
 20
63.03300094604492
 30
9.494999885559082
 70
   192
  0
VERTEX
  5
521
  8
0
 10
3.900000095367432
 20
62.71200180053711
 30
10.11200046539307
 70
   192
  0
VERTEX
  5
522
  8
0
 62
     9
 10
0.0
 20
0.0
 30
0.0
 70
   128
 71
     3
 72
     2
 73
     1
  0
VERTEX
  5
523
  8
0
 62
     9
 10
0.0
 20
0.0
 30
0.0
 70
   128
 71
     1
 72
     4
 73
     3
  0
VERTEX
  5
524
  8
0
 62
     9
 10
0.0
 20
0.0
 30
0.0
 70
   128
 71
     6
 72
     5
 73
     1
  0
VERTEX
  5
525
  8
0
 62
     9
 10
0.0
 20
0.0
 30
0.0
 70
   128
 71
     1
 72
     2
 73
     6
  0
VERTEX
  5
526
  8
0
 62
     9
 10
0.0
 20
0.0
 30
0.0
 70
   128
 71
     8
 72
     7
 73
     1
  0
VERTEX
  5
527
  8
0
 62
     9
 10
0.0
 20
0.0
 30
0.0
 70
   128
 71
     1
 72
     9
 73
     8
  0
VERTEX
  5
528
  8
0
 62
     9
 10
0.0
 20
0.0
 30
0.0
 70
   128
 71
     1
 72
    10
 73
     9
  0
VERTEX
  5
529
  8
0
 62
     9
 10
0.0
 20
0.0
 30
0.0
 70
   128
 71
     1
 72
     5
 73
    10
  0
VERTEX
  5
52A
  8
0
 62
     9
 10
0.0
 20
0.0
 30
0.0
 70
   128
 71
    12
 72
    11
 73
     1
  0
VERTEX
  5
52B
  8
0
 62
     9
 10
0.0
 20
0.0
 30
0.0
 70
   128
 71
    14
 72
    13
 73
     1
  0
VERTEX
  5
52C
  8
0
 62
     9
 10
0.0
 20
0.0
 30
0.0
 70
   128
 71
    13
 72
    15
 73
     1
  0
VERTEX
  5
52D
  8
0
 62
     9
 10
0.0
 20
0.0
 30
0.0
 70
   128
 71
    15
 72
    16
 73
     1
  0
VERTEX
  5
52E
  8
0
 62
     9
 10
0.0
 20
0.0
 30
0.0
 70
   128
 71
     1
 72
    11
 73
    14
  0
VERTEX
  5
52F
  8
0
 62
     9
 10
0.0
 20
0.0
 30
0.0
 70
   128
 71
    18
 72
    17
 73
     1
  0
VERTEX
  5
530
  8
0
 62
     9
 10
0.0
 20
0.0
 30
0.0
 70
   128
 71
    17
 72
    19
 73
     1
  0
VERTEX
  5
531
  8
0
 62
     9
 10
0.0
 20
0.0
 30
0.0
 70
   128
 71
     1
 72
    20
 73
    18
  0
VERTEX
  5
532
  8
0
 62
     9
 10
0.0
 20
0.0
 30
0.0
 70
   128
 71
    19
 72
    21
 73
     1
  0
VERTEX
  5
533
  8
0
 62
     9
 10
0.0
 20
0.0
 30
0.0
 70
   128
 71
     1
 72
    16
 73
    20
  0
VERTEX
  5
534
  8
0
 62
     9
 10
0.0
 20
0.0
 30
0.0
 70
   128
 71
     1
 72
     7
 73
    12
  0
VERTEX
  5
535
  8
0
 62
     9
 10
0.0
 20
0.0
 30
0.0
 70
   128
 71
    23
 72
     1
 73
    22
  0
VERTEX
  5
536
  8
0
 62
     9
 10
0.0
 20
0.0
 30
0.0
 70
   128
 71
    22
 72
    24
 73
    23
  0
VERTEX
  5
537
  8
0
 62
     9
 10
0.0
 20
0.0
 30
0.0
 70
   128
 71
     1
 72
    25
 73
    22
  0
VERTEX
  5
538
  8
0
 62
     9
 10
0.0
 20
0.0
 30
0.0
 70
   128
 71
     1
 72
    26
 73
    25
  0
VERTEX
  5
539
  8
0
 62
     9
 10
0.0
 20
0.0
 30
0.0
 70
   128
 71
    23
 72
    27
 73
     1
  0
VERTEX
  5
53A
  8
0
 62
     9
 10
0.0
 20
0.0
 30
0.0
 70
   128
 71
     1
 72
    21
 73
    26
  0
VERTEX
  5
53B
  8
0
 62
     9
 10
0.0
 20
0.0
 30
0.0
 70
   128
 71
    28
 72
    27
 73
    23
  0
VERTEX
  5
53C
  8
0
 62
     9
 10
0.0
 20
0.0
 30
0.0
 70
   128
 71
    30
 72
    29
 73
    23
  0
VERTEX
  5
53D
  8
0
 62
     9
 10
0.0
 20
0.0
 30
0.0
 70
   128
 71
    23
 72
    24
 73
    30
  0
VERTEX
  5
53E
  8
0
 62
     9
 10
0.0
 20
0.0
 30
0.0
 70
   128
 71
    29
 72
    31
 73
    23
  0
VERTEX
  5
53F
  8
0
 62
     9
 10
0.0
 20
0.0
 30
0.0
 70
   128
 71
    23
 72
    31
 73
    28
  0
VERTEX
  5
540
  8
0
 62
     9
 10
0.0
 20
0.0
 30
0.0
 70
   128
 71
     1
 72
    27
 73
     4
  0
SEQEND
  5
541
  8
0
 62
     9
  0
ENDBLK
  5
544
  8
0
  0
BLOCK
  8
0
  2
E3_NODE_20_
 70
     0
 10
0.0
 20
0.0
 30
0.0
  3
E3_NODE_20_
  1

  0
POLYLINE
  5
546
  8
0
 62
     9
 66
     1
 10
0.0
 20
0.0
 30
0.0
 70
    64
 71
     5
 72
     3
  0
VERTEX
  5
547
  8
0
 10
-25.31900024414062
 20
85.37300109863281
 30
86.18199920654297
 70
   192
  0
VERTEX
  5
548
  8
0
 10
-17.63400077819824
 20
85.37300109863281
 30
86.18199920654297
 70
   192
  0
VERTEX
  5
549
  8
0
 10
-21.47699928283691
 20
86.81600189208984
 30
31.09000015258789
 70
   192
  0
VERTEX
  5
54A
  8
0
 10
-17.63400077819824
 20
86.822998046875
 30
30.80500030517578
 70
   192
  0
VERTEX
  5
54B
  8
0
 10
-25.31900024414062
 20
86.822998046875
 30
30.80500030517578
 70
   192
  0
VERTEX
  5
54C
  8
0
 62
     9
 10
0.0
 20
0.0
 30
0.0
 70
   128
 71
     3
 72
     2
 73
     1
  0
VERTEX
  5
54D
  8
0
 62
     9
 10
0.0
 20
0.0
 30
0.0
 70
   128
 71
     3
 72
     4
 73
     2
  0
VERTEX
  5
54E
  8
0
 62
     9
 10
0.0
 20
0.0
 30
0.0
 70
   128
 71
     1
 72
     5
 73
     3
  0
SEQEND
  5
54F
  8
0
 62
     9
  0
ENDBLK
  5
552
  8
0
  0
BLOCK
  8
0
  2
E3_NODE_21_
 70
     0
 10
0.0
 20
0.0
 30
0.0
  3
E3_NODE_21_
  1

  0
POLYLINE
  5
554
  8
0
 62
     9
 66
     1
 10
0.0
 20
0.0
 30
0.0
 70
    64
 71
    19
 72
    17
  0
VERTEX
  5
555
  8
0
 10
-25.47699928283691
 20
68.88200378417969
 30
91.48600006103516
 70
   192
  0
VERTEX
  5
556
  8
0
 10
-25.47299957275391
 20
67.02200317382812
 30
85.7020034790039
 70
   192
  0
VERTEX
  5
557
  8
0
 10
-17.47999954223633
 20
67.16899871826172
 30
87.5999984741211
 70
   192
  0
VERTEX
  5
558
  8
0
 10
-25.4689998626709
 20
71.68399810791016
 30
93.34200286865234
 70
   192
  0
VERTEX
  5
559
  8
0
 10
-17.47699928283691
 20
69.51799774169922
 30
92.23799896240234
 70
   192
  0
VERTEX
  5
55A
  8
0
 10
-17.48399925231934
 20
71.62799835205078
 30
93.33000183105469
 70
   192
  0
VERTEX
  5
55B
  8
0
 10
-17.48100090026855
 20
67.02200317382812
 30
85.7020034790039
 70
   192
  0
VERTEX
  5
55C
  8
0
 10
-17.49699974060059
 20
74.91400146484375
 30
95.03099822998047
 70
   192
  0
VERTEX
  5
55D
  8
0
 10
-25.46299934387207
 20
73.9489974975586
 30
94.84100341796875
 70
   192
  0
VERTEX
  5
55E
  8
0
 10
-25.40500068664551
 20
80.0
 30
94.2959976196289
 70
   192
  0
VERTEX
  5
55F
  8
0
 10
-17.55699920654297
 20
80.55599975585938
 30
93.90399932861328
 70
   192
  0
VERTEX
  5
560
  8
0
 10
-25.39800071716309
 20
80.44400024414062
 30
93.87000274658203
 70
   192
  0
VERTEX
  5
561
  8
0
 10
-17.62199974060059
 20
84.69499969482422
 30
89.41200256347656
 70
   192
  0
VERTEX
  5
562
  8
0
 10
-17.63400077819824
 20
85.36499786376953
 30
86.40299987792969
 70
   192
  0
VERTEX
  5
563
  8
0
 10
-25.31999969482422
 20
85.2969970703125
 30
87.1449966430664
 70
   192
  0
VERTEX
  5
564
  8
0
 10
-25.31900024414062
 20
85.37300109863281
 30
86.18199920654297
 70
   192
  0
VERTEX
  5
565
  8
0
 10
-17.63400077819824
 20
85.37300109863281
 30
86.18199920654297
 70
   192
  0
VERTEX
  5
566
  8
0
 10
-17.55999946594238
 20
80.87300109863281
 30
93.84100341796875
 70
   192
  0
VERTEX
  5
567
  8
0
 10
-25.33699989318848
 20
84.38600158691406
 30
90.08899688720703
 70
   192
  0
VERTEX
  5
568
  8
0
 62
     9
 10
0.0
 20
0.0
 30
0.0
 70
   128
 71
     3
 72
     2
 73
     1
  0
VERTEX
  5
569
  8
0
 62
     9
 10
0.0
 20
0.0
 30
0.0
 70
   128
 71
     5
 72
     1
 73
     4
  0
VERTEX
  5
56A
  8
0
 62
     9
 10
0.0
 20
0.0
 30
0.0
 70
   128
 71
     4
 72
     6
 73
     5
  0
VERTEX
  5
56B
  8
0
 62
     9
 10
0.0
 20
0.0
 30
0.0
 70
   128
 71
     3
 72
     7
 73
     2
  0
VERTEX
  5
56C
  8
0
 62
     9
 10
0.0
 20
0.0
 30
0.0
 70
   128
 71
     9
 72
     8
 73
     6
  0
VERTEX
  5
56D
  8
0
 62
     9
 10
0.0
 20
0.0
 30
0.0
 70
   128
 71
     8
 72
     9
 73
    10
  0
VERTEX
  5
56E
  8
0
 62
     9
 10
0.0
 20
0.0
 30
0.0
 70
   128
 71
    10
 72
    11
 73
     8
  0
VERTEX
  5
56F
  8
0
 62
     9
 10
0.0
 20
0.0
 30
0.0
 70
   128
 71
    10
 72
    12
 73
    11
  0
VERTEX
  5
570
  8
0
 62
     9
 10
0.0
 20
0.0
 30
0.0
 70
   128
 71
    15
 72
    14
 73
    13
  0
VERTEX
  5
571
  8
0
 62
     9
 10
0.0
 20
0.0
 30
0.0
 70
   128
 71
    14
 72
    15
 73
    16
  0
VERTEX
  5
572
  8
0
 62
     9
 10
0.0
 20
0.0
 30
0.0
 70
   128
 71
    16
 72
    17
 73
    14
  0
VERTEX
  5
573
  8
0
 62
     9
 10
0.0
 20
0.0
 30
0.0
 70
   128
 71
    19
 72
    13
 73
    18
  0
VERTEX
  5
574
  8
0
 62
     9
 10
0.0
 20
0.0
 30
0.0
 70
   128
 71
    18
 72
    11
 73
    12
  0
VERTEX
  5
575
  8
0
 62
     9
 10
0.0
 20
0.0
 30
0.0
 70
   128
 71
    18
 72
    12
 73
    19
  0
VERTEX
  5
576
  8
0
 62
     9
 10
0.0
 20
0.0
 30
0.0
 70
   128
 71
    13
 72
    19
 73
    15
  0
VERTEX
  5
577
  8
0
 62
     9
 10
0.0
 20
0.0
 30
0.0
 70
   128
 71
     6
 72
     4
 73
     9
  0
VERTEX
  5
578
  8
0
 62
     9
 10
0.0
 20
0.0
 30
0.0
 70
   128
 71
     1
 72
     5
 73
     3
  0
SEQEND
  5
579
  8
0
 62
     9
  0
ENDBLK
  5
57C
  8
0
  0
BLOCK
  8
0
  2
E3_NODE_22_
 70
     0
 10
0.0
 20
0.0
 30
0.0
  3
E3_NODE_22_
  1

  0
POLYLINE
  5
57E
  8
0
 62
     9
 66
     1
 10
0.0
 20
0.0
 30
0.0
 70
    64
 71
     5
 72
     3
  0
VERTEX
  5
57F
  8
0
 10
-25.47299957275391
 20
67.02200317382812
 30
85.7020034790039
 70
   192
  0
VERTEX
  5
580
  8
0
 10
-25.47299957275391
 20
68.47200012207031
 30
30.30100059509277
 70
   192
  0
VERTEX
  5
581
  8
0
 10
-21.47699928283691
 20
68.46399688720703
 30
30.61000061035156
 70
   192
  0
VERTEX
  5
582
  8
0
 10
-17.48100090026855
 20
67.02200317382812
 30
85.7020034790039
 70
   192
  0
VERTEX
  5
583
  8
0
 10
-17.48100090026855
 20
68.47200012207031
 30
30.30100059509277
 70
   192
  0
VERTEX
  5
584
  8
0
 62
     9
 10
0.0
 20
0.0
 30
0.0
 70
   128
 71
     3
 72
     2
 73
     1
  0
VERTEX
  5
585
  8
0
 62
     9
 10
0.0
 20
0.0
 30
0.0
 70
   128
 71
     1
 72
     4
 73
     3
  0
VERTEX
  5
586
  8
0
 62
     9
 10
0.0
 20
0.0
 30
0.0
 70
   128
 71
     4
 72
     5
 73
     3
  0
SEQEND
  5
587
  8
0
 62
     9
  0
ENDBLK
  5
58A
  8
0
  0
BLOCK
  8
0
  2
E3_NODE_23_
 70
     0
 10
0.0
 20
0.0
 30
0.0
  3
E3_NODE_23_
  1

  0
POLYLINE
  5
58C
  8
0
 62
     9
 66
     1
 10
0.0
 20
0.0
 30
0.0
 70
    64
 71
    12
 72
    11
  0
VERTEX
  5
58D
  8
0
 10
-25.46500015258789
 20
73.73300170898438
 30
89.78600311279297
 70
   192
  0
VERTEX
  5
58E
  8
0
 10
-25.39800071716309
 20
80.44400024414062
 30
93.87000274658203
 70
   192
  0
VERTEX
  5
58F
  8
0
 10
-25.33699989318848
 20
84.38600158691406
 30
90.08899688720703
 70
   192
  0
VERTEX
  5
590
  8
0
 10
-25.31999969482422
 20
85.2969970703125
 30
87.1449966430664
 70
   192
  0
VERTEX
  5
591
  8
0
 10
-25.31900024414062
 20
85.37300109863281
 30
86.18199920654297
 70
   192
  0
VERTEX
  5
592
  8
0
 10
-25.31900024414062
 20
86.822998046875
 30
30.80500030517578
 70
   192
  0
VERTEX
  5
593
  8
0
 10
-25.47299957275391
 20
68.47200012207031
 30
30.30100059509277
 70
   192
  0
VERTEX
  5
594
  8
0
 10
-25.47299957275391
 20
67.02200317382812
 30
85.7020034790039
 70
   192
  0
VERTEX
  5
595
  8
0
 10
-25.4689998626709
 20
71.68399810791016
 30
93.34200286865234
 70
   192
  0
VERTEX
  5
596
  8
0
 10
-25.46299934387207
 20
73.9489974975586
 30
94.84100341796875
 70
   192
  0
VERTEX
  5
597
  8
0
 10
-25.40500068664551
 20
80.0
 30
94.2959976196289
 70
   192
  0
VERTEX
  5
598
  8
0
 10
-25.47699928283691
 20
68.88200378417969
 30
91.48600006103516
 70
   192
  0
VERTEX
  5
599
  8
0
 62
     9
 10
0.0
 20
0.0
 30
0.0
 70
   128
 71
     3
 72
     2
 73
     1
  0
VERTEX
  5
59A
  8
0
 62
     9
 10
0.0
 20
0.0
 30
0.0
 70
   128
 71
     1
 72
     4
 73
     3
  0
VERTEX
  5
59B
  8
0
 62
     9
 10
0.0
 20
0.0
 30
0.0
 70
   128
 71
     1
 72
     5
 73
     4
  0
VERTEX
  5
59C
  8
0
 62
     9
 10
0.0
 20
0.0
 30
0.0
 70
   128
 71
     8
 72
     7
 73
     6
  0
VERTEX
  5
59D
  8
0
 62
     9
 10
0.0
 20
0.0
 30
0.0
 70
   128
 71
     6
 72
     1
 73
     8
  0
VERTEX
  5
59E
  8
0
 62
     9
 10
0.0
 20
0.0
 30
0.0
 70
   128
 71
    10
 72
     9
 73
     1
  0
VERTEX
  5
59F
  8
0
 62
     9
 10
0.0
 20
0.0
 30
0.0
 70
   128
 71
     1
 72
    11
 73
    10
  0
VERTEX
  5
5A0
  8
0
 62
     9
 10
0.0
 20
0.0
 30
0.0
 70
   128
 71
    12
 72
     8
 73
     1
  0
VERTEX
  5
5A1
  8
0
 62
     9
 10
0.0
 20
0.0
 30
0.0
 70
   128
 71
     1
 72
     9
 73
    12
  0
VERTEX
  5
5A2
  8
0
 62
     9
 10
0.0
 20
0.0
 30
0.0
 70
   128
 71
     1
 72
     2
 73
    11
  0
VERTEX
  5
5A3
  8
0
 62
     9
 10
0.0
 20
0.0
 30
0.0
 70
   128
 71
     1
 72
     6
 73
     5
  0
SEQEND
  5
5A4
  8
0
 62
     9
  0
ENDBLK
  5
5A7
  8
0
  0
BLOCK
  8
0
  2
E3_NODE_24_
 70
     0
 10
0.0
 20
0.0
 30
0.0
  3
E3_NODE_24_
  1

  0
POLYLINE
  5
5A9
  8
0
 62
     9
 66
     1
 10
0.0
 20
0.0
 30
0.0
 70
    64
 71
    13
 72
    12
  0
VERTEX
  5
5AA
  8
0
 10
-17.48399925231934
 20
71.62799835205078
 30
93.33000183105469
 70
   192
  0
VERTEX
  5
5AB
  8
0
 10
-17.47699928283691
 20
69.51799774169922
 30
92.23799896240234
 70
   192
  0
VERTEX
  5
5AC
  8
0
 10
-17.47999954223633
 20
67.16899871826172
 30
87.5999984741211
 70
   192
  0
VERTEX
  5
5AD
  8
0
 10
-17.48100090026855
 20
67.02200317382812
 30
85.7020034790039
 70
   192
  0
VERTEX
  5
5AE
  8
0
 10
-17.48100090026855
 20
68.47200012207031
 30
30.30100059509277
 70
   192
  0
VERTEX
  5
5AF
  8
0
 10
-17.55699920654297
 20
80.55599975585938
 30
93.90399932861328
 70
   192
  0
VERTEX
  5
5B0
  8
0
 10
-17.49699974060059
 20
74.91400146484375
 30
95.03099822998047
 70
   192
  0
VERTEX
  5
5B1
  8
0
 10
-17.59099960327148
 20
82.96499633789062
 30
90.04299926757812
 70
   192
  0
VERTEX
  5
5B2
  8
0
 10
-17.63400077819824
 20
85.37300109863281
 30
86.18199920654297
 70
   192
  0
VERTEX
  5
5B3
  8
0
 10
-17.63400077819824
 20
85.36499786376953
 30
86.40299987792969
 70
   192
  0
VERTEX
  5
5B4
  8
0
 10
-17.62199974060059
 20
84.69499969482422
 30
89.41200256347656
 70
   192
  0
VERTEX
  5
5B5
  8
0
 10
-17.55999946594238
 20
80.87300109863281
 30
93.84100341796875
 70
   192
  0
VERTEX
  5
5B6
  8
0
 10
-17.63400077819824
 20
86.822998046875
 30
30.80500030517578
 70
   192
  0
VERTEX
  5
5B7
  8
0
 62
     9
 10
0.0
 20
0.0
 30
0.0
 70
   128
 71
     3
 72
     2
 73
     1
  0
VERTEX
  5
5B8
  8
0
 62
     9
 10
0.0
 20
0.0
 30
0.0
 70
   128
 71
     1
 72
     4
 73
     3
  0
VERTEX
  5
5B9
  8
0
 62
     9
 10
0.0
 20
0.0
 30
0.0
 70
   128
 71
     7
 72
     6
 73
     5
  0
VERTEX
  5
5BA
  8
0
 62
     9
 10
0.0
 20
0.0
 30
0.0
 70
   128
 71
     5
 72
     1
 73
     7
  0
VERTEX
  5
5BB
  8
0
 62
     9
 10
0.0
 20
0.0
 30
0.0
 70
   128
 71
    10
 72
     9
 73
     8
  0
VERTEX
  5
5BC
  8
0
 62
     9
 10
0.0
 20
0.0
 30
0.0
 70
   128
 71
    12
 72
    11
 73
     8
  0
VERTEX
  5
5BD
  8
0
 62
     9
 10
0.0
 20
0.0
 30
0.0
 70
   128
 71
     8
 72
     6
 73
    12
  0
VERTEX
  5
5BE
  8
0
 62
     9
 10
0.0
 20
0.0
 30
0.0
 70
   128
 71
     9
 72
    13
 73
     5
  0
VERTEX
  5
5BF
  8
0
 62
     9
 10
0.0
 20
0.0
 30
0.0
 70
   128
 71
     5
 72
     8
 73
     9
  0
VERTEX
  5
5C0
  8
0
 62
     9
 10
0.0
 20
0.0
 30
0.0
 70
   128
 71
     5
 72
     6
 73
     8
  0
VERTEX
  5
5C1
  8
0
 62
     9
 10
0.0
 20
0.0
 30
0.0
 70
   128
 71
     8
 72
    11
 73
    10
  0
VERTEX
  5
5C2
  8
0
 62
     9
 10
0.0
 20
0.0
 30
0.0
 70
   128
 71
     1
 72
     5
 73
     4
  0
SEQEND
  5
5C3
  8
0
 62
     9
  0
ENDBLK
  5
5C6
  8
0
  0
BLOCK
  8
0
  2
E3_NODE_25_
 70
     0
 10
0.0
 20
0.0
 30
0.0
  3
E3_NODE_25_
  1

  0
POLYLINE
  5
5C8
  8
0
 62
     9
 66
     1
 10
0.0
 20
0.0
 30
0.0
 70
    64
 71
     9
 72
     7
  0
VERTEX
  5
5C9
  8
0
 10
1.970999956130981
 20
6.422999858856201
 30
-83.7229995727539
 70
   192
  0
VERTEX
  5
5CA
  8
0
 10
5.177999973297119
 20
-11.76599979400635
 30
-83.7229995727539
 70
   192
  0
VERTEX
  5
5CB
  8
0
 10
-4.056000232696533
 20
-27.76099967956543
 30
-83.7229995727539
 70
   192
  0
VERTEX
  5
5CC
  8
0
 10
-21.41200065612793
 20
-34.07699966430664
 30
-83.7229995727539
 70
   192
  0
VERTEX
  5
5CD
  8
0
 10
-12.17700004577637
 20
18.29400062561035
 30
-83.7229995727539
 70
   192
  0
VERTEX
  5
5CE
  8
0
 10
-30.64599990844727
 20
18.29400062561035
 30
-83.7229995727539
 70
   192
  0
VERTEX
  5
5CF
  8
0
 10
-38.76699829101562
 20
-27.76099967956543
 30
-83.7229995727539
 70
   192
  0
VERTEX
  5
5D0
  8
0
 10
-48.00099945068359
 20
-11.76599979400635
 30
-83.7229995727539
 70
   192
  0
VERTEX
  5
5D1
  8
0
 10
-44.79399871826172
 20
6.422999858856201
 30
-83.7229995727539
 70
   192
  0
VERTEX
  5
5D2
  8
0
 62
     9
 10
0.0
 20
0.0
 30
0.0
 70
   128
 71
     3
 72
     2
 73
     1
  0
VERTEX
  5
5D3
  8
0
 62
     9
 10
0.0
 20
0.0
 30
0.0
 70
   128
 71
     1
 72
     5
 73
     4
  0
VERTEX
  5
5D4
  8
0
 62
     9
 10
0.0
 20
0.0
 30
0.0
 70
   128
 71
     8
 72
     7
 73
     6
  0
VERTEX
  5
5D5
  8
0
 62
     9
 10
0.0
 20
0.0
 30
0.0
 70
   128
 71
     5
 72
     6
 73
     4
  0
VERTEX
  5
5D6
  8
0
 62
     9
 10
0.0
 20
0.0
 30
0.0
 70
   128
 71
     7
 72
     4
 73
     6
  0
VERTEX
  5
5D7
  8
0
 62
     9
 10
0.0
 20
0.0
 30
0.0
 70
   128
 71
     6
 72
     9
 73
     8
  0
VERTEX
  5
5D8
  8
0
 62
     9
 10
0.0
 20
0.0
 30
0.0
 70
   128
 71
     1
 72
     4
 73
     3
  0
SEQEND
  5
5D9
  8
0
 62
     9
  0
ENDBLK
  5
5DC
  8
0
  0
BLOCK
  8
0
  2
E3_NODE_26_
 70
     0
 10
0.0
 20
0.0
 30
0.0
  3
E3_NODE_26_
  1

  0
POLYLINE
  5
5DE
  8
0
 62
     9
 66
     1
 10
0.0
 20
0.0
 30
0.0
 70
    64
 71
    30
 72
    30
  0
VERTEX
  5
5DF
  8
0
 10
-21.41200065612793
 20
-34.07699966430664
 30
-83.7229995727539
 70
   192
  0
VERTEX
  5
5E0
  8
0
 10
-4.056000232696533
 20
-27.76099967956543
 30
-83.7229995727539
 70
   192
  0
VERTEX
  5
5E1
  8
0
 10
-8.86400032043457
 20
-30.98500061035156
 30
-80.4229965209961
 70
   192
  0
VERTEX
  5
5E2
  8
0
 10
-4.570000171661377
 20
-27.18099975585938
 30
-80.4229965209961
 70
   192
  0
VERTEX
  5
5E3
  8
0
 10
5.177999973297119
 20
-11.76599979400635
 30
-83.7229995727539
 70
   192
  0
VERTEX
  5
5E4
  8
0
 10
4.888999938964844
 20
-11.6560001373291
 30
-80.4229965209961
 70
   192
  0
VERTEX
  5
5E5
  8
0
 10
0.8090000152587891
 20
-22.41500091552734
 30
-80.4229965209961
 70
   192
  0
VERTEX
  5
5E6
  8
0
 10
1.970999956130981
 20
6.422999858856201
 30
-83.7229995727539
 70
   192
  0
VERTEX
  5
5E7
  8
0
 10
3.834000110626221
 20
2.496999979019165
 30
-80.4229965209961
 70
   192
  0
VERTEX
  5
5E8
  8
0
 10
5.390999794006348
 20
-10.33199977874756
 30
-80.4229965209961
 70
   192
  0
VERTEX
  5
5E9
  8
0
 10
1.396999955177307
 20
6.026999950408936
 30
-80.4229965209961
 70
   192
  0
VERTEX
  5
5EA
  8
0
 10
-12.17700004577637
 20
18.29400062561035
 30
-83.7229995727539
 70
   192
  0
VERTEX
  5
5EB
  8
0
 10
-12.42899990081787
 20
17.81500053405762
 30
-80.4229965209961
 70
   192
  0
VERTEX
  5
5EC
  8
0
 10
-3.506999969482422
 20
13.13199996948242
 30
-80.4229965209961
 70
   192
  0
VERTEX
  5
5ED
  8
0
 10
-30.64599990844727
 20
18.29400062561035
 30
-83.7229995727539
 70
   192
  0
VERTEX
  5
5EE
  8
0
 10
-27.87299919128418
 20
19.13800048828125
 30
-80.4229965209961
 70
   192
  0
VERTEX
  5
5EF
  8
0
 10
-14.94999980926514
 20
19.13800048828125
 30
-80.4229965209961
 70
   192
  0
VERTEX
  5
5F0
  8
0
 10
-30.39500045776367
 20
17.81500053405762
 30
-80.4229965209961
 70
   192
  0
VERTEX
  5
5F1
  8
0
 10
-44.79399871826172
 20
6.422999858856201
 30
-83.7229995727539
 70
   192
  0
VERTEX
  5
5F2
  8
0
 10
-39.31600189208984
 20
13.13199996948242
 30
-80.4229965209961
 70
   192
  0
VERTEX
  5
5F3
  8
0
 10
-44.22100067138672
 20
6.026999950408936
 30
-80.4229965209961
 70
   192
  0
VERTEX
  5
5F4
  8
0
 10
-48.00099945068359
 20
-11.76599979400635
 30
-83.7229995727539
 70
   192
  0
VERTEX
  5
5F5
  8
0
 10
-48.21500015258789
 20
-10.33199977874756
 30
-80.4229965209961
 70
   192
  0
VERTEX
  5
5F6
  8
0
 10
-46.65700149536133
 20
2.496999979019165
 30
-80.4229965209961
 70
   192
  0
VERTEX
  5
5F7
  8
0
 10
-47.7130012512207
 20
-11.6560001373291
 30
-80.4229965209961
 70
   192
  0
VERTEX
  5
5F8
  8
0
 10
-38.76699829101562
 20
-27.76099967956543
 30
-83.7229995727539
 70
   192
  0
VERTEX
  5
5F9
  8
0
 10
-43.63199996948242
 20
-22.41500091552734
 30
-80.4229965209961
 70
   192
  0
VERTEX
  5
5FA
  8
0
 10
-38.25299835205078
 20
-27.18099975585938
 30
-80.4229965209961
 70
   192
  0
VERTEX
  5
5FB
  8
0
 10
-21.41200065612793
 20
-34.07699966430664
 30
-80.4229965209961
 70
   192
  0
VERTEX
  5
5FC
  8
0
 10
-33.95899963378906
 20
-30.98500061035156
 30
-80.4229965209961
 70
   192
  0
VERTEX
  5
5FD
  8
0
 62
     9
 10
0.0
 20
0.0
 30
0.0
 70
   128
 71
     3
 72
     2
 73
     1
  0
VERTEX
  5
5FE
  8
0
 62
     9
 10
0.0
 20
0.0
 30
0.0
 70
   128
 71
     3
 72
     4
 73
     2
  0
VERTEX
  5
5FF
  8
0
 62
     9
 10
0.0
 20
0.0
 30
0.0
 70
   128
 71
     7
 72
     6
 73
     5
  0
VERTEX
  5
600
  8
0
 62
     9
 10
0.0
 20
0.0
 30
0.0
 70
   128
 71
     5
 72
     2
 73
     7
  0
VERTEX
  5
601
  8
0
 62
     9
 10
0.0
 20
0.0
 30
0.0
 70
   128
 71
     9
 72
     8
 73
     5
  0
VERTEX
  5
602
  8
0
 62
     9
 10
0.0
 20
0.0
 30
0.0
 70
   128
 71
     5
 72
    10
 73
     9
  0
VERTEX
  5
603
  8
0
 62
     9
 10
0.0
 20
0.0
 30
0.0
 70
   128
 71
     9
 72
    11
 73
     8
  0
VERTEX
  5
604
  8
0
 62
     9
 10
0.0
 20
0.0
 30
0.0
 70
   128
 71
    14
 72
    13
 73
    12
  0
VERTEX
  5
605
  8
0
 62
     9
 10
0.0
 20
0.0
 30
0.0
 70
   128
 71
    12
 72
     8
 73
    14
  0
VERTEX
  5
606
  8
0
 62
     9
 10
0.0
 20
0.0
 30
0.0
 70
   128
 71
    16
 72
    15
 73
    12
  0
VERTEX
  5
607
  8
0
 62
     9
 10
0.0
 20
0.0
 30
0.0
 70
   128
 71
    12
 72
    17
 73
    16
  0
VERTEX
  5
608
  8
0
 62
     9
 10
0.0
 20
0.0
 30
0.0
 70
   128
 71
    16
 72
    18
 73
    15
  0
VERTEX
  5
609
  8
0
 62
     9
 10
0.0
 20
0.0
 30
0.0
 70
   128
 71
    20
 72
    19
 73
    15
  0
VERTEX
  5
60A
  8
0
 62
     9
 10
0.0
 20
0.0
 30
0.0
 70
   128
 71
    20
 72
    21
 73
    19
  0
VERTEX
  5
60B
  8
0
 62
     9
 10
0.0
 20
0.0
 30
0.0
 70
   128
 71
    24
 72
    23
 73
    22
  0
VERTEX
  5
60C
  8
0
 62
     9
 10
0.0
 20
0.0
 30
0.0
 70
   128
 71
    22
 72
    19
 73
    24
  0
VERTEX
  5
60D
  8
0
 62
     9
 10
0.0
 20
0.0
 30
0.0
 70
   128
 71
    23
 72
    25
 73
    22
  0
VERTEX
  5
60E
  8
0
 62
     9
 10
0.0
 20
0.0
 30
0.0
 70
   128
 71
    27
 72
    26
 73
    22
  0
VERTEX
  5
60F
  8
0
 62
     9
 10
0.0
 20
0.0
 30
0.0
 70
   128
 71
    27
 72
    28
 73
    26
  0
VERTEX
  5
610
  8
0
 62
     9
 10
0.0
 20
0.0
 30
0.0
 70
   128
 71
    30
 72
    29
 73
     1
  0
VERTEX
  5
611
  8
0
 62
     9
 10
0.0
 20
0.0
 30
0.0
 70
   128
 71
     1
 72
    26
 73
    30
  0
VERTEX
  5
612
  8
0
 62
     9
 10
0.0
 20
0.0
 30
0.0
 70
   128
 71
    26
 72
    28
 73
    30
  0
VERTEX
  5
613
  8
0
 62
     9
 10
0.0
 20
0.0
 30
0.0
 70
   128
 71
    22
 72
    25
 73
    27
  0
VERTEX
  5
614
  8
0
 62
     9
 10
0.0
 20
0.0
 30
0.0
 70
   128
 71
    19
 72
    21
 73
    24
  0
VERTEX
  5
615
  8
0
 62
     9
 10
0.0
 20
0.0
 30
0.0
 70
   128
 71
    15
 72
    18
 73
    20
  0
VERTEX
  5
616
  8
0
 62
     9
 10
0.0
 20
0.0
 30
0.0
 70
   128
 71
    12
 72
    13
 73
    17
  0
VERTEX
  5
617
  8
0
 62
     9
 10
0.0
 20
0.0
 30
0.0
 70
   128
 71
     8
 72
    11
 73
    14
  0
VERTEX
  5
618
  8
0
 62
     9
 10
0.0
 20
0.0
 30
0.0
 70
   128
 71
     5
 72
     6
 73
    10
  0
VERTEX
  5
619
  8
0
 62
     9
 10
0.0
 20
0.0
 30
0.0
 70
   128
 71
     2
 72
     4
 73
     7
  0
VERTEX
  5
61A
  8
0
 62
     9
 10
0.0
 20
0.0
 30
0.0
 70
   128
 71
     1
 72
    29
 73
     3
  0
SEQEND
  5
61B
  8
0
 62
     9
  0
ENDBLK
  5
61E
  8
0
  0
BLOCK
  8
0
  2
E3_NODE_27_
 70
     0
 10
0.0
 20
0.0
 30
0.0
  3
E3_NODE_27_
  1

  0
POLYLINE
  5
620
  8
0
 62
     9
 66
     1
 10
0.0
 20
0.0
 30
0.0
 70
    64
 71
    35
 72
    47
  0
VERTEX
  5
621
  8
0
 10
-21.41200065612793
 20
-34.07699966430664
 30
-80.4229965209961
 70
   192
  0
VERTEX
  5
622
  8
0
 10
-8.86400032043457
 20
-30.98500061035156
 30
-80.4229965209961
 70
   192
  0
VERTEX
  5
623
  8
0
 10
-15.11999988555908
 20
-19.06500053405762
 30
-78.93299865722656
 70
   192
  0
VERTEX
  5
624
  8
0
 10
-4.570000171661377
 20
-27.18099975585938
 30
-80.4229965209961
 70
   192
  0
VERTEX
  5
625
  8
0
 10
0.8090000152587891
 20
-22.41500091552734
 30
-80.4229965209961
 70
   192
  0
VERTEX
  5
626
  8
0
 10
-10.26900005340576
 20
-14.76799964904785
 30
-78.93299865722656
 70
   192
  0
VERTEX
  5
627
  8
0
 10
4.888999938964844
 20
-11.6560001373291
 30
-80.4229965209961
 70
   192
  0
VERTEX
  5
628
  8
0
 10
-7.971000194549561
 20
-8.708999633789062
 30
-78.93299865722656
 70
   192
  0
VERTEX
  5
629
  8
0
 10
5.390999794006348
 20
-10.33199977874756
 30
-80.4229965209961
 70
   192
  0
VERTEX
  5
62A
  8
0
 10
3.834000110626221
 20
2.496999979019165
 30
-80.4229965209961
 70
   192
  0
VERTEX
  5
62B
  8
0
 10
-8.753000259399414
 20
-2.276000022888184
 30
-78.93299865722656
 70
   192
  0
VERTEX
  5
62C
  8
0
 10
1.396999955177307
 20
6.026999950408936
 30
-80.4229965209961
 70
   192
  0
VERTEX
  5
62D
  8
0
 10
-3.506999969482422
 20
13.13199996948242
 30
-80.4229965209961
 70
   192
  0
VERTEX
  5
62E
  8
0
 10
-12.43400001525879
 20
3.056999921798706
 30
-78.93299865722656
 70
   192
  0
VERTEX
  5
62F
  8
0
 10
-12.42899990081787
 20
17.81500053405762
 30
-80.4229965209961
 70
   192
  0
VERTEX
  5
630
  8
0
 10
-18.17200088500977
 20
6.067999839782715
 30
-78.93299865722656
 70
   192
  0
VERTEX
  5
631
  8
0
 10
-14.94999980926514
 20
19.13800048828125
 30
-80.4229965209961
 70
   192
  0
VERTEX
  5
632
  8
0
 10
-27.87299919128418
 20
19.13800048828125
 30
-80.4229965209961
 70
   192
  0
VERTEX
  5
633
  8
0
 10
-24.65200042724609
 20
6.067999839782715
 30
-78.93299865722656
 70
   192
  0
VERTEX
  5
634
  8
0
 10
-30.39500045776367
 20
17.81500053405762
 30
-80.4229965209961
 70
   192
  0
VERTEX
  5
635
  8
0
 10
-39.31600189208984
 20
13.13199996948242
 30
-80.4229965209961
 70
   192
  0
VERTEX
  5
636
  8
0
 10
-30.38999938964844
 20
3.056999921798706
 30
-78.93299865722656
 70
   192
  0
VERTEX
  5
637
  8
0
 10
-44.22100067138672
 20
6.026999950408936
 30
-80.4229965209961
 70
   192
  0
VERTEX
  5
638
  8
0
 10
-34.07099914550781
 20
-2.276000022888184
 30
-78.93299865722656
 70
   192
  0
VERTEX
  5
639
  8
0
 10
-48.21500015258789
 20
-10.33199977874756
 30
-80.4229965209961
 70
   192
  0
VERTEX
  5
63A
  8
0
 10
-34.85200119018555
 20
-8.708999633789062
 30
-78.93299865722656
 70
   192
  0
VERTEX
  5
63B
  8
0
 10
-47.7130012512207
 20
-11.6560001373291
 30
-80.4229965209961
 70
   192
  0
VERTEX
  5
63C
  8
0
 10
-43.63199996948242
 20
-22.41500091552734
 30
-80.4229965209961
 70
   192
  0
VERTEX
  5
63D
  8
0
 10
-32.55400085449219
 20
-14.76799964904785
 30
-78.93299865722656
 70
   192
  0
VERTEX
  5
63E
  8
0
 10
-38.25299835205078
 20
-27.18099975585938
 30
-80.4229965209961
 70
   192
  0
VERTEX
  5
63F
  8
0
 10
-27.70400047302246
 20
-19.06500053405762
 30
-78.93299865722656
 70
   192
  0
VERTEX
  5
640
  8
0
 10
-21.41200065612793
 20
-20.61599922180176
 30
-78.93299865722656
 70
   192
  0
VERTEX
  5
641
  8
0
 10
-21.41200065612793
 20
-7.077000141143799
 30
-79.2760009765625
 70
   192
  0
VERTEX
  5
642
  8
0
 10
-33.95899963378906
 20
-30.98500061035156
 30
-80.4229965209961
 70
   192
  0
VERTEX
  5
643
  8
0
 10
-46.65700149536133
 20
2.496999979019165
 30
-80.4229965209961
 70
   192
  0
VERTEX
  5
644
  8
0
 62
     9
 10
0.0
 20
0.0
 30
0.0
 70
   128
 71
     3
 72
     2
 73
     1
  0
VERTEX
  5
645
  8
0
 62
     9
 10
0.0
 20
0.0
 30
0.0
 70
   128
 71
     6
 72
     5
 73
     4
  0
VERTEX
  5
646
  8
0
 62
     9
 10
0.0
 20
0.0
 30
0.0
 70
   128
 71
     4
 72
     2
 73
     3
  0
VERTEX
  5
647
  8
0
 62
     9
 10
0.0
 20
0.0
 30
0.0
 70
   128
 71
     6
 72
     8
 73
     7
  0
VERTEX
  5
648
  8
0
 62
     9
 10
0.0
 20
0.0
 30
0.0
 70
   128
 71
     7
 72
     5
 73
     6
  0
VERTEX
  5
649
  8
0
 62
     9
 10
0.0
 20
0.0
 30
0.0
 70
   128
 71
    11
 72
    10
 73
     9
  0
VERTEX
  5
64A
  8
0
 62
     9
 10
0.0
 20
0.0
 30
0.0
 70
   128
 71
    14
 72
    13
 73
    12
  0
VERTEX
  5
64B
  8
0
 62
     9
 10
0.0
 20
0.0
 30
0.0
 70
   128
 71
    12
 72
    10
 73
    11
  0
VERTEX
  5
64C
  8
0
 62
     9
 10
0.0
 20
0.0
 30
0.0
 70
   128
 71
    14
 72
    16
 73
    15
  0
VERTEX
  5
64D
  8
0
 62
     9
 10
0.0
 20
0.0
 30
0.0
 70
   128
 71
    15
 72
    13
 73
    14
  0
VERTEX
  5
64E
  8
0
 62
     9
 10
0.0
 20
0.0
 30
0.0
 70
   128
 71
    19
 72
    18
 73
    17
  0
VERTEX
  5
64F
  8
0
 62
     9
 10
0.0
 20
0.0
 30
0.0
 70
   128
 71
    22
 72
    21
 73
    20
  0
VERTEX
  5
650
  8
0
 62
     9
 10
0.0
 20
0.0
 30
0.0
 70
   128
 71
    20
 72
    18
 73
    19
  0
VERTEX
  5
651
  8
0
 62
     9
 10
0.0
 20
0.0
 30
0.0
 70
   128
 71
    22
 72
    24
 73
    23
  0
VERTEX
  5
652
  8
0
 62
     9
 10
0.0
 20
0.0
 30
0.0
 70
   128
 71
    23
 72
    21
 73
    22
  0
VERTEX
  5
653
  8
0
 62
     9
 10
0.0
 20
0.0
 30
0.0
 70
   128
 71
    24
 72
    26
 73
    25
  0
VERTEX
  5
654
  8
0
 62
     9
 10
0.0
 20
0.0
 30
0.0
 70
   128
 71
    29
 72
    28
 73
    27
  0
VERTEX
  5
655
  8
0
 62
     9
 10
0.0
 20
0.0
 30
0.0
 70
   128
 71
    27
 72
    25
 73
    26
  0
VERTEX
  5
656
  8
0
 62
     9
 10
0.0
 20
0.0
 30
0.0
 70
   128
 71
    29
 72
    31
 73
    30
  0
VERTEX
  5
657
  8
0
 62
     9
 10
0.0
 20
0.0
 30
0.0
 70
   128
 71
    30
 72
    28
 73
    29
  0
VERTEX
  5
658
  8
0
 62
     9
 10
0.0
 20
0.0
 30
0.0
 70
   128
 71
    31
 72
    32
 73
     1
  0
VERTEX
  5
659
  8
0
 62
     9
 10
0.0
 20
0.0
 30
0.0
 70
   128
 71
    32
 72
    31
 73
    33
  0
VERTEX
  5
65A
  8
0
 62
     9
 10
0.0
 20
0.0
 30
0.0
 70
   128
 71
    31
 72
    29
 73
    33
  0
VERTEX
  5
65B
  8
0
 62
     9
 10
0.0
 20
0.0
 30
0.0
 70
   128
 71
    29
 72
    26
 73
    33
  0
VERTEX
  5
65C
  8
0
 62
     9
 10
0.0
 20
0.0
 30
0.0
 70
   128
 71
    26
 72
    24
 73
    33
  0
VERTEX
  5
65D
  8
0
 62
     9
 10
0.0
 20
0.0
 30
0.0
 70
   128
 71
    24
 72
    22
 73
    33
  0
VERTEX
  5
65E
  8
0
 62
     9
 10
0.0
 20
0.0
 30
0.0
 70
   128
 71
    22
 72
    19
 73
    33
  0
VERTEX
  5
65F
  8
0
 62
     9
 10
0.0
 20
0.0
 30
0.0
 70
   128
 71
    19
 72
    16
 73
    33
  0
VERTEX
  5
660
  8
0
 62
     9
 10
0.0
 20
0.0
 30
0.0
 70
   128
 71
    16
 72
    14
 73
    33
  0
VERTEX
  5
661
  8
0
 62
     9
 10
0.0
 20
0.0
 30
0.0
 70
   128
 71
    14
 72
    11
 73
    33
  0
VERTEX
  5
662
  8
0
 62
     9
 10
0.0
 20
0.0
 30
0.0
 70
   128
 71
    11
 72
     8
 73
    33
  0
VERTEX
  5
663
  8
0
 62
     9
 10
0.0
 20
0.0
 30
0.0
 70
   128
 71
     8
 72
     6
 73
    33
  0
VERTEX
  5
664
  8
0
 62
     9
 10
0.0
 20
0.0
 30
0.0
 70
   128
 71
     6
 72
     3
 73
    33
  0
VERTEX
  5
665
  8
0
 62
     9
 10
0.0
 20
0.0
 30
0.0
 70
   128
 71
     3
 72
    32
 73
    33
  0
VERTEX
  5
666
  8
0
 62
     9
 10
0.0
 20
0.0
 30
0.0
 70
   128
 71
     1
 72
    34
 73
    31
  0
VERTEX
  5
667
  8
0
 62
     9
 10
0.0
 20
0.0
 30
0.0
 70
   128
 71
    31
 72
    34
 73
    30
  0
VERTEX
  5
668
  8
0
 62
     9
 10
0.0
 20
0.0
 30
0.0
 70
   128
 71
    27
 72
    26
 73
    29
  0
VERTEX
  5
669
  8
0
 62
     9
 10
0.0
 20
0.0
 30
0.0
 70
   128
 71
    25
 72
    35
 73
    24
  0
VERTEX
  5
66A
  8
0
 62
     9
 10
0.0
 20
0.0
 30
0.0
 70
   128
 71
    24
 72
    35
 73
    23
  0
VERTEX
  5
66B
  8
0
 62
     9
 10
0.0
 20
0.0
 30
0.0
 70
   128
 71
    20
 72
    19
 73
    22
  0
VERTEX
  5
66C
  8
0
 62
     9
 10
0.0
 20
0.0
 30
0.0
 70
   128
 71
    17
 72
    16
 73
    19
  0
VERTEX
  5
66D
  8
0
 62
     9
 10
0.0
 20
0.0
 30
0.0
 70
   128
 71
    16
 72
    17
 73
    15
  0
VERTEX
  5
66E
  8
0
 62
     9
 10
0.0
 20
0.0
 30
0.0
 70
   128
 71
    12
 72
    11
 73
    14
  0
VERTEX
  5
66F
  8
0
 62
     9
 10
0.0
 20
0.0
 30
0.0
 70
   128
 71
     9
 72
     8
 73
    11
  0
VERTEX
  5
670
  8
0
 62
     9
 10
0.0
 20
0.0
 30
0.0
 70
   128
 71
     8
 72
     9
 73
     7
  0
VERTEX
  5
671
  8
0
 62
     9
 10
0.0
 20
0.0
 30
0.0
 70
   128
 71
     4
 72
     3
 73
     6
  0
VERTEX
  5
672
  8
0
 62
     9
 10
0.0
 20
0.0
 30
0.0
 70
   128
 71
     1
 72
    32
 73
     3
  0
SEQEND
  5
673
  8
0
 62
     9
  0
ENDBLK
  5
676
  8
0
  0
ENDSEC
  0
SECTION
  2
ENTITIES
  0
INSERT
  5
4A
  8
LAYER_1
  2
E3_NODE
 10
0.0
 20
0.0
 30
0.0
  0
INSERT
  5
7D
  8
LAYER_1
  2
E3_NODE_1_
 10
0.0
 20
0.0
 30
0.0
  0
INSERT
  5
12B
  8
LAYER_1
  2
E3_NODE_2_
 10
0.0
 20
0.0
 30
0.0
  0
INSERT
  5
15D
  8
LAYER_1
  2
E3_NODE_3_
 10
0.0
 20
0.0
 30
0.0
  0
INSERT
  5
189
  8
LAYER_1
  2
E3_NODE_4_
 10
0.0
 20
0.0
 30
0.0
  0
INSERT
  5
1B9
  8
LAYER_1
  2
E3_NODE_5_
 10
0.0
 20
0.0
 30
0.0
  0
INSERT
  5
1CF
  8
LAYER_1
  2
E3_NODE_6_
 10
0.0
 20
0.0
 30
0.0
  0
INSERT
  5
1FF
  8
LAYER_1
  2
E3_NODE_7_
 10
0.0
 20
0.0
 30
0.0
  0
INSERT
  5
23B
  8
LAYER_1
  2
E3_NODE_8_
 10
0.0
 20
0.0
 30
0.0
  0
INSERT
  5
2A8
  8
LAYER_1
  2
E3_NODE_9_
 10
0.0
 20
0.0
 30
0.0
  0
INSERT
  5
2BA
  8
LAYER_1
  2
E3_NODE_10_
 10
0.0
 20
0.0
 30
0.0
  0
INSERT
  5
2DC
  8
LAYER_1
  2
E3_NODE_11_
 10
0.0
 20
0.0
 30
0.0
  0
INSERT
  5
2EE
  8
LAYER_1
  2
E3_NODE_12_
 10
0.0
 20
0.0
 30
0.0
  0
INSERT
  5
314
  8
LAYER_1
  2
E3_NODE_13_
 10
0.0
 20
0.0
 30
0.0
  0
INSERT
  5
36E
  8
LAYER_1
  2
E3_NODE_14_
 10
0.0
 20
0.0
 30
0.0
  0
INSERT
  5
3B4
  8
LAYER_1
  2
E3_NODE_15_
 10
0.0
 20
0.0
 30
0.0
  0
INSERT
  5
430
  8
LAYER_1
  2
E3_NODE_16_
 10
0.0
 20
0.0
 30
0.0
  0
INSERT
  5
4F0
  8
LAYER_1
  2
E3_NODE_17_
 10
0.0
 20
0.0
 30
0.0
  0
INSERT
  5
4FE
  8
LAYER_1
  2
E3_NODE_18_
 10
0.0
 20
0.0
 30
0.0
  0
INSERT
  5
542
  8
LAYER_1
  2
E3_NODE_19_
 10
0.0
 20
0.0
 30
0.0
  0
INSERT
  5
550
  8
LAYER_1
  2
E3_NODE_20_
 10
0.0
 20
0.0
 30
0.0
  0
INSERT
  5
57A
  8
LAYER_1
  2
E3_NODE_21_
 10
0.0
 20
0.0
 30
0.0
  0
INSERT
  5
588
  8
LAYER_1
  2
E3_NODE_22_
 10
0.0
 20
0.0
 30
0.0
  0
INSERT
  5
5A5
  8
LAYER_1
  2
E3_NODE_23_
 10
0.0
 20
0.0
 30
0.0
  0
INSERT
  5
5C4
  8
LAYER_1
  2
E3_NODE_24_
 10
0.0
 20
0.0
 30
0.0
  0
INSERT
  5
5DA
  8
LAYER_1
  2
E3_NODE_25_
 10
0.0
 20
0.0
 30
0.0
  0
INSERT
  5
61C
  8
LAYER_1
  2
E3_NODE_26_
 10
0.0
 20
0.0
 30
0.0
  0
INSERT
  5
674
  8
LAYER_1
  2
E3_NODE_27_
 10
0.0
 20
0.0
 30
0.0
  0
ENDSEC
  0
EOF
