  0
SECTION
  2
HEADER
  9
$ACADVER
  1
AC1009
  9
$DWGCODEPAGE
  3
ansi_1252
  9
$INSBASE
 10
0.0
 20
0.0
 30
0.0
  9
$EXTMIN
 10
1.000000000000000E+20
 20
1.000000000000000E+20
 30
1.000000000000000E+20
  9
$EXTMAX
 10
-1.000000000000000E+20
 20
-1.000000000000000E+20
 30
-1.000000000000000E+20
  9
$LIMMIN
 10
0.0
 20
0.0
  9
$LIMMAX
 10
12.0
 20
9.0
  9
$ORTHOMODE
 70
     0
  9
$REGENMODE
 70
     1
  9
$FILLMODE
 70
     1
  9
$QTEXTMODE
 70
     0
  9
$MIRRTEXT
 70
     1
  9
$DRAGMODE
 70
     2
  9
$LTSCALE
 40
1.0
  9
$OSMODE
 70
    37
  9
$ATTMODE
 70
     1
  9
$TEXTSIZE
 40
0.2
  9
$TRACEWID
 40
0.05
  9
$TEXTSTYLE
  7
STANDARD
  9
$CLAYER
  8
0
  9
$CELTYPE
  6
BYLAYER
  9
$CECOLOR
 62
   256
  9
$DIMSCALE
 40
1.0
  9
$DIMASZ
 40
0.18
  9
$DIMEXO
 40
0.0625
  9
$DIMDLI
 40
0.38
  9
$DIMRND
 40
0.0
  9
$DIMDLE
 40
0.0
  9
$DIMEXE
 40
0.18
  9
$DIMTP
 40
0.0
  9
$DIMTM
 40
0.0
  9
$DIMTXT
 40
0.18
  9
$DIMCEN
 40
0.09
  9
$DIMTSZ
 40
0.0
  9
$DIMTOL
 70
     0
  9
$DIMLIM
 70
     0
  9
$DIMTIH
 70
     1
  9
$DIMTOH
 70
     1
  9
$DIMSE1
 70
     0
  9
$DIMSE2
 70
     0
  9
$DIMTAD
 70
     0
  9
$DIMZIN
 70
     0
  9
$DIMBLK
  1

  9
$DIMASO
 70
     1
  9
$DIMSHO
 70
     1
  9
$DIMPOST
  1

  9
$DIMAPOST
  1

  9
$DIMALT
 70
     0
  9
$DIMALTD
 70
     2
  9
$DIMALTF
 40
25.4
  9
$DIMLFAC
 40
1.0
  9
$DIMTOFL
 70
     0
  9
$DIMTVP
 40
0.0
  9
$DIMTIX
 70
     0
  9
$DIMSOXD
 70
     0
  9
$DIMSAH
 70
     0
  9
$DIMBLK1
  1

  9
$DIMBLK2
  1

  9
$DIMSTYLE
  2
STANDARD
  9
$DIMCLRD
 70
     0
  9
$DIMCLRE
 70
     0
  9
$DIMCLRT
 70
     0
  9
$DIMTFAC
 40
1.0
  9
$DIMGAP
 40
0.09
  9
$LUNITS
 70
     2
  9
$LUPREC
 70
     4
  9
$SKETCHINC
 40
0.1
  9
$FILLETRAD
 40
0.5
  9
$AUNITS
 70
     0
  9
$AUPREC
 70
     0
  9
$MENU
  1
.
  9
$ELEVATION
 40
0.0
  9
$PELEVATION
 40
0.0
  9
$THICKNESS
 40
0.0
  9
$LIMCHECK
 70
     0
  9
$CHAMFERA
 40
0.5
  9
$CHAMFERB
 40
0.5
  9
$SKPOLY
 70
     0
  9
$TDCREATE
 40
2455359.745995544
  9
$TDUPDATE
 40
2455359.745995544
  9
$TDINDWG
 40
0.0000000116
  9
$TDUSRTIMER
 40
0.0000000116
  9
$USRTIMER
 70
     1
  9
$ANGBASE
 50
0.0
  9
$ANGDIR
 70
     0
  9
$PDMODE
 70
     0
  9
$PDSIZE
 40
0.0
  9
$PLINEWID
 40
0.0
  9
$COORDS
 70
     1
  9
$SPLFRAME
 70
     0
  9
$SPLINETYPE
 70
     6
  9
$SPLINESEGS
 70
     8
  9
$ATTDIA
 70
     0
  9
$ATTREQ
 70
     1
  9
$HANDLING
 70
     1
  9
$HANDSEED
  5
64D
  9
$SURFTAB1
 70
     6
  9
$SURFTAB2
 70
     6
  9
$SURFTYPE
 70
     6
  9
$SURFU
 70
     6
  9
$SURFV
 70
     6
  9
$UCSNAME
  2

  9
$UCSORG
 10
0.0
 20
0.0
 30
0.0
  9
$UCSXDIR
 10
1.0
 20
0.0
 30
0.0
  9
$UCSYDIR
 10
0.0
 20
1.0
 30
0.0
  9
$PUCSNAME
  2

  9
$PUCSORG
 10
0.0
 20
0.0
 30
0.0
  9
$PUCSXDIR
 10
1.0
 20
0.0
 30
0.0
  9
$PUCSYDIR
 10
0.0
 20
1.0
 30
0.0
  9
$USERI1
 70
     0
  9
$USERI2
 70
     0
  9
$USERI3
 70
     0
  9
$USERI4
 70
     0
  9
$USERI5
 70
     0
  9
$USERR1
 40
0.0
  9
$USERR2
 40
0.0
  9
$USERR3
 40
0.0
  9
$USERR4
 40
0.0
  9
$USERR5
 40
0.0
  9
$WORLDVIEW
 70
     1
  9
$SHADEDGE
 70
     3
  9
$SHADEDIF
 70
    70
  9
$TILEMODE
 70
     1
  9
$MAXACTVP
 70
    64
  9
$PLIMCHECK
 70
     0
  9
$PEXTMIN
 10
1.000000000000000E+20
 20
1.000000000000000E+20
 30
1.000000000000000E+20
  9
$PEXTMAX
 10
-1.000000000000000E+20
 20
-1.000000000000000E+20
 30
-1.000000000000000E+20
  9
$PLIMMIN
 10
0.0
 20
0.0
  9
$PLIMMAX
 10
12.0
 20
9.0
  9
$UNITMODE
 70
     0
  9
$VISRETAIN
 70
     1
  9
$PLINEGEN
 70
     0
  9
$PSLTSCALE
 70
     1
  0
ENDSEC
  0
SECTION
  2
TABLES
  0
TABLE
  2
VPORT
 70
     1
  0
VPORT
  2
*ACTIVE
 70
     0
 10
0.0
 20
0.0
 11
1.0
 21
1.0
 12
0.0
 22
0.0
 13
0.0
 23
0.0
 14
0.5
 24
0.5
 15
0.5
 25
0.5
 16
714.9632568359375
 26
408.5152587890625
 36
714.9632568359375
 17
84.73602294921875
 27
-170.7999877929688
 37
125.3770141601562
 40
410.5463675140157
 41
1.972972972850329
 42
50.0
 43
0.0
 44
0.0
 50
0.0
 51
0.0
 71
     0
 72
   100
 73
     1
 74
     3
 75
     0
 76
     0
 77
     0
 78
     0
  0
ENDTAB
  0
TABLE
  2
LTYPE
 70
     1
  0
LTYPE
  2
CONTINUOUS
 70
     0
  3
Solid line
 72
    65
 73
     0
 40
0.0
  0
ENDTAB
  0
TABLE
  2
LAYER
 70
     2
  0
LAYER
  2
0
 70
     0
 62
     7
  6
CONTINUOUS
  0
LAYER
  2
LAYER_1
 70
     0
 62
     7
  6
CONTINUOUS
  0
ENDTAB
  0
TABLE
  2
STYLE
 70
     1
  0
STYLE
  2
STANDARD
 70
     0
 40
0.0
 41
1.0
 50
0.0
 71
     0
 42
0.2
  3
txt
  4

  0
ENDTAB
  0
TABLE
  2
VIEW
 70
     0
  0
ENDTAB
  0
TABLE
  2
UCS
 70
     0
  0
ENDTAB
  0
TABLE
  2
APPID
 70
     1
  0
APPID
  2
ACAD
 70
     0
  0
ENDTAB
  0
TABLE
  2
DIMSTYLE
 70
     1
  0
DIMSTYLE
  2
STANDARD
 70
     0
  3

  4

  5

  6

  7

 40
1.0
 41
0.18
 42
0.0625
 43
0.38
 44
0.18
 45
0.0
 46
0.0
 47
0.0
 48
0.0
140
0.18
141
0.09
142
0.0
143
25.4
144
1.0
145
0.0
146
1.0
147
0.09
 71
     0
 72
     0
 73
     1
 74
     1
 75
     0
 76
     0
 77
     0
 78
     0
170
     0
171
     2
172
     0
173
     0
174
     0
175
     0
176
     0
177
     0
178
     0
  0
ENDTAB
  0
ENDSEC
  0
SECTION
  2
BLOCKS
  0
BLOCK
  8
0
  2
$MODEL_SPACE
 70
     0
 10
0.0
 20
0.0
 30
0.0
  3
$MODEL_SPACE
  1

  0
ENDBLK
  5
21
  8
0
  0
BLOCK
 67
     1
  8
0
  2
$PAPER_SPACE
 70
     0
 10
0.0
 20
0.0
 30
0.0
  3
$PAPER_SPACE
  1

  0
ENDBLK
  5
1D
 67
     1
  8
0
  0
BLOCK
  8
0
  2
E3_NODE
 70
     0
 10
0.0
 20
0.0
 30
0.0
  3
E3_NODE
  1

  0
POLYLINE
  5
3C
  8
0
 62
     9
 66
     1
 10
0.0
 20
0.0
 30
0.0
 70
    64
 71
     9
 72
     7
  0
VERTEX
  5
3D
  8
0
 10
10.60599994659424
 20
28.50300025939941
 30
79.83999633789062
 70
   192
  0
VERTEX
  5
3E
  8
0
 10
14.28899955749512
 20
28.50300025939941
 30
58.95000076293945
 70
   192
  0
VERTEX
  5
3F
  8
0
 10
5.64300012588501
 20
28.50300025939941
 30
51.69499969482422
 70
   192
  0
VERTEX
  5
40
  8
0
 10
-16.24900054931641
 20
28.50300025939941
 30
70.06500244140625
 70
   192
  0
VERTEX
  5
41
  8
0
 10
-10.60599994659424
 20
28.50300025939941
 30
79.83999633789062
 70
   192
  0
VERTEX
  5
42
  8
0
 10
-5.64300012588501
 20
28.50300025939941
 30
51.69499969482422
 70
   192
  0
VERTEX
  5
43
  8
0
 10
-14.28899955749512
 20
28.50300025939941
 30
58.95000076293945
 70
   192
  0
VERTEX
  5
44
  8
0
 10
16.24900054931641
 20
28.50300025939941
 30
70.06500244140625
 70
   192
  0
VERTEX
  5
45
  8
0
 10
0.0
 20
28.50300025939941
 30
83.69999694824219
 70
   192
  0
VERTEX
  5
46
  8
0
 62
     9
 10
0.0
 20
0.0
 30
0.0
 70
   128
 71
     3
 72
     2
 73
     1
  0
VERTEX
  5
47
  8
0
 62
     9
 10
0.0
 20
0.0
 30
0.0
 70
   128
 71
     5
 72
     4
 73
     1
  0
VERTEX
  5
48
  8
0
 62
     9
 10
0.0
 20
0.0
 30
0.0
 70
   128
 71
     7
 72
     6
 73
     1
  0
VERTEX
  5
49
  8
0
 62
     9
 10
0.0
 20
0.0
 30
0.0
 70
   128
 71
     2
 72
     8
 73
     1
  0
VERTEX
  5
4A
  8
0
 62
     9
 10
0.0
 20
0.0
 30
0.0
 70
   128
 71
     1
 72
     4
 73
     7
  0
VERTEX
  5
4B
  8
0
 62
     9
 10
0.0
 20
0.0
 30
0.0
 70
   128
 71
     1
 72
     9
 73
     5
  0
VERTEX
  5
4C
  8
0
 62
     9
 10
0.0
 20
0.0
 30
0.0
 70
   128
 71
     1
 72
     6
 73
     3
  0
SEQEND
  5
4D
  8
0
 62
     9
  0
ENDBLK
  5
51
  8
0
  0
BLOCK
  8
0
  2
E3_NODE_1_
 70
     0
 10
0.0
 20
0.0
 30
0.0
  3
E3_NODE_1_
  1

  0
POLYLINE
  5
53
  8
0
 62
     9
 66
     1
 10
0.0
 20
0.0
 30
0.0
 70
    64
 71
    18
 72
    18
  0
VERTEX
  5
54
  8
0
 10
-10.60599994659424
 20
28.50300025939941
 30
79.83999633789062
 70
   192
  0
VERTEX
  5
55
  8
0
 10
-10.60599994659424
 20
18.97999954223633
 30
79.83999633789062
 70
   192
  0
VERTEX
  5
56
  8
0
 10
0.0
 20
18.97999954223633
 30
83.69999694824219
 70
   192
  0
VERTEX
  5
57
  8
0
 10
-16.24900054931641
 20
28.50300025939941
 30
70.06500244140625
 70
   192
  0
VERTEX
  5
58
  8
0
 10
-16.24900054931641
 20
18.97999954223633
 30
70.06500244140625
 70
   192
  0
VERTEX
  5
59
  8
0
 10
-14.28899955749512
 20
28.50300025939941
 30
58.95000076293945
 70
   192
  0
VERTEX
  5
5A
  8
0
 10
-14.28899955749512
 20
18.97999954223633
 30
58.95000076293945
 70
   192
  0
VERTEX
  5
5B
  8
0
 10
-5.64300012588501
 20
28.50300025939941
 30
51.69499969482422
 70
   192
  0
VERTEX
  5
5C
  8
0
 10
-5.64300012588501
 20
18.97999954223633
 30
51.69499969482422
 70
   192
  0
VERTEX
  5
5D
  8
0
 10
5.64300012588501
 20
28.50300025939941
 30
51.69499969482422
 70
   192
  0
VERTEX
  5
5E
  8
0
 10
5.64300012588501
 20
18.97999954223633
 30
51.69499969482422
 70
   192
  0
VERTEX
  5
5F
  8
0
 10
14.28899955749512
 20
28.50300025939941
 30
58.95000076293945
 70
   192
  0
VERTEX
  5
60
  8
0
 10
14.28899955749512
 20
18.97999954223633
 30
58.95000076293945
 70
   192
  0
VERTEX
  5
61
  8
0
 10
16.24900054931641
 20
28.50300025939941
 30
70.06500244140625
 70
   192
  0
VERTEX
  5
62
  8
0
 10
16.24900054931641
 20
18.97999954223633
 30
70.06500244140625
 70
   192
  0
VERTEX
  5
63
  8
0
 10
10.60599994659424
 20
28.50300025939941
 30
79.83999633789062
 70
   192
  0
VERTEX
  5
64
  8
0
 10
10.60599994659424
 20
18.97999954223633
 30
79.83999633789062
 70
   192
  0
VERTEX
  5
65
  8
0
 10
0.0
 20
28.50300025939941
 30
83.69999694824219
 70
   192
  0
VERTEX
  5
66
  8
0
 62
     9
 10
0.0
 20
0.0
 30
0.0
 70
   128
 71
     3
 72
     2
 73
     1
  0
VERTEX
  5
67
  8
0
 62
     9
 10
0.0
 20
0.0
 30
0.0
 70
   128
 71
     2
 72
     5
 73
     4
  0
VERTEX
  5
68
  8
0
 62
     9
 10
0.0
 20
0.0
 30
0.0
 70
   128
 71
     5
 72
     7
 73
     6
  0
VERTEX
  5
69
  8
0
 62
     9
 10
0.0
 20
0.0
 30
0.0
 70
   128
 71
     7
 72
     9
 73
     8
  0
VERTEX
  5
6A
  8
0
 62
     9
 10
0.0
 20
0.0
 30
0.0
 70
   128
 71
     9
 72
    11
 73
    10
  0
VERTEX
  5
6B
  8
0
 62
     9
 10
0.0
 20
0.0
 30
0.0
 70
   128
 71
    11
 72
    13
 73
    12
  0
VERTEX
  5
6C
  8
0
 62
     9
 10
0.0
 20
0.0
 30
0.0
 70
   128
 71
    13
 72
    15
 73
    14
  0
VERTEX
  5
6D
  8
0
 62
     9
 10
0.0
 20
0.0
 30
0.0
 70
   128
 71
    15
 72
    17
 73
    16
  0
VERTEX
  5
6E
  8
0
 62
     9
 10
0.0
 20
0.0
 30
0.0
 70
   128
 71
    17
 72
     3
 73
    18
  0
VERTEX
  5
6F
  8
0
 62
     9
 10
0.0
 20
0.0
 30
0.0
 70
   128
 71
    18
 72
    16
 73
    17
  0
VERTEX
  5
70
  8
0
 62
     9
 10
0.0
 20
0.0
 30
0.0
 70
   128
 71
    16
 72
    14
 73
    15
  0
VERTEX
  5
71
  8
0
 62
     9
 10
0.0
 20
0.0
 30
0.0
 70
   128
 71
    14
 72
    12
 73
    13
  0
VERTEX
  5
72
  8
0
 62
     9
 10
0.0
 20
0.0
 30
0.0
 70
   128
 71
    12
 72
    10
 73
    11
  0
VERTEX
  5
73
  8
0
 62
     9
 10
0.0
 20
0.0
 30
0.0
 70
   128
 71
    10
 72
     8
 73
     9
  0
VERTEX
  5
74
  8
0
 62
     9
 10
0.0
 20
0.0
 30
0.0
 70
   128
 71
     8
 72
     6
 73
     7
  0
VERTEX
  5
75
  8
0
 62
     9
 10
0.0
 20
0.0
 30
0.0
 70
   128
 71
     6
 72
     4
 73
     5
  0
VERTEX
  5
76
  8
0
 62
     9
 10
0.0
 20
0.0
 30
0.0
 70
   128
 71
     4
 72
     1
 73
     2
  0
VERTEX
  5
77
  8
0
 62
     9
 10
0.0
 20
0.0
 30
0.0
 70
   128
 71
     1
 72
    18
 73
     3
  0
SEQEND
  5
78
  8
0
 62
     9
  0
ENDBLK
  5
7B
  8
0
  0
BLOCK
  8
0
  2
E3_NODE_2_
 70
     0
 10
0.0
 20
0.0
 30
0.0
  3
E3_NODE_2_
  1

  0
POLYLINE
  5
7D
  8
0
 62
     9
 66
     1
 10
0.0
 20
0.0
 30
0.0
 70
    64
 71
     8
 72
     6
  0
VERTEX
  5
7E
  8
0
 10
14.49600028991699
 20
-330.5039978027344
 30
40.29999923706055
 70
   192
  0
VERTEX
  5
7F
  8
0
 10
-14.49600028991699
 20
-330.5039978027344
 30
40.29999923706055
 70
   192
  0
VERTEX
  5
80
  8
0
 10
-20.5
 20
-345.0
 30
40.29999923706055
 70
   192
  0
VERTEX
  5
81
  8
0
 10
0.0
 20
-365.5
 30
40.29999923706055
 70
   192
  0
VERTEX
  5
82
  8
0
 10
14.49600028991699
 20
-359.4960021972656
 30
40.29999923706055
 70
   192
  0
VERTEX
  5
83
  8
0
 10
0.0
 20
-324.5
 30
40.29999923706055
 70
   192
  0
VERTEX
  5
84
  8
0
 10
-14.49600028991699
 20
-359.4960021972656
 30
40.29999923706055
 70
   192
  0
VERTEX
  5
85
  8
0
 10
20.5
 20
-345.0
 30
40.29999923706055
 70
   192
  0
VERTEX
  5
86
  8
0
 62
     9
 10
0.0
 20
0.0
 30
0.0
 70
   128
 71
     3
 72
     2
 73
     1
  0
VERTEX
  5
87
  8
0
 62
     9
 10
0.0
 20
0.0
 30
0.0
 70
   128
 71
     5
 72
     4
 73
     1
  0
VERTEX
  5
88
  8
0
 62
     9
 10
0.0
 20
0.0
 30
0.0
 70
   128
 71
     2
 72
     6
 73
     1
  0
VERTEX
  5
89
  8
0
 62
     9
 10
0.0
 20
0.0
 30
0.0
 70
   128
 71
     4
 72
     7
 73
     1
  0
VERTEX
  5
8A
  8
0
 62
     9
 10
0.0
 20
0.0
 30
0.0
 70
   128
 71
     1
 72
     8
 73
     5
  0
VERTEX
  5
8B
  8
0
 62
     9
 10
0.0
 20
0.0
 30
0.0
 70
   128
 71
     1
 72
     7
 73
     3
  0
SEQEND
  5
8C
  8
0
 62
     9
  0
ENDBLK
  5
8F
  8
0
  0
BLOCK
  8
0
  2
E3_NODE_3_
 70
     0
 10
0.0
 20
0.0
 30
0.0
  3
E3_NODE_3_
  1

  0
POLYLINE
  5
91
  8
0
 62
     9
 66
     1
 10
0.0
 20
0.0
 30
0.0
 70
    64
 71
    16
 72
    16
  0
VERTEX
  5
92
  8
0
 10
-14.49600028991699
 20
-359.4960021972656
 30
40.29999923706055
 70
   192
  0
VERTEX
  5
93
  8
0
 10
-14.49600028991699
 20
-359.4960021972656
 30
15.30000019073486
 70
   192
  0
VERTEX
  5
94
  8
0
 10
0.0
 20
-365.5
 30
15.30000019073486
 70
   192
  0
VERTEX
  5
95
  8
0
 10
-20.5
 20
-345.0
 30
40.29999923706055
 70
   192
  0
VERTEX
  5
96
  8
0
 10
-20.5
 20
-345.0
 30
15.30000019073486
 70
   192
  0
VERTEX
  5
97
  8
0
 10
-14.49600028991699
 20
-330.5039978027344
 30
40.29999923706055
 70
   192
  0
VERTEX
  5
98
  8
0
 10
-14.49600028991699
 20
-330.5039978027344
 30
15.30000019073486
 70
   192
  0
VERTEX
  5
99
  8
0
 10
0.0
 20
-324.5
 30
40.29999923706055
 70
   192
  0
VERTEX
  5
9A
  8
0
 10
0.0
 20
-324.5
 30
15.30000019073486
 70
   192
  0
VERTEX
  5
9B
  8
0
 10
14.49600028991699
 20
-330.5039978027344
 30
15.30000019073486
 70
   192
  0
VERTEX
  5
9C
  8
0
 10
20.5
 20
-345.0
 30
15.30000019073486
 70
   192
  0
VERTEX
  5
9D
  8
0
 10
14.49600028991699
 20
-330.5039978027344
 30
40.29999923706055
 70
   192
  0
VERTEX
  5
9E
  8
0
 10
14.49600028991699
 20
-359.4960021972656
 30
40.29999923706055
 70
   192
  0
VERTEX
  5
9F
  8
0
 10
14.49600028991699
 20
-359.4960021972656
 30
15.30000019073486
 70
   192
  0
VERTEX
  5
A0
  8
0
 10
0.0
 20
-365.5
 30
40.29999923706055
 70
   192
  0
VERTEX
  5
A1
  8
0
 10
20.5
 20
-345.0
 30
40.29999923706055
 70
   192
  0
VERTEX
  5
A2
  8
0
 62
     9
 10
0.0
 20
0.0
 30
0.0
 70
   128
 71
     3
 72
     2
 73
     1
  0
VERTEX
  5
A3
  8
0
 62
     9
 10
0.0
 20
0.0
 30
0.0
 70
   128
 71
     2
 72
     5
 73
     4
  0
VERTEX
  5
A4
  8
0
 62
     9
 10
0.0
 20
0.0
 30
0.0
 70
   128
 71
     5
 72
     7
 73
     6
  0
VERTEX
  5
A5
  8
0
 62
     9
 10
0.0
 20
0.0
 30
0.0
 70
   128
 71
     7
 72
     9
 73
     8
  0
VERTEX
  5
A6
  8
0
 62
     9
 10
0.0
 20
0.0
 30
0.0
 70
   128
 71
     8
 72
     9
 73
    10
  0
VERTEX
  5
A7
  8
0
 62
     9
 10
0.0
 20
0.0
 30
0.0
 70
   128
 71
    12
 72
    10
 73
    11
  0
VERTEX
  5
A8
  8
0
 62
     9
 10
0.0
 20
0.0
 30
0.0
 70
   128
 71
    11
 72
    14
 73
    13
  0
VERTEX
  5
A9
  8
0
 62
     9
 10
0.0
 20
0.0
 30
0.0
 70
   128
 71
    13
 72
    14
 73
     3
  0
VERTEX
  5
AA
  8
0
 62
     9
 10
0.0
 20
0.0
 30
0.0
 70
   128
 71
     3
 72
    15
 73
    13
  0
VERTEX
  5
AB
  8
0
 62
     9
 10
0.0
 20
0.0
 30
0.0
 70
   128
 71
    13
 72
    16
 73
    11
  0
VERTEX
  5
AC
  8
0
 62
     9
 10
0.0
 20
0.0
 30
0.0
 70
   128
 71
    11
 72
    16
 73
    12
  0
VERTEX
  5
AD
  8
0
 62
     9
 10
0.0
 20
0.0
 30
0.0
 70
   128
 71
    10
 72
    12
 73
     8
  0
VERTEX
  5
AE
  8
0
 62
     9
 10
0.0
 20
0.0
 30
0.0
 70
   128
 71
     8
 72
     6
 73
     7
  0
VERTEX
  5
AF
  8
0
 62
     9
 10
0.0
 20
0.0
 30
0.0
 70
   128
 71
     6
 72
     4
 73
     5
  0
VERTEX
  5
B0
  8
0
 62
     9
 10
0.0
 20
0.0
 30
0.0
 70
   128
 71
     4
 72
     1
 73
     2
  0
VERTEX
  5
B1
  8
0
 62
     9
 10
0.0
 20
0.0
 30
0.0
 70
   128
 71
     1
 72
    15
 73
     3
  0
SEQEND
  5
B2
  8
0
 62
     9
  0
ENDBLK
  5
B5
  8
0
  0
BLOCK
  8
0
  2
E3_NODE_4_
 70
     0
 10
0.0
 20
0.0
 30
0.0
  3
E3_NODE_4_
  1

  0
POLYLINE
  5
B7
  8
0
 62
     9
 66
     1
 10
0.0
 20
0.0
 30
0.0
 70
    64
 71
    10
 72
     8
  0
VERTEX
  5
B8
  8
0
 10
23.50699996948242
 20
-186.2949981689453
 30
94.21800231933594
 70
   192
  0
VERTEX
  5
B9
  8
0
 10
12.07900047302246
 20
-172.6699981689453
 30
93.91899871826172
 70
   192
  0
VERTEX
  5
BA
  8
0
 10
-5.428999900817871
 20
-169.5820007324219
 30
93.45999908447266
 70
   192
  0
VERTEX
  5
BB
  8
0
 10
-26.9069995880127
 20
-195.1869964599609
 30
92.89800262451172
 70
   192
  0
VERTEX
  5
BC
  8
0
 10
-20.82699966430664
 20
-211.8999938964844
 30
93.05699920654297
 70
   192
  0
VERTEX
  5
BD
  8
0
 10
-5.428999900817871
 20
-220.7920074462891
 30
93.45999908447266
 70
   192
  0
VERTEX
  5
BE
  8
0
 10
-20.82699966430664
 20
-178.4750061035156
 30
93.05699920654297
 70
   192
  0
VERTEX
  5
BF
  8
0
 10
12.07900047302246
 20
-217.7039947509766
 30
93.91899871826172
 70
   192
  0
VERTEX
  5
C0
  8
0
 10
25.07500076293945
 20
-195.1869964599609
 30
94.25900268554688
 70
   192
  0
VERTEX
  5
C1
  8
0
 10
23.50699996948242
 20
-204.0800018310547
 30
94.21800231933594
 70
   192
  0
VERTEX
  5
C2
  8
0
 62
     9
 10
0.0
 20
0.0
 30
0.0
 70
   128
 71
     3
 72
     2
 73
     1
  0
VERTEX
  5
C3
  8
0
 62
     9
 10
0.0
 20
0.0
 30
0.0
 70
   128
 71
     6
 72
     5
 73
     4
  0
VERTEX
  5
C4
  8
0
 62
     9
 10
0.0
 20
0.0
 30
0.0
 70
   128
 71
     1
 72
     7
 73
     3
  0
VERTEX
  5
C5
  8
0
 62
     9
 10
0.0
 20
0.0
 30
0.0
 70
   128
 71
     4
 72
     8
 73
     6
  0
VERTEX
  5
C6
  8
0
 62
     9
 10
0.0
 20
0.0
 30
0.0
 70
   128
 71
     1
 72
     9
 73
     4
  0
VERTEX
  5
C7
  8
0
 62
     9
 10
0.0
 20
0.0
 30
0.0
 70
   128
 71
     4
 72
    10
 73
     8
  0
VERTEX
  5
C8
  8
0
 62
     9
 10
0.0
 20
0.0
 30
0.0
 70
   128
 71
     4
 72
     9
 73
    10
  0
VERTEX
  5
C9
  8
0
 62
     9
 10
0.0
 20
0.0
 30
0.0
 70
   128
 71
     1
 72
     4
 73
     7
  0
SEQEND
  5
CA
  8
0
 62
     9
  0
ENDBLK
  5
CD
  8
0
  0
BLOCK
  8
0
  2
E3_NODE_5_
 70
     0
 10
0.0
 20
0.0
 30
0.0
  3
E3_NODE_5_
  1

  0
POLYLINE
  5
CF
  8
0
 62
     9
 66
     1
 10
0.0
 20
0.0
 30
0.0
 70
    64
 71
    34
 72
    36
  0
VERTEX
  5
D0
  8
0
 10
23.63800048828125
 20
-186.2949981689453
 30
89.22000122070312
 70
   192
  0
VERTEX
  5
D1
  8
0
 10
23.50699996948242
 20
-186.2949981689453
 30
94.21800231933594
 70
   192
  0
VERTEX
  5
D2
  8
0
 10
25.07500076293945
 20
-195.1869964599609
 30
94.25900268554688
 70
   192
  0
VERTEX
  5
D3
  8
0
 10
23.63800048828125
 20
-204.0800018310547
 30
89.22000122070312
 70
   192
  0
VERTEX
  5
D4
  8
0
 10
24.42399978637695
 20
-186.2949981689453
 30
59.22999954223633
 70
   192
  0
VERTEX
  5
D5
  8
0
 10
12.99600028991699
 20
-172.6699981689453
 30
58.93099975585938
 70
   192
  0
VERTEX
  5
D6
  8
0
 10
23.48500061035156
 20
-185.3869934082031
 30
81.71299743652344
 70
   192
  0
VERTEX
  5
D7
  8
0
 10
12.07900047302246
 20
-172.6699981689453
 30
93.91899871826172
 70
   192
  0
VERTEX
  5
D8
  8
0
 10
23.28899955749512
 20
-185.3869934082031
 30
89.20999908447266
 70
   192
  0
VERTEX
  5
D9
  8
0
 10
23.83499908447266
 20
-186.2949981689453
 30
81.72200012207031
 70
   192
  0
VERTEX
  5
DA
  8
0
 10
23.83499908447266
 20
-204.0800018310547
 30
81.72200012207031
 70
   192
  0
VERTEX
  5
DB
  8
0
 10
23.50699996948242
 20
-204.0800018310547
 30
94.21800231933594
 70
   192
  0
VERTEX
  5
DC
  8
0
 10
12.07900047302246
 20
-217.7039947509766
 30
93.91899871826172
 70
   192
  0
VERTEX
  5
DD
  8
0
 10
23.28899955749512
 20
-204.9869995117188
 30
89.20999908447266
 70
   192
  0
VERTEX
  5
DE
  8
0
 10
12.99600028991699
 20
-217.7039947509766
 30
58.93099975585938
 70
   192
  0
VERTEX
  5
DF
  8
0
 10
23.48500061035156
 20
-204.9869995117188
 30
81.71299743652344
 70
   192
  0
VERTEX
  5
E0
  8
0
 10
24.42399978637695
 20
-204.0800018310547
 30
59.22999954223633
 70
   192
  0
VERTEX
  5
E1
  8
0
 10
0.0
 20
-169.1869964599609
 30
58.59000015258789
 70
   192
  0
VERTEX
  5
E2
  8
0
 10
-4.35699987411499
 20
-170.406005859375
 30
61.15700149536133
 70
   192
  0
VERTEX
  5
E3
  8
0
 10
-5.428999900817871
 20
-169.5820007324219
 30
93.45999908447266
 70
   192
  0
VERTEX
  5
E4
  8
0
 10
-13.89700031280518
 20
-173.0749969482422
 30
66.7760009765625
 70
   192
  0
VERTEX
  5
E5
  8
0
 10
-19.50799942016602
 20
-179.1260070800781
 30
70.08100128173828
 70
   192
  0
VERTEX
  5
E6
  8
0
 10
-26.9069995880127
 20
-195.1869964599609
 30
92.89800262451172
 70
   192
  0
VERTEX
  5
E7
  8
0
 10
-20.82699966430664
 20
-178.4750061035156
 30
93.05699920654297
 70
   192
  0
VERTEX
  5
E8
  8
0
 10
-23.63699913024902
 20
-183.5780029296875
 30
72.51300048828125
 70
   192
  0
VERTEX
  5
E9
  8
0
 10
-20.82699966430664
 20
-211.8999938964844
 30
93.05699920654297
 70
   192
  0
VERTEX
  5
EA
  8
0
 10
-26.30699920654297
 20
-197.552001953125
 30
74.08599853515625
 70
   192
  0
VERTEX
  5
EB
  8
0
 10
-21.10799980163574
 20
-210.8200073242188
 30
71.02400207519531
 70
   192
  0
VERTEX
  5
EC
  8
0
 10
-25.87400054931641
 20
-195.2870025634766
 30
73.83100128173828
 70
   192
  0
VERTEX
  5
ED
  8
0
 10
-5.428999900817871
 20
-220.7920074462891
 30
93.45999908447266
 70
   192
  0
VERTEX
  5
EE
  8
0
 10
-20.02199935913086
 20
-211.6300048828125
 30
70.38400268554688
 70
   192
  0
VERTEX
  5
EF
  8
0
 10
-9.595999717712402
 20
-219.4109954833984
 30
64.24299621582031
 70
   192
  0
VERTEX
  5
F0
  8
0
 10
-4.504000186920166
 20
-220.3529968261719
 30
61.24300003051758
 70
   192
  0
VERTEX
  5
F1
  8
0
 10
0.0
 20
-221.1869964599609
 30
58.59000015258789
 70
   192
  0
VERTEX
  5
F2
  8
0
 62
     9
 10
0.0
 20
0.0
 30
0.0
 70
   128
 71
     3
 72
     2
 73
     1
  0
VERTEX
  5
F3
  8
0
 62
     9
 10
0.0
 20
0.0
 30
0.0
 70
   128
 71
     1
 72
     4
 73
     3
  0
VERTEX
  5
F4
  8
0
 62
     9
 10
0.0
 20
0.0
 30
0.0
 70
   128
 71
     7
 72
     6
 73
     5
  0
VERTEX
  5
F5
  8
0
 62
     9
 10
0.0
 20
0.0
 30
0.0
 70
   128
 71
     7
 72
     9
 73
     8
  0
VERTEX
  5
F6
  8
0
 62
     9
 10
0.0
 20
0.0
 30
0.0
 70
   128
 71
     9
 72
     1
 73
     2
  0
VERTEX
  5
F7
  8
0
 62
     9
 10
0.0
 20
0.0
 30
0.0
 70
   128
 71
     2
 72
     8
 73
     9
  0
VERTEX
  5
F8
  8
0
 62
     9
 10
0.0
 20
0.0
 30
0.0
 70
   128
 71
     8
 72
     6
 73
     7
  0
VERTEX
  5
F9
  8
0
 62
     9
 10
0.0
 20
0.0
 30
0.0
 70
   128
 71
    11
 72
    10
 73
     5
  0
VERTEX
  5
FA
  8
0
 62
     9
 10
0.0
 20
0.0
 30
0.0
 70
   128
 71
    14
 72
    13
 73
    12
  0
VERTEX
  5
FB
  8
0
 62
     9
 10
0.0
 20
0.0
 30
0.0
 70
   128
 71
    16
 72
    15
 73
    13
  0
VERTEX
  5
FC
  8
0
 62
     9
 10
0.0
 20
0.0
 30
0.0
 70
   128
 71
    16
 72
    11
 73
    17
  0
VERTEX
  5
FD
  8
0
 62
     9
 10
0.0
 20
0.0
 30
0.0
 70
   128
 71
    17
 72
    15
 73
    16
  0
VERTEX
  5
FE
  8
0
 62
     9
 10
0.0
 20
0.0
 30
0.0
 70
   128
 71
    13
 72
    14
 73
    16
  0
VERTEX
  5
FF
  8
0
 62
     9
 10
0.0
 20
0.0
 30
0.0
 70
   128
 71
    19
 72
    18
 73
     8
  0
VERTEX
  5
100
  8
0
 62
     9
 10
0.0
 20
0.0
 30
0.0
 70
   128
 71
    18
 72
     6
 73
     8
  0
VERTEX
  5
101
  8
0
 62
     9
 10
0.0
 20
0.0
 30
0.0
 70
   128
 71
    22
 72
    21
 73
    20
  0
VERTEX
  5
102
  8
0
 62
     9
 10
0.0
 20
0.0
 30
0.0
 70
   128
 71
    21
 72
    19
 73
    20
  0
VERTEX
  5
103
  8
0
 62
     9
 10
0.0
 20
0.0
 30
0.0
 70
   128
 71
    25
 72
    24
 73
    23
  0
VERTEX
  5
104
  8
0
 62
     9
 10
0.0
 20
0.0
 30
0.0
 70
   128
 71
    25
 72
    22
 73
    24
  0
VERTEX
  5
105
  8
0
 62
     9
 10
0.0
 20
0.0
 30
0.0
 70
   128
 71
    27
 72
    23
 73
    26
  0
VERTEX
  5
106
  8
0
 62
     9
 10
0.0
 20
0.0
 30
0.0
 70
   128
 71
    26
 72
    28
 73
    27
  0
VERTEX
  5
107
  8
0
 62
     9
 10
0.0
 20
0.0
 30
0.0
 70
   128
 71
    27
 72
    29
 73
    23
  0
VERTEX
  5
108
  8
0
 62
     9
 10
0.0
 20
0.0
 30
0.0
 70
   128
 71
    31
 72
    26
 73
    30
  0
VERTEX
  5
109
  8
0
 62
     9
 10
0.0
 20
0.0
 30
0.0
 70
   128
 71
    30
 72
    32
 73
    31
  0
VERTEX
  5
10A
  8
0
 62
     9
 10
0.0
 20
0.0
 30
0.0
 70
   128
 71
    33
 72
    30
 73
    13
  0
VERTEX
  5
10B
  8
0
 62
     9
 10
0.0
 20
0.0
 30
0.0
 70
   128
 71
    13
 72
    34
 73
    33
  0
VERTEX
  5
10C
  8
0
 62
     9
 10
0.0
 20
0.0
 30
0.0
 70
   128
 71
    13
 72
    15
 73
    34
  0
VERTEX
  5
10D
  8
0
 62
     9
 10
0.0
 20
0.0
 30
0.0
 70
   128
 71
    30
 72
    33
 73
    32
  0
VERTEX
  5
10E
  8
0
 62
     9
 10
0.0
 20
0.0
 30
0.0
 70
   128
 71
    26
 72
    31
 73
    28
  0
VERTEX
  5
10F
  8
0
 62
     9
 10
0.0
 20
0.0
 30
0.0
 70
   128
 71
    23
 72
    29
 73
    25
  0
VERTEX
  5
110
  8
0
 62
     9
 10
0.0
 20
0.0
 30
0.0
 70
   128
 71
    20
 72
    24
 73
    22
  0
VERTEX
  5
111
  8
0
 62
     9
 10
0.0
 20
0.0
 30
0.0
 70
   128
 71
     8
 72
    20
 73
    19
  0
VERTEX
  5
112
  8
0
 62
     9
 10
0.0
 20
0.0
 30
0.0
 70
   128
 71
    12
 72
     4
 73
    14
  0
VERTEX
  5
113
  8
0
 62
     9
 10
0.0
 20
0.0
 30
0.0
 70
   128
 71
     5
 72
    17
 73
    11
  0
VERTEX
  5
114
  8
0
 62
     9
 10
0.0
 20
0.0
 30
0.0
 70
   128
 71
     5
 72
    10
 73
     7
  0
VERTEX
  5
115
  8
0
 62
     9
 10
0.0
 20
0.0
 30
0.0
 70
   128
 71
     4
 72
    12
 73
     3
  0
SEQEND
  5
116
  8
0
 62
     9
  0
ENDBLK
  5
119
  8
0
  0
BLOCK
  8
0
  2
E3_NODE_6_
 70
     0
 10
0.0
 20
0.0
 30
0.0
  3
E3_NODE_6_
  1

  0
POLYLINE
  5
11B
  8
0
 62
     9
 66
     1
 10
0.0
 20
0.0
 30
0.0
 70
    64
 71
     6
 72
     4
  0
VERTEX
  5
11C
  8
0
 10
12.99600028991699
 20
-217.7039947509766
 30
58.93099975585938
 70
   192
  0
VERTEX
  5
11D
  8
0
 10
12.99600028991699
 20
-172.6699981689453
 30
58.93099975585938
 70
   192
  0
VERTEX
  5
11E
  8
0
 10
24.42399978637695
 20
-186.2949981689453
 30
59.22999954223633
 70
   192
  0
VERTEX
  5
11F
  8
0
 10
0.0
 20
-169.1869964599609
 30
58.59000015258789
 70
   192
  0
VERTEX
  5
120
  8
0
 10
24.42399978637695
 20
-204.0800018310547
 30
59.22999954223633
 70
   192
  0
VERTEX
  5
121
  8
0
 10
0.0
 20
-221.1869964599609
 30
58.59000015258789
 70
   192
  0
VERTEX
  5
122
  8
0
 62
     9
 10
0.0
 20
0.0
 30
0.0
 70
   128
 71
     3
 72
     2
 73
     1
  0
VERTEX
  5
123
  8
0
 62
     9
 10
0.0
 20
0.0
 30
0.0
 70
   128
 71
     2
 72
     4
 73
     1
  0
VERTEX
  5
124
  8
0
 62
     9
 10
0.0
 20
0.0
 30
0.0
 70
   128
 71
     1
 72
     5
 73
     3
  0
VERTEX
  5
125
  8
0
 62
     9
 10
0.0
 20
0.0
 30
0.0
 70
   128
 71
     4
 72
     6
 73
     1
  0
SEQEND
  5
126
  8
0
 62
     9
  0
ENDBLK
  5
129
  8
0
  0
BLOCK
  8
0
  2
E3_NODE_7_
 70
     0
 10
0.0
 20
0.0
 30
0.0
  3
E3_NODE_7_
  1

  0
POLYLINE
  5
12B
  8
0
 62
     9
 66
     1
 10
0.0
 20
0.0
 30
0.0
 70
    64
 71
    12
 72
    10
  0
VERTEX
  5
12C
  8
0
 10
-20.02199935913086
 20
-211.6300048828125
 30
70.38400268554688
 70
   192
  0
VERTEX
  5
12D
  8
0
 10
-19.50799942016602
 20
-179.1260070800781
 30
70.08100128173828
 70
   192
  0
VERTEX
  5
12E
  8
0
 10
-13.89700031280518
 20
-173.0749969482422
 30
66.7760009765625
 70
   192
  0
VERTEX
  5
12F
  8
0
 10
-25.87400054931641
 20
-195.2870025634766
 30
73.83100128173828
 70
   192
  0
VERTEX
  5
130
  8
0
 10
-23.63699913024902
 20
-183.5780029296875
 30
72.51300048828125
 70
   192
  0
VERTEX
  5
131
  8
0
 10
-21.10799980163574
 20
-210.8200073242188
 30
71.02400207519531
 70
   192
  0
VERTEX
  5
132
  8
0
 10
-4.35699987411499
 20
-170.406005859375
 30
61.15700149536133
 70
   192
  0
VERTEX
  5
133
  8
0
 10
-4.504000186920166
 20
-220.3529968261719
 30
61.24300003051758
 70
   192
  0
VERTEX
  5
134
  8
0
 10
-9.595999717712402
 20
-219.4109954833984
 30
64.24299621582031
 70
   192
  0
VERTEX
  5
135
  8
0
 10
-26.30699920654297
 20
-197.552001953125
 30
74.08599853515625
 70
   192
  0
VERTEX
  5
136
  8
0
 10
0.0
 20
-221.1869964599609
 30
58.59000015258789
 70
   192
  0
VERTEX
  5
137
  8
0
 10
0.0
 20
-169.1869964599609
 30
58.59000015258789
 70
   192
  0
VERTEX
  5
138
  8
0
 62
     9
 10
0.0
 20
0.0
 30
0.0
 70
   128
 71
     3
 72
     2
 73
     1
  0
VERTEX
  5
139
  8
0
 62
     9
 10
0.0
 20
0.0
 30
0.0
 70
   128
 71
     5
 72
     4
 73
     1
  0
VERTEX
  5
13A
  8
0
 62
     9
 10
0.0
 20
0.0
 30
0.0
 70
   128
 71
     1
 72
     2
 73
     5
  0
VERTEX
  5
13B
  8
0
 62
     9
 10
0.0
 20
0.0
 30
0.0
 70
   128
 71
     6
 72
     1
 73
     4
  0
VERTEX
  5
13C
  8
0
 62
     9
 10
0.0
 20
0.0
 30
0.0
 70
   128
 71
     9
 72
     8
 73
     7
  0
VERTEX
  5
13D
  8
0
 62
     9
 10
0.0
 20
0.0
 30
0.0
 70
   128
 71
     4
 72
    10
 73
     6
  0
VERTEX
  5
13E
  8
0
 62
     9
 10
0.0
 20
0.0
 30
0.0
 70
   128
 71
     8
 72
    11
 73
     7
  0
VERTEX
  5
13F
  8
0
 62
     9
 10
0.0
 20
0.0
 30
0.0
 70
   128
 71
     7
 72
     1
 73
     9
  0
VERTEX
  5
140
  8
0
 62
     9
 10
0.0
 20
0.0
 30
0.0
 70
   128
 71
     1
 72
     7
 73
     3
  0
VERTEX
  5
141
  8
0
 62
     9
 10
0.0
 20
0.0
 30
0.0
 70
   128
 71
    11
 72
    12
 73
     7
  0
SEQEND
  5
142
  8
0
 62
     9
  0
ENDBLK
  5
145
  8
0
  0
BLOCK
  8
0
  2
E3_NODE_8_
 70
     0
 10
0.0
 20
0.0
 30
0.0
  3
E3_NODE_8_
  1

  0
POLYLINE
  5
147
  8
0
 62
     9
 66
     1
 10
0.0
 20
0.0
 30
0.0
 70
    64
 71
     4
 72
     2
  0
VERTEX
  5
148
  8
0
 10
23.28899955749512
 20
-204.9869995117188
 30
89.20999908447266
 70
   192
  0
VERTEX
  5
149
  8
0
 10
23.48500061035156
 20
-204.9869995117188
 30
81.71299743652344
 70
   192
  0
VERTEX
  5
14A
  8
0
 10
88.38099670410156
 20
-204.9869995117188
 30
83.41200256347656
 70
   192
  0
VERTEX
  5
14B
  8
0
 10
88.18399810791016
 20
-204.9869995117188
 30
90.91000366210938
 70
   192
  0
VERTEX
  5
14C
  8
0
 62
     9
 10
0.0
 20
0.0
 30
0.0
 70
   128
 71
     3
 72
     2
 73
     1
  0
VERTEX
  5
14D
  8
0
 62
     9
 10
0.0
 20
0.0
 30
0.0
 70
   128
 71
     1
 72
     4
 73
     3
  0
SEQEND
  5
14E
  8
0
 62
     9
  0
ENDBLK
  5
151
  8
0
  0
BLOCK
  8
0
  2
E3_NODE_9_
 70
     0
 10
0.0
 20
0.0
 30
0.0
  3
E3_NODE_9_
  1

  0
POLYLINE
  5
153
  8
0
 62
     9
 66
     1
 10
0.0
 20
0.0
 30
0.0
 70
    64
 71
     4
 72
     2
  0
VERTEX
  5
154
  8
0
 10
88.38099670410156
 20
-185.3869934082031
 30
83.41200256347656
 70
   192
  0
VERTEX
  5
155
  8
0
 10
88.18399810791016
 20
-185.3869934082031
 30
90.91000366210938
 70
   192
  0
VERTEX
  5
156
  8
0
 10
88.18399810791016
 20
-204.9869995117188
 30
90.91000366210938
 70
   192
  0
VERTEX
  5
157
  8
0
 10
88.38099670410156
 20
-204.9869995117188
 30
83.41200256347656
 70
   192
  0
VERTEX
  5
158
  8
0
 62
     9
 10
0.0
 20
0.0
 30
0.0
 70
   128
 71
     3
 72
     2
 73
     1
  0
VERTEX
  5
159
  8
0
 62
     9
 10
0.0
 20
0.0
 30
0.0
 70
   128
 71
     1
 72
     4
 73
     3
  0
SEQEND
  5
15A
  8
0
 62
     9
  0
ENDBLK
  5
15D
  8
0
  0
BLOCK
  8
0
  2
E3_NODE_10_
 70
     0
 10
0.0
 20
0.0
 30
0.0
  3
E3_NODE_10_
  1

  0
POLYLINE
  5
15F
  8
0
 62
     9
 66
     1
 10
0.0
 20
0.0
 30
0.0
 70
    64
 71
     4
 72
     2
  0
VERTEX
  5
160
  8
0
 10
23.28899955749512
 20
-185.3869934082031
 30
89.20999908447266
 70
   192
  0
VERTEX
  5
161
  8
0
 10
88.18399810791016
 20
-185.3869934082031
 30
90.91000366210938
 70
   192
  0
VERTEX
  5
162
  8
0
 10
88.38099670410156
 20
-185.3869934082031
 30
83.41200256347656
 70
   192
  0
VERTEX
  5
163
  8
0
 10
23.48500061035156
 20
-185.3869934082031
 30
81.71299743652344
 70
   192
  0
VERTEX
  5
164
  8
0
 62
     9
 10
0.0
 20
0.0
 30
0.0
 70
   128
 71
     3
 72
     2
 73
     1
  0
VERTEX
  5
165
  8
0
 62
     9
 10
0.0
 20
0.0
 30
0.0
 70
   128
 71
     1
 72
     4
 73
     3
  0
SEQEND
  5
166
  8
0
 62
     9
  0
ENDBLK
  5
169
  8
0
  0
BLOCK
  8
0
  2
E3_NODE_11_
 70
     0
 10
0.0
 20
0.0
 30
0.0
  3
E3_NODE_11_
  1

  0
POLYLINE
  5
16B
  8
0
 62
     9
 66
     1
 10
0.0
 20
0.0
 30
0.0
 70
    64
 71
     6
 72
     4
  0
VERTEX
  5
16C
  8
0
 10
88.38099670410156
 20
-185.3869934082031
 30
83.41200256347656
 70
   192
  0
VERTEX
  5
16D
  8
0
 10
88.38099670410156
 20
-204.9869995117188
 30
83.41200256347656
 70
   192
  0
VERTEX
  5
16E
  8
0
 10
23.83499908447266
 20
-204.0800018310547
 30
81.72200012207031
 70
   192
  0
VERTEX
  5
16F
  8
0
 10
23.83499908447266
 20
-186.2949981689453
 30
81.72200012207031
 70
   192
  0
VERTEX
  5
170
  8
0
 10
23.48500061035156
 20
-204.9869995117188
 30
81.71299743652344
 70
   192
  0
VERTEX
  5
171
  8
0
 10
23.48500061035156
 20
-185.3869934082031
 30
81.71299743652344
 70
   192
  0
VERTEX
  5
172
  8
0
 62
     9
 10
0.0
 20
0.0
 30
0.0
 70
   128
 71
     3
 72
     2
 73
     1
  0
VERTEX
  5
173
  8
0
 62
     9
 10
0.0
 20
0.0
 30
0.0
 70
   128
 71
     1
 72
     4
 73
     3
  0
VERTEX
  5
174
  8
0
 62
     9
 10
0.0
 20
0.0
 30
0.0
 70
   128
 71
     3
 72
     5
 73
     2
  0
VERTEX
  5
175
  8
0
 62
     9
 10
0.0
 20
0.0
 30
0.0
 70
   128
 71
     1
 72
     6
 73
     4
  0
SEQEND
  5
176
  8
0
 62
     9
  0
ENDBLK
  5
179
  8
0
  0
BLOCK
  8
0
  2
E3_NODE_12_
 70
     0
 10
0.0
 20
0.0
 30
0.0
  3
E3_NODE_12_
  1

  0
POLYLINE
  5
17B
  8
0
 62
     9
 66
     1
 10
0.0
 20
0.0
 30
0.0
 70
    64
 71
     6
 72
     4
  0
VERTEX
  5
17C
  8
0
 10
88.18399810791016
 20
-185.3869934082031
 30
90.91000366210938
 70
   192
  0
VERTEX
  5
17D
  8
0
 10
23.63800048828125
 20
-186.2949981689453
 30
89.22000122070312
 70
   192
  0
VERTEX
  5
17E
  8
0
 10
23.63800048828125
 20
-204.0800018310547
 30
89.22000122070312
 70
   192
  0
VERTEX
  5
17F
  8
0
 10
88.18399810791016
 20
-204.9869995117188
 30
90.91000366210938
 70
   192
  0
VERTEX
  5
180
  8
0
 10
23.28899955749512
 20
-185.3869934082031
 30
89.20999908447266
 70
   192
  0
VERTEX
  5
181
  8
0
 10
23.28899955749512
 20
-204.9869995117188
 30
89.20999908447266
 70
   192
  0
VERTEX
  5
182
  8
0
 62
     9
 10
0.0
 20
0.0
 30
0.0
 70
   128
 71
     3
 72
     2
 73
     1
  0
VERTEX
  5
183
  8
0
 62
     9
 10
0.0
 20
0.0
 30
0.0
 70
   128
 71
     1
 72
     4
 73
     3
  0
VERTEX
  5
184
  8
0
 62
     9
 10
0.0
 20
0.0
 30
0.0
 70
   128
 71
     2
 72
     5
 73
     1
  0
VERTEX
  5
185
  8
0
 62
     9
 10
0.0
 20
0.0
 30
0.0
 70
   128
 71
     4
 72
     6
 73
     3
  0
SEQEND
  5
186
  8
0
 62
     9
  0
ENDBLK
  5
189
  8
0
  0
BLOCK
  8
0
  2
E3_NODE_13_
 70
     0
 10
0.0
 20
0.0
 30
0.0
  3
E3_NODE_13_
  1

  0
POLYLINE
  5
18B
  8
0
 62
     9
 66
     1
 10
0.0
 20
0.0
 30
0.0
 70
    64
 71
    20
 72
    20
  0
VERTEX
  5
18C
  8
0
 10
-6.0
 20
-355.3919982910156
 30
175.7539978027344
 70
   192
  0
VERTEX
  5
18D
  8
0
 10
-6.0
 20
-355.3919982910156
 30
45.75400161743164
 70
   192
  0
VERTEX
  5
18E
  8
0
 10
6.0
 20
-355.3919982910156
 30
45.75400161743164
 70
   192
  0
VERTEX
  5
18F
  8
0
 10
6.0
 20
-334.6080017089844
 30
45.75400161743164
 70
   192
  0
VERTEX
  5
190
  8
0
 10
-6.0
 20
-334.6080017089844
 30
45.75400161743164
 70
   192
  0
VERTEX
  5
191
  8
0
 10
-6.0
 20
-334.6080017089844
 30
175.7539978027344
 70
   192
  0
VERTEX
  5
192
  8
0
 10
-12.0
 20
-345.0
 30
175.7539978027344
 70
   192
  0
VERTEX
  5
193
  8
0
 10
-11.95800018310547
 20
-344.0
 30
48.75400161743164
 70
   192
  0
VERTEX
  5
194
  8
0
 10
-11.95800018310547
 20
-344.0
 30
45.75400161743164
 70
   192
  0
VERTEX
  5
195
  8
0
 10
-11.95800018310547
 20
-346.0
 30
48.75400161743164
 70
   192
  0
VERTEX
  5
196
  8
0
 10
-12.0
 20
-345.0
 30
48.75400161743164
 70
   192
  0
VERTEX
  5
197
  8
0
 10
12.0
 20
-345.0
 30
175.7539978027344
 70
   192
  0
VERTEX
  5
198
  8
0
 10
6.0
 20
-355.3919982910156
 30
175.7539978027344
 70
   192
  0
VERTEX
  5
199
  8
0
 10
11.95800018310547
 20
-346.0
 30
48.75400161743164
 70
   192
  0
VERTEX
  5
19A
  8
0
 10
11.95800018310547
 20
-346.0
 30
45.75400161743164
 70
   192
  0
VERTEX
  5
19B
  8
0
 10
6.0
 20
-334.6080017089844
 30
175.7539978027344
 70
   192
  0
VERTEX
  5
19C
  8
0
 10
11.95800018310547
 20
-344.0
 30
48.75400161743164
 70
   192
  0
VERTEX
  5
19D
  8
0
 10
12.0
 20
-345.0
 30
48.75400161743164
 70
   192
  0
VERTEX
  5
19E
  8
0
 10
11.95800018310547
 20
-344.0
 30
45.75400161743164
 70
   192
  0
VERTEX
  5
19F
  8
0
 10
-11.95800018310547
 20
-346.0
 30
45.75400161743164
 70
   192
  0
VERTEX
  5
1A0
  8
0
 62
     9
 10
0.0
 20
0.0
 30
0.0
 70
   128
 71
     3
 72
     2
 73
     1
  0
VERTEX
  5
1A1
  8
0
 62
     9
 10
0.0
 20
0.0
 30
0.0
 70
   128
 71
     6
 72
     5
 73
     4
  0
VERTEX
  5
1A2
  8
0
 62
     9
 10
0.0
 20
0.0
 30
0.0
 70
   128
 71
     8
 72
     6
 73
     7
  0
VERTEX
  5
1A3
  8
0
 62
     9
 10
0.0
 20
0.0
 30
0.0
 70
   128
 71
     8
 72
     9
 73
     5
  0
VERTEX
  5
1A4
  8
0
 62
     9
 10
0.0
 20
0.0
 30
0.0
 70
   128
 71
     5
 72
     6
 73
     8
  0
VERTEX
  5
1A5
  8
0
 62
     9
 10
0.0
 20
0.0
 30
0.0
 70
   128
 71
    10
 72
     1
 73
     2
  0
VERTEX
  5
1A6
  8
0
 62
     9
 10
0.0
 20
0.0
 30
0.0
 70
   128
 71
    10
 72
    11
 73
     7
  0
VERTEX
  5
1A7
  8
0
 62
     9
 10
0.0
 20
0.0
 30
0.0
 70
   128
 71
     7
 72
     1
 73
    10
  0
VERTEX
  5
1A8
  8
0
 62
     9
 10
0.0
 20
0.0
 30
0.0
 70
   128
 71
    14
 72
    13
 73
    12
  0
VERTEX
  5
1A9
  8
0
 62
     9
 10
0.0
 20
0.0
 30
0.0
 70
   128
 71
    14
 72
    15
 73
     3
  0
VERTEX
  5
1AA
  8
0
 62
     9
 10
0.0
 20
0.0
 30
0.0
 70
   128
 71
     3
 72
    13
 73
    14
  0
VERTEX
  5
1AB
  8
0
 62
     9
 10
0.0
 20
0.0
 30
0.0
 70
   128
 71
    17
 72
    16
 73
     4
  0
VERTEX
  5
1AC
  8
0
 62
     9
 10
0.0
 20
0.0
 30
0.0
 70
   128
 71
    17
 72
    18
 73
    12
  0
VERTEX
  5
1AD
  8
0
 62
     9
 10
0.0
 20
0.0
 30
0.0
 70
   128
 71
    12
 72
    16
 73
    17
  0
VERTEX
  5
1AE
  8
0
 62
     9
 10
0.0
 20
0.0
 30
0.0
 70
   128
 71
     4
 72
    19
 73
    17
  0
VERTEX
  5
1AF
  8
0
 62
     9
 10
0.0
 20
0.0
 30
0.0
 70
   128
 71
    12
 72
    18
 73
    14
  0
VERTEX
  5
1B0
  8
0
 62
     9
 10
0.0
 20
0.0
 30
0.0
 70
   128
 71
     2
 72
    20
 73
    10
  0
VERTEX
  5
1B1
  8
0
 62
     9
 10
0.0
 20
0.0
 30
0.0
 70
   128
 71
     7
 72
    11
 73
     8
  0
VERTEX
  5
1B2
  8
0
 62
     9
 10
0.0
 20
0.0
 30
0.0
 70
   128
 71
     4
 72
    16
 73
     6
  0
VERTEX
  5
1B3
  8
0
 62
     9
 10
0.0
 20
0.0
 30
0.0
 70
   128
 71
     1
 72
    13
 73
     3
  0
SEQEND
  5
1B4
  8
0
 62
     9
  0
ENDBLK
  5
1B7
  8
0
  0
BLOCK
  8
0
  2
E3_NODE_14_
 70
     0
 10
0.0
 20
0.0
 30
0.0
  3
E3_NODE_14_
  1

  0
POLYLINE
  5
1B9
  8
0
 62
     9
 66
     1
 10
0.0
 20
0.0
 30
0.0
 70
    64
 71
    13
 72
    13
  0
VERTEX
  5
1BA
  8
0
 10
-3.559999942779541
 20
-360.5989990234375
 30
175.7539978027344
 70
   192
  0
VERTEX
  5
1BB
  8
0
 10
-6.0
 20
-355.3919982910156
 30
175.7539978027344
 70
   192
  0
VERTEX
  5
1BC
  8
0
 10
6.0
 20
-355.3919982910156
 30
175.7539978027344
 70
   192
  0
VERTEX
  5
1BD
  8
0
 10
-14.41600036621094
 20
-351.9419860839844
 30
175.7539978027344
 70
   192
  0
VERTEX
  5
1BE
  8
0
 10
-12.0
 20
-345.0
 30
175.7539978027344
 70
   192
  0
VERTEX
  5
1BF
  8
0
 10
-14.41600036621094
 20
-338.0580139160156
 30
175.7539978027344
 70
   192
  0
VERTEX
  5
1C0
  8
0
 10
-3.559999942779541
 20
-329.4010009765625
 30
175.7539978027344
 70
   192
  0
VERTEX
  5
1C1
  8
0
 10
-6.0
 20
-334.6080017089844
 30
175.7539978027344
 70
   192
  0
VERTEX
  5
1C2
  8
0
 10
9.97599983215332
 20
-332.4909973144531
 30
175.7539978027344
 70
   192
  0
VERTEX
  5
1C3
  8
0
 10
16.0
 20
-345.0
 30
175.7539978027344
 70
   192
  0
VERTEX
  5
1C4
  8
0
 10
12.0
 20
-345.0
 30
175.7539978027344
 70
   192
  0
VERTEX
  5
1C5
  8
0
 10
9.97599983215332
 20
-357.5090026855469
 30
175.7539978027344
 70
   192
  0
VERTEX
  5
1C6
  8
0
 10
6.0
 20
-334.6080017089844
 30
175.7539978027344
 70
   192
  0
VERTEX
  5
1C7
  8
0
 62
     9
 10
0.0
 20
0.0
 30
0.0
 70
   128
 71
     3
 72
     2
 73
     1
  0
VERTEX
  5
1C8
  8
0
 62
     9
 10
0.0
 20
0.0
 30
0.0
 70
   128
 71
     2
 72
     5
 73
     4
  0
VERTEX
  5
1C9
  8
0
 62
     9
 10
0.0
 20
0.0
 30
0.0
 70
   128
 71
     8
 72
     7
 73
     6
  0
VERTEX
  5
1CA
  8
0
 62
     9
 10
0.0
 20
0.0
 30
0.0
 70
   128
 71
     4
 72
     1
 73
     2
  0
VERTEX
  5
1CB
  8
0
 62
     9
 10
0.0
 20
0.0
 30
0.0
 70
   128
 71
     6
 72
     5
 73
     8
  0
VERTEX
  5
1CC
  8
0
 62
     9
 10
0.0
 20
0.0
 30
0.0
 70
   128
 71
    11
 72
    10
 73
     9
  0
VERTEX
  5
1CD
  8
0
 62
     9
 10
0.0
 20
0.0
 30
0.0
 70
   128
 71
    11
 72
     3
 73
    12
  0
VERTEX
  5
1CE
  8
0
 62
     9
 10
0.0
 20
0.0
 30
0.0
 70
   128
 71
     6
 72
     4
 73
     5
  0
VERTEX
  5
1CF
  8
0
 62
     9
 10
0.0
 20
0.0
 30
0.0
 70
   128
 71
    13
 72
     9
 73
     7
  0
VERTEX
  5
1D0
  8
0
 62
     9
 10
0.0
 20
0.0
 30
0.0
 70
   128
 71
    12
 72
    10
 73
    11
  0
VERTEX
  5
1D1
  8
0
 62
     9
 10
0.0
 20
0.0
 30
0.0
 70
   128
 71
     7
 72
     8
 73
    13
  0
VERTEX
  5
1D2
  8
0
 62
     9
 10
0.0
 20
0.0
 30
0.0
 70
   128
 71
     1
 72
    12
 73
     3
  0
VERTEX
  5
1D3
  8
0
 62
     9
 10
0.0
 20
0.0
 30
0.0
 70
   128
 71
     9
 72
    13
 73
    11
  0
SEQEND
  5
1D4
  8
0
 62
     9
  0
ENDBLK
  5
1D7
  8
0
  0
BLOCK
  8
0
  2
E3_NODE_15_
 70
     0
 10
0.0
 20
0.0
 30
0.0
  3
E3_NODE_15_
  1

  0
POLYLINE
  5
1D9
  8
0
 62
     9
 66
     1
 10
0.0
 20
0.0
 30
0.0
 70
    64
 71
    14
 72
    14
  0
VERTEX
  5
1DA
  8
0
 10
9.97599983215332
 20
-357.5090026855469
 30
175.7539978027344
 70
   192
  0
VERTEX
  5
1DB
  8
0
 10
16.0
 20
-345.0
 30
175.7539978027344
 70
   192
  0
VERTEX
  5
1DC
  8
0
 10
16.0
 20
-345.0
 30
250.7539978027344
 70
   192
  0
VERTEX
  5
1DD
  8
0
 10
-3.559999942779541
 20
-360.5989990234375
 30
250.7539978027344
 70
   192
  0
VERTEX
  5
1DE
  8
0
 10
-3.559999942779541
 20
-360.5989990234375
 30
175.7539978027344
 70
   192
  0
VERTEX
  5
1DF
  8
0
 10
-14.41600036621094
 20
-351.9419860839844
 30
250.7539978027344
 70
   192
  0
VERTEX
  5
1E0
  8
0
 10
-14.41600036621094
 20
-351.9419860839844
 30
175.7539978027344
 70
   192
  0
VERTEX
  5
1E1
  8
0
 10
-14.41600036621094
 20
-338.0580139160156
 30
250.7539978027344
 70
   192
  0
VERTEX
  5
1E2
  8
0
 10
-14.41600036621094
 20
-338.0580139160156
 30
175.7539978027344
 70
   192
  0
VERTEX
  5
1E3
  8
0
 10
-3.559999942779541
 20
-329.4010009765625
 30
250.7539978027344
 70
   192
  0
VERTEX
  5
1E4
  8
0
 10
-3.559999942779541
 20
-329.4010009765625
 30
175.7539978027344
 70
   192
  0
VERTEX
  5
1E5
  8
0
 10
9.97599983215332
 20
-332.4909973144531
 30
175.7539978027344
 70
   192
  0
VERTEX
  5
1E6
  8
0
 10
9.97599983215332
 20
-332.4909973144531
 30
250.7539978027344
 70
   192
  0
VERTEX
  5
1E7
  8
0
 10
9.97599983215332
 20
-357.5090026855469
 30
250.7539978027344
 70
   192
  0
VERTEX
  5
1E8
  8
0
 62
     9
 10
0.0
 20
0.0
 30
0.0
 70
   128
 71
     3
 72
     2
 73
     1
  0
VERTEX
  5
1E9
  8
0
 62
     9
 10
0.0
 20
0.0
 30
0.0
 70
   128
 71
     1
 72
     5
 73
     4
  0
VERTEX
  5
1EA
  8
0
 62
     9
 10
0.0
 20
0.0
 30
0.0
 70
   128
 71
     5
 72
     7
 73
     6
  0
VERTEX
  5
1EB
  8
0
 62
     9
 10
0.0
 20
0.0
 30
0.0
 70
   128
 71
     7
 72
     9
 73
     8
  0
VERTEX
  5
1EC
  8
0
 62
     9
 10
0.0
 20
0.0
 30
0.0
 70
   128
 71
     9
 72
    11
 73
    10
  0
VERTEX
  5
1ED
  8
0
 62
     9
 10
0.0
 20
0.0
 30
0.0
 70
   128
 71
    10
 72
    11
 73
    12
  0
VERTEX
  5
1EE
  8
0
 62
     9
 10
0.0
 20
0.0
 30
0.0
 70
   128
 71
    13
 72
    12
 73
     2
  0
VERTEX
  5
1EF
  8
0
 62
     9
 10
0.0
 20
0.0
 30
0.0
 70
   128
 71
     2
 72
     3
 73
    13
  0
VERTEX
  5
1F0
  8
0
 62
     9
 10
0.0
 20
0.0
 30
0.0
 70
   128
 71
    12
 72
    13
 73
    10
  0
VERTEX
  5
1F1
  8
0
 62
     9
 10
0.0
 20
0.0
 30
0.0
 70
   128
 71
    10
 72
     8
 73
     9
  0
VERTEX
  5
1F2
  8
0
 62
     9
 10
0.0
 20
0.0
 30
0.0
 70
   128
 71
     8
 72
     6
 73
     7
  0
VERTEX
  5
1F3
  8
0
 62
     9
 10
0.0
 20
0.0
 30
0.0
 70
   128
 71
     6
 72
     4
 73
     5
  0
VERTEX
  5
1F4
  8
0
 62
     9
 10
0.0
 20
0.0
 30
0.0
 70
   128
 71
     4
 72
    14
 73
     1
  0
VERTEX
  5
1F5
  8
0
 62
     9
 10
0.0
 20
0.0
 30
0.0
 70
   128
 71
     1
 72
    14
 73
     3
  0
SEQEND
  5
1F6
  8
0
 62
     9
  0
ENDBLK
  5
1F9
  8
0
  0
BLOCK
  8
0
  2
E3_NODE_16_
 70
     0
 10
0.0
 20
0.0
 30
0.0
  3
E3_NODE_16_
  1

  0
POLYLINE
  5
1FB
  8
0
 62
     9
 66
     1
 10
0.0
 20
0.0
 30
0.0
 70
    64
 71
     7
 72
     5
  0
VERTEX
  5
1FC
  8
0
 10
-3.559999942779541
 20
-329.4010009765625
 30
250.7539978027344
 70
   192
  0
VERTEX
  5
1FD
  8
0
 10
-14.41600036621094
 20
-338.0580139160156
 30
250.7539978027344
 70
   192
  0
VERTEX
  5
1FE
  8
0
 10
-14.41600036621094
 20
-351.9419860839844
 30
250.7539978027344
 70
   192
  0
VERTEX
  5
1FF
  8
0
 10
-3.559999942779541
 20
-360.5989990234375
 30
250.7539978027344
 70
   192
  0
VERTEX
  5
200
  8
0
 10
9.97599983215332
 20
-332.4909973144531
 30
250.7539978027344
 70
   192
  0
VERTEX
  5
201
  8
0
 10
9.97599983215332
 20
-357.5090026855469
 30
250.7539978027344
 70
   192
  0
VERTEX
  5
202
  8
0
 10
16.0
 20
-345.0
 30
250.7539978027344
 70
   192
  0
VERTEX
  5
203
  8
0
 62
     9
 10
0.0
 20
0.0
 30
0.0
 70
   128
 71
     3
 72
     2
 73
     1
  0
VERTEX
  5
204
  8
0
 62
     9
 10
0.0
 20
0.0
 30
0.0
 70
   128
 71
     1
 72
     5
 73
     4
  0
VERTEX
  5
205
  8
0
 62
     9
 10
0.0
 20
0.0
 30
0.0
 70
   128
 71
     7
 72
     6
 73
     4
  0
VERTEX
  5
206
  8
0
 62
     9
 10
0.0
 20
0.0
 30
0.0
 70
   128
 71
     4
 72
     5
 73
     7
  0
VERTEX
  5
207
  8
0
 62
     9
 10
0.0
 20
0.0
 30
0.0
 70
   128
 71
     1
 72
     4
 73
     3
  0
SEQEND
  5
208
  8
0
 62
     9
  0
ENDBLK
  5
20B
  8
0
  0
BLOCK
  8
0
  2
E3_NODE_17_
 70
     0
 10
0.0
 20
0.0
 30
0.0
  3
E3_NODE_17_
  1

  0
POLYLINE
  5
20D
  8
0
 62
     9
 66
     1
 10
0.0
 20
0.0
 30
0.0
 70
    64
 71
     8
 72
     8
  0
VERTEX
  5
20E
  8
0
 10
0.0
 20
24.39999961853027
 30
62.20000076293945
 70
   192
  0
VERTEX
  5
20F
  8
0
 10
-5.0
 20
24.39999961853027
 30
67.19999694824219
 70
   192
  0
VERTEX
  5
210
  8
0
 10
-5.0
 20
35.90000152587891
 30
67.19999694824219
 70
   192
  0
VERTEX
  5
211
  8
0
 10
0.0
 20
35.90000152587891
 30
62.20000076293945
 70
   192
  0
VERTEX
  5
212
  8
0
 10
0.0
 20
24.39999961853027
 30
72.19999694824219
 70
   192
  0
VERTEX
  5
213
  8
0
 10
0.0
 20
35.90000152587891
 30
72.19999694824219
 70
   192
  0
VERTEX
  5
214
  8
0
 10
5.0
 20
24.39999961853027
 30
67.19999694824219
 70
   192
  0
VERTEX
  5
215
  8
0
 10
5.0
 20
35.90000152587891
 30
67.19999694824219
 70
   192
  0
VERTEX
  5
216
  8
0
 62
     9
 10
0.0
 20
0.0
 30
0.0
 70
   128
 71
     3
 72
     2
 73
     1
  0
VERTEX
  5
217
  8
0
 62
     9
 10
0.0
 20
0.0
 30
0.0
 70
   128
 71
     4
 72
     3
 73
     1
  0
VERTEX
  5
218
  8
0
 62
     9
 10
0.0
 20
0.0
 30
0.0
 70
   128
 71
     6
 72
     5
 73
     2
  0
VERTEX
  5
219
  8
0
 62
     9
 10
0.0
 20
0.0
 30
0.0
 70
   128
 71
     3
 72
     6
 73
     2
  0
VERTEX
  5
21A
  8
0
 62
     9
 10
0.0
 20
0.0
 30
0.0
 70
   128
 71
     8
 72
     7
 73
     5
  0
VERTEX
  5
21B
  8
0
 62
     9
 10
0.0
 20
0.0
 30
0.0
 70
   128
 71
     6
 72
     8
 73
     5
  0
VERTEX
  5
21C
  8
0
 62
     9
 10
0.0
 20
0.0
 30
0.0
 70
   128
 71
     4
 72
     1
 73
     7
  0
VERTEX
  5
21D
  8
0
 62
     9
 10
0.0
 20
0.0
 30
0.0
 70
   128
 71
     8
 72
     4
 73
     7
  0
SEQEND
  5
21E
  8
0
 62
     9
  0
ENDBLK
  5
221
  8
0
  0
BLOCK
  8
0
  2
E3_NODE_18_
 70
     0
 10
0.0
 20
0.0
 30
0.0
  3
E3_NODE_18_
  1

  0
POLYLINE
  5
223
  8
0
 62
     9
 66
     1
 10
0.0
 20
0.0
 30
0.0
 70
    64
 71
    32
 72
    32
  0
VERTEX
  5
224
  8
0
 10
20.15200042724609
 20
-211.9089965820312
 30
13.5
 70
   192
  0
VERTEX
  5
225
  8
0
 10
26.30599975585938
 20
-195.0
 30
13.5
 70
   192
  0
VERTEX
  5
226
  8
0
 10
25.19000053405762
 20
-201.2089996337891
 30
55.00400161743164
 70
   192
  0
VERTEX
  5
227
  8
0
 10
25.19000053405762
 20
-195.0
 30
55.00400161743164
 70
   192
  0
VERTEX
  5
228
  8
0
 10
19.41900062561035
 20
-212.2039947509766
 30
55.00400161743164
 70
   192
  0
VERTEX
  5
229
  8
0
 10
9.199999809265137
 20
-219.2579956054688
 30
55.00400161743164
 70
   192
  0
VERTEX
  5
22A
  8
0
 10
4.567999839782715
 20
-220.9069976806641
 30
13.5
 70
   192
  0
VERTEX
  5
22B
  8
0
 10
19.73500061035156
 20
-211.6029968261719
 30
55.00400161743164
 70
   192
  0
VERTEX
  5
22C
  8
0
 10
-13.15299987792969
 20
-217.7819976806641
 30
13.5
 70
   192
  0
VERTEX
  5
22D
  8
0
 10
-3.127000093460083
 20
-220.7550048828125
 30
55.00400161743164
 70
   192
  0
VERTEX
  5
22E
  8
0
 10
4.419000148773193
 20
-219.8390045166016
 30
55.00400161743164
 70
   192
  0
VERTEX
  5
22F
  8
0
 10
-14.73799991607666
 20
-216.3520050048828
 30
55.00400161743164
 70
   192
  0
VERTEX
  5
230
  8
0
 10
-22.97200012207031
 20
-207.0570068359375
 30
55.00400161743164
 70
   192
  0
VERTEX
  5
231
  8
0
 10
-24.71999931335449
 20
-203.9969940185547
 30
13.5
 70
   192
  0
VERTEX
  5
232
  8
0
 10
-12.82400035858154
 20
-217.0769958496094
 30
55.00400161743164
 70
   192
  0
VERTEX
  5
233
  8
0
 10
-26.30599975585938
 20
-195.0
 30
13.5
 70
   192
  0
VERTEX
  5
234
  8
0
 10
-25.94400024414062
 20
-195.0
 30
55.00400161743164
 70
   192
  0
VERTEX
  5
235
  8
0
 10
-23.79299926757812
 20
-186.27099609375
 30
55.00400161743164
 70
   192
  0
VERTEX
  5
236
  8
0
 10
-23.79299926757812
 20
-203.72900390625
 30
55.00400161743164
 70
   192
  0
VERTEX
  5
237
  8
0
 10
-13.15299987792969
 20
-172.2180023193359
 30
13.5
 70
   192
  0
VERTEX
  5
238
  8
0
 10
-24.71999931335449
 20
-186.0030059814453
 30
13.5
 70
   192
  0
VERTEX
  5
239
  8
0
 10
-22.97200012207031
 20
-182.9429931640625
 30
55.00400161743164
 70
   192
  0
VERTEX
  5
23A
  8
0
 10
-14.73799991607666
 20
-173.6479949951172
 30
55.00400161743164
 70
   192
  0
VERTEX
  5
23B
  8
0
 10
-12.82400035858154
 20
-172.9230041503906
 30
55.00400161743164
 70
   192
  0
VERTEX
  5
23C
  8
0
 10
-3.127000093460083
 20
-169.2449951171875
 30
55.00400161743164
 70
   192
  0
VERTEX
  5
23D
  8
0
 10
4.567999839782715
 20
-169.0930023193359
 30
13.5
 70
   192
  0
VERTEX
  5
23E
  8
0
 10
20.15200042724609
 20
-178.0910034179688
 30
13.5
 70
   192
  0
VERTEX
  5
23F
  8
0
 10
9.199999809265137
 20
-170.7420043945312
 30
55.00400161743164
 70
   192
  0
VERTEX
  5
240
  8
0
 10
4.419000148773193
 20
-170.1609954833984
 30
55.00400161743164
 70
   192
  0
VERTEX
  5
241
  8
0
 10
19.41900062561035
 20
-177.7960052490234
 30
55.00400161743164
 70
   192
  0
VERTEX
  5
242
  8
0
 10
19.73500061035156
 20
-178.3970031738281
 30
55.00400161743164
 70
   192
  0
VERTEX
  5
243
  8
0
 10
25.19000053405762
 20
-188.7910003662109
 30
55.00400161743164
 70
   192
  0
VERTEX
  5
244
  8
0
 62
     9
 10
0.0
 20
0.0
 30
0.0
 70
   128
 71
     3
 72
     2
 73
     1
  0
VERTEX
  5
245
  8
0
 62
     9
 10
0.0
 20
0.0
 30
0.0
 70
   128
 71
     3
 72
     4
 73
     2
  0
VERTEX
  5
246
  8
0
 62
     9
 10
0.0
 20
0.0
 30
0.0
 70
   128
 71
     6
 72
     5
 73
     1
  0
VERTEX
  5
247
  8
0
 62
     9
 10
0.0
 20
0.0
 30
0.0
 70
   128
 71
     1
 72
     7
 73
     6
  0
VERTEX
  5
248
  8
0
 62
     9
 10
0.0
 20
0.0
 30
0.0
 70
   128
 71
     5
 72
     8
 73
     1
  0
VERTEX
  5
249
  8
0
 62
     9
 10
0.0
 20
0.0
 30
0.0
 70
   128
 71
    10
 72
     7
 73
     9
  0
VERTEX
  5
24A
  8
0
 62
     9
 10
0.0
 20
0.0
 30
0.0
 70
   128
 71
    10
 72
    11
 73
     7
  0
VERTEX
  5
24B
  8
0
 62
     9
 10
0.0
 20
0.0
 30
0.0
 70
   128
 71
    13
 72
    12
 73
     9
  0
VERTEX
  5
24C
  8
0
 62
     9
 10
0.0
 20
0.0
 30
0.0
 70
   128
 71
     9
 72
    14
 73
    13
  0
VERTEX
  5
24D
  8
0
 62
     9
 10
0.0
 20
0.0
 30
0.0
 70
   128
 71
    12
 72
    15
 73
     9
  0
VERTEX
  5
24E
  8
0
 62
     9
 10
0.0
 20
0.0
 30
0.0
 70
   128
 71
    18
 72
    17
 73
    16
  0
VERTEX
  5
24F
  8
0
 62
     9
 10
0.0
 20
0.0
 30
0.0
 70
   128
 71
    17
 72
    19
 73
    14
  0
VERTEX
  5
250
  8
0
 62
     9
 10
0.0
 20
0.0
 30
0.0
 70
   128
 71
    14
 72
    16
 73
    17
  0
VERTEX
  5
251
  8
0
 62
     9
 10
0.0
 20
0.0
 30
0.0
 70
   128
 71
    22
 72
    21
 73
    20
  0
VERTEX
  5
252
  8
0
 62
     9
 10
0.0
 20
0.0
 30
0.0
 70
   128
 71
    22
 72
    18
 73
    21
  0
VERTEX
  5
253
  8
0
 62
     9
 10
0.0
 20
0.0
 30
0.0
 70
   128
 71
    20
 72
    23
 73
    22
  0
VERTEX
  5
254
  8
0
 62
     9
 10
0.0
 20
0.0
 30
0.0
 70
   128
 71
    25
 72
    24
 73
    20
  0
VERTEX
  5
255
  8
0
 62
     9
 10
0.0
 20
0.0
 30
0.0
 70
   128
 71
    20
 72
    26
 73
    25
  0
VERTEX
  5
256
  8
0
 62
     9
 10
0.0
 20
0.0
 30
0.0
 70
   128
 71
    28
 72
    26
 73
    27
  0
VERTEX
  5
257
  8
0
 62
     9
 10
0.0
 20
0.0
 30
0.0
 70
   128
 71
    28
 72
    29
 73
    26
  0
VERTEX
  5
258
  8
0
 62
     9
 10
0.0
 20
0.0
 30
0.0
 70
   128
 71
    27
 72
    30
 73
    28
  0
VERTEX
  5
259
  8
0
 62
     9
 10
0.0
 20
0.0
 30
0.0
 70
   128
 71
    32
 72
    31
 73
    27
  0
VERTEX
  5
25A
  8
0
 62
     9
 10
0.0
 20
0.0
 30
0.0
 70
   128
 71
    27
 72
     2
 73
    32
  0
VERTEX
  5
25B
  8
0
 62
     9
 10
0.0
 20
0.0
 30
0.0
 70
   128
 71
     2
 72
     4
 73
    32
  0
VERTEX
  5
25C
  8
0
 62
     9
 10
0.0
 20
0.0
 30
0.0
 70
   128
 71
    27
 72
    31
 73
    30
  0
VERTEX
  5
25D
  8
0
 62
     9
 10
0.0
 20
0.0
 30
0.0
 70
   128
 71
    26
 72
    29
 73
    25
  0
VERTEX
  5
25E
  8
0
 62
     9
 10
0.0
 20
0.0
 30
0.0
 70
   128
 71
    20
 72
    24
 73
    23
  0
VERTEX
  5
25F
  8
0
 62
     9
 10
0.0
 20
0.0
 30
0.0
 70
   128
 71
    16
 72
    21
 73
    18
  0
VERTEX
  5
260
  8
0
 62
     9
 10
0.0
 20
0.0
 30
0.0
 70
   128
 71
    14
 72
    19
 73
    13
  0
VERTEX
  5
261
  8
0
 62
     9
 10
0.0
 20
0.0
 30
0.0
 70
   128
 71
     9
 72
    15
 73
    10
  0
VERTEX
  5
262
  8
0
 62
     9
 10
0.0
 20
0.0
 30
0.0
 70
   128
 71
     7
 72
    11
 73
     6
  0
VERTEX
  5
263
  8
0
 62
     9
 10
0.0
 20
0.0
 30
0.0
 70
   128
 71
     1
 72
     8
 73
     3
  0
SEQEND
  5
264
  8
0
 62
     9
  0
ENDBLK
  5
267
  8
0
  0
BLOCK
  8
0
  2
E3_NODE_19_
 70
     0
 10
0.0
 20
0.0
 30
0.0
  3
E3_NODE_19_
  1

  0
POLYLINE
  5
269
  8
0
 62
     9
 66
     1
 10
0.0
 20
0.0
 30
0.0
 70
    64
 71
    35
 72
    35
  0
VERTEX
  5
26A
  8
0
 10
-25.44400024414062
 20
-195.0
 30
55.5
 70
   192
  0
VERTEX
  5
26B
  8
0
 10
-25.94400024414062
 20
-195.0
 30
55.00400161743164
 70
   192
  0
VERTEX
  5
26C
  8
0
 10
-23.79299926757812
 20
-203.72900390625
 30
55.00400161743164
 70
   192
  0
VERTEX
  5
26D
  8
0
 10
-22.53000068664551
 20
-206.8240051269531
 30
55.5
 70
   192
  0
VERTEX
  5
26E
  8
0
 10
-14.73799991607666
 20
-216.3520050048828
 30
55.00400161743164
 70
   192
  0
VERTEX
  5
26F
  8
0
 10
-14.45400047302246
 20
-215.9400024414062
 30
55.5
 70
   192
  0
VERTEX
  5
270
  8
0
 10
-3.066999912261963
 20
-220.2590026855469
 30
55.5
 70
   192
  0
VERTEX
  5
271
  8
0
 10
-12.82400035858154
 20
-217.0769958496094
 30
55.00400161743164
 70
   192
  0
VERTEX
  5
272
  8
0
 10
-3.127000093460083
 20
-220.7550048828125
 30
55.00400161743164
 70
   192
  0
VERTEX
  5
273
  8
0
 10
4.419000148773193
 20
-219.8390045166016
 30
55.00400161743164
 70
   192
  0
VERTEX
  5
274
  8
0
 10
9.02299976348877
 20
-218.7910003662109
 30
55.5
 70
   192
  0
VERTEX
  5
275
  8
0
 10
19.41900062561035
 20
-212.2039947509766
 30
55.00400161743164
 70
   192
  0
VERTEX
  5
276
  8
0
 10
19.04500007629395
 20
-211.8730010986328
 30
55.5
 70
   192
  0
VERTEX
  5
277
  8
0
 10
24.70499992370605
 20
-201.0890045166016
 30
55.5
 70
   192
  0
VERTEX
  5
278
  8
0
 10
19.73500061035156
 20
-211.6029968261719
 30
55.00400161743164
 70
   192
  0
VERTEX
  5
279
  8
0
 10
24.70499992370605
 20
-188.9109954833984
 30
55.5
 70
   192
  0
VERTEX
  5
27A
  8
0
 10
25.19000053405762
 20
-195.0
 30
55.00400161743164
 70
   192
  0
VERTEX
  5
27B
  8
0
 10
25.19000053405762
 20
-201.2089996337891
 30
55.00400161743164
 70
   192
  0
VERTEX
  5
27C
  8
0
 10
25.19000053405762
 20
-188.7910003662109
 30
55.00400161743164
 70
   192
  0
VERTEX
  5
27D
  8
0
 10
19.73500061035156
 20
-178.3970031738281
 30
55.00400161743164
 70
   192
  0
VERTEX
  5
27E
  8
0
 10
19.04500007629395
 20
-178.1269989013672
 30
55.5
 70
   192
  0
VERTEX
  5
27F
  8
0
 10
19.41900062561035
 20
-177.7960052490234
 30
55.00400161743164
 70
   192
  0
VERTEX
  5
280
  8
0
 10
9.199999809265137
 20
-170.7420043945312
 30
55.00400161743164
 70
   192
  0
VERTEX
  5
281
  8
0
 10
9.02299976348877
 20
-171.2089996337891
 30
55.5
 70
   192
  0
VERTEX
  5
282
  8
0
 10
-3.066999912261963
 20
-169.7409973144531
 30
55.5
 70
   192
  0
VERTEX
  5
283
  8
0
 10
4.419000148773193
 20
-170.1609954833984
 30
55.00400161743164
 70
   192
  0
VERTEX
  5
284
  8
0
 10
-3.127000093460083
 20
-169.2449951171875
 30
55.00400161743164
 70
   192
  0
VERTEX
  5
285
  8
0
 10
-12.82400035858154
 20
-172.9230041503906
 30
55.00400161743164
 70
   192
  0
VERTEX
  5
286
  8
0
 10
-14.45400047302246
 20
-174.0599975585938
 30
55.5
 70
   192
  0
VERTEX
  5
287
  8
0
 10
-14.73799991607666
 20
-173.6479949951172
 30
55.00400161743164
 70
   192
  0
VERTEX
  5
288
  8
0
 10
-22.97200012207031
 20
-182.9429931640625
 30
55.00400161743164
 70
   192
  0
VERTEX
  5
289
  8
0
 10
-22.53000068664551
 20
-183.1759948730469
 30
55.5
 70
   192
  0
VERTEX
  5
28A
  8
0
 10
-23.79299926757812
 20
-186.27099609375
 30
55.00400161743164
 70
   192
  0
VERTEX
  5
28B
  8
0
 10
9.199999809265137
 20
-219.2579956054688
 30
55.00400161743164
 70
   192
  0
VERTEX
  5
28C
  8
0
 10
-22.97200012207031
 20
-207.0570068359375
 30
55.00400161743164
 70
   192
  0
VERTEX
  5
28D
  8
0
 62
     9
 10
0.0
 20
0.0
 30
0.0
 70
   128
 71
     3
 72
     2
 73
     1
  0
VERTEX
  5
28E
  8
0
 62
     9
 10
0.0
 20
0.0
 30
0.0
 70
   128
 71
     1
 72
     4
 73
     3
  0
VERTEX
  5
28F
  8
0
 62
     9
 10
0.0
 20
0.0
 30
0.0
 70
   128
 71
     4
 72
     6
 73
     5
  0
VERTEX
  5
290
  8
0
 62
     9
 10
0.0
 20
0.0
 30
0.0
 70
   128
 71
     8
 72
     6
 73
     7
  0
VERTEX
  5
291
  8
0
 62
     9
 10
0.0
 20
0.0
 30
0.0
 70
   128
 71
     8
 72
     5
 73
     6
  0
VERTEX
  5
292
  8
0
 62
     9
 10
0.0
 20
0.0
 30
0.0
 70
   128
 71
    10
 72
     9
 73
     7
  0
VERTEX
  5
293
  8
0
 62
     9
 10
0.0
 20
0.0
 30
0.0
 70
   128
 71
     7
 72
    11
 73
    10
  0
VERTEX
  5
294
  8
0
 62
     9
 10
0.0
 20
0.0
 30
0.0
 70
   128
 71
    11
 72
    13
 73
    12
  0
VERTEX
  5
295
  8
0
 62
     9
 10
0.0
 20
0.0
 30
0.0
 70
   128
 71
    15
 72
    13
 73
    14
  0
VERTEX
  5
296
  8
0
 62
     9
 10
0.0
 20
0.0
 30
0.0
 70
   128
 71
    15
 72
    12
 73
    13
  0
VERTEX
  5
297
  8
0
 62
     9
 10
0.0
 20
0.0
 30
0.0
 70
   128
 71
    17
 72
    14
 73
    16
  0
VERTEX
  5
298
  8
0
 62
     9
 10
0.0
 20
0.0
 30
0.0
 70
   128
 71
    17
 72
    18
 73
    14
  0
VERTEX
  5
299
  8
0
 62
     9
 10
0.0
 20
0.0
 30
0.0
 70
   128
 71
    20
 72
    19
 73
    16
  0
VERTEX
  5
29A
  8
0
 62
     9
 10
0.0
 20
0.0
 30
0.0
 70
   128
 71
    16
 72
    21
 73
    20
  0
VERTEX
  5
29B
  8
0
 62
     9
 10
0.0
 20
0.0
 30
0.0
 70
   128
 71
    24
 72
    23
 73
    22
  0
VERTEX
  5
29C
  8
0
 62
     9
 10
0.0
 20
0.0
 30
0.0
 70
   128
 71
    26
 72
    24
 73
    25
  0
VERTEX
  5
29D
  8
0
 62
     9
 10
0.0
 20
0.0
 30
0.0
 70
   128
 71
    26
 72
    23
 73
    24
  0
VERTEX
  5
29E
  8
0
 62
     9
 10
0.0
 20
0.0
 30
0.0
 70
   128
 71
    28
 72
    27
 73
    25
  0
VERTEX
  5
29F
  8
0
 62
     9
 10
0.0
 20
0.0
 30
0.0
 70
   128
 71
    25
 72
    29
 73
    28
  0
VERTEX
  5
2A0
  8
0
 62
     9
 10
0.0
 20
0.0
 30
0.0
 70
   128
 71
    32
 72
    31
 73
    30
  0
VERTEX
  5
2A1
  8
0
 62
     9
 10
0.0
 20
0.0
 30
0.0
 70
   128
 71
    33
 72
    32
 73
     1
  0
VERTEX
  5
2A2
  8
0
 62
     9
 10
0.0
 20
0.0
 30
0.0
 70
   128
 71
    33
 72
    31
 73
    32
  0
VERTEX
  5
2A3
  8
0
 62
     9
 10
0.0
 20
0.0
 30
0.0
 70
   128
 71
     1
 72
     2
 73
    33
  0
VERTEX
  5
2A4
  8
0
 62
     9
 10
0.0
 20
0.0
 30
0.0
 70
   128
 71
    30
 72
    29
 73
    32
  0
VERTEX
  5
2A5
  8
0
 62
     9
 10
0.0
 20
0.0
 30
0.0
 70
   128
 71
    29
 72
    30
 73
    28
  0
VERTEX
  5
2A6
  8
0
 62
     9
 10
0.0
 20
0.0
 30
0.0
 70
   128
 71
    25
 72
    27
 73
    26
  0
VERTEX
  5
2A7
  8
0
 62
     9
 10
0.0
 20
0.0
 30
0.0
 70
   128
 71
    22
 72
    21
 73
    24
  0
VERTEX
  5
2A8
  8
0
 62
     9
 10
0.0
 20
0.0
 30
0.0
 70
   128
 71
    21
 72
    22
 73
    20
  0
VERTEX
  5
2A9
  8
0
 62
     9
 10
0.0
 20
0.0
 30
0.0
 70
   128
 71
    16
 72
    19
 73
    17
  0
VERTEX
  5
2AA
  8
0
 62
     9
 10
0.0
 20
0.0
 30
0.0
 70
   128
 71
    14
 72
    18
 73
    15
  0
VERTEX
  5
2AB
  8
0
 62
     9
 10
0.0
 20
0.0
 30
0.0
 70
   128
 71
    12
 72
    34
 73
    11
  0
VERTEX
  5
2AC
  8
0
 62
     9
 10
0.0
 20
0.0
 30
0.0
 70
   128
 71
    11
 72
    34
 73
    10
  0
VERTEX
  5
2AD
  8
0
 62
     9
 10
0.0
 20
0.0
 30
0.0
 70
   128
 71
     7
 72
     9
 73
     8
  0
VERTEX
  5
2AE
  8
0
 62
     9
 10
0.0
 20
0.0
 30
0.0
 70
   128
 71
     5
 72
    35
 73
     4
  0
VERTEX
  5
2AF
  8
0
 62
     9
 10
0.0
 20
0.0
 30
0.0
 70
   128
 71
     4
 72
    35
 73
     3
  0
SEQEND
  5
2B0
  8
0
 62
     9
  0
ENDBLK
  5
2B3
  8
0
  0
BLOCK
  8
0
  2
E3_NODE_20_
 70
     0
 10
0.0
 20
0.0
 30
0.0
  3
E3_NODE_20_
  1

  0
POLYLINE
  5
2B5
  8
0
 62
     9
 66
     1
 10
0.0
 20
0.0
 30
0.0
 70
    64
 71
    25
 72
    25
  0
VERTEX
  5
2B6
  8
0
 10
24.70499992370605
 20
-201.0890045166016
 30
55.5
 70
   192
  0
VERTEX
  5
2B7
  8
0
 10
24.26899909973145
 20
-195.0
 30
55.5
 70
   192
  0
VERTEX
  5
2B8
  8
0
 10
21.01799964904785
 20
-207.1349945068359
 30
55.5
 70
   192
  0
VERTEX
  5
2B9
  8
0
 10
-24.26899909973145
 20
-195.0
 30
55.5
 70
   192
  0
VERTEX
  5
2BA
  8
0
 10
-21.01799964904785
 20
-182.8650054931641
 30
55.5
 70
   192
  0
VERTEX
  5
2BB
  8
0
 10
-22.53000068664551
 20
-183.1759948730469
 30
55.5
 70
   192
  0
VERTEX
  5
2BC
  8
0
 10
-25.44400024414062
 20
-195.0
 30
55.5
 70
   192
  0
VERTEX
  5
2BD
  8
0
 10
-22.53000068664551
 20
-206.8240051269531
 30
55.5
 70
   192
  0
VERTEX
  5
2BE
  8
0
 10
24.70499992370605
 20
-188.9109954833984
 30
55.5
 70
   192
  0
VERTEX
  5
2BF
  8
0
 10
19.04500007629395
 20
-178.1269989013672
 30
55.5
 70
   192
  0
VERTEX
  5
2C0
  8
0
 10
21.01799964904785
 20
-182.8650054931641
 30
55.5
 70
   192
  0
VERTEX
  5
2C1
  8
0
 10
-3.066999912261963
 20
-169.7409973144531
 30
55.5
 70
   192
  0
VERTEX
  5
2C2
  8
0
 10
-14.45400047302246
 20
-174.0599975585938
 30
55.5
 70
   192
  0
VERTEX
  5
2C3
  8
0
 10
-12.13500022888184
 20
-173.9819946289062
 30
55.5
 70
   192
  0
VERTEX
  5
2C4
  8
0
 10
-21.01799964904785
 20
-207.1349945068359
 30
55.5
 70
   192
  0
VERTEX
  5
2C5
  8
0
 10
-14.45400047302246
 20
-215.9400024414062
 30
55.5
 70
   192
  0
VERTEX
  5
2C6
  8
0
 10
-12.13500022888184
 20
-216.0180053710938
 30
55.5
 70
   192
  0
VERTEX
  5
2C7
  8
0
 10
9.02299976348877
 20
-218.7910003662109
 30
55.5
 70
   192
  0
VERTEX
  5
2C8
  8
0
 10
12.13500022888184
 20
-216.0180053710938
 30
55.5
 70
   192
  0
VERTEX
  5
2C9
  8
0
 10
0.0
 20
-219.2689971923828
 30
55.5
 70
   192
  0
VERTEX
  5
2CA
  8
0
 10
19.04500007629395
 20
-211.8730010986328
 30
55.5
 70
   192
  0
VERTEX
  5
2CB
  8
0
 10
9.02299976348877
 20
-171.2089996337891
 30
55.5
 70
   192
  0
VERTEX
  5
2CC
  8
0
 10
12.13500022888184
 20
-173.9819946289062
 30
55.5
 70
   192
  0
VERTEX
  5
2CD
  8
0
 10
0.0
 20
-170.7310028076172
 30
55.5
 70
   192
  0
VERTEX
  5
2CE
  8
0
 10
-3.066999912261963
 20
-220.2590026855469
 30
55.5
 70
   192
  0
VERTEX
  5
2CF
  8
0
 62
     9
 10
0.0
 20
0.0
 30
0.0
 70
   128
 71
     3
 72
     2
 73
     1
  0
VERTEX
  5
2D0
  8
0
 62
     9
 10
0.0
 20
0.0
 30
0.0
 70
   128
 71
     6
 72
     5
 73
     4
  0
VERTEX
  5
2D1
  8
0
 62
     9
 10
0.0
 20
0.0
 30
0.0
 70
   128
 71
     8
 72
     7
 73
     4
  0
VERTEX
  5
2D2
  8
0
 62
     9
 10
0.0
 20
0.0
 30
0.0
 70
   128
 71
     2
 72
     9
 73
     1
  0
VERTEX
  5
2D3
  8
0
 62
     9
 10
0.0
 20
0.0
 30
0.0
 70
   128
 71
    11
 72
    10
 73
     9
  0
VERTEX
  5
2D4
  8
0
 62
     9
 10
0.0
 20
0.0
 30
0.0
 70
   128
 71
    14
 72
    13
 73
    12
  0
VERTEX
  5
2D5
  8
0
 62
     9
 10
0.0
 20
0.0
 30
0.0
 70
   128
 71
     5
 72
     6
 73
    13
  0
VERTEX
  5
2D6
  8
0
 62
     9
 10
0.0
 20
0.0
 30
0.0
 70
   128
 71
     4
 72
    15
 73
     8
  0
VERTEX
  5
2D7
  8
0
 62
     9
 10
0.0
 20
0.0
 30
0.0
 70
   128
 71
    15
 72
    17
 73
    16
  0
VERTEX
  5
2D8
  8
0
 62
     9
 10
0.0
 20
0.0
 30
0.0
 70
   128
 71
    20
 72
    19
 73
    18
  0
VERTEX
  5
2D9
  8
0
 62
     9
 10
0.0
 20
0.0
 30
0.0
 70
   128
 71
    19
 72
     3
 73
    21
  0
VERTEX
  5
2DA
  8
0
 62
     9
 10
0.0
 20
0.0
 30
0.0
 70
   128
 71
     9
 72
     2
 73
    11
  0
VERTEX
  5
2DB
  8
0
 62
     9
 10
0.0
 20
0.0
 30
0.0
 70
   128
 71
    23
 72
    22
 73
    10
  0
VERTEX
  5
2DC
  8
0
 62
     9
 10
0.0
 20
0.0
 30
0.0
 70
   128
 71
    24
 72
    12
 73
    22
  0
VERTEX
  5
2DD
  8
0
 62
     9
 10
0.0
 20
0.0
 30
0.0
 70
   128
 71
    13
 72
    14
 73
     5
  0
VERTEX
  5
2DE
  8
0
 62
     9
 10
0.0
 20
0.0
 30
0.0
 70
   128
 71
    16
 72
     8
 73
    15
  0
VERTEX
  5
2DF
  8
0
 62
     9
 10
0.0
 20
0.0
 30
0.0
 70
   128
 71
    17
 72
    20
 73
    25
  0
VERTEX
  5
2E0
  8
0
 62
     9
 10
0.0
 20
0.0
 30
0.0
 70
   128
 71
    21
 72
    18
 73
    19
  0
VERTEX
  5
2E1
  8
0
 62
     9
 10
0.0
 20
0.0
 30
0.0
 70
   128
 71
    10
 72
    11
 73
    23
  0
VERTEX
  5
2E2
  8
0
 62
     9
 10
0.0
 20
0.0
 30
0.0
 70
   128
 71
    12
 72
    24
 73
    14
  0
VERTEX
  5
2E3
  8
0
 62
     9
 10
0.0
 20
0.0
 30
0.0
 70
   128
 71
    25
 72
    16
 73
    17
  0
VERTEX
  5
2E4
  8
0
 62
     9
 10
0.0
 20
0.0
 30
0.0
 70
   128
 71
     1
 72
    21
 73
     3
  0
VERTEX
  5
2E5
  8
0
 62
     9
 10
0.0
 20
0.0
 30
0.0
 70
   128
 71
     4
 72
     7
 73
     6
  0
VERTEX
  5
2E6
  8
0
 62
     9
 10
0.0
 20
0.0
 30
0.0
 70
   128
 71
    22
 72
    23
 73
    24
  0
VERTEX
  5
2E7
  8
0
 62
     9
 10
0.0
 20
0.0
 30
0.0
 70
   128
 71
    18
 72
    25
 73
    20
  0
SEQEND
  5
2E8
  8
0
 62
     9
  0
ENDBLK
  5
2EB
  8
0
  0
BLOCK
  8
0
  2
E3_NODE_21_
 70
     0
 10
0.0
 20
0.0
 30
0.0
  3
E3_NODE_21_
  1

  0
POLYLINE
  5
2ED
  8
0
 62
     9
 66
     1
 10
0.0
 20
0.0
 30
0.0
 70
    64
 71
    44
 72
    56
  0
VERTEX
  5
2EE
  8
0
 10
18.05200004577637
 20
-205.4230041503906
 30
63.30099868774414
 70
   192
  0
VERTEX
  5
2EF
  8
0
 10
12.98999977111816
 20
-202.5
 30
69.5
 70
   192
  0
VERTEX
  5
2F0
  8
0
 10
7.5
 20
-207.9900054931641
 30
69.5
 70
   192
  0
VERTEX
  5
2F1
  8
0
 10
10.42300033569336
 20
-213.052001953125
 30
63.30099868774414
 70
   192
  0
VERTEX
  5
2F2
  8
0
 10
0.0
 20
-210.0
 30
69.5
 70
   192
  0
VERTEX
  5
2F3
  8
0
 10
0.0
 20
-215.8450012207031
 30
63.30099868774414
 70
   192
  0
VERTEX
  5
2F4
  8
0
 10
-7.5
 20
-207.9900054931641
 30
69.5
 70
   192
  0
VERTEX
  5
2F5
  8
0
 10
-10.42300033569336
 20
-213.052001953125
 30
63.30099868774414
 70
   192
  0
VERTEX
  5
2F6
  8
0
 10
-12.98999977111816
 20
-202.5
 30
69.5
 70
   192
  0
VERTEX
  5
2F7
  8
0
 10
-18.05200004577637
 20
-184.5769958496094
 30
63.30099868774414
 70
   192
  0
VERTEX
  5
2F8
  8
0
 10
-12.98999977111816
 20
-187.5
 30
69.5
 70
   192
  0
VERTEX
  5
2F9
  8
0
 10
-7.5
 20
-182.0099945068359
 30
69.5
 70
   192
  0
VERTEX
  5
2FA
  8
0
 10
-10.42300033569336
 20
-176.947998046875
 30
63.30099868774414
 70
   192
  0
VERTEX
  5
2FB
  8
0
 10
0.0
 20
-180.0
 30
69.5
 70
   192
  0
VERTEX
  5
2FC
  8
0
 10
0.0
 20
-174.1549987792969
 30
63.30099868774414
 70
   192
  0
VERTEX
  5
2FD
  8
0
 10
7.5
 20
-182.0099945068359
 30
69.5
 70
   192
  0
VERTEX
  5
2FE
  8
0
 10
10.42300033569336
 20
-176.947998046875
 30
63.30099868774414
 70
   192
  0
VERTEX
  5
2FF
  8
0
 10
12.98999977111816
 20
-187.5
 30
69.5
 70
   192
  0
VERTEX
  5
300
  8
0
 10
21.01799964904785
 20
-207.1349945068359
 30
55.5
 70
   192
  0
VERTEX
  5
301
  8
0
 10
24.26899909973145
 20
-195.0
 30
55.5
 70
   192
  0
VERTEX
  5
302
  8
0
 10
20.84499931335449
 20
-195.0
 30
63.30099868774414
 70
   192
  0
VERTEX
  5
303
  8
0
 10
12.13500022888184
 20
-216.0180053710938
 30
55.5
 70
   192
  0
VERTEX
  5
304
  8
0
 10
0.0
 20
-219.2689971923828
 30
55.5
 70
   192
  0
VERTEX
  5
305
  8
0
 10
-12.13500022888184
 20
-216.0180053710938
 30
55.5
 70
   192
  0
VERTEX
  5
306
  8
0
 10
-21.01799964904785
 20
-207.1349945068359
 30
55.5
 70
   192
  0
VERTEX
  5
307
  8
0
 10
-24.26899909973145
 20
-195.0
 30
55.5
 70
   192
  0
VERTEX
  5
308
  8
0
 10
-18.05200004577637
 20
-205.4230041503906
 30
63.30099868774414
 70
   192
  0
VERTEX
  5
309
  8
0
 10
-21.01799964904785
 20
-182.8650054931641
 30
55.5
 70
   192
  0
VERTEX
  5
30A
  8
0
 10
-20.84499931335449
 20
-195.0
 30
63.30099868774414
 70
   192
  0
VERTEX
  5
30B
  8
0
 10
-12.13500022888184
 20
-173.9819946289062
 30
55.5
 70
   192
  0
VERTEX
  5
30C
  8
0
 10
0.0
 20
-170.7310028076172
 30
55.5
 70
   192
  0
VERTEX
  5
30D
  8
0
 10
12.13500022888184
 20
-173.9819946289062
 30
55.5
 70
   192
  0
VERTEX
  5
30E
  8
0
 10
21.01799964904785
 20
-182.8650054931641
 30
55.5
 70
   192
  0
VERTEX
  5
30F
  8
0
 10
18.05200004577637
 20
-184.5769958496094
 30
63.30099868774414
 70
   192
  0
VERTEX
  5
310
  8
0
 10
15.35099983215332
 20
-190.4900054931641
 30
68.70899963378906
 70
   192
  0
VERTEX
  5
311
  8
0
 10
14.38500022888184
 20
-190.7489929199219
 30
69.5
 70
   192
  0
VERTEX
  5
312
  8
0
 10
15.35099983215332
 20
-199.5099945068359
 30
68.70899963378906
 70
   192
  0
VERTEX
  5
313
  8
0
 10
16.0
 20
-195.0
 30
68.70899963378906
 70
   192
  0
VERTEX
  5
314
  8
0
 10
-15.35099983215332
 20
-199.5099945068359
 30
68.70899963378906
 70
   192
  0
VERTEX
  5
315
  8
0
 10
-14.38500022888184
 20
-199.2510070800781
 30
69.5
 70
   192
  0
VERTEX
  5
316
  8
0
 10
-15.35099983215332
 20
-190.4900054931641
 30
68.70899963378906
 70
   192
  0
VERTEX
  5
317
  8
0
 10
-16.0
 20
-195.0
 30
68.70899963378906
 70
   192
  0
VERTEX
  5
318
  8
0
 10
-14.38500022888184
 20
-190.7489929199219
 30
69.5
 70
   192
  0
VERTEX
  5
319
  8
0
 10
14.38500022888184
 20
-199.2510070800781
 30
69.5
 70
   192
  0
VERTEX
  5
31A
  8
0
 62
     9
 10
0.0
 20
0.0
 30
0.0
 70
   128
 71
     3
 72
     2
 73
     1
  0
VERTEX
  5
31B
  8
0
 62
     9
 10
0.0
 20
0.0
 30
0.0
 70
   128
 71
     5
 72
     3
 73
     4
  0
VERTEX
  5
31C
  8
0
 62
     9
 10
0.0
 20
0.0
 30
0.0
 70
   128
 71
     7
 72
     5
 73
     6
  0
VERTEX
  5
31D
  8
0
 62
     9
 10
0.0
 20
0.0
 30
0.0
 70
   128
 71
     9
 72
     7
 73
     8
  0
VERTEX
  5
31E
  8
0
 62
     9
 10
0.0
 20
0.0
 30
0.0
 70
   128
 71
    12
 72
    11
 73
    10
  0
VERTEX
  5
31F
  8
0
 62
     9
 10
0.0
 20
0.0
 30
0.0
 70
   128
 71
    14
 72
    12
 73
    13
  0
VERTEX
  5
320
  8
0
 62
     9
 10
0.0
 20
0.0
 30
0.0
 70
   128
 71
    16
 72
    14
 73
    15
  0
VERTEX
  5
321
  8
0
 62
     9
 10
0.0
 20
0.0
 30
0.0
 70
   128
 71
    18
 72
    16
 73
    17
  0
VERTEX
  5
322
  8
0
 62
     9
 10
0.0
 20
0.0
 30
0.0
 70
   128
 71
    21
 72
    20
 73
    19
  0
VERTEX
  5
323
  8
0
 62
     9
 10
0.0
 20
0.0
 30
0.0
 70
   128
 71
     1
 72
    19
 73
    22
  0
VERTEX
  5
324
  8
0
 62
     9
 10
0.0
 20
0.0
 30
0.0
 70
   128
 71
     4
 72
    22
 73
    23
  0
VERTEX
  5
325
  8
0
 62
     9
 10
0.0
 20
0.0
 30
0.0
 70
   128
 71
     6
 72
    23
 73
    24
  0
VERTEX
  5
326
  8
0
 62
     9
 10
0.0
 20
0.0
 30
0.0
 70
   128
 71
     8
 72
    24
 73
    25
  0
VERTEX
  5
327
  8
0
 62
     9
 10
0.0
 20
0.0
 30
0.0
 70
   128
 71
    27
 72
    25
 73
    26
  0
VERTEX
  5
328
  8
0
 62
     9
 10
0.0
 20
0.0
 30
0.0
 70
   128
 71
    29
 72
    26
 73
    28
  0
VERTEX
  5
329
  8
0
 62
     9
 10
0.0
 20
0.0
 30
0.0
 70
   128
 71
    10
 72
    28
 73
    30
  0
VERTEX
  5
32A
  8
0
 62
     9
 10
0.0
 20
0.0
 30
0.0
 70
   128
 71
    13
 72
    30
 73
    31
  0
VERTEX
  5
32B
  8
0
 62
     9
 10
0.0
 20
0.0
 30
0.0
 70
   128
 71
    15
 72
    31
 73
    32
  0
VERTEX
  5
32C
  8
0
 62
     9
 10
0.0
 20
0.0
 30
0.0
 70
   128
 71
    17
 72
    32
 73
    33
  0
VERTEX
  5
32D
  8
0
 62
     9
 10
0.0
 20
0.0
 30
0.0
 70
   128
 71
    34
 72
    33
 73
    20
  0
VERTEX
  5
32E
  8
0
 62
     9
 10
0.0
 20
0.0
 30
0.0
 70
   128
 71
    35
 72
    34
 73
    21
  0
VERTEX
  5
32F
  8
0
 62
     9
 10
0.0
 20
0.0
 30
0.0
 70
   128
 71
    35
 72
    36
 73
    18
  0
VERTEX
  5
330
  8
0
 62
     9
 10
0.0
 20
0.0
 30
0.0
 70
   128
 71
    18
 72
    34
 73
    35
  0
VERTEX
  5
331
  8
0
 62
     9
 10
0.0
 20
0.0
 30
0.0
 70
   128
 71
    37
 72
     1
 73
     2
  0
VERTEX
  5
332
  8
0
 62
     9
 10
0.0
 20
0.0
 30
0.0
 70
   128
 71
    37
 72
    38
 73
    21
  0
VERTEX
  5
333
  8
0
 62
     9
 10
0.0
 20
0.0
 30
0.0
 70
   128
 71
    21
 72
     1
 73
    37
  0
VERTEX
  5
334
  8
0
 62
     9
 10
0.0
 20
0.0
 30
0.0
 70
   128
 71
    39
 72
    27
 73
    29
  0
VERTEX
  5
335
  8
0
 62
     9
 10
0.0
 20
0.0
 30
0.0
 70
   128
 71
    39
 72
    40
 73
     9
  0
VERTEX
  5
336
  8
0
 62
     9
 10
0.0
 20
0.0
 30
0.0
 70
   128
 71
     9
 72
    27
 73
    39
  0
VERTEX
  5
337
  8
0
 62
     9
 10
0.0
 20
0.0
 30
0.0
 70
   128
 71
    41
 72
    10
 73
    11
  0
VERTEX
  5
338
  8
0
 62
     9
 10
0.0
 20
0.0
 30
0.0
 70
   128
 71
    41
 72
    42
 73
    29
  0
VERTEX
  5
339
  8
0
 62
     9
 10
0.0
 20
0.0
 30
0.0
 70
   128
 71
    29
 72
    10
 73
    41
  0
VERTEX
  5
33A
  8
0
 62
     9
 10
0.0
 20
0.0
 30
0.0
 70
   128
 71
    11
 72
    43
 73
    41
  0
VERTEX
  5
33B
  8
0
 62
     9
 10
0.0
 20
0.0
 30
0.0
 70
   128
 71
    29
 72
    42
 73
    39
  0
VERTEX
  5
33C
  8
0
 62
     9
 10
0.0
 20
0.0
 30
0.0
 70
   128
 71
     2
 72
    44
 73
    37
  0
VERTEX
  5
33D
  8
0
 62
     9
 10
0.0
 20
0.0
 30
0.0
 70
   128
 71
    21
 72
    38
 73
    35
  0
VERTEX
  5
33E
  8
0
 62
     9
 10
0.0
 20
0.0
 30
0.0
 70
   128
 71
    20
 72
    21
 73
    34
  0
VERTEX
  5
33F
  8
0
 62
     9
 10
0.0
 20
0.0
 30
0.0
 70
   128
 71
    33
 72
    34
 73
    17
  0
VERTEX
  5
340
  8
0
 62
     9
 10
0.0
 20
0.0
 30
0.0
 70
   128
 71
    32
 72
    17
 73
    15
  0
VERTEX
  5
341
  8
0
 62
     9
 10
0.0
 20
0.0
 30
0.0
 70
   128
 71
    31
 72
    15
 73
    13
  0
VERTEX
  5
342
  8
0
 62
     9
 10
0.0
 20
0.0
 30
0.0
 70
   128
 71
    30
 72
    13
 73
    10
  0
VERTEX
  5
343
  8
0
 62
     9
 10
0.0
 20
0.0
 30
0.0
 70
   128
 71
    28
 72
    10
 73
    29
  0
VERTEX
  5
344
  8
0
 62
     9
 10
0.0
 20
0.0
 30
0.0
 70
   128
 71
    26
 72
    29
 73
    27
  0
VERTEX
  5
345
  8
0
 62
     9
 10
0.0
 20
0.0
 30
0.0
 70
   128
 71
    25
 72
    27
 73
     8
  0
VERTEX
  5
346
  8
0
 62
     9
 10
0.0
 20
0.0
 30
0.0
 70
   128
 71
    24
 72
     8
 73
     6
  0
VERTEX
  5
347
  8
0
 62
     9
 10
0.0
 20
0.0
 30
0.0
 70
   128
 71
    23
 72
     6
 73
     4
  0
VERTEX
  5
348
  8
0
 62
     9
 10
0.0
 20
0.0
 30
0.0
 70
   128
 71
    22
 72
     4
 73
     1
  0
VERTEX
  5
349
  8
0
 62
     9
 10
0.0
 20
0.0
 30
0.0
 70
   128
 71
    19
 72
     1
 73
    21
  0
VERTEX
  5
34A
  8
0
 62
     9
 10
0.0
 20
0.0
 30
0.0
 70
   128
 71
    17
 72
    34
 73
    18
  0
VERTEX
  5
34B
  8
0
 62
     9
 10
0.0
 20
0.0
 30
0.0
 70
   128
 71
    15
 72
    17
 73
    16
  0
VERTEX
  5
34C
  8
0
 62
     9
 10
0.0
 20
0.0
 30
0.0
 70
   128
 71
    13
 72
    15
 73
    14
  0
VERTEX
  5
34D
  8
0
 62
     9
 10
0.0
 20
0.0
 30
0.0
 70
   128
 71
    10
 72
    13
 73
    12
  0
VERTEX
  5
34E
  8
0
 62
     9
 10
0.0
 20
0.0
 30
0.0
 70
   128
 71
     8
 72
    27
 73
     9
  0
VERTEX
  5
34F
  8
0
 62
     9
 10
0.0
 20
0.0
 30
0.0
 70
   128
 71
     6
 72
     8
 73
     7
  0
VERTEX
  5
350
  8
0
 62
     9
 10
0.0
 20
0.0
 30
0.0
 70
   128
 71
     4
 72
     6
 73
     5
  0
VERTEX
  5
351
  8
0
 62
     9
 10
0.0
 20
0.0
 30
0.0
 70
   128
 71
     1
 72
     4
 73
     3
  0
SEQEND
  5
352
  8
0
 62
     9
  0
ENDBLK
  5
355
  8
0
  0
BLOCK
  8
0
  2
E3_NODE_22_
 70
     0
 10
0.0
 20
0.0
 30
0.0
  3
E3_NODE_22_
  1

  0
POLYLINE
  5
357
  8
0
 62
     9
 66
     1
 10
0.0
 20
0.0
 30
0.0
 70
    64
 71
     4
 72
     2
  0
VERTEX
  5
358
  8
0
 10
11.95400047302246
 20
-346.0
 30
48.75400161743164
 70
   192
  0
VERTEX
  5
359
  8
0
 10
11.95400047302246
 20
-346.0
 30
45.75400161743164
 70
   192
  0
VERTEX
  5
35A
  8
0
 10
11.95400047302246
 20
-344.0
 30
45.75400161743164
 70
   192
  0
VERTEX
  5
35B
  8
0
 10
11.95400047302246
 20
-344.0
 30
48.75400161743164
 70
   192
  0
VERTEX
  5
35C
  8
0
 62
     9
 10
0.0
 20
0.0
 30
0.0
 70
   128
 71
     3
 72
     2
 73
     1
  0
VERTEX
  5
35D
  8
0
 62
     9
 10
0.0
 20
0.0
 30
0.0
 70
   128
 71
     1
 72
     4
 73
     3
  0
SEQEND
  5
35E
  8
0
 62
     9
  0
ENDBLK
  5
361
  8
0
  0
BLOCK
  8
0
  2
E3_NODE_23_
 70
     0
 10
0.0
 20
0.0
 30
0.0
  3
E3_NODE_23_
  1

  0
POLYLINE
  5
363
  8
0
 62
     9
 66
     1
 10
0.0
 20
0.0
 30
0.0
 70
    64
 71
     4
 72
     2
  0
VERTEX
  5
364
  8
0
 10
-11.95400047302246
 20
-344.0
 30
45.75400161743164
 70
   192
  0
VERTEX
  5
365
  8
0
 10
-11.95400047302246
 20
-346.0
 30
45.75400161743164
 70
   192
  0
VERTEX
  5
366
  8
0
 10
-11.95400047302246
 20
-346.0
 30
48.75400161743164
 70
   192
  0
VERTEX
  5
367
  8
0
 10
-11.95400047302246
 20
-344.0
 30
48.75400161743164
 70
   192
  0
VERTEX
  5
368
  8
0
 62
     9
 10
0.0
 20
0.0
 30
0.0
 70
   128
 71
     3
 72
     2
 73
     1
  0
VERTEX
  5
369
  8
0
 62
     9
 10
0.0
 20
0.0
 30
0.0
 70
   128
 71
     1
 72
     4
 73
     3
  0
SEQEND
  5
36A
  8
0
 62
     9
  0
ENDBLK
  5
36D
  8
0
  0
BLOCK
  8
0
  2
E3_NODE_24_
 70
     0
 10
0.0
 20
0.0
 30
0.0
  3
E3_NODE_24_
  1

  0
POLYLINE
  5
36F
  8
0
 62
     9
 66
     1
 10
0.0
 20
0.0
 30
0.0
 70
    64
 71
    12
 72
    12
  0
VERTEX
  5
370
  8
0
 10
5.239999771118164
 20
-354.0759887695312
 30
35.75400161743164
 70
   192
  0
VERTEX
  5
371
  8
0
 10
10.47999954223633
 20
-345.0
 30
35.75400161743164
 70
   192
  0
VERTEX
  5
372
  8
0
 10
10.47999954223633
 20
-345.0
 30
45.75400161743164
 70
   192
  0
VERTEX
  5
373
  8
0
 10
-5.239999771118164
 20
-354.0759887695312
 30
45.75400161743164
 70
   192
  0
VERTEX
  5
374
  8
0
 10
-5.239999771118164
 20
-354.0759887695312
 30
35.75400161743164
 70
   192
  0
VERTEX
  5
375
  8
0
 10
-10.47999954223633
 20
-345.0
 30
45.75400161743164
 70
   192
  0
VERTEX
  5
376
  8
0
 10
-10.47999954223633
 20
-345.0
 30
35.75400161743164
 70
   192
  0
VERTEX
  5
377
  8
0
 10
-5.239999771118164
 20
-335.9240112304688
 30
45.75400161743164
 70
   192
  0
VERTEX
  5
378
  8
0
 10
-5.239999771118164
 20
-335.9240112304688
 30
35.75400161743164
 70
   192
  0
VERTEX
  5
379
  8
0
 10
5.239999771118164
 20
-335.9240112304688
 30
35.75400161743164
 70
   192
  0
VERTEX
  5
37A
  8
0
 10
5.239999771118164
 20
-335.9240112304688
 30
45.75400161743164
 70
   192
  0
VERTEX
  5
37B
  8
0
 10
5.239999771118164
 20
-354.0759887695312
 30
45.75400161743164
 70
   192
  0
VERTEX
  5
37C
  8
0
 62
     9
 10
0.0
 20
0.0
 30
0.0
 70
   128
 71
     3
 72
     2
 73
     1
  0
VERTEX
  5
37D
  8
0
 62
     9
 10
0.0
 20
0.0
 30
0.0
 70
   128
 71
     1
 72
     5
 73
     4
  0
VERTEX
  5
37E
  8
0
 62
     9
 10
0.0
 20
0.0
 30
0.0
 70
   128
 71
     5
 72
     7
 73
     6
  0
VERTEX
  5
37F
  8
0
 62
     9
 10
0.0
 20
0.0
 30
0.0
 70
   128
 71
     7
 72
     9
 73
     8
  0
VERTEX
  5
380
  8
0
 62
     9
 10
0.0
 20
0.0
 30
0.0
 70
   128
 71
     8
 72
     9
 73
    10
  0
VERTEX
  5
381
  8
0
 62
     9
 10
0.0
 20
0.0
 30
0.0
 70
   128
 71
    11
 72
    10
 73
     2
  0
VERTEX
  5
382
  8
0
 62
     9
 10
0.0
 20
0.0
 30
0.0
 70
   128
 71
     2
 72
     3
 73
    11
  0
VERTEX
  5
383
  8
0
 62
     9
 10
0.0
 20
0.0
 30
0.0
 70
   128
 71
    10
 72
    11
 73
     8
  0
VERTEX
  5
384
  8
0
 62
     9
 10
0.0
 20
0.0
 30
0.0
 70
   128
 71
     8
 72
     6
 73
     7
  0
VERTEX
  5
385
  8
0
 62
     9
 10
0.0
 20
0.0
 30
0.0
 70
   128
 71
     6
 72
     4
 73
     5
  0
VERTEX
  5
386
  8
0
 62
     9
 10
0.0
 20
0.0
 30
0.0
 70
   128
 71
     4
 72
    12
 73
     1
  0
VERTEX
  5
387
  8
0
 62
     9
 10
0.0
 20
0.0
 30
0.0
 70
   128
 71
     1
 72
    12
 73
     3
  0
SEQEND
  5
388
  8
0
 62
     9
  0
ENDBLK
  5
38B
  8
0
  0
BLOCK
  8
0
  2
E3_NODE_25_
 70
     0
 10
0.0
 20
0.0
 30
0.0
  3
E3_NODE_25_
  1

  0
POLYLINE
  5
38D
  8
0
 62
     9
 66
     1
 10
0.0
 20
0.0
 30
0.0
 70
    64
 71
     4
 72
     2
  0
VERTEX
  5
38E
  8
0
 10
47.5
 20
47.5
 30
0.0
 70
   192
  0
VERTEX
  5
38F
  8
0
 10
47.5
 20
-47.5
 30
0.0
 70
   192
  0
VERTEX
  5
390
  8
0
 10
-47.5
 20
-47.5
 30
0.0
 70
   192
  0
VERTEX
  5
391
  8
0
 10
-47.5
 20
47.5
 30
0.0
 70
   192
  0
VERTEX
  5
392
  8
0
 62
     9
 10
0.0
 20
0.0
 30
0.0
 70
   128
 71
     3
 72
     2
 73
     1
  0
VERTEX
  5
393
  8
0
 62
     9
 10
0.0
 20
0.0
 30
0.0
 70
   128
 71
     1
 72
     4
 73
     3
  0
SEQEND
  5
394
  8
0
 62
     9
  0
ENDBLK
  5
397
  8
0
  0
BLOCK
  8
0
  2
E3_NODE_26_
 70
     0
 10
0.0
 20
0.0
 30
0.0
  3
E3_NODE_26_
  1

  0
POLYLINE
  5
399
  8
0
 62
     9
 66
     1
 10
0.0
 20
0.0
 30
0.0
 70
    64
 71
     4
 72
     2
  0
VERTEX
  5
39A
  8
0
 10
47.5
 20
47.5
 30
15.0
 70
   192
  0
VERTEX
  5
39B
  8
0
 10
47.5
 20
47.5
 30
0.0
 70
   192
  0
VERTEX
  5
39C
  8
0
 10
-47.5
 20
47.5
 30
0.0
 70
   192
  0
VERTEX
  5
39D
  8
0
 10
-47.5
 20
47.5
 30
15.0
 70
   192
  0
VERTEX
  5
39E
  8
0
 62
     9
 10
0.0
 20
0.0
 30
0.0
 70
   128
 71
     3
 72
     2
 73
     1
  0
VERTEX
  5
39F
  8
0
 62
     9
 10
0.0
 20
0.0
 30
0.0
 70
   128
 71
     1
 72
     4
 73
     3
  0
SEQEND
  5
3A0
  8
0
 62
     9
  0
ENDBLK
  5
3A3
  8
0
  0
BLOCK
  8
0
  2
E3_NODE_27_
 70
     0
 10
0.0
 20
0.0
 30
0.0
  3
E3_NODE_27_
  1

  0
POLYLINE
  5
3A5
  8
0
 62
     9
 66
     1
 10
0.0
 20
0.0
 30
0.0
 70
    64
 71
     4
 72
     2
  0
VERTEX
  5
3A6
  8
0
 10
-47.5
 20
-47.5
 30
0.0
 70
   192
  0
VERTEX
  5
3A7
  8
0
 10
-47.5
 20
-47.5
 30
15.0
 70
   192
  0
VERTEX
  5
3A8
  8
0
 10
-47.5
 20
47.5
 30
15.0
 70
   192
  0
VERTEX
  5
3A9
  8
0
 10
-47.5
 20
47.5
 30
0.0
 70
   192
  0
VERTEX
  5
3AA
  8
0
 62
     9
 10
0.0
 20
0.0
 30
0.0
 70
   128
 71
     3
 72
     2
 73
     1
  0
VERTEX
  5
3AB
  8
0
 62
     9
 10
0.0
 20
0.0
 30
0.0
 70
   128
 71
     1
 72
     4
 73
     3
  0
SEQEND
  5
3AC
  8
0
 62
     9
  0
ENDBLK
  5
3AF
  8
0
  0
BLOCK
  8
0
  2
E3_NODE_28_
 70
     0
 10
0.0
 20
0.0
 30
0.0
  3
E3_NODE_28_
  1

  0
POLYLINE
  5
3B1
  8
0
 62
     9
 66
     1
 10
0.0
 20
0.0
 30
0.0
 70
    64
 71
     4
 72
     2
  0
VERTEX
  5
3B2
  8
0
 10
47.5
 20
-47.5
 30
0.0
 70
   192
  0
VERTEX
  5
3B3
  8
0
 10
47.5
 20
-47.5
 30
15.0
 70
   192
  0
VERTEX
  5
3B4
  8
0
 10
-47.5
 20
-47.5
 30
15.0
 70
   192
  0
VERTEX
  5
3B5
  8
0
 10
-47.5
 20
-47.5
 30
0.0
 70
   192
  0
VERTEX
  5
3B6
  8
0
 62
     9
 10
0.0
 20
0.0
 30
0.0
 70
   128
 71
     3
 72
     2
 73
     1
  0
VERTEX
  5
3B7
  8
0
 62
     9
 10
0.0
 20
0.0
 30
0.0
 70
   128
 71
     1
 72
     4
 73
     3
  0
SEQEND
  5
3B8
  8
0
 62
     9
  0
ENDBLK
  5
3BB
  8
0
  0
BLOCK
  8
0
  2
E3_NODE_29_
 70
     0
 10
0.0
 20
0.0
 30
0.0
  3
E3_NODE_29_
  1

  0
POLYLINE
  5
3BD
  8
0
 62
     9
 66
     1
 10
0.0
 20
0.0
 30
0.0
 70
    64
 71
     4
 72
     2
  0
VERTEX
  5
3BE
  8
0
 10
47.5
 20
-47.5
 30
15.0
 70
   192
  0
VERTEX
  5
3BF
  8
0
 10
47.5
 20
-47.5
 30
0.0
 70
   192
  0
VERTEX
  5
3C0
  8
0
 10
47.5
 20
47.5
 30
0.0
 70
   192
  0
VERTEX
  5
3C1
  8
0
 10
47.5
 20
47.5
 30
15.0
 70
   192
  0
VERTEX
  5
3C2
  8
0
 62
     9
 10
0.0
 20
0.0
 30
0.0
 70
   128
 71
     3
 72
     2
 73
     1
  0
VERTEX
  5
3C3
  8
0
 62
     9
 10
0.0
 20
0.0
 30
0.0
 70
   128
 71
     1
 72
     4
 73
     3
  0
SEQEND
  5
3C4
  8
0
 62
     9
  0
ENDBLK
  5
3C7
  8
0
  0
BLOCK
  8
0
  2
E3_NODE_30_
 70
     0
 10
0.0
 20
0.0
 30
0.0
  3
E3_NODE_30_
  1

  0
POLYLINE
  5
3C9
  8
0
 62
     9
 66
     1
 10
0.0
 20
0.0
 30
0.0
 70
    64
 71
     4
 72
     2
  0
VERTEX
  5
3CA
  8
0
 10
47.5
 20
-47.5
 30
15.0
 70
   192
  0
VERTEX
  5
3CB
  8
0
 10
47.5
 20
47.5
 30
15.0
 70
   192
  0
VERTEX
  5
3CC
  8
0
 10
-47.5
 20
47.5
 30
15.0
 70
   192
  0
VERTEX
  5
3CD
  8
0
 10
-47.5
 20
-47.5
 30
15.0
 70
   192
  0
VERTEX
  5
3CE
  8
0
 62
     9
 10
0.0
 20
0.0
 30
0.0
 70
   128
 71
     3
 72
     2
 73
     1
  0
VERTEX
  5
3CF
  8
0
 62
     9
 10
0.0
 20
0.0
 30
0.0
 70
   128
 71
     1
 72
     4
 73
     3
  0
SEQEND
  5
3D0
  8
0
 62
     9
  0
ENDBLK
  5
3D3
  8
0
  0
BLOCK
  8
0
  2
E3_NODE_31_
 70
     0
 10
0.0
 20
0.0
 30
0.0
  3
E3_NODE_31_
  1

  0
POLYLINE
  5
3D5
  8
0
 62
     9
 66
     1
 10
0.0
 20
0.0
 30
0.0
 70
    64
 71
     9
 72
     7
  0
VERTEX
  5
3D6
  8
0
 10
25.60499954223633
 20
4.514999866485596
 30
120.1999969482422
 70
   192
  0
VERTEX
  5
3D7
  8
0
 10
-8.892999649047852
 20
-24.43199920654297
 30
120.1999969482422
 70
   192
  0
VERTEX
  5
3D8
  8
0
 10
8.892999649047852
 20
-24.43199920654297
 30
120.1999969482422
 70
   192
  0
VERTEX
  5
3D9
  8
0
 10
-25.60499954223633
 20
4.514999866485596
 30
120.1999969482422
 70
   192
  0
VERTEX
  5
3DA
  8
0
 10
-22.51700019836426
 20
-13.0
 30
120.1999969482422
 70
   192
  0
VERTEX
  5
3DB
  8
0
 10
16.71199989318848
 20
19.91699981689453
 30
120.1999969482422
 70
   192
  0
VERTEX
  5
3DC
  8
0
 10
0.0
 20
26.0
 30
120.1999969482422
 70
   192
  0
VERTEX
  5
3DD
  8
0
 10
-16.71199989318848
 20
19.91699981689453
 30
120.1999969482422
 70
   192
  0
VERTEX
  5
3DE
  8
0
 10
22.51700019836426
 20
-13.0
 30
120.1999969482422
 70
   192
  0
VERTEX
  5
3DF
  8
0
 62
     9
 10
0.0
 20
0.0
 30
0.0
 70
   128
 71
     3
 72
     2
 73
     1
  0
VERTEX
  5
3E0
  8
0
 62
     9
 10
0.0
 20
0.0
 30
0.0
 70
   128
 71
     5
 72
     4
 73
     1
  0
VERTEX
  5
3E1
  8
0
 62
     9
 10
0.0
 20
0.0
 30
0.0
 70
   128
 71
     7
 72
     6
 73
     4
  0
VERTEX
  5
3E2
  8
0
 62
     9
 10
0.0
 20
0.0
 30
0.0
 70
   128
 71
     1
 72
     2
 73
     5
  0
VERTEX
  5
3E3
  8
0
 62
     9
 10
0.0
 20
0.0
 30
0.0
 70
   128
 71
     6
 72
     1
 73
     4
  0
VERTEX
  5
3E4
  8
0
 62
     9
 10
0.0
 20
0.0
 30
0.0
 70
   128
 71
     4
 72
     8
 73
     7
  0
VERTEX
  5
3E5
  8
0
 62
     9
 10
0.0
 20
0.0
 30
0.0
 70
   128
 71
     1
 72
     9
 73
     3
  0
SEQEND
  5
3E6
  8
0
 62
     9
  0
ENDBLK
  5
3E9
  8
0
  0
BLOCK
  8
0
  2
E3_NODE_32_
 70
     0
 10
0.0
 20
0.0
 30
0.0
  3
E3_NODE_32_
  1

  0
POLYLINE
  5
3EB
  8
0
 62
     9
 66
     1
 10
0.0
 20
0.0
 30
0.0
 70
    64
 71
    18
 72
    18
  0
VERTEX
  5
3EC
  8
0
 10
-16.71199989318848
 20
19.91699981689453
 30
10.0
 70
   192
  0
VERTEX
  5
3ED
  8
0
 10
-16.71199989318848
 20
19.91699981689453
 30
120.1999969482422
 70
   192
  0
VERTEX
  5
3EE
  8
0
 10
0.0
 20
26.0
 30
120.1999969482422
 70
   192
  0
VERTEX
  5
3EF
  8
0
 10
-25.60499954223633
 20
4.514999866485596
 30
10.0
 70
   192
  0
VERTEX
  5
3F0
  8
0
 10
-25.60499954223633
 20
4.514999866485596
 30
120.1999969482422
 70
   192
  0
VERTEX
  5
3F1
  8
0
 10
-22.51700019836426
 20
-13.0
 30
10.0
 70
   192
  0
VERTEX
  5
3F2
  8
0
 10
-8.892999649047852
 20
-24.43199920654297
 30
10.0
 70
   192
  0
VERTEX
  5
3F3
  8
0
 10
-8.892999649047852
 20
-24.43199920654297
 30
120.1999969482422
 70
   192
  0
VERTEX
  5
3F4
  8
0
 10
-22.51700019836426
 20
-13.0
 30
120.1999969482422
 70
   192
  0
VERTEX
  5
3F5
  8
0
 10
8.892999649047852
 20
-24.43199920654297
 30
10.0
 70
   192
  0
VERTEX
  5
3F6
  8
0
 10
8.892999649047852
 20
-24.43199920654297
 30
120.1999969482422
 70
   192
  0
VERTEX
  5
3F7
  8
0
 10
22.51700019836426
 20
-13.0
 30
10.0
 70
   192
  0
VERTEX
  5
3F8
  8
0
 10
22.51700019836426
 20
-13.0
 30
120.1999969482422
 70
   192
  0
VERTEX
  5
3F9
  8
0
 10
25.60499954223633
 20
4.514999866485596
 30
120.1999969482422
 70
   192
  0
VERTEX
  5
3FA
  8
0
 10
16.71199989318848
 20
19.91699981689453
 30
120.1999969482422
 70
   192
  0
VERTEX
  5
3FB
  8
0
 10
25.60499954223633
 20
4.514999866485596
 30
10.0
 70
   192
  0
VERTEX
  5
3FC
  8
0
 10
0.0
 20
26.0
 30
10.0
 70
   192
  0
VERTEX
  5
3FD
  8
0
 10
16.71199989318848
 20
19.91699981689453
 30
10.0
 70
   192
  0
VERTEX
  5
3FE
  8
0
 62
     9
 10
0.0
 20
0.0
 30
0.0
 70
   128
 71
     3
 72
     2
 73
     1
  0
VERTEX
  5
3FF
  8
0
 62
     9
 10
0.0
 20
0.0
 30
0.0
 70
   128
 71
     4
 72
     1
 73
     2
  0
VERTEX
  5
400
  8
0
 62
     9
 10
0.0
 20
0.0
 30
0.0
 70
   128
 71
     6
 72
     4
 73
     5
  0
VERTEX
  5
401
  8
0
 62
     9
 10
0.0
 20
0.0
 30
0.0
 70
   128
 71
     9
 72
     8
 73
     7
  0
VERTEX
  5
402
  8
0
 62
     9
 10
0.0
 20
0.0
 30
0.0
 70
   128
 71
     8
 72
    11
 73
    10
  0
VERTEX
  5
403
  8
0
 62
     9
 10
0.0
 20
0.0
 30
0.0
 70
   128
 71
    11
 72
    13
 73
    12
  0
VERTEX
  5
404
  8
0
 62
     9
 10
0.0
 20
0.0
 30
0.0
 70
   128
 71
    12
 72
    13
 73
    14
  0
VERTEX
  5
405
  8
0
 62
     9
 10
0.0
 20
0.0
 30
0.0
 70
   128
 71
    16
 72
    14
 73
    15
  0
VERTEX
  5
406
  8
0
 62
     9
 10
0.0
 20
0.0
 30
0.0
 70
   128
 71
    15
 72
     3
 73
    17
  0
VERTEX
  5
407
  8
0
 62
     9
 10
0.0
 20
0.0
 30
0.0
 70
   128
 71
    17
 72
    18
 73
    15
  0
VERTEX
  5
408
  8
0
 62
     9
 10
0.0
 20
0.0
 30
0.0
 70
   128
 71
    15
 72
    18
 73
    16
  0
VERTEX
  5
409
  8
0
 62
     9
 10
0.0
 20
0.0
 30
0.0
 70
   128
 71
    14
 72
    16
 73
    12
  0
VERTEX
  5
40A
  8
0
 62
     9
 10
0.0
 20
0.0
 30
0.0
 70
   128
 71
    12
 72
    10
 73
    11
  0
VERTEX
  5
40B
  8
0
 62
     9
 10
0.0
 20
0.0
 30
0.0
 70
   128
 71
    10
 72
     7
 73
     8
  0
VERTEX
  5
40C
  8
0
 62
     9
 10
0.0
 20
0.0
 30
0.0
 70
   128
 71
     7
 72
     6
 73
     9
  0
VERTEX
  5
40D
  8
0
 62
     9
 10
0.0
 20
0.0
 30
0.0
 70
   128
 71
     5
 72
     9
 73
     6
  0
VERTEX
  5
40E
  8
0
 62
     9
 10
0.0
 20
0.0
 30
0.0
 70
   128
 71
     2
 72
     5
 73
     4
  0
VERTEX
  5
40F
  8
0
 62
     9
 10
0.0
 20
0.0
 30
0.0
 70
   128
 71
     1
 72
    17
 73
     3
  0
SEQEND
  5
410
  8
0
 62
     9
  0
ENDBLK
  5
413
  8
0
  0
BLOCK
  8
0
  2
E3_NODE_33_
 70
     0
 10
0.0
 20
0.0
 30
0.0
  3
E3_NODE_33_
  1

  0
POLYLINE
  5
415
  8
0
 62
     9
 66
     1
 10
0.0
 20
0.0
 30
0.0
 70
    64
 71
     6
 72
     4
  0
VERTEX
  5
416
  8
0
 10
0.0
 20
50.90000152587891
 30
76.44999694824219
 70
   192
  0
VERTEX
  5
417
  8
0
 10
8.01099967956543
 20
50.90000152587891
 30
71.82499694824219
 70
   192
  0
VERTEX
  5
418
  8
0
 10
8.01099967956543
 20
50.90000152587891
 30
62.57500076293945
 70
   192
  0
VERTEX
  5
419
  8
0
 10
0.0
 20
50.90000152587891
 30
57.95000076293945
 70
   192
  0
VERTEX
  5
41A
  8
0
 10
-8.01099967956543
 20
50.90000152587891
 30
62.57500076293945
 70
   192
  0
VERTEX
  5
41B
  8
0
 10
-8.01099967956543
 20
50.90000152587891
 30
71.82499694824219
 70
   192
  0
VERTEX
  5
41C
  8
0
 62
     9
 10
0.0
 20
0.0
 30
0.0
 70
   128
 71
     3
 72
     2
 73
     1
  0
VERTEX
  5
41D
  8
0
 62
     9
 10
0.0
 20
0.0
 30
0.0
 70
   128
 71
     5
 72
     4
 73
     1
  0
VERTEX
  5
41E
  8
0
 62
     9
 10
0.0
 20
0.0
 30
0.0
 70
   128
 71
     1
 72
     6
 73
     5
  0
VERTEX
  5
41F
  8
0
 62
     9
 10
0.0
 20
0.0
 30
0.0
 70
   128
 71
     1
 72
     4
 73
     3
  0
SEQEND
  5
420
  8
0
 62
     9
  0
ENDBLK
  5
423
  8
0
  0
BLOCK
  8
0
  2
E3_NODE_34_
 70
     0
 10
0.0
 20
0.0
 30
0.0
  3
E3_NODE_34_
  1

  0
POLYLINE
  5
425
  8
0
 62
     9
 66
     1
 10
0.0
 20
0.0
 30
0.0
 70
    64
 71
    12
 72
    12
  0
VERTEX
  5
426
  8
0
 10
8.01099967956543
 20
35.90000152587891
 30
71.82499694824219
 70
   192
  0
VERTEX
  5
427
  8
0
 10
8.01099967956543
 20
50.90000152587891
 30
71.82499694824219
 70
   192
  0
VERTEX
  5
428
  8
0
 10
0.0
 20
50.90000152587891
 30
76.44999694824219
 70
   192
  0
VERTEX
  5
429
  8
0
 10
8.01099967956543
 20
35.90000152587891
 30
62.57500076293945
 70
   192
  0
VERTEX
  5
42A
  8
0
 10
8.01099967956543
 20
50.90000152587891
 30
62.57500076293945
 70
   192
  0
VERTEX
  5
42B
  8
0
 10
0.0
 20
35.90000152587891
 30
57.95000076293945
 70
   192
  0
VERTEX
  5
42C
  8
0
 10
0.0
 20
50.90000152587891
 30
57.95000076293945
 70
   192
  0
VERTEX
  5
42D
  8
0
 10
-8.01099967956543
 20
50.90000152587891
 30
62.57500076293945
 70
   192
  0
VERTEX
  5
42E
  8
0
 10
-8.01099967956543
 20
50.90000152587891
 30
71.82499694824219
 70
   192
  0
VERTEX
  5
42F
  8
0
 10
-8.01099967956543
 20
35.90000152587891
 30
62.57500076293945
 70
   192
  0
VERTEX
  5
430
  8
0
 10
-8.01099967956543
 20
35.90000152587891
 30
71.82499694824219
 70
   192
  0
VERTEX
  5
431
  8
0
 10
0.0
 20
35.90000152587891
 30
76.44999694824219
 70
   192
  0
VERTEX
  5
432
  8
0
 62
     9
 10
0.0
 20
0.0
 30
0.0
 70
   128
 71
     3
 72
     2
 73
     1
  0
VERTEX
  5
433
  8
0
 62
     9
 10
0.0
 20
0.0
 30
0.0
 70
   128
 71
     2
 72
     5
 73
     4
  0
VERTEX
  5
434
  8
0
 62
     9
 10
0.0
 20
0.0
 30
0.0
 70
   128
 71
     5
 72
     7
 73
     6
  0
VERTEX
  5
435
  8
0
 62
     9
 10
0.0
 20
0.0
 30
0.0
 70
   128
 71
     6
 72
     7
 73
     8
  0
VERTEX
  5
436
  8
0
 62
     9
 10
0.0
 20
0.0
 30
0.0
 70
   128
 71
    10
 72
     8
 73
     9
  0
VERTEX
  5
437
  8
0
 62
     9
 10
0.0
 20
0.0
 30
0.0
 70
   128
 71
    11
 72
     9
 73
     3
  0
VERTEX
  5
438
  8
0
 62
     9
 10
0.0
 20
0.0
 30
0.0
 70
   128
 71
     3
 72
    12
 73
    11
  0
VERTEX
  5
439
  8
0
 62
     9
 10
0.0
 20
0.0
 30
0.0
 70
   128
 71
     9
 72
    11
 73
    10
  0
VERTEX
  5
43A
  8
0
 62
     9
 10
0.0
 20
0.0
 30
0.0
 70
   128
 71
     8
 72
    10
 73
     6
  0
VERTEX
  5
43B
  8
0
 62
     9
 10
0.0
 20
0.0
 30
0.0
 70
   128
 71
     6
 72
     4
 73
     5
  0
VERTEX
  5
43C
  8
0
 62
     9
 10
0.0
 20
0.0
 30
0.0
 70
   128
 71
     4
 72
     1
 73
     2
  0
VERTEX
  5
43D
  8
0
 62
     9
 10
0.0
 20
0.0
 30
0.0
 70
   128
 71
     1
 72
    12
 73
     3
  0
SEQEND
  5
43E
  8
0
 62
     9
  0
ENDBLK
  5
441
  8
0
  0
BLOCK
  8
0
  2
E3_NODE_35_
 70
     0
 10
0.0
 20
0.0
 30
0.0
  3
E3_NODE_35_
  1

  0
POLYLINE
  5
443
  8
0
 62
     9
 66
     1
 10
0.0
 20
0.0
 30
0.0
 70
    64
 71
     6
 72
     4
  0
VERTEX
  5
444
  8
0
 10
8.01099967956543
 20
35.90000152587891
 30
71.82499694824219
 70
   192
  0
VERTEX
  5
445
  8
0
 10
-8.01099967956543
 20
35.90000152587891
 30
62.57500076293945
 70
   192
  0
VERTEX
  5
446
  8
0
 10
0.0
 20
35.90000152587891
 30
57.95000076293945
 70
   192
  0
VERTEX
  5
447
  8
0
 10
0.0
 20
35.90000152587891
 30
76.44999694824219
 70
   192
  0
VERTEX
  5
448
  8
0
 10
-8.01099967956543
 20
35.90000152587891
 30
71.82499694824219
 70
   192
  0
VERTEX
  5
449
  8
0
 10
8.01099967956543
 20
35.90000152587891
 30
62.57500076293945
 70
   192
  0
VERTEX
  5
44A
  8
0
 62
     9
 10
0.0
 20
0.0
 30
0.0
 70
   128
 71
     3
 72
     2
 73
     1
  0
VERTEX
  5
44B
  8
0
 62
     9
 10
0.0
 20
0.0
 30
0.0
 70
   128
 71
     4
 72
     1
 73
     2
  0
VERTEX
  5
44C
  8
0
 62
     9
 10
0.0
 20
0.0
 30
0.0
 70
   128
 71
     2
 72
     5
 73
     4
  0
VERTEX
  5
44D
  8
0
 62
     9
 10
0.0
 20
0.0
 30
0.0
 70
   128
 71
     1
 72
     6
 73
     3
  0
SEQEND
  5
44E
  8
0
 62
     9
  0
ENDBLK
  5
451
  8
0
  0
BLOCK
  8
0
  2
E3_NODE_36_
 70
     0
 10
0.0
 20
0.0
 30
0.0
  3
E3_NODE_36_
  1

  0
POLYLINE
  5
453
  8
0
 62
     9
 66
     1
 10
0.0
 20
0.0
 30
0.0
 70
    64
 71
     4
 72
     2
  0
VERTEX
  5
454
  8
0
 10
-47.5
 20
-392.5
 30
15.30000019073486
 70
   192
  0
VERTEX
  5
455
  8
0
 10
-47.5
 20
-392.5
 30
0.300000011920929
 70
   192
  0
VERTEX
  5
456
  8
0
 10
47.5
 20
-392.5
 30
0.300000011920929
 70
   192
  0
VERTEX
  5
457
  8
0
 10
47.5
 20
-392.5
 30
15.30000019073486
 70
   192
  0
VERTEX
  5
458
  8
0
 62
     9
 10
0.0
 20
0.0
 30
0.0
 70
   128
 71
     3
 72
     2
 73
     1
  0
VERTEX
  5
459
  8
0
 62
     9
 10
0.0
 20
0.0
 30
0.0
 70
   128
 71
     1
 72
     4
 73
     3
  0
SEQEND
  5
45A
  8
0
 62
     9
  0
ENDBLK
  5
45D
  8
0
  0
BLOCK
  8
0
  2
E3_NODE_37_
 70
     0
 10
0.0
 20
0.0
 30
0.0
  3
E3_NODE_37_
  1

  0
POLYLINE
  5
45F
  8
0
 62
     9
 66
     1
 10
0.0
 20
0.0
 30
0.0
 70
    64
 71
     4
 72
     2
  0
VERTEX
  5
460
  8
0
 10
47.5
 20
-297.5
 30
15.30000019073486
 70
   192
  0
VERTEX
  5
461
  8
0
 10
47.5
 20
-392.5
 30
15.30000019073486
 70
   192
  0
VERTEX
  5
462
  8
0
 10
47.5
 20
-392.5
 30
0.300000011920929
 70
   192
  0
VERTEX
  5
463
  8
0
 10
47.5
 20
-297.5
 30
0.300000011920929
 70
   192
  0
VERTEX
  5
464
  8
0
 62
     9
 10
0.0
 20
0.0
 30
0.0
 70
   128
 71
     3
 72
     2
 73
     1
  0
VERTEX
  5
465
  8
0
 62
     9
 10
0.0
 20
0.0
 30
0.0
 70
   128
 71
     1
 72
     4
 73
     3
  0
SEQEND
  5
466
  8
0
 62
     9
  0
ENDBLK
  5
469
  8
0
  0
BLOCK
  8
0
  2
E3_NODE_38_
 70
     0
 10
0.0
 20
0.0
 30
0.0
  3
E3_NODE_38_
  1

  0
POLYLINE
  5
46B
  8
0
 62
     9
 66
     1
 10
0.0
 20
0.0
 30
0.0
 70
    64
 71
     4
 72
     2
  0
VERTEX
  5
46C
  8
0
 10
-47.5
 20
-297.5
 30
15.30000019073486
 70
   192
  0
VERTEX
  5
46D
  8
0
 10
47.5
 20
-297.5
 30
15.30000019073486
 70
   192
  0
VERTEX
  5
46E
  8
0
 10
47.5
 20
-297.5
 30
0.300000011920929
 70
   192
  0
VERTEX
  5
46F
  8
0
 10
-47.5
 20
-297.5
 30
0.300000011920929
 70
   192
  0
VERTEX
  5
470
  8
0
 62
     9
 10
0.0
 20
0.0
 30
0.0
 70
   128
 71
     3
 72
     2
 73
     1
  0
VERTEX
  5
471
  8
0
 62
     9
 10
0.0
 20
0.0
 30
0.0
 70
   128
 71
     1
 72
     4
 73
     3
  0
SEQEND
  5
472
  8
0
 62
     9
  0
ENDBLK
  5
475
  8
0
  0
BLOCK
  8
0
  2
E3_NODE_39_
 70
     0
 10
0.0
 20
0.0
 30
0.0
  3
E3_NODE_39_
  1

  0
POLYLINE
  5
477
  8
0
 62
     9
 66
     1
 10
0.0
 20
0.0
 30
0.0
 70
    64
 71
     4
 72
     2
  0
VERTEX
  5
478
  8
0
 10
-47.5
 20
-297.5
 30
15.30000019073486
 70
   192
  0
VERTEX
  5
479
  8
0
 10
-47.5
 20
-297.5
 30
0.300000011920929
 70
   192
  0
VERTEX
  5
47A
  8
0
 10
-47.5
 20
-392.5
 30
0.300000011920929
 70
   192
  0
VERTEX
  5
47B
  8
0
 10
-47.5
 20
-392.5
 30
15.30000019073486
 70
   192
  0
VERTEX
  5
47C
  8
0
 62
     9
 10
0.0
 20
0.0
 30
0.0
 70
   128
 71
     3
 72
     2
 73
     1
  0
VERTEX
  5
47D
  8
0
 62
     9
 10
0.0
 20
0.0
 30
0.0
 70
   128
 71
     1
 72
     4
 73
     3
  0
SEQEND
  5
47E
  8
0
 62
     9
  0
ENDBLK
  5
481
  8
0
  0
BLOCK
  8
0
  2
E3_NODE_40_
 70
     0
 10
0.0
 20
0.0
 30
0.0
  3
E3_NODE_40_
  1

  0
POLYLINE
  5
483
  8
0
 62
     9
 66
     1
 10
0.0
 20
0.0
 30
0.0
 70
    64
 71
     4
 72
     2
  0
VERTEX
  5
484
  8
0
 10
47.5
 20
-297.5
 30
15.30000019073486
 70
   192
  0
VERTEX
  5
485
  8
0
 10
-47.5
 20
-297.5
 30
15.30000019073486
 70
   192
  0
VERTEX
  5
486
  8
0
 10
-47.5
 20
-392.5
 30
15.30000019073486
 70
   192
  0
VERTEX
  5
487
  8
0
 10
47.5
 20
-392.5
 30
15.30000019073486
 70
   192
  0
VERTEX
  5
488
  8
0
 62
     9
 10
0.0
 20
0.0
 30
0.0
 70
   128
 71
     3
 72
     2
 73
     1
  0
VERTEX
  5
489
  8
0
 62
     9
 10
0.0
 20
0.0
 30
0.0
 70
   128
 71
     1
 72
     4
 73
     3
  0
SEQEND
  5
48A
  8
0
 62
     9
  0
ENDBLK
  5
48D
  8
0
  0
BLOCK
  8
0
  2
E3_NODE_41_
 70
     0
 10
0.0
 20
0.0
 30
0.0
  3
E3_NODE_41_
  1

  0
POLYLINE
  5
48F
  8
0
 62
     9
 66
     1
 10
0.0
 20
0.0
 30
0.0
 70
    64
 71
     4
 72
     2
  0
VERTEX
  5
490
  8
0
 10
-47.5
 20
-392.5
 30
0.300000011920929
 70
   192
  0
VERTEX
  5
491
  8
0
 10
-47.5
 20
-297.5
 30
0.300000011920929
 70
   192
  0
VERTEX
  5
492
  8
0
 10
47.5
 20
-297.5
 30
0.300000011920929
 70
   192
  0
VERTEX
  5
493
  8
0
 10
47.5
 20
-392.5
 30
0.300000011920929
 70
   192
  0
VERTEX
  5
494
  8
0
 62
     9
 10
0.0
 20
0.0
 30
0.0
 70
   128
 71
     3
 72
     2
 73
     1
  0
VERTEX
  5
495
  8
0
 62
     9
 10
0.0
 20
0.0
 30
0.0
 70
   128
 71
     1
 72
     4
 73
     3
  0
SEQEND
  5
496
  8
0
 62
     9
  0
ENDBLK
  5
499
  8
0
  0
BLOCK
  8
0
  2
E3_NODE_42_
 70
     0
 10
0.0
 20
0.0
 30
0.0
  3
E3_NODE_42_
  1

  0
POLYLINE
  5
49B
  8
0
 62
     9
 66
     1
 10
0.0
 20
0.0
 30
0.0
 70
    64
 71
     4
 72
     2
  0
VERTEX
  5
49C
  8
0
 10
-7.5
 20
17.0
 30
190.2039947509766
 70
   192
  0
VERTEX
  5
49D
  8
0
 10
-7.5
 20
17.0
 30
120.1999969482422
 70
   192
  0
VERTEX
  5
49E
  8
0
 10
-7.5
 20
-17.0
 30
120.1999969482422
 70
   192
  0
VERTEX
  5
49F
  8
0
 10
-7.5
 20
-17.0
 30
190.2039947509766
 70
   192
  0
VERTEX
  5
4A0
  8
0
 62
     9
 10
0.0
 20
0.0
 30
0.0
 70
   128
 71
     3
 72
     2
 73
     1
  0
VERTEX
  5
4A1
  8
0
 62
     9
 10
0.0
 20
0.0
 30
0.0
 70
   128
 71
     1
 72
     4
 73
     3
  0
SEQEND
  5
4A2
  8
0
 62
     9
  0
ENDBLK
  5
4A5
  8
0
  0
BLOCK
  8
0
  2
E3_NODE_43_
 70
     0
 10
0.0
 20
0.0
 30
0.0
  3
E3_NODE_43_
  1

  0
POLYLINE
  5
4A7
  8
0
 62
     9
 66
     1
 10
0.0
 20
0.0
 30
0.0
 70
    64
 71
     8
 72
     6
  0
VERTEX
  5
4A8
  8
0
 10
-0.8679999709129333
 20
-17.0
 30
214.9539947509766
 70
   192
  0
VERTEX
  5
4A9
  8
0
 10
-0.8679999709129333
 20
17.0
 30
214.9539947509766
 70
   192
  0
VERTEX
  5
4AA
  8
0
 10
-7.5
 20
17.0
 30
190.2039947509766
 70
   192
  0
VERTEX
  5
4AB
  8
0
 10
17.25
 20
17.0
 30
233.0720062255859
 70
   192
  0
VERTEX
  5
4AC
  8
0
 10
42.0
 20
-17.0
 30
239.7039947509766
 70
   192
  0
VERTEX
  5
4AD
  8
0
 10
42.0
 20
17.0
 30
239.7039947509766
 70
   192
  0
VERTEX
  5
4AE
  8
0
 10
17.25
 20
-17.0
 30
233.0720062255859
 70
   192
  0
VERTEX
  5
4AF
  8
0
 10
-7.5
 20
-17.0
 30
190.2039947509766
 70
   192
  0
VERTEX
  5
4B0
  8
0
 62
     9
 10
0.0
 20
0.0
 30
0.0
 70
   128
 71
     3
 72
     2
 73
     1
  0
VERTEX
  5
4B1
  8
0
 62
     9
 10
0.0
 20
0.0
 30
0.0
 70
   128
 71
     1
 72
     2
 73
     4
  0
VERTEX
  5
4B2
  8
0
 62
     9
 10
0.0
 20
0.0
 30
0.0
 70
   128
 71
     4
 72
     6
 73
     5
  0
VERTEX
  5
4B3
  8
0
 62
     9
 10
0.0
 20
0.0
 30
0.0
 70
   128
 71
     5
 72
     7
 73
     4
  0
VERTEX
  5
4B4
  8
0
 62
     9
 10
0.0
 20
0.0
 30
0.0
 70
   128
 71
     4
 72
     7
 73
     1
  0
VERTEX
  5
4B5
  8
0
 62
     9
 10
0.0
 20
0.0
 30
0.0
 70
   128
 71
     1
 72
     8
 73
     3
  0
SEQEND
  5
4B6
  8
0
 62
     9
  0
ENDBLK
  5
4B9
  8
0
  0
BLOCK
  8
0
  2
E3_NODE_44_
 70
     0
 10
0.0
 20
0.0
 30
0.0
  3
E3_NODE_44_
  1

  0
POLYLINE
  5
4BB
  8
0
 62
     9
 66
     1
 10
0.0
 20
0.0
 30
0.0
 70
    64
 71
     4
 72
     2
  0
VERTEX
  5
4BC
  8
0
 10
167.0829925537109
 20
17.0
 30
239.7039947509766
 70
   192
  0
VERTEX
  5
4BD
  8
0
 10
42.0
 20
17.0
 30
239.7039947509766
 70
   192
  0
VERTEX
  5
4BE
  8
0
 10
42.0
 20
-17.0
 30
239.7039947509766
 70
   192
  0
VERTEX
  5
4BF
  8
0
 10
167.0829925537109
 20
-17.0
 30
239.7039947509766
 70
   192
  0
VERTEX
  5
4C0
  8
0
 62
     9
 10
0.0
 20
0.0
 30
0.0
 70
   128
 71
     3
 72
     2
 73
     1
  0
VERTEX
  5
4C1
  8
0
 62
     9
 10
0.0
 20
0.0
 30
0.0
 70
   128
 71
     1
 72
     4
 73
     3
  0
SEQEND
  5
4C2
  8
0
 62
     9
  0
ENDBLK
  5
4C5
  8
0
  0
BLOCK
  8
0
  2
E3_NODE_45_
 70
     0
 10
0.0
 20
0.0
 30
0.0
  3
E3_NODE_45_
  1

  0
POLYLINE
  5
4C7
  8
0
 62
     9
 66
     1
 10
0.0
 20
0.0
 30
0.0
 70
    64
 71
     8
 72
     6
  0
VERTEX
  5
4C8
  8
0
 10
190.5820007324219
 20
-17.0
 30
233.7700042724609
 70
   192
  0
VERTEX
  5
4C9
  8
0
 10
190.5820007324219
 20
17.0
 30
233.7700042724609
 70
   192
  0
VERTEX
  5
4CA
  8
0
 10
167.0829925537109
 20
17.0
 30
239.7039947509766
 70
   192
  0
VERTEX
  5
4CB
  8
0
 10
208.4470062255859
 20
17.0
 30
217.3930053710938
 70
   192
  0
VERTEX
  5
4CC
  8
0
 10
216.39599609375
 20
-17.0
 30
194.4969940185547
 70
   192
  0
VERTEX
  5
4CD
  8
0
 10
216.39599609375
 20
17.0
 30
194.4969940185547
 70
   192
  0
VERTEX
  5
4CE
  8
0
 10
208.4470062255859
 20
-17.0
 30
217.3930053710938
 70
   192
  0
VERTEX
  5
4CF
  8
0
 10
167.0829925537109
 20
-17.0
 30
239.7039947509766
 70
   192
  0
VERTEX
  5
4D0
  8
0
 62
     9
 10
0.0
 20
0.0
 30
0.0
 70
   128
 71
     3
 72
     2
 73
     1
  0
VERTEX
  5
4D1
  8
0
 62
     9
 10
0.0
 20
0.0
 30
0.0
 70
   128
 71
     1
 72
     2
 73
     4
  0
VERTEX
  5
4D2
  8
0
 62
     9
 10
0.0
 20
0.0
 30
0.0
 70
   128
 71
     4
 72
     6
 73
     5
  0
VERTEX
  5
4D3
  8
0
 62
     9
 10
0.0
 20
0.0
 30
0.0
 70
   128
 71
     5
 72
     7
 73
     4
  0
VERTEX
  5
4D4
  8
0
 62
     9
 10
0.0
 20
0.0
 30
0.0
 70
   128
 71
     4
 72
     7
 73
     1
  0
VERTEX
  5
4D5
  8
0
 62
     9
 10
0.0
 20
0.0
 30
0.0
 70
   128
 71
     1
 72
     8
 73
     3
  0
SEQEND
  5
4D6
  8
0
 62
     9
  0
ENDBLK
  5
4D9
  8
0
  0
BLOCK
  8
0
  2
E3_NODE_46_
 70
     0
 10
0.0
 20
0.0
 30
0.0
  3
E3_NODE_46_
  1

  0
POLYLINE
  5
4DB
  8
0
 62
     9
 66
     1
 10
0.0
 20
0.0
 30
0.0
 70
    64
 71
     4
 72
     2
  0
VERTEX
  5
4DC
  8
0
 10
216.9720001220703
 20
17.0
 30
187.8910064697266
 70
   192
  0
VERTEX
  5
4DD
  8
0
 10
216.39599609375
 20
17.0
 30
194.4969940185547
 70
   192
  0
VERTEX
  5
4DE
  8
0
 10
216.39599609375
 20
-17.0
 30
194.4969940185547
 70
   192
  0
VERTEX
  5
4DF
  8
0
 10
216.9720001220703
 20
-17.0
 30
187.8910064697266
 70
   192
  0
VERTEX
  5
4E0
  8
0
 62
     9
 10
0.0
 20
0.0
 30
0.0
 70
   128
 71
     3
 72
     2
 73
     1
  0
VERTEX
  5
4E1
  8
0
 62
     9
 10
0.0
 20
0.0
 30
0.0
 70
   128
 71
     1
 72
     4
 73
     3
  0
SEQEND
  5
4E2
  8
0
 62
     9
  0
ENDBLK
  5
4E5
  8
0
  0
BLOCK
  8
0
  2
E3_NODE_47_
 70
     0
 10
0.0
 20
0.0
 30
0.0
  3
E3_NODE_47_
  1

  0
POLYLINE
  5
4E7
  8
0
 62
     9
 66
     1
 10
0.0
 20
0.0
 30
0.0
 70
    64
 71
     4
 72
     2
  0
VERTEX
  5
4E8
  8
0
 10
202.0279998779297
 20
-17.0
 30
186.5890045166016
 70
   192
  0
VERTEX
  5
4E9
  8
0
 10
202.0279998779297
 20
17.0
 30
186.5890045166016
 70
   192
  0
VERTEX
  5
4EA
  8
0
 10
216.9720001220703
 20
17.0
 30
187.8910064697266
 70
   192
  0
VERTEX
  5
4EB
  8
0
 10
216.9720001220703
 20
-17.0
 30
187.8910064697266
 70
   192
  0
VERTEX
  5
4EC
  8
0
 62
     9
 10
0.0
 20
0.0
 30
0.0
 70
   128
 71
     3
 72
     2
 73
     1
  0
VERTEX
  5
4ED
  8
0
 62
     9
 10
0.0
 20
0.0
 30
0.0
 70
   128
 71
     1
 72
     4
 73
     3
  0
SEQEND
  5
4EE
  8
0
 62
     9
  0
ENDBLK
  5
4F1
  8
0
  0
BLOCK
  8
0
  2
E3_NODE_48_
 70
     0
 10
0.0
 20
0.0
 30
0.0
  3
E3_NODE_48_
  1

  0
POLYLINE
  5
4F3
  8
0
 62
     9
 66
     1
 10
0.0
 20
0.0
 30
0.0
 70
    64
 71
     4
 72
     2
  0
VERTEX
  5
4F4
  8
0
 10
201.4530029296875
 20
17.0
 30
193.1959991455078
 70
   192
  0
VERTEX
  5
4F5
  8
0
 10
202.0279998779297
 20
17.0
 30
186.5890045166016
 70
   192
  0
VERTEX
  5
4F6
  8
0
 10
202.0279998779297
 20
-17.0
 30
186.5890045166016
 70
   192
  0
VERTEX
  5
4F7
  8
0
 10
201.4530029296875
 20
-17.0
 30
193.1959991455078
 70
   192
  0
VERTEX
  5
4F8
  8
0
 62
     9
 10
0.0
 20
0.0
 30
0.0
 70
   128
 71
     3
 72
     2
 73
     1
  0
VERTEX
  5
4F9
  8
0
 62
     9
 10
0.0
 20
0.0
 30
0.0
 70
   128
 71
     1
 72
     4
 73
     3
  0
SEQEND
  5
4FA
  8
0
 62
     9
  0
ENDBLK
  5
4FD
  8
0
  0
BLOCK
  8
0
  2
E3_NODE_49_
 70
     0
 10
0.0
 20
0.0
 30
0.0
  3
E3_NODE_49_
  1

  0
POLYLINE
  5
4FF
  8
0
 62
     9
 66
     1
 10
0.0
 20
0.0
 30
0.0
 70
    64
 71
     8
 72
     6
  0
VERTEX
  5
500
  8
0
 10
195.9129943847656
 20
-17.0
 30
209.1540069580078
 70
   192
  0
VERTEX
  5
501
  8
0
 10
195.9129943847656
 20
17.0
 30
209.1540069580078
 70
   192
  0
VERTEX
  5
502
  8
0
 10
201.4530029296875
 20
17.0
 30
193.1959991455078
 70
   192
  0
VERTEX
  5
503
  8
0
 10
183.4609985351562
 20
-17.0
 30
220.5679931640625
 70
   192
  0
VERTEX
  5
504
  8
0
 10
183.4609985351562
 20
17.0
 30
220.5679931640625
 70
   192
  0
VERTEX
  5
505
  8
0
 10
167.0829925537109
 20
-17.0
 30
224.7039947509766
 70
   192
  0
VERTEX
  5
506
  8
0
 10
167.0829925537109
 20
17.0
 30
224.7039947509766
 70
   192
  0
VERTEX
  5
507
  8
0
 10
201.4530029296875
 20
-17.0
 30
193.1959991455078
 70
   192
  0
VERTEX
  5
508
  8
0
 62
     9
 10
0.0
 20
0.0
 30
0.0
 70
   128
 71
     3
 72
     2
 73
     1
  0
VERTEX
  5
509
  8
0
 62
     9
 10
0.0
 20
0.0
 30
0.0
 70
   128
 71
     2
 72
     5
 73
     4
  0
VERTEX
  5
50A
  8
0
 62
     9
 10
0.0
 20
0.0
 30
0.0
 70
   128
 71
     5
 72
     7
 73
     6
  0
VERTEX
  5
50B
  8
0
 62
     9
 10
0.0
 20
0.0
 30
0.0
 70
   128
 71
     6
 72
     4
 73
     5
  0
VERTEX
  5
50C
  8
0
 62
     9
 10
0.0
 20
0.0
 30
0.0
 70
   128
 71
     4
 72
     1
 73
     2
  0
VERTEX
  5
50D
  8
0
 62
     9
 10
0.0
 20
0.0
 30
0.0
 70
   128
 71
     1
 72
     8
 73
     3
  0
SEQEND
  5
50E
  8
0
 62
     9
  0
ENDBLK
  5
511
  8
0
  0
BLOCK
  8
0
  2
E3_NODE_50_
 70
     0
 10
0.0
 20
0.0
 30
0.0
  3
E3_NODE_50_
  1

  0
POLYLINE
  5
513
  8
0
 62
     9
 66
     1
 10
0.0
 20
0.0
 30
0.0
 70
    64
 71
     4
 72
     2
  0
VERTEX
  5
514
  8
0
 10
42.0
 20
17.0
 30
224.7039947509766
 70
   192
  0
VERTEX
  5
515
  8
0
 10
167.0829925537109
 20
17.0
 30
224.7039947509766
 70
   192
  0
VERTEX
  5
516
  8
0
 10
167.0829925537109
 20
-17.0
 30
224.7039947509766
 70
   192
  0
VERTEX
  5
517
  8
0
 10
42.0
 20
-17.0
 30
224.7039947509766
 70
   192
  0
VERTEX
  5
518
  8
0
 62
     9
 10
0.0
 20
0.0
 30
0.0
 70
   128
 71
     3
 72
     2
 73
     1
  0
VERTEX
  5
519
  8
0
 62
     9
 10
0.0
 20
0.0
 30
0.0
 70
   128
 71
     1
 72
     4
 73
     3
  0
SEQEND
  5
51A
  8
0
 62
     9
  0
ENDBLK
  5
51D
  8
0
  0
BLOCK
  8
0
  2
E3_NODE_51_
 70
     0
 10
0.0
 20
0.0
 30
0.0
  3
E3_NODE_51_
  1

  0
POLYLINE
  5
51F
  8
0
 62
     9
 66
     1
 10
0.0
 20
0.0
 30
0.0
 70
    64
 71
    20
 72
    18
  0
VERTEX
  5
520
  8
0
 10
42.0
 20
17.0
 30
239.7039947509766
 70
   192
  0
VERTEX
  5
521
  8
0
 10
167.0829925537109
 20
17.0
 30
239.7039947509766
 70
   192
  0
VERTEX
  5
522
  8
0
 10
167.0829925537109
 20
17.0
 30
224.7039947509766
 70
   192
  0
VERTEX
  5
523
  8
0
 10
190.5820007324219
 20
17.0
 30
233.7700042724609
 70
   192
  0
VERTEX
  5
524
  8
0
 10
183.4609985351562
 20
17.0
 30
220.5679931640625
 70
   192
  0
VERTEX
  5
525
  8
0
 10
216.39599609375
 20
17.0
 30
194.4969940185547
 70
   192
  0
VERTEX
  5
526
  8
0
 10
201.4530029296875
 20
17.0
 30
193.1959991455078
 70
   192
  0
VERTEX
  5
527
  8
0
 10
195.9129943847656
 20
17.0
 30
209.1540069580078
 70
   192
  0
VERTEX
  5
528
  8
0
 10
216.9720001220703
 20
17.0
 30
187.8910064697266
 70
   192
  0
VERTEX
  5
529
  8
0
 10
202.0279998779297
 20
17.0
 30
186.5890045166016
 70
   192
  0
VERTEX
  5
52A
  8
0
 10
-7.5
 20
17.0
 30
120.1999969482422
 70
   192
  0
VERTEX
  5
52B
  8
0
 10
-7.5
 20
17.0
 30
190.2039947509766
 70
   192
  0
VERTEX
  5
52C
  8
0
 10
7.5
 20
17.0
 30
190.2039947509766
 70
   192
  0
VERTEX
  5
52D
  8
0
 10
-0.8679999709129333
 20
17.0
 30
214.9539947509766
 70
   192
  0
VERTEX
  5
52E
  8
0
 10
12.12199974060059
 20
17.0
 30
207.4539947509766
 70
   192
  0
VERTEX
  5
52F
  8
0
 10
42.0
 20
17.0
 30
224.7039947509766
 70
   192
  0
VERTEX
  5
530
  8
0
 10
24.75
 20
17.0
 30
220.0809936523438
 70
   192
  0
VERTEX
  5
531
  8
0
 10
208.4470062255859
 20
17.0
 30
217.3930053710938
 70
   192
  0
VERTEX
  5
532
  8
0
 10
17.25
 20
17.0
 30
233.0720062255859
 70
   192
  0
VERTEX
  5
533
  8
0
 10
7.5
 20
17.0
 30
120.1999969482422
 70
   192
  0
VERTEX
  5
534
  8
0
 62
     9
 10
0.0
 20
0.0
 30
0.0
 70
   128
 71
     3
 72
     2
 73
     1
  0
VERTEX
  5
535
  8
0
 62
     9
 10
0.0
 20
0.0
 30
0.0
 70
   128
 71
     3
 72
     5
 73
     4
  0
VERTEX
  5
536
  8
0
 62
     9
 10
0.0
 20
0.0
 30
0.0
 70
   128
 71
     8
 72
     7
 73
     6
  0
VERTEX
  5
537
  8
0
 62
     9
 10
0.0
 20
0.0
 30
0.0
 70
   128
 71
    10
 72
     9
 73
     6
  0
VERTEX
  5
538
  8
0
 62
     9
 10
0.0
 20
0.0
 30
0.0
 70
   128
 71
    13
 72
    12
 73
    11
  0
VERTEX
  5
539
  8
0
 62
     9
 10
0.0
 20
0.0
 30
0.0
 70
   128
 71
    15
 72
    14
 73
    12
  0
VERTEX
  5
53A
  8
0
 62
     9
 10
0.0
 20
0.0
 30
0.0
 70
   128
 71
    17
 72
    16
 73
     1
  0
VERTEX
  5
53B
  8
0
 62
     9
 10
0.0
 20
0.0
 30
0.0
 70
   128
 71
     4
 72
     2
 73
     3
  0
VERTEX
  5
53C
  8
0
 62
     9
 10
0.0
 20
0.0
 30
0.0
 70
   128
 71
     5
 72
     8
 73
    18
  0
VERTEX
  5
53D
  8
0
 62
     9
 10
0.0
 20
0.0
 30
0.0
 70
   128
 71
     6
 72
     7
 73
    10
  0
VERTEX
  5
53E
  8
0
 62
     9
 10
0.0
 20
0.0
 30
0.0
 70
   128
 71
    12
 72
    13
 73
    15
  0
VERTEX
  5
53F
  8
0
 62
     9
 10
0.0
 20
0.0
 30
0.0
 70
   128
 71
    17
 72
    19
 73
    14
  0
VERTEX
  5
540
  8
0
 62
     9
 10
0.0
 20
0.0
 30
0.0
 70
   128
 71
     1
 72
    16
 73
     3
  0
VERTEX
  5
541
  8
0
 62
     9
 10
0.0
 20
0.0
 30
0.0
 70
   128
 71
     6
 72
    18
 73
     8
  0
VERTEX
  5
542
  8
0
 62
     9
 10
0.0
 20
0.0
 30
0.0
 70
   128
 71
    14
 72
    15
 73
    17
  0
VERTEX
  5
543
  8
0
 62
     9
 10
0.0
 20
0.0
 30
0.0
 70
   128
 71
    18
 72
     4
 73
     5
  0
VERTEX
  5
544
  8
0
 62
     9
 10
0.0
 20
0.0
 30
0.0
 70
   128
 71
     1
 72
    19
 73
    17
  0
VERTEX
  5
545
  8
0
 62
     9
 10
0.0
 20
0.0
 30
0.0
 70
   128
 71
    11
 72
    20
 73
    13
  0
SEQEND
  5
546
  8
0
 62
     9
  0
ENDBLK
  5
549
  8
0
  0
BLOCK
  8
0
  2
E3_NODE_52_
 70
     0
 10
0.0
 20
0.0
 30
0.0
  3
E3_NODE_52_
  1

  0
POLYLINE
  5
54B
  8
0
 62
     9
 66
     1
 10
0.0
 20
0.0
 30
0.0
 70
    64
 71
    20
 72
    18
  0
VERTEX
  5
54C
  8
0
 10
216.9720001220703
 20
-17.0
 30
187.8910064697266
 70
   192
  0
VERTEX
  5
54D
  8
0
 10
216.39599609375
 20
-17.0
 30
194.4969940185547
 70
   192
  0
VERTEX
  5
54E
  8
0
 10
201.4530029296875
 20
-17.0
 30
193.1959991455078
 70
   192
  0
VERTEX
  5
54F
  8
0
 10
208.4470062255859
 20
-17.0
 30
217.3930053710938
 70
   192
  0
VERTEX
  5
550
  8
0
 10
195.9129943847656
 20
-17.0
 30
209.1540069580078
 70
   192
  0
VERTEX
  5
551
  8
0
 10
190.5820007324219
 20
-17.0
 30
233.7700042724609
 70
   192
  0
VERTEX
  5
552
  8
0
 10
167.0829925537109
 20
-17.0
 30
239.7039947509766
 70
   192
  0
VERTEX
  5
553
  8
0
 10
167.0829925537109
 20
-17.0
 30
224.7039947509766
 70
   192
  0
VERTEX
  5
554
  8
0
 10
42.0
 20
-17.0
 30
224.7039947509766
 70
   192
  0
VERTEX
  5
555
  8
0
 10
183.4609985351562
 20
-17.0
 30
220.5679931640625
 70
   192
  0
VERTEX
  5
556
  8
0
 10
42.0
 20
-17.0
 30
239.7039947509766
 70
   192
  0
VERTEX
  5
557
  8
0
 10
17.25
 20
-17.0
 30
233.0720062255859
 70
   192
  0
VERTEX
  5
558
  8
0
 10
24.75
 20
-17.0
 30
220.0809936523438
 70
   192
  0
VERTEX
  5
559
  8
0
 10
-7.5
 20
-17.0
 30
190.2039947509766
 70
   192
  0
VERTEX
  5
55A
  8
0
 10
7.5
 20
-17.0
 30
190.2039947509766
 70
   192
  0
VERTEX
  5
55B
  8
0
 10
12.12199974060059
 20
-17.0
 30
207.4539947509766
 70
   192
  0
VERTEX
  5
55C
  8
0
 10
-7.5
 20
-17.0
 30
120.1999969482422
 70
   192
  0
VERTEX
  5
55D
  8
0
 10
-0.8679999709129333
 20
-17.0
 30
214.9539947509766
 70
   192
  0
VERTEX
  5
55E
  8
0
 10
7.5
 20
-17.0
 30
120.1999969482422
 70
   192
  0
VERTEX
  5
55F
  8
0
 10
202.0279998779297
 20
-17.0
 30
186.5890045166016
 70
   192
  0
VERTEX
  5
560
  8
0
 62
     9
 10
0.0
 20
0.0
 30
0.0
 70
   128
 71
     3
 72
     2
 73
     1
  0
VERTEX
  5
561
  8
0
 62
     9
 10
0.0
 20
0.0
 30
0.0
 70
   128
 71
     5
 72
     4
 73
     2
  0
VERTEX
  5
562
  8
0
 62
     9
 10
0.0
 20
0.0
 30
0.0
 70
   128
 71
     8
 72
     7
 73
     6
  0
VERTEX
  5
563
  8
0
 62
     9
 10
0.0
 20
0.0
 30
0.0
 70
   128
 71
     7
 72
     8
 73
     9
  0
VERTEX
  5
564
  8
0
 62
     9
 10
0.0
 20
0.0
 30
0.0
 70
   128
 71
     2
 72
     3
 73
     5
  0
VERTEX
  5
565
  8
0
 62
     9
 10
0.0
 20
0.0
 30
0.0
 70
   128
 71
    10
 72
     6
 73
     4
  0
VERTEX
  5
566
  8
0
 62
     9
 10
0.0
 20
0.0
 30
0.0
 70
   128
 71
     9
 72
    11
 73
     7
  0
VERTEX
  5
567
  8
0
 62
     9
 10
0.0
 20
0.0
 30
0.0
 70
   128
 71
    13
 72
    12
 73
    11
  0
VERTEX
  5
568
  8
0
 62
     9
 10
0.0
 20
0.0
 30
0.0
 70
   128
 71
    16
 72
    15
 73
    14
  0
VERTEX
  5
569
  8
0
 62
     9
 10
0.0
 20
0.0
 30
0.0
 70
   128
 71
    17
 72
    14
 73
    15
  0
VERTEX
  5
56A
  8
0
 62
     9
 10
0.0
 20
0.0
 30
0.0
 70
   128
 71
     4
 72
     5
 73
    10
  0
VERTEX
  5
56B
  8
0
 62
     9
 10
0.0
 20
0.0
 30
0.0
 70
   128
 71
    11
 72
     9
 73
    13
  0
VERTEX
  5
56C
  8
0
 62
     9
 10
0.0
 20
0.0
 30
0.0
 70
   128
 71
    13
 72
    16
 73
    18
  0
VERTEX
  5
56D
  8
0
 62
     9
 10
0.0
 20
0.0
 30
0.0
 70
   128
 71
    15
 72
    19
 73
    17
  0
VERTEX
  5
56E
  8
0
 62
     9
 10
0.0
 20
0.0
 30
0.0
 70
   128
 71
     6
 72
    10
 73
     8
  0
VERTEX
  5
56F
  8
0
 62
     9
 10
0.0
 20
0.0
 30
0.0
 70
   128
 71
    14
 72
    18
 73
    16
  0
VERTEX
  5
570
  8
0
 62
     9
 10
0.0
 20
0.0
 30
0.0
 70
   128
 71
    18
 72
    12
 73
    13
  0
VERTEX
  5
571
  8
0
 62
     9
 10
0.0
 20
0.0
 30
0.0
 70
   128
 71
     1
 72
    20
 73
     3
  0
SEQEND
  5
572
  8
0
 62
     9
  0
ENDBLK
  5
575
  8
0
  0
BLOCK
  8
0
  2
E3_NODE_53_
 70
     0
 10
0.0
 20
0.0
 30
0.0
  3
E3_NODE_53_
  1

  0
POLYLINE
  5
577
  8
0
 62
     9
 66
     1
 10
0.0
 20
0.0
 30
0.0
 70
    64
 71
     8
 72
     6
  0
VERTEX
  5
578
  8
0
 10
24.75
 20
-17.0
 30
220.0809936523438
 70
   192
  0
VERTEX
  5
579
  8
0
 10
24.75
 20
17.0
 30
220.0809936523438
 70
   192
  0
VERTEX
  5
57A
  8
0
 10
42.0
 20
17.0
 30
224.7039947509766
 70
   192
  0
VERTEX
  5
57B
  8
0
 10
12.12199974060059
 20
-17.0
 30
207.4539947509766
 70
   192
  0
VERTEX
  5
57C
  8
0
 10
12.12199974060059
 20
17.0
 30
207.4539947509766
 70
   192
  0
VERTEX
  5
57D
  8
0
 10
7.5
 20
-17.0
 30
190.2039947509766
 70
   192
  0
VERTEX
  5
57E
  8
0
 10
7.5
 20
17.0
 30
190.2039947509766
 70
   192
  0
VERTEX
  5
57F
  8
0
 10
42.0
 20
-17.0
 30
224.7039947509766
 70
   192
  0
VERTEX
  5
580
  8
0
 62
     9
 10
0.0
 20
0.0
 30
0.0
 70
   128
 71
     3
 72
     2
 73
     1
  0
VERTEX
  5
581
  8
0
 62
     9
 10
0.0
 20
0.0
 30
0.0
 70
   128
 71
     2
 72
     5
 73
     4
  0
VERTEX
  5
582
  8
0
 62
     9
 10
0.0
 20
0.0
 30
0.0
 70
   128
 71
     5
 72
     7
 73
     6
  0
VERTEX
  5
583
  8
0
 62
     9
 10
0.0
 20
0.0
 30
0.0
 70
   128
 71
     6
 72
     4
 73
     5
  0
VERTEX
  5
584
  8
0
 62
     9
 10
0.0
 20
0.0
 30
0.0
 70
   128
 71
     4
 72
     1
 73
     2
  0
VERTEX
  5
585
  8
0
 62
     9
 10
0.0
 20
0.0
 30
0.0
 70
   128
 71
     1
 72
     8
 73
     3
  0
SEQEND
  5
586
  8
0
 62
     9
  0
ENDBLK
  5
589
  8
0
  0
BLOCK
  8
0
  2
E3_NODE_54_
 70
     0
 10
0.0
 20
0.0
 30
0.0
  3
E3_NODE_54_
  1

  0
POLYLINE
  5
58B
  8
0
 62
     9
 66
     1
 10
0.0
 20
0.0
 30
0.0
 70
    64
 71
     4
 72
     2
  0
VERTEX
  5
58C
  8
0
 10
7.5
 20
17.0
 30
190.2039947509766
 70
   192
  0
VERTEX
  5
58D
  8
0
 10
7.5
 20
-17.0
 30
190.2039947509766
 70
   192
  0
VERTEX
  5
58E
  8
0
 10
7.5
 20
-17.0
 30
120.1999969482422
 70
   192
  0
VERTEX
  5
58F
  8
0
 10
7.5
 20
17.0
 30
120.1999969482422
 70
   192
  0
VERTEX
  5
590
  8
0
 62
     9
 10
0.0
 20
0.0
 30
0.0
 70
   128
 71
     3
 72
     2
 73
     1
  0
VERTEX
  5
591
  8
0
 62
     9
 10
0.0
 20
0.0
 30
0.0
 70
   128
 71
     1
 72
     4
 73
     3
  0
SEQEND
  5
592
  8
0
 62
     9
  0
ENDBLK
  5
595
  8
0
  0
BLOCK
  8
0
  2
E3_NODE_55_
 70
     0
 10
0.0
 20
0.0
 30
0.0
  3
E3_NODE_55_
  1

  0
POLYLINE
  5
597
  8
0
 62
     9
 66
     1
 10
0.0
 20
0.0
 30
0.0
 70
    64
 71
     6
 72
     4
  0
VERTEX
  5
598
  8
0
 10
-9.958999633789062
 20
-339.25
 30
44.75400161743164
 70
   192
  0
VERTEX
  5
599
  8
0
 10
9.958999633789062
 20
-350.75
 30
44.75400161743164
 70
   192
  0
VERTEX
  5
59A
  8
0
 10
9.958999633789062
 20
-339.25
 30
44.75400161743164
 70
   192
  0
VERTEX
  5
59B
  8
0
 10
-9.958999633789062
 20
-350.75
 30
44.75400161743164
 70
   192
  0
VERTEX
  5
59C
  8
0
 10
0.0
 20
-356.5
 30
44.75400161743164
 70
   192
  0
VERTEX
  5
59D
  8
0
 10
0.0
 20
-333.5
 30
44.75400161743164
 70
   192
  0
VERTEX
  5
59E
  8
0
 62
     9
 10
0.0
 20
0.0
 30
0.0
 70
   128
 71
     3
 72
     2
 73
     1
  0
VERTEX
  5
59F
  8
0
 62
     9
 10
0.0
 20
0.0
 30
0.0
 70
   128
 71
     4
 72
     1
 73
     2
  0
VERTEX
  5
5A0
  8
0
 62
     9
 10
0.0
 20
0.0
 30
0.0
 70
   128
 71
     2
 72
     5
 73
     4
  0
VERTEX
  5
5A1
  8
0
 62
     9
 10
0.0
 20
0.0
 30
0.0
 70
   128
 71
     1
 72
     6
 73
     3
  0
SEQEND
  5
5A2
  8
0
 62
     9
  0
ENDBLK
  5
5A5
  8
0
  0
BLOCK
  8
0
  2
E3_NODE_56_
 70
     0
 10
0.0
 20
0.0
 30
0.0
  3
E3_NODE_56_
  1

  0
POLYLINE
  5
5A7
  8
0
 62
     9
 66
     1
 10
0.0
 20
0.0
 30
0.0
 70
    64
 71
    12
 72
    12
  0
VERTEX
  5
5A8
  8
0
 10
-9.958999633789062
 20
-339.25
 30
44.75400161743164
 70
   192
  0
VERTEX
  5
5A9
  8
0
 10
0.0
 20
-333.5
 30
44.75400161743164
 70
   192
  0
VERTEX
  5
5AA
  8
0
 10
0.0
 20
-333.5
 30
41.55400085449219
 70
   192
  0
VERTEX
  5
5AB
  8
0
 10
-9.958999633789062
 20
-350.75
 30
44.75400161743164
 70
   192
  0
VERTEX
  5
5AC
  8
0
 10
-9.958999633789062
 20
-339.25
 30
41.55400085449219
 70
   192
  0
VERTEX
  5
5AD
  8
0
 10
0.0
 20
-356.5
 30
44.75400161743164
 70
   192
  0
VERTEX
  5
5AE
  8
0
 10
-9.958999633789062
 20
-350.75
 30
41.55400085449219
 70
   192
  0
VERTEX
  5
5AF
  8
0
 10
9.958999633789062
 20
-350.75
 30
41.55400085449219
 70
   192
  0
VERTEX
  5
5B0
  8
0
 10
9.958999633789062
 20
-350.75
 30
44.75400161743164
 70
   192
  0
VERTEX
  5
5B1
  8
0
 10
9.958999633789062
 20
-339.25
 30
41.55400085449219
 70
   192
  0
VERTEX
  5
5B2
  8
0
 10
9.958999633789062
 20
-339.25
 30
44.75400161743164
 70
   192
  0
VERTEX
  5
5B3
  8
0
 10
0.0
 20
-356.5
 30
41.55400085449219
 70
   192
  0
VERTEX
  5
5B4
  8
0
 62
     9
 10
0.0
 20
0.0
 30
0.0
 70
   128
 71
     3
 72
     2
 73
     1
  0
VERTEX
  5
5B5
  8
0
 62
     9
 10
0.0
 20
0.0
 30
0.0
 70
   128
 71
     5
 72
     1
 73
     4
  0
VERTEX
  5
5B6
  8
0
 62
     9
 10
0.0
 20
0.0
 30
0.0
 70
   128
 71
     7
 72
     4
 73
     6
  0
VERTEX
  5
5B7
  8
0
 62
     9
 10
0.0
 20
0.0
 30
0.0
 70
   128
 71
     6
 72
     9
 73
     8
  0
VERTEX
  5
5B8
  8
0
 62
     9
 10
0.0
 20
0.0
 30
0.0
 70
   128
 71
     9
 72
    11
 73
    10
  0
VERTEX
  5
5B9
  8
0
 62
     9
 10
0.0
 20
0.0
 30
0.0
 70
   128
 71
    11
 72
     2
 73
     3
  0
VERTEX
  5
5BA
  8
0
 62
     9
 10
0.0
 20
0.0
 30
0.0
 70
   128
 71
     3
 72
    10
 73
    11
  0
VERTEX
  5
5BB
  8
0
 62
     9
 10
0.0
 20
0.0
 30
0.0
 70
   128
 71
    10
 72
     8
 73
     9
  0
VERTEX
  5
5BC
  8
0
 62
     9
 10
0.0
 20
0.0
 30
0.0
 70
   128
 71
     8
 72
    12
 73
     6
  0
VERTEX
  5
5BD
  8
0
 62
     9
 10
0.0
 20
0.0
 30
0.0
 70
   128
 71
     6
 72
    12
 73
     7
  0
VERTEX
  5
5BE
  8
0
 62
     9
 10
0.0
 20
0.0
 30
0.0
 70
   128
 71
     4
 72
     7
 73
     5
  0
VERTEX
  5
5BF
  8
0
 62
     9
 10
0.0
 20
0.0
 30
0.0
 70
   128
 71
     1
 72
     5
 73
     3
  0
SEQEND
  5
5C0
  8
0
 62
     9
  0
ENDBLK
  5
5C3
  8
0
  0
BLOCK
  8
0
  2
E3_NODE_57_
 70
     0
 10
0.0
 20
0.0
 30
0.0
  3
E3_NODE_57_
  1

  0
POLYLINE
  5
5C5
  8
0
 62
     9
 66
     1
 10
0.0
 20
0.0
 30
0.0
 70
    64
 71
    12
 72
    12
  0
VERTEX
  5
5C6
  8
0
 10
0.0
 20
-356.7999877929688
 30
41.25400161743164
 70
   192
  0
VERTEX
  5
5C7
  8
0
 10
0.0
 20
-356.5
 30
41.55400085449219
 70
   192
  0
VERTEX
  5
5C8
  8
0
 10
-9.958999633789062
 20
-350.75
 30
41.55400085449219
 70
   192
  0
VERTEX
  5
5C9
  8
0
 10
-10.2189998626709
 20
-339.1000061035156
 30
41.25400161743164
 70
   192
  0
VERTEX
  5
5CA
  8
0
 10
-10.2189998626709
 20
-350.8999938964844
 30
41.25400161743164
 70
   192
  0
VERTEX
  5
5CB
  8
0
 10
-9.958999633789062
 20
-339.25
 30
41.55400085449219
 70
   192
  0
VERTEX
  5
5CC
  8
0
 10
0.0
 20
-333.5
 30
41.55400085449219
 70
   192
  0
VERTEX
  5
5CD
  8
0
 10
0.0
 20
-333.2000122070312
 30
41.25400161743164
 70
   192
  0
VERTEX
  5
5CE
  8
0
 10
9.958999633789062
 20
-339.25
 30
41.55400085449219
 70
   192
  0
VERTEX
  5
5CF
  8
0
 10
10.2189998626709
 20
-339.1000061035156
 30
41.25400161743164
 70
   192
  0
VERTEX
  5
5D0
  8
0
 10
9.958999633789062
 20
-350.75
 30
41.55400085449219
 70
   192
  0
VERTEX
  5
5D1
  8
0
 10
10.2189998626709
 20
-350.8999938964844
 30
41.25400161743164
 70
   192
  0
VERTEX
  5
5D2
  8
0
 62
     9
 10
0.0
 20
0.0
 30
0.0
 70
   128
 71
     3
 72
     2
 73
     1
  0
VERTEX
  5
5D3
  8
0
 62
     9
 10
0.0
 20
0.0
 30
0.0
 70
   128
 71
     3
 72
     5
 73
     4
  0
VERTEX
  5
5D4
  8
0
 62
     9
 10
0.0
 20
0.0
 30
0.0
 70
   128
 71
     7
 72
     6
 73
     4
  0
VERTEX
  5
5D5
  8
0
 62
     9
 10
0.0
 20
0.0
 30
0.0
 70
   128
 71
     9
 72
     7
 73
     8
  0
VERTEX
  5
5D6
  8
0
 62
     9
 10
0.0
 20
0.0
 30
0.0
 70
   128
 71
    11
 72
     9
 73
    10
  0
VERTEX
  5
5D7
  8
0
 62
     9
 10
0.0
 20
0.0
 30
0.0
 70
   128
 71
     2
 72
    11
 73
    12
  0
VERTEX
  5
5D8
  8
0
 62
     9
 10
0.0
 20
0.0
 30
0.0
 70
   128
 71
    12
 72
     1
 73
     2
  0
VERTEX
  5
5D9
  8
0
 62
     9
 10
0.0
 20
0.0
 30
0.0
 70
   128
 71
    10
 72
    12
 73
    11
  0
VERTEX
  5
5DA
  8
0
 62
     9
 10
0.0
 20
0.0
 30
0.0
 70
   128
 71
     8
 72
    10
 73
     9
  0
VERTEX
  5
5DB
  8
0
 62
     9
 10
0.0
 20
0.0
 30
0.0
 70
   128
 71
     4
 72
     8
 73
     7
  0
VERTEX
  5
5DC
  8
0
 62
     9
 10
0.0
 20
0.0
 30
0.0
 70
   128
 71
     4
 72
     6
 73
     3
  0
VERTEX
  5
5DD
  8
0
 62
     9
 10
0.0
 20
0.0
 30
0.0
 70
   128
 71
     1
 72
     5
 73
     3
  0
SEQEND
  5
5DE
  8
0
 62
     9
  0
ENDBLK
  5
5E1
  8
0
  0
BLOCK
  8
0
  2
E3_NODE_58_
 70
     0
 10
0.0
 20
0.0
 30
0.0
  3
E3_NODE_58_
  1

  0
POLYLINE
  5
5E3
  8
0
 62
     9
 66
     1
 10
0.0
 20
0.0
 30
0.0
 70
    64
 71
    12
 72
    12
  0
VERTEX
  5
5E4
  8
0
 10
-10.2189998626709
 20
-339.1000061035156
 30
41.25400161743164
 70
   192
  0
VERTEX
  5
5E5
  8
0
 10
0.0
 20
-333.2000122070312
 30
41.25400161743164
 70
   192
  0
VERTEX
  5
5E6
  8
0
 10
0.0
 20
-333.4429931640625
 30
36.61199951171875
 70
   192
  0
VERTEX
  5
5E7
  8
0
 10
-10.2189998626709
 20
-350.8999938964844
 30
41.25400161743164
 70
   192
  0
VERTEX
  5
5E8
  8
0
 10
-10.00800037384033
 20
-339.2219848632812
 30
36.61199951171875
 70
   192
  0
VERTEX
  5
5E9
  8
0
 10
0.0
 20
-356.7999877929688
 30
41.25400161743164
 70
   192
  0
VERTEX
  5
5EA
  8
0
 10
-10.00800037384033
 20
-350.7780151367188
 30
36.61199951171875
 70
   192
  0
VERTEX
  5
5EB
  8
0
 10
0.0
 20
-356.5570068359375
 30
36.61199951171875
 70
   192
  0
VERTEX
  5
5EC
  8
0
 10
10.00800037384033
 20
-350.7780151367188
 30
36.61199951171875
 70
   192
  0
VERTEX
  5
5ED
  8
0
 10
10.2189998626709
 20
-350.8999938964844
 30
41.25400161743164
 70
   192
  0
VERTEX
  5
5EE
  8
0
 10
10.00800037384033
 20
-339.2219848632812
 30
36.61199951171875
 70
   192
  0
VERTEX
  5
5EF
  8
0
 10
10.2189998626709
 20
-339.1000061035156
 30
41.25400161743164
 70
   192
  0
VERTEX
  5
5F0
  8
0
 62
     9
 10
0.0
 20
0.0
 30
0.0
 70
   128
 71
     3
 72
     2
 73
     1
  0
VERTEX
  5
5F1
  8
0
 62
     9
 10
0.0
 20
0.0
 30
0.0
 70
   128
 71
     5
 72
     1
 73
     4
  0
VERTEX
  5
5F2
  8
0
 62
     9
 10
0.0
 20
0.0
 30
0.0
 70
   128
 71
     7
 72
     4
 73
     6
  0
VERTEX
  5
5F3
  8
0
 62
     9
 10
0.0
 20
0.0
 30
0.0
 70
   128
 71
     9
 72
     8
 73
     6
  0
VERTEX
  5
5F4
  8
0
 62
     9
 10
0.0
 20
0.0
 30
0.0
 70
   128
 71
    11
 72
     9
 73
    10
  0
VERTEX
  5
5F5
  8
0
 62
     9
 10
0.0
 20
0.0
 30
0.0
 70
   128
 71
     3
 72
    11
 73
    12
  0
VERTEX
  5
5F6
  8
0
 62
     9
 10
0.0
 20
0.0
 30
0.0
 70
   128
 71
    12
 72
     2
 73
     3
  0
VERTEX
  5
5F7
  8
0
 62
     9
 10
0.0
 20
0.0
 30
0.0
 70
   128
 71
    10
 72
    12
 73
    11
  0
VERTEX
  5
5F8
  8
0
 62
     9
 10
0.0
 20
0.0
 30
0.0
 70
   128
 71
     6
 72
    10
 73
     9
  0
VERTEX
  5
5F9
  8
0
 62
     9
 10
0.0
 20
0.0
 30
0.0
 70
   128
 71
     6
 72
     8
 73
     7
  0
VERTEX
  5
5FA
  8
0
 62
     9
 10
0.0
 20
0.0
 30
0.0
 70
   128
 71
     4
 72
     7
 73
     5
  0
VERTEX
  5
5FB
  8
0
 62
     9
 10
0.0
 20
0.0
 30
0.0
 70
   128
 71
     1
 72
     5
 73
     3
  0
SEQEND
  5
5FC
  8
0
 62
     9
  0
ENDBLK
  5
5FF
  8
0
  0
BLOCK
  8
0
  2
E3_NODE_59_
 70
     0
 10
0.0
 20
0.0
 30
0.0
  3
E3_NODE_59_
  1

  0
POLYLINE
  5
601
  8
0
 62
     9
 66
     1
 10
0.0
 20
0.0
 30
0.0
 70
    64
 71
     4
 72
     2
  0
VERTEX
  5
602
  8
0
 10
47.5
 20
-242.5
 30
0.300000011920929
 70
   192
  0
VERTEX
  5
603
  8
0
 10
-47.5
 20
-242.5
 30
0.300000011920929
 70
   192
  0
VERTEX
  5
604
  8
0
 10
-47.5
 20
-147.5
 30
0.300000011920929
 70
   192
  0
VERTEX
  5
605
  8
0
 10
47.5
 20
-147.5
 30
0.300000011920929
 70
   192
  0
VERTEX
  5
606
  8
0
 62
     9
 10
0.0
 20
0.0
 30
0.0
 70
   128
 71
     3
 72
     2
 73
     1
  0
VERTEX
  5
607
  8
0
 62
     9
 10
0.0
 20
0.0
 30
0.0
 70
   128
 71
     1
 72
     4
 73
     3
  0
SEQEND
  5
608
  8
0
 62
     9
  0
ENDBLK
  5
60B
  8
0
  0
BLOCK
  8
0
  2
E3_NODE_60_
 70
     0
 10
0.0
 20
0.0
 30
0.0
  3
E3_NODE_60_
  1

  0
POLYLINE
  5
60D
  8
0
 62
     9
 66
     1
 10
0.0
 20
0.0
 30
0.0
 70
    64
 71
     4
 72
     2
  0
VERTEX
  5
60E
  8
0
 10
-47.5
 20
-242.5
 30
0.300000011920929
 70
   192
  0
VERTEX
  5
60F
  8
0
 10
47.5
 20
-242.5
 30
0.300000011920929
 70
   192
  0
VERTEX
  5
610
  8
0
 10
47.5
 20
-242.5
 30
15.30000019073486
 70
   192
  0
VERTEX
  5
611
  8
0
 10
-47.5
 20
-242.5
 30
15.30000019073486
 70
   192
  0
VERTEX
  5
612
  8
0
 62
     9
 10
0.0
 20
0.0
 30
0.0
 70
   128
 71
     3
 72
     2
 73
     1
  0
VERTEX
  5
613
  8
0
 62
     9
 10
0.0
 20
0.0
 30
0.0
 70
   128
 71
     1
 72
     4
 73
     3
  0
SEQEND
  5
614
  8
0
 62
     9
  0
ENDBLK
  5
617
  8
0
  0
BLOCK
  8
0
  2
E3_NODE_61_
 70
     0
 10
0.0
 20
0.0
 30
0.0
  3
E3_NODE_61_
  1

  0
POLYLINE
  5
619
  8
0
 62
     9
 66
     1
 10
0.0
 20
0.0
 30
0.0
 70
    64
 71
     4
 72
     2
  0
VERTEX
  5
61A
  8
0
 10
47.5
 20
-242.5
 30
0.300000011920929
 70
   192
  0
VERTEX
  5
61B
  8
0
 10
47.5
 20
-147.5
 30
0.300000011920929
 70
   192
  0
VERTEX
  5
61C
  8
0
 10
47.5
 20
-147.5
 30
15.30000019073486
 70
   192
  0
VERTEX
  5
61D
  8
0
 10
47.5
 20
-242.5
 30
15.30000019073486
 70
   192
  0
VERTEX
  5
61E
  8
0
 62
     9
 10
0.0
 20
0.0
 30
0.0
 70
   128
 71
     3
 72
     2
 73
     1
  0
VERTEX
  5
61F
  8
0
 62
     9
 10
0.0
 20
0.0
 30
0.0
 70
   128
 71
     1
 72
     4
 73
     3
  0
SEQEND
  5
620
  8
0
 62
     9
  0
ENDBLK
  5
623
  8
0
  0
BLOCK
  8
0
  2
E3_NODE_62_
 70
     0
 10
0.0
 20
0.0
 30
0.0
  3
E3_NODE_62_
  1

  0
POLYLINE
  5
625
  8
0
 62
     9
 66
     1
 10
0.0
 20
0.0
 30
0.0
 70
    64
 71
     4
 72
     2
  0
VERTEX
  5
626
  8
0
 10
-47.5
 20
-147.5
 30
0.300000011920929
 70
   192
  0
VERTEX
  5
627
  8
0
 10
-47.5
 20
-147.5
 30
15.30000019073486
 70
   192
  0
VERTEX
  5
628
  8
0
 10
47.5
 20
-147.5
 30
15.30000019073486
 70
   192
  0
VERTEX
  5
629
  8
0
 10
47.5
 20
-147.5
 30
0.300000011920929
 70
   192
  0
VERTEX
  5
62A
  8
0
 62
     9
 10
0.0
 20
0.0
 30
0.0
 70
   128
 71
     3
 72
     2
 73
     1
  0
VERTEX
  5
62B
  8
0
 62
     9
 10
0.0
 20
0.0
 30
0.0
 70
   128
 71
     1
 72
     4
 73
     3
  0
SEQEND
  5
62C
  8
0
 62
     9
  0
ENDBLK
  5
62F
  8
0
  0
BLOCK
  8
0
  2
E3_NODE_63_
 70
     0
 10
0.0
 20
0.0
 30
0.0
  3
E3_NODE_63_
  1

  0
POLYLINE
  5
631
  8
0
 62
     9
 66
     1
 10
0.0
 20
0.0
 30
0.0
 70
    64
 71
     4
 72
     2
  0
VERTEX
  5
632
  8
0
 10
-47.5
 20
-147.5
 30
0.300000011920929
 70
   192
  0
VERTEX
  5
633
  8
0
 10
-47.5
 20
-242.5
 30
0.300000011920929
 70
   192
  0
VERTEX
  5
634
  8
0
 10
-47.5
 20
-242.5
 30
15.30000019073486
 70
   192
  0
VERTEX
  5
635
  8
0
 10
-47.5
 20
-147.5
 30
15.30000019073486
 70
   192
  0
VERTEX
  5
636
  8
0
 62
     9
 10
0.0
 20
0.0
 30
0.0
 70
   128
 71
     3
 72
     2
 73
     1
  0
VERTEX
  5
637
  8
0
 62
     9
 10
0.0
 20
0.0
 30
0.0
 70
   128
 71
     1
 72
     4
 73
     3
  0
SEQEND
  5
638
  8
0
 62
     9
  0
ENDBLK
  5
63B
  8
0
  0
BLOCK
  8
0
  2
E3_NODE_64_
 70
     0
 10
0.0
 20
0.0
 30
0.0
  3
E3_NODE_64_
  1

  0
POLYLINE
  5
63D
  8
0
 62
     9
 66
     1
 10
0.0
 20
0.0
 30
0.0
 70
    64
 71
     4
 72
     2
  0
VERTEX
  5
63E
  8
0
 10
-47.5
 20
-242.5
 30
15.30000019073486
 70
   192
  0
VERTEX
  5
63F
  8
0
 10
47.5
 20
-242.5
 30
15.30000019073486
 70
   192
  0
VERTEX
  5
640
  8
0
 10
47.5
 20
-147.5
 30
15.30000019073486
 70
   192
  0
VERTEX
  5
641
  8
0
 10
-47.5
 20
-147.5
 30
15.30000019073486
 70
   192
  0
VERTEX
  5
642
  8
0
 62
     9
 10
0.0
 20
0.0
 30
0.0
 70
   128
 71
     3
 72
     2
 73
     1
  0
VERTEX
  5
643
  8
0
 62
     9
 10
0.0
 20
0.0
 30
0.0
 70
   128
 71
     1
 72
     4
 73
     3
  0
SEQEND
  5
644
  8
0
 62
     9
  0
ENDBLK
  5
647
  8
0
  0
ENDSEC
  0
SECTION
  2
ENTITIES
  0
INSERT
  5
4E
  8
LAYER_1
  2
E3_NODE
 10
0.0
 20
0.0
 30
0.0
  0
INSERT
  5
79
  8
LAYER_1
  2
E3_NODE_1_
 10
0.0
 20
0.0
 30
0.0
  0
INSERT
  5
8D
  8
LAYER_1
  2
E3_NODE_2_
 10
0.0
 20
0.0
 30
0.0
  0
INSERT
  5
B3
  8
LAYER_1
  2
E3_NODE_3_
 10
0.0
 20
0.0
 30
0.0
  0
INSERT
  5
CB
  8
LAYER_1
  2
E3_NODE_4_
 10
0.0
 20
0.0
 30
0.0
  0
INSERT
  5
117
  8
LAYER_1
  2
E3_NODE_5_
 10
0.0
 20
0.0
 30
0.0
  0
INSERT
  5
127
  8
LAYER_1
  2
E3_NODE_6_
 10
0.0
 20
0.0
 30
0.0
  0
INSERT
  5
143
  8
LAYER_1
  2
E3_NODE_7_
 10
0.0
 20
0.0
 30
0.0
  0
INSERT
  5
14F
  8
LAYER_1
  2
E3_NODE_8_
 10
0.0
 20
0.0
 30
0.0
  0
INSERT
  5
15B
  8
LAYER_1
  2
E3_NODE_9_
 10
0.0
 20
0.0
 30
0.0
  0
INSERT
  5
167
  8
LAYER_1
  2
E3_NODE_10_
 10
0.0
 20
0.0
 30
0.0
  0
INSERT
  5
177
  8
LAYER_1
  2
E3_NODE_11_
 10
0.0
 20
0.0
 30
0.0
  0
INSERT
  5
187
  8
LAYER_1
  2
E3_NODE_12_
 10
0.0
 20
0.0
 30
0.0
  0
INSERT
  5
1B5
  8
LAYER_1
  2
E3_NODE_13_
 10
0.0
 20
0.0
 30
0.0
  0
INSERT
  5
1D5
  8
LAYER_1
  2
E3_NODE_14_
 10
0.0
 20
0.0
 30
0.0
  0
INSERT
  5
1F7
  8
LAYER_1
  2
E3_NODE_15_
 10
0.0
 20
0.0
 30
0.0
  0
INSERT
  5
209
  8
LAYER_1
  2
E3_NODE_16_
 10
0.0
 20
0.0
 30
0.0
  0
INSERT
  5
21F
  8
LAYER_1
  2
E3_NODE_17_
 10
0.0
 20
0.0
 30
0.0
  0
INSERT
  5
265
  8
LAYER_1
  2
E3_NODE_18_
 10
0.0
 20
0.0
 30
0.0
  0
INSERT
  5
2B1
  8
LAYER_1
  2
E3_NODE_19_
 10
0.0
 20
0.0
 30
0.0
  0
INSERT
  5
2E9
  8
LAYER_1
  2
E3_NODE_20_
 10
0.0
 20
0.0
 30
0.0
  0
INSERT
  5
353
  8
LAYER_1
  2
E3_NODE_21_
 10
0.0
 20
0.0
 30
0.0
  0
INSERT
  5
35F
  8
LAYER_1
  2
E3_NODE_22_
 10
0.0
 20
0.0
 30
0.0
  0
INSERT
  5
36B
  8
LAYER_1
  2
E3_NODE_23_
 10
0.0
 20
0.0
 30
0.0
  0
INSERT
  5
389
  8
LAYER_1
  2
E3_NODE_24_
 10
0.0
 20
0.0
 30
0.0
  0
INSERT
  5
395
  8
LAYER_1
  2
E3_NODE_25_
 10
0.0
 20
0.0
 30
0.0
  0
INSERT
  5
3A1
  8
LAYER_1
  2
E3_NODE_26_
 10
0.0
 20
0.0
 30
0.0
  0
INSERT
  5
3AD
  8
LAYER_1
  2
E3_NODE_27_
 10
0.0
 20
0.0
 30
0.0
  0
INSERT
  5
3B9
  8
LAYER_1
  2
E3_NODE_28_
 10
0.0
 20
0.0
 30
0.0
  0
INSERT
  5
3C5
  8
LAYER_1
  2
E3_NODE_29_
 10
0.0
 20
0.0
 30
0.0
  0
INSERT
  5
3D1
  8
LAYER_1
  2
E3_NODE_30_
 10
0.0
 20
0.0
 30
0.0
  0
INSERT
  5
3E7
  8
LAYER_1
  2
E3_NODE_31_
 10
0.0
 20
0.0
 30
0.0
  0
INSERT
  5
411
  8
LAYER_1
  2
E3_NODE_32_
 10
0.0
 20
0.0
 30
0.0
  0
INSERT
  5
421
  8
LAYER_1
  2
E3_NODE_33_
 10
0.0
 20
0.0
 30
0.0
  0
INSERT
  5
43F
  8
LAYER_1
  2
E3_NODE_34_
 10
0.0
 20
0.0
 30
0.0
  0
INSERT
  5
44F
  8
LAYER_1
  2
E3_NODE_35_
 10
0.0
 20
0.0
 30
0.0
  0
INSERT
  5
45B
  8
LAYER_1
  2
E3_NODE_36_
 10
0.0
 20
0.0
 30
0.0
  0
INSERT
  5
467
  8
LAYER_1
  2
E3_NODE_37_
 10
0.0
 20
0.0
 30
0.0
  0
INSERT
  5
473
  8
LAYER_1
  2
E3_NODE_38_
 10
0.0
 20
0.0
 30
0.0
  0
INSERT
  5
47F
  8
LAYER_1
  2
E3_NODE_39_
 10
0.0
 20
0.0
 30
0.0
  0
INSERT
  5
48B
  8
LAYER_1
  2
E3_NODE_40_
 10
0.0
 20
0.0
 30
0.0
  0
INSERT
  5
497
  8
LAYER_1
  2
E3_NODE_41_
 10
0.0
 20
0.0
 30
0.0
  0
INSERT
  5
4A3
  8
LAYER_1
  2
E3_NODE_42_
 10
0.0
 20
0.0
 30
0.0
  0
INSERT
  5
4B7
  8
LAYER_1
  2
E3_NODE_43_
 10
0.0
 20
0.0
 30
0.0
  0
INSERT
  5
4C3
  8
LAYER_1
  2
E3_NODE_44_
 10
0.0
 20
0.0
 30
0.0
  0
INSERT
  5
4D7
  8
LAYER_1
  2
E3_NODE_45_
 10
0.0
 20
0.0
 30
0.0
  0
INSERT
  5
4E3
  8
LAYER_1
  2
E3_NODE_46_
 10
0.0
 20
0.0
 30
0.0
  0
INSERT
  5
4EF
  8
LAYER_1
  2
E3_NODE_47_
 10
0.0
 20
0.0
 30
0.0
  0
INSERT
  5
4FB
  8
LAYER_1
  2
E3_NODE_48_
 10
0.0
 20
0.0
 30
0.0
  0
INSERT
  5
50F
  8
LAYER_1
  2
E3_NODE_49_
 10
0.0
 20
0.0
 30
0.0
  0
INSERT
  5
51B
  8
LAYER_1
  2
E3_NODE_50_
 10
0.0
 20
0.0
 30
0.0
  0
INSERT
  5
547
  8
LAYER_1
  2
E3_NODE_51_
 10
0.0
 20
0.0
 30
0.0
  0
INSERT
  5
573
  8
LAYER_1
  2
E3_NODE_52_
 10
0.0
 20
0.0
 30
0.0
  0
INSERT
  5
587
  8
LAYER_1
  2
E3_NODE_53_
 10
0.0
 20
0.0
 30
0.0
  0
INSERT
  5
593
  8
LAYER_1
  2
E3_NODE_54_
 10
0.0
 20
0.0
 30
0.0
  0
INSERT
  5
5A3
  8
LAYER_1
  2
E3_NODE_55_
 10
0.0
 20
0.0
 30
0.0
  0
INSERT
  5
5C1
  8
LAYER_1
  2
E3_NODE_56_
 10
0.0
 20
0.0
 30
0.0
  0
INSERT
  5
5DF
  8
LAYER_1
  2
E3_NODE_57_
 10
0.0
 20
0.0
 30
0.0
  0
INSERT
  5
5FD
  8
LAYER_1
  2
E3_NODE_58_
 10
0.0
 20
0.0
 30
0.0
  0
INSERT
  5
609
  8
LAYER_1
  2
E3_NODE_59_
 10
0.0
 20
0.0
 30
0.0
  0
INSERT
  5
615
  8
LAYER_1
  2
E3_NODE_60_
 10
0.0
 20
0.0
 30
0.0
  0
INSERT
  5
621
  8
LAYER_1
  2
E3_NODE_61_
 10
0.0
 20
0.0
 30
0.0
  0
INSERT
  5
62D
  8
LAYER_1
  2
E3_NODE_62_
 10
0.0
 20
0.0
 30
0.0
  0
INSERT
  5
639
  8
LAYER_1
  2
E3_NODE_63_
 10
0.0
 20
0.0
 30
0.0
  0
INSERT
  5
645
  8
LAYER_1
  2
E3_NODE_64_
 10
0.0
 20
0.0
 30
0.0
  0
ENDSEC
  0
EOF
