  0
SECTION
  2
HEADER
  9
$ACADVER
  1
AC1009
  9
$DWGCODEPAGE
  3
ansi_1252
  9
$INSBASE
 10
0.0
 20
0.0
 30
0.0
  9
$EXTMIN
 10
1.000000000000000E+20
 20
1.000000000000000E+20
 30
1.000000000000000E+20
  9
$EXTMAX
 10
-1.000000000000000E+20
 20
-1.000000000000000E+20
 30
-1.000000000000000E+20
  9
$LIMMIN
 10
0.0
 20
0.0
  9
$LIMMAX
 10
12.0
 20
9.0
  9
$ORTHOMODE
 70
     0
  9
$REGENMODE
 70
     1
  9
$FILLMODE
 70
     1
  9
$QTEXTMODE
 70
     0
  9
$MIRRTEXT
 70
     1
  9
$DRAGMODE
 70
     2
  9
$LTSCALE
 40
1.0
  9
$OSMODE
 70
    37
  9
$ATTMODE
 70
     1
  9
$TEXTSIZE
 40
0.2
  9
$TRACEWID
 40
0.05
  9
$TEXTSTYLE
  7
STANDARD
  9
$CLAYER
  8
0
  9
$CELTYPE
  6
BYLAYER
  9
$CECOLOR
 62
   256
  9
$DIMSCALE
 40
1.0
  9
$DIMASZ
 40
0.18
  9
$DIMEXO
 40
0.0625
  9
$DIMDLI
 40
0.38
  9
$DIMRND
 40
0.0
  9
$DIMDLE
 40
0.0
  9
$DIMEXE
 40
0.18
  9
$DIMTP
 40
0.0
  9
$DIMTM
 40
0.0
  9
$DIMTXT
 40
0.18
  9
$DIMCEN
 40
0.09
  9
$DIMTSZ
 40
0.0
  9
$DIMTOL
 70
     0
  9
$DIMLIM
 70
     0
  9
$DIMTIH
 70
     1
  9
$DIMTOH
 70
     1
  9
$DIMSE1
 70
     0
  9
$DIMSE2
 70
     0
  9
$DIMTAD
 70
     0
  9
$DIMZIN
 70
     0
  9
$DIMBLK
  1

  9
$DIMASO
 70
     1
  9
$DIMSHO
 70
     1
  9
$DIMPOST
  1

  9
$DIMAPOST
  1

  9
$DIMALT
 70
     0
  9
$DIMALTD
 70
     2
  9
$DIMALTF
 40
25.4
  9
$DIMLFAC
 40
1.0
  9
$DIMTOFL
 70
     0
  9
$DIMTVP
 40
0.0
  9
$DIMTIX
 70
     0
  9
$DIMSOXD
 70
     0
  9
$DIMSAH
 70
     0
  9
$DIMBLK1
  1

  9
$DIMBLK2
  1

  9
$DIMSTYLE
  2
STANDARD
  9
$DIMCLRD
 70
     0
  9
$DIMCLRE
 70
     0
  9
$DIMCLRT
 70
     0
  9
$DIMTFAC
 40
1.0
  9
$DIMGAP
 40
0.09
  9
$LUNITS
 70
     2
  9
$LUPREC
 70
     4
  9
$SKETCHINC
 40
0.1
  9
$FILLETRAD
 40
0.5
  9
$AUNITS
 70
     0
  9
$AUPREC
 70
     0
  9
$MENU
  1
.
  9
$ELEVATION
 40
0.0
  9
$PELEVATION
 40
0.0
  9
$THICKNESS
 40
0.0
  9
$LIMCHECK
 70
     0
  9
$CHAMFERA
 40
0.5
  9
$CHAMFERB
 40
0.5
  9
$SKPOLY
 70
     0
  9
$TDCREATE
 40
2455352.688963391
  9
$TDUPDATE
 40
2455352.688963391
  9
$TDINDWG
 40
0.0000000116
  9
$TDUSRTIMER
 40
0.0000000116
  9
$USRTIMER
 70
     1
  9
$ANGBASE
 50
0.0
  9
$ANGDIR
 70
     0
  9
$PDMODE
 70
     0
  9
$PDSIZE
 40
0.0
  9
$PLINEWID
 40
0.0
  9
$COORDS
 70
     1
  9
$SPLFRAME
 70
     0
  9
$SPLINETYPE
 70
     6
  9
$SPLINESEGS
 70
     8
  9
$ATTDIA
 70
     0
  9
$ATTREQ
 70
     1
  9
$HANDLING
 70
     1
  9
$HANDSEED
  5
476
  9
$SURFTAB1
 70
     6
  9
$SURFTAB2
 70
     6
  9
$SURFTYPE
 70
     6
  9
$SURFU
 70
     6
  9
$SURFV
 70
     6
  9
$UCSNAME
  2

  9
$UCSORG
 10
0.0
 20
0.0
 30
0.0
  9
$UCSXDIR
 10
1.0
 20
0.0
 30
0.0
  9
$UCSYDIR
 10
0.0
 20
1.0
 30
0.0
  9
$PUCSNAME
  2

  9
$PUCSORG
 10
0.0
 20
0.0
 30
0.0
  9
$PUCSXDIR
 10
1.0
 20
0.0
 30
0.0
  9
$PUCSYDIR
 10
0.0
 20
1.0
 30
0.0
  9
$USERI1
 70
     0
  9
$USERI2
 70
     0
  9
$USERI3
 70
     0
  9
$USERI4
 70
     0
  9
$USERI5
 70
     0
  9
$USERR1
 40
0.0
  9
$USERR2
 40
0.0
  9
$USERR3
 40
0.0
  9
$USERR4
 40
0.0
  9
$USERR5
 40
0.0
  9
$WORLDVIEW
 70
     1
  9
$SHADEDGE
 70
     3
  9
$SHADEDIF
 70
    70
  9
$TILEMODE
 70
     1
  9
$MAXACTVP
 70
    64
  9
$PLIMCHECK
 70
     0
  9
$PEXTMIN
 10
1.000000000000000E+20
 20
1.000000000000000E+20
 30
1.000000000000000E+20
  9
$PEXTMAX
 10
-1.000000000000000E+20
 20
-1.000000000000000E+20
 30
-1.000000000000000E+20
  9
$PLIMMIN
 10
0.0
 20
0.0
  9
$PLIMMAX
 10
12.0
 20
9.0
  9
$UNITMODE
 70
     0
  9
$VISRETAIN
 70
     1
  9
$PLINEGEN
 70
     0
  9
$PSLTSCALE
 70
     1
  0
ENDSEC
  0
SECTION
  2
TABLES
  0
TABLE
  2
VPORT
 70
     1
  0
VPORT
  2
*ACTIVE
 70
     0
 10
0.0
 20
0.0
 11
1.0
 21
1.0
 12
0.0
 22
0.0
 13
0.0
 23
0.0
 14
0.5
 24
0.5
 15
0.5
 25
0.5
 16
360.3531494140625
 26
205.8983612060547
 36
360.3531494140625
 17
-15.27398681640625
 27
0.0
 37
-2.2659912109375
 40
206.9220836193214
 41
1.972972972850329
 42
50.0
 43
0.0
 44
0.0
 50
0.0
 51
0.0
 71
     0
 72
   100
 73
     1
 74
     3
 75
     0
 76
     0
 77
     0
 78
     0
  0
ENDTAB
  0
TABLE
  2
LTYPE
 70
     1
  0
LTYPE
  2
CONTINUOUS
 70
     0
  3
Solid line
 72
    65
 73
     0
 40
0.0
  0
ENDTAB
  0
TABLE
  2
LAYER
 70
     2
  0
LAYER
  2
0
 70
     0
 62
     7
  6
CONTINUOUS
  0
LAYER
  2
LAYER_1
 70
     0
 62
     7
  6
CONTINUOUS
  0
ENDTAB
  0
TABLE
  2
STYLE
 70
     1
  0
STYLE
  2
STANDARD
 70
     0
 40
0.0
 41
1.0
 50
0.0
 71
     0
 42
0.2
  3
txt
  4

  0
ENDTAB
  0
TABLE
  2
VIEW
 70
     0
  0
ENDTAB
  0
TABLE
  2
UCS
 70
     0
  0
ENDTAB
  0
TABLE
  2
APPID
 70
     1
  0
APPID
  2
ACAD
 70
     0
  0
ENDTAB
  0
TABLE
  2
DIMSTYLE
 70
     1
  0
DIMSTYLE
  2
STANDARD
 70
     0
  3

  4

  5

  6

  7

 40
1.0
 41
0.18
 42
0.0625
 43
0.38
 44
0.18
 45
0.0
 46
0.0
 47
0.0
 48
0.0
140
0.18
141
0.09
142
0.0
143
25.4
144
1.0
145
0.0
146
1.0
147
0.09
 71
     0
 72
     0
 73
     1
 74
     1
 75
     0
 76
     0
 77
     0
 78
     0
170
     0
171
     2
172
     0
173
     0
174
     0
175
     0
176
     0
177
     0
178
     0
  0
ENDTAB
  0
ENDSEC
  0
SECTION
  2
BLOCKS
  0
BLOCK
  8
0
  2
$MODEL_SPACE
 70
     0
 10
0.0
 20
0.0
 30
0.0
  3
$MODEL_SPACE
  1

  0
ENDBLK
  5
21
  8
0
  0
BLOCK
 67
     1
  8
0
  2
$PAPER_SPACE
 70
     0
 10
0.0
 20
0.0
 30
0.0
  3
$PAPER_SPACE
  1

  0
ENDBLK
  5
1D
 67
     1
  8
0
  0
BLOCK
  8
0
  2
E3_NODE
 70
     0
 10
0.0
 20
0.0
 30
0.0
  3
E3_NODE
  1

  0
POLYLINE
  5
3C
  8
0
 62
     9
 66
     1
 10
0.0
 20
0.0
 30
0.0
 70
    64
 71
    10
 72
    10
  0
VERTEX
  5
3D
  8
0
 10
-17.09700012207031
 20
-3.684000015258789
 30
-58.38100051879883
 70
   192
  0
VERTEX
  5
3E
  8
0
 10
-17.09700012207031
 20
-4.354000091552734
 30
-52.54100036621094
 70
   192
  0
VERTEX
  5
3F
  8
0
 10
-38.09700012207031
 20
-4.354000091552734
 30
-52.54100036621094
 70
   192
  0
VERTEX
  5
40
  8
0
 10
-38.09700012207031
 20
-3.684000015258789
 30
-58.38100051879883
 70
   192
  0
VERTEX
  5
41
  8
0
 10
-17.09700012207031
 20
0.9929999709129333
 30
-50.09999847412109
 70
   192
  0
VERTEX
  5
42
  8
0
 10
-38.09700012207031
 20
0.9929999709129333
 30
-50.09999847412109
 70
   192
  0
VERTEX
  5
43
  8
0
 10
-17.09700012207031
 20
4.967000007629395
 30
-54.43000030517578
 70
   192
  0
VERTEX
  5
44
  8
0
 10
-38.09700012207031
 20
4.967000007629395
 30
-54.43000030517578
 70
   192
  0
VERTEX
  5
45
  8
0
 10
-17.09700012207031
 20
2.07699990272522
 30
-59.54800033569336
 70
   192
  0
VERTEX
  5
46
  8
0
 10
-38.09700012207031
 20
2.07699990272522
 30
-59.54800033569336
 70
   192
  0
VERTEX
  5
47
  8
0
 62
     9
 10
0.0
 20
0.0
 30
0.0
 70
   128
 71
     3
 72
     2
 73
     1
  0
VERTEX
  5
48
  8
0
 62
     9
 10
0.0
 20
0.0
 30
0.0
 70
   128
 71
     4
 72
     3
 73
     1
  0
VERTEX
  5
49
  8
0
 62
     9
 10
0.0
 20
0.0
 30
0.0
 70
   128
 71
     6
 72
     5
 73
     2
  0
VERTEX
  5
4A
  8
0
 62
     9
 10
0.0
 20
0.0
 30
0.0
 70
   128
 71
     3
 72
     6
 73
     2
  0
VERTEX
  5
4B
  8
0
 62
     9
 10
0.0
 20
0.0
 30
0.0
 70
   128
 71
     8
 72
     7
 73
     5
  0
VERTEX
  5
4C
  8
0
 62
     9
 10
0.0
 20
0.0
 30
0.0
 70
   128
 71
     6
 72
     8
 73
     5
  0
VERTEX
  5
4D
  8
0
 62
     9
 10
0.0
 20
0.0
 30
0.0
 70
   128
 71
    10
 72
     9
 73
     7
  0
VERTEX
  5
4E
  8
0
 62
     9
 10
0.0
 20
0.0
 30
0.0
 70
   128
 71
     8
 72
    10
 73
     7
  0
VERTEX
  5
4F
  8
0
 62
     9
 10
0.0
 20
0.0
 30
0.0
 70
   128
 71
     4
 72
     1
 73
     9
  0
VERTEX
  5
50
  8
0
 62
     9
 10
0.0
 20
0.0
 30
0.0
 70
   128
 71
    10
 72
     4
 73
     9
  0
SEQEND
  5
51
  8
0
 62
     9
  0
ENDBLK
  5
55
  8
0
  0
BLOCK
  8
0
  2
E3_NODE_1_
 70
     0
 10
0.0
 20
0.0
 30
0.0
  3
E3_NODE_1_
  1

  0
POLYLINE
  5
57
  8
0
 62
     9
 66
     1
 10
0.0
 20
0.0
 30
0.0
 70
    64
 71
    26
 72
    25
  0
VERTEX
  5
58
  8
0
 10
36.72800064086914
 20
0.0
 30
0.7860000133514404
 70
   192
  0
VERTEX
  5
59
  8
0
 10
35.76399993896484
 20
19.69300079345703
 30
18.49900054931641
 70
   192
  0
VERTEX
  5
5A
  8
0
 10
35.65599822998047
 20
14.01200008392334
 30
22.625
 70
   192
  0
VERTEX
  5
5B
  8
0
 10
36.01399993896484
 20
25.20299911499023
 30
8.958999633789062
 70
   192
  0
VERTEX
  5
5C
  8
0
 10
35.94599914550781
 20
23.70800018310547
 30
11.54800033569336
 70
   192
  0
VERTEX
  5
5D
  8
0
 10
36.57500076293945
 20
22.95000076293945
 30
-12.47299957275391
 70
   192
  0
VERTEX
  5
5E
  8
0
 10
36.32600021362305
 20
26.04899978637695
 30
-2.937999963760376
 70
   192
  0
VERTEX
  5
5F
  8
0
 10
36.79000091552734
 20
15.57600021362305
 30
-20.65900039672852
 70
   192
  0
VERTEX
  5
60
  8
0
 10
36.67300033569336
 20
19.60099983215332
 30
-16.19099998474121
 70
   192
  0
VERTEX
  5
61
  8
0
 10
36.90700149536133
 20
5.510000228881836
 30
-25.13899993896484
 70
   192
  0
VERTEX
  5
62
  8
0
 10
36.88600158691406
 20
7.326000213623047
 30
-24.33099937438965
 70
   192
  0
VERTEX
  5
63
  8
0
 10
36.79000091552734
 20
-15.57600021362305
 30
-20.65900039672852
 70
   192
  0
VERTEX
  5
64
  8
0
 10
36.88600158691406
 20
-7.326000213623047
 30
-24.33099937438965
 70
   192
  0
VERTEX
  5
65
  8
0
 10
36.57500076293945
 20
-22.95000076293945
 30
-12.47299957275391
 70
   192
  0
VERTEX
  5
66
  8
0
 10
36.67300033569336
 20
-19.60099983215332
 30
-16.19099998474121
 70
   192
  0
VERTEX
  5
67
  8
0
 10
36.30099868774414
 20
-26.35499954223633
 30
-1.996000051498413
 70
   192
  0
VERTEX
  5
68
  8
0
 10
36.32600021362305
 20
-26.04899978637695
 30
-2.937999963760376
 70
   192
  0
VERTEX
  5
69
  8
0
 10
35.76399993896484
 20
-19.69300079345703
 30
18.49900054931641
 70
   192
  0
VERTEX
  5
6A
  8
0
 10
35.94599914550781
 20
-23.70800018310547
 30
11.54800033569336
 70
   192
  0
VERTEX
  5
6B
  8
0
 10
35.59500122070312
 20
-10.7790002822876
 30
24.97400093078613
 70
   192
  0
VERTEX
  5
6C
  8
0
 10
35.65599822998047
 20
-14.01200008392334
 30
22.625
 70
   192
  0
VERTEX
  5
6D
  8
0
 10
35.53499984741211
 20
0.0
 30
27.26399993896484
 70
   192
  0
VERTEX
  5
6E
  8
0
 10
36.01399993896484
 20
-25.20299911499023
 30
8.958999633789062
 70
   192
  0
VERTEX
  5
6F
  8
0
 10
36.90700149536133
 20
-5.510000228881836
 30
-25.13899993896484
 70
   192
  0
VERTEX
  5
70
  8
0
 10
36.30099868774414
 20
26.35499954223633
 30
-1.996000051498413
 70
   192
  0
VERTEX
  5
71
  8
0
 10
35.59500122070312
 20
10.7790002822876
 30
24.97400093078613
 70
   192
  0
VERTEX
  5
72
  8
0
 62
     9
 10
0.0
 20
0.0
 30
0.0
 70
   128
 71
     3
 72
     2
 73
     1
  0
VERTEX
  5
73
  8
0
 62
     9
 10
0.0
 20
0.0
 30
0.0
 70
   128
 71
     5
 72
     4
 73
     1
  0
VERTEX
  5
74
  8
0
 62
     9
 10
0.0
 20
0.0
 30
0.0
 70
   128
 71
     7
 72
     6
 73
     1
  0
VERTEX
  5
75
  8
0
 62
     9
 10
0.0
 20
0.0
 30
0.0
 70
   128
 71
     9
 72
     8
 73
     1
  0
VERTEX
  5
76
  8
0
 62
     9
 10
0.0
 20
0.0
 30
0.0
 70
   128
 71
    11
 72
    10
 73
     1
  0
VERTEX
  5
77
  8
0
 62
     9
 10
0.0
 20
0.0
 30
0.0
 70
   128
 71
    13
 72
    12
 73
     1
  0
VERTEX
  5
78
  8
0
 62
     9
 10
0.0
 20
0.0
 30
0.0
 70
   128
 71
    15
 72
    14
 73
     1
  0
VERTEX
  5
79
  8
0
 62
     9
 10
0.0
 20
0.0
 30
0.0
 70
   128
 71
    17
 72
    16
 73
     1
  0
VERTEX
  5
7A
  8
0
 62
     9
 10
0.0
 20
0.0
 30
0.0
 70
   128
 71
    19
 72
    18
 73
     1
  0
VERTEX
  5
7B
  8
0
 62
     9
 10
0.0
 20
0.0
 30
0.0
 70
   128
 71
    21
 72
    20
 73
     1
  0
VERTEX
  5
7C
  8
0
 62
     9
 10
0.0
 20
0.0
 30
0.0
 70
   128
 71
     1
 72
    20
 73
    22
  0
VERTEX
  5
7D
  8
0
 62
     9
 10
0.0
 20
0.0
 30
0.0
 70
   128
 71
     1
 72
    18
 73
    21
  0
VERTEX
  5
7E
  8
0
 62
     9
 10
0.0
 20
0.0
 30
0.0
 70
   128
 71
     1
 72
    23
 73
    19
  0
VERTEX
  5
7F
  8
0
 62
     9
 10
0.0
 20
0.0
 30
0.0
 70
   128
 71
     1
 72
    16
 73
    23
  0
VERTEX
  5
80
  8
0
 62
     9
 10
0.0
 20
0.0
 30
0.0
 70
   128
 71
     1
 72
    14
 73
    17
  0
VERTEX
  5
81
  8
0
 62
     9
 10
0.0
 20
0.0
 30
0.0
 70
   128
 71
     1
 72
    12
 73
    15
  0
VERTEX
  5
82
  8
0
 62
     9
 10
0.0
 20
0.0
 30
0.0
 70
   128
 71
     1
 72
    24
 73
    13
  0
VERTEX
  5
83
  8
0
 62
     9
 10
0.0
 20
0.0
 30
0.0
 70
   128
 71
     1
 72
    10
 73
    24
  0
VERTEX
  5
84
  8
0
 62
     9
 10
0.0
 20
0.0
 30
0.0
 70
   128
 71
     1
 72
     8
 73
    11
  0
VERTEX
  5
85
  8
0
 62
     9
 10
0.0
 20
0.0
 30
0.0
 70
   128
 71
     1
 72
     6
 73
     9
  0
VERTEX
  5
86
  8
0
 62
     9
 10
0.0
 20
0.0
 30
0.0
 70
   128
 71
     1
 72
    25
 73
     7
  0
VERTEX
  5
87
  8
0
 62
     9
 10
0.0
 20
0.0
 30
0.0
 70
   128
 71
     1
 72
     4
 73
    25
  0
VERTEX
  5
88
  8
0
 62
     9
 10
0.0
 20
0.0
 30
0.0
 70
   128
 71
     1
 72
     2
 73
     5
  0
VERTEX
  5
89
  8
0
 62
     9
 10
0.0
 20
0.0
 30
0.0
 70
   128
 71
     1
 72
    26
 73
     3
  0
VERTEX
  5
8A
  8
0
 62
     9
 10
0.0
 20
0.0
 30
0.0
 70
   128
 71
     1
 72
    22
 73
    26
  0
SEQEND
  5
8B
  8
0
 62
     9
  0
ENDBLK
  5
8E
  8
0
  0
BLOCK
  8
0
  2
E3_NODE_2_
 70
     0
 10
0.0
 20
0.0
 30
0.0
  3
E3_NODE_2_
  1

  0
POLYLINE
  5
90
  8
0
 62
     9
 66
     1
 10
0.0
 20
0.0
 30
0.0
 70
    64
 71
    51
 72
    53
  0
VERTEX
  5
91
  8
0
 10
-3.95199990272522
 20
0.0
 30
26.22999954223633
 70
   192
  0
VERTEX
  5
92
  8
0
 10
35.53499984741211
 20
0.0
 30
27.26399993896484
 70
   192
  0
VERTEX
  5
93
  8
0
 10
35.59500122070312
 20
10.7790002822876
 30
24.97400093078613
 70
   192
  0
VERTEX
  5
94
  8
0
 10
-3.842000007629395
 20
14.32699966430664
 30
22.02400016784668
 70
   192
  0
VERTEX
  5
95
  8
0
 10
-3.546000003814697
 20
24.10499954223633
 30
10.74400043487549
 70
   192
  0
VERTEX
  5
96
  8
0
 10
35.76399993896484
 20
19.69300079345703
 30
18.49900054931641
 70
   192
  0
VERTEX
  5
97
  8
0
 10
35.65599822998047
 20
14.01200008392334
 30
22.625
 70
   192
  0
VERTEX
  5
98
  8
0
 10
-3.158999919891357
 20
26.22999954223633
 30
-4.031000137329102
 70
   192
  0
VERTEX
  5
99
  8
0
 10
36.01399993896484
 20
25.20299911499023
 30
8.958999633789062
 70
   192
  0
VERTEX
  5
9A
  8
0
 10
36.30099868774414
 20
26.35499954223633
 30
-1.996000051498413
 70
   192
  0
VERTEX
  5
9B
  8
0
 10
35.94599914550781
 20
23.70800018310547
 30
11.54800033569336
 70
   192
  0
VERTEX
  5
9C
  8
0
 10
36.32600021362305
 20
26.04899978637695
 30
-2.937999963760376
 70
   192
  0
VERTEX
  5
9D
  8
0
 10
36.57500076293945
 20
22.95000076293945
 30
-12.47299957275391
 70
   192
  0
VERTEX
  5
9E
  8
0
 10
-2.803999900817871
 20
20.02700042724609
 30
-17.60899925231934
 70
   192
  0
VERTEX
  5
9F
  8
0
 10
-2.592000007629395
 20
7.466000080108643
 30
-25.67900085449219
 70
   192
  0
VERTEX
  5
A0
  8
0
 10
36.79000091552734
 20
15.57600021362305
 30
-20.65900039672852
 70
   192
  0
VERTEX
  5
A1
  8
0
 10
36.67300033569336
 20
19.60099983215332
 30
-16.19099998474121
 70
   192
  0
VERTEX
  5
A2
  8
0
 10
21.10199928283691
 20
6.99399995803833
 30
-25.19300079345703
 70
   192
  0
VERTEX
  5
A3
  8
0
 10
18.03499984741211
 20
5.75600004196167
 30
-25.5669994354248
 70
   192
  0
VERTEX
  5
A4
  8
0
 10
36.88600158691406
 20
7.326000213623047
 30
-24.33099937438965
 70
   192
  0
VERTEX
  5
A5
  8
0
 10
25.42399978637695
 20
5.735000133514404
 30
-25.39100074768066
 70
   192
  0
VERTEX
  5
A6
  8
0
 10
24.86100006103516
 20
5.89900016784668
 30
-25.36499977111816
 70
   192
  0
VERTEX
  5
A7
  8
0
 10
36.90700149536133
 20
5.510000228881836
 30
-25.13899993896484
 70
   192
  0
VERTEX
  5
A8
  8
0
 10
36.90700149536133
 20
-5.510000228881836
 30
-25.13899993896484
 70
   192
  0
VERTEX
  5
A9
  8
0
 10
28.42499923706055
 20
0.0
 30
-25.94099998474121
 70
   192
  0
VERTEX
  5
AA
  8
0
 10
26.94899940490723
 20
-4.288000106811523
 30
-25.6299991607666
 70
   192
  0
VERTEX
  5
AB
  8
0
 10
36.88600158691406
 20
-7.326000213623047
 30
-24.33099937438965
 70
   192
  0
VERTEX
  5
AC
  8
0
 10
28.13999938964844
 20
1.970999956130981
 30
-25.875
 70
   192
  0
VERTEX
  5
AD
  8
0
 10
16.78700065612793
 20
5.251999855041504
 30
-25.71999931335449
 70
   192
  0
VERTEX
  5
AE
  8
0
 10
23.0359992980957
 20
-6.807000160217285
 30
-25.1919994354248
 70
   192
  0
VERTEX
  5
AF
  8
0
 10
24.69899940490723
 20
-5.736999988555908
 30
-25.37800025939941
 70
   192
  0
VERTEX
  5
B0
  8
0
 10
-2.592000007629395
 20
-7.466000080108643
 30
-25.67900085449219
 70
   192
  0
VERTEX
  5
B1
  8
0
 10
18.51899909973145
 20
-6.375999927520752
 30
-25.42099952697754
 70
   192
  0
VERTEX
  5
B2
  8
0
 10
15.21599960327148
 20
-3.233000040054321
 30
-26.08799934387207
 70
   192
  0
VERTEX
  5
B3
  8
0
 10
18.04199981689453
 20
-5.921999931335449
 30
-25.51799964904785
 70
   192
  0
VERTEX
  5
B4
  8
0
 10
14.55900001525879
 20
1.342000007629395
 30
-26.27000045776367
 70
   192
  0
VERTEX
  5
B5
  8
0
 10
14.74499988555908
 20
0.046000000089407
 30
-26.2180004119873
 70
   192
  0
VERTEX
  5
B6
  8
0
 10
36.79000091552734
 20
-15.57600021362305
 30
-20.65900039672852
 70
   192
  0
VERTEX
  5
B7
  8
0
 10
-2.803999900817871
 20
-20.02700042724609
 30
-17.60899925231934
 70
   192
  0
VERTEX
  5
B8
  8
0
 10
-3.158999919891357
 20
-26.22999954223633
 30
-4.031000137329102
 70
   192
  0
VERTEX
  5
B9
  8
0
 10
36.57500076293945
 20
-22.95000076293945
 30
-12.47299957275391
 70
   192
  0
VERTEX
  5
BA
  8
0
 10
36.67300033569336
 20
-19.60099983215332
 30
-16.19099998474121
 70
   192
  0
VERTEX
  5
BB
  8
0
 10
36.30099868774414
 20
-26.35499954223633
 30
-1.996000051498413
 70
   192
  0
VERTEX
  5
BC
  8
0
 10
36.01399993896484
 20
-25.20299911499023
 30
8.958999633789062
 70
   192
  0
VERTEX
  5
BD
  8
0
 10
36.32600021362305
 20
-26.04899978637695
 30
-2.937999963760376
 70
   192
  0
VERTEX
  5
BE
  8
0
 10
-3.546000003814697
 20
-24.10499954223633
 30
10.74400043487549
 70
   192
  0
VERTEX
  5
BF
  8
0
 10
35.94599914550781
 20
-23.70800018310547
 30
11.54800033569336
 70
   192
  0
VERTEX
  5
C0
  8
0
 10
35.76399993896484
 20
-19.69300079345703
 30
18.49900054931641
 70
   192
  0
VERTEX
  5
C1
  8
0
 10
-3.842000007629395
 20
-14.32699966430664
 30
22.02400016784668
 70
   192
  0
VERTEX
  5
C2
  8
0
 10
35.59500122070312
 20
-10.7790002822876
 30
24.97400093078613
 70
   192
  0
VERTEX
  5
C3
  8
0
 10
35.65599822998047
 20
-14.01200008392334
 30
22.625
 70
   192
  0
VERTEX
  5
C4
  8
0
 62
     9
 10
0.0
 20
0.0
 30
0.0
 70
   128
 71
     3
 72
     2
 73
     1
  0
VERTEX
  5
C5
  8
0
 62
     9
 10
0.0
 20
0.0
 30
0.0
 70
   128
 71
     1
 72
     4
 73
     3
  0
VERTEX
  5
C6
  8
0
 62
     9
 10
0.0
 20
0.0
 30
0.0
 70
   128
 71
     6
 72
     4
 73
     5
  0
VERTEX
  5
C7
  8
0
 62
     9
 10
0.0
 20
0.0
 30
0.0
 70
   128
 71
     6
 72
     7
 73
     4
  0
VERTEX
  5
C8
  8
0
 62
     9
 10
0.0
 20
0.0
 30
0.0
 70
   128
 71
     9
 72
     5
 73
     8
  0
VERTEX
  5
C9
  8
0
 62
     9
 10
0.0
 20
0.0
 30
0.0
 70
   128
 71
     8
 72
    10
 73
     9
  0
VERTEX
  5
CA
  8
0
 62
     9
 10
0.0
 20
0.0
 30
0.0
 70
   128
 71
     9
 72
    11
 73
     5
  0
VERTEX
  5
CB
  8
0
 62
     9
 10
0.0
 20
0.0
 30
0.0
 70
   128
 71
    13
 72
    12
 73
     8
  0
VERTEX
  5
CC
  8
0
 62
     9
 10
0.0
 20
0.0
 30
0.0
 70
   128
 71
     8
 72
    14
 73
    13
  0
VERTEX
  5
CD
  8
0
 62
     9
 10
0.0
 20
0.0
 30
0.0
 70
   128
 71
    16
 72
    14
 73
    15
  0
VERTEX
  5
CE
  8
0
 62
     9
 10
0.0
 20
0.0
 30
0.0
 70
   128
 71
    16
 72
    17
 73
    14
  0
VERTEX
  5
CF
  8
0
 62
     9
 10
0.0
 20
0.0
 30
0.0
 70
   128
 71
    19
 72
    18
 73
    15
  0
VERTEX
  5
D0
  8
0
 62
     9
 10
0.0
 20
0.0
 30
0.0
 70
   128
 71
    22
 72
    21
 73
    20
  0
VERTEX
  5
D1
  8
0
 62
     9
 10
0.0
 20
0.0
 30
0.0
 70
   128
 71
    20
 72
    18
 73
    22
  0
VERTEX
  5
D2
  8
0
 62
     9
 10
0.0
 20
0.0
 30
0.0
 70
   128
 71
    23
 72
    20
 73
    21
  0
VERTEX
  5
D3
  8
0
 62
     9
 10
0.0
 20
0.0
 30
0.0
 70
   128
 71
    25
 72
    24
 73
    23
  0
VERTEX
  5
D4
  8
0
 62
     9
 10
0.0
 20
0.0
 30
0.0
 70
   128
 71
    24
 72
    25
 73
    26
  0
VERTEX
  5
D5
  8
0
 62
     9
 10
0.0
 20
0.0
 30
0.0
 70
   128
 71
    26
 72
    27
 73
    24
  0
VERTEX
  5
D6
  8
0
 62
     9
 10
0.0
 20
0.0
 30
0.0
 70
   128
 71
    23
 72
    28
 73
    25
  0
VERTEX
  5
D7
  8
0
 62
     9
 10
0.0
 20
0.0
 30
0.0
 70
   128
 71
    21
 72
    28
 73
    23
  0
VERTEX
  5
D8
  8
0
 62
     9
 10
0.0
 20
0.0
 30
0.0
 70
   128
 71
    20
 72
    15
 73
    18
  0
VERTEX
  5
D9
  8
0
 62
     9
 10
0.0
 20
0.0
 30
0.0
 70
   128
 71
    15
 72
    29
 73
    19
  0
VERTEX
  5
DA
  8
0
 62
     9
 10
0.0
 20
0.0
 30
0.0
 70
   128
 71
    31
 72
    30
 73
    27
  0
VERTEX
  5
DB
  8
0
 62
     9
 10
0.0
 20
0.0
 30
0.0
 70
   128
 71
    27
 72
    26
 73
    31
  0
VERTEX
  5
DC
  8
0
 62
     9
 10
0.0
 20
0.0
 30
0.0
 70
   128
 71
    30
 72
    33
 73
    32
  0
VERTEX
  5
DD
  8
0
 62
     9
 10
0.0
 20
0.0
 30
0.0
 70
   128
 71
    35
 72
    34
 73
    32
  0
VERTEX
  5
DE
  8
0
 62
     9
 10
0.0
 20
0.0
 30
0.0
 70
   128
 71
    32
 72
    33
 73
    35
  0
VERTEX
  5
DF
  8
0
 62
     9
 10
0.0
 20
0.0
 30
0.0
 70
   128
 71
    32
 72
    27
 73
    30
  0
VERTEX
  5
E0
  8
0
 62
     9
 10
0.0
 20
0.0
 30
0.0
 70
   128
 71
    36
 72
    15
 73
    32
  0
VERTEX
  5
E1
  8
0
 62
     9
 10
0.0
 20
0.0
 30
0.0
 70
   128
 71
    32
 72
    37
 73
    36
  0
VERTEX
  5
E2
  8
0
 62
     9
 10
0.0
 20
0.0
 30
0.0
 70
   128
 71
    32
 72
    34
 73
    37
  0
VERTEX
  5
E3
  8
0
 62
     9
 10
0.0
 20
0.0
 30
0.0
 70
   128
 71
    38
 72
    27
 73
    32
  0
VERTEX
  5
E4
  8
0
 62
     9
 10
0.0
 20
0.0
 30
0.0
 70
   128
 71
    32
 72
    39
 73
    38
  0
VERTEX
  5
E5
  8
0
 62
     9
 10
0.0
 20
0.0
 30
0.0
 70
   128
 71
    41
 72
    39
 73
    40
  0
VERTEX
  5
E6
  8
0
 62
     9
 10
0.0
 20
0.0
 30
0.0
 70
   128
 71
    41
 72
    42
 73
    39
  0
VERTEX
  5
E7
  8
0
 62
     9
 10
0.0
 20
0.0
 30
0.0
 70
   128
 71
    44
 72
    43
 73
    40
  0
VERTEX
  5
E8
  8
0
 62
     9
 10
0.0
 20
0.0
 30
0.0
 70
   128
 71
    43
 72
    45
 73
    40
  0
VERTEX
  5
E9
  8
0
 62
     9
 10
0.0
 20
0.0
 30
0.0
 70
   128
 71
    40
 72
    46
 73
    44
  0
VERTEX
  5
EA
  8
0
 62
     9
 10
0.0
 20
0.0
 30
0.0
 70
   128
 71
    48
 72
    47
 73
    46
  0
VERTEX
  5
EB
  8
0
 62
     9
 10
0.0
 20
0.0
 30
0.0
 70
   128
 71
    46
 72
    49
 73
    48
  0
VERTEX
  5
EC
  8
0
 62
     9
 10
0.0
 20
0.0
 30
0.0
 70
   128
 71
    50
 72
    49
 73
     1
  0
VERTEX
  5
ED
  8
0
 62
     9
 10
0.0
 20
0.0
 30
0.0
 70
   128
 71
    50
 72
    51
 73
    49
  0
VERTEX
  5
EE
  8
0
 62
     9
 10
0.0
 20
0.0
 30
0.0
 70
   128
 71
     1
 72
     2
 73
    50
  0
VERTEX
  5
EF
  8
0
 62
     9
 10
0.0
 20
0.0
 30
0.0
 70
   128
 71
    49
 72
    51
 73
    48
  0
VERTEX
  5
F0
  8
0
 62
     9
 10
0.0
 20
0.0
 30
0.0
 70
   128
 71
    46
 72
    47
 73
    44
  0
VERTEX
  5
F1
  8
0
 62
     9
 10
0.0
 20
0.0
 30
0.0
 70
   128
 71
    40
 72
    45
 73
    41
  0
VERTEX
  5
F2
  8
0
 62
     9
 10
0.0
 20
0.0
 30
0.0
 70
   128
 71
    39
 72
    42
 73
    38
  0
VERTEX
  5
F3
  8
0
 62
     9
 10
0.0
 20
0.0
 30
0.0
 70
   128
 71
    15
 72
    36
 73
    29
  0
VERTEX
  5
F4
  8
0
 62
     9
 10
0.0
 20
0.0
 30
0.0
 70
   128
 71
    15
 72
    20
 73
    16
  0
VERTEX
  5
F5
  8
0
 62
     9
 10
0.0
 20
0.0
 30
0.0
 70
   128
 71
    14
 72
    17
 73
    13
  0
VERTEX
  5
F6
  8
0
 62
     9
 10
0.0
 20
0.0
 30
0.0
 70
   128
 71
     8
 72
    12
 73
    10
  0
VERTEX
  5
F7
  8
0
 62
     9
 10
0.0
 20
0.0
 30
0.0
 70
   128
 71
     5
 72
    11
 73
     6
  0
VERTEX
  5
F8
  8
0
 62
     9
 10
0.0
 20
0.0
 30
0.0
 70
   128
 71
     4
 72
     7
 73
     3
  0
SEQEND
  5
F9
  8
0
 62
     9
  0
ENDBLK
  5
FC
  8
0
  0
BLOCK
  8
0
  2
E3_NODE_3_
 70
     0
 10
0.0
 20
0.0
 30
0.0
  3
E3_NODE_3_
  1

  0
POLYLINE
  5
FE
  8
0
 62
     9
 66
     1
 10
0.0
 20
0.0
 30
0.0
 70
    64
 71
    11
 72
     9
  0
VERTEX
  5
FF
  8
0
 10
-3.158999919891357
 20
-26.22999954223633
 30
-4.031000137329102
 70
   192
  0
VERTEX
  5
100
  8
0
 10
-3.158999919891357
 20
26.22999954223633
 30
-4.031000137329102
 70
   192
  0
VERTEX
  5
101
  8
0
 10
-2.803999900817871
 20
20.02700042724609
 30
-17.60899925231934
 70
   192
  0
VERTEX
  5
102
  8
0
 10
-3.546000003814697
 20
24.10499954223633
 30
10.74400043487549
 70
   192
  0
VERTEX
  5
103
  8
0
 10
-3.842000007629395
 20
-14.32699966430664
 30
22.02400016784668
 70
   192
  0
VERTEX
  5
104
  8
0
 10
-3.95199990272522
 20
0.0
 30
26.22999954223633
 70
   192
  0
VERTEX
  5
105
  8
0
 10
-2.592000007629395
 20
7.466000080108643
 30
-25.67900085449219
 70
   192
  0
VERTEX
  5
106
  8
0
 10
-2.592000007629395
 20
-7.466000080108643
 30
-25.67900085449219
 70
   192
  0
VERTEX
  5
107
  8
0
 10
-3.546000003814697
 20
-24.10499954223633
 30
10.74400043487549
 70
   192
  0
VERTEX
  5
108
  8
0
 10
-3.842000007629395
 20
14.32699966430664
 30
22.02400016784668
 70
   192
  0
VERTEX
  5
109
  8
0
 10
-2.803999900817871
 20
-20.02700042724609
 30
-17.60899925231934
 70
   192
  0
VERTEX
  5
10A
  8
0
 62
     9
 10
0.0
 20
0.0
 30
0.0
 70
   128
 71
     3
 72
     2
 73
     1
  0
VERTEX
  5
10B
  8
0
 62
     9
 10
0.0
 20
0.0
 30
0.0
 70
   128
 71
     6
 72
     5
 73
     4
  0
VERTEX
  5
10C
  8
0
 62
     9
 10
0.0
 20
0.0
 30
0.0
 70
   128
 71
     8
 72
     7
 73
     1
  0
VERTEX
  5
10D
  8
0
 62
     9
 10
0.0
 20
0.0
 30
0.0
 70
   128
 71
     2
 72
     4
 73
     1
  0
VERTEX
  5
10E
  8
0
 62
     9
 10
0.0
 20
0.0
 30
0.0
 70
   128
 71
     5
 72
     9
 73
     4
  0
VERTEX
  5
10F
  8
0
 62
     9
 10
0.0
 20
0.0
 30
0.0
 70
   128
 71
     1
 72
     7
 73
     3
  0
VERTEX
  5
110
  8
0
 62
     9
 10
0.0
 20
0.0
 30
0.0
 70
   128
 71
     9
 72
     1
 73
     4
  0
VERTEX
  5
111
  8
0
 62
     9
 10
0.0
 20
0.0
 30
0.0
 70
   128
 71
     4
 72
    10
 73
     6
  0
VERTEX
  5
112
  8
0
 62
     9
 10
0.0
 20
0.0
 30
0.0
 70
   128
 71
     1
 72
    11
 73
     8
  0
SEQEND
  5
113
  8
0
 62
     9
  0
ENDBLK
  5
116
  8
0
  0
BLOCK
  8
0
  2
E3_NODE_4_
 70
     0
 10
0.0
 20
0.0
 30
0.0
  3
E3_NODE_4_
  1

  0
POLYLINE
  5
118
  8
0
 62
     9
 66
     1
 10
0.0
 20
0.0
 30
0.0
 70
    64
 71
    40
 72
    42
  0
VERTEX
  5
119
  8
0
 10
26.82399940490723
 20
-6.061999797821045
 30
-98.50700378417969
 70
   192
  0
VERTEX
  5
11A
  8
0
 10
30.32299995422363
 20
0.0
 30
-98.41600036621094
 70
   192
  0
VERTEX
  5
11B
  8
0
 10
28.42499923706055
 20
0.0
 30
-25.94099998474121
 70
   192
  0
VERTEX
  5
11C
  8
0
 10
26.94899940490723
 20
-4.288000106811523
 30
-25.6299991607666
 70
   192
  0
VERTEX
  5
11D
  8
0
 10
26.82399940490723
 20
6.061999797821045
 30
-98.50700378417969
 70
   192
  0
VERTEX
  5
11E
  8
0
 10
28.13999938964844
 20
1.970999956130981
 30
-25.875
 70
   192
  0
VERTEX
  5
11F
  8
0
 10
24.86100006103516
 20
5.89900016784668
 30
-25.36499977111816
 70
   192
  0
VERTEX
  5
120
  8
0
 10
25.42399978637695
 20
5.735000133514404
 30
-25.39100074768066
 70
   192
  0
VERTEX
  5
121
  8
0
 10
19.82600021362305
 20
-6.061999797821045
 30
-98.69100189208984
 70
   192
  0
VERTEX
  5
122
  8
0
 10
17.0310001373291
 20
-3.506999969482422
 30
-89.68000030517578
 70
   192
  0
VERTEX
  5
123
  8
0
 10
16.17600059509277
 20
0.0010000000474975
 30
-92.76399993896484
 70
   192
  0
VERTEX
  5
124
  8
0
 10
19.37599945068359
 20
-6.053999900817871
 30
-81.22599792480469
 70
   192
  0
VERTEX
  5
125
  8
0
 10
19.82600021362305
 20
6.061999797821045
 30
-98.69100189208984
 70
   192
  0
VERTEX
  5
126
  8
0
 10
16.17099952697754
 20
0.0240000002086163
 30
-92.78399658203125
 70
   192
  0
VERTEX
  5
127
  8
0
 10
17.05400085449219
 20
3.549000024795532
 30
-89.5999984741211
 70
   192
  0
VERTEX
  5
128
  8
0
 10
16.32799911499023
 20
0.0
 30
-98.78199768066406
 70
   192
  0
VERTEX
  5
129
  8
0
 10
19.38299942016602
 20
6.045000076293945
 30
-81.19999694824219
 70
   192
  0
VERTEX
  5
12A
  8
0
 10
21.10199928283691
 20
6.99399995803833
 30
-25.19300079345703
 70
   192
  0
VERTEX
  5
12B
  8
0
 10
19.54899978637695
 20
6.191999912261963
 30
-79.09200286865234
 70
   192
  0
VERTEX
  5
12C
  8
0
 10
19.32799911499023
 20
6.028999805450439
 30
-78.7490005493164
 70
   192
  0
VERTEX
  5
12D
  8
0
 10
18.03499984741211
 20
5.75600004196167
 30
-25.5669994354248
 70
   192
  0
VERTEX
  5
12E
  8
0
 10
19.55999946594238
 20
6.179999828338623
 30
-80.41899871826172
 70
   192
  0
VERTEX
  5
12F
  8
0
 10
19.44000053405762
 20
6.105999946594238
 30
-80.99500274658203
 70
   192
  0
VERTEX
  5
130
  8
0
 10
14.74499988555908
 20
0.046000000089407
 30
-26.2180004119873
 70
   192
  0
VERTEX
  5
131
  8
0
 10
14.55900001525879
 20
1.342000007629395
 30
-26.27000045776367
 70
   192
  0
VERTEX
  5
132
  8
0
 10
15.77299976348877
 20
1.003000020980835
 30
-74.83899688720703
 70
   192
  0
VERTEX
  5
133
  8
0
 10
16.78700065612793
 20
5.251999855041504
 30
-25.71999931335449
 70
   192
  0
VERTEX
  5
134
  8
0
 10
17.58699989318848
 20
4.745999813079834
 30
-76.04000091552734
 70
   192
  0
VERTEX
  5
135
  8
0
 10
18.04199981689453
 20
-5.921999931335449
 30
-25.51799964904785
 70
   192
  0
VERTEX
  5
136
  8
0
 10
17.58699989318848
 20
-4.745999813079834
 30
-76.04000091552734
 70
   192
  0
VERTEX
  5
137
  8
0
 10
18.00200080871582
 20
-5.151999950408936
 30
-76.3499984741211
 70
   192
  0
VERTEX
  5
138
  8
0
 10
15.21599960327148
 20
-3.233000040054321
 30
-26.08799934387207
 70
   192
  0
VERTEX
  5
139
  8
0
 10
16.05599975585938
 20
0.1070000007748604
 30
-75.0260009765625
 70
   192
  0
VERTEX
  5
13A
  8
0
 10
18.78800010681152
 20
-5.761000156402588
 30
-77.20899963378906
 70
   192
  0
VERTEX
  5
13B
  8
0
 10
19.44000053405762
 20
-6.105999946594238
 30
-80.99500274658203
 70
   192
  0
VERTEX
  5
13C
  8
0
 10
19.40099906921387
 20
-6.081999778747559
 30
-81.13400268554688
 70
   192
  0
VERTEX
  5
13D
  8
0
 10
18.51899909973145
 20
-6.375999927520752
 30
-25.42099952697754
 70
   192
  0
VERTEX
  5
13E
  8
0
 10
19.35099983215332
 20
-6.059000015258789
 30
-80.48100280761719
 70
   192
  0
VERTEX
  5
13F
  8
0
 10
24.69899940490723
 20
-5.736999988555908
 30
-25.37800025939941
 70
   192
  0
VERTEX
  5
140
  8
0
 10
23.0359992980957
 20
-6.807000160217285
 30
-25.1919994354248
 70
   192
  0
VERTEX
  5
141
  8
0
 62
     9
 10
0.0
 20
0.0
 30
0.0
 70
   128
 71
     3
 72
     2
 73
     1
  0
VERTEX
  5
142
  8
0
 62
     9
 10
0.0
 20
0.0
 30
0.0
 70
   128
 71
     1
 72
     4
 73
     3
  0
VERTEX
  5
143
  8
0
 62
     9
 10
0.0
 20
0.0
 30
0.0
 70
   128
 71
     3
 72
     6
 73
     5
  0
VERTEX
  5
144
  8
0
 62
     9
 10
0.0
 20
0.0
 30
0.0
 70
   128
 71
     8
 72
     7
 73
     5
  0
VERTEX
  5
145
  8
0
 62
     9
 10
0.0
 20
0.0
 30
0.0
 70
   128
 71
     5
 72
     6
 73
     8
  0
VERTEX
  5
146
  8
0
 62
     9
 10
0.0
 20
0.0
 30
0.0
 70
   128
 71
    11
 72
    10
 73
     9
  0
VERTEX
  5
147
  8
0
 62
     9
 10
0.0
 20
0.0
 30
0.0
 70
   128
 71
    10
 72
    12
 73
     9
  0
VERTEX
  5
148
  8
0
 62
     9
 10
0.0
 20
0.0
 30
0.0
 70
   128
 71
    15
 72
    14
 73
    13
  0
VERTEX
  5
149
  8
0
 62
     9
 10
0.0
 20
0.0
 30
0.0
 70
   128
 71
    14
 72
    11
 73
    16
  0
VERTEX
  5
14A
  8
0
 62
     9
 10
0.0
 20
0.0
 30
0.0
 70
   128
 71
    16
 72
    13
 73
    14
  0
VERTEX
  5
14B
  8
0
 62
     9
 10
0.0
 20
0.0
 30
0.0
 70
   128
 71
    13
 72
    17
 73
    15
  0
VERTEX
  5
14C
  8
0
 62
     9
 10
0.0
 20
0.0
 30
0.0
 70
   128
 71
    20
 72
    19
 73
    18
  0
VERTEX
  5
14D
  8
0
 62
     9
 10
0.0
 20
0.0
 30
0.0
 70
   128
 71
    18
 72
    21
 73
    20
  0
VERTEX
  5
14E
  8
0
 62
     9
 10
0.0
 20
0.0
 30
0.0
 70
   128
 71
    19
 72
    22
 73
     5
  0
VERTEX
  5
14F
  8
0
 62
     9
 10
0.0
 20
0.0
 30
0.0
 70
   128
 71
    17
 72
    13
 73
     5
  0
VERTEX
  5
150
  8
0
 62
     9
 10
0.0
 20
0.0
 30
0.0
 70
   128
 71
     5
 72
    23
 73
    17
  0
VERTEX
  5
151
  8
0
 62
     9
 10
0.0
 20
0.0
 30
0.0
 70
   128
 71
     5
 72
    22
 73
    23
  0
VERTEX
  5
152
  8
0
 62
     9
 10
0.0
 20
0.0
 30
0.0
 70
   128
 71
     5
 72
     7
 73
    19
  0
VERTEX
  5
153
  8
0
 62
     9
 10
0.0
 20
0.0
 30
0.0
 70
   128
 71
    26
 72
    25
 73
    24
  0
VERTEX
  5
154
  8
0
 62
     9
 10
0.0
 20
0.0
 30
0.0
 70
   128
 71
    26
 72
    28
 73
    27
  0
VERTEX
  5
155
  8
0
 62
     9
 10
0.0
 20
0.0
 30
0.0
 70
   128
 71
    27
 72
    25
 73
    26
  0
VERTEX
  5
156
  8
0
 62
     9
 10
0.0
 20
0.0
 30
0.0
 70
   128
 71
    28
 72
    21
 73
    27
  0
VERTEX
  5
157
  8
0
 62
     9
 10
0.0
 20
0.0
 30
0.0
 70
   128
 71
    28
 72
    20
 73
    21
  0
VERTEX
  5
158
  8
0
 62
     9
 10
0.0
 20
0.0
 30
0.0
 70
   128
 71
    31
 72
    30
 73
    29
  0
VERTEX
  5
159
  8
0
 62
     9
 10
0.0
 20
0.0
 30
0.0
 70
   128
 71
    33
 72
    24
 73
    32
  0
VERTEX
  5
15A
  8
0
 62
     9
 10
0.0
 20
0.0
 30
0.0
 70
   128
 71
    32
 72
    29
 73
    30
  0
VERTEX
  5
15B
  8
0
 62
     9
 10
0.0
 20
0.0
 30
0.0
 70
   128
 71
    32
 72
    30
 73
    33
  0
VERTEX
  5
15C
  8
0
 62
     9
 10
0.0
 20
0.0
 30
0.0
 70
   128
 71
    29
 72
    34
 73
    31
  0
VERTEX
  5
15D
  8
0
 62
     9
 10
0.0
 20
0.0
 30
0.0
 70
   128
 71
    36
 72
    35
 73
     1
  0
VERTEX
  5
15E
  8
0
 62
     9
 10
0.0
 20
0.0
 30
0.0
 70
   128
 71
     1
 72
     9
 73
    36
  0
VERTEX
  5
15F
  8
0
 62
     9
 10
0.0
 20
0.0
 30
0.0
 70
   128
 71
     9
 72
    12
 73
    36
  0
VERTEX
  5
160
  8
0
 62
     9
 10
0.0
 20
0.0
 30
0.0
 70
   128
 71
    38
 72
    29
 73
    37
  0
VERTEX
  5
161
  8
0
 62
     9
 10
0.0
 20
0.0
 30
0.0
 70
   128
 71
    37
 72
     1
 73
    38
  0
VERTEX
  5
162
  8
0
 62
     9
 10
0.0
 20
0.0
 30
0.0
 70
   128
 71
    40
 72
    39
 73
     1
  0
VERTEX
  5
163
  8
0
 62
     9
 10
0.0
 20
0.0
 30
0.0
 70
   128
 71
     1
 72
    37
 73
    40
  0
VERTEX
  5
164
  8
0
 62
     9
 10
0.0
 20
0.0
 30
0.0
 70
   128
 71
     1
 72
    35
 73
    38
  0
VERTEX
  5
165
  8
0
 62
     9
 10
0.0
 20
0.0
 30
0.0
 70
   128
 71
    29
 72
    38
 73
    34
  0
VERTEX
  5
166
  8
0
 62
     9
 10
0.0
 20
0.0
 30
0.0
 70
   128
 71
    24
 72
    33
 73
    26
  0
VERTEX
  5
167
  8
0
 62
     9
 10
0.0
 20
0.0
 30
0.0
 70
   128
 71
    19
 72
     7
 73
    18
  0
VERTEX
  5
168
  8
0
 62
     9
 10
0.0
 20
0.0
 30
0.0
 70
   128
 71
     9
 72
    16
 73
    11
  0
VERTEX
  5
169
  8
0
 62
     9
 10
0.0
 20
0.0
 30
0.0
 70
   128
 71
     5
 72
     2
 73
     3
  0
VERTEX
  5
16A
  8
0
 62
     9
 10
0.0
 20
0.0
 30
0.0
 70
   128
 71
     1
 72
    39
 73
     4
  0
SEQEND
  5
16B
  8
0
 62
     9
  0
ENDBLK
  5
16E
  8
0
  0
BLOCK
  8
0
  2
E3_NODE_5_
 70
     0
 10
0.0
 20
0.0
 30
0.0
  3
E3_NODE_5_
  1

  0
POLYLINE
  5
170
  8
0
 62
     9
 66
     1
 10
0.0
 20
0.0
 30
0.0
 70
    64
 71
    10
 72
     8
  0
VERTEX
  5
171
  8
0
 10
19.35099983215332
 20
-6.059000015258789
 30
-80.48100280761719
 70
   192
  0
VERTEX
  5
172
  8
0
 10
19.32799911499023
 20
6.028999805450439
 30
-78.7490005493164
 70
   192
  0
VERTEX
  5
173
  8
0
 10
19.54899978637695
 20
6.191999912261963
 30
-79.09200286865234
 70
   192
  0
VERTEX
  5
174
  8
0
 10
19.55999946594238
 20
6.179999828338623
 30
-80.41899871826172
 70
   192
  0
VERTEX
  5
175
  8
0
 10
18.00200080871582
 20
-5.151999950408936
 30
-76.3499984741211
 70
   192
  0
VERTEX
  5
176
  8
0
 10
17.58699989318848
 20
-4.745999813079834
 30
-76.04000091552734
 70
   192
  0
VERTEX
  5
177
  8
0
 10
18.78800010681152
 20
-5.761000156402588
 30
-77.20899963378906
 70
   192
  0
VERTEX
  5
178
  8
0
 10
17.58699989318848
 20
4.745999813079834
 30
-76.04000091552734
 70
   192
  0
VERTEX
  5
179
  8
0
 10
19.44000053405762
 20
6.105999946594238
 30
-80.99500274658203
 70
   192
  0
VERTEX
  5
17A
  8
0
 10
19.44000053405762
 20
-6.105999946594238
 30
-80.99500274658203
 70
   192
  0
VERTEX
  5
17B
  8
0
 62
     9
 10
0.0
 20
0.0
 30
0.0
 70
   128
 71
     3
 72
     2
 73
     1
  0
VERTEX
  5
17C
  8
0
 62
     9
 10
0.0
 20
0.0
 30
0.0
 70
   128
 71
     1
 72
     4
 73
     3
  0
VERTEX
  5
17D
  8
0
 62
     9
 10
0.0
 20
0.0
 30
0.0
 70
   128
 71
     6
 72
     5
 73
     2
  0
VERTEX
  5
17E
  8
0
 62
     9
 10
0.0
 20
0.0
 30
0.0
 70
   128
 71
     7
 72
     1
 73
     2
  0
VERTEX
  5
17F
  8
0
 62
     9
 10
0.0
 20
0.0
 30
0.0
 70
   128
 71
     2
 72
     5
 73
     7
  0
VERTEX
  5
180
  8
0
 62
     9
 10
0.0
 20
0.0
 30
0.0
 70
   128
 71
     2
 72
     8
 73
     6
  0
VERTEX
  5
181
  8
0
 62
     9
 10
0.0
 20
0.0
 30
0.0
 70
   128
 71
     1
 72
    10
 73
     9
  0
VERTEX
  5
182
  8
0
 62
     9
 10
0.0
 20
0.0
 30
0.0
 70
   128
 71
     1
 72
     9
 73
     4
  0
SEQEND
  5
183
  8
0
 62
     9
  0
ENDBLK
  5
186
  8
0
  0
BLOCK
  8
0
  2
E3_NODE_6_
 70
     0
 10
0.0
 20
0.0
 30
0.0
  3
E3_NODE_6_
  1

  0
POLYLINE
  5
188
  8
0
 62
     9
 66
     1
 10
0.0
 20
0.0
 30
0.0
 70
    64
 71
     9
 72
     7
  0
VERTEX
  5
189
  8
0
 10
17.05400085449219
 20
3.549000024795532
 30
-89.5999984741211
 70
   192
  0
VERTEX
  5
18A
  8
0
 10
16.17600059509277
 20
0.0010000000474975
 30
-92.76399993896484
 70
   192
  0
VERTEX
  5
18B
  8
0
 10
17.0310001373291
 20
-3.506999969482422
 30
-89.68000030517578
 70
   192
  0
VERTEX
  5
18C
  8
0
 10
19.37599945068359
 20
-6.053999900817871
 30
-81.22599792480469
 70
   192
  0
VERTEX
  5
18D
  8
0
 10
19.38299942016602
 20
6.045000076293945
 30
-81.19999694824219
 70
   192
  0
VERTEX
  5
18E
  8
0
 10
19.44000053405762
 20
6.105999946594238
 30
-80.99500274658203
 70
   192
  0
VERTEX
  5
18F
  8
0
 10
19.40099906921387
 20
-6.081999778747559
 30
-81.13400268554688
 70
   192
  0
VERTEX
  5
190
  8
0
 10
16.17099952697754
 20
0.0240000002086163
 30
-92.78399658203125
 70
   192
  0
VERTEX
  5
191
  8
0
 10
19.44000053405762
 20
-6.105999946594238
 30
-80.99500274658203
 70
   192
  0
VERTEX
  5
192
  8
0
 62
     9
 10
0.0
 20
0.0
 30
0.0
 70
   128
 71
     3
 72
     2
 73
     1
  0
VERTEX
  5
193
  8
0
 62
     9
 10
0.0
 20
0.0
 30
0.0
 70
   128
 71
     1
 72
     5
 73
     4
  0
VERTEX
  5
194
  8
0
 62
     9
 10
0.0
 20
0.0
 30
0.0
 70
   128
 71
     7
 72
     4
 73
     6
  0
VERTEX
  5
195
  8
0
 62
     9
 10
0.0
 20
0.0
 30
0.0
 70
   128
 71
     5
 72
     6
 73
     4
  0
VERTEX
  5
196
  8
0
 62
     9
 10
0.0
 20
0.0
 30
0.0
 70
   128
 71
     1
 72
     4
 73
     3
  0
VERTEX
  5
197
  8
0
 62
     9
 10
0.0
 20
0.0
 30
0.0
 70
   128
 71
     2
 72
     8
 73
     1
  0
VERTEX
  5
198
  8
0
 62
     9
 10
0.0
 20
0.0
 30
0.0
 70
   128
 71
     6
 72
     9
 73
     7
  0
SEQEND
  5
199
  8
0
 62
     9
  0
ENDBLK
  5
19C
  8
0
  0
BLOCK
  8
0
  2
E3_NODE_7_
 70
     0
 10
0.0
 20
0.0
 30
0.0
  3
E3_NODE_7_
  1

  0
POLYLINE
  5
19E
  8
0
 62
     9
 66
     1
 10
0.0
 20
0.0
 30
0.0
 70
    64
 71
     4
 72
     2
  0
VERTEX
  5
19F
  8
0
 10
17.58699989318848
 20
4.745999813079834
 30
-76.04000091552734
 70
   192
  0
VERTEX
  5
1A0
  8
0
 10
17.58699989318848
 20
-4.745999813079834
 30
-76.04000091552734
 70
   192
  0
VERTEX
  5
1A1
  8
0
 10
16.05599975585938
 20
0.1070000007748604
 30
-75.0260009765625
 70
   192
  0
VERTEX
  5
1A2
  8
0
 10
15.77299976348877
 20
1.003000020980835
 30
-74.83899688720703
 70
   192
  0
VERTEX
  5
1A3
  8
0
 62
     9
 10
0.0
 20
0.0
 30
0.0
 70
   128
 71
     3
 72
     2
 73
     1
  0
VERTEX
  5
1A4
  8
0
 62
     9
 10
0.0
 20
0.0
 30
0.0
 70
   128
 71
     1
 72
     4
 73
     3
  0
SEQEND
  5
1A5
  8
0
 62
     9
  0
ENDBLK
  5
1A8
  8
0
  0
BLOCK
  8
0
  2
E3_NODE_8_
 70
     0
 10
0.0
 20
0.0
 30
0.0
  3
E3_NODE_8_
  1

  0
POLYLINE
  5
1AA
  8
0
 62
     9
 66
     1
 10
0.0
 20
0.0
 30
0.0
 70
    64
 71
     6
 72
     4
  0
VERTEX
  5
1AB
  8
0
 10
19.82600021362305
 20
-6.061999797821045
 30
-98.69100189208984
 70
   192
  0
VERTEX
  5
1AC
  8
0
 10
26.82399940490723
 20
6.061999797821045
 30
-98.50700378417969
 70
   192
  0
VERTEX
  5
1AD
  8
0
 10
30.32299995422363
 20
0.0
 30
-98.41600036621094
 70
   192
  0
VERTEX
  5
1AE
  8
0
 10
16.32799911499023
 20
0.0
 30
-98.78199768066406
 70
   192
  0
VERTEX
  5
1AF
  8
0
 10
19.82600021362305
 20
6.061999797821045
 30
-98.69100189208984
 70
   192
  0
VERTEX
  5
1B0
  8
0
 10
26.82399940490723
 20
-6.061999797821045
 30
-98.50700378417969
 70
   192
  0
VERTEX
  5
1B1
  8
0
 62
     9
 10
0.0
 20
0.0
 30
0.0
 70
   128
 71
     3
 72
     2
 73
     1
  0
VERTEX
  5
1B2
  8
0
 62
     9
 10
0.0
 20
0.0
 30
0.0
 70
   128
 71
     5
 72
     4
 73
     1
  0
VERTEX
  5
1B3
  8
0
 62
     9
 10
0.0
 20
0.0
 30
0.0
 70
   128
 71
     1
 72
     2
 73
     5
  0
VERTEX
  5
1B4
  8
0
 62
     9
 10
0.0
 20
0.0
 30
0.0
 70
   128
 71
     1
 72
     6
 73
     3
  0
SEQEND
  5
1B5
  8
0
 62
     9
  0
ENDBLK
  5
1B8
  8
0
  0
BLOCK
  8
0
  2
E3_NODE_9_
 70
     0
 10
0.0
 20
0.0
 30
0.0
  3
E3_NODE_9_
  1

  0
POLYLINE
  5
1BA
  8
0
 62
     9
 66
     1
 10
0.0
 20
0.0
 30
0.0
 70
    64
 71
    55
 72
    70
  0
VERTEX
  5
1BB
  8
0
 10
-10.66300010681152
 20
-25.98299980163574
 30
0.4569999873638153
 70
   192
  0
VERTEX
  5
1BC
  8
0
 10
-10.66300010681152
 20
-23.92300033569336
 30
-10.15100002288818
 70
   192
  0
VERTEX
  5
1BD
  8
0
 10
-2.657000064849854
 20
-19.89900016784668
 30
-8.442999839782715
 70
   192
  0
VERTEX
  5
1BE
  8
0
 10
-10.66300010681152
 20
-23.55100059509277
 30
10.98600006103516
 70
   192
  0
VERTEX
  5
1BF
  8
0
 10
-2.657000064849854
 20
-21.61300086975098
 30
0.3799999952316284
 70
   192
  0
VERTEX
  5
1C0
  8
0
 10
-10.66300010681152
 20
-17.04700088500977
 30
19.61499977111816
 70
   192
  0
VERTEX
  5
1C1
  8
0
 10
-2.657000064849854
 20
-19.59000015258789
 30
9.137999534606934
 70
   192
  0
VERTEX
  5
1C2
  8
0
 10
-10.66300010681152
 20
-7.59499979019165
 30
24.85300064086914
 70
   192
  0
VERTEX
  5
1C3
  8
0
 10
-2.657000064849854
 20
-14.17899990081787
 30
16.31599998474121
 70
   192
  0
VERTEX
  5
1C4
  8
0
 10
-10.66300010681152
 20
3.170000076293945
 30
25.79299926757812
 70
   192
  0
VERTEX
  5
1C5
  8
0
 10
-2.657000064849854
 20
-6.316999912261963
 30
20.67200088500977
 70
   192
  0
VERTEX
  5
1C6
  8
0
 10
-10.66300010681152
 20
13.38700008392334
 30
22.27400016784668
 70
   192
  0
VERTEX
  5
1C7
  8
0
 10
-2.657000064849854
 20
2.63700008392334
 30
21.45499992370605
 70
   192
  0
VERTEX
  5
1C8
  8
0
 10
-10.66300010681152
 20
21.29000091552734
 30
14.90299987792969
 70
   192
  0
VERTEX
  5
1C9
  8
0
 10
-2.657000064849854
 20
11.13500022888184
 30
18.52700042724609
 70
   192
  0
VERTEX
  5
1CA
  8
0
 10
-10.66300010681152
 20
25.51099967956543
 30
4.954999923706055
 70
   192
  0
VERTEX
  5
1CB
  8
0
 10
-2.657000064849854
 20
17.70800018310547
 30
12.39599990844727
 70
   192
  0
VERTEX
  5
1CC
  8
0
 10
-10.66300010681152
 20
25.32099914550781
 30
-5.848999977111816
 70
   192
  0
VERTEX
  5
1CD
  8
0
 10
-2.657000064849854
 20
21.2189998626709
 30
4.122000217437744
 70
   192
  0
VERTEX
  5
1CE
  8
0
 10
-10.66300010681152
 20
20.75200080871582
 30
-15.64200019836426
 70
   192
  0
VERTEX
  5
1CF
  8
0
 10
-2.657000064849854
 20
21.06100082397461
 30
-4.864999771118164
 70
   192
  0
VERTEX
  5
1D0
  8
0
 10
-10.66300010681152
 20
12.5959997177124
 30
-22.73100090026855
 70
   192
  0
VERTEX
  5
1D1
  8
0
 10
-2.657000064849854
 20
17.26199913024902
 30
-13.01099967956543
 70
   192
  0
VERTEX
  5
1D2
  8
0
 10
-10.66300010681152
 20
2.26200008392334
 30
-25.88899993896484
 70
   192
  0
VERTEX
  5
1D3
  8
0
 10
-2.657000064849854
 20
10.47700023651123
 30
-18.9069995880127
 70
   192
  0
VERTEX
  5
1D4
  8
0
 10
-10.66300010681152
 20
-8.46399974822998
 30
-24.56999969482422
 70
   192
  0
VERTEX
  5
1D5
  8
0
 10
-2.657000064849854
 20
1.88100004196167
 30
-21.53400039672852
 70
   192
  0
VERTEX
  5
1D6
  8
0
 10
-10.66300010681152
 20
-17.72599983215332
 30
-19.00399971008301
 70
   192
  0
VERTEX
  5
1D7
  8
0
 10
-2.657000064849854
 20
-7.039999961853027
 30
-20.4370002746582
 70
   192
  0
VERTEX
  5
1D8
  8
0
 10
-2.657000064849854
 20
-14.74400043487549
 30
-15.80700016021729
 70
   192
  0
VERTEX
  5
1D9
  8
0
 10
-19.6569995880127
 20
-25.31500053405762
 30
-10.74199962615967
 70
   192
  0
VERTEX
  5
1DA
  8
0
 10
-19.6569995880127
 20
-24.92200088500977
 30
11.625
 70
   192
  0
VERTEX
  5
1DB
  8
0
 10
-19.6569995880127
 20
-26.5620002746582
 30
4.525000095367432
 70
   192
  0
VERTEX
  5
1DC
  8
0
 10
-19.6569995880127
 20
-19.9069995880127
 30
18.27799987792969
 70
   192
  0
VERTEX
  5
1DD
  8
0
 10
-19.6569995880127
 20
-18.03899955749512
 30
20.75699996948242
 70
   192
  0
VERTEX
  5
1DE
  8
0
 10
-19.6569995880127
 20
3.355000019073486
 30
27.29500007629395
 70
   192
  0
VERTEX
  5
1DF
  8
0
 10
-19.6569995880127
 20
-7.013000011444092
 30
26.38899993896484
 70
   192
  0
VERTEX
  5
1E0
  8
0
 10
-19.6569995880127
 20
14.16699981689453
 30
23.56999969482422
 70
   192
  0
VERTEX
  5
1E1
  8
0
 10
-19.6569995880127
 20
8.265999794006348
 30
25.60300064086914
 70
   192
  0
VERTEX
  5
1E2
  8
0
 10
-19.6569995880127
 20
21.02000045776367
 30
17.17799949645996
 70
   192
  0
VERTEX
  5
1E3
  8
0
 10
-19.6569995880127
 20
22.52899932861328
 30
15.77000045776367
 70
   192
  0
VERTEX
  5
1E4
  8
0
 10
-19.6569995880127
 20
26.79400062561035
 30
-6.190000057220459
 70
   192
  0
VERTEX
  5
1E5
  8
0
 10
-19.6569995880127
 20
26.95899963378906
 30
3.180999994277954
 70
   192
  0
VERTEX
  5
1E6
  8
0
 10
-19.6569995880127
 20
24.1560001373291
 30
-11.8459997177124
 70
   192
  0
VERTEX
  5
1E7
  8
0
 10
-19.6569995880127
 20
21.95999908447266
 30
-16.55299949645996
 70
   192
  0
VERTEX
  5
1E8
  8
0
 10
-19.6569995880127
 20
14.10499954223633
 30
-23.37899971008301
 70
   192
  0
VERTEX
  5
1E9
  8
0
 10
-19.6569995880127
 20
13.32900047302246
 30
-24.05400085449219
 70
   192
  0
VERTEX
  5
1EA
  8
0
 10
-19.6569995880127
 20
2.392999887466431
 30
-27.39599990844727
 70
   192
  0
VERTEX
  5
1EB
  8
0
 10
-19.6569995880127
 20
-8.956000328063965
 30
-26.00099945068359
 70
   192
  0
VERTEX
  5
1EC
  8
0
 10
-19.6569995880127
 20
-0.6869999766349792
 30
-27.01700019836426
 70
   192
  0
VERTEX
  5
1ED
  8
0
 10
-19.6569995880127
 20
-15.20300006866455
 30
-22.24600028991699
 70
   192
  0
VERTEX
  5
1EE
  8
0
 10
-19.6569995880127
 20
-18.75799942016602
 30
-20.11000061035156
 70
   192
  0
VERTEX
  5
1EF
  8
0
 10
-19.6569995880127
 20
26.9950008392334
 30
5.24399995803833
 70
   192
  0
VERTEX
  5
1F0
  8
0
 10
-19.6569995880127
 20
-8.036999702453613
 30
26.29899978637695
 70
   192
  0
VERTEX
  5
1F1
  8
0
 10
-19.6569995880127
 20
-27.49600028991699
 30
0.4830000102519989
 70
   192
  0
VERTEX
  5
1F2
  8
0
 62
     9
 10
0.0
 20
0.0
 30
0.0
 70
   128
 71
     3
 72
     2
 73
     1
  0
VERTEX
  5
1F3
  8
0
 62
     9
 10
0.0
 20
0.0
 30
0.0
 70
   128
 71
     5
 72
     1
 73
     4
  0
VERTEX
  5
1F4
  8
0
 62
     9
 10
0.0
 20
0.0
 30
0.0
 70
   128
 71
     7
 72
     4
 73
     6
  0
VERTEX
  5
1F5
  8
0
 62
     9
 10
0.0
 20
0.0
 30
0.0
 70
   128
 71
     9
 72
     6
 73
     8
  0
VERTEX
  5
1F6
  8
0
 62
     9
 10
0.0
 20
0.0
 30
0.0
 70
   128
 71
    11
 72
     8
 73
    10
  0
VERTEX
  5
1F7
  8
0
 62
     9
 10
0.0
 20
0.0
 30
0.0
 70
   128
 71
    13
 72
    10
 73
    12
  0
VERTEX
  5
1F8
  8
0
 62
     9
 10
0.0
 20
0.0
 30
0.0
 70
   128
 71
    15
 72
    12
 73
    14
  0
VERTEX
  5
1F9
  8
0
 62
     9
 10
0.0
 20
0.0
 30
0.0
 70
   128
 71
    17
 72
    14
 73
    16
  0
VERTEX
  5
1FA
  8
0
 62
     9
 10
0.0
 20
0.0
 30
0.0
 70
   128
 71
    19
 72
    16
 73
    18
  0
VERTEX
  5
1FB
  8
0
 62
     9
 10
0.0
 20
0.0
 30
0.0
 70
   128
 71
    21
 72
    18
 73
    20
  0
VERTEX
  5
1FC
  8
0
 62
     9
 10
0.0
 20
0.0
 30
0.0
 70
   128
 71
    23
 72
    20
 73
    22
  0
VERTEX
  5
1FD
  8
0
 62
     9
 10
0.0
 20
0.0
 30
0.0
 70
   128
 71
    25
 72
    22
 73
    24
  0
VERTEX
  5
1FE
  8
0
 62
     9
 10
0.0
 20
0.0
 30
0.0
 70
   128
 71
    27
 72
    24
 73
    26
  0
VERTEX
  5
1FF
  8
0
 62
     9
 10
0.0
 20
0.0
 30
0.0
 70
   128
 71
    29
 72
    26
 73
    28
  0
VERTEX
  5
200
  8
0
 62
     9
 10
0.0
 20
0.0
 30
0.0
 70
   128
 71
     3
 72
    30
 73
    28
  0
VERTEX
  5
201
  8
0
 62
     9
 10
0.0
 20
0.0
 30
0.0
 70
   128
 71
     1
 72
     2
 73
    31
  0
VERTEX
  5
202
  8
0
 62
     9
 10
0.0
 20
0.0
 30
0.0
 70
   128
 71
    33
 72
    32
 73
     4
  0
VERTEX
  5
203
  8
0
 62
     9
 10
0.0
 20
0.0
 30
0.0
 70
   128
 71
     4
 72
     1
 73
    33
  0
VERTEX
  5
204
  8
0
 62
     9
 10
0.0
 20
0.0
 30
0.0
 70
   128
 71
    34
 72
     6
 73
     4
  0
VERTEX
  5
205
  8
0
 62
     9
 10
0.0
 20
0.0
 30
0.0
 70
   128
 71
    34
 72
    35
 73
     6
  0
VERTEX
  5
206
  8
0
 62
     9
 10
0.0
 20
0.0
 30
0.0
 70
   128
 71
     8
 72
     6
 73
    35
  0
VERTEX
  5
207
  8
0
 62
     9
 10
0.0
 20
0.0
 30
0.0
 70
   128
 71
    37
 72
    36
 73
    10
  0
VERTEX
  5
208
  8
0
 62
     9
 10
0.0
 20
0.0
 30
0.0
 70
   128
 71
    10
 72
     8
 73
    37
  0
VERTEX
  5
209
  8
0
 62
     9
 10
0.0
 20
0.0
 30
0.0
 70
   128
 71
    39
 72
    38
 73
    12
  0
VERTEX
  5
20A
  8
0
 62
     9
 10
0.0
 20
0.0
 30
0.0
 70
   128
 71
    12
 72
    10
 73
    39
  0
VERTEX
  5
20B
  8
0
 62
     9
 10
0.0
 20
0.0
 30
0.0
 70
   128
 71
    40
 72
    14
 73
    12
  0
VERTEX
  5
20C
  8
0
 62
     9
 10
0.0
 20
0.0
 30
0.0
 70
   128
 71
    40
 72
    41
 73
    14
  0
VERTEX
  5
20D
  8
0
 62
     9
 10
0.0
 20
0.0
 30
0.0
 70
   128
 71
    16
 72
    14
 73
    41
  0
VERTEX
  5
20E
  8
0
 62
     9
 10
0.0
 20
0.0
 30
0.0
 70
   128
 71
    43
 72
    42
 73
    18
  0
VERTEX
  5
20F
  8
0
 62
     9
 10
0.0
 20
0.0
 30
0.0
 70
   128
 71
    18
 72
    16
 73
    43
  0
VERTEX
  5
210
  8
0
 62
     9
 10
0.0
 20
0.0
 30
0.0
 70
   128
 71
    44
 72
    20
 73
    18
  0
VERTEX
  5
211
  8
0
 62
     9
 10
0.0
 20
0.0
 30
0.0
 70
   128
 71
    44
 72
    45
 73
    20
  0
VERTEX
  5
212
  8
0
 62
     9
 10
0.0
 20
0.0
 30
0.0
 70
   128
 71
    46
 72
    22
 73
    20
  0
VERTEX
  5
213
  8
0
 62
     9
 10
0.0
 20
0.0
 30
0.0
 70
   128
 71
    46
 72
    47
 73
    22
  0
VERTEX
  5
214
  8
0
 62
     9
 10
0.0
 20
0.0
 30
0.0
 70
   128
 71
    22
 72
    47
 73
    48
  0
VERTEX
  5
215
  8
0
 62
     9
 10
0.0
 20
0.0
 30
0.0
 70
   128
 71
    50
 72
    49
 73
    26
  0
VERTEX
  5
216
  8
0
 62
     9
 10
0.0
 20
0.0
 30
0.0
 70
   128
 71
    26
 72
    24
 73
    50
  0
VERTEX
  5
217
  8
0
 62
     9
 10
0.0
 20
0.0
 30
0.0
 70
   128
 71
    51
 72
    28
 73
    26
  0
VERTEX
  5
218
  8
0
 62
     9
 10
0.0
 20
0.0
 30
0.0
 70
   128
 71
    51
 72
    52
 73
    28
  0
VERTEX
  5
219
  8
0
 62
     9
 10
0.0
 20
0.0
 30
0.0
 70
   128
 71
     2
 72
    28
 73
    52
  0
VERTEX
  5
21A
  8
0
 62
     9
 10
0.0
 20
0.0
 30
0.0
 70
   128
 71
    52
 72
    31
 73
     2
  0
VERTEX
  5
21B
  8
0
 62
     9
 10
0.0
 20
0.0
 30
0.0
 70
   128
 71
    26
 72
    49
 73
    51
  0
VERTEX
  5
21C
  8
0
 62
     9
 10
0.0
 20
0.0
 30
0.0
 70
   128
 71
    24
 72
    48
 73
    50
  0
VERTEX
  5
21D
  8
0
 62
     9
 10
0.0
 20
0.0
 30
0.0
 70
   128
 71
    48
 72
    24
 73
    22
  0
VERTEX
  5
21E
  8
0
 62
     9
 10
0.0
 20
0.0
 30
0.0
 70
   128
 71
    20
 72
    45
 73
    46
  0
VERTEX
  5
21F
  8
0
 62
     9
 10
0.0
 20
0.0
 30
0.0
 70
   128
 71
    18
 72
    42
 73
    44
  0
VERTEX
  5
220
  8
0
 62
     9
 10
0.0
 20
0.0
 30
0.0
 70
   128
 71
    16
 72
    53
 73
    43
  0
VERTEX
  5
221
  8
0
 62
     9
 10
0.0
 20
0.0
 30
0.0
 70
   128
 71
    41
 72
    53
 73
    16
  0
VERTEX
  5
222
  8
0
 62
     9
 10
0.0
 20
0.0
 30
0.0
 70
   128
 71
    12
 72
    38
 73
    40
  0
VERTEX
  5
223
  8
0
 62
     9
 10
0.0
 20
0.0
 30
0.0
 70
   128
 71
    10
 72
    36
 73
    39
  0
VERTEX
  5
224
  8
0
 62
     9
 10
0.0
 20
0.0
 30
0.0
 70
   128
 71
     8
 72
    54
 73
    37
  0
VERTEX
  5
225
  8
0
 62
     9
 10
0.0
 20
0.0
 30
0.0
 70
   128
 71
    35
 72
    54
 73
     8
  0
VERTEX
  5
226
  8
0
 62
     9
 10
0.0
 20
0.0
 30
0.0
 70
   128
 71
     4
 72
    32
 73
    34
  0
VERTEX
  5
227
  8
0
 62
     9
 10
0.0
 20
0.0
 30
0.0
 70
   128
 71
     1
 72
    55
 73
    33
  0
VERTEX
  5
228
  8
0
 62
     9
 10
0.0
 20
0.0
 30
0.0
 70
   128
 71
    31
 72
    55
 73
     1
  0
VERTEX
  5
229
  8
0
 62
     9
 10
0.0
 20
0.0
 30
0.0
 70
   128
 71
    28
 72
     2
 73
     3
  0
VERTEX
  5
22A
  8
0
 62
     9
 10
0.0
 20
0.0
 30
0.0
 70
   128
 71
    28
 72
    30
 73
    29
  0
VERTEX
  5
22B
  8
0
 62
     9
 10
0.0
 20
0.0
 30
0.0
 70
   128
 71
    26
 72
    29
 73
    27
  0
VERTEX
  5
22C
  8
0
 62
     9
 10
0.0
 20
0.0
 30
0.0
 70
   128
 71
    24
 72
    27
 73
    25
  0
VERTEX
  5
22D
  8
0
 62
     9
 10
0.0
 20
0.0
 30
0.0
 70
   128
 71
    22
 72
    25
 73
    23
  0
VERTEX
  5
22E
  8
0
 62
     9
 10
0.0
 20
0.0
 30
0.0
 70
   128
 71
    20
 72
    23
 73
    21
  0
VERTEX
  5
22F
  8
0
 62
     9
 10
0.0
 20
0.0
 30
0.0
 70
   128
 71
    18
 72
    21
 73
    19
  0
VERTEX
  5
230
  8
0
 62
     9
 10
0.0
 20
0.0
 30
0.0
 70
   128
 71
    16
 72
    19
 73
    17
  0
VERTEX
  5
231
  8
0
 62
     9
 10
0.0
 20
0.0
 30
0.0
 70
   128
 71
    14
 72
    17
 73
    15
  0
VERTEX
  5
232
  8
0
 62
     9
 10
0.0
 20
0.0
 30
0.0
 70
   128
 71
    12
 72
    15
 73
    13
  0
VERTEX
  5
233
  8
0
 62
     9
 10
0.0
 20
0.0
 30
0.0
 70
   128
 71
    10
 72
    13
 73
    11
  0
VERTEX
  5
234
  8
0
 62
     9
 10
0.0
 20
0.0
 30
0.0
 70
   128
 71
     8
 72
    11
 73
     9
  0
VERTEX
  5
235
  8
0
 62
     9
 10
0.0
 20
0.0
 30
0.0
 70
   128
 71
     6
 72
     9
 73
     7
  0
VERTEX
  5
236
  8
0
 62
     9
 10
0.0
 20
0.0
 30
0.0
 70
   128
 71
     4
 72
     7
 73
     5
  0
VERTEX
  5
237
  8
0
 62
     9
 10
0.0
 20
0.0
 30
0.0
 70
   128
 71
     1
 72
     5
 73
     3
  0
SEQEND
  5
238
  8
0
 62
     9
  0
ENDBLK
  5
23B
  8
0
  0
BLOCK
  8
0
  2
E3_NODE_10_
 70
     0
 10
0.0
 20
0.0
 30
0.0
  3
E3_NODE_10_
  1

  0
POLYLINE
  5
23D
  8
0
 62
     9
 66
     1
 10
0.0
 20
0.0
 30
0.0
 70
    64
 71
    36
 72
    36
  0
VERTEX
  5
23E
  8
0
 10
-64.65699768066406
 20
-25.31500053405762
 30
-10.74199962615967
 70
   192
  0
VERTEX
  5
23F
  8
0
 10
-19.6569995880127
 20
-25.31500053405762
 30
-10.74199962615967
 70
   192
  0
VERTEX
  5
240
  8
0
 10
-19.6569995880127
 20
-27.49600028991699
 30
0.4830000102519989
 70
   192
  0
VERTEX
  5
241
  8
0
 10
-64.65699768066406
 20
-27.10400009155273
 30
4.650000095367432
 70
   192
  0
VERTEX
  5
242
  8
0
 10
-64.65699768066406
 20
-20.28700065612793
 30
18.56500053405762
 70
   192
  0
VERTEX
  5
243
  8
0
 10
-19.6569995880127
 20
-24.92200088500977
 30
11.625
 70
   192
  0
VERTEX
  5
244
  8
0
 10
-19.6569995880127
 20
-26.5620002746582
 30
4.525000095367432
 70
   192
  0
VERTEX
  5
245
  8
0
 10
-64.65699768066406
 20
-7.03000020980835
 30
26.58600044250488
 70
   192
  0
VERTEX
  5
246
  8
0
 10
-19.6569995880127
 20
-18.03899955749512
 30
20.75699996948242
 70
   192
  0
VERTEX
  5
247
  8
0
 10
-19.6569995880127
 20
-8.036999702453613
 30
26.29899978637695
 70
   192
  0
VERTEX
  5
248
  8
0
 10
-19.6569995880127
 20
-19.9069995880127
 30
18.27799987792969
 70
   192
  0
VERTEX
  5
249
  8
0
 10
-19.6569995880127
 20
-7.013000011444092
 30
26.38899993896484
 70
   192
  0
VERTEX
  5
24A
  8
0
 10
-19.6569995880127
 20
3.355000019073486
 30
27.29500007629395
 70
   192
  0
VERTEX
  5
24B
  8
0
 10
-64.65699768066406
 20
8.460000038146973
 30
26.16600036621094
 70
   192
  0
VERTEX
  5
24C
  8
0
 10
-64.65699768066406
 20
21.26300048828125
 30
17.43899917602539
 70
   192
  0
VERTEX
  5
24D
  8
0
 10
-19.6569995880127
 20
14.16699981689453
 30
23.56999969482422
 70
   192
  0
VERTEX
  5
24E
  8
0
 10
-19.6569995880127
 20
8.265999794006348
 30
25.60300064086914
 70
   192
  0
VERTEX
  5
24F
  8
0
 10
-64.65699768066406
 20
27.31599998474121
 30
3.174999952316284
 70
   192
  0
VERTEX
  5
250
  8
0
 10
-19.6569995880127
 20
22.52899932861328
 30
15.77000045776367
 70
   192
  0
VERTEX
  5
251
  8
0
 10
-19.6569995880127
 20
26.9950008392334
 30
5.24399995803833
 70
   192
  0
VERTEX
  5
252
  8
0
 10
-19.6569995880127
 20
21.02000045776367
 30
17.17799949645996
 70
   192
  0
VERTEX
  5
253
  8
0
 10
-19.6569995880127
 20
26.95899963378906
 30
3.180999994277954
 70
   192
  0
VERTEX
  5
254
  8
0
 10
-19.6569995880127
 20
26.79400062561035
 30
-6.190000057220459
 70
   192
  0
VERTEX
  5
255
  8
0
 10
-64.65699768066406
 20
24.69599914550781
 30
-12.09799957275391
 70
   192
  0
VERTEX
  5
256
  8
0
 10
-64.65699768066406
 20
14.23499965667725
 30
-23.52899932861328
 70
   192
  0
VERTEX
  5
257
  8
0
 10
-19.6569995880127
 20
21.95999908447266
 30
-16.55299949645996
 70
   192
  0
VERTEX
  5
258
  8
0
 10
-19.6569995880127
 20
24.1560001373291
 30
-11.8459997177124
 70
   192
  0
VERTEX
  5
259
  8
0
 10
-19.6569995880127
 20
13.32900047302246
 30
-24.05400085449219
 70
   192
  0
VERTEX
  5
25A
  8
0
 10
-19.6569995880127
 20
2.392999887466431
 30
-27.39599990844727
 70
   192
  0
VERTEX
  5
25B
  8
0
 10
-64.65699768066406
 20
-0.7450000047683716
 30
-27.48999977111816
 70
   192
  0
VERTEX
  5
25C
  8
0
 10
-19.6569995880127
 20
14.10499954223633
 30
-23.37899971008301
 70
   192
  0
VERTEX
  5
25D
  8
0
 10
-19.6569995880127
 20
-0.6869999766349792
 30
-27.01700019836426
 70
   192
  0
VERTEX
  5
25E
  8
0
 10
-19.6569995880127
 20
-8.956000328063965
 30
-26.00099945068359
 70
   192
  0
VERTEX
  5
25F
  8
0
 10
-64.65699768066406
 20
-15.48900032043457
 30
-22.72299957275391
 70
   192
  0
VERTEX
  5
260
  8
0
 10
-19.6569995880127
 20
-18.75799942016602
 30
-20.11000061035156
 70
   192
  0
VERTEX
  5
261
  8
0
 10
-19.6569995880127
 20
-15.20300006866455
 30
-22.24600028991699
 70
   192
  0
VERTEX
  5
262
  8
0
 62
     9
 10
0.0
 20
0.0
 30
0.0
 70
   128
 71
     3
 72
     2
 73
     1
  0
VERTEX
  5
263
  8
0
 62
     9
 10
0.0
 20
0.0
 30
0.0
 70
   128
 71
     1
 72
     4
 73
     3
  0
VERTEX
  5
264
  8
0
 62
     9
 10
0.0
 20
0.0
 30
0.0
 70
   128
 71
     6
 72
     4
 73
     5
  0
VERTEX
  5
265
  8
0
 62
     9
 10
0.0
 20
0.0
 30
0.0
 70
   128
 71
     6
 72
     7
 73
     4
  0
VERTEX
  5
266
  8
0
 62
     9
 10
0.0
 20
0.0
 30
0.0
 70
   128
 71
     9
 72
     5
 73
     8
  0
VERTEX
  5
267
  8
0
 62
     9
 10
0.0
 20
0.0
 30
0.0
 70
   128
 71
     8
 72
    10
 73
     9
  0
VERTEX
  5
268
  8
0
 62
     9
 10
0.0
 20
0.0
 30
0.0
 70
   128
 71
     9
 72
    11
 73
     5
  0
VERTEX
  5
269
  8
0
 62
     9
 10
0.0
 20
0.0
 30
0.0
 70
   128
 71
    13
 72
    12
 73
     8
  0
VERTEX
  5
26A
  8
0
 62
     9
 10
0.0
 20
0.0
 30
0.0
 70
   128
 71
     8
 72
    14
 73
    13
  0
VERTEX
  5
26B
  8
0
 62
     9
 10
0.0
 20
0.0
 30
0.0
 70
   128
 71
    16
 72
    14
 73
    15
  0
VERTEX
  5
26C
  8
0
 62
     9
 10
0.0
 20
0.0
 30
0.0
 70
   128
 71
    16
 72
    17
 73
    14
  0
VERTEX
  5
26D
  8
0
 62
     9
 10
0.0
 20
0.0
 30
0.0
 70
   128
 71
    19
 72
    15
 73
    18
  0
VERTEX
  5
26E
  8
0
 62
     9
 10
0.0
 20
0.0
 30
0.0
 70
   128
 71
    18
 72
    20
 73
    19
  0
VERTEX
  5
26F
  8
0
 62
     9
 10
0.0
 20
0.0
 30
0.0
 70
   128
 71
    19
 72
    21
 73
    15
  0
VERTEX
  5
270
  8
0
 62
     9
 10
0.0
 20
0.0
 30
0.0
 70
   128
 71
    23
 72
    22
 73
    18
  0
VERTEX
  5
271
  8
0
 62
     9
 10
0.0
 20
0.0
 30
0.0
 70
   128
 71
    18
 72
    24
 73
    23
  0
VERTEX
  5
272
  8
0
 62
     9
 10
0.0
 20
0.0
 30
0.0
 70
   128
 71
    26
 72
    24
 73
    25
  0
VERTEX
  5
273
  8
0
 62
     9
 10
0.0
 20
0.0
 30
0.0
 70
   128
 71
    26
 72
    27
 73
    24
  0
VERTEX
  5
274
  8
0
 62
     9
 10
0.0
 20
0.0
 30
0.0
 70
   128
 71
    29
 72
    28
 73
    25
  0
VERTEX
  5
275
  8
0
 62
     9
 10
0.0
 20
0.0
 30
0.0
 70
   128
 71
    25
 72
    30
 73
    29
  0
VERTEX
  5
276
  8
0
 62
     9
 10
0.0
 20
0.0
 30
0.0
 70
   128
 71
    28
 72
    31
 73
    25
  0
VERTEX
  5
277
  8
0
 62
     9
 10
0.0
 20
0.0
 30
0.0
 70
   128
 71
    33
 72
    32
 73
    30
  0
VERTEX
  5
278
  8
0
 62
     9
 10
0.0
 20
0.0
 30
0.0
 70
   128
 71
    30
 72
    34
 73
    33
  0
VERTEX
  5
279
  8
0
 62
     9
 10
0.0
 20
0.0
 30
0.0
 70
   128
 71
    35
 72
    34
 73
     1
  0
VERTEX
  5
27A
  8
0
 62
     9
 10
0.0
 20
0.0
 30
0.0
 70
   128
 71
    35
 72
    36
 73
    34
  0
VERTEX
  5
27B
  8
0
 62
     9
 10
0.0
 20
0.0
 30
0.0
 70
   128
 71
     1
 72
     2
 73
    35
  0
VERTEX
  5
27C
  8
0
 62
     9
 10
0.0
 20
0.0
 30
0.0
 70
   128
 71
    34
 72
    36
 73
    33
  0
VERTEX
  5
27D
  8
0
 62
     9
 10
0.0
 20
0.0
 30
0.0
 70
   128
 71
    30
 72
    32
 73
    29
  0
VERTEX
  5
27E
  8
0
 62
     9
 10
0.0
 20
0.0
 30
0.0
 70
   128
 71
    25
 72
    31
 73
    26
  0
VERTEX
  5
27F
  8
0
 62
     9
 10
0.0
 20
0.0
 30
0.0
 70
   128
 71
    24
 72
    27
 73
    23
  0
VERTEX
  5
280
  8
0
 62
     9
 10
0.0
 20
0.0
 30
0.0
 70
   128
 71
    18
 72
    22
 73
    20
  0
VERTEX
  5
281
  8
0
 62
     9
 10
0.0
 20
0.0
 30
0.0
 70
   128
 71
    15
 72
    21
 73
    16
  0
VERTEX
  5
282
  8
0
 62
     9
 10
0.0
 20
0.0
 30
0.0
 70
   128
 71
    14
 72
    17
 73
    13
  0
VERTEX
  5
283
  8
0
 62
     9
 10
0.0
 20
0.0
 30
0.0
 70
   128
 71
     8
 72
    12
 73
    10
  0
VERTEX
  5
284
  8
0
 62
     9
 10
0.0
 20
0.0
 30
0.0
 70
   128
 71
     5
 72
    11
 73
     6
  0
VERTEX
  5
285
  8
0
 62
     9
 10
0.0
 20
0.0
 30
0.0
 70
   128
 71
     4
 72
     7
 73
     3
  0
SEQEND
  5
286
  8
0
 62
     9
  0
ENDBLK
  5
289
  8
0
  0
BLOCK
  8
0
  2
E3_NODE_11_
 70
     0
 10
0.0
 20
0.0
 30
0.0
  3
E3_NODE_11_
  1

  0
POLYLINE
  5
28B
  8
0
 62
     9
 66
     1
 10
0.0
 20
0.0
 30
0.0
 70
    64
 71
     6
 72
     4
  0
VERTEX
  5
28C
  8
0
 10
-28.95700073242188
 20
5.846000194549561
 30
-53.6510009765625
 70
   192
  0
VERTEX
  5
28D
  8
0
 10
-28.95700073242188
 20
-5.846000194549561
 30
-56.3489990234375
 70
   192
  0
VERTEX
  5
28E
  8
0
 10
-28.95700073242188
 20
-3.937000036239624
 30
-59.52799987792969
 70
   192
  0
VERTEX
  5
28F
  8
0
 10
-28.95700073242188
 20
0.5239999890327454
 30
-49.02299880981445
 70
   192
  0
VERTEX
  5
290
  8
0
 10
-28.95700073242188
 20
-5.52299976348877
 30
-52.65499877929688
 70
   192
  0
VERTEX
  5
291
  8
0
 10
-28.95700073242188
 20
3.089999914169312
 30
-60.14300155639648
 70
   192
  0
VERTEX
  5
292
  8
0
 62
     9
 10
0.0
 20
0.0
 30
0.0
 70
   128
 71
     3
 72
     2
 73
     1
  0
VERTEX
  5
293
  8
0
 62
     9
 10
0.0
 20
0.0
 30
0.0
 70
   128
 71
     5
 72
     4
 73
     1
  0
VERTEX
  5
294
  8
0
 62
     9
 10
0.0
 20
0.0
 30
0.0
 70
   128
 71
     1
 72
     2
 73
     5
  0
VERTEX
  5
295
  8
0
 62
     9
 10
0.0
 20
0.0
 30
0.0
 70
   128
 71
     1
 72
     6
 73
     3
  0
SEQEND
  5
296
  8
0
 62
     9
  0
ENDBLK
  5
299
  8
0
  0
BLOCK
  8
0
  2
E3_NODE_12_
 70
     0
 10
0.0
 20
0.0
 30
0.0
  3
E3_NODE_12_
  1

  0
POLYLINE
  5
29B
  8
0
 62
     9
 66
     1
 10
0.0
 20
0.0
 30
0.0
 70
    64
 71
    11
 72
    11
  0
VERTEX
  5
29C
  8
0
 10
-28.95700073242188
 20
3.089999914169312
 30
-60.14300155639648
 70
   192
  0
VERTEX
  5
29D
  8
0
 10
-65.65699768066406
 20
3.089999914169312
 30
-60.14300155639648
 70
   192
  0
VERTEX
  5
29E
  8
0
 10
-65.65699768066406
 20
5.846000194549561
 30
-53.6510009765625
 70
   192
  0
VERTEX
  5
29F
  8
0
 10
-28.95700073242188
 20
-3.937000036239624
 30
-59.52799987792969
 70
   192
  0
VERTEX
  5
2A0
  8
0
 10
-65.65699768066406
 20
-3.937000036239624
 30
-59.52799987792969
 70
   192
  0
VERTEX
  5
2A1
  8
0
 10
-28.95700073242188
 20
-5.846000194549561
 30
-56.3489990234375
 70
   192
  0
VERTEX
  5
2A2
  8
0
 10
-65.65699768066406
 20
-5.52299976348877
 30
-52.65499877929688
 70
   192
  0
VERTEX
  5
2A3
  8
0
 10
-28.95700073242188
 20
-5.52299976348877
 30
-52.65499877929688
 70
   192
  0
VERTEX
  5
2A4
  8
0
 10
-28.95700073242188
 20
0.5239999890327454
 30
-49.02299880981445
 70
   192
  0
VERTEX
  5
2A5
  8
0
 10
-65.65699768066406
 20
0.5239999890327454
 30
-49.02299880981445
 70
   192
  0
VERTEX
  5
2A6
  8
0
 10
-28.95700073242188
 20
5.846000194549561
 30
-53.6510009765625
 70
   192
  0
VERTEX
  5
2A7
  8
0
 62
     9
 10
0.0
 20
0.0
 30
0.0
 70
   128
 71
     3
 72
     2
 73
     1
  0
VERTEX
  5
2A8
  8
0
 62
     9
 10
0.0
 20
0.0
 30
0.0
 70
   128
 71
     2
 72
     5
 73
     4
  0
VERTEX
  5
2A9
  8
0
 62
     9
 10
0.0
 20
0.0
 30
0.0
 70
   128
 71
     6
 72
     4
 73
     5
  0
VERTEX
  5
2AA
  8
0
 62
     9
 10
0.0
 20
0.0
 30
0.0
 70
   128
 71
     5
 72
     7
 73
     6
  0
VERTEX
  5
2AB
  8
0
 62
     9
 10
0.0
 20
0.0
 30
0.0
 70
   128
 71
    10
 72
     9
 73
     8
  0
VERTEX
  5
2AC
  8
0
 62
     9
 10
0.0
 20
0.0
 30
0.0
 70
   128
 71
     9
 72
    10
 73
     3
  0
VERTEX
  5
2AD
  8
0
 62
     9
 10
0.0
 20
0.0
 30
0.0
 70
   128
 71
     3
 72
    11
 73
     9
  0
VERTEX
  5
2AE
  8
0
 62
     9
 10
0.0
 20
0.0
 30
0.0
 70
   128
 71
     8
 72
     7
 73
    10
  0
VERTEX
  5
2AF
  8
0
 62
     9
 10
0.0
 20
0.0
 30
0.0
 70
   128
 71
     7
 72
     8
 73
     6
  0
VERTEX
  5
2B0
  8
0
 62
     9
 10
0.0
 20
0.0
 30
0.0
 70
   128
 71
     4
 72
     1
 73
     2
  0
VERTEX
  5
2B1
  8
0
 62
     9
 10
0.0
 20
0.0
 30
0.0
 70
   128
 71
     1
 72
    11
 73
     3
  0
SEQEND
  5
2B2
  8
0
 62
     9
  0
ENDBLK
  5
2B5
  8
0
  0
BLOCK
  8
0
  2
E3_NODE_13_
 70
     0
 10
0.0
 20
0.0
 30
0.0
  3
E3_NODE_13_
  1

  0
POLYLINE
  5
2B7
  8
0
 62
     9
 66
     1
 10
0.0
 20
0.0
 30
0.0
 70
    64
 71
     8
 72
     6
  0
VERTEX
  5
2B8
  8
0
 10
-24.09700012207031
 20
-5.434000015258789
 30
-57.54399871826172
 70
   192
  0
VERTEX
  5
2B9
  8
0
 10
-24.09700012207031
 20
6.0
 30
-55.06600189208984
 70
   192
  0
VERTEX
  5
2BA
  8
0
 10
-24.09700012207031
 20
3.688999891281128
 30
-59.73199844360352
 70
   192
  0
VERTEX
  5
2BB
  8
0
 10
-24.09700012207031
 20
3.79200005531311
 30
-50.34999847412109
 70
   192
  0
VERTEX
  5
2BC
  8
0
 10
-24.09700012207031
 20
-5.376999855041504
 30
-52.3380012512207
 70
   192
  0
VERTEX
  5
2BD
  8
0
 10
-24.09700012207031
 20
5.434000015258789
 30
-52.45600128173828
 70
   192
  0
VERTEX
  5
2BE
  8
0
 10
-24.09700012207031
 20
-1.271000027656555
 30
-49.13600158691406
 70
   192
  0
VERTEX
  5
2BF
  8
0
 10
-24.09700012207031
 20
-1.39900004863739
 30
-60.83499908447266
 70
   192
  0
VERTEX
  5
2C0
  8
0
 62
     9
 10
0.0
 20
0.0
 30
0.0
 70
   128
 71
     3
 72
     2
 73
     1
  0
VERTEX
  5
2C1
  8
0
 62
     9
 10
0.0
 20
0.0
 30
0.0
 70
   128
 71
     5
 72
     1
 73
     4
  0
VERTEX
  5
2C2
  8
0
 62
     9
 10
0.0
 20
0.0
 30
0.0
 70
   128
 71
     2
 72
     6
 73
     1
  0
VERTEX
  5
2C3
  8
0
 62
     9
 10
0.0
 20
0.0
 30
0.0
 70
   128
 71
     4
 72
     7
 73
     5
  0
VERTEX
  5
2C4
  8
0
 62
     9
 10
0.0
 20
0.0
 30
0.0
 70
   128
 71
     1
 72
     6
 73
     4
  0
VERTEX
  5
2C5
  8
0
 62
     9
 10
0.0
 20
0.0
 30
0.0
 70
   128
 71
     1
 72
     8
 73
     3
  0
SEQEND
  5
2C6
  8
0
 62
     9
  0
ENDBLK
  5
2C9
  8
0
  0
BLOCK
  8
0
  2
E3_NODE_14_
 70
     0
 10
0.0
 20
0.0
 30
0.0
  3
E3_NODE_14_
  1

  0
POLYLINE
  5
2CB
  8
0
 62
     9
 66
     1
 10
0.0
 20
0.0
 30
0.0
 70
    64
 71
    22
 72
    22
  0
VERTEX
  5
2CC
  8
0
 10
-24.09700012207031
 20
-5.434000015258789
 30
-57.54399871826172
 70
   192
  0
VERTEX
  5
2CD
  8
0
 10
-24.09700012207031
 20
-1.39900004863739
 30
-60.83499908447266
 70
   192
  0
VERTEX
  5
2CE
  8
0
 10
-18.59700012207031
 20
-6.547999858856201
 30
-63.02999877929688
 70
   192
  0
VERTEX
  5
2CF
  8
0
 10
-18.59700012207031
 20
-2.680999994277954
 30
-66.18299865722656
 70
   192
  0
VERTEX
  5
2D0
  8
0
 10
-24.09700012207031
 20
3.688999891281128
 30
-59.73199844360352
 70
   192
  0
VERTEX
  5
2D1
  8
0
 10
-18.59700012207031
 20
7.071000099182129
 30
-64.06900024414062
 70
   192
  0
VERTEX
  5
2D2
  8
0
 10
-18.59700012207031
 20
2.194999933242798
 30
-65.1259994506836
 70
   192
  0
VERTEX
  5
2D3
  8
0
 10
-24.09700012207031
 20
6.0
 30
-55.06600189208984
 70
   192
  0
VERTEX
  5
2D4
  8
0
 10
-18.59700012207031
 20
11.49899959564209
 30
-55.12599945068359
 70
   192
  0
VERTEX
  5
2D5
  8
0
 10
-18.59700012207031
 20
9.28499984741211
 30
-59.59700012207031
 70
   192
  0
VERTEX
  5
2D6
  8
0
 10
-18.59700012207031
 20
7.26800012588501
 30
-46.0880012512207
 70
   192
  0
VERTEX
  5
2D7
  8
0
 10
-18.59700012207031
 20
10.41499996185303
 30
-50.12400054931641
 70
   192
  0
VERTEX
  5
2D8
  8
0
 10
-24.09700012207031
 20
5.434000015258789
 30
-52.45600128173828
 70
   192
  0
VERTEX
  5
2D9
  8
0
 10
-24.09700012207031
 20
3.79200005531311
 30
-50.34999847412109
 70
   192
  0
VERTEX
  5
2DA
  8
0
 10
-24.09700012207031
 20
-1.271000027656555
 30
-49.13600158691406
 70
   192
  0
VERTEX
  5
2DB
  8
0
 10
-18.59700012207031
 20
2.415999889373779
 30
-44.92399978637695
 70
   192
  0
VERTEX
  5
2DC
  8
0
 10
-18.59700012207031
 20
-2.436000108718872
 30
-43.76100158691406
 70
   192
  0
VERTEX
  5
2DD
  8
0
 10
-24.09700012207031
 20
-5.376999855041504
 30
-52.3380012512207
 70
   192
  0
VERTEX
  5
2DE
  8
0
 10
-18.59700012207031
 20
-6.370999813079834
 30
-46.82899856567383
 70
   192
  0
VERTEX
  5
2DF
  8
0
 10
-18.59700012207031
 20
-10.30599975585938
 30
-49.89699935913086
 70
   192
  0
VERTEX
  5
2E0
  8
0
 10
-18.59700012207031
 20
-10.36100006103516
 30
-54.88700103759766
 70
   192
  0
VERTEX
  5
2E1
  8
0
 10
-18.59700012207031
 20
-10.41499996185303
 30
-59.87599945068359
 70
   192
  0
VERTEX
  5
2E2
  8
0
 62
     9
 10
0.0
 20
0.0
 30
0.0
 70
   128
 71
     3
 72
     2
 73
     1
  0
VERTEX
  5
2E3
  8
0
 62
     9
 10
0.0
 20
0.0
 30
0.0
 70
   128
 71
     3
 72
     4
 73
     2
  0
VERTEX
  5
2E4
  8
0
 62
     9
 10
0.0
 20
0.0
 30
0.0
 70
   128
 71
     7
 72
     6
 73
     5
  0
VERTEX
  5
2E5
  8
0
 62
     9
 10
0.0
 20
0.0
 30
0.0
 70
   128
 71
     5
 72
     2
 73
     7
  0
VERTEX
  5
2E6
  8
0
 62
     9
 10
0.0
 20
0.0
 30
0.0
 70
   128
 71
    10
 72
     9
 73
     8
  0
VERTEX
  5
2E7
  8
0
 62
     9
 10
0.0
 20
0.0
 30
0.0
 70
   128
 71
     8
 72
     5
 73
    10
  0
VERTEX
  5
2E8
  8
0
 62
     9
 10
0.0
 20
0.0
 30
0.0
 70
   128
 71
    13
 72
    12
 73
    11
  0
VERTEX
  5
2E9
  8
0
 62
     9
 10
0.0
 20
0.0
 30
0.0
 70
   128
 71
     8
 72
     9
 73
    12
  0
VERTEX
  5
2EA
  8
0
 62
     9
 10
0.0
 20
0.0
 30
0.0
 70
   128
 71
    12
 72
    13
 73
     8
  0
VERTEX
  5
2EB
  8
0
 62
     9
 10
0.0
 20
0.0
 30
0.0
 70
   128
 71
    16
 72
    15
 73
    14
  0
VERTEX
  5
2EC
  8
0
 62
     9
 10
0.0
 20
0.0
 30
0.0
 70
   128
 71
    16
 72
    17
 73
    15
  0
VERTEX
  5
2ED
  8
0
 62
     9
 10
0.0
 20
0.0
 30
0.0
 70
   128
 71
    19
 72
    18
 73
    15
  0
VERTEX
  5
2EE
  8
0
 62
     9
 10
0.0
 20
0.0
 30
0.0
 70
   128
 71
    19
 72
    20
 73
    18
  0
VERTEX
  5
2EF
  8
0
 62
     9
 10
0.0
 20
0.0
 30
0.0
 70
   128
 71
    21
 72
     1
 73
    18
  0
VERTEX
  5
2F0
  8
0
 62
     9
 10
0.0
 20
0.0
 30
0.0
 70
   128
 71
    21
 72
    22
 73
     1
  0
VERTEX
  5
2F1
  8
0
 62
     9
 10
0.0
 20
0.0
 30
0.0
 70
   128
 71
    18
 72
    20
 73
    21
  0
VERTEX
  5
2F2
  8
0
 62
     9
 10
0.0
 20
0.0
 30
0.0
 70
   128
 71
    15
 72
    17
 73
    19
  0
VERTEX
  5
2F3
  8
0
 62
     9
 10
0.0
 20
0.0
 30
0.0
 70
   128
 71
    14
 72
    11
 73
    16
  0
VERTEX
  5
2F4
  8
0
 62
     9
 10
0.0
 20
0.0
 30
0.0
 70
   128
 71
    11
 72
    14
 73
    13
  0
VERTEX
  5
2F5
  8
0
 62
     9
 10
0.0
 20
0.0
 30
0.0
 70
   128
 71
     5
 72
     6
 73
    10
  0
VERTEX
  5
2F6
  8
0
 62
     9
 10
0.0
 20
0.0
 30
0.0
 70
   128
 71
     2
 72
     4
 73
     7
  0
VERTEX
  5
2F7
  8
0
 62
     9
 10
0.0
 20
0.0
 30
0.0
 70
   128
 71
     1
 72
    22
 73
     3
  0
SEQEND
  5
2F8
  8
0
 62
     9
  0
ENDBLK
  5
2FB
  8
0
  0
BLOCK
  8
0
  2
E3_NODE_15_
 70
     0
 10
0.0
 20
0.0
 30
0.0
  3
E3_NODE_15_
  1

  0
POLYLINE
  5
2FD
  8
0
 62
     9
 66
     1
 10
0.0
 20
0.0
 30
0.0
 70
    64
 71
    21
 72
    21
  0
VERTEX
  5
2FE
  8
0
 10
-16.09700012207031
 20
10.30599975585938
 30
-60.10300064086914
 70
   192
  0
VERTEX
  5
2FF
  8
0
 10
-18.59700012207031
 20
9.28499984741211
 30
-59.59700012207031
 70
   192
  0
VERTEX
  5
300
  8
0
 10
-18.59700012207031
 20
11.49899959564209
 30
-55.12599945068359
 70
   192
  0
VERTEX
  5
301
  8
0
 10
-16.09700012207031
 20
10.41499996185303
 30
-50.12400054931641
 70
   192
  0
VERTEX
  5
302
  8
0
 10
-16.09700012207031
 20
2.436000108718872
 30
-66.23899841308594
 70
   192
  0
VERTEX
  5
303
  8
0
 10
-18.59700012207031
 20
2.194999933242798
 30
-65.1259994506836
 70
   192
  0
VERTEX
  5
304
  8
0
 10
-18.59700012207031
 20
7.071000099182129
 30
-64.06900024414062
 70
   192
  0
VERTEX
  5
305
  8
0
 10
-16.09700012207031
 20
-7.26800012588501
 30
-63.9119987487793
 70
   192
  0
VERTEX
  5
306
  8
0
 10
-18.59700012207031
 20
-2.680999994277954
 30
-66.18299865722656
 70
   192
  0
VERTEX
  5
307
  8
0
 10
-18.59700012207031
 20
-6.547999858856201
 30
-63.02999877929688
 70
   192
  0
VERTEX
  5
308
  8
0
 10
-16.09700012207031
 20
-11.49899959564209
 30
-54.87400054931641
 70
   192
  0
VERTEX
  5
309
  8
0
 10
-18.59700012207031
 20
-10.41499996185303
 30
-59.87599945068359
 70
   192
  0
VERTEX
  5
30A
  8
0
 10
-18.59700012207031
 20
-10.36100006103516
 30
-54.88700103759766
 70
   192
  0
VERTEX
  5
30B
  8
0
 10
-16.09700012207031
 20
-7.071000099182129
 30
-45.93099975585938
 70
   192
  0
VERTEX
  5
30C
  8
0
 10
-18.59700012207031
 20
-6.370999813079834
 30
-46.82899856567383
 70
   192
  0
VERTEX
  5
30D
  8
0
 10
-18.59700012207031
 20
-10.30599975585938
 30
-49.89699935913086
 70
   192
  0
VERTEX
  5
30E
  8
0
 10
-16.09700012207031
 20
2.680999994277954
 30
-43.81700134277344
 70
   192
  0
VERTEX
  5
30F
  8
0
 10
-18.59700012207031
 20
2.415999889373779
 30
-44.92399978637695
 70
   192
  0
VERTEX
  5
310
  8
0
 10
-18.59700012207031
 20
-2.436000108718872
 30
-43.76100158691406
 70
   192
  0
VERTEX
  5
311
  8
0
 10
-18.59700012207031
 20
10.41499996185303
 30
-50.12400054931641
 70
   192
  0
VERTEX
  5
312
  8
0
 10
-18.59700012207031
 20
7.26800012588501
 30
-46.0880012512207
 70
   192
  0
VERTEX
  5
313
  8
0
 62
     9
 10
0.0
 20
0.0
 30
0.0
 70
   128
 71
     3
 72
     2
 73
     1
  0
VERTEX
  5
314
  8
0
 62
     9
 10
0.0
 20
0.0
 30
0.0
 70
   128
 71
     1
 72
     4
 73
     3
  0
VERTEX
  5
315
  8
0
 62
     9
 10
0.0
 20
0.0
 30
0.0
 70
   128
 71
     7
 72
     6
 73
     5
  0
VERTEX
  5
316
  8
0
 62
     9
 10
0.0
 20
0.0
 30
0.0
 70
   128
 71
     5
 72
     1
 73
     7
  0
VERTEX
  5
317
  8
0
 62
     9
 10
0.0
 20
0.0
 30
0.0
 70
   128
 71
     9
 72
     8
 73
     5
  0
VERTEX
  5
318
  8
0
 62
     9
 10
0.0
 20
0.0
 30
0.0
 70
   128
 71
     9
 72
    10
 73
     8
  0
VERTEX
  5
319
  8
0
 62
     9
 10
0.0
 20
0.0
 30
0.0
 70
   128
 71
    12
 72
    11
 73
     8
  0
VERTEX
  5
31A
  8
0
 62
     9
 10
0.0
 20
0.0
 30
0.0
 70
   128
 71
    12
 72
    13
 73
    11
  0
VERTEX
  5
31B
  8
0
 62
     9
 10
0.0
 20
0.0
 30
0.0
 70
   128
 71
    16
 72
    15
 73
    14
  0
VERTEX
  5
31C
  8
0
 62
     9
 10
0.0
 20
0.0
 30
0.0
 70
   128
 71
    14
 72
    11
 73
    16
  0
VERTEX
  5
31D
  8
0
 62
     9
 10
0.0
 20
0.0
 30
0.0
 70
   128
 71
    19
 72
    18
 73
    17
  0
VERTEX
  5
31E
  8
0
 62
     9
 10
0.0
 20
0.0
 30
0.0
 70
   128
 71
    17
 72
    14
 73
    19
  0
VERTEX
  5
31F
  8
0
 62
     9
 10
0.0
 20
0.0
 30
0.0
 70
   128
 71
    21
 72
    20
 73
     4
  0
VERTEX
  5
320
  8
0
 62
     9
 10
0.0
 20
0.0
 30
0.0
 70
   128
 71
     4
 72
    17
 73
    21
  0
VERTEX
  5
321
  8
0
 62
     9
 10
0.0
 20
0.0
 30
0.0
 70
   128
 71
    17
 72
    18
 73
    21
  0
VERTEX
  5
322
  8
0
 62
     9
 10
0.0
 20
0.0
 30
0.0
 70
   128
 71
    14
 72
    15
 73
    19
  0
VERTEX
  5
323
  8
0
 62
     9
 10
0.0
 20
0.0
 30
0.0
 70
   128
 71
    11
 72
    13
 73
    16
  0
VERTEX
  5
324
  8
0
 62
     9
 10
0.0
 20
0.0
 30
0.0
 70
   128
 71
     8
 72
    10
 73
    12
  0
VERTEX
  5
325
  8
0
 62
     9
 10
0.0
 20
0.0
 30
0.0
 70
   128
 71
     5
 72
     6
 73
     9
  0
VERTEX
  5
326
  8
0
 62
     9
 10
0.0
 20
0.0
 30
0.0
 70
   128
 71
     1
 72
     2
 73
     7
  0
VERTEX
  5
327
  8
0
 62
     9
 10
0.0
 20
0.0
 30
0.0
 70
   128
 71
     4
 72
    20
 73
     3
  0
SEQEND
  5
328
  8
0
 62
     9
  0
ENDBLK
  5
32B
  8
0
  0
BLOCK
  8
0
  2
E3_NODE_16_
 70
     0
 10
0.0
 20
0.0
 30
0.0
  3
E3_NODE_16_
  1

  0
POLYLINE
  5
32D
  8
0
 62
     9
 66
     1
 10
0.0
 20
0.0
 30
0.0
 70
    64
 71
    14
 72
    14
  0
VERTEX
  5
32E
  8
0
 10
-16.09700012207031
 20
10.41499996185303
 30
-50.12400054931641
 70
   192
  0
VERTEX
  5
32F
  8
0
 10
-11.59700012207031
 20
9.322999954223633
 30
-50.6349983215332
 70
   192
  0
VERTEX
  5
330
  8
0
 10
-11.59700012207031
 20
9.225000381469727
 30
-59.56800079345703
 70
   192
  0
VERTEX
  5
331
  8
0
 10
-16.09700012207031
 20
10.30599975585938
 30
-60.10300064086914
 70
   192
  0
VERTEX
  5
332
  8
0
 10
-11.59700012207031
 20
2.180999994277954
 30
-65.06099700927734
 70
   192
  0
VERTEX
  5
333
  8
0
 10
-16.09700012207031
 20
2.436000108718872
 30
-66.23899841308594
 70
   192
  0
VERTEX
  5
334
  8
0
 10
-11.59700012207031
 20
-6.50600004196167
 30
-62.97800064086914
 70
   192
  0
VERTEX
  5
335
  8
0
 10
-16.09700012207031
 20
-7.26800012588501
 30
-63.9119987487793
 70
   192
  0
VERTEX
  5
336
  8
0
 10
-11.59700012207031
 20
-10.29399967193604
 30
-54.88700103759766
 70
   192
  0
VERTEX
  5
337
  8
0
 10
-16.09700012207031
 20
-11.49899959564209
 30
-54.87400054931641
 70
   192
  0
VERTEX
  5
338
  8
0
 10
-11.59700012207031
 20
-6.329999923706055
 30
-46.88199996948242
 70
   192
  0
VERTEX
  5
339
  8
0
 10
-16.09700012207031
 20
-7.071000099182129
 30
-45.93099975585938
 70
   192
  0
VERTEX
  5
33A
  8
0
 10
-11.59700012207031
 20
2.400000095367432
 30
-44.9900016784668
 70
   192
  0
VERTEX
  5
33B
  8
0
 10
-16.09700012207031
 20
2.680999994277954
 30
-43.81700134277344
 70
   192
  0
VERTEX
  5
33C
  8
0
 62
     9
 10
0.0
 20
0.0
 30
0.0
 70
   128
 71
     3
 72
     2
 73
     1
  0
VERTEX
  5
33D
  8
0
 62
     9
 10
0.0
 20
0.0
 30
0.0
 70
   128
 71
     5
 72
     3
 73
     4
  0
VERTEX
  5
33E
  8
0
 62
     9
 10
0.0
 20
0.0
 30
0.0
 70
   128
 71
     7
 72
     5
 73
     6
  0
VERTEX
  5
33F
  8
0
 62
     9
 10
0.0
 20
0.0
 30
0.0
 70
   128
 71
     9
 72
     7
 73
     8
  0
VERTEX
  5
340
  8
0
 62
     9
 10
0.0
 20
0.0
 30
0.0
 70
   128
 71
    11
 72
     9
 73
    10
  0
VERTEX
  5
341
  8
0
 62
     9
 10
0.0
 20
0.0
 30
0.0
 70
   128
 71
    13
 72
    11
 73
    12
  0
VERTEX
  5
342
  8
0
 62
     9
 10
0.0
 20
0.0
 30
0.0
 70
   128
 71
     2
 72
    13
 73
    14
  0
VERTEX
  5
343
  8
0
 62
     9
 10
0.0
 20
0.0
 30
0.0
 70
   128
 71
    14
 72
     1
 73
     2
  0
VERTEX
  5
344
  8
0
 62
     9
 10
0.0
 20
0.0
 30
0.0
 70
   128
 71
    12
 72
    14
 73
    13
  0
VERTEX
  5
345
  8
0
 62
     9
 10
0.0
 20
0.0
 30
0.0
 70
   128
 71
    10
 72
    12
 73
    11
  0
VERTEX
  5
346
  8
0
 62
     9
 10
0.0
 20
0.0
 30
0.0
 70
   128
 71
     8
 72
    10
 73
     9
  0
VERTEX
  5
347
  8
0
 62
     9
 10
0.0
 20
0.0
 30
0.0
 70
   128
 71
     6
 72
     8
 73
     7
  0
VERTEX
  5
348
  8
0
 62
     9
 10
0.0
 20
0.0
 30
0.0
 70
   128
 71
     4
 72
     6
 73
     5
  0
VERTEX
  5
349
  8
0
 62
     9
 10
0.0
 20
0.0
 30
0.0
 70
   128
 71
     1
 72
     4
 73
     3
  0
SEQEND
  5
34A
  8
0
 62
     9
  0
ENDBLK
  5
34D
  8
0
  0
BLOCK
  8
0
  2
E3_NODE_17_
 70
     0
 10
0.0
 20
0.0
 30
0.0
  3
E3_NODE_17_
  1

  0
POLYLINE
  5
34F
  8
0
 62
     9
 66
     1
 10
0.0
 20
0.0
 30
0.0
 70
    64
 71
     7
 72
     5
  0
VERTEX
  5
350
  8
0
 10
-11.59700012207031
 20
-6.329999923706055
 30
-46.88199996948242
 70
   192
  0
VERTEX
  5
351
  8
0
 10
-11.59700012207031
 20
9.225000381469727
 30
-59.56800079345703
 70
   192
  0
VERTEX
  5
352
  8
0
 10
-11.59700012207031
 20
9.322999954223633
 30
-50.6349983215332
 70
   192
  0
VERTEX
  5
353
  8
0
 10
-11.59700012207031
 20
2.400000095367432
 30
-44.9900016784668
 70
   192
  0
VERTEX
  5
354
  8
0
 10
-11.59700012207031
 20
-10.29399967193604
 30
-54.88700103759766
 70
   192
  0
VERTEX
  5
355
  8
0
 10
-11.59700012207031
 20
-6.50600004196167
 30
-62.97800064086914
 70
   192
  0
VERTEX
  5
356
  8
0
 10
-11.59700012207031
 20
2.180999994277954
 30
-65.06099700927734
 70
   192
  0
VERTEX
  5
357
  8
0
 62
     9
 10
0.0
 20
0.0
 30
0.0
 70
   128
 71
     3
 72
     2
 73
     1
  0
VERTEX
  5
358
  8
0
 62
     9
 10
0.0
 20
0.0
 30
0.0
 70
   128
 71
     1
 72
     4
 73
     3
  0
VERTEX
  5
359
  8
0
 62
     9
 10
0.0
 20
0.0
 30
0.0
 70
   128
 71
     6
 72
     5
 73
     2
  0
VERTEX
  5
35A
  8
0
 62
     9
 10
0.0
 20
0.0
 30
0.0
 70
   128
 71
     2
 72
     7
 73
     6
  0
VERTEX
  5
35B
  8
0
 62
     9
 10
0.0
 20
0.0
 30
0.0
 70
   128
 71
     2
 72
     5
 73
     1
  0
SEQEND
  5
35C
  8
0
 62
     9
  0
ENDBLK
  5
35F
  8
0
  0
BLOCK
  8
0
  2
E3_NODE_18_
 70
     0
 10
0.0
 20
0.0
 30
0.0
  3
E3_NODE_18_
  1

  0
POLYLINE
  5
361
  8
0
 62
     9
 66
     1
 10
0.0
 20
0.0
 30
0.0
 70
    64
 71
    45
 72
    44
  0
VERTEX
  5
362
  8
0
 10
-53.66799926757812
 20
0.0
 30
0.0
 70
   192
  0
VERTEX
  5
363
  8
0
 10
-54.40800094604492
 20
84.91600036621094
 30
-40.89400100708008
 70
   192
  0
VERTEX
  5
364
  8
0
 10
-54.40800094604492
 20
89.0999984741211
 30
-28.9370002746582
 70
   192
  0
VERTEX
  5
365
  8
0
 10
-54.40800094604492
 20
73.68800354003906
 30
-58.76399993896484
 70
   192
  0
VERTEX
  5
366
  8
0
 10
-54.40800094604492
 20
75.92900085449219
 30
-55.19699859619141
 70
   192
  0
VERTEX
  5
367
  8
0
 10
-54.40800094604492
 20
40.89400100708008
 30
-84.91600036621094
 70
   192
  0
VERTEX
  5
368
  8
0
 10
-54.40800094604492
 20
55.19699859619141
 30
-75.92900085449219
 70
   192
  0
VERTEX
  5
369
  8
0
 10
-54.40800094604492
 20
20.97299957275391
 30
-91.88700103759766
 70
   192
  0
VERTEX
  5
36A
  8
0
 10
-54.40800094604492
 20
28.9370002746582
 30
-89.0999984741211
 70
   192
  0
VERTEX
  5
36B
  8
0
 10
-54.40800094604492
 20
-40.89400100708008
 30
-84.91600036621094
 70
   192
  0
VERTEX
  5
36C
  8
0
 10
-54.40800094604492
 20
-28.9370002746582
 30
-89.0999984741211
 70
   192
  0
VERTEX
  5
36D
  8
0
 10
-54.40800094604492
 20
-58.76399993896484
 30
-73.68800354003906
 70
   192
  0
VERTEX
  5
36E
  8
0
 10
-54.40800094604492
 20
-55.19699859619141
 30
-75.92900085449219
 70
   192
  0
VERTEX
  5
36F
  8
0
 10
-54.40800094604492
 20
-84.91600036621094
 30
-40.89400100708008
 70
   192
  0
VERTEX
  5
370
  8
0
 10
-54.40800094604492
 20
-75.92900085449219
 30
-55.19699859619141
 70
   192
  0
VERTEX
  5
371
  8
0
 10
-54.40800094604492
 20
-91.88700103759766
 30
-20.97299957275391
 70
   192
  0
VERTEX
  5
372
  8
0
 10
-54.40800094604492
 20
-89.0999984741211
 30
-28.9370002746582
 70
   192
  0
VERTEX
  5
373
  8
0
 10
-54.40800094604492
 20
-84.91600036621094
 30
40.89400100708008
 70
   192
  0
VERTEX
  5
374
  8
0
 10
-54.40800094604492
 20
-89.0999984741211
 30
28.9370002746582
 70
   192
  0
VERTEX
  5
375
  8
0
 10
-54.40800094604492
 20
-73.68800354003906
 30
58.76399993896484
 70
   192
  0
VERTEX
  5
376
  8
0
 10
-54.40800094604492
 20
-75.92900085449219
 30
55.19699859619141
 70
   192
  0
VERTEX
  5
377
  8
0
 10
-54.40800094604492
 20
-40.89400100708008
 30
84.91600036621094
 70
   192
  0
VERTEX
  5
378
  8
0
 10
-54.40800094604492
 20
-55.19699859619141
 30
75.92900085449219
 70
   192
  0
VERTEX
  5
379
  8
0
 10
-54.40800094604492
 20
-20.97299957275391
 30
91.88700103759766
 70
   192
  0
VERTEX
  5
37A
  8
0
 10
-54.40800094604492
 20
-28.9370002746582
 30
89.0999984741211
 70
   192
  0
VERTEX
  5
37B
  8
0
 10
-54.40800094604492
 20
40.89400100708008
 30
84.91600036621094
 70
   192
  0
VERTEX
  5
37C
  8
0
 10
-54.40800094604492
 20
28.9370002746582
 30
89.0999984741211
 70
   192
  0
VERTEX
  5
37D
  8
0
 10
-54.40800094604492
 20
58.76399993896484
 30
73.68800354003906
 70
   192
  0
VERTEX
  5
37E
  8
0
 10
-54.40800094604492
 20
55.19699859619141
 30
75.92900085449219
 70
   192
  0
VERTEX
  5
37F
  8
0
 10
-54.40800094604492
 20
84.91600036621094
 30
40.89400100708008
 70
   192
  0
VERTEX
  5
380
  8
0
 10
-54.40800094604492
 20
75.92900085449219
 30
55.19699859619141
 70
   192
  0
VERTEX
  5
381
  8
0
 10
-54.40800094604492
 20
91.88700103759766
 30
20.97299957275391
 70
   192
  0
VERTEX
  5
382
  8
0
 10
-54.40800094604492
 20
89.0999984741211
 30
28.9370002746582
 70
   192
  0
VERTEX
  5
383
  8
0
 10
-54.40800094604492
 20
94.25
 30
0.0
 70
   192
  0
VERTEX
  5
384
  8
0
 10
-54.40800094604492
 20
73.68800354003906
 30
58.76399993896484
 70
   192
  0
VERTEX
  5
385
  8
0
 10
-54.40800094604492
 20
20.97299957275391
 30
91.88700103759766
 70
   192
  0
VERTEX
  5
386
  8
0
 10
-54.40800094604492
 20
0.0
 30
94.25
 70
   192
  0
VERTEX
  5
387
  8
0
 10
-54.40800094604492
 20
-58.76399993896484
 30
73.68800354003906
 70
   192
  0
VERTEX
  5
388
  8
0
 10
-54.40800094604492
 20
-91.88700103759766
 30
20.97299957275391
 70
   192
  0
VERTEX
  5
389
  8
0
 10
-54.40800094604492
 20
-94.25
 30
0.0
 70
   192
  0
VERTEX
  5
38A
  8
0
 10
-54.40800094604492
 20
-73.68800354003906
 30
-58.76399993896484
 70
   192
  0
VERTEX
  5
38B
  8
0
 10
-54.40800094604492
 20
-20.97299957275391
 30
-91.88700103759766
 70
   192
  0
VERTEX
  5
38C
  8
0
 10
-54.40800094604492
 20
0.0
 30
-94.25
 70
   192
  0
VERTEX
  5
38D
  8
0
 10
-54.40800094604492
 20
58.76399993896484
 30
-73.68800354003906
 70
   192
  0
VERTEX
  5
38E
  8
0
 10
-54.40800094604492
 20
91.88700103759766
 30
-20.97299957275391
 70
   192
  0
VERTEX
  5
38F
  8
0
 62
     9
 10
0.0
 20
0.0
 30
0.0
 70
   128
 71
     3
 72
     2
 73
     1
  0
VERTEX
  5
390
  8
0
 62
     9
 10
0.0
 20
0.0
 30
0.0
 70
   128
 71
     5
 72
     4
 73
     1
  0
VERTEX
  5
391
  8
0
 62
     9
 10
0.0
 20
0.0
 30
0.0
 70
   128
 71
     7
 72
     6
 73
     1
  0
VERTEX
  5
392
  8
0
 62
     9
 10
0.0
 20
0.0
 30
0.0
 70
   128
 71
     9
 72
     8
 73
     1
  0
VERTEX
  5
393
  8
0
 62
     9
 10
0.0
 20
0.0
 30
0.0
 70
   128
 71
    11
 72
    10
 73
     1
  0
VERTEX
  5
394
  8
0
 62
     9
 10
0.0
 20
0.0
 30
0.0
 70
   128
 71
    13
 72
    12
 73
     1
  0
VERTEX
  5
395
  8
0
 62
     9
 10
0.0
 20
0.0
 30
0.0
 70
   128
 71
    15
 72
    14
 73
     1
  0
VERTEX
  5
396
  8
0
 62
     9
 10
0.0
 20
0.0
 30
0.0
 70
   128
 71
    17
 72
    16
 73
     1
  0
VERTEX
  5
397
  8
0
 62
     9
 10
0.0
 20
0.0
 30
0.0
 70
   128
 71
    19
 72
    18
 73
     1
  0
VERTEX
  5
398
  8
0
 62
     9
 10
0.0
 20
0.0
 30
0.0
 70
   128
 71
    21
 72
    20
 73
     1
  0
VERTEX
  5
399
  8
0
 62
     9
 10
0.0
 20
0.0
 30
0.0
 70
   128
 71
    23
 72
    22
 73
     1
  0
VERTEX
  5
39A
  8
0
 62
     9
 10
0.0
 20
0.0
 30
0.0
 70
   128
 71
    25
 72
    24
 73
     1
  0
VERTEX
  5
39B
  8
0
 62
     9
 10
0.0
 20
0.0
 30
0.0
 70
   128
 71
    27
 72
    26
 73
     1
  0
VERTEX
  5
39C
  8
0
 62
     9
 10
0.0
 20
0.0
 30
0.0
 70
   128
 71
    29
 72
    28
 73
     1
  0
VERTEX
  5
39D
  8
0
 62
     9
 10
0.0
 20
0.0
 30
0.0
 70
   128
 71
    31
 72
    30
 73
     1
  0
VERTEX
  5
39E
  8
0
 62
     9
 10
0.0
 20
0.0
 30
0.0
 70
   128
 71
    33
 72
    32
 73
     1
  0
VERTEX
  5
39F
  8
0
 62
     9
 10
0.0
 20
0.0
 30
0.0
 70
   128
 71
     1
 72
    32
 73
    34
  0
VERTEX
  5
3A0
  8
0
 62
     9
 10
0.0
 20
0.0
 30
0.0
 70
   128
 71
     1
 72
    30
 73
    33
  0
VERTEX
  5
3A1
  8
0
 62
     9
 10
0.0
 20
0.0
 30
0.0
 70
   128
 71
     1
 72
    35
 73
    31
  0
VERTEX
  5
3A2
  8
0
 62
     9
 10
0.0
 20
0.0
 30
0.0
 70
   128
 71
     1
 72
    28
 73
    35
  0
VERTEX
  5
3A3
  8
0
 62
     9
 10
0.0
 20
0.0
 30
0.0
 70
   128
 71
     1
 72
    26
 73
    29
  0
VERTEX
  5
3A4
  8
0
 62
     9
 10
0.0
 20
0.0
 30
0.0
 70
   128
 71
     1
 72
    36
 73
    27
  0
VERTEX
  5
3A5
  8
0
 62
     9
 10
0.0
 20
0.0
 30
0.0
 70
   128
 71
     1
 72
    37
 73
    36
  0
VERTEX
  5
3A6
  8
0
 62
     9
 10
0.0
 20
0.0
 30
0.0
 70
   128
 71
     1
 72
    24
 73
    37
  0
VERTEX
  5
3A7
  8
0
 62
     9
 10
0.0
 20
0.0
 30
0.0
 70
   128
 71
     1
 72
    22
 73
    25
  0
VERTEX
  5
3A8
  8
0
 62
     9
 10
0.0
 20
0.0
 30
0.0
 70
   128
 71
     1
 72
    38
 73
    23
  0
VERTEX
  5
3A9
  8
0
 62
     9
 10
0.0
 20
0.0
 30
0.0
 70
   128
 71
     1
 72
    20
 73
    38
  0
VERTEX
  5
3AA
  8
0
 62
     9
 10
0.0
 20
0.0
 30
0.0
 70
   128
 71
     1
 72
    18
 73
    21
  0
VERTEX
  5
3AB
  8
0
 62
     9
 10
0.0
 20
0.0
 30
0.0
 70
   128
 71
     1
 72
    39
 73
    19
  0
VERTEX
  5
3AC
  8
0
 62
     9
 10
0.0
 20
0.0
 30
0.0
 70
   128
 71
     1
 72
    40
 73
    39
  0
VERTEX
  5
3AD
  8
0
 62
     9
 10
0.0
 20
0.0
 30
0.0
 70
   128
 71
     1
 72
    16
 73
    40
  0
VERTEX
  5
3AE
  8
0
 62
     9
 10
0.0
 20
0.0
 30
0.0
 70
   128
 71
     1
 72
    14
 73
    17
  0
VERTEX
  5
3AF
  8
0
 62
     9
 10
0.0
 20
0.0
 30
0.0
 70
   128
 71
     1
 72
    41
 73
    15
  0
VERTEX
  5
3B0
  8
0
 62
     9
 10
0.0
 20
0.0
 30
0.0
 70
   128
 71
     1
 72
    12
 73
    41
  0
VERTEX
  5
3B1
  8
0
 62
     9
 10
0.0
 20
0.0
 30
0.0
 70
   128
 71
     1
 72
    10
 73
    13
  0
VERTEX
  5
3B2
  8
0
 62
     9
 10
0.0
 20
0.0
 30
0.0
 70
   128
 71
     1
 72
    42
 73
    11
  0
VERTEX
  5
3B3
  8
0
 62
     9
 10
0.0
 20
0.0
 30
0.0
 70
   128
 71
     1
 72
    43
 73
    42
  0
VERTEX
  5
3B4
  8
0
 62
     9
 10
0.0
 20
0.0
 30
0.0
 70
   128
 71
     1
 72
     8
 73
    43
  0
VERTEX
  5
3B5
  8
0
 62
     9
 10
0.0
 20
0.0
 30
0.0
 70
   128
 71
     1
 72
     6
 73
     9
  0
VERTEX
  5
3B6
  8
0
 62
     9
 10
0.0
 20
0.0
 30
0.0
 70
   128
 71
     1
 72
    44
 73
     7
  0
VERTEX
  5
3B7
  8
0
 62
     9
 10
0.0
 20
0.0
 30
0.0
 70
   128
 71
     1
 72
     4
 73
    44
  0
VERTEX
  5
3B8
  8
0
 62
     9
 10
0.0
 20
0.0
 30
0.0
 70
   128
 71
     1
 72
     2
 73
     5
  0
VERTEX
  5
3B9
  8
0
 62
     9
 10
0.0
 20
0.0
 30
0.0
 70
   128
 71
     1
 72
    45
 73
     3
  0
VERTEX
  5
3BA
  8
0
 62
     9
 10
0.0
 20
0.0
 30
0.0
 70
   128
 71
     1
 72
    34
 73
    45
  0
SEQEND
  5
3BB
  8
0
 62
     9
  0
ENDBLK
  5
3BE
  8
0
  0
BLOCK
  8
0
  2
E3_NODE_19_
 70
     0
 10
0.0
 20
0.0
 30
0.0
  3
E3_NODE_19_
  1

  0
POLYLINE
  5
3C0
  8
0
 62
     9
 66
     1
 10
0.0
 20
0.0
 30
0.0
 70
    64
 71
    64
 72
    64
  0
VERTEX
  5
3C1
  8
0
 10
-67.45500183105469
 20
0.0
 30
94.25
 70
   192
  0
VERTEX
  5
3C2
  8
0
 10
-54.40800094604492
 20
0.0
 30
94.25
 70
   192
  0
VERTEX
  5
3C3
  8
0
 10
-54.40800094604492
 20
20.97299957275391
 30
91.88700103759766
 70
   192
  0
VERTEX
  5
3C4
  8
0
 10
-67.45500183105469
 20
29.125
 30
89.63700103759766
 70
   192
  0
VERTEX
  5
3C5
  8
0
 10
-67.45500183105469
 20
55.39899826049805
 30
76.25
 70
   192
  0
VERTEX
  5
3C6
  8
0
 10
-54.40800094604492
 20
40.89400100708008
 30
84.91600036621094
 70
   192
  0
VERTEX
  5
3C7
  8
0
 10
-54.40800094604492
 20
28.9370002746582
 30
89.0999984741211
 70
   192
  0
VERTEX
  5
3C8
  8
0
 10
-67.45500183105469
 20
76.25
 30
55.39899826049805
 70
   192
  0
VERTEX
  5
3C9
  8
0
 10
-54.40800094604492
 20
58.76399993896484
 30
73.68800354003906
 70
   192
  0
VERTEX
  5
3CA
  8
0
 10
-54.40800094604492
 20
73.68800354003906
 30
58.76399993896484
 70
   192
  0
VERTEX
  5
3CB
  8
0
 10
-54.40800094604492
 20
55.19699859619141
 30
75.92900085449219
 70
   192
  0
VERTEX
  5
3CC
  8
0
 10
-54.40800094604492
 20
75.92900085449219
 30
55.19699859619141
 70
   192
  0
VERTEX
  5
3CD
  8
0
 10
-54.40800094604492
 20
84.91600036621094
 30
40.89400100708008
 70
   192
  0
VERTEX
  5
3CE
  8
0
 10
-67.45500183105469
 20
89.63700103759766
 30
29.125
 70
   192
  0
VERTEX
  5
3CF
  8
0
 10
-67.45500183105469
 20
94.25
 30
0.0
 70
   192
  0
VERTEX
  5
3D0
  8
0
 10
-54.40800094604492
 20
91.88700103759766
 30
20.97299957275391
 70
   192
  0
VERTEX
  5
3D1
  8
0
 10
-54.40800094604492
 20
89.0999984741211
 30
28.9370002746582
 70
   192
  0
VERTEX
  5
3D2
  8
0
 10
-54.40800094604492
 20
94.25
 30
0.0
 70
   192
  0
VERTEX
  5
3D3
  8
0
 10
-54.40800094604492
 20
91.88700103759766
 30
-20.97299957275391
 70
   192
  0
VERTEX
  5
3D4
  8
0
 10
-67.45500183105469
 20
89.63700103759766
 30
-29.125
 70
   192
  0
VERTEX
  5
3D5
  8
0
 10
-67.45500183105469
 20
76.25
 30
-55.39899826049805
 70
   192
  0
VERTEX
  5
3D6
  8
0
 10
-54.40800094604492
 20
84.91600036621094
 30
-40.89400100708008
 70
   192
  0
VERTEX
  5
3D7
  8
0
 10
-54.40800094604492
 20
89.0999984741211
 30
-28.9370002746582
 70
   192
  0
VERTEX
  5
3D8
  8
0
 10
-67.45500183105469
 20
55.39899826049805
 30
-76.25
 70
   192
  0
VERTEX
  5
3D9
  8
0
 10
-54.40800094604492
 20
73.68800354003906
 30
-58.76399993896484
 70
   192
  0
VERTEX
  5
3DA
  8
0
 10
-54.40800094604492
 20
58.76399993896484
 30
-73.68800354003906
 70
   192
  0
VERTEX
  5
3DB
  8
0
 10
-54.40800094604492
 20
75.92900085449219
 30
-55.19699859619141
 70
   192
  0
VERTEX
  5
3DC
  8
0
 10
-54.40800094604492
 20
55.19699859619141
 30
-75.92900085449219
 70
   192
  0
VERTEX
  5
3DD
  8
0
 10
-54.40800094604492
 20
40.89400100708008
 30
-84.91600036621094
 70
   192
  0
VERTEX
  5
3DE
  8
0
 10
-67.45500183105469
 20
29.125
 30
-89.63700103759766
 70
   192
  0
VERTEX
  5
3DF
  8
0
 10
-67.45500183105469
 20
0.0
 30
-94.25
 70
   192
  0
VERTEX
  5
3E0
  8
0
 10
-54.40800094604492
 20
20.97299957275391
 30
-91.88700103759766
 70
   192
  0
VERTEX
  5
3E1
  8
0
 10
-54.40800094604492
 20
28.9370002746582
 30
-89.0999984741211
 70
   192
  0
VERTEX
  5
3E2
  8
0
 10
-54.40800094604492
 20
0.0
 30
-94.25
 70
   192
  0
VERTEX
  5
3E3
  8
0
 10
-54.40800094604492
 20
-20.97299957275391
 30
-91.88700103759766
 70
   192
  0
VERTEX
  5
3E4
  8
0
 10
-67.45500183105469
 20
-29.125
 30
-89.63700103759766
 70
   192
  0
VERTEX
  5
3E5
  8
0
 10
-67.45500183105469
 20
-55.39899826049805
 30
-76.25
 70
   192
  0
VERTEX
  5
3E6
  8
0
 10
-54.40800094604492
 20
-40.89400100708008
 30
-84.91600036621094
 70
   192
  0
VERTEX
  5
3E7
  8
0
 10
-54.40800094604492
 20
-28.9370002746582
 30
-89.0999984741211
 70
   192
  0
VERTEX
  5
3E8
  8
0
 10
-54.40800094604492
 20
-58.76399993896484
 30
-73.68800354003906
 70
   192
  0
VERTEX
  5
3E9
  8
0
 10
-54.40800094604492
 20
-73.68800354003906
 30
-58.76399993896484
 70
   192
  0
VERTEX
  5
3EA
  8
0
 10
-67.45500183105469
 20
-76.25
 30
-55.39899826049805
 70
   192
  0
VERTEX
  5
3EB
  8
0
 10
-54.40800094604492
 20
-55.19699859619141
 30
-75.92900085449219
 70
   192
  0
VERTEX
  5
3EC
  8
0
 10
-54.40800094604492
 20
-75.92900085449219
 30
-55.19699859619141
 70
   192
  0
VERTEX
  5
3ED
  8
0
 10
-54.40800094604492
 20
-84.91600036621094
 30
-40.89400100708008
 70
   192
  0
VERTEX
  5
3EE
  8
0
 10
-67.45500183105469
 20
-89.63700103759766
 30
-29.125
 70
   192
  0
VERTEX
  5
3EF
  8
0
 10
-67.45500183105469
 20
-94.25
 30
0.0
 70
   192
  0
VERTEX
  5
3F0
  8
0
 10
-54.40800094604492
 20
-91.88700103759766
 30
-20.97299957275391
 70
   192
  0
VERTEX
  5
3F1
  8
0
 10
-54.40800094604492
 20
-89.0999984741211
 30
-28.9370002746582
 70
   192
  0
VERTEX
  5
3F2
  8
0
 10
-54.40800094604492
 20
-94.25
 30
0.0
 70
   192
  0
VERTEX
  5
3F3
  8
0
 10
-54.40800094604492
 20
-91.88700103759766
 30
20.97299957275391
 70
   192
  0
VERTEX
  5
3F4
  8
0
 10
-67.45500183105469
 20
-89.63700103759766
 30
29.125
 70
   192
  0
VERTEX
  5
3F5
  8
0
 10
-67.45500183105469
 20
-76.25
 30
55.39899826049805
 70
   192
  0
VERTEX
  5
3F6
  8
0
 10
-54.40800094604492
 20
-84.91600036621094
 30
40.89400100708008
 70
   192
  0
VERTEX
  5
3F7
  8
0
 10
-54.40800094604492
 20
-89.0999984741211
 30
28.9370002746582
 70
   192
  0
VERTEX
  5
3F8
  8
0
 10
-67.45500183105469
 20
-55.39899826049805
 30
76.25
 70
   192
  0
VERTEX
  5
3F9
  8
0
 10
-54.40800094604492
 20
-73.68800354003906
 30
58.76399993896484
 70
   192
  0
VERTEX
  5
3FA
  8
0
 10
-54.40800094604492
 20
-58.76399993896484
 30
73.68800354003906
 70
   192
  0
VERTEX
  5
3FB
  8
0
 10
-54.40800094604492
 20
-75.92900085449219
 30
55.19699859619141
 70
   192
  0
VERTEX
  5
3FC
  8
0
 10
-54.40800094604492
 20
-55.19699859619141
 30
75.92900085449219
 70
   192
  0
VERTEX
  5
3FD
  8
0
 10
-54.40800094604492
 20
-40.89400100708008
 30
84.91600036621094
 70
   192
  0
VERTEX
  5
3FE
  8
0
 10
-67.45500183105469
 20
-29.125
 30
89.63700103759766
 70
   192
  0
VERTEX
  5
3FF
  8
0
 10
-54.40800094604492
 20
-20.97299957275391
 30
91.88700103759766
 70
   192
  0
VERTEX
  5
400
  8
0
 10
-54.40800094604492
 20
-28.9370002746582
 30
89.0999984741211
 70
   192
  0
VERTEX
  5
401
  8
0
 62
     9
 10
0.0
 20
0.0
 30
0.0
 70
   128
 71
     3
 72
     2
 73
     1
  0
VERTEX
  5
402
  8
0
 62
     9
 10
0.0
 20
0.0
 30
0.0
 70
   128
 71
     1
 72
     4
 73
     3
  0
VERTEX
  5
403
  8
0
 62
     9
 10
0.0
 20
0.0
 30
0.0
 70
   128
 71
     6
 72
     4
 73
     5
  0
VERTEX
  5
404
  8
0
 62
     9
 10
0.0
 20
0.0
 30
0.0
 70
   128
 71
     6
 72
     7
 73
     4
  0
VERTEX
  5
405
  8
0
 62
     9
 10
0.0
 20
0.0
 30
0.0
 70
   128
 71
     9
 72
     5
 73
     8
  0
VERTEX
  5
406
  8
0
 62
     9
 10
0.0
 20
0.0
 30
0.0
 70
   128
 71
     8
 72
    10
 73
     9
  0
VERTEX
  5
407
  8
0
 62
     9
 10
0.0
 20
0.0
 30
0.0
 70
   128
 71
     9
 72
    11
 73
     5
  0
VERTEX
  5
408
  8
0
 62
     9
 10
0.0
 20
0.0
 30
0.0
 70
   128
 71
    13
 72
    12
 73
     8
  0
VERTEX
  5
409
  8
0
 62
     9
 10
0.0
 20
0.0
 30
0.0
 70
   128
 71
     8
 72
    14
 73
    13
  0
VERTEX
  5
40A
  8
0
 62
     9
 10
0.0
 20
0.0
 30
0.0
 70
   128
 71
    16
 72
    14
 73
    15
  0
VERTEX
  5
40B
  8
0
 62
     9
 10
0.0
 20
0.0
 30
0.0
 70
   128
 71
    16
 72
    17
 73
    14
  0
VERTEX
  5
40C
  8
0
 62
     9
 10
0.0
 20
0.0
 30
0.0
 70
   128
 71
    19
 72
    18
 73
    15
  0
VERTEX
  5
40D
  8
0
 62
     9
 10
0.0
 20
0.0
 30
0.0
 70
   128
 71
    15
 72
    20
 73
    19
  0
VERTEX
  5
40E
  8
0
 62
     9
 10
0.0
 20
0.0
 30
0.0
 70
   128
 71
    22
 72
    20
 73
    21
  0
VERTEX
  5
40F
  8
0
 62
     9
 10
0.0
 20
0.0
 30
0.0
 70
   128
 71
    22
 72
    23
 73
    20
  0
VERTEX
  5
410
  8
0
 62
     9
 10
0.0
 20
0.0
 30
0.0
 70
   128
 71
    25
 72
    21
 73
    24
  0
VERTEX
  5
411
  8
0
 62
     9
 10
0.0
 20
0.0
 30
0.0
 70
   128
 71
    24
 72
    26
 73
    25
  0
VERTEX
  5
412
  8
0
 62
     9
 10
0.0
 20
0.0
 30
0.0
 70
   128
 71
    25
 72
    27
 73
    21
  0
VERTEX
  5
413
  8
0
 62
     9
 10
0.0
 20
0.0
 30
0.0
 70
   128
 71
    29
 72
    28
 73
    24
  0
VERTEX
  5
414
  8
0
 62
     9
 10
0.0
 20
0.0
 30
0.0
 70
   128
 71
    24
 72
    30
 73
    29
  0
VERTEX
  5
415
  8
0
 62
     9
 10
0.0
 20
0.0
 30
0.0
 70
   128
 71
    32
 72
    30
 73
    31
  0
VERTEX
  5
416
  8
0
 62
     9
 10
0.0
 20
0.0
 30
0.0
 70
   128
 71
    32
 72
    33
 73
    30
  0
VERTEX
  5
417
  8
0
 62
     9
 10
0.0
 20
0.0
 30
0.0
 70
   128
 71
    35
 72
    34
 73
    31
  0
VERTEX
  5
418
  8
0
 62
     9
 10
0.0
 20
0.0
 30
0.0
 70
   128
 71
    31
 72
    36
 73
    35
  0
VERTEX
  5
419
  8
0
 62
     9
 10
0.0
 20
0.0
 30
0.0
 70
   128
 71
    38
 72
    36
 73
    37
  0
VERTEX
  5
41A
  8
0
 62
     9
 10
0.0
 20
0.0
 30
0.0
 70
   128
 71
    38
 72
    39
 73
    36
  0
VERTEX
  5
41B
  8
0
 62
     9
 10
0.0
 20
0.0
 30
0.0
 70
   128
 71
    41
 72
    40
 73
    37
  0
VERTEX
  5
41C
  8
0
 62
     9
 10
0.0
 20
0.0
 30
0.0
 70
   128
 71
    37
 72
    42
 73
    41
  0
VERTEX
  5
41D
  8
0
 62
     9
 10
0.0
 20
0.0
 30
0.0
 70
   128
 71
    40
 72
    43
 73
    37
  0
VERTEX
  5
41E
  8
0
 62
     9
 10
0.0
 20
0.0
 30
0.0
 70
   128
 71
    45
 72
    44
 73
    42
  0
VERTEX
  5
41F
  8
0
 62
     9
 10
0.0
 20
0.0
 30
0.0
 70
   128
 71
    42
 72
    46
 73
    45
  0
VERTEX
  5
420
  8
0
 62
     9
 10
0.0
 20
0.0
 30
0.0
 70
   128
 71
    48
 72
    46
 73
    47
  0
VERTEX
  5
421
  8
0
 62
     9
 10
0.0
 20
0.0
 30
0.0
 70
   128
 71
    48
 72
    49
 73
    46
  0
VERTEX
  5
422
  8
0
 62
     9
 10
0.0
 20
0.0
 30
0.0
 70
   128
 71
    51
 72
    50
 73
    47
  0
VERTEX
  5
423
  8
0
 62
     9
 10
0.0
 20
0.0
 30
0.0
 70
   128
 71
    47
 72
    52
 73
    51
  0
VERTEX
  5
424
  8
0
 62
     9
 10
0.0
 20
0.0
 30
0.0
 70
   128
 71
    54
 72
    52
 73
    53
  0
VERTEX
  5
425
  8
0
 62
     9
 10
0.0
 20
0.0
 30
0.0
 70
   128
 71
    54
 72
    55
 73
    52
  0
VERTEX
  5
426
  8
0
 62
     9
 10
0.0
 20
0.0
 30
0.0
 70
   128
 71
    57
 72
    53
 73
    56
  0
VERTEX
  5
427
  8
0
 62
     9
 10
0.0
 20
0.0
 30
0.0
 70
   128
 71
    56
 72
    58
 73
    57
  0
VERTEX
  5
428
  8
0
 62
     9
 10
0.0
 20
0.0
 30
0.0
 70
   128
 71
    57
 72
    59
 73
    53
  0
VERTEX
  5
429
  8
0
 62
     9
 10
0.0
 20
0.0
 30
0.0
 70
   128
 71
    61
 72
    60
 73
    56
  0
VERTEX
  5
42A
  8
0
 62
     9
 10
0.0
 20
0.0
 30
0.0
 70
   128
 71
    56
 72
    62
 73
    61
  0
VERTEX
  5
42B
  8
0
 62
     9
 10
0.0
 20
0.0
 30
0.0
 70
   128
 71
    63
 72
    62
 73
     1
  0
VERTEX
  5
42C
  8
0
 62
     9
 10
0.0
 20
0.0
 30
0.0
 70
   128
 71
    63
 72
    64
 73
    62
  0
VERTEX
  5
42D
  8
0
 62
     9
 10
0.0
 20
0.0
 30
0.0
 70
   128
 71
     1
 72
     2
 73
    63
  0
VERTEX
  5
42E
  8
0
 62
     9
 10
0.0
 20
0.0
 30
0.0
 70
   128
 71
    62
 72
    64
 73
    61
  0
VERTEX
  5
42F
  8
0
 62
     9
 10
0.0
 20
0.0
 30
0.0
 70
   128
 71
    56
 72
    60
 73
    58
  0
VERTEX
  5
430
  8
0
 62
     9
 10
0.0
 20
0.0
 30
0.0
 70
   128
 71
    53
 72
    59
 73
    54
  0
VERTEX
  5
431
  8
0
 62
     9
 10
0.0
 20
0.0
 30
0.0
 70
   128
 71
    52
 72
    55
 73
    51
  0
VERTEX
  5
432
  8
0
 62
     9
 10
0.0
 20
0.0
 30
0.0
 70
   128
 71
    47
 72
    50
 73
    48
  0
VERTEX
  5
433
  8
0
 62
     9
 10
0.0
 20
0.0
 30
0.0
 70
   128
 71
    46
 72
    49
 73
    45
  0
VERTEX
  5
434
  8
0
 62
     9
 10
0.0
 20
0.0
 30
0.0
 70
   128
 71
    42
 72
    44
 73
    41
  0
VERTEX
  5
435
  8
0
 62
     9
 10
0.0
 20
0.0
 30
0.0
 70
   128
 71
    37
 72
    43
 73
    38
  0
VERTEX
  5
436
  8
0
 62
     9
 10
0.0
 20
0.0
 30
0.0
 70
   128
 71
    36
 72
    39
 73
    35
  0
VERTEX
  5
437
  8
0
 62
     9
 10
0.0
 20
0.0
 30
0.0
 70
   128
 71
    31
 72
    34
 73
    32
  0
VERTEX
  5
438
  8
0
 62
     9
 10
0.0
 20
0.0
 30
0.0
 70
   128
 71
    30
 72
    33
 73
    29
  0
VERTEX
  5
439
  8
0
 62
     9
 10
0.0
 20
0.0
 30
0.0
 70
   128
 71
    24
 72
    28
 73
    26
  0
VERTEX
  5
43A
  8
0
 62
     9
 10
0.0
 20
0.0
 30
0.0
 70
   128
 71
    21
 72
    27
 73
    22
  0
VERTEX
  5
43B
  8
0
 62
     9
 10
0.0
 20
0.0
 30
0.0
 70
   128
 71
    20
 72
    23
 73
    19
  0
VERTEX
  5
43C
  8
0
 62
     9
 10
0.0
 20
0.0
 30
0.0
 70
   128
 71
    15
 72
    18
 73
    16
  0
VERTEX
  5
43D
  8
0
 62
     9
 10
0.0
 20
0.0
 30
0.0
 70
   128
 71
    14
 72
    17
 73
    13
  0
VERTEX
  5
43E
  8
0
 62
     9
 10
0.0
 20
0.0
 30
0.0
 70
   128
 71
     8
 72
    12
 73
    10
  0
VERTEX
  5
43F
  8
0
 62
     9
 10
0.0
 20
0.0
 30
0.0
 70
   128
 71
     5
 72
    11
 73
     6
  0
VERTEX
  5
440
  8
0
 62
     9
 10
0.0
 20
0.0
 30
0.0
 70
   128
 71
     4
 72
     7
 73
     3
  0
SEQEND
  5
441
  8
0
 62
     9
  0
ENDBLK
  5
444
  8
0
  0
BLOCK
  8
0
  2
E3_NODE_20_
 70
     0
 10
0.0
 20
0.0
 30
0.0
  3
E3_NODE_20_
  1

  0
POLYLINE
  5
446
  8
0
 62
     9
 66
     1
 10
0.0
 20
0.0
 30
0.0
 70
    64
 71
    20
 72
    18
  0
VERTEX
  5
447
  8
0
 10
-67.45500183105469
 20
-76.25
 30
-55.39899826049805
 70
   192
  0
VERTEX
  5
448
  8
0
 10
-67.45500183105469
 20
29.125
 30
-89.63700103759766
 70
   192
  0
VERTEX
  5
449
  8
0
 10
-67.45500183105469
 20
0.0
 30
-94.25
 70
   192
  0
VERTEX
  5
44A
  8
0
 10
-67.45500183105469
 20
89.63700103759766
 30
-29.125
 70
   192
  0
VERTEX
  5
44B
  8
0
 10
-67.45500183105469
 20
76.25
 30
-55.39899826049805
 70
   192
  0
VERTEX
  5
44C
  8
0
 10
-67.45500183105469
 20
76.25
 30
55.39899826049805
 70
   192
  0
VERTEX
  5
44D
  8
0
 10
-67.45500183105469
 20
-29.125
 30
89.63700103759766
 70
   192
  0
VERTEX
  5
44E
  8
0
 10
-67.45500183105469
 20
0.0
 30
94.25
 70
   192
  0
VERTEX
  5
44F
  8
0
 10
-67.45500183105469
 20
-89.63700103759766
 30
29.125
 70
   192
  0
VERTEX
  5
450
  8
0
 10
-67.45500183105469
 20
-76.25
 30
55.39899826049805
 70
   192
  0
VERTEX
  5
451
  8
0
 10
-67.45500183105469
 20
-29.125
 30
-89.63700103759766
 70
   192
  0
VERTEX
  5
452
  8
0
 10
-67.45500183105469
 20
55.39899826049805
 30
-76.25
 70
   192
  0
VERTEX
  5
453
  8
0
 10
-67.45500183105469
 20
89.63700103759766
 30
29.125
 70
   192
  0
VERTEX
  5
454
  8
0
 10
-67.45500183105469
 20
29.125
 30
89.63700103759766
 70
   192
  0
VERTEX
  5
455
  8
0
 10
-67.45500183105469
 20
-55.39899826049805
 30
76.25
 70
   192
  0
VERTEX
  5
456
  8
0
 10
-67.45500183105469
 20
-89.63700103759766
 30
-29.125
 70
   192
  0
VERTEX
  5
457
  8
0
 10
-67.45500183105469
 20
-94.25
 30
0.0
 70
   192
  0
VERTEX
  5
458
  8
0
 10
-67.45500183105469
 20
94.25
 30
0.0
 70
   192
  0
VERTEX
  5
459
  8
0
 10
-67.45500183105469
 20
55.39899826049805
 30
76.25
 70
   192
  0
VERTEX
  5
45A
  8
0
 10
-67.45500183105469
 20
-55.39899826049805
 30
-76.25
 70
   192
  0
VERTEX
  5
45B
  8
0
 62
     9
 10
0.0
 20
0.0
 30
0.0
 70
   128
 71
     3
 72
     2
 73
     1
  0
VERTEX
  5
45C
  8
0
 62
     9
 10
0.0
 20
0.0
 30
0.0
 70
   128
 71
     5
 72
     4
 73
     1
  0
VERTEX
  5
45D
  8
0
 62
     9
 10
0.0
 20
0.0
 30
0.0
 70
   128
 71
     8
 72
     7
 73
     6
  0
VERTEX
  5
45E
  8
0
 62
     9
 10
0.0
 20
0.0
 30
0.0
 70
   128
 71
    10
 72
     9
 73
     6
  0
VERTEX
  5
45F
  8
0
 62
     9
 10
0.0
 20
0.0
 30
0.0
 70
   128
 71
     1
 72
    11
 73
     3
  0
VERTEX
  5
460
  8
0
 62
     9
 10
0.0
 20
0.0
 30
0.0
 70
   128
 71
     1
 72
    12
 73
     5
  0
VERTEX
  5
461
  8
0
 62
     9
 10
0.0
 20
0.0
 30
0.0
 70
   128
 71
    13
 72
     6
 73
     1
  0
VERTEX
  5
462
  8
0
 62
     9
 10
0.0
 20
0.0
 30
0.0
 70
   128
 71
     6
 72
    14
 73
     8
  0
VERTEX
  5
463
  8
0
 62
     9
 10
0.0
 20
0.0
 30
0.0
 70
   128
 71
     6
 72
    15
 73
    10
  0
VERTEX
  5
464
  8
0
 62
     9
 10
0.0
 20
0.0
 30
0.0
 70
   128
 71
    17
 72
    16
 73
     6
  0
VERTEX
  5
465
  8
0
 62
     9
 10
0.0
 20
0.0
 30
0.0
 70
   128
 71
     1
 72
     2
 73
    12
  0
VERTEX
  5
466
  8
0
 62
     9
 10
0.0
 20
0.0
 30
0.0
 70
   128
 71
     1
 72
    18
 73
    13
  0
VERTEX
  5
467
  8
0
 62
     9
 10
0.0
 20
0.0
 30
0.0
 70
   128
 71
     6
 72
     7
 73
    15
  0
VERTEX
  5
468
  8
0
 62
     9
 10
0.0
 20
0.0
 30
0.0
 70
   128
 71
    16
 72
     1
 73
     6
  0
VERTEX
  5
469
  8
0
 62
     9
 10
0.0
 20
0.0
 30
0.0
 70
   128
 71
     1
 72
     4
 73
    18
  0
VERTEX
  5
46A
  8
0
 62
     9
 10
0.0
 20
0.0
 30
0.0
 70
   128
 71
     6
 72
     9
 73
    17
  0
VERTEX
  5
46B
  8
0
 62
     9
 10
0.0
 20
0.0
 30
0.0
 70
   128
 71
     6
 72
    19
 73
    14
  0
VERTEX
  5
46C
  8
0
 62
     9
 10
0.0
 20
0.0
 30
0.0
 70
   128
 71
     1
 72
    20
 73
    11
  0
SEQEND
  5
46D
  8
0
 62
     9
  0
ENDBLK
  5
470
  8
0
  0
ENDSEC
  0
SECTION
  2
ENTITIES
  0
INSERT
  5
52
  8
LAYER_1
  2
E3_NODE
 10
0.0
 20
0.0
 30
0.0
  0
INSERT
  5
8C
  8
LAYER_1
  2
E3_NODE_1_
 10
0.0
 20
0.0
 30
0.0
  0
INSERT
  5
FA
  8
LAYER_1
  2
E3_NODE_2_
 10
0.0
 20
0.0
 30
0.0
  0
INSERT
  5
114
  8
LAYER_1
  2
E3_NODE_3_
 10
0.0
 20
0.0
 30
0.0
  0
INSERT
  5
16C
  8
LAYER_1
  2
E3_NODE_4_
 10
0.0
 20
0.0
 30
0.0
  0
INSERT
  5
184
  8
LAYER_1
  2
E3_NODE_5_
 10
0.0
 20
0.0
 30
0.0
  0
INSERT
  5
19A
  8
LAYER_1
  2
E3_NODE_6_
 10
0.0
 20
0.0
 30
0.0
  0
INSERT
  5
1A6
  8
LAYER_1
  2
E3_NODE_7_
 10
0.0
 20
0.0
 30
0.0
  0
INSERT
  5
1B6
  8
LAYER_1
  2
E3_NODE_8_
 10
0.0
 20
0.0
 30
0.0
  0
INSERT
  5
239
  8
LAYER_1
  2
E3_NODE_9_
 10
0.0
 20
0.0
 30
0.0
  0
INSERT
  5
287
  8
LAYER_1
  2
E3_NODE_10_
 10
0.0
 20
0.0
 30
0.0
  0
INSERT
  5
297
  8
LAYER_1
  2
E3_NODE_11_
 10
0.0
 20
0.0
 30
0.0
  0
INSERT
  5
2B3
  8
LAYER_1
  2
E3_NODE_12_
 10
0.0
 20
0.0
 30
0.0
  0
INSERT
  5
2C7
  8
LAYER_1
  2
E3_NODE_13_
 10
0.0
 20
0.0
 30
0.0
  0
INSERT
  5
2F9
  8
LAYER_1
  2
E3_NODE_14_
 10
0.0
 20
0.0
 30
0.0
  0
INSERT
  5
329
  8
LAYER_1
  2
E3_NODE_15_
 10
0.0
 20
0.0
 30
0.0
  0
INSERT
  5
34B
  8
LAYER_1
  2
E3_NODE_16_
 10
0.0
 20
0.0
 30
0.0
  0
INSERT
  5
35D
  8
LAYER_1
  2
E3_NODE_17_
 10
0.0
 20
0.0
 30
0.0
  0
INSERT
  5
3BC
  8
LAYER_1
  2
E3_NODE_18_
 10
0.0
 20
0.0
 30
0.0
  0
INSERT
  5
442
  8
LAYER_1
  2
E3_NODE_19_
 10
0.0
 20
0.0
 30
0.0
  0
INSERT
  5
46E
  8
LAYER_1
  2
E3_NODE_20_
 10
0.0
 20
0.0
 30
0.0
  0
ENDSEC
  0
EOF
