999
Converted by 3D Exploration 
999
XDimension Software, LLC
999
http://www.xdsoft.com/explorer/
0
SECTION
2
HEADER
9
$ACADVER
1
AC1008
9
$UCSORG
10
0.0
20
0.0
30
0.0
9
$UCSXDIR
10
1.0
20
0.0
30
0.0
9
$TILEMODE
70
1
9
$UCSYDIR
10
0.0
20
1.0
30
0.0
9
$EXTMIN
10
-17.000000
20
-17.000000
30
-17.000000
9
$EXTMAX
10
17.000000
20
16.764000
30
215.000000
0
ENDSEC
0
SECTION
2
TABLES
0
TABLE
2
LTYPE
70
1
0
LTYPE
2
CONTINUOUS
70
64
3
Solid line
72
65
73
0
40
0.0
0
ENDTAB
0
TABLE
2
LAYER
70
103
0
LAYER
2
OBJECT__0
70
0
62
253
6
CONTINUOUS
0
LAYER
2
OBJECT__1
70
0
62
253
6
CONTINUOUS
0
LAYER
2
OBJECT__3
70
0
62
253
6
CONTINUOUS
0
LAYER
2
OBJECT__4
70
0
62
253
6
CONTINUOUS
0
LAYER
2
OBJECT__5
70
0
62
253
6
CONTINUOUS
0
LAYER
2
OBJECT__7
70
0
62
253
6
CONTINUOUS
0
LAYER
2
OBJECT__8
70
0
62
253
6
CONTINUOUS
0
LAYER
2
OBJECT__9
70
0
62
253
6
CONTINUOUS
0
LAYER
2
OBJECT__10
70
0
62
253
6
CONTINUOUS
0
LAYER
2
OBJECT__11
70
0
62
253
6
CONTINUOUS
0
LAYER
2
OBJECT__12
70
0
62
253
6
CONTINUOUS
0
LAYER
2
OBJECT__13
70
0
62
253
6
CONTINUOUS
0
LAYER
2
OBJECT__14
70
0
62
253
6
CONTINUOUS
0
LAYER
2
OBJECT__15
70
0
62
253
6
CONTINUOUS
0
LAYER
2
OBJECT__16
70
0
62
253
6
CONTINUOUS
0
LAYER
2
OBJECT__17
70
0
62
253
6
CONTINUOUS
0
LAYER
2
OBJECT__18
70
0
62
253
6
CONTINUOUS
0
LAYER
2
OBJECT__19
70
0
62
253
6
CONTINUOUS
0
LAYER
2
OBJECT__20
70
0
62
253
6
CONTINUOUS
0
LAYER
2
OBJECT__21
70
0
62
253
6
CONTINUOUS
0
LAYER
2
OBJECT__22
70
0
62
253
6
CONTINUOUS
0
LAYER
2
OBJECT__23
70
0
62
253
6
CONTINUOUS
0
LAYER
2
OBJECT__24
70
0
62
253
6
CONTINUOUS
0
LAYER
2
OBJECT__25
70
0
62
253
6
CONTINUOUS
0
LAYER
2
OBJECT__26
70
0
62
253
6
CONTINUOUS
0
LAYER
2
OBJECT__27
70
0
62
253
6
CONTINUOUS
0
LAYER
2
OBJECT__28
70
0
62
253
6
CONTINUOUS
0
LAYER
2
OBJECT__29
70
0
62
253
6
CONTINUOUS
0
LAYER
2
OBJECT__30
70
0
62
253
6
CONTINUOUS
0
LAYER
2
OBJECT__31
70
0
62
253
6
CONTINUOUS
0
LAYER
2
OBJECT__32
70
0
62
253
6
CONTINUOUS
0
LAYER
2
OBJECT__33
70
0
62
253
6
CONTINUOUS
0
LAYER
2
OBJECT__34
70
0
62
253
6
CONTINUOUS
0
LAYER
2
OBJECT__35
70
0
62
253
6
CONTINUOUS
0
LAYER
2
OBJECT__36
70
0
62
253
6
CONTINUOUS
0
LAYER
2
OBJECT__37
70
0
62
253
6
CONTINUOUS
0
LAYER
2
OBJECT__38
70
0
62
253
6
CONTINUOUS
0
LAYER
2
OBJECT__39
70
0
62
253
6
CONTINUOUS
0
LAYER
2
OBJECT__40
70
0
62
253
6
CONTINUOUS
0
LAYER
2
OBJECT__41
70
0
62
253
6
CONTINUOUS
0
LAYER
2
OBJECT__42
70
0
62
253
6
CONTINUOUS
0
LAYER
2
OBJECT__43
70
0
62
253
6
CONTINUOUS
0
LAYER
2
OBJECT__44
70
0
62
253
6
CONTINUOUS
0
LAYER
2
OBJECT__45
70
0
62
253
6
CONTINUOUS
0
LAYER
2
OBJECT__46
70
0
62
253
6
CONTINUOUS
0
LAYER
2
OBJECT__47
70
0
62
253
6
CONTINUOUS
0
LAYER
2
OBJECT__48
70
0
62
253
6
CONTINUOUS
0
LAYER
2
OBJECT__49
70
0
62
253
6
CONTINUOUS
0
LAYER
2
OBJECT__50
70
0
62
253
6
CONTINUOUS
0
LAYER
2
OBJECT__51
70
0
62
253
6
CONTINUOUS
0
LAYER
2
OBJECT__52
70
0
62
253
6
CONTINUOUS
0
LAYER
2
OBJECT__53
70
0
62
253
6
CONTINUOUS
0
LAYER
2
OBJECT__54
70
0
62
253
6
CONTINUOUS
0
LAYER
2
OBJECT__55
70
0
62
253
6
CONTINUOUS
0
LAYER
2
OBJECT__56
70
0
62
253
6
CONTINUOUS
0
LAYER
2
OBJECT__57
70
0
62
253
6
CONTINUOUS
0
LAYER
2
OBJECT__58
70
0
62
253
6
CONTINUOUS
0
LAYER
2
OBJECT__59
70
0
62
253
6
CONTINUOUS
0
LAYER
2
OBJECT__60
70
0
62
253
6
CONTINUOUS
0
LAYER
2
OBJECT__61
70
0
62
253
6
CONTINUOUS
0
LAYER
2
OBJECT__62
70
0
62
253
6
CONTINUOUS
0
LAYER
2
OBJECT__63
70
0
62
253
6
CONTINUOUS
0
LAYER
2
OBJECT__64
70
0
62
253
6
CONTINUOUS
0
LAYER
2
OBJECT__65
70
0
62
253
6
CONTINUOUS
0
LAYER
2
OBJECT__66
70
0
62
253
6
CONTINUOUS
0
LAYER
2
OBJECT__67
70
0
62
253
6
CONTINUOUS
0
LAYER
2
OBJECT__68
70
0
62
253
6
CONTINUOUS
0
LAYER
2
OBJECT__69
70
0
62
253
6
CONTINUOUS
0
LAYER
2
OBJECT__70
70
0
62
253
6
CONTINUOUS
0
LAYER
2
OBJECT__71
70
0
62
253
6
CONTINUOUS
0
LAYER
2
OBJECT__72
70
0
62
253
6
CONTINUOUS
0
LAYER
2
OBJECT__73
70
0
62
253
6
CONTINUOUS
0
LAYER
2
OBJECT__74
70
0
62
253
6
CONTINUOUS
0
LAYER
2
OBJECT__75
70
0
62
253
6
CONTINUOUS
0
LAYER
2
OBJECT__76
70
0
62
253
6
CONTINUOUS
0
LAYER
2
OBJECT__77
70
0
62
253
6
CONTINUOUS
0
LAYER
2
OBJECT__78
70
0
62
253
6
CONTINUOUS
0
LAYER
2
OBJECT__79
70
0
62
253
6
CONTINUOUS
0
LAYER
2
OBJECT__80
70
0
62
253
6
CONTINUOUS
0
LAYER
2
OBJECT__81
70
0
62
253
6
CONTINUOUS
0
LAYER
2
OBJECT__82
70
0
62
253
6
CONTINUOUS
0
LAYER
2
OBJECT__83
70
0
62
253
6
CONTINUOUS
0
LAYER
2
OBJECT__84
70
0
62
253
6
CONTINUOUS
0
LAYER
2
OBJECT__85
70
0
62
253
6
CONTINUOUS
0
LAYER
2
OBJECT__86
70
0
62
253
6
CONTINUOUS
0
LAYER
2
OBJECT__87
70
0
62
253
6
CONTINUOUS
0
LAYER
2
OBJECT__88
70
0
62
253
6
CONTINUOUS
0
LAYER
2
OBJECT__89
70
0
62
253
6
CONTINUOUS
0
LAYER
2
OBJECT__90
70
0
62
253
6
CONTINUOUS
0
LAYER
2
OBJECT__91
70
0
62
253
6
CONTINUOUS
0
LAYER
2
OBJECT__92
70
0
62
253
6
CONTINUOUS
0
LAYER
2
OBJECT__93
70
0
62
253
6
CONTINUOUS
0
LAYER
2
OBJECT__94
70
0
62
253
6
CONTINUOUS
0
LAYER
2
OBJECT__95
70
0
62
253
6
CONTINUOUS
0
LAYER
2
OBJECT__96
70
0
62
253
6
CONTINUOUS
0
LAYER
2
OBJECT__97
70
0
62
253
6
CONTINUOUS
0
LAYER
2
OBJECT__98
70
0
62
253
6
CONTINUOUS
0
LAYER
2
OBJECT__99
70
0
62
253
6
CONTINUOUS
0
LAYER
2
OBJECT__100
70
0
62
253
6
CONTINUOUS
0
LAYER
2
OBJECT__101
70
0
62
253
6
CONTINUOUS
0
LAYER
2
OBJECT__102
70
0
62
253
6
CONTINUOUS
0
ENDTAB
0
TABLE
2
STYLE
70
1
0
STYLE
2
STANDARD
70
0
40
0.0
41
1.0
50
0.0
71
0
42
0.2
3
txt
4
1
0
ENDTAB
0
TABLE
2
UCS
70
0
0
ENDTAB
0
ENDSEC
0
SECTION
2
ENTITIES
0
POLYLINE
8
OBJECT__0
66
1
70
64
71
8
72
6
62
253
0
VERTEX
8
OBJECT__0
10
-7.410000
20
7.410000
30
0.000000
70
192
0
VERTEX
8
OBJECT__0
10
0.000000
20
-10.480000
30
0.000000
70
192
0
VERTEX
8
OBJECT__0
10
-7.410000
20
-7.410000
30
0.000000
70
192
0
VERTEX
8
OBJECT__0
10
0.000000
20
10.480000
30
0.000000
70
192
0
VERTEX
8
OBJECT__0
10
7.410000
20
7.410000
30
0.000000
70
192
0
VERTEX
8
OBJECT__0
10
-10.480000
20
0.000000
30
0.000000
70
192
0
VERTEX
8
OBJECT__0
10
10.480000
20
0.000000
30
0.000000
70
192
0
VERTEX
8
OBJECT__0
10
7.410000
20
-7.410000
30
0.000000
70
192
0
VERTEX
8
OBJECT__0
10
0
20
0
30
0
70
128
71
1
72
2
73
3
0
VERTEX
8
OBJECT__0
10
0
20
0
30
0
70
128
71
2
72
4
73
5
0
VERTEX
8
OBJECT__0
10
0
20
0
30
0
70
128
71
3
72
6
73
1
0
VERTEX
8
OBJECT__0
10
0
20
0
30
0
70
128
71
5
72
7
73
2
0
VERTEX
8
OBJECT__0
10
0
20
0
30
0
70
128
71
7
72
8
73
2
0
VERTEX
8
OBJECT__0
10
0
20
0
30
0
70
128
71
1
72
4
73
2
0
SEQEND
8
OBJECT__0
0
POLYLINE
8
OBJECT__1
66
1
70
64
71
18
72
18
62
253
0
VERTEX
8
OBJECT__1
10
7.410000
20
-7.410000
30
10.000000
70
192
0
VERTEX
8
OBJECT__1
10
7.410000
20
-7.410000
30
0.000000
70
192
0
VERTEX
8
OBJECT__1
10
10.480000
20
0.000000
30
0.000000
70
192
0
VERTEX
8
OBJECT__1
10
0.000000
20
-10.480000
30
0.000000
70
192
0
VERTEX
8
OBJECT__1
10
4.011000
20
-9.682000
30
10.000000
70
192
0
VERTEX
8
OBJECT__1
10
-7.410000
20
-7.410000
30
0.000000
70
192
0
VERTEX
8
OBJECT__1
10
0.000000
20
-10.480000
30
10.000000
70
192
0
VERTEX
8
OBJECT__1
10
-10.480000
20
0.000000
30
10.000000
70
192
0
VERTEX
8
OBJECT__1
10
-10.480000
20
0.000000
30
0.000000
70
192
0
VERTEX
8
OBJECT__1
10
-7.410000
20
7.410000
30
10.000000
70
192
0
VERTEX
8
OBJECT__1
10
-7.410000
20
7.410000
30
0.000000
70
192
0
VERTEX
8
OBJECT__1
10
0.000000
20
10.480000
30
0.000000
70
192
0
VERTEX
8
OBJECT__1
10
-4.011000
20
9.682000
30
10.000000
70
192
0
VERTEX
8
OBJECT__1
10
7.410000
20
7.410000
30
10.000000
70
192
0
VERTEX
8
OBJECT__1
10
7.410000
20
7.410000
30
0.000000
70
192
0
VERTEX
8
OBJECT__1
10
10.480000
20
0.000000
30
10.000000
70
192
0
VERTEX
8
OBJECT__1
10
0.000000
20
10.480000
30
10.000000
70
192
0
VERTEX
8
OBJECT__1
10
-7.410000
20
-7.410000
30
10.000000
70
192
0
VERTEX
8
OBJECT__1
10
0
20
0
30
0
70
128
71
1
72
2
73
3
0
VERTEX
8
OBJECT__1
10
0
20
0
30
0
70
128
71
4
72
2
73
5
0
VERTEX
8
OBJECT__1
10
0
20
0
30
0
70
128
71
2
72
1
73
5
0
VERTEX
8
OBJECT__1
10
0
20
0
30
0
70
128
71
6
72
4
73
7
0
VERTEX
8
OBJECT__1
10
0
20
0
30
0
70
128
71
8
72
9
73
6
0
VERTEX
8
OBJECT__1
10
0
20
0
30
0
70
128
71
10
72
11
73
9
0
VERTEX
8
OBJECT__1
10
0
20
0
30
0
70
128
71
12
72
11
73
13
0
VERTEX
8
OBJECT__1
10
0
20
0
30
0
70
128
71
11
72
10
73
13
0
VERTEX
8
OBJECT__1
10
0
20
0
30
0
70
128
71
14
72
15
73
12
0
VERTEX
8
OBJECT__1
10
0
20
0
30
0
70
128
71
16
72
3
73
15
0
VERTEX
8
OBJECT__1
10
0
20
0
30
0
70
128
71
15
72
14
73
16
0
VERTEX
8
OBJECT__1
10
0
20
0
30
0
70
128
71
12
72
17
73
14
0
VERTEX
8
OBJECT__1
10
0
20
0
30
0
70
128
71
13
72
17
73
12
0
VERTEX
8
OBJECT__1
10
0
20
0
30
0
70
128
71
9
72
8
73
10
0
VERTEX
8
OBJECT__1
10
0
20
0
30
0
70
128
71
6
72
18
73
8
0
VERTEX
8
OBJECT__1
10
0
20
0
30
0
70
128
71
7
72
18
73
6
0
VERTEX
8
OBJECT__1
10
0
20
0
30
0
70
128
71
5
72
7
73
4
0
VERTEX
8
OBJECT__1
10
0
20
0
30
0
70
128
71
3
72
16
73
1
0
SEQEND
8
OBJECT__1
0
POLYLINE
8
OBJECT__3
66
1
70
64
71
28
72
28
62
253
0
VERTEX
8
OBJECT__3
10
3.177000
20
-10.427000
30
10.000000
70
192
0
VERTEX
8
OBJECT__3
10
4.011000
20
-9.682000
30
10.000000
70
192
0
VERTEX
8
OBJECT__3
10
7.410000
20
-7.410000
30
10.000000
70
192
0
VERTEX
8
OBJECT__3
10
0.000000
20
-10.480000
30
10.000000
70
192
0
VERTEX
8
OBJECT__3
10
10.480000
20
0.000000
30
10.000000
70
192
0
VERTEX
8
OBJECT__3
10
10.854000
20
-1.000000
30
10.000000
70
192
0
VERTEX
8
OBJECT__3
10
8.452000
20
-6.883000
30
10.000000
70
192
0
VERTEX
8
OBJECT__3
10
0.000000
20
-10.900000
30
10.000000
70
192
0
VERTEX
8
OBJECT__3
10
-3.177000
20
-10.427000
30
10.000000
70
192
0
VERTEX
8
OBJECT__3
10
-8.452000
20
-6.883000
30
10.000000
70
192
0
VERTEX
8
OBJECT__3
10
-7.410000
20
-7.410000
30
10.000000
70
192
0
VERTEX
8
OBJECT__3
10
-3.177000
20
10.427000
30
10.000000
70
192
0
VERTEX
8
OBJECT__3
10
-4.011000
20
9.682000
30
10.000000
70
192
0
VERTEX
8
OBJECT__3
10
-7.410000
20
7.410000
30
10.000000
70
192
0
VERTEX
8
OBJECT__3
10
0.000000
20
10.480000
30
10.000000
70
192
0
VERTEX
8
OBJECT__3
10
-10.480000
20
0.000000
30
10.000000
70
192
0
VERTEX
8
OBJECT__3
10
0.000000
20
10.900000
30
10.000000
70
192
0
VERTEX
8
OBJECT__3
10
3.177000
20
10.427000
30
10.000000
70
192
0
VERTEX
8
OBJECT__3
10
-10.854000
20
-1.000000
30
10.000000
70
192
0
VERTEX
8
OBJECT__3
10
11.954000
20
1.000000
30
10.000000
70
192
0
VERTEX
8
OBJECT__3
10
11.954000
20
-1.000000
30
10.000000
70
192
0
VERTEX
8
OBJECT__3
10
-8.452000
20
6.883000
30
10.000000
70
192
0
VERTEX
8
OBJECT__3
10
8.452000
20
6.883000
30
10.000000
70
192
0
VERTEX
8
OBJECT__3
10
7.410000
20
7.410000
30
10.000000
70
192
0
VERTEX
8
OBJECT__3
10
10.854000
20
1.000000
30
10.000000
70
192
0
VERTEX
8
OBJECT__3
10
-11.954000
20
-1.000000
30
10.000000
70
192
0
VERTEX
8
OBJECT__3
10
-11.954000
20
1.000000
30
10.000000
70
192
0
VERTEX
8
OBJECT__3
10
-10.854000
20
1.000000
30
10.000000
70
192
0
VERTEX
8
OBJECT__3
10
0
20
0
30
0
70
128
71
1
72
2
73
3
0
VERTEX
8
OBJECT__3
10
0
20
0
30
0
70
128
71
4
72
2
73
1
0
VERTEX
8
OBJECT__3
10
0
20
0
30
0
70
128
71
5
72
6
73
7
0
VERTEX
8
OBJECT__3
10
0
20
0
30
0
70
128
71
1
72
8
73
4
0
VERTEX
8
OBJECT__3
10
0
20
0
30
0
70
128
71
4
72
8
73
9
0
VERTEX
8
OBJECT__3
10
0
20
0
30
0
70
128
71
3
72
7
73
1
0
VERTEX
8
OBJECT__3
10
0
20
0
30
0
70
128
71
9
72
10
73
11
0
VERTEX
8
OBJECT__3
10
0
20
0
30
0
70
128
71
12
72
13
73
14
0
VERTEX
8
OBJECT__3
10
0
20
0
30
0
70
128
71
15
72
13
73
12
0
VERTEX
8
OBJECT__3
10
0
20
0
30
0
70
128
71
9
72
11
73
4
0
VERTEX
8
OBJECT__3
10
0
20
0
30
0
70
128
71
16
72
11
73
10
0
VERTEX
8
OBJECT__3
10
0
20
0
30
0
70
128
71
12
72
17
73
15
0
VERTEX
8
OBJECT__3
10
0
20
0
30
0
70
128
71
15
72
17
73
18
0
VERTEX
8
OBJECT__3
10
0
20
0
30
0
70
128
71
10
72
19
73
16
0
VERTEX
8
OBJECT__3
10
0
20
0
30
0
70
128
71
20
72
21
73
6
0
VERTEX
8
OBJECT__3
10
0
20
0
30
0
70
128
71
14
72
22
73
12
0
VERTEX
8
OBJECT__3
10
0
20
0
30
0
70
128
71
18
72
23
73
24
0
VERTEX
8
OBJECT__3
10
0
20
0
30
0
70
128
71
7
72
3
73
5
0
VERTEX
8
OBJECT__3
10
0
20
0
30
0
70
128
71
6
72
5
73
20
0
VERTEX
8
OBJECT__3
10
0
20
0
30
0
70
128
71
18
72
24
73
15
0
VERTEX
8
OBJECT__3
10
0
20
0
30
0
70
128
71
5
72
24
73
23
0
VERTEX
8
OBJECT__3
10
0
20
0
30
0
70
128
71
5
72
25
73
20
0
VERTEX
8
OBJECT__3
10
0
20
0
30
0
70
128
71
23
72
25
73
5
0
VERTEX
8
OBJECT__3
10
0
20
0
30
0
70
128
71
26
72
27
73
28
0
VERTEX
8
OBJECT__3
10
0
20
0
30
0
70
128
71
14
72
28
73
22
0
VERTEX
8
OBJECT__3
10
0
20
0
30
0
70
128
71
28
72
16
73
26
0
VERTEX
8
OBJECT__3
10
0
20
0
30
0
70
128
71
28
72
14
73
16
0
VERTEX
8
OBJECT__3
10
0
20
0
30
0
70
128
71
19
72
26
73
16
0
SEQEND
8
OBJECT__3
0
POLYLINE
8
OBJECT__4
66
1
70
64
71
10
72
8
62
253
0
VERTEX
8
OBJECT__4
10
2.171000
20
12.310000
30
10.000000
70
192
0
VERTEX
8
OBJECT__4
10
9.576000
20
8.035000
30
10.000000
70
192
0
VERTEX
8
OBJECT__4
10
12.500000
20
0.000000
30
10.000000
70
192
0
VERTEX
8
OBJECT__4
10
-11.746000
20
4.275000
30
10.000000
70
192
0
VERTEX
8
OBJECT__4
10
2.171000
20
-12.310000
30
10.000000
70
192
0
VERTEX
8
OBJECT__4
10
-6.250000
20
-10.825000
30
10.000000
70
192
0
VERTEX
8
OBJECT__4
10
9.576000
20
-8.035000
30
10.000000
70
192
0
VERTEX
8
OBJECT__4
10
-11.746000
20
-4.275000
30
10.000000
70
192
0
VERTEX
8
OBJECT__4
10
0.000000
20
12.500000
30
10.000000
70
192
0
VERTEX
8
OBJECT__4
10
-6.250000
20
10.825000
30
10.000000
70
192
0
VERTEX
8
OBJECT__4
10
0
20
0
30
0
70
128
71
1
72
2
73
3
0
VERTEX
8
OBJECT__4
10
0
20
0
30
0
70
128
71
4
72
5
73
6
0
VERTEX
8
OBJECT__4
10
0
20
0
30
0
70
128
71
3
72
7
73
1
0
VERTEX
8
OBJECT__4
10
0
20
0
30
0
70
128
71
6
72
8
73
4
0
VERTEX
8
OBJECT__4
10
0
20
0
30
0
70
128
71
5
72
9
73
1
0
VERTEX
8
OBJECT__4
10
0
20
0
30
0
70
128
71
4
72
10
73
5
0
VERTEX
8
OBJECT__4
10
0
20
0
30
0
70
128
71
10
72
9
73
5
0
VERTEX
8
OBJECT__4
10
0
20
0
30
0
70
128
71
7
72
5
73
1
0
SEQEND
8
OBJECT__4
0
POLYLINE
8
OBJECT__5
66
1
70
64
71
34
72
34
62
253
0
VERTEX
8
OBJECT__5
10
12.500000
20
0.000000
30
10.000000
70
192
0
VERTEX
8
OBJECT__5
10
12.500000
20
0.000000
30
103.789001
70
192
0
VERTEX
8
OBJECT__5
10
10.873000
20
-4.469000
30
103.789001
70
192
0
VERTEX
8
OBJECT__5
10
9.576000
20
-8.035000
30
10.000000
70
192
0
VERTEX
8
OBJECT__5
10
8.686000
20
-8.548000
30
103.789001
70
192
0
VERTEX
8
OBJECT__5
10
4.416000
20
-11.014000
30
103.789001
70
192
0
VERTEX
8
OBJECT__5
10
2.171000
20
-12.310000
30
10.000000
70
192
0
VERTEX
8
OBJECT__5
10
9.576000
20
-8.035000
30
103.789001
70
192
0
VERTEX
8
OBJECT__5
10
-6.250000
20
-10.825000
30
10.000000
70
192
0
VERTEX
8
OBJECT__5
10
0.026000
20
-11.932000
30
103.789001
70
192
0
VERTEX
8
OBJECT__5
10
-4.761000
20
-11.088000
30
103.789001
70
192
0
VERTEX
8
OBJECT__5
10
2.171000
20
-12.310000
30
103.789001
70
192
0
VERTEX
8
OBJECT__5
10
-11.746000
20
-4.275000
30
10.000000
70
192
0
VERTEX
8
OBJECT__5
10
-8.320000
20
-8.358000
30
103.789001
70
192
0
VERTEX
8
OBJECT__5
10
-11.427000
20
-4.656000
30
103.789001
70
192
0
VERTEX
8
OBJECT__5
10
-6.250000
20
-10.825000
30
103.789001
70
192
0
VERTEX
8
OBJECT__5
10
-11.746000
20
-4.275000
30
103.789001
70
192
0
VERTEX
8
OBJECT__5
10
-11.746000
20
0.005000
30
103.789001
70
192
0
VERTEX
8
OBJECT__5
10
-11.746000
20
4.275000
30
10.000000
70
192
0
VERTEX
8
OBJECT__5
10
-11.425000
20
4.658000
30
103.789001
70
192
0
VERTEX
8
OBJECT__5
10
-8.323000
20
8.354000
30
103.789001
70
192
0
VERTEX
8
OBJECT__5
10
-6.250000
20
10.825000
30
10.000000
70
192
0
VERTEX
8
OBJECT__5
10
-11.746000
20
4.275000
30
103.789001
70
192
0
VERTEX
8
OBJECT__5
10
0.000000
20
12.500000
30
10.000000
70
192
0
VERTEX
8
OBJECT__5
10
-4.765000
20
11.087000
30
103.789001
70
192
0
VERTEX
8
OBJECT__5
10
-6.250000
20
10.825000
30
103.789001
70
192
0
VERTEX
8
OBJECT__5
10
2.171000
20
12.310000
30
10.000000
70
192
0
VERTEX
8
OBJECT__5
10
0.023000
20
11.931000
30
103.789001
70
192
0
VERTEX
8
OBJECT__5
10
2.171000
20
12.310000
30
103.789001
70
192
0
VERTEX
8
OBJECT__5
10
9.576000
20
8.035000
30
10.000000
70
192
0
VERTEX
8
OBJECT__5
10
4.413000
20
11.016000
30
103.789001
70
192
0
VERTEX
8
OBJECT__5
10
8.682000
20
8.551000
30
103.789001
70
192
0
VERTEX
8
OBJECT__5
10
11.592000
20
4.676000
30
103.789001
70
192
0
VERTEX
8
OBJECT__5
10
9.576000
20
8.035000
30
103.789001
70
192
0
VERTEX
8
OBJECT__5
10
0
20
0
30
0
70
128
71
1
72
2
73
3
0
VERTEX
8
OBJECT__5
10
0
20
0
30
0
70
128
71
3
72
4
73
1
0
VERTEX
8
OBJECT__5
10
0
20
0
30
0
70
128
71
4
72
5
73
6
0
VERTEX
8
OBJECT__5
10
0
20
0
30
0
70
128
71
6
72
7
73
4
0
VERTEX
8
OBJECT__5
10
0
20
0
30
0
70
128
71
4
72
8
73
5
0
VERTEX
8
OBJECT__5
10
0
20
0
30
0
70
128
71
9
72
7
73
10
0
VERTEX
8
OBJECT__5
10
0
20
0
30
0
70
128
71
10
72
11
73
9
0
VERTEX
8
OBJECT__5
10
0
20
0
30
0
70
128
71
7
72
12
73
10
0
VERTEX
8
OBJECT__5
10
0
20
0
30
0
70
128
71
13
72
9
73
14
0
VERTEX
8
OBJECT__5
10
0
20
0
30
0
70
128
71
14
72
15
73
13
0
VERTEX
8
OBJECT__5
10
0
20
0
30
0
70
128
71
9
72
16
73
14
0
VERTEX
8
OBJECT__5
10
0
20
0
30
0
70
128
71
13
72
17
73
18
0
VERTEX
8
OBJECT__5
10
0
20
0
30
0
70
128
71
18
72
19
73
13
0
VERTEX
8
OBJECT__5
10
0
20
0
30
0
70
128
71
19
72
20
73
21
0
VERTEX
8
OBJECT__5
10
0
20
0
30
0
70
128
71
21
72
22
73
19
0
VERTEX
8
OBJECT__5
10
0
20
0
30
0
70
128
71
19
72
23
73
20
0
VERTEX
8
OBJECT__5
10
0
20
0
30
0
70
128
71
24
72
22
73
25
0
VERTEX
8
OBJECT__5
10
0
20
0
30
0
70
128
71
22
72
26
73
25
0
VERTEX
8
OBJECT__5
10
0
20
0
30
0
70
128
71
27
72
24
73
28
0
VERTEX
8
OBJECT__5
10
0
20
0
30
0
70
128
71
28
72
29
73
27
0
VERTEX
8
OBJECT__5
10
0
20
0
30
0
70
128
71
30
72
27
73
31
0
VERTEX
8
OBJECT__5
10
0
20
0
30
0
70
128
71
31
72
32
73
30
0
VERTEX
8
OBJECT__5
10
0
20
0
30
0
70
128
71
27
72
29
73
31
0
VERTEX
8
OBJECT__5
10
0
20
0
30
0
70
128
71
1
72
30
73
33
0
VERTEX
8
OBJECT__5
10
0
20
0
30
0
70
128
71
30
72
34
73
33
0
VERTEX
8
OBJECT__5
10
0
20
0
30
0
70
128
71
33
72
2
73
1
0
VERTEX
8
OBJECT__5
10
0
20
0
30
0
70
128
71
32
72
34
73
30
0
VERTEX
8
OBJECT__5
10
0
20
0
30
0
70
128
71
25
72
28
73
24
0
VERTEX
8
OBJECT__5
10
0
20
0
30
0
70
128
71
21
72
26
73
22
0
VERTEX
8
OBJECT__5
10
0
20
0
30
0
70
128
71
18
72
23
73
19
0
VERTEX
8
OBJECT__5
10
0
20
0
30
0
70
128
71
15
72
17
73
13
0
VERTEX
8
OBJECT__5
10
0
20
0
30
0
70
128
71
11
72
16
73
9
0
VERTEX
8
OBJECT__5
10
0
20
0
30
0
70
128
71
6
72
12
73
7
0
VERTEX
8
OBJECT__5
10
0
20
0
30
0
70
128
71
3
72
8
73
4
0
SEQEND
8
OBJECT__5
0
POLYLINE
8
OBJECT__7
66
1
70
64
71
65
72
81
62
253
0
VERTEX
8
OBJECT__7
10
-12.736000
20
0.005000
30
115.767998
70
192
0
VERTEX
8
OBJECT__7
10
-11.773000
20
4.857000
30
115.767998
70
192
0
VERTEX
8
OBJECT__7
10
-11.746000
20
4.275000
30
103.789001
70
192
0
VERTEX
8
OBJECT__7
10
-11.425000
20
4.658000
30
103.789001
70
192
0
VERTEX
8
OBJECT__7
10
11.791000
20
-4.813000
30
115.767998
70
192
0
VERTEX
8
OBJECT__7
10
10.873000
20
-4.469000
30
103.789001
70
192
0
VERTEX
8
OBJECT__7
10
12.500000
20
0.000000
30
103.789001
70
192
0
VERTEX
8
OBJECT__7
10
4.822000
20
11.788000
30
115.767998
70
192
0
VERTEX
8
OBJECT__7
10
4.413000
20
11.016000
30
103.789001
70
192
0
VERTEX
8
OBJECT__7
10
2.171000
20
12.310000
30
103.789001
70
192
0
VERTEX
8
OBJECT__7
10
-0.078000
20
12.736000
30
115.767998
70
192
0
VERTEX
8
OBJECT__7
10
-12.844000
20
5.355000
30
127.606003
70
192
0
VERTEX
8
OBJECT__7
10
-9.034000
20
8.977000
30
115.767998
70
192
0
VERTEX
8
OBJECT__7
10
-4.933000
20
11.742000
30
115.767998
70
192
0
VERTEX
8
OBJECT__7
10
-6.250000
20
10.825000
30
103.789001
70
192
0
VERTEX
8
OBJECT__7
10
-4.765000
20
11.087000
30
103.789001
70
192
0
VERTEX
8
OBJECT__7
10
-8.323000
20
8.354000
30
103.789001
70
192
0
VERTEX
8
OBJECT__7
10
0.023000
20
11.931000
30
103.789001
70
192
0
VERTEX
8
OBJECT__7
10
-10.035000
20
9.853000
30
127.606003
70
192
0
VERTEX
8
OBJECT__7
10
-5.456000
20
13.180000
30
127.606003
70
192
0
VERTEX
8
OBJECT__7
10
-11.798000
20
8.572000
30
127.606003
70
192
0
VERTEX
8
OBJECT__7
10
-4.507000
20
13.870000
30
127.606003
70
192
0
VERTEX
8
OBJECT__7
10
-0.090000
20
13.870000
30
127.606003
70
192
0
VERTEX
8
OBJECT__7
10
4.507000
20
13.870000
30
127.606003
70
192
0
VERTEX
8
OBJECT__7
10
11.795000
20
4.805000
30
115.767998
70
192
0
VERTEX
8
OBJECT__7
10
11.592000
20
4.676000
30
103.789001
70
192
0
VERTEX
8
OBJECT__7
10
9.576000
20
8.035000
30
103.789001
70
192
0
VERTEX
8
OBJECT__7
10
9.012000
20
8.999000
30
115.767998
70
192
0
VERTEX
8
OBJECT__7
10
8.682000
20
8.551000
30
103.789001
70
192
0
VERTEX
8
OBJECT__7
10
12.736000
20
-0.001000
30
115.767998
70
192
0
VERTEX
8
OBJECT__7
10
11.798000
20
8.572000
30
127.606003
70
192
0
VERTEX
8
OBJECT__7
10
10.006000
20
9.874000
30
127.606003
70
192
0
VERTEX
8
OBJECT__7
10
13.526000
20
5.452000
30
127.606003
70
192
0
VERTEX
8
OBJECT__7
10
14.584000
20
0.000000
30
127.606003
70
192
0
VERTEX
8
OBJECT__7
10
13.500000
20
5.499000
30
127.606003
70
192
0
VERTEX
8
OBJECT__7
10
-0.075000
20
-12.736000
30
115.767998
70
192
0
VERTEX
8
OBJECT__7
10
-4.929000
20
-11.743000
30
115.767998
70
192
0
VERTEX
8
OBJECT__7
10
-4.761000
20
-11.088000
30
103.789001
70
192
0
VERTEX
8
OBJECT__7
10
12.861000
20
-5.303000
30
127.606003
70
192
0
VERTEX
8
OBJECT__7
10
4.825000
20
-11.787000
30
115.767998
70
192
0
VERTEX
8
OBJECT__7
10
4.416000
20
-11.014000
30
103.789001
70
192
0
VERTEX
8
OBJECT__7
10
8.686000
20
-8.548000
30
103.789001
70
192
0
VERTEX
8
OBJECT__7
10
9.016000
20
-8.996000
30
115.767998
70
192
0
VERTEX
8
OBJECT__7
10
9.576000
20
-8.035000
30
103.789001
70
192
0
VERTEX
8
OBJECT__7
10
2.171000
20
-12.310000
30
103.789001
70
192
0
VERTEX
8
OBJECT__7
10
0.026000
20
-11.932000
30
103.789001
70
192
0
VERTEX
8
OBJECT__7
10
10.011000
20
-9.871000
30
127.606003
70
192
0
VERTEX
8
OBJECT__7
10
5.351000
20
-13.257000
30
127.606003
70
192
0
VERTEX
8
OBJECT__7
10
11.798000
20
-8.572000
30
127.606003
70
192
0
VERTEX
8
OBJECT__7
10
4.507000
20
-13.870000
30
127.606003
70
192
0
VERTEX
8
OBJECT__7
10
-0.086000
20
-13.870000
30
127.606003
70
192
0
VERTEX
8
OBJECT__7
10
-4.507000
20
-13.870000
30
127.606003
70
192
0
VERTEX
8
OBJECT__7
10
-9.031000
20
-8.980000
30
115.767998
70
192
0
VERTEX
8
OBJECT__7
10
-11.775000
20
-4.854000
30
115.767998
70
192
0
VERTEX
8
OBJECT__7
10
-11.427000
20
-4.656000
30
103.789001
70
192
0
VERTEX
8
OBJECT__7
10
-8.320000
20
-8.358000
30
103.789001
70
192
0
VERTEX
8
OBJECT__7
10
-6.250000
20
-10.825000
30
103.789001
70
192
0
VERTEX
8
OBJECT__7
10
-11.746000
20
0.005000
30
103.789001
70
192
0
VERTEX
8
OBJECT__7
10
-11.746000
20
-4.275000
30
103.789001
70
192
0
VERTEX
8
OBJECT__7
10
-11.798000
20
-8.572000
30
127.606003
70
192
0
VERTEX
8
OBJECT__7
10
-10.031000
20
-9.856000
30
127.606003
70
192
0
VERTEX
8
OBJECT__7
10
-12.845000
20
-5.351000
30
127.606003
70
192
0
VERTEX
8
OBJECT__7
10
-14.584000
20
0.000000
30
127.606003
70
192
0
VERTEX
8
OBJECT__7
10
-5.452000
20
-13.183000
30
127.606003
70
192
0
VERTEX
8
OBJECT__7
10
5.348000
20
13.259000
30
127.606003
70
192
0
VERTEX
8
OBJECT__7
10
0
20
0
30
0
70
128
71
1
72
2
73
3
0
VERTEX
8
OBJECT__7
10
0
20
0
30
0
70
128
71
2
72
4
73
3
0
VERTEX
8
OBJECT__7
10
0
20
0
30
0
70
128
71
5
72
6
73
7
0
VERTEX
8
OBJECT__7
10
0
20
0
30
0
70
128
71
8
72
9
73
10
0
VERTEX
8
OBJECT__7
10
0
20
0
30
0
70
128
71
10
72
11
73
8
0
VERTEX
8
OBJECT__7
10
0
20
0
30
0
70
128
71
12
72
2
73
1
0
VERTEX
8
OBJECT__7
10
0
20
0
30
0
70
128
71
13
72
14
73
15
0
VERTEX
8
OBJECT__7
10
0
20
0
30
0
70
128
71
14
72
16
73
15
0
VERTEX
8
OBJECT__7
10
0
20
0
30
0
70
128
71
13
72
17
73
4
0
VERTEX
8
OBJECT__7
10
0
20
0
30
0
70
128
71
11
72
18
73
16
0
VERTEX
8
OBJECT__7
10
0
20
0
30
0
70
128
71
19
72
20
73
14
0
VERTEX
8
OBJECT__7
10
0
20
0
30
0
70
128
71
2
72
12
73
21
0
VERTEX
8
OBJECT__7
10
0
20
0
30
0
70
128
71
21
72
13
73
2
0
VERTEX
8
OBJECT__7
10
0
20
0
30
0
70
128
71
11
72
14
73
22
0
VERTEX
8
OBJECT__7
10
0
20
0
30
0
70
128
71
14
72
20
73
22
0
VERTEX
8
OBJECT__7
10
0
20
0
30
0
70
128
71
11
72
23
73
24
0
VERTEX
8
OBJECT__7
10
0
20
0
30
0
70
128
71
24
72
8
73
11
0
VERTEX
8
OBJECT__7
10
0
20
0
30
0
70
128
71
25
72
26
73
27
0
VERTEX
8
OBJECT__7
10
0
20
0
30
0
70
128
71
27
72
28
73
25
0
VERTEX
8
OBJECT__7
10
0
20
0
30
0
70
128
71
8
72
28
73
29
0
VERTEX
8
OBJECT__7
10
0
20
0
30
0
70
128
71
30
72
7
73
26
0
VERTEX
8
OBJECT__7
10
0
20
0
30
0
70
128
71
25
72
28
73
31
0
VERTEX
8
OBJECT__7
10
0
20
0
30
0
70
128
71
28
72
32
73
31
0
VERTEX
8
OBJECT__7
10
0
20
0
30
0
70
128
71
32
72
28
73
8
0
VERTEX
8
OBJECT__7
10
0
20
0
30
0
70
128
71
33
72
34
73
30
0
VERTEX
8
OBJECT__7
10
0
20
0
30
0
70
128
71
30
72
25
73
33
0
VERTEX
8
OBJECT__7
10
0
20
0
30
0
70
128
71
25
72
35
73
33
0
VERTEX
8
OBJECT__7
10
0
20
0
30
0
70
128
71
36
72
37
73
38
0
VERTEX
8
OBJECT__7
10
0
20
0
30
0
70
128
71
39
72
5
73
30
0
VERTEX
8
OBJECT__7
10
0
20
0
30
0
70
128
71
40
72
41
73
42
0
VERTEX
8
OBJECT__7
10
0
20
0
30
0
70
128
71
5
72
43
73
44
0
VERTEX
8
OBJECT__7
10
0
20
0
30
0
70
128
71
43
72
42
73
44
0
VERTEX
8
OBJECT__7
10
0
20
0
30
0
70
128
71
40
72
36
73
45
0
VERTEX
8
OBJECT__7
10
0
20
0
30
0
70
128
71
36
72
46
73
45
0
VERTEX
8
OBJECT__7
10
0
20
0
30
0
70
128
71
47
72
48
73
40
0
VERTEX
8
OBJECT__7
10
0
20
0
30
0
70
128
71
5
72
39
73
49
0
VERTEX
8
OBJECT__7
10
0
20
0
30
0
70
128
71
49
72
43
73
5
0
VERTEX
8
OBJECT__7
10
0
20
0
30
0
70
128
71
36
72
40
73
50
0
VERTEX
8
OBJECT__7
10
0
20
0
30
0
70
128
71
40
72
48
73
50
0
VERTEX
8
OBJECT__7
10
0
20
0
30
0
70
128
71
36
72
51
73
52
0
VERTEX
8
OBJECT__7
10
0
20
0
30
0
70
128
71
52
72
37
73
36
0
VERTEX
8
OBJECT__7
10
0
20
0
30
0
70
128
71
53
72
54
73
55
0
VERTEX
8
OBJECT__7
10
0
20
0
30
0
70
128
71
53
72
56
73
57
0
VERTEX
8
OBJECT__7
10
0
20
0
30
0
70
128
71
57
72
37
73
53
0
VERTEX
8
OBJECT__7
10
0
20
0
30
0
70
128
71
1
72
58
73
59
0
VERTEX
8
OBJECT__7
10
0
20
0
30
0
70
128
71
59
72
54
73
1
0
VERTEX
8
OBJECT__7
10
0
20
0
30
0
70
128
71
54
72
53
73
60
0
VERTEX
8
OBJECT__7
10
0
20
0
30
0
70
128
71
53
72
61
73
60
0
VERTEX
8
OBJECT__7
10
0
20
0
30
0
70
128
71
61
72
53
73
37
0
VERTEX
8
OBJECT__7
10
0
20
0
30
0
70
128
71
62
72
63
73
1
0
VERTEX
8
OBJECT__7
10
0
20
0
30
0
70
128
71
1
72
54
73
62
0
VERTEX
8
OBJECT__7
10
0
20
0
30
0
70
128
71
37
72
64
73
61
0
VERTEX
8
OBJECT__7
10
0
20
0
30
0
70
128
71
60
72
62
73
54
0
VERTEX
8
OBJECT__7
10
0
20
0
30
0
70
128
71
59
72
55
73
54
0
VERTEX
8
OBJECT__7
10
0
20
0
30
0
70
128
71
57
72
38
73
37
0
VERTEX
8
OBJECT__7
10
0
20
0
30
0
70
128
71
55
72
56
73
53
0
VERTEX
8
OBJECT__7
10
0
20
0
30
0
70
128
71
52
72
64
73
37
0
VERTEX
8
OBJECT__7
10
0
20
0
30
0
70
128
71
50
72
51
73
36
0
VERTEX
8
OBJECT__7
10
0
20
0
30
0
70
128
71
49
72
47
73
43
0
VERTEX
8
OBJECT__7
10
0
20
0
30
0
70
128
71
40
72
43
73
47
0
VERTEX
8
OBJECT__7
10
0
20
0
30
0
70
128
71
45
72
41
73
40
0
VERTEX
8
OBJECT__7
10
0
20
0
30
0
70
128
71
44
72
6
73
5
0
VERTEX
8
OBJECT__7
10
0
20
0
30
0
70
128
71
42
72
43
73
40
0
VERTEX
8
OBJECT__7
10
0
20
0
30
0
70
128
71
30
72
34
73
39
0
VERTEX
8
OBJECT__7
10
0
20
0
30
0
70
128
71
38
72
46
73
36
0
VERTEX
8
OBJECT__7
10
0
20
0
30
0
70
128
71
8
72
65
73
32
0
VERTEX
8
OBJECT__7
10
0
20
0
30
0
70
128
71
31
72
35
73
25
0
VERTEX
8
OBJECT__7
10
0
20
0
30
0
70
128
71
26
72
25
73
30
0
VERTEX
8
OBJECT__7
10
0
20
0
30
0
70
128
71
29
72
9
73
8
0
VERTEX
8
OBJECT__7
10
0
20
0
30
0
70
128
71
27
72
29
73
28
0
VERTEX
8
OBJECT__7
10
0
20
0
30
0
70
128
71
24
72
65
73
8
0
VERTEX
8
OBJECT__7
10
0
20
0
30
0
70
128
71
22
72
23
73
11
0
VERTEX
8
OBJECT__7
10
0
20
0
30
0
70
128
71
21
72
19
73
13
0
VERTEX
8
OBJECT__7
10
0
20
0
30
0
70
128
71
14
72
13
73
19
0
VERTEX
8
OBJECT__7
10
0
20
0
30
0
70
128
71
16
72
14
73
11
0
VERTEX
8
OBJECT__7
10
0
20
0
30
0
70
128
71
4
72
2
73
13
0
VERTEX
8
OBJECT__7
10
0
20
0
30
0
70
128
71
15
72
17
73
13
0
VERTEX
8
OBJECT__7
10
0
20
0
30
0
70
128
71
1
72
63
73
12
0
VERTEX
8
OBJECT__7
10
0
20
0
30
0
70
128
71
10
72
18
73
11
0
VERTEX
8
OBJECT__7
10
0
20
0
30
0
70
128
71
7
72
30
73
5
0
VERTEX
8
OBJECT__7
10
0
20
0
30
0
70
128
71
3
72
58
73
1
0
SEQEND
8
OBJECT__7
0
POLYLINE
8
OBJECT__8
66
1
70
64
71
49
72
49
62
253
0
VERTEX
8
OBJECT__8
10
11.798000
20
8.572000
30
127.606003
70
192
0
VERTEX
8
OBJECT__8
10
12.068000
20
8.768000
30
129.492004
70
192
0
VERTEX
8
OBJECT__8
10
13.142000
20
5.462000
30
129.492004
70
192
0
VERTEX
8
OBJECT__8
10
13.526000
20
5.452000
30
127.606003
70
192
0
VERTEX
8
OBJECT__8
10
13.500000
20
5.499000
30
127.606003
70
192
0
VERTEX
8
OBJECT__8
10
14.916000
20
0.000000
30
129.492004
70
192
0
VERTEX
8
OBJECT__8
10
14.584000
20
0.000000
30
127.606003
70
192
0
VERTEX
8
OBJECT__8
10
10.194000
20
10.129000
30
129.492004
70
192
0
VERTEX
8
OBJECT__8
10
10.006000
20
9.874000
30
127.606003
70
192
0
VERTEX
8
OBJECT__8
10
5.348000
20
13.259000
30
127.606003
70
192
0
VERTEX
8
OBJECT__8
10
5.451000
20
13.575000
30
129.492004
70
192
0
VERTEX
8
OBJECT__8
10
4.507000
20
13.870000
30
127.606003
70
192
0
VERTEX
8
OBJECT__8
10
4.609000
20
14.186000
30
129.492004
70
192
0
VERTEX
8
OBJECT__8
10
0.001000
20
14.186000
30
129.492004
70
192
0
VERTEX
8
OBJECT__8
10
-0.090000
20
13.870000
30
127.606003
70
192
0
VERTEX
8
OBJECT__8
10
-4.507000
20
13.870000
30
127.606003
70
192
0
VERTEX
8
OBJECT__8
10
-4.609000
20
14.186000
30
129.492004
70
192
0
VERTEX
8
OBJECT__8
10
-5.456000
20
13.180000
30
127.606003
70
192
0
VERTEX
8
OBJECT__8
10
-5.439000
20
13.584000
30
129.492004
70
192
0
VERTEX
8
OBJECT__8
10
-10.198000
20
10.126000
30
129.492004
70
192
0
VERTEX
8
OBJECT__8
10
-10.035000
20
9.853000
30
127.606003
70
192
0
VERTEX
8
OBJECT__8
10
-11.798000
20
8.572000
30
127.606003
70
192
0
VERTEX
8
OBJECT__8
10
-12.068000
20
8.768000
30
129.492004
70
192
0
VERTEX
8
OBJECT__8
10
-13.143000
20
5.459000
30
129.492004
70
192
0
VERTEX
8
OBJECT__8
10
-12.844000
20
5.355000
30
127.606003
70
192
0
VERTEX
8
OBJECT__8
10
-14.584000
20
0.000000
30
127.606003
70
192
0
VERTEX
8
OBJECT__8
10
-14.916000
20
0.000000
30
129.492004
70
192
0
VERTEX
8
OBJECT__8
10
-12.845000
20
-5.351000
30
127.606003
70
192
0
VERTEX
8
OBJECT__8
10
-11.798000
20
-8.572000
30
127.606003
70
192
0
VERTEX
8
OBJECT__8
10
-12.068000
20
-8.768000
30
129.492004
70
192
0
VERTEX
8
OBJECT__8
10
-13.114000
20
-5.549000
30
129.492004
70
192
0
VERTEX
8
OBJECT__8
10
-10.199000
20
-10.125000
30
129.492004
70
192
0
VERTEX
8
OBJECT__8
10
-10.031000
20
-9.856000
30
127.606003
70
192
0
VERTEX
8
OBJECT__8
10
-5.452000
20
-13.183000
30
127.606003
70
192
0
VERTEX
8
OBJECT__8
10
-5.511000
20
-13.531000
30
129.492004
70
192
0
VERTEX
8
OBJECT__8
10
-4.507000
20
-13.870000
30
127.606003
70
192
0
VERTEX
8
OBJECT__8
10
-4.609000
20
-14.186000
30
129.492004
70
192
0
VERTEX
8
OBJECT__8
10
-0.008000
20
-14.186000
30
129.492004
70
192
0
VERTEX
8
OBJECT__8
10
-0.086000
20
-13.870000
30
127.606003
70
192
0
VERTEX
8
OBJECT__8
10
4.507000
20
-13.870000
30
127.606003
70
192
0
VERTEX
8
OBJECT__8
10
4.609000
20
-14.186000
30
129.492004
70
192
0
VERTEX
8
OBJECT__8
10
5.506000
20
-13.535000
30
129.492004
70
192
0
VERTEX
8
OBJECT__8
10
10.203000
20
-10.123000
30
129.492004
70
192
0
VERTEX
8
OBJECT__8
10
5.351000
20
-13.257000
30
127.606003
70
192
0
VERTEX
8
OBJECT__8
10
10.011000
20
-9.871000
30
127.606003
70
192
0
VERTEX
8
OBJECT__8
10
11.798000
20
-8.572000
30
127.606003
70
192
0
VERTEX
8
OBJECT__8
10
12.068000
20
-8.768000
30
129.492004
70
192
0
VERTEX
8
OBJECT__8
10
12.861000
20
-5.303000
30
127.606003
70
192
0
VERTEX
8
OBJECT__8
10
13.115000
20
-5.545000
30
129.492004
70
192
0
VERTEX
8
OBJECT__8
10
0
20
0
30
0
70
128
71
1
72
2
73
3
0
VERTEX
8
OBJECT__8
10
0
20
0
30
0
70
128
71
3
72
4
73
5
0
VERTEX
8
OBJECT__8
10
0
20
0
30
0
70
128
71
6
72
7
73
4
0
VERTEX
8
OBJECT__8
10
0
20
0
30
0
70
128
71
4
72
3
73
6
0
VERTEX
8
OBJECT__8
10
0
20
0
30
0
70
128
71
8
72
2
73
1
0
VERTEX
8
OBJECT__8
10
0
20
0
30
0
70
128
71
8
72
9
73
10
0
VERTEX
8
OBJECT__8
10
0
20
0
30
0
70
128
71
10
72
11
73
8
0
VERTEX
8
OBJECT__8
10
0
20
0
30
0
70
128
71
11
72
10
73
12
0
VERTEX
8
OBJECT__8
10
0
20
0
30
0
70
128
71
12
72
13
73
11
0
VERTEX
8
OBJECT__8
10
0
20
0
30
0
70
128
71
14
72
13
73
12
0
VERTEX
8
OBJECT__8
10
0
20
0
30
0
70
128
71
14
72
15
73
16
0
VERTEX
8
OBJECT__8
10
0
20
0
30
0
70
128
71
16
72
17
73
14
0
VERTEX
8
OBJECT__8
10
0
20
0
30
0
70
128
71
16
72
18
73
19
0
VERTEX
8
OBJECT__8
10
0
20
0
30
0
70
128
71
20
72
19
73
18
0
VERTEX
8
OBJECT__8
10
0
20
0
30
0
70
128
71
18
72
21
73
20
0
VERTEX
8
OBJECT__8
10
0
20
0
30
0
70
128
71
20
72
21
73
22
0
VERTEX
8
OBJECT__8
10
0
20
0
30
0
70
128
71
22
72
23
73
20
0
VERTEX
8
OBJECT__8
10
0
20
0
30
0
70
128
71
24
72
23
73
22
0
VERTEX
8
OBJECT__8
10
0
20
0
30
0
70
128
71
24
72
25
73
26
0
VERTEX
8
OBJECT__8
10
0
20
0
30
0
70
128
71
26
72
27
73
24
0
VERTEX
8
OBJECT__8
10
0
20
0
30
0
70
128
71
27
72
26
73
28
0
VERTEX
8
OBJECT__8
10
0
20
0
30
0
70
128
71
29
72
30
73
31
0
VERTEX
8
OBJECT__8
10
0
20
0
30
0
70
128
71
31
72
28
73
29
0
VERTEX
8
OBJECT__8
10
0
20
0
30
0
70
128
71
32
72
30
73
29
0
VERTEX
8
OBJECT__8
10
0
20
0
30
0
70
128
71
32
72
33
73
34
0
VERTEX
8
OBJECT__8
10
0
20
0
30
0
70
128
71
34
72
35
73
32
0
VERTEX
8
OBJECT__8
10
0
20
0
30
0
70
128
71
36
72
37
73
35
0
VERTEX
8
OBJECT__8
10
0
20
0
30
0
70
128
71
35
72
34
73
36
0
VERTEX
8
OBJECT__8
10
0
20
0
30
0
70
128
71
38
72
37
73
36
0
VERTEX
8
OBJECT__8
10
0
20
0
30
0
70
128
71
38
72
39
73
40
0
VERTEX
8
OBJECT__8
10
0
20
0
30
0
70
128
71
40
72
41
73
38
0
VERTEX
8
OBJECT__8
10
0
20
0
30
0
70
128
71
42
72
41
73
40
0
VERTEX
8
OBJECT__8
10
0
20
0
30
0
70
128
71
43
72
42
73
44
0
VERTEX
8
OBJECT__8
10
0
20
0
30
0
70
128
71
44
72
45
73
43
0
VERTEX
8
OBJECT__8
10
0
20
0
30
0
70
128
71
43
72
45
73
46
0
VERTEX
8
OBJECT__8
10
0
20
0
30
0
70
128
71
46
72
47
73
43
0
VERTEX
8
OBJECT__8
10
0
20
0
30
0
70
128
71
46
72
48
73
49
0
VERTEX
8
OBJECT__8
10
0
20
0
30
0
70
128
71
6
72
49
73
48
0
VERTEX
8
OBJECT__8
10
0
20
0
30
0
70
128
71
48
72
7
73
6
0
VERTEX
8
OBJECT__8
10
0
20
0
30
0
70
128
71
49
72
47
73
46
0
VERTEX
8
OBJECT__8
10
0
20
0
30
0
70
128
71
40
72
44
73
42
0
VERTEX
8
OBJECT__8
10
0
20
0
30
0
70
128
71
36
72
39
73
38
0
VERTEX
8
OBJECT__8
10
0
20
0
30
0
70
128
71
29
72
33
73
32
0
VERTEX
8
OBJECT__8
10
0
20
0
30
0
70
128
71
28
72
31
73
27
0
VERTEX
8
OBJECT__8
10
0
20
0
30
0
70
128
71
22
72
25
73
24
0
VERTEX
8
OBJECT__8
10
0
20
0
30
0
70
128
71
19
72
17
73
16
0
VERTEX
8
OBJECT__8
10
0
20
0
30
0
70
128
71
12
72
15
73
14
0
VERTEX
8
OBJECT__8
10
0
20
0
30
0
70
128
71
1
72
9
73
8
0
VERTEX
8
OBJECT__8
10
0
20
0
30
0
70
128
71
3
72
5
73
1
0
SEQEND
8
OBJECT__8
0
POLYLINE
8
OBJECT__9
66
1
70
64
71
67
72
85
62
253
0
VERTEX
8
OBJECT__9
10
-0.009000
20
-16.764000
30
141.330002
70
192
0
VERTEX
8
OBJECT__9
10
-0.009000
20
-16.167999
30
153.309006
70
192
0
VERTEX
8
OBJECT__9
10
-5.253000
20
-16.167999
30
153.309006
70
192
0
VERTEX
8
OBJECT__9
10
-6.401000
20
-15.494000
30
141.330002
70
192
0
VERTEX
8
OBJECT__9
10
-4.609000
20
-14.186000
30
129.492004
70
192
0
VERTEX
8
OBJECT__9
10
-5.511000
20
-13.531000
30
129.492004
70
192
0
VERTEX
8
OBJECT__9
10
0.001000
20
16.764000
30
141.330994
70
192
0
VERTEX
8
OBJECT__9
10
0.001000
20
16.167999
30
153.309006
70
192
0
VERTEX
8
OBJECT__9
10
5.253000
20
16.167999
30
153.309006
70
192
0
VERTEX
8
OBJECT__9
10
6.322000
20
15.526000
30
141.330002
70
192
0
VERTEX
8
OBJECT__9
10
0.001000
20
16.037001
30
135.932007
70
192
0
VERTEX
8
OBJECT__9
10
6.047000
20
14.853000
30
135.932007
70
192
0
VERTEX
8
OBJECT__9
10
4.609000
20
14.186000
30
129.492004
70
192
0
VERTEX
8
OBJECT__9
10
5.451000
20
13.575000
30
129.492004
70
192
0
VERTEX
8
OBJECT__9
10
-16.764000
20
-0.075000
30
141.330002
70
192
0
VERTEX
8
OBJECT__9
10
-17.000000
20
0.000000
30
153.309006
70
192
0
VERTEX
8
OBJECT__9
10
-14.979000
20
6.221000
30
153.309006
70
192
0
VERTEX
8
OBJECT__9
10
-15.464000
20
-6.472000
30
141.330002
70
192
0
VERTEX
8
OBJECT__9
10
-11.827000
20
-11.881000
30
141.330002
70
192
0
VERTEX
8
OBJECT__9
10
-13.753000
20
-9.992000
30
153.309006
70
192
0
VERTEX
8
OBJECT__9
10
-11.624000
20
-11.539000
30
153.309006
70
192
0
VERTEX
8
OBJECT__9
10
-14.945000
20
-6.324000
30
153.309006
70
192
0
VERTEX
8
OBJECT__9
10
-11.622000
20
11.541000
30
153.309006
70
192
0
VERTEX
8
OBJECT__9
10
-6.198000
20
15.481000
30
153.309006
70
192
0
VERTEX
8
OBJECT__9
10
-6.306000
20
15.533000
30
141.330002
70
192
0
VERTEX
8
OBJECT__9
10
-15.505000
20
6.374000
30
141.330002
70
192
0
VERTEX
8
OBJECT__9
10
-13.753000
20
9.992000
30
153.309006
70
192
0
VERTEX
8
OBJECT__9
10
-11.825000
20
11.882000
30
141.330002
70
192
0
VERTEX
8
OBJECT__9
10
-5.253000
20
16.167999
30
153.309006
70
192
0
VERTEX
8
OBJECT__9
10
-13.143000
20
5.459000
30
129.492004
70
192
0
VERTEX
8
OBJECT__9
10
-14.916000
20
0.000000
30
129.492004
70
192
0
VERTEX
8
OBJECT__9
10
-13.114000
20
-5.549000
30
129.492004
70
192
0
VERTEX
8
OBJECT__9
10
-12.068000
20
-8.768000
30
129.492004
70
192
0
VERTEX
8
OBJECT__9
10
-10.199000
20
-10.125000
30
129.492004
70
192
0
VERTEX
8
OBJECT__9
10
-5.439000
20
13.584000
30
129.492004
70
192
0
VERTEX
8
OBJECT__9
10
-12.068000
20
8.768000
30
129.492004
70
192
0
VERTEX
8
OBJECT__9
10
-10.198000
20
10.126000
30
129.492004
70
192
0
VERTEX
8
OBJECT__9
10
-4.609000
20
14.186000
30
129.492004
70
192
0
VERTEX
8
OBJECT__9
10
0.001000
20
14.186000
30
129.492004
70
192
0
VERTEX
8
OBJECT__9
10
15.466000
20
-6.468000
30
141.330002
70
192
0
VERTEX
8
OBJECT__9
10
13.115000
20
-5.545000
30
129.492004
70
192
0
VERTEX
8
OBJECT__9
10
14.916000
20
0.000000
30
129.492004
70
192
0
VERTEX
8
OBJECT__9
10
15.504000
20
6.377000
30
141.330002
70
192
0
VERTEX
8
OBJECT__9
10
13.142000
20
5.462000
30
129.492004
70
192
0
VERTEX
8
OBJECT__9
10
12.068000
20
8.768000
30
129.492004
70
192
0
VERTEX
8
OBJECT__9
10
11.821000
20
11.886000
30
141.330002
70
192
0
VERTEX
8
OBJECT__9
10
10.194000
20
10.129000
30
129.492004
70
192
0
VERTEX
8
OBJECT__9
10
16.764000
20
-0.073000
30
141.330002
70
192
0
VERTEX
8
OBJECT__9
10
11.830000
20
-11.877000
30
141.330002
70
192
0
VERTEX
8
OBJECT__9
10
6.394000
20
-15.496000
30
141.330002
70
192
0
VERTEX
8
OBJECT__9
10
5.506000
20
-13.535000
30
129.492004
70
192
0
VERTEX
8
OBJECT__9
10
12.068000
20
-8.768000
30
129.492004
70
192
0
VERTEX
8
OBJECT__9
10
10.203000
20
-10.123000
30
129.492004
70
192
0
VERTEX
8
OBJECT__9
10
-0.008000
20
-14.186000
30
129.492004
70
192
0
VERTEX
8
OBJECT__9
10
4.609000
20
-14.186000
30
129.492004
70
192
0
VERTEX
8
OBJECT__9
10
14.947000
20
-6.319000
30
153.309006
70
192
0
VERTEX
8
OBJECT__9
10
13.753000
20
9.992000
30
153.309006
70
192
0
VERTEX
8
OBJECT__9
10
12.818000
20
11.167000
30
153.309006
70
192
0
VERTEX
8
OBJECT__9
10
11.832000
20
11.819000
30
153.309006
70
192
0
VERTEX
8
OBJECT__9
10
6.253000
20
15.507000
30
153.309006
70
192
0
VERTEX
8
OBJECT__9
10
14.977000
20
6.225000
30
153.309006
70
192
0
VERTEX
8
OBJECT__9
10
11.628000
20
-11.537000
30
153.309006
70
192
0
VERTEX
8
OBJECT__9
10
6.275000
20
-15.426000
30
153.309006
70
192
0
VERTEX
8
OBJECT__9
10
13.753000
20
-9.992000
30
153.309006
70
192
0
VERTEX
8
OBJECT__9
10
5.253000
20
-16.167999
30
153.309006
70
192
0
VERTEX
8
OBJECT__9
10
17.000000
20
0.000000
30
153.309006
70
192
0
VERTEX
8
OBJECT__9
10
-6.281000
20
-15.422000
30
153.309006
70
192
0
VERTEX
8
OBJECT__9
10
0
20
0
30
0
70
128
71
1
72
2
73
3
0
VERTEX
8
OBJECT__9
10
0
20
0
30
0
70
128
71
3
72
4
73
1
0
VERTEX
8
OBJECT__9
10
0
20
0
30
0
70
128
71
1
72
4
73
5
0
VERTEX
8
OBJECT__9
10
0
20
0
30
0
70
128
71
4
72
6
73
5
0
VERTEX
8
OBJECT__9
10
0
20
0
30
0
70
128
71
7
72
8
73
9
0
VERTEX
8
OBJECT__9
10
0
20
0
30
0
70
128
71
9
72
10
73
7
0
VERTEX
8
OBJECT__9
10
0
20
0
30
0
70
128
71
11
72
12
73
13
0
VERTEX
8
OBJECT__9
10
0
20
0
30
0
70
128
71
12
72
14
73
13
0
VERTEX
8
OBJECT__9
10
0
20
0
30
0
70
128
71
15
72
16
73
17
0
VERTEX
8
OBJECT__9
10
0
20
0
30
0
70
128
71
18
72
19
73
20
0
VERTEX
8
OBJECT__9
10
0
20
0
30
0
70
128
71
19
72
21
73
20
0
VERTEX
8
OBJECT__9
10
0
20
0
30
0
70
128
71
21
72
19
73
4
0
VERTEX
8
OBJECT__9
10
0
20
0
30
0
70
128
71
22
72
16
73
15
0
VERTEX
8
OBJECT__9
10
0
20
0
30
0
70
128
71
23
72
24
73
25
0
VERTEX
8
OBJECT__9
10
0
20
0
30
0
70
128
71
26
72
17
73
27
0
VERTEX
8
OBJECT__9
10
0
20
0
30
0
70
128
71
27
72
28
73
26
0
VERTEX
8
OBJECT__9
10
0
20
0
30
0
70
128
71
7
72
25
73
29
0
VERTEX
8
OBJECT__9
10
0
20
0
30
0
70
128
71
25
72
24
73
29
0
VERTEX
8
OBJECT__9
10
0
20
0
30
0
70
128
71
26
72
30
73
31
0
VERTEX
8
OBJECT__9
10
0
20
0
30
0
70
128
71
18
72
32
73
33
0
VERTEX
8
OBJECT__9
10
0
20
0
30
0
70
128
71
33
72
19
73
18
0
VERTEX
8
OBJECT__9
10
0
20
0
30
0
70
128
71
19
72
34
73
6
0
VERTEX
8
OBJECT__9
10
0
20
0
30
0
70
128
71
18
72
15
73
31
0
VERTEX
8
OBJECT__9
10
0
20
0
30
0
70
128
71
28
72
25
73
35
0
VERTEX
8
OBJECT__9
10
0
20
0
30
0
70
128
71
26
72
28
73
36
0
VERTEX
8
OBJECT__9
10
0
20
0
30
0
70
128
71
28
72
37
73
36
0
VERTEX
8
OBJECT__9
10
0
20
0
30
0
70
128
71
38
72
25
73
11
0
VERTEX
8
OBJECT__9
10
0
20
0
30
0
70
128
71
25
72
7
73
11
0
VERTEX
8
OBJECT__9
10
0
20
0
30
0
70
128
71
11
72
39
73
38
0
VERTEX
8
OBJECT__9
10
0
20
0
30
0
70
128
71
40
72
41
73
42
0
VERTEX
8
OBJECT__9
10
0
20
0
30
0
70
128
71
43
72
44
73
45
0
VERTEX
8
OBJECT__9
10
0
20
0
30
0
70
128
71
45
72
46
73
43
0
VERTEX
8
OBJECT__9
10
0
20
0
30
0
70
128
71
47
72
14
73
12
0
VERTEX
8
OBJECT__9
10
0
20
0
30
0
70
128
71
12
72
46
73
47
0
VERTEX
8
OBJECT__9
10
0
20
0
30
0
70
128
71
10
72
12
73
11
0
VERTEX
8
OBJECT__9
10
0
20
0
30
0
70
128
71
43
72
48
73
42
0
VERTEX
8
OBJECT__9
10
0
20
0
30
0
70
128
71
49
72
50
73
51
0
VERTEX
8
OBJECT__9
10
0
20
0
30
0
70
128
71
40
72
49
73
52
0
VERTEX
8
OBJECT__9
10
0
20
0
30
0
70
128
71
49
72
53
73
52
0
VERTEX
8
OBJECT__9
10
0
20
0
30
0
70
128
71
1
72
54
73
55
0
VERTEX
8
OBJECT__9
10
0
20
0
30
0
70
128
71
55
72
50
73
1
0
VERTEX
8
OBJECT__9
10
0
20
0
30
0
70
128
71
56
72
40
73
48
0
VERTEX
8
OBJECT__9
10
0
20
0
30
0
70
128
71
43
72
46
73
57
0
VERTEX
8
OBJECT__9
10
0
20
0
30
0
70
128
71
46
72
58
73
57
0
VERTEX
8
OBJECT__9
10
0
20
0
30
0
70
128
71
46
72
59
73
58
0
VERTEX
8
OBJECT__9
10
0
20
0
30
0
70
128
71
60
72
59
73
46
0
VERTEX
8
OBJECT__9
10
0
20
0
30
0
70
128
71
48
72
43
73
61
0
VERTEX
8
OBJECT__9
10
0
20
0
30
0
70
128
71
62
72
63
73
50
0
VERTEX
8
OBJECT__9
10
0
20
0
30
0
70
128
71
40
72
56
73
64
0
VERTEX
8
OBJECT__9
10
0
20
0
30
0
70
128
71
64
72
49
73
40
0
VERTEX
8
OBJECT__9
10
0
20
0
30
0
70
128
71
1
72
50
73
65
0
VERTEX
8
OBJECT__9
10
0
20
0
30
0
70
128
71
50
72
63
73
65
0
VERTEX
8
OBJECT__9
10
0
20
0
30
0
70
128
71
65
72
2
73
1
0
VERTEX
8
OBJECT__9
10
0
20
0
30
0
70
128
71
64
72
62
73
49
0
VERTEX
8
OBJECT__9
10
0
20
0
30
0
70
128
71
50
72
49
73
62
0
VERTEX
8
OBJECT__9
10
0
20
0
30
0
70
128
71
61
72
66
73
48
0
VERTEX
8
OBJECT__9
10
0
20
0
30
0
70
128
71
46
72
10
73
60
0
VERTEX
8
OBJECT__9
10
0
20
0
30
0
70
128
71
57
72
61
73
43
0
VERTEX
8
OBJECT__9
10
0
20
0
30
0
70
128
71
48
72
66
73
56
0
VERTEX
8
OBJECT__9
10
0
20
0
30
0
70
128
71
55
72
51
73
50
0
VERTEX
8
OBJECT__9
10
0
20
0
30
0
70
128
71
52
72
41
73
40
0
VERTEX
8
OBJECT__9
10
0
20
0
30
0
70
128
71
51
72
53
73
49
0
VERTEX
8
OBJECT__9
10
0
20
0
30
0
70
128
71
42
72
44
73
43
0
VERTEX
8
OBJECT__9
10
0
20
0
30
0
70
128
71
11
72
7
73
10
0
VERTEX
8
OBJECT__9
10
0
20
0
30
0
70
128
71
12
72
10
73
46
0
VERTEX
8
OBJECT__9
10
0
20
0
30
0
70
128
71
45
72
47
73
46
0
VERTEX
8
OBJECT__9
10
0
20
0
30
0
70
128
71
42
72
48
73
40
0
VERTEX
8
OBJECT__9
10
0
20
0
30
0
70
128
71
38
72
35
73
25
0
VERTEX
8
OBJECT__9
10
0
20
0
30
0
70
128
71
36
72
30
73
26
0
VERTEX
8
OBJECT__9
10
0
20
0
30
0
70
128
71
35
72
37
73
28
0
VERTEX
8
OBJECT__9
10
0
20
0
30
0
70
128
71
31
72
32
73
18
0
VERTEX
8
OBJECT__9
10
0
20
0
30
0
70
128
71
6
72
4
73
19
0
VERTEX
8
OBJECT__9
10
0
20
0
30
0
70
128
71
33
72
34
73
19
0
VERTEX
8
OBJECT__9
10
0
20
0
30
0
70
128
71
31
72
15
73
26
0
VERTEX
8
OBJECT__9
10
0
20
0
30
0
70
128
71
29
72
8
73
7
0
VERTEX
8
OBJECT__9
10
0
20
0
30
0
70
128
71
27
72
23
73
28
0
VERTEX
8
OBJECT__9
10
0
20
0
30
0
70
128
71
25
72
28
73
23
0
VERTEX
8
OBJECT__9
10
0
20
0
30
0
70
128
71
15
72
18
73
22
0
VERTEX
8
OBJECT__9
10
0
20
0
30
0
70
128
71
4
72
67
73
21
0
VERTEX
8
OBJECT__9
10
0
20
0
30
0
70
128
71
20
72
22
73
18
0
VERTEX
8
OBJECT__9
10
0
20
0
30
0
70
128
71
17
72
26
73
15
0
VERTEX
8
OBJECT__9
10
0
20
0
30
0
70
128
71
13
72
39
73
11
0
VERTEX
8
OBJECT__9
10
0
20
0
30
0
70
128
71
9
72
60
73
10
0
VERTEX
8
OBJECT__9
10
0
20
0
30
0
70
128
71
5
72
54
73
1
0
VERTEX
8
OBJECT__9
10
0
20
0
30
0
70
128
71
3
72
67
73
4
0
SEQEND
8
OBJECT__9
0
POLYLINE
8
OBJECT__10
66
1
70
64
71
542
72
652
62
253
0
VERTEX
8
OBJECT__10
10
5.253000
20
-16.167999
30
194.302994
70
192
0
VERTEX
8
OBJECT__10
10
13.753000
20
-9.992000
30
194.302994
70
192
0
VERTEX
8
OBJECT__10
10
11.701000
20
-11.483000
30
214.800003
70
192
0
VERTEX
8
OBJECT__10
10
6.364000
20
-15.361000
30
214.800003
70
192
0
VERTEX
8
OBJECT__10
10
13.753000
20
-9.992000
30
214.800003
70
192
0
VERTEX
8
OBJECT__10
10
5.253000
20
-16.167999
30
173.806000
70
192
0
VERTEX
8
OBJECT__10
10
13.753000
20
-9.992000
30
173.806000
70
192
0
VERTEX
8
OBJECT__10
10
6.275000
20
-15.426000
30
153.309006
70
192
0
VERTEX
8
OBJECT__10
10
11.628000
20
-11.537000
30
153.309006
70
192
0
VERTEX
8
OBJECT__10
10
5.253000
20
-16.167999
30
153.309006
70
192
0
VERTEX
8
OBJECT__10
10
0.107000
20
-16.983000
30
214.800003
70
192
0
VERTEX
8
OBJECT__10
10
0.000000
20
-17.000000
30
214.800003
70
192
0
VERTEX
8
OBJECT__10
10
-5.253000
20
-16.167999
30
194.302994
70
192
0
VERTEX
8
OBJECT__10
10
5.253000
20
-16.167999
30
214.800003
70
192
0
VERTEX
8
OBJECT__10
10
-5.253000
20
-16.167999
30
173.806000
70
192
0
VERTEX
8
OBJECT__10
10
-0.009000
20
-16.167999
30
153.309006
70
192
0
VERTEX
8
OBJECT__10
10
-5.253000
20
-16.167999
30
153.309006
70
192
0
VERTEX
8
OBJECT__10
10
-6.235000
20
-15.455000
30
214.800003
70
192
0
VERTEX
8
OBJECT__10
10
-11.678000
20
-11.500000
30
214.800003
70
192
0
VERTEX
8
OBJECT__10
10
-13.753000
20
-9.992000
30
194.302994
70
192
0
VERTEX
8
OBJECT__10
10
-5.253000
20
-16.167999
30
214.800003
70
192
0
VERTEX
8
OBJECT__10
10
-13.753000
20
-9.992000
30
173.806000
70
192
0
VERTEX
8
OBJECT__10
10
-11.624000
20
-11.539000
30
153.309006
70
192
0
VERTEX
8
OBJECT__10
10
-6.281000
20
-15.422000
30
153.309006
70
192
0
VERTEX
8
OBJECT__10
10
-13.753000
20
-9.992000
30
153.309006
70
192
0
VERTEX
8
OBJECT__10
10
-17.000000
20
0.000000
30
194.302994
70
192
0
VERTEX
8
OBJECT__10
10
-15.005000
20
-6.141000
30
214.800003
70
192
0
VERTEX
8
OBJECT__10
10
-13.753000
20
-9.992000
30
214.800003
70
192
0
VERTEX
8
OBJECT__10
10
-17.000000
20
0.000000
30
173.806000
70
192
0
VERTEX
8
OBJECT__10
10
-17.000000
20
0.000000
30
153.309006
70
192
0
VERTEX
8
OBJECT__10
10
-14.945000
20
-6.324000
30
153.309006
70
192
0
VERTEX
8
OBJECT__10
10
-13.753000
20
9.992000
30
194.302994
70
192
0
VERTEX
8
OBJECT__10
10
-17.000000
20
0.001000
30
214.800003
70
192
0
VERTEX
8
OBJECT__10
10
-15.000000
20
6.154000
30
214.800003
70
192
0
VERTEX
8
OBJECT__10
10
-13.753000
20
9.992000
30
214.800003
70
192
0
VERTEX
8
OBJECT__10
10
-13.753000
20
9.992000
30
173.806000
70
192
0
VERTEX
8
OBJECT__10
10
-14.979000
20
6.221000
30
153.309006
70
192
0
VERTEX
8
OBJECT__10
10
-13.753000
20
9.992000
30
153.309006
70
192
0
VERTEX
8
OBJECT__10
10
-5.253000
20
16.167999
30
194.302994
70
192
0
VERTEX
8
OBJECT__10
10
-11.683000
20
11.497000
30
214.800003
70
192
0
VERTEX
8
OBJECT__10
10
-6.238000
20
15.452000
30
214.800003
70
192
0
VERTEX
8
OBJECT__10
10
-5.253000
20
16.167999
30
173.806000
70
192
0
VERTEX
8
OBJECT__10
10
-6.198000
20
15.481000
30
153.309006
70
192
0
VERTEX
8
OBJECT__10
10
-11.622000
20
11.541000
30
153.309006
70
192
0
VERTEX
8
OBJECT__10
10
-5.253000
20
16.167999
30
153.309006
70
192
0
VERTEX
8
OBJECT__10
10
-5.253000
20
16.167999
30
214.800003
70
192
0
VERTEX
8
OBJECT__10
10
0.106000
20
16.167999
30
214.800003
70
192
0
VERTEX
8
OBJECT__10
10
5.253000
20
16.167999
30
194.302994
70
192
0
VERTEX
8
OBJECT__10
10
5.253000
20
16.167999
30
173.806000
70
192
0
VERTEX
8
OBJECT__10
10
0.001000
20
16.167999
30
153.309006
70
192
0
VERTEX
8
OBJECT__10
10
5.253000
20
16.167999
30
153.309006
70
192
0
VERTEX
8
OBJECT__10
10
6.360000
20
15.364000
30
214.800003
70
192
0
VERTEX
8
OBJECT__10
10
11.696000
20
11.487000
30
214.800003
70
192
0
VERTEX
8
OBJECT__10
10
13.753000
20
9.992000
30
194.302994
70
192
0
VERTEX
8
OBJECT__10
10
5.253000
20
16.167999
30
214.800003
70
192
0
VERTEX
8
OBJECT__10
10
13.753000
20
9.992000
30
173.806000
70
192
0
VERTEX
8
OBJECT__10
10
11.832000
20
11.819000
30
153.309006
70
192
0
VERTEX
8
OBJECT__10
10
6.253000
20
15.507000
30
153.309006
70
192
0
VERTEX
8
OBJECT__10
10
12.818000
20
11.167000
30
153.309006
70
192
0
VERTEX
8
OBJECT__10
10
13.753000
20
9.992000
30
153.309006
70
192
0
VERTEX
8
OBJECT__10
10
16.950001
20
1.297000
30
199.544006
70
192
0
VERTEX
8
OBJECT__10
10
16.993999
20
0.000000
30
198.731995
70
192
0
VERTEX
8
OBJECT__10
10
16.969000
20
1.028000
30
197.223007
70
192
0
VERTEX
8
OBJECT__10
10
16.857000
20
2.031000
30
197.328995
70
192
0
VERTEX
8
OBJECT__10
10
16.152000
20
5.302000
30
199.557007
70
192
0
VERTEX
8
OBJECT__10
10
16.531000
20
3.943000
30
198.720001
70
192
0
VERTEX
8
OBJECT__10
10
16.566999
20
3.811000
30
198.638000
70
192
0
VERTEX
8
OBJECT__10
10
17.000000
20
0.000000
30
194.302994
70
192
0
VERTEX
8
OBJECT__10
10
16.988001
20
0.633000
30
196.250000
70
192
0
VERTEX
8
OBJECT__10
10
16.988001
20
0.634000
30
196.404007
70
192
0
VERTEX
8
OBJECT__10
10
16.988001
20
0.633000
30
196.104996
70
192
0
VERTEX
8
OBJECT__10
10
16.900999
20
1.836000
30
194.884995
70
192
0
VERTEX
8
OBJECT__10
10
13.753000
20
9.992000
30
214.800003
70
192
0
VERTEX
8
OBJECT__10
10
15.572000
20
6.819000
30
197.354004
70
192
0
VERTEX
8
OBJECT__10
10
15.404000
20
7.187000
30
196.190994
70
192
0
VERTEX
8
OBJECT__10
10
16.238001
20
5.033000
30
197.227005
70
192
0
VERTEX
8
OBJECT__10
10
15.869000
20
6.022000
30
197.298004
70
192
0
VERTEX
8
OBJECT__10
10
16.777000
20
2.746000
30
197.404999
70
192
0
VERTEX
8
OBJECT__10
10
16.356001
20
4.633000
30
196.399002
70
192
0
VERTEX
8
OBJECT__10
10
16.701000
20
3.168000
30
196.179001
70
192
0
VERTEX
8
OBJECT__10
10
16.677000
20
3.299000
30
195.798996
70
192
0
VERTEX
8
OBJECT__10
10
16.357000
20
4.631000
30
196.126007
70
192
0
VERTEX
8
OBJECT__10
10
16.357000
20
4.632000
30
196.250000
70
192
0
VERTEX
8
OBJECT__10
10
15.994000
20
5.761000
30
194.895996
70
192
0
VERTEX
8
OBJECT__10
10
16.191000
20
5.176000
30
199.934006
70
192
0
VERTEX
8
OBJECT__10
10
16.316000
20
4.774000
30
201.136002
70
192
0
VERTEX
8
OBJECT__10
10
16.983999
20
0.732000
30
201.164001
70
192
0
VERTEX
8
OBJECT__10
10
16.728001
20
3.030000
30
200.975006
70
192
0
VERTEX
8
OBJECT__10
10
16.492001
20
4.028000
30
201.067001
70
192
0
VERTEX
8
OBJECT__10
10
16.958000
20
1.164000
30
199.925995
70
192
0
VERTEX
8
OBJECT__10
10
16.795000
20
2.633000
30
200.000000
70
192
0
VERTEX
8
OBJECT__10
10
16.795000
20
2.634000
30
200.154007
70
192
0
VERTEX
8
OBJECT__10
10
16.795000
20
2.632000
30
199.862000
70
192
0
VERTEX
8
OBJECT__10
10
15.350000
20
7.305000
30
195.817993
70
192
0
VERTEX
8
OBJECT__10
10
16.882999
20
1.950000
30
194.955994
70
192
0
VERTEX
8
OBJECT__10
10
15.923000
20
5.931000
30
194.996994
70
192
0
VERTEX
8
OBJECT__10
10
17.000000
20
0.000000
30
214.800003
70
192
0
VERTEX
8
OBJECT__10
10
16.979000
20
0.000000
30
201.080994
70
192
0
VERTEX
8
OBJECT__10
10
16.979000
20
0.033000
30
201.085007
70
192
0
VERTEX
8
OBJECT__10
10
14.974000
20
6.235000
30
214.800003
70
192
0
VERTEX
8
OBJECT__10
10
16.978001
20
-0.836000
30
196.175995
70
192
0
VERTEX
8
OBJECT__10
10
16.985001
20
-0.703000
30
195.794006
70
192
0
VERTEX
8
OBJECT__10
10
16.996000
20
-0.048000
30
198.701996
70
192
0
VERTEX
8
OBJECT__10
10
16.999001
20
-0.157000
30
198.634003
70
192
0
VERTEX
8
OBJECT__10
10
16.952999
20
-1.268000
30
197.414001
70
192
0
VERTEX
8
OBJECT__10
10
16.686001
20
-3.254000
30
201.154999
70
192
0
VERTEX
8
OBJECT__10
10
16.945000
20
-1.367000
30
200.149994
70
192
0
VERTEX
8
OBJECT__10
10
16.972000
20
-0.973000
30
200.970993
70
192
0
VERTEX
8
OBJECT__10
10
16.761000
20
-2.833000
30
199.929001
70
192
0
VERTEX
8
OBJECT__10
10
16.945000
20
-1.367000
30
200.000000
70
192
0
VERTEX
8
OBJECT__10
10
16.784000
20
-2.702000
30
199.546997
70
192
0
VERTEX
8
OBJECT__10
10
16.945000
20
-1.367000
30
199.852005
70
192
0
VERTEX
8
OBJECT__10
10
16.474001
20
-4.198000
30
198.639008
70
192
0
VERTEX
8
OBJECT__10
10
16.129999
20
-5.368000
30
199.858002
70
192
0
VERTEX
8
OBJECT__10
10
16.177000
20
-5.226000
30
197.386002
70
192
0
VERTEX
8
OBJECT__10
10
16.299000
20
-4.825000
30
196.184006
70
192
0
VERTEX
8
OBJECT__10
10
16.865000
20
-1.967000
30
197.335007
70
192
0
VERTEX
8
OBJECT__10
10
16.502001
20
-4.059000
30
198.723999
70
192
0
VERTEX
8
OBJECT__10
10
16.738001
20
-2.974000
30
197.220001
70
192
0
VERTEX
8
OBJECT__10
10
16.663000
20
-3.367000
30
196.391998
70
192
0
VERTEX
8
OBJECT__10
10
16.337999
20
-4.699000
30
195.804993
70
192
0
VERTEX
8
OBJECT__10
10
16.663000
20
-3.367000
30
196.102997
70
192
0
VERTEX
8
OBJECT__10
10
16.663000
20
-3.367000
30
196.250000
70
192
0
VERTEX
8
OBJECT__10
10
16.997000
20
-0.009000
30
214.800003
70
192
0
VERTEX
8
OBJECT__10
10
16.507000
20
-3.969000
30
201.078003
70
192
0
VERTEX
8
OBJECT__10
10
14.972000
20
-6.241000
30
214.800003
70
192
0
VERTEX
8
OBJECT__10
10
16.256001
20
-4.974000
30
200.970001
70
192
0
VERTEX
8
OBJECT__10
10
15.504000
20
-6.974000
30
197.220001
70
192
0
VERTEX
8
OBJECT__10
10
16.129999
20
-5.368000
30
200.000000
70
192
0
VERTEX
8
OBJECT__10
10
16.129999
20
-5.369000
30
200.130005
70
192
0
VERTEX
8
OBJECT__10
10
15.890000
20
-5.972000
30
197.315002
70
192
0
VERTEX
8
OBJECT__10
10
15.319000
20
-7.371000
30
196.358994
70
192
0
VERTEX
8
OBJECT__10
10
15.320000
20
-7.369000
30
196.117996
70
192
0
VERTEX
8
OBJECT__10
10
15.320000
20
-7.370000
30
196.250000
70
192
0
VERTEX
8
OBJECT__10
10
15.808000
20
-6.253000
30
194.899002
70
192
0
VERTEX
8
OBJECT__10
10
16.861000
20
-2.168000
30
194.884995
70
192
0
VERTEX
8
OBJECT__10
10
15.870000
20
-6.073000
30
195.003998
70
192
0
VERTEX
8
OBJECT__10
10
16.871000
20
-2.051000
30
194.957993
70
192
0
VERTEX
8
OBJECT__10
10
16.993999
20
0.000000
30
176.231995
70
192
0
VERTEX
8
OBJECT__10
10
17.000000
20
0.000000
30
173.806000
70
192
0
VERTEX
8
OBJECT__10
10
16.988001
20
0.634000
30
173.904007
70
192
0
VERTEX
8
OBJECT__10
10
16.969000
20
1.028000
30
174.723007
70
192
0
VERTEX
8
OBJECT__10
10
16.988001
20
0.633000
30
173.806000
70
192
0
VERTEX
8
OBJECT__10
10
16.900999
20
1.836000
30
179.884995
70
192
0
VERTEX
8
OBJECT__10
10
16.988001
20
0.633000
30
181.104996
70
192
0
VERTEX
8
OBJECT__10
10
16.983999
20
0.732000
30
178.664001
70
192
0
VERTEX
8
OBJECT__10
10
16.958000
20
1.164000
30
177.425995
70
192
0
VERTEX
8
OBJECT__10
10
16.950001
20
1.297000
30
177.044006
70
192
0
VERTEX
8
OBJECT__10
10
16.566999
20
3.811000
30
176.138000
70
192
0
VERTEX
8
OBJECT__10
10
16.795000
20
2.632000
30
177.362000
70
192
0
VERTEX
8
OBJECT__10
10
16.777000
20
2.746000
30
174.904999
70
192
0
VERTEX
8
OBJECT__10
10
16.152000
20
5.302000
30
177.057007
70
192
0
VERTEX
8
OBJECT__10
10
15.572000
20
6.819000
30
174.854004
70
192
0
VERTEX
8
OBJECT__10
10
16.531000
20
3.943000
30
176.220001
70
192
0
VERTEX
8
OBJECT__10
10
16.238001
20
5.033000
30
174.727005
70
192
0
VERTEX
8
OBJECT__10
10
15.869000
20
6.022000
30
174.798004
70
192
0
VERTEX
8
OBJECT__10
10
16.708000
20
3.124000
30
173.806000
70
192
0
VERTEX
8
OBJECT__10
10
16.356001
20
4.633000
30
173.899002
70
192
0
VERTEX
8
OBJECT__10
10
16.357000
20
4.632000
30
173.806000
70
192
0
VERTEX
8
OBJECT__10
10
15.421000
20
7.151000
30
173.806000
70
192
0
VERTEX
8
OBJECT__10
10
16.677000
20
3.299000
30
180.798996
70
192
0
VERTEX
8
OBJECT__10
10
16.882999
20
1.950000
30
179.955994
70
192
0
VERTEX
8
OBJECT__10
10
16.728001
20
3.030000
30
178.475006
70
192
0
VERTEX
8
OBJECT__10
10
16.492001
20
4.028000
30
178.567001
70
192
0
VERTEX
8
OBJECT__10
10
15.350000
20
7.305000
30
180.817993
70
192
0
VERTEX
8
OBJECT__10
10
15.923000
20
5.931000
30
179.996994
70
192
0
VERTEX
8
OBJECT__10
10
15.994000
20
5.761000
30
179.895996
70
192
0
VERTEX
8
OBJECT__10
10
16.795000
20
2.634000
30
177.654007
70
192
0
VERTEX
8
OBJECT__10
10
16.795000
20
2.633000
30
177.500000
70
192
0
VERTEX
8
OBJECT__10
10
16.857000
20
2.031000
30
174.828995
70
192
0
VERTEX
8
OBJECT__10
10
16.900999
20
1.836000
30
187.384995
70
192
0
VERTEX
8
OBJECT__10
10
16.988001
20
0.633000
30
188.604996
70
192
0
VERTEX
8
OBJECT__10
10
16.983999
20
0.732000
30
186.164001
70
192
0
VERTEX
8
OBJECT__10
10
16.958000
20
1.164000
30
184.925995
70
192
0
VERTEX
8
OBJECT__10
10
16.566999
20
3.811000
30
183.638000
70
192
0
VERTEX
8
OBJECT__10
10
16.795000
20
2.632000
30
184.862000
70
192
0
VERTEX
8
OBJECT__10
10
16.777000
20
2.746000
30
182.404999
70
192
0
VERTEX
8
OBJECT__10
10
16.701000
20
3.168000
30
181.179001
70
192
0
VERTEX
8
OBJECT__10
10
16.152000
20
5.302000
30
184.557007
70
192
0
VERTEX
8
OBJECT__10
10
16.531000
20
3.943000
30
183.720001
70
192
0
VERTEX
8
OBJECT__10
10
16.238001
20
5.033000
30
182.227005
70
192
0
VERTEX
8
OBJECT__10
10
15.869000
20
6.022000
30
182.298004
70
192
0
VERTEX
8
OBJECT__10
10
16.356001
20
4.633000
30
181.399002
70
192
0
VERTEX
8
OBJECT__10
10
16.357000
20
4.631000
30
181.126007
70
192
0
VERTEX
8
OBJECT__10
10
16.357000
20
4.632000
30
181.250000
70
192
0
VERTEX
8
OBJECT__10
10
15.572000
20
6.819000
30
182.354004
70
192
0
VERTEX
8
OBJECT__10
10
16.677000
20
3.299000
30
188.298996
70
192
0
VERTEX
8
OBJECT__10
10
16.882999
20
1.950000
30
187.455994
70
192
0
VERTEX
8
OBJECT__10
10
16.728001
20
3.030000
30
185.975006
70
192
0
VERTEX
8
OBJECT__10
10
16.492001
20
4.028000
30
186.067001
70
192
0
VERTEX
8
OBJECT__10
10
15.350000
20
7.305000
30
188.317993
70
192
0
VERTEX
8
OBJECT__10
10
15.923000
20
5.931000
30
187.496994
70
192
0
VERTEX
8
OBJECT__10
10
15.994000
20
5.761000
30
187.395996
70
192
0
VERTEX
8
OBJECT__10
10
16.950001
20
1.297000
30
184.544006
70
192
0
VERTEX
8
OBJECT__10
10
16.993999
20
0.000000
30
183.731995
70
192
0
VERTEX
8
OBJECT__10
10
16.969000
20
1.028000
30
182.223007
70
192
0
VERTEX
8
OBJECT__10
10
16.857000
20
2.031000
30
182.328995
70
192
0
VERTEX
8
OBJECT__10
10
16.795000
20
2.634000
30
185.154007
70
192
0
VERTEX
8
OBJECT__10
10
16.795000
20
2.633000
30
185.000000
70
192
0
VERTEX
8
OBJECT__10
10
16.979000
20
0.000000
30
178.580994
70
192
0
VERTEX
8
OBJECT__10
10
16.988001
20
0.633000
30
181.250000
70
192
0
VERTEX
8
OBJECT__10
10
16.979000
20
0.033000
30
178.585007
70
192
0
VERTEX
8
OBJECT__10
10
16.988001
20
0.634000
30
181.404007
70
192
0
VERTEX
8
OBJECT__10
10
16.777000
20
2.746000
30
189.904999
70
192
0
VERTEX
8
OBJECT__10
10
16.701000
20
3.168000
30
188.679001
70
192
0
VERTEX
8
OBJECT__10
10
16.191000
20
5.176000
30
177.434006
70
192
0
VERTEX
8
OBJECT__10
10
16.316000
20
4.774000
30
178.636002
70
192
0
VERTEX
8
OBJECT__10
10
15.404000
20
7.187000
30
181.190994
70
192
0
VERTEX
8
OBJECT__10
10
16.191000
20
5.176000
30
184.934006
70
192
0
VERTEX
8
OBJECT__10
10
16.316000
20
4.774000
30
186.136002
70
192
0
VERTEX
8
OBJECT__10
10
15.572000
20
6.819000
30
189.854004
70
192
0
VERTEX
8
OBJECT__10
10
15.404000
20
7.187000
30
188.690994
70
192
0
VERTEX
8
OBJECT__10
10
16.191000
20
5.176000
30
192.434006
70
192
0
VERTEX
8
OBJECT__10
10
16.152000
20
5.302000
30
192.057007
70
192
0
VERTEX
8
OBJECT__10
10
16.316000
20
4.774000
30
193.636002
70
192
0
VERTEX
8
OBJECT__10
10
16.492001
20
4.028000
30
193.567001
70
192
0
VERTEX
8
OBJECT__10
10
16.728001
20
3.030000
30
193.475006
70
192
0
VERTEX
8
OBJECT__10
10
16.966000
20
1.073000
30
191.641006
70
192
0
VERTEX
8
OBJECT__10
10
16.981001
20
0.000000
30
191.397995
70
192
0
VERTEX
8
OBJECT__10
10
16.969000
20
1.028000
30
189.723007
70
192
0
VERTEX
8
OBJECT__10
10
16.857000
20
2.031000
30
189.828995
70
192
0
VERTEX
8
OBJECT__10
10
16.795000
20
2.632000
30
192.362000
70
192
0
VERTEX
8
OBJECT__10
10
16.944000
20
1.375000
30
192.500000
70
192
0
VERTEX
8
OBJECT__10
10
16.795000
20
2.634000
30
192.654007
70
192
0
VERTEX
8
OBJECT__10
10
16.947001
20
1.343000
30
192.794998
70
192
0
VERTEX
8
OBJECT__10
10
16.795000
20
2.633000
30
192.500000
70
192
0
VERTEX
8
OBJECT__10
10
17.000000
20
0.007000
30
193.875000
70
192
0
VERTEX
8
OBJECT__10
10
16.566999
20
3.811000
30
191.138000
70
192
0
VERTEX
8
OBJECT__10
10
16.357000
20
4.631000
30
188.626007
70
192
0
VERTEX
8
OBJECT__10
10
16.979000
20
0.000000
30
186.080994
70
192
0
VERTEX
8
OBJECT__10
10
16.988001
20
0.633000
30
188.750000
70
192
0
VERTEX
8
OBJECT__10
10
16.979000
20
0.033000
30
186.085007
70
192
0
VERTEX
8
OBJECT__10
10
16.988001
20
0.634000
30
188.904007
70
192
0
VERTEX
8
OBJECT__10
10
16.531000
20
3.943000
30
191.220001
70
192
0
VERTEX
8
OBJECT__10
10
16.238001
20
5.033000
30
189.727005
70
192
0
VERTEX
8
OBJECT__10
10
15.869000
20
6.022000
30
189.798004
70
192
0
VERTEX
8
OBJECT__10
10
16.356001
20
4.633000
30
188.899002
70
192
0
VERTEX
8
OBJECT__10
10
16.357000
20
4.632000
30
188.750000
70
192
0
VERTEX
8
OBJECT__10
10
17.000000
20
0.000000
30
193.869995
70
192
0
VERTEX
8
OBJECT__10
10
17.000000
20
0.003000
30
193.871994
70
192
0
VERTEX
8
OBJECT__10
10
16.978001
20
-0.836000
30
181.175995
70
192
0
VERTEX
8
OBJECT__10
10
16.996000
20
-0.048000
30
183.701996
70
192
0
VERTEX
8
OBJECT__10
10
16.999001
20
-0.157000
30
183.634003
70
192
0
VERTEX
8
OBJECT__10
10
16.952999
20
-1.268000
30
182.414001
70
192
0
VERTEX
8
OBJECT__10
10
16.985001
20
-0.703000
30
180.794006
70
192
0
VERTEX
8
OBJECT__10
10
16.982000
20
-0.059000
30
191.384995
70
192
0
VERTEX
8
OBJECT__10
10
16.989000
20
-0.600000
30
191.263000
70
192
0
VERTEX
8
OBJECT__10
10
16.952999
20
-1.268000
30
189.914001
70
192
0
VERTEX
8
OBJECT__10
10
16.978001
20
-0.836000
30
188.675995
70
192
0
VERTEX
8
OBJECT__10
10
16.985001
20
-0.703000
30
188.294006
70
192
0
VERTEX
8
OBJECT__10
10
16.999001
20
-0.157000
30
176.134003
70
192
0
VERTEX
8
OBJECT__10
10
16.952999
20
-1.268000
30
174.914001
70
192
0
VERTEX
8
OBJECT__10
10
16.996000
20
-0.048000
30
176.201996
70
192
0
VERTEX
8
OBJECT__10
10
16.871000
20
-2.051000
30
187.457993
70
192
0
VERTEX
8
OBJECT__10
10
16.972000
20
-0.973000
30
185.970993
70
192
0
VERTEX
8
OBJECT__10
10
16.945000
20
-1.367000
30
184.852005
70
192
0
VERTEX
8
OBJECT__10
10
16.861000
20
-2.168000
30
187.384995
70
192
0
VERTEX
8
OBJECT__10
10
16.686001
20
-3.254000
30
186.154999
70
192
0
VERTEX
8
OBJECT__10
10
16.761000
20
-2.833000
30
184.929001
70
192
0
VERTEX
8
OBJECT__10
10
16.337999
20
-4.699000
30
188.304993
70
192
0
VERTEX
8
OBJECT__10
10
16.784000
20
-2.702000
30
184.546997
70
192
0
VERTEX
8
OBJECT__10
10
16.945000
20
-1.367000
30
185.149994
70
192
0
VERTEX
8
OBJECT__10
10
16.945000
20
-1.367000
30
185.000000
70
192
0
VERTEX
8
OBJECT__10
10
16.686001
20
-3.254000
30
193.654999
70
192
0
VERTEX
8
OBJECT__10
10
16.947001
20
-1.339000
30
192.811005
70
192
0
VERTEX
8
OBJECT__10
10
16.784000
20
-2.702000
30
192.046997
70
192
0
VERTEX
8
OBJECT__10
10
16.954000
20
-1.225000
30
192.572006
70
192
0
VERTEX
8
OBJECT__10
10
16.761000
20
-2.833000
30
192.429001
70
192
0
VERTEX
8
OBJECT__10
10
16.871000
20
-2.051000
30
179.957993
70
192
0
VERTEX
8
OBJECT__10
10
16.972000
20
-0.973000
30
178.470993
70
192
0
VERTEX
8
OBJECT__10
10
16.945000
20
-1.367000
30
177.352005
70
192
0
VERTEX
8
OBJECT__10
10
16.861000
20
-2.168000
30
179.884995
70
192
0
VERTEX
8
OBJECT__10
10
16.686001
20
-3.254000
30
178.654999
70
192
0
VERTEX
8
OBJECT__10
10
16.761000
20
-2.833000
30
177.429001
70
192
0
VERTEX
8
OBJECT__10
10
16.337999
20
-4.699000
30
180.804993
70
192
0
VERTEX
8
OBJECT__10
10
16.784000
20
-2.702000
30
177.046997
70
192
0
VERTEX
8
OBJECT__10
10
16.945000
20
-1.367000
30
177.649994
70
192
0
VERTEX
8
OBJECT__10
10
16.945000
20
-1.367000
30
177.500000
70
192
0
VERTEX
8
OBJECT__10
10
16.474001
20
-4.198000
30
176.139008
70
192
0
VERTEX
8
OBJECT__10
10
16.129999
20
-5.368000
30
177.358002
70
192
0
VERTEX
8
OBJECT__10
10
16.177000
20
-5.226000
30
174.886002
70
192
0
VERTEX
8
OBJECT__10
10
16.865000
20
-1.967000
30
174.835007
70
192
0
VERTEX
8
OBJECT__10
10
16.502001
20
-4.059000
30
176.223999
70
192
0
VERTEX
8
OBJECT__10
10
16.738001
20
-2.974000
30
174.720001
70
192
0
VERTEX
8
OBJECT__10
10
16.287001
20
-4.866000
30
173.806000
70
192
0
VERTEX
8
OBJECT__10
10
16.663000
20
-3.367000
30
173.891998
70
192
0
VERTEX
8
OBJECT__10
10
16.663000
20
-3.367000
30
173.806000
70
192
0
VERTEX
8
OBJECT__10
10
16.474001
20
-4.198000
30
183.639008
70
192
0
VERTEX
8
OBJECT__10
10
16.129999
20
-5.368000
30
184.858002
70
192
0
VERTEX
8
OBJECT__10
10
16.177000
20
-5.226000
30
182.386002
70
192
0
VERTEX
8
OBJECT__10
10
16.299000
20
-4.825000
30
181.184006
70
192
0
VERTEX
8
OBJECT__10
10
16.865000
20
-1.967000
30
182.335007
70
192
0
VERTEX
8
OBJECT__10
10
16.502001
20
-4.059000
30
183.723999
70
192
0
VERTEX
8
OBJECT__10
10
16.738001
20
-2.974000
30
182.220001
70
192
0
VERTEX
8
OBJECT__10
10
16.663000
20
-3.367000
30
181.391998
70
192
0
VERTEX
8
OBJECT__10
10
16.663000
20
-3.367000
30
181.102997
70
192
0
VERTEX
8
OBJECT__10
10
16.663000
20
-3.367000
30
181.250000
70
192
0
VERTEX
8
OBJECT__10
10
16.507000
20
-3.969000
30
193.578003
70
192
0
VERTEX
8
OBJECT__10
10
16.256001
20
-4.974000
30
193.470001
70
192
0
VERTEX
8
OBJECT__10
10
15.504000
20
-6.974000
30
189.720001
70
192
0
VERTEX
8
OBJECT__10
10
16.129999
20
-5.368000
30
192.358002
70
192
0
VERTEX
8
OBJECT__10
10
16.129999
20
-5.368000
30
192.500000
70
192
0
VERTEX
8
OBJECT__10
10
15.319000
20
-7.371000
30
188.858994
70
192
0
VERTEX
8
OBJECT__10
10
16.129999
20
-5.369000
30
192.630005
70
192
0
VERTEX
8
OBJECT__10
10
15.320000
20
-7.369000
30
188.617996
70
192
0
VERTEX
8
OBJECT__10
10
15.320000
20
-7.370000
30
188.750000
70
192
0
VERTEX
8
OBJECT__10
10
15.319000
20
-7.371000
30
181.358994
70
192
0
VERTEX
8
OBJECT__10
10
15.504000
20
-6.974000
30
182.220001
70
192
0
VERTEX
8
OBJECT__10
10
15.320000
20
-7.369000
30
181.117996
70
192
0
VERTEX
8
OBJECT__10
10
15.320000
20
-7.370000
30
181.250000
70
192
0
VERTEX
8
OBJECT__10
10
15.808000
20
-6.253000
30
187.399002
70
192
0
VERTEX
8
OBJECT__10
10
15.504000
20
-6.974000
30
174.720001
70
192
0
VERTEX
8
OBJECT__10
10
15.808000
20
-6.253000
30
179.899002
70
192
0
VERTEX
8
OBJECT__10
10
15.319000
20
-7.371000
30
173.858994
70
192
0
VERTEX
8
OBJECT__10
10
15.319000
20
-7.370000
30
173.806000
70
192
0
VERTEX
8
OBJECT__10
10
16.474001
20
-4.198000
30
191.139008
70
192
0
VERTEX
8
OBJECT__10
10
15.870000
20
-6.073000
30
180.003998
70
192
0
VERTEX
8
OBJECT__10
10
16.256001
20
-4.974000
30
178.470001
70
192
0
VERTEX
8
OBJECT__10
10
16.507000
20
-3.969000
30
178.578003
70
192
0
VERTEX
8
OBJECT__10
10
16.129999
20
-5.369000
30
177.630005
70
192
0
VERTEX
8
OBJECT__10
10
16.129999
20
-5.368000
30
177.500000
70
192
0
VERTEX
8
OBJECT__10
10
15.890000
20
-5.972000
30
174.815002
70
192
0
VERTEX
8
OBJECT__10
10
15.870000
20
-6.073000
30
187.503998
70
192
0
VERTEX
8
OBJECT__10
10
16.256001
20
-4.974000
30
185.970001
70
192
0
VERTEX
8
OBJECT__10
10
16.507000
20
-3.969000
30
186.078003
70
192
0
VERTEX
8
OBJECT__10
10
16.129999
20
-5.369000
30
185.130005
70
192
0
VERTEX
8
OBJECT__10
10
16.129999
20
-5.368000
30
185.000000
70
192
0
VERTEX
8
OBJECT__10
10
15.890000
20
-5.972000
30
182.315002
70
192
0
VERTEX
8
OBJECT__10
10
16.865000
20
-1.967000
30
189.835007
70
192
0
VERTEX
8
OBJECT__10
10
16.502001
20
-4.059000
30
191.223999
70
192
0
VERTEX
8
OBJECT__10
10
16.738001
20
-2.974000
30
189.720001
70
192
0
VERTEX
8
OBJECT__10
10
16.177000
20
-5.226000
30
189.886002
70
192
0
VERTEX
8
OBJECT__10
10
16.663000
20
-3.367000
30
188.891998
70
192
0
VERTEX
8
OBJECT__10
10
16.299000
20
-4.825000
30
188.684006
70
192
0
VERTEX
8
OBJECT__10
10
16.663000
20
-3.367000
30
188.602997
70
192
0
VERTEX
8
OBJECT__10
10
16.663000
20
-3.367000
30
188.750000
70
192
0
VERTEX
8
OBJECT__10
10
15.890000
20
-5.972000
30
189.815002
70
192
0
VERTEX
8
OBJECT__10
10
16.975000
20
-0.882000
30
173.806000
70
192
0
VERTEX
8
OBJECT__10
10
16.988001
20
0.633000
30
173.604996
70
192
0
VERTEX
8
OBJECT__10
10
16.988001
20
0.633000
30
173.750000
70
192
0
VERTEX
8
OBJECT__10
10
16.983999
20
0.732000
30
171.164001
70
192
0
VERTEX
8
OBJECT__10
10
16.790001
20
2.662000
30
170.317993
70
192
0
VERTEX
8
OBJECT__10
10
16.900999
20
1.836000
30
172.384995
70
192
0
VERTEX
8
OBJECT__10
10
16.979000
20
0.033000
30
171.085007
70
192
0
VERTEX
8
OBJECT__10
10
16.979000
20
0.000000
30
171.080994
70
192
0
VERTEX
8
OBJECT__10
10
16.882999
20
1.950000
30
172.455994
70
192
0
VERTEX
8
OBJECT__10
10
16.516001
20
4.020000
30
171.348007
70
192
0
VERTEX
8
OBJECT__10
10
16.677000
20
3.299000
30
173.298996
70
192
0
VERTEX
8
OBJECT__10
10
16.510000
20
4.053000
30
171.373993
70
192
0
VERTEX
8
OBJECT__10
10
15.350000
20
7.305000
30
173.317993
70
192
0
VERTEX
8
OBJECT__10
10
15.923000
20
5.931000
30
172.496994
70
192
0
VERTEX
8
OBJECT__10
10
15.994000
20
5.761000
30
172.395996
70
192
0
VERTEX
8
OBJECT__10
10
16.701000
20
3.168000
30
173.679001
70
192
0
VERTEX
8
OBJECT__10
10
16.357000
20
4.631000
30
173.626007
70
192
0
VERTEX
8
OBJECT__10
10
16.357000
20
4.632000
30
173.750000
70
192
0
VERTEX
8
OBJECT__10
10
16.900999
20
1.836000
30
164.884995
70
192
0
VERTEX
8
OBJECT__10
10
16.988001
20
0.633000
30
166.104996
70
192
0
VERTEX
8
OBJECT__10
10
16.983999
20
0.732000
30
163.664001
70
192
0
VERTEX
8
OBJECT__10
10
16.958000
20
1.164000
30
162.425995
70
192
0
VERTEX
8
OBJECT__10
10
16.566999
20
3.811000
30
161.138000
70
192
0
VERTEX
8
OBJECT__10
10
16.795000
20
2.632000
30
162.362000
70
192
0
VERTEX
8
OBJECT__10
10
16.777000
20
2.746000
30
159.904999
70
192
0
VERTEX
8
OBJECT__10
10
16.701000
20
3.168000
30
158.679001
70
192
0
VERTEX
8
OBJECT__10
10
16.152000
20
5.302000
30
162.057007
70
192
0
VERTEX
8
OBJECT__10
10
16.531000
20
3.943000
30
161.220001
70
192
0
VERTEX
8
OBJECT__10
10
16.238001
20
5.033000
30
159.727005
70
192
0
VERTEX
8
OBJECT__10
10
15.869000
20
6.022000
30
159.798004
70
192
0
VERTEX
8
OBJECT__10
10
16.356001
20
4.633000
30
158.899002
70
192
0
VERTEX
8
OBJECT__10
10
16.677000
20
3.299000
30
158.298996
70
192
0
VERTEX
8
OBJECT__10
10
16.357000
20
4.631000
30
158.626007
70
192
0
VERTEX
8
OBJECT__10
10
16.357000
20
4.632000
30
158.750000
70
192
0
VERTEX
8
OBJECT__10
10
15.994000
20
5.761000
30
157.395996
70
192
0
VERTEX
8
OBJECT__10
10
15.572000
20
6.819000
30
159.854004
70
192
0
VERTEX
8
OBJECT__10
10
16.677000
20
3.299000
30
165.798996
70
192
0
VERTEX
8
OBJECT__10
10
16.882999
20
1.950000
30
164.955994
70
192
0
VERTEX
8
OBJECT__10
10
16.728001
20
3.030000
30
163.475006
70
192
0
VERTEX
8
OBJECT__10
10
16.492001
20
4.028000
30
163.567001
70
192
0
VERTEX
8
OBJECT__10
10
15.350000
20
7.305000
30
165.817993
70
192
0
VERTEX
8
OBJECT__10
10
15.923000
20
5.931000
30
164.996994
70
192
0
VERTEX
8
OBJECT__10
10
15.994000
20
5.761000
30
164.895996
70
192
0
VERTEX
8
OBJECT__10
10
16.950001
20
1.297000
30
162.044006
70
192
0
VERTEX
8
OBJECT__10
10
16.993999
20
0.000000
30
161.231995
70
192
0
VERTEX
8
OBJECT__10
10
16.969000
20
1.028000
30
159.723007
70
192
0
VERTEX
8
OBJECT__10
10
16.857000
20
2.031000
30
159.828995
70
192
0
VERTEX
8
OBJECT__10
10
16.795000
20
2.634000
30
162.654007
70
192
0
VERTEX
8
OBJECT__10
10
16.795000
20
2.633000
30
162.500000
70
192
0
VERTEX
8
OBJECT__10
10
16.979000
20
0.000000
30
156.080994
70
192
0
VERTEX
8
OBJECT__10
10
16.988001
20
0.633000
30
158.604996
70
192
0
VERTEX
8
OBJECT__10
10
16.988001
20
0.633000
30
158.750000
70
192
0
VERTEX
8
OBJECT__10
10
16.988001
20
0.634000
30
158.904007
70
192
0
VERTEX
8
OBJECT__10
10
16.983999
20
0.732000
30
156.164001
70
192
0
VERTEX
8
OBJECT__10
10
16.790001
20
2.662000
30
155.317001
70
192
0
VERTEX
8
OBJECT__10
10
16.900999
20
1.836000
30
157.384995
70
192
0
VERTEX
8
OBJECT__10
10
16.979000
20
0.033000
30
156.085007
70
192
0
VERTEX
8
OBJECT__10
10
16.510000
20
4.053000
30
156.373993
70
192
0
VERTEX
8
OBJECT__10
10
16.136999
20
5.348000
30
155.270004
70
192
0
VERTEX
8
OBJECT__10
10
15.923000
20
5.931000
30
157.496994
70
192
0
VERTEX
8
OBJECT__10
10
15.350000
20
7.305000
30
158.317993
70
192
0
VERTEX
8
OBJECT__10
10
16.128000
20
5.375000
30
155.007996
70
192
0
VERTEX
8
OBJECT__10
10
16.882999
20
1.950000
30
157.455994
70
192
0
VERTEX
8
OBJECT__10
10
16.517000
20
4.020000
30
156.348999
70
192
0
VERTEX
8
OBJECT__10
10
15.404000
20
7.187000
30
158.690994
70
192
0
VERTEX
8
OBJECT__10
10
16.191000
20
5.176000
30
162.434006
70
192
0
VERTEX
8
OBJECT__10
10
16.316000
20
4.774000
30
163.636002
70
192
0
VERTEX
8
OBJECT__10
10
15.572000
20
6.819000
30
167.354004
70
192
0
VERTEX
8
OBJECT__10
10
15.404000
20
7.187000
30
166.190994
70
192
0
VERTEX
8
OBJECT__10
10
16.226000
20
5.072000
30
169.139008
70
192
0
VERTEX
8
OBJECT__10
10
16.516001
20
3.943000
30
168.897995
70
192
0
VERTEX
8
OBJECT__10
10
16.238001
20
5.033000
30
167.227005
70
192
0
VERTEX
8
OBJECT__10
10
15.869000
20
6.022000
30
167.298004
70
192
0
VERTEX
8
OBJECT__10
10
16.128000
20
5.375000
30
170.007004
70
192
0
VERTEX
8
OBJECT__10
10
16.129000
20
5.373000
30
170.001007
70
192
0
VERTEX
8
OBJECT__10
10
16.777000
20
2.746000
30
167.404999
70
192
0
VERTEX
8
OBJECT__10
10
16.356001
20
4.633000
30
166.399002
70
192
0
VERTEX
8
OBJECT__10
10
16.701000
20
3.168000
30
166.179001
70
192
0
VERTEX
8
OBJECT__10
10
16.357000
20
4.632000
30
166.250000
70
192
0
VERTEX
8
OBJECT__10
10
16.357000
20
4.631000
30
166.126007
70
192
0
VERTEX
8
OBJECT__10
10
16.950001
20
1.297000
30
169.544006
70
192
0
VERTEX
8
OBJECT__10
10
16.857000
20
2.031000
30
167.328995
70
192
0
VERTEX
8
OBJECT__10
10
16.993999
20
0.000000
30
168.731995
70
192
0
VERTEX
8
OBJECT__10
10
16.969000
20
1.028000
30
167.223007
70
192
0
VERTEX
8
OBJECT__10
10
16.662001
20
3.374000
30
168.776001
70
192
0
VERTEX
8
OBJECT__10
10
16.979000
20
0.000000
30
163.580994
70
192
0
VERTEX
8
OBJECT__10
10
16.988001
20
0.633000
30
166.250000
70
192
0
VERTEX
8
OBJECT__10
10
16.979000
20
0.033000
30
163.585007
70
192
0
VERTEX
8
OBJECT__10
10
16.988001
20
0.634000
30
166.404007
70
192
0
VERTEX
8
OBJECT__10
10
16.770000
20
2.777000
30
170.070007
70
192
0
VERTEX
8
OBJECT__10
10
16.958000
20
1.164000
30
169.925995
70
192
0
VERTEX
8
OBJECT__10
10
17.000000
20
0.000000
30
153.309006
70
192
0
VERTEX
8
OBJECT__10
10
16.662001
20
3.375000
30
153.776001
70
192
0
VERTEX
8
OBJECT__10
10
16.950001
20
1.297000
30
154.544006
70
192
0
VERTEX
8
OBJECT__10
10
14.977000
20
6.225000
30
153.309006
70
192
0
VERTEX
8
OBJECT__10
10
16.226000
20
5.073000
30
154.139999
70
192
0
VERTEX
8
OBJECT__10
10
16.516001
20
3.943000
30
153.897003
70
192
0
VERTEX
8
OBJECT__10
10
16.129000
20
5.372000
30
155.001007
70
192
0
VERTEX
8
OBJECT__10
10
16.770000
20
2.777000
30
155.070007
70
192
0
VERTEX
8
OBJECT__10
10
16.958000
20
1.164000
30
154.925995
70
192
0
VERTEX
8
OBJECT__10
10
16.993999
20
0.000000
30
153.731995
70
192
0
VERTEX
8
OBJECT__10
10
16.136999
20
5.348000
30
170.268997
70
192
0
VERTEX
8
OBJECT__10
10
15.404000
20
7.187000
30
173.690994
70
192
0
VERTEX
8
OBJECT__10
10
16.978001
20
-0.836000
30
158.675995
70
192
0
VERTEX
8
OBJECT__10
10
16.996000
20
-0.048000
30
161.201996
70
192
0
VERTEX
8
OBJECT__10
10
16.999001
20
-0.157000
30
161.134003
70
192
0
VERTEX
8
OBJECT__10
10
16.952999
20
-1.268000
30
159.914001
70
192
0
VERTEX
8
OBJECT__10
10
16.985001
20
-0.703000
30
158.294006
70
192
0
VERTEX
8
OBJECT__10
10
16.978001
20
-0.836000
30
166.175995
70
192
0
VERTEX
8
OBJECT__10
10
16.996000
20
-0.048000
30
168.701996
70
192
0
VERTEX
8
OBJECT__10
10
16.999001
20
-0.157000
30
168.634003
70
192
0
VERTEX
8
OBJECT__10
10
16.952999
20
-1.268000
30
167.414001
70
192
0
VERTEX
8
OBJECT__10
10
16.985001
20
-0.703000
30
165.794006
70
192
0
VERTEX
8
OBJECT__10
10
16.985001
20
-0.703000
30
173.294006
70
192
0
VERTEX
8
OBJECT__10
10
16.871000
20
-2.051000
30
172.457993
70
192
0
VERTEX
8
OBJECT__10
10
16.972000
20
-0.973000
30
170.970993
70
192
0
VERTEX
8
OBJECT__10
10
16.686001
20
-3.254000
30
171.154999
70
192
0
VERTEX
8
OBJECT__10
10
16.945000
20
-1.367000
30
170.149994
70
192
0
VERTEX
8
OBJECT__10
10
16.861000
20
-2.168000
30
172.384995
70
192
0
VERTEX
8
OBJECT__10
10
16.761000
20
-2.833000
30
169.929001
70
192
0
VERTEX
8
OBJECT__10
10
16.945000
20
-1.367000
30
170.000000
70
192
0
VERTEX
8
OBJECT__10
10
16.784000
20
-2.702000
30
169.546997
70
192
0
VERTEX
8
OBJECT__10
10
16.945000
20
-1.367000
30
169.852005
70
192
0
VERTEX
8
OBJECT__10
10
16.871000
20
-2.051000
30
157.457993
70
192
0
VERTEX
8
OBJECT__10
10
16.972000
20
-0.973000
30
155.970993
70
192
0
VERTEX
8
OBJECT__10
10
16.945000
20
-1.367000
30
154.852005
70
192
0
VERTEX
8
OBJECT__10
10
16.861000
20
-2.168000
30
157.384995
70
192
0
VERTEX
8
OBJECT__10
10
16.686001
20
-3.254000
30
156.154999
70
192
0
VERTEX
8
OBJECT__10
10
16.761000
20
-2.833000
30
154.929001
70
192
0
VERTEX
8
OBJECT__10
10
16.337999
20
-4.699000
30
158.304993
70
192
0
VERTEX
8
OBJECT__10
10
16.784000
20
-2.702000
30
154.546997
70
192
0
VERTEX
8
OBJECT__10
10
16.999001
20
-0.157000
30
153.634003
70
192
0
VERTEX
8
OBJECT__10
10
16.945000
20
-1.367000
30
155.149994
70
192
0
VERTEX
8
OBJECT__10
10
16.945000
20
-1.367000
30
155.000000
70
192
0
VERTEX
8
OBJECT__10
10
16.871000
20
-2.051000
30
164.957993
70
192
0
VERTEX
8
OBJECT__10
10
16.972000
20
-0.973000
30
163.470993
70
192
0
VERTEX
8
OBJECT__10
10
16.945000
20
-1.367000
30
162.352005
70
192
0
VERTEX
8
OBJECT__10
10
16.861000
20
-2.168000
30
164.884995
70
192
0
VERTEX
8
OBJECT__10
10
16.686001
20
-3.254000
30
163.654999
70
192
0
VERTEX
8
OBJECT__10
10
16.761000
20
-2.833000
30
162.429001
70
192
0
VERTEX
8
OBJECT__10
10
16.337999
20
-4.699000
30
165.804993
70
192
0
VERTEX
8
OBJECT__10
10
16.784000
20
-2.702000
30
162.046997
70
192
0
VERTEX
8
OBJECT__10
10
16.945000
20
-1.367000
30
162.649994
70
192
0
VERTEX
8
OBJECT__10
10
16.945000
20
-1.367000
30
162.500000
70
192
0
VERTEX
8
OBJECT__10
10
16.474001
20
-4.198000
30
168.639008
70
192
0
VERTEX
8
OBJECT__10
10
16.129999
20
-5.368000
30
169.858002
70
192
0
VERTEX
8
OBJECT__10
10
16.177000
20
-5.226000
30
167.386002
70
192
0
VERTEX
8
OBJECT__10
10
16.299000
20
-4.825000
30
166.184006
70
192
0
VERTEX
8
OBJECT__10
10
16.865000
20
-1.967000
30
167.335007
70
192
0
VERTEX
8
OBJECT__10
10
16.502001
20
-4.059000
30
168.723999
70
192
0
VERTEX
8
OBJECT__10
10
16.738001
20
-2.974000
30
167.220001
70
192
0
VERTEX
8
OBJECT__10
10
16.663000
20
-3.367000
30
166.391998
70
192
0
VERTEX
8
OBJECT__10
10
16.663000
20
-3.367000
30
166.102997
70
192
0
VERTEX
8
OBJECT__10
10
16.663000
20
-3.367000
30
166.250000
70
192
0
VERTEX
8
OBJECT__10
10
16.474001
20
-4.198000
30
161.139008
70
192
0
VERTEX
8
OBJECT__10
10
16.129999
20
-5.368000
30
162.358002
70
192
0
VERTEX
8
OBJECT__10
10
16.177000
20
-5.226000
30
159.886002
70
192
0
VERTEX
8
OBJECT__10
10
16.299000
20
-4.825000
30
158.684006
70
192
0
VERTEX
8
OBJECT__10
10
16.865000
20
-1.967000
30
159.835007
70
192
0
VERTEX
8
OBJECT__10
10
16.502001
20
-4.059000
30
161.223999
70
192
0
VERTEX
8
OBJECT__10
10
16.738001
20
-2.974000
30
159.720001
70
192
0
VERTEX
8
OBJECT__10
10
16.663000
20
-3.367000
30
158.891998
70
192
0
VERTEX
8
OBJECT__10
10
16.663000
20
-3.367000
30
158.602997
70
192
0
VERTEX
8
OBJECT__10
10
16.663000
20
-3.367000
30
158.750000
70
192
0
VERTEX
8
OBJECT__10
10
15.320000
20
-7.369000
30
173.617996
70
192
0
VERTEX
8
OBJECT__10
10
15.320000
20
-7.370000
30
173.750000
70
192
0
VERTEX
8
OBJECT__10
10
15.504000
20
-6.974000
30
167.220001
70
192
0
VERTEX
8
OBJECT__10
10
15.808000
20
-6.253000
30
172.399002
70
192
0
VERTEX
8
OBJECT__10
10
15.319000
20
-7.371000
30
166.358994
70
192
0
VERTEX
8
OBJECT__10
10
13.753000
20
-9.992000
30
153.309006
70
192
0
VERTEX
8
OBJECT__10
10
15.320000
20
-7.369000
30
166.117996
70
192
0
VERTEX
8
OBJECT__10
10
15.320000
20
-7.370000
30
166.250000
70
192
0
VERTEX
8
OBJECT__10
10
15.319000
20
-7.371000
30
158.858994
70
192
0
VERTEX
8
OBJECT__10
10
15.504000
20
-6.974000
30
159.720001
70
192
0
VERTEX
8
OBJECT__10
10
15.320000
20
-7.369000
30
158.617996
70
192
0
VERTEX
8
OBJECT__10
10
15.320000
20
-7.370000
30
158.750000
70
192
0
VERTEX
8
OBJECT__10
10
14.947000
20
-6.319000
30
153.309006
70
192
0
VERTEX
8
OBJECT__10
10
15.808000
20
-6.253000
30
157.399002
70
192
0
VERTEX
8
OBJECT__10
10
15.808000
20
-6.253000
30
164.899002
70
192
0
VERTEX
8
OBJECT__10
10
15.870000
20
-6.073000
30
165.003998
70
192
0
VERTEX
8
OBJECT__10
10
16.256001
20
-4.974000
30
163.470001
70
192
0
VERTEX
8
OBJECT__10
10
16.507000
20
-3.969000
30
163.578003
70
192
0
VERTEX
8
OBJECT__10
10
16.129999
20
-5.369000
30
162.630005
70
192
0
VERTEX
8
OBJECT__10
10
16.129999
20
-5.368000
30
162.500000
70
192
0
VERTEX
8
OBJECT__10
10
15.890000
20
-5.972000
30
159.815002
70
192
0
VERTEX
8
OBJECT__10
10
16.337999
20
-4.699000
30
173.304993
70
192
0
VERTEX
8
OBJECT__10
10
16.507000
20
-3.969000
30
171.078003
70
192
0
VERTEX
8
OBJECT__10
10
15.870000
20
-6.073000
30
172.503998
70
192
0
VERTEX
8
OBJECT__10
10
16.256001
20
-4.974000
30
170.970001
70
192
0
VERTEX
8
OBJECT__10
10
16.129999
20
-5.369000
30
170.130005
70
192
0
VERTEX
8
OBJECT__10
10
16.129999
20
-5.368000
30
170.000000
70
192
0
VERTEX
8
OBJECT__10
10
15.890000
20
-5.972000
30
167.315002
70
192
0
VERTEX
8
OBJECT__10
10
15.870000
20
-6.073000
30
157.503998
70
192
0
VERTEX
8
OBJECT__10
10
16.256001
20
-4.974000
30
155.970001
70
192
0
VERTEX
8
OBJECT__10
10
16.507000
20
-3.969000
30
156.078003
70
192
0
VERTEX
8
OBJECT__10
10
16.129999
20
-5.369000
30
155.130005
70
192
0
VERTEX
8
OBJECT__10
10
16.129999
20
-5.368000
30
155.000000
70
192
0
VERTEX
8
OBJECT__10
10
16.129999
20
-5.368000
30
154.858002
70
192
0
VERTEX
8
OBJECT__10
10
16.474001
20
-4.198000
30
153.639008
70
192
0
VERTEX
8
OBJECT__10
10
16.502001
20
-4.059000
30
153.723999
70
192
0
VERTEX
8
OBJECT__10
10
16.996000
20
-0.048000
30
153.701996
70
192
0
VERTEX
8
OBJECT__10
10
16.978001
20
-0.836000
30
173.675995
70
192
0
VERTEX
8
OBJECT__10
10
16.299000
20
-4.825000
30
173.684006
70
192
0
VERTEX
8
OBJECT__10
10
16.663000
20
-3.367000
30
173.602997
70
192
0
VERTEX
8
OBJECT__10
10
16.663000
20
-3.367000
30
173.750000
70
192
0
VERTEX
8
OBJECT__10
10
0
20
0
30
0
70
128
71
1
72
2
73
3
0
VERTEX
8
OBJECT__10
10
0
20
0
30
0
70
128
71
3
72
4
73
1
0
VERTEX
8
OBJECT__10
10
0
20
0
30
0
70
128
71
2
72
5
73
3
0
VERTEX
8
OBJECT__10
10
0
20
0
30
0
70
128
71
1
72
6
73
7
0
VERTEX
8
OBJECT__10
10
0
20
0
30
0
70
128
71
6
72
8
73
9
0
VERTEX
8
OBJECT__10
10
0
20
0
30
0
70
128
71
9
72
7
73
6
0
VERTEX
8
OBJECT__10
10
0
20
0
30
0
70
128
71
6
72
10
73
8
0
VERTEX
8
OBJECT__10
10
0
20
0
30
0
70
128
71
1
72
11
73
12
0
VERTEX
8
OBJECT__10
10
0
20
0
30
0
70
128
71
12
72
13
73
1
0
VERTEX
8
OBJECT__10
10
0
20
0
30
0
70
128
71
1
72
14
73
11
0
VERTEX
8
OBJECT__10
10
0
20
0
30
0
70
128
71
13
72
15
73
6
0
VERTEX
8
OBJECT__10
10
0
20
0
30
0
70
128
71
6
72
15
73
16
0
VERTEX
8
OBJECT__10
10
0
20
0
30
0
70
128
71
15
72
17
73
16
0
VERTEX
8
OBJECT__10
10
0
20
0
30
0
70
128
71
13
72
18
73
19
0
VERTEX
8
OBJECT__10
10
0
20
0
30
0
70
128
71
19
72
20
73
13
0
VERTEX
8
OBJECT__10
10
0
20
0
30
0
70
128
71
13
72
21
73
18
0
VERTEX
8
OBJECT__10
10
0
20
0
30
0
70
128
71
20
72
22
73
15
0
VERTEX
8
OBJECT__10
10
0
20
0
30
0
70
128
71
15
72
22
73
23
0
VERTEX
8
OBJECT__10
10
0
20
0
30
0
70
128
71
23
72
24
73
15
0
VERTEX
8
OBJECT__10
10
0
20
0
30
0
70
128
71
22
72
25
73
23
0
VERTEX
8
OBJECT__10
10
0
20
0
30
0
70
128
71
26
72
20
73
27
0
VERTEX
8
OBJECT__10
10
0
20
0
30
0
70
128
71
20
72
28
73
27
0
VERTEX
8
OBJECT__10
10
0
20
0
30
0
70
128
71
26
72
29
73
22
0
VERTEX
8
OBJECT__10
10
0
20
0
30
0
70
128
71
29
72
30
73
31
0
VERTEX
8
OBJECT__10
10
0
20
0
30
0
70
128
71
31
72
22
73
29
0
VERTEX
8
OBJECT__10
10
0
20
0
30
0
70
128
71
32
72
33
73
34
0
VERTEX
8
OBJECT__10
10
0
20
0
30
0
70
128
71
33
72
32
73
26
0
VERTEX
8
OBJECT__10
10
0
20
0
30
0
70
128
71
34
72
35
73
32
0
VERTEX
8
OBJECT__10
10
0
20
0
30
0
70
128
71
32
72
36
73
29
0
VERTEX
8
OBJECT__10
10
0
20
0
30
0
70
128
71
29
72
36
73
37
0
VERTEX
8
OBJECT__10
10
0
20
0
30
0
70
128
71
36
72
38
73
37
0
VERTEX
8
OBJECT__10
10
0
20
0
30
0
70
128
71
39
72
32
73
40
0
VERTEX
8
OBJECT__10
10
0
20
0
30
0
70
128
71
40
72
41
73
39
0
VERTEX
8
OBJECT__10
10
0
20
0
30
0
70
128
71
32
72
35
73
40
0
VERTEX
8
OBJECT__10
10
0
20
0
30
0
70
128
71
39
72
42
73
36
0
VERTEX
8
OBJECT__10
10
0
20
0
30
0
70
128
71
42
72
43
73
44
0
VERTEX
8
OBJECT__10
10
0
20
0
30
0
70
128
71
44
72
36
73
42
0
VERTEX
8
OBJECT__10
10
0
20
0
30
0
70
128
71
42
72
45
73
43
0
VERTEX
8
OBJECT__10
10
0
20
0
30
0
70
128
71
39
72
46
73
47
0
VERTEX
8
OBJECT__10
10
0
20
0
30
0
70
128
71
47
72
48
73
39
0
VERTEX
8
OBJECT__10
10
0
20
0
30
0
70
128
71
48
72
49
73
42
0
VERTEX
8
OBJECT__10
10
0
20
0
30
0
70
128
71
42
72
49
73
50
0
VERTEX
8
OBJECT__10
10
0
20
0
30
0
70
128
71
49
72
51
73
50
0
VERTEX
8
OBJECT__10
10
0
20
0
30
0
70
128
71
48
72
52
73
53
0
VERTEX
8
OBJECT__10
10
0
20
0
30
0
70
128
71
53
72
54
73
48
0
VERTEX
8
OBJECT__10
10
0
20
0
30
0
70
128
71
48
72
55
73
52
0
VERTEX
8
OBJECT__10
10
0
20
0
30
0
70
128
71
54
72
56
73
49
0
VERTEX
8
OBJECT__10
10
0
20
0
30
0
70
128
71
49
72
56
73
57
0
VERTEX
8
OBJECT__10
10
0
20
0
30
0
70
128
71
57
72
58
73
49
0
VERTEX
8
OBJECT__10
10
0
20
0
30
0
70
128
71
56
72
59
73
57
0
VERTEX
8
OBJECT__10
10
0
20
0
30
0
70
128
71
56
72
60
73
59
0
VERTEX
8
OBJECT__10
10
0
20
0
30
0
70
128
71
61
72
62
73
63
0
VERTEX
8
OBJECT__10
10
0
20
0
30
0
70
128
71
63
72
64
73
61
0
VERTEX
8
OBJECT__10
10
0
20
0
30
0
70
128
71
64
72
65
73
66
0
VERTEX
8
OBJECT__10
10
0
20
0
30
0
70
128
71
66
72
67
73
64
0
VERTEX
8
OBJECT__10
10
0
20
0
30
0
70
128
71
68
72
69
73
70
0
VERTEX
8
OBJECT__10
10
0
20
0
30
0
70
128
71
68
72
71
73
69
0
VERTEX
8
OBJECT__10
10
0
20
0
30
0
70
128
71
70
72
62
73
68
0
VERTEX
8
OBJECT__10
10
0
20
0
30
0
70
128
71
68
72
72
73
71
0
VERTEX
8
OBJECT__10
10
0
20
0
30
0
70
128
71
70
72
63
73
62
0
VERTEX
8
OBJECT__10
10
0
20
0
30
0
70
128
71
73
72
74
73
75
0
VERTEX
8
OBJECT__10
10
0
20
0
30
0
70
128
71
65
72
76
73
77
0
VERTEX
8
OBJECT__10
10
0
20
0
30
0
70
128
71
78
72
79
73
76
0
VERTEX
8
OBJECT__10
10
0
20
0
30
0
70
128
71
80
72
81
73
82
0
VERTEX
8
OBJECT__10
10
0
20
0
30
0
70
128
71
82
72
83
73
80
0
VERTEX
8
OBJECT__10
10
0
20
0
30
0
70
128
71
79
72
78
73
80
0
VERTEX
8
OBJECT__10
10
0
20
0
30
0
70
128
71
83
72
79
73
80
0
VERTEX
8
OBJECT__10
10
0
20
0
30
0
70
128
71
81
72
84
73
82
0
VERTEX
8
OBJECT__10
10
0
20
0
30
0
70
128
71
76
72
65
73
78
0
VERTEX
8
OBJECT__10
10
0
20
0
30
0
70
128
71
73
72
85
73
65
0
VERTEX
8
OBJECT__10
10
0
20
0
30
0
70
128
71
73
72
86
73
85
0
VERTEX
8
OBJECT__10
10
0
20
0
30
0
70
128
71
65
72
74
73
73
0
VERTEX
8
OBJECT__10
10
0
20
0
30
0
70
128
71
77
72
74
73
65
0
VERTEX
8
OBJECT__10
10
0
20
0
30
0
70
128
71
73
72
87
73
88
0
VERTEX
8
OBJECT__10
10
0
20
0
30
0
70
128
71
88
72
89
73
73
0
VERTEX
8
OBJECT__10
10
0
20
0
30
0
70
128
71
90
72
91
73
92
0
VERTEX
8
OBJECT__10
10
0
20
0
30
0
70
128
71
90
72
61
73
93
0
VERTEX
8
OBJECT__10
10
0
20
0
30
0
70
128
71
93
72
91
73
90
0
VERTEX
8
OBJECT__10
10
0
20
0
30
0
70
128
71
92
72
87
73
90
0
VERTEX
8
OBJECT__10
10
0
20
0
30
0
70
128
71
61
72
67
73
93
0
VERTEX
8
OBJECT__10
10
0
20
0
30
0
70
128
71
92
72
88
73
87
0
VERTEX
8
OBJECT__10
10
0
20
0
30
0
70
128
71
89
72
86
73
73
0
VERTEX
8
OBJECT__10
10
0
20
0
30
0
70
128
71
75
72
94
73
73
0
VERTEX
8
OBJECT__10
10
0
20
0
30
0
70
128
71
65
72
64
73
78
0
VERTEX
8
OBJECT__10
10
0
20
0
30
0
70
128
71
84
72
81
73
95
0
VERTEX
8
OBJECT__10
10
0
20
0
30
0
70
128
71
72
72
54
73
84
0
VERTEX
8
OBJECT__10
10
0
20
0
30
0
70
128
71
95
72
72
73
84
0
VERTEX
8
OBJECT__10
10
0
20
0
30
0
70
128
71
54
72
94
73
96
0
VERTEX
8
OBJECT__10
10
0
20
0
30
0
70
128
71
96
72
84
73
54
0
VERTEX
8
OBJECT__10
10
0
20
0
30
0
70
128
71
72
72
68
73
54
0
VERTEX
8
OBJECT__10
10
0
20
0
30
0
70
128
71
97
72
98
73
99
0
VERTEX
8
OBJECT__10
10
0
20
0
30
0
70
128
71
99
72
100
73
97
0
VERTEX
8
OBJECT__10
10
0
20
0
30
0
70
128
71
99
72
87
73
100
0
VERTEX
8
OBJECT__10
10
0
20
0
30
0
70
128
71
87
72
73
73
100
0
VERTEX
8
OBJECT__10
10
0
20
0
30
0
70
128
71
64
72
67
73
61
0
VERTEX
8
OBJECT__10
10
0
20
0
30
0
70
128
71
62
72
101
73
102
0
VERTEX
8
OBJECT__10
10
0
20
0
30
0
70
128
71
101
72
103
73
104
0
VERTEX
8
OBJECT__10
10
0
20
0
30
0
70
128
71
101
72
62
73
103
0
VERTEX
8
OBJECT__10
10
0
20
0
30
0
70
128
71
104
72
105
73
101
0
VERTEX
8
OBJECT__10
10
0
20
0
30
0
70
128
71
106
72
107
73
108
0
VERTEX
8
OBJECT__10
10
0
20
0
30
0
70
128
71
109
72
110
73
107
0
VERTEX
8
OBJECT__10
10
0
20
0
30
0
70
128
71
109
72
111
73
112
0
VERTEX
8
OBJECT__10
10
0
20
0
30
0
70
128
71
112
72
110
73
109
0
VERTEX
8
OBJECT__10
10
0
20
0
30
0
70
128
71
107
72
106
73
109
0
VERTEX
8
OBJECT__10
10
0
20
0
30
0
70
128
71
111
72
104
73
112
0
VERTEX
8
OBJECT__10
10
0
20
0
30
0
70
128
71
108
72
97
73
106
0
VERTEX
8
OBJECT__10
10
0
20
0
30
0
70
128
71
113
72
114
73
115
0
VERTEX
8
OBJECT__10
10
0
20
0
30
0
70
128
71
115
72
116
73
113
0
VERTEX
8
OBJECT__10
10
0
20
0
30
0
70
128
71
111
72
117
73
105
0
VERTEX
8
OBJECT__10
10
0
20
0
30
0
70
128
71
111
72
118
73
119
0
VERTEX
8
OBJECT__10
10
0
20
0
30
0
70
128
71
119
72
117
73
111
0
VERTEX
8
OBJECT__10
10
0
20
0
30
0
70
128
71
113
72
120
73
119
0
VERTEX
8
OBJECT__10
10
0
20
0
30
0
70
128
71
113
72
121
73
120
0
VERTEX
8
OBJECT__10
10
0
20
0
30
0
70
128
71
121
72
122
73
123
0
VERTEX
8
OBJECT__10
10
0
20
0
30
0
70
128
71
123
72
120
73
121
0
VERTEX
8
OBJECT__10
10
0
20
0
30
0
70
128
71
119
72
118
73
113
0
VERTEX
8
OBJECT__10
10
0
20
0
30
0
70
128
71
105
72
104
73
111
0
VERTEX
8
OBJECT__10
10
0
20
0
30
0
70
128
71
124
72
125
73
106
0
VERTEX
8
OBJECT__10
10
0
20
0
30
0
70
128
71
106
72
97
73
124
0
VERTEX
8
OBJECT__10
10
0
20
0
30
0
70
128
71
124
72
126
73
125
0
VERTEX
8
OBJECT__10
10
0
20
0
30
0
70
128
71
126
72
5
73
127
0
VERTEX
8
OBJECT__10
10
0
20
0
30
0
70
128
71
127
72
125
73
126
0
VERTEX
8
OBJECT__10
10
0
20
0
30
0
70
128
71
128
72
129
73
130
0
VERTEX
8
OBJECT__10
10
0
20
0
30
0
70
128
71
128
72
114
73
129
0
VERTEX
8
OBJECT__10
10
0
20
0
30
0
70
128
71
114
72
128
73
131
0
VERTEX
8
OBJECT__10
10
0
20
0
30
0
70
128
71
131
72
115
73
114
0
VERTEX
8
OBJECT__10
10
0
20
0
30
0
70
128
71
130
72
5
73
128
0
VERTEX
8
OBJECT__10
10
0
20
0
30
0
70
128
71
130
72
127
73
5
0
VERTEX
8
OBJECT__10
10
0
20
0
30
0
70
128
71
5
72
2
73
132
0
VERTEX
8
OBJECT__10
10
0
20
0
30
0
70
128
71
2
72
133
73
134
0
VERTEX
8
OBJECT__10
10
0
20
0
30
0
70
128
71
134
72
132
73
2
0
VERTEX
8
OBJECT__10
10
0
20
0
30
0
70
128
71
2
72
135
73
133
0
VERTEX
8
OBJECT__10
10
0
20
0
30
0
70
128
71
132
72
128
73
5
0
VERTEX
8
OBJECT__10
10
0
20
0
30
0
70
128
71
136
72
121
73
137
0
VERTEX
8
OBJECT__10
10
0
20
0
30
0
70
128
71
135
72
68
73
136
0
VERTEX
8
OBJECT__10
10
0
20
0
30
0
70
128
71
137
72
135
73
136
0
VERTEX
8
OBJECT__10
10
0
20
0
30
0
70
128
71
68
72
102
73
138
0
VERTEX
8
OBJECT__10
10
0
20
0
30
0
70
128
71
138
72
136
73
68
0
VERTEX
8
OBJECT__10
10
0
20
0
30
0
70
128
71
135
72
2
73
68
0
VERTEX
8
OBJECT__10
10
0
20
0
30
0
70
128
71
116
72
121
73
113
0
VERTEX
8
OBJECT__10
10
0
20
0
30
0
70
128
71
108
72
98
73
97
0
VERTEX
8
OBJECT__10
10
0
20
0
30
0
70
128
71
102
72
68
73
62
0
VERTEX
8
OBJECT__10
10
0
20
0
30
0
70
128
71
139
72
140
73
141
0
VERTEX
8
OBJECT__10
10
0
20
0
30
0
70
128
71
141
72
142
73
139
0
VERTEX
8
OBJECT__10
10
0
20
0
30
0
70
128
71
140
72
143
73
141
0
VERTEX
8
OBJECT__10
10
0
20
0
30
0
70
128
71
144
72
145
73
146
0
VERTEX
8
OBJECT__10
10
0
20
0
30
0
70
128
71
146
72
147
73
144
0
VERTEX
8
OBJECT__10
10
0
20
0
30
0
70
128
71
147
72
148
73
144
0
VERTEX
8
OBJECT__10
10
0
20
0
30
0
70
128
71
148
72
142
73
144
0
VERTEX
8
OBJECT__10
10
0
20
0
30
0
70
128
71
149
72
150
73
151
0
VERTEX
8
OBJECT__10
10
0
20
0
30
0
70
128
71
56
72
152
73
153
0
VERTEX
8
OBJECT__10
10
0
20
0
30
0
70
128
71
152
72
154
73
155
0
VERTEX
8
OBJECT__10
10
0
20
0
30
0
70
128
71
155
72
156
73
152
0
VERTEX
8
OBJECT__10
10
0
20
0
30
0
70
128
71
149
72
157
73
158
0
VERTEX
8
OBJECT__10
10
0
20
0
30
0
70
128
71
155
72
154
73
149
0
VERTEX
8
OBJECT__10
10
0
20
0
30
0
70
128
71
157
72
159
73
158
0
VERTEX
8
OBJECT__10
10
0
20
0
30
0
70
128
71
158
72
155
73
149
0
VERTEX
8
OBJECT__10
10
0
20
0
30
0
70
128
71
156
72
153
73
152
0
VERTEX
8
OBJECT__10
10
0
20
0
30
0
70
128
71
153
72
160
73
56
0
VERTEX
8
OBJECT__10
10
0
20
0
30
0
70
128
71
161
72
162
73
163
0
VERTEX
8
OBJECT__10
10
0
20
0
30
0
70
128
71
163
72
164
73
161
0
VERTEX
8
OBJECT__10
10
0
20
0
30
0
70
128
71
164
72
165
73
166
0
VERTEX
8
OBJECT__10
10
0
20
0
30
0
70
128
71
166
72
167
73
164
0
VERTEX
8
OBJECT__10
10
0
20
0
30
0
70
128
71
144
72
168
73
163
0
VERTEX
8
OBJECT__10
10
0
20
0
30
0
70
128
71
142
72
169
73
168
0
VERTEX
8
OBJECT__10
10
0
20
0
30
0
70
128
71
142
72
150
73
169
0
VERTEX
8
OBJECT__10
10
0
20
0
30
0
70
128
71
150
72
142
73
170
0
VERTEX
8
OBJECT__10
10
0
20
0
30
0
70
128
71
170
72
151
73
150
0
VERTEX
8
OBJECT__10
10
0
20
0
30
0
70
128
71
168
72
144
73
142
0
VERTEX
8
OBJECT__10
10
0
20
0
30
0
70
128
71
163
72
162
73
144
0
VERTEX
8
OBJECT__10
10
0
20
0
30
0
70
128
71
164
72
167
73
161
0
VERTEX
8
OBJECT__10
10
0
20
0
30
0
70
128
71
151
72
157
73
149
0
VERTEX
8
OBJECT__10
10
0
20
0
30
0
70
128
71
171
72
172
73
173
0
VERTEX
8
OBJECT__10
10
0
20
0
30
0
70
128
71
173
72
174
73
171
0
VERTEX
8
OBJECT__10
10
0
20
0
30
0
70
128
71
175
72
176
73
177
0
VERTEX
8
OBJECT__10
10
0
20
0
30
0
70
128
71
177
72
178
73
175
0
VERTEX
8
OBJECT__10
10
0
20
0
30
0
70
128
71
179
72
180
73
181
0
VERTEX
8
OBJECT__10
10
0
20
0
30
0
70
128
71
181
72
182
73
179
0
VERTEX
8
OBJECT__10
10
0
20
0
30
0
70
128
71
175
72
183
73
181
0
VERTEX
8
OBJECT__10
10
0
20
0
30
0
70
128
71
175
72
161
73
183
0
VERTEX
8
OBJECT__10
10
0
20
0
30
0
70
128
71
161
72
184
73
185
0
VERTEX
8
OBJECT__10
10
0
20
0
30
0
70
128
71
185
72
183
73
161
0
VERTEX
8
OBJECT__10
10
0
20
0
30
0
70
128
71
161
72
167
73
184
0
VERTEX
8
OBJECT__10
10
0
20
0
30
0
70
128
71
181
72
180
73
175
0
VERTEX
8
OBJECT__10
10
0
20
0
30
0
70
128
71
182
72
186
73
179
0
VERTEX
8
OBJECT__10
10
0
20
0
30
0
70
128
71
187
72
188
73
189
0
VERTEX
8
OBJECT__10
10
0
20
0
30
0
70
128
71
189
72
190
73
187
0
VERTEX
8
OBJECT__10
10
0
20
0
30
0
70
128
71
190
72
191
73
192
0
VERTEX
8
OBJECT__10
10
0
20
0
30
0
70
128
71
192
72
193
73
190
0
VERTEX
8
OBJECT__10
10
0
20
0
30
0
70
128
71
194
72
195
73
196
0
VERTEX
8
OBJECT__10
10
0
20
0
30
0
70
128
71
196
72
197
73
194
0
VERTEX
8
OBJECT__10
10
0
20
0
30
0
70
128
71
171
72
198
73
189
0
VERTEX
8
OBJECT__10
10
0
20
0
30
0
70
128
71
171
72
194
73
198
0
VERTEX
8
OBJECT__10
10
0
20
0
30
0
70
128
71
194
72
176
73
199
0
VERTEX
8
OBJECT__10
10
0
20
0
30
0
70
128
71
194
72
177
73
176
0
VERTEX
8
OBJECT__10
10
0
20
0
30
0
70
128
71
199
72
198
73
194
0
VERTEX
8
OBJECT__10
10
0
20
0
30
0
70
128
71
189
72
188
73
171
0
VERTEX
8
OBJECT__10
10
0
20
0
30
0
70
128
71
195
72
200
73
145
0
VERTEX
8
OBJECT__10
10
0
20
0
30
0
70
128
71
145
72
201
73
195
0
VERTEX
8
OBJECT__10
10
0
20
0
30
0
70
128
71
145
72
200
73
202
0
VERTEX
8
OBJECT__10
10
0
20
0
30
0
70
128
71
202
72
146
73
145
0
VERTEX
8
OBJECT__10
10
0
20
0
30
0
70
128
71
201
72
203
73
195
0
VERTEX
8
OBJECT__10
10
0
20
0
30
0
70
128
71
203
72
196
73
195
0
VERTEX
8
OBJECT__10
10
0
20
0
30
0
70
128
71
197
72
177
73
194
0
VERTEX
8
OBJECT__10
10
0
20
0
30
0
70
128
71
190
72
193
73
187
0
VERTEX
8
OBJECT__10
10
0
20
0
30
0
70
128
71
178
72
161
73
175
0
VERTEX
8
OBJECT__10
10
0
20
0
30
0
70
128
71
193
72
204
73
205
0
VERTEX
8
OBJECT__10
10
0
20
0
30
0
70
128
71
165
72
206
73
152
0
VERTEX
8
OBJECT__10
10
0
20
0
30
0
70
128
71
165
72
207
73
206
0
VERTEX
8
OBJECT__10
10
0
20
0
30
0
70
128
71
191
72
208
73
165
0
VERTEX
8
OBJECT__10
10
0
20
0
30
0
70
128
71
191
72
186
73
208
0
VERTEX
8
OBJECT__10
10
0
20
0
30
0
70
128
71
191
72
209
73
179
0
VERTEX
8
OBJECT__10
10
0
20
0
30
0
70
128
71
191
72
210
73
209
0
VERTEX
8
OBJECT__10
10
0
20
0
30
0
70
128
71
179
72
186
73
191
0
VERTEX
8
OBJECT__10
10
0
20
0
30
0
70
128
71
54
72
211
73
212
0
VERTEX
8
OBJECT__10
10
0
20
0
30
0
70
128
71
212
72
191
73
54
0
VERTEX
8
OBJECT__10
10
0
20
0
30
0
70
128
71
54
72
213
73
214
0
VERTEX
8
OBJECT__10
10
0
20
0
30
0
70
128
71
54
72
215
73
213
0
VERTEX
8
OBJECT__10
10
0
20
0
30
0
70
128
71
214
72
211
73
54
0
VERTEX
8
OBJECT__10
10
0
20
0
30
0
70
128
71
191
72
56
73
54
0
VERTEX
8
OBJECT__10
10
0
20
0
30
0
70
128
71
165
72
56
73
191
0
VERTEX
8
OBJECT__10
10
0
20
0
30
0
70
128
71
68
72
216
73
215
0
VERTEX
8
OBJECT__10
10
0
20
0
30
0
70
128
71
68
72
217
73
216
0
VERTEX
8
OBJECT__10
10
0
20
0
30
0
70
128
71
218
72
219
73
220
0
VERTEX
8
OBJECT__10
10
0
20
0
30
0
70
128
71
220
72
221
73
218
0
VERTEX
8
OBJECT__10
10
0
20
0
30
0
70
128
71
224
72
225
73
223
0
VERTEX
8
OBJECT__10
10
0
20
0
30
0
70
128
71
223
72
222
73
226
0
VERTEX
8
OBJECT__10
10
0
20
0
30
0
70
128
71
223
72
226
73
224
0
VERTEX
8
OBJECT__10
10
0
20
0
30
0
70
128
71
223
72
218
73
222
0
VERTEX
8
OBJECT__10
10
0
20
0
30
0
70
128
71
217
72
68
73
227
0
VERTEX
8
OBJECT__10
10
0
20
0
30
0
70
128
71
227
72
225
73
217
0
VERTEX
8
OBJECT__10
10
0
20
0
30
0
70
128
71
204
72
228
73
222
0
VERTEX
8
OBJECT__10
10
0
20
0
30
0
70
128
71
222
72
218
73
204
0
VERTEX
8
OBJECT__10
10
0
20
0
30
0
70
128
71
204
72
193
73
229
0
VERTEX
8
OBJECT__10
10
0
20
0
30
0
70
128
71
204
72
229
73
228
0
VERTEX
8
OBJECT__10
10
0
20
0
30
0
70
128
71
224
72
217
73
225
0
VERTEX
8
OBJECT__10
10
0
20
0
30
0
70
128
71
230
72
172
73
231
0
VERTEX
8
OBJECT__10
10
0
20
0
30
0
70
128
71
231
72
219
73
230
0
VERTEX
8
OBJECT__10
10
0
20
0
30
0
70
128
71
172
72
230
73
232
0
VERTEX
8
OBJECT__10
10
0
20
0
30
0
70
128
71
232
72
173
73
172
0
VERTEX
8
OBJECT__10
10
0
20
0
30
0
70
128
71
231
72
233
73
219
0
VERTEX
8
OBJECT__10
10
0
20
0
30
0
70
128
71
233
72
220
73
219
0
VERTEX
8
OBJECT__10
10
0
20
0
30
0
70
128
71
221
72
204
73
218
0
VERTEX
8
OBJECT__10
10
0
20
0
30
0
70
128
71
215
72
54
73
68
0
VERTEX
8
OBJECT__10
10
0
20
0
30
0
70
128
71
165
72
164
73
207
0
VERTEX
8
OBJECT__10
10
0
20
0
30
0
70
128
71
214
72
234
73
235
0
VERTEX
8
OBJECT__10
10
0
20
0
30
0
70
128
71
235
72
236
73
214
0
VERTEX
8
OBJECT__10
10
0
20
0
30
0
70
128
71
228
72
237
73
235
0
VERTEX
8
OBJECT__10
10
0
20
0
30
0
70
128
71
228
72
229
73
238
0
VERTEX
8
OBJECT__10
10
0
20
0
30
0
70
128
71
238
72
237
73
228
0
VERTEX
8
OBJECT__10
10
0
20
0
30
0
70
128
71
235
72
234
73
228
0
VERTEX
8
OBJECT__10
10
0
20
0
30
0
70
128
71
236
72
211
73
214
0
VERTEX
8
OBJECT__10
10
0
20
0
30
0
70
128
71
152
72
56
73
165
0
VERTEX
8
OBJECT__10
10
0
20
0
30
0
70
128
71
205
72
187
73
193
0
VERTEX
8
OBJECT__10
10
0
20
0
30
0
70
128
71
174
72
194
73
171
0
VERTEX
8
OBJECT__10
10
0
20
0
30
0
70
128
71
68
72
239
73
240
0
VERTEX
8
OBJECT__10
10
0
20
0
30
0
70
128
71
240
72
227
73
68
0
VERTEX
8
OBJECT__10
10
0
20
0
30
0
70
128
71
142
72
148
73
139
0
VERTEX
8
OBJECT__10
10
0
20
0
30
0
70
128
71
241
72
242
73
243
0
VERTEX
8
OBJECT__10
10
0
20
0
30
0
70
128
71
241
72
195
73
242
0
VERTEX
8
OBJECT__10
10
0
20
0
30
0
70
128
71
243
72
244
73
241
0
VERTEX
8
OBJECT__10
10
0
20
0
30
0
70
128
71
241
72
245
73
195
0
VERTEX
8
OBJECT__10
10
0
20
0
30
0
70
128
71
246
72
247
73
248
0
VERTEX
8
OBJECT__10
10
0
20
0
30
0
70
128
71
249
72
219
73
246
0
VERTEX
8
OBJECT__10
10
0
20
0
30
0
70
128
71
248
72
249
73
246
0
VERTEX
8
OBJECT__10
10
0
20
0
30
0
70
128
71
249
72
250
73
219
0
VERTEX
8
OBJECT__10
10
0
20
0
30
0
70
128
71
140
72
251
73
252
0
VERTEX
8
OBJECT__10
10
0
20
0
30
0
70
128
71
140
72
253
73
251
0
VERTEX
8
OBJECT__10
10
0
20
0
30
0
70
128
71
140
72
139
73
253
0
VERTEX
8
OBJECT__10
10
0
20
0
30
0
70
128
71
250
72
254
73
255
0
VERTEX
8
OBJECT__10
10
0
20
0
30
0
70
128
71
256
72
257
73
258
0
VERTEX
8
OBJECT__10
10
0
20
0
30
0
70
128
71
258
72
259
73
256
0
VERTEX
8
OBJECT__10
10
0
20
0
30
0
70
128
71
257
72
260
73
258
0
VERTEX
8
OBJECT__10
10
0
20
0
30
0
70
128
71
261
72
243
73
256
0
VERTEX
8
OBJECT__10
10
0
20
0
30
0
70
128
71
257
72
262
73
255
0
VERTEX
8
OBJECT__10
10
0
20
0
30
0
70
128
71
257
72
256
73
263
0
VERTEX
8
OBJECT__10
10
0
20
0
30
0
70
128
71
263
72
262
73
257
0
VERTEX
8
OBJECT__10
10
0
20
0
30
0
70
128
71
255
72
254
73
257
0
VERTEX
8
OBJECT__10
10
0
20
0
30
0
70
128
71
259
72
261
73
256
0
VERTEX
8
OBJECT__10
10
0
20
0
30
0
70
128
71
264
72
265
73
239
0
VERTEX
8
OBJECT__10
10
0
20
0
30
0
70
128
71
266
72
267
73
265
0
VERTEX
8
OBJECT__10
10
0
20
0
30
0
70
128
71
266
72
247
73
267
0
VERTEX
8
OBJECT__10
10
0
20
0
30
0
70
128
71
265
72
264
73
268
0
VERTEX
8
OBJECT__10
10
0
20
0
30
0
70
128
71
265
72
268
73
266
0
VERTEX
8
OBJECT__10
10
0
20
0
30
0
70
128
71
245
72
269
73
270
0
VERTEX
8
OBJECT__10
10
0
20
0
30
0
70
128
71
271
72
272
73
273
0
VERTEX
8
OBJECT__10
10
0
20
0
30
0
70
128
71
273
72
274
73
271
0
VERTEX
8
OBJECT__10
10
0
20
0
30
0
70
128
71
272
72
275
73
273
0
VERTEX
8
OBJECT__10
10
0
20
0
30
0
70
128
71
276
72
251
73
271
0
VERTEX
8
OBJECT__10
10
0
20
0
30
0
70
128
71
272
72
277
73
270
0
VERTEX
8
OBJECT__10
10
0
20
0
30
0
70
128
71
272
72
271
73
278
0
VERTEX
8
OBJECT__10
10
0
20
0
30
0
70
128
71
278
72
277
73
272
0
VERTEX
8
OBJECT__10
10
0
20
0
30
0
70
128
71
270
72
269
73
272
0
VERTEX
8
OBJECT__10
10
0
20
0
30
0
70
128
71
274
72
276
73
271
0
VERTEX
8
OBJECT__10
10
0
20
0
30
0
70
128
71
279
72
280
73
281
0
VERTEX
8
OBJECT__10
10
0
20
0
30
0
70
128
71
276
72
282
73
252
0
VERTEX
8
OBJECT__10
10
0
20
0
30
0
70
128
71
276
72
283
73
284
0
VERTEX
8
OBJECT__10
10
0
20
0
30
0
70
128
71
284
72
282
73
276
0
VERTEX
8
OBJECT__10
10
0
20
0
30
0
70
128
71
279
72
285
73
286
0
VERTEX
8
OBJECT__10
10
0
20
0
30
0
70
128
71
284
72
283
73
279
0
VERTEX
8
OBJECT__10
10
0
20
0
30
0
70
128
71
285
72
287
73
286
0
VERTEX
8
OBJECT__10
10
0
20
0
30
0
70
128
71
286
72
284
73
279
0
VERTEX
8
OBJECT__10
10
0
20
0
30
0
70
128
71
252
72
251
73
276
0
VERTEX
8
OBJECT__10
10
0
20
0
30
0
70
128
71
288
72
289
73
290
0
VERTEX
8
OBJECT__10
10
0
20
0
30
0
70
128
71
290
72
291
73
288
0
VERTEX
8
OBJECT__10
10
0
20
0
30
0
70
128
71
261
72
292
73
244
0
VERTEX
8
OBJECT__10
10
0
20
0
30
0
70
128
71
261
72
293
73
294
0
VERTEX
8
OBJECT__10
10
0
20
0
30
0
70
128
71
294
72
292
73
261
0
VERTEX
8
OBJECT__10
10
0
20
0
30
0
70
128
71
288
72
295
73
294
0
VERTEX
8
OBJECT__10
10
0
20
0
30
0
70
128
71
288
72
275
73
295
0
VERTEX
8
OBJECT__10
10
0
20
0
30
0
70
128
71
275
72
296
73
297
0
VERTEX
8
OBJECT__10
10
0
20
0
30
0
70
128
71
297
72
295
73
275
0
VERTEX
8
OBJECT__10
10
0
20
0
30
0
70
128
71
275
72
272
73
296
0
VERTEX
8
OBJECT__10
10
0
20
0
30
0
70
128
71
294
72
293
73
288
0
VERTEX
8
OBJECT__10
10
0
20
0
30
0
70
128
71
244
72
243
73
261
0
VERTEX
8
OBJECT__10
10
0
20
0
30
0
70
128
71
2
72
298
73
264
0
VERTEX
8
OBJECT__10
10
0
20
0
30
0
70
128
71
2
72
299
73
298
0
VERTEX
8
OBJECT__10
10
0
20
0
30
0
70
128
71
2
72
300
73
301
0
VERTEX
8
OBJECT__10
10
0
20
0
30
0
70
128
71
301
72
302
73
2
0
VERTEX
8
OBJECT__10
10
0
20
0
30
0
70
128
71
2
72
303
73
300
0
VERTEX
8
OBJECT__10
10
0
20
0
30
0
70
128
71
302
72
304
73
2
0
VERTEX
8
OBJECT__10
10
0
20
0
30
0
70
128
71
2
72
7
73
305
0
VERTEX
8
OBJECT__10
10
0
20
0
30
0
70
128
71
305
72
306
73
2
0
VERTEX
8
OBJECT__10
10
0
20
0
30
0
70
128
71
306
72
303
73
2
0
VERTEX
8
OBJECT__10
10
0
20
0
30
0
70
128
71
305
72
307
73
308
0
VERTEX
8
OBJECT__10
10
0
20
0
30
0
70
128
71
7
72
309
73
310
0
VERTEX
8
OBJECT__10
10
0
20
0
30
0
70
128
71
310
72
307
73
7
0
VERTEX
8
OBJECT__10
10
0
20
0
30
0
70
128
71
307
72
305
73
7
0
VERTEX
8
OBJECT__10
10
0
20
0
30
0
70
128
71
308
72
311
73
305
0
VERTEX
8
OBJECT__10
10
0
20
0
30
0
70
128
71
7
72
312
73
313
0
VERTEX
8
OBJECT__10
10
0
20
0
30
0
70
128
71
7
72
314
73
312
0
VERTEX
8
OBJECT__10
10
0
20
0
30
0
70
128
71
7
72
315
73
314
0
VERTEX
8
OBJECT__10
10
0
20
0
30
0
70
128
71
313
72
309
73
7
0
VERTEX
8
OBJECT__10
10
0
20
0
30
0
70
128
71
300
72
316
73
301
0
VERTEX
8
OBJECT__10
10
0
20
0
30
0
70
128
71
304
72
299
73
2
0
VERTEX
8
OBJECT__10
10
0
20
0
30
0
70
128
71
275
72
317
73
318
0
VERTEX
8
OBJECT__10
10
0
20
0
30
0
70
128
71
318
72
319
73
275
0
VERTEX
8
OBJECT__10
10
0
20
0
30
0
70
128
71
313
72
320
73
318
0
VERTEX
8
OBJECT__10
10
0
20
0
30
0
70
128
71
312
72
321
73
320
0
VERTEX
8
OBJECT__10
10
0
20
0
30
0
70
128
71
312
72
280
73
321
0
VERTEX
8
OBJECT__10
10
0
20
0
30
0
70
128
71
280
72
312
73
322
0
VERTEX
8
OBJECT__10
10
0
20
0
30
0
70
128
71
322
72
281
73
280
0
VERTEX
8
OBJECT__10
10
0
20
0
30
0
70
128
71
320
72
313
73
312
0
VERTEX
8
OBJECT__10
10
0
20
0
30
0
70
128
71
318
72
317
73
313
0
VERTEX
8
OBJECT__10
10
0
20
0
30
0
70
128
71
319
72
273
73
275
0
VERTEX
8
OBJECT__10
10
0
20
0
30
0
70
128
71
260
72
323
73
324
0
VERTEX
8
OBJECT__10
10
0
20
0
30
0
70
128
71
324
72
325
73
260
0
VERTEX
8
OBJECT__10
10
0
20
0
30
0
70
128
71
311
72
326
73
324
0
VERTEX
8
OBJECT__10
10
0
20
0
30
0
70
128
71
308
72
327
73
326
0
VERTEX
8
OBJECT__10
10
0
20
0
30
0
70
128
71
308
72
289
73
327
0
VERTEX
8
OBJECT__10
10
0
20
0
30
0
70
128
71
289
72
308
73
328
0
VERTEX
8
OBJECT__10
10
0
20
0
30
0
70
128
71
328
72
290
73
289
0
VERTEX
8
OBJECT__10
10
0
20
0
30
0
70
128
71
326
72
311
73
308
0
VERTEX
8
OBJECT__10
10
0
20
0
30
0
70
128
71
324
72
323
73
311
0
VERTEX
8
OBJECT__10
10
0
20
0
30
0
70
128
71
325
72
258
73
260
0
VERTEX
8
OBJECT__10
10
0
20
0
30
0
70
128
71
266
72
329
73
248
0
VERTEX
8
OBJECT__10
10
0
20
0
30
0
70
128
71
266
72
330
73
331
0
VERTEX
8
OBJECT__10
10
0
20
0
30
0
70
128
71
331
72
329
73
266
0
VERTEX
8
OBJECT__10
10
0
20
0
30
0
70
128
71
332
72
333
73
331
0
VERTEX
8
OBJECT__10
10
0
20
0
30
0
70
128
71
331
72
330
73
316
0
VERTEX
8
OBJECT__10
10
0
20
0
30
0
70
128
71
334
72
260
73
335
0
VERTEX
8
OBJECT__10
10
0
20
0
30
0
70
128
71
335
72
336
73
334
0
VERTEX
8
OBJECT__10
10
0
20
0
30
0
70
128
71
333
72
332
73
334
0
VERTEX
8
OBJECT__10
10
0
20
0
30
0
70
128
71
336
72
333
73
334
0
VERTEX
8
OBJECT__10
10
0
20
0
30
0
70
128
71
331
72
316
73
332
0
VERTEX
8
OBJECT__10
10
0
20
0
30
0
70
128
71
316
72
300
73
337
0
VERTEX
8
OBJECT__10
10
0
20
0
30
0
70
128
71
337
72
332
73
316
0
VERTEX
8
OBJECT__10
10
0
20
0
30
0
70
128
71
248
72
247
73
266
0
VERTEX
8
OBJECT__10
10
0
20
0
30
0
70
128
71
264
72
68
73
2
0
VERTEX
8
OBJECT__10
10
0
20
0
30
0
70
128
71
291
72
275
73
288
0
VERTEX
8
OBJECT__10
10
0
20
0
30
0
70
128
71
281
72
285
73
279
0
VERTEX
8
OBJECT__10
10
0
20
0
30
0
70
128
71
270
72
200
73
245
0
VERTEX
8
OBJECT__10
10
0
20
0
30
0
70
128
71
239
72
68
73
264
0
VERTEX
8
OBJECT__10
10
0
20
0
30
0
70
128
71
255
72
230
73
250
0
VERTEX
8
OBJECT__10
10
0
20
0
30
0
70
128
71
252
72
338
73
140
0
VERTEX
8
OBJECT__10
10
0
20
0
30
0
70
128
71
250
72
230
73
219
0
VERTEX
8
OBJECT__10
10
0
20
0
30
0
70
128
71
245
72
200
73
195
0
VERTEX
8
OBJECT__10
10
0
20
0
30
0
70
128
71
140
72
339
73
340
0
VERTEX
8
OBJECT__10
10
0
20
0
30
0
70
128
71
341
72
342
73
343
0
VERTEX
8
OBJECT__10
10
0
20
0
30
0
70
128
71
344
72
341
73
339
0
VERTEX
8
OBJECT__10
10
0
20
0
30
0
70
128
71
140
72
345
73
344
0
VERTEX
8
OBJECT__10
10
0
20
0
30
0
70
128
71
339
72
140
73
344
0
VERTEX
8
OBJECT__10
10
0
20
0
30
0
70
128
71
343
72
339
73
341
0
VERTEX
8
OBJECT__10
10
0
20
0
30
0
70
128
71
346
72
342
73
347
0
VERTEX
8
OBJECT__10
10
0
20
0
30
0
70
128
71
347
72
348
73
346
0
VERTEX
8
OBJECT__10
10
0
20
0
30
0
70
128
71
346
72
343
73
342
0
VERTEX
8
OBJECT__10
10
0
20
0
30
0
70
128
71
347
72
349
73
348
0
VERTEX
8
OBJECT__10
10
0
20
0
30
0
70
128
71
349
72
350
73
351
0
VERTEX
8
OBJECT__10
10
0
20
0
30
0
70
128
71
351
72
352
73
349
0
VERTEX
8
OBJECT__10
10
0
20
0
30
0
70
128
71
349
72
352
73
348
0
VERTEX
8
OBJECT__10
10
0
20
0
30
0
70
128
71
353
72
348
73
354
0
VERTEX
8
OBJECT__10
10
0
20
0
30
0
70
128
71
355
72
157
73
353
0
VERTEX
8
OBJECT__10
10
0
20
0
30
0
70
128
71
354
72
355
73
353
0
VERTEX
8
OBJECT__10
10
0
20
0
30
0
70
128
71
348
72
352
73
354
0
VERTEX
8
OBJECT__10
10
0
20
0
30
0
70
128
71
355
72
159
73
157
0
VERTEX
8
OBJECT__10
10
0
20
0
30
0
70
128
71
356
72
357
73
358
0
VERTEX
8
OBJECT__10
10
0
20
0
30
0
70
128
71
358
72
359
73
356
0
VERTEX
8
OBJECT__10
10
0
20
0
30
0
70
128
71
360
72
361
73
362
0
VERTEX
8
OBJECT__10
10
0
20
0
30
0
70
128
71
362
72
363
73
360
0
VERTEX
8
OBJECT__10
10
0
20
0
30
0
70
128
71
364
72
365
73
366
0
VERTEX
8
OBJECT__10
10
0
20
0
30
0
70
128
71
366
72
367
73
364
0
VERTEX
8
OBJECT__10
10
0
20
0
30
0
70
128
71
360
72
368
73
366
0
VERTEX
8
OBJECT__10
10
0
20
0
30
0
70
128
71
360
72
369
73
368
0
VERTEX
8
OBJECT__10
10
0
20
0
30
0
70
128
71
369
72
370
73
371
0
VERTEX
8
OBJECT__10
10
0
20
0
30
0
70
128
71
371
72
368
73
369
0
VERTEX
8
OBJECT__10
10
0
20
0
30
0
70
128
71
369
72
372
73
370
0
VERTEX
8
OBJECT__10
10
0
20
0
30
0
70
128
71
366
72
365
73
360
0
VERTEX
8
OBJECT__10
10
0
20
0
30
0
70
128
71
367
72
373
73
364
0
VERTEX
8
OBJECT__10
10
0
20
0
30
0
70
128
71
374
72
375
73
376
0
VERTEX
8
OBJECT__10
10
0
20
0
30
0
70
128
71
376
72
377
73
374
0
VERTEX
8
OBJECT__10
10
0
20
0
30
0
70
128
71
377
72
378
73
379
0
VERTEX
8
OBJECT__10
10
0
20
0
30
0
70
128
71
379
72
380
73
377
0
VERTEX
8
OBJECT__10
10
0
20
0
30
0
70
128
71
381
72
382
73
383
0
VERTEX
8
OBJECT__10
10
0
20
0
30
0
70
128
71
383
72
384
73
381
0
VERTEX
8
OBJECT__10
10
0
20
0
30
0
70
128
71
356
72
385
73
376
0
VERTEX
8
OBJECT__10
10
0
20
0
30
0
70
128
71
356
72
381
73
385
0
VERTEX
8
OBJECT__10
10
0
20
0
30
0
70
128
71
381
72
361
73
386
0
VERTEX
8
OBJECT__10
10
0
20
0
30
0
70
128
71
381
72
362
73
361
0
VERTEX
8
OBJECT__10
10
0
20
0
30
0
70
128
71
386
72
385
73
381
0
VERTEX
8
OBJECT__10
10
0
20
0
30
0
70
128
71
376
72
375
73
356
0
VERTEX
8
OBJECT__10
10
0
20
0
30
0
70
128
71
382
72
387
73
388
0
VERTEX
8
OBJECT__10
10
0
20
0
30
0
70
128
71
388
72
389
73
382
0
VERTEX
8
OBJECT__10
10
0
20
0
30
0
70
128
71
389
72
390
73
382
0
VERTEX
8
OBJECT__10
10
0
20
0
30
0
70
128
71
391
72
392
73
393
0
VERTEX
8
OBJECT__10
10
0
20
0
30
0
70
128
71
388
72
387
73
394
0
VERTEX
8
OBJECT__10
10
0
20
0
30
0
70
128
71
394
72
391
73
388
0
VERTEX
8
OBJECT__10
10
0
20
0
30
0
70
128
71
393
72
388
73
391
0
VERTEX
8
OBJECT__10
10
0
20
0
30
0
70
128
71
390
72
383
73
382
0
VERTEX
8
OBJECT__10
10
0
20
0
30
0
70
128
71
384
72
362
73
381
0
VERTEX
8
OBJECT__10
10
0
20
0
30
0
70
128
71
377
72
380
73
374
0
VERTEX
8
OBJECT__10
10
0
20
0
30
0
70
128
71
363
72
369
73
360
0
VERTEX
8
OBJECT__10
10
0
20
0
30
0
70
128
71
372
72
369
73
395
0
VERTEX
8
OBJECT__10
10
0
20
0
30
0
70
128
71
395
72
396
73
372
0
VERTEX
8
OBJECT__10
10
0
20
0
30
0
70
128
71
60
72
397
73
372
0
VERTEX
8
OBJECT__10
10
0
20
0
30
0
70
128
71
60
72
398
73
397
0
VERTEX
8
OBJECT__10
10
0
20
0
30
0
70
128
71
372
72
399
73
60
0
VERTEX
8
OBJECT__10
10
0
20
0
30
0
70
128
71
400
72
392
73
401
0
VERTEX
8
OBJECT__10
10
0
20
0
30
0
70
128
71
401
72
369
73
400
0
VERTEX
8
OBJECT__10
10
0
20
0
30
0
70
128
71
401
72
395
73
369
0
VERTEX
8
OBJECT__10
10
0
20
0
30
0
70
128
71
400
72
393
73
392
0
VERTEX
8
OBJECT__10
10
0
20
0
30
0
70
128
71
396
72
399
73
372
0
VERTEX
8
OBJECT__10
10
0
20
0
30
0
70
128
71
378
72
402
73
398
0
VERTEX
8
OBJECT__10
10
0
20
0
30
0
70
128
71
378
72
373
73
402
0
VERTEX
8
OBJECT__10
10
0
20
0
30
0
70
128
71
378
72
403
73
364
0
VERTEX
8
OBJECT__10
10
0
20
0
30
0
70
128
71
378
72
404
73
403
0
VERTEX
8
OBJECT__10
10
0
20
0
30
0
70
128
71
364
72
373
73
378
0
VERTEX
8
OBJECT__10
10
0
20
0
30
0
70
128
71
56
72
405
73
406
0
VERTEX
8
OBJECT__10
10
0
20
0
30
0
70
128
71
406
72
378
73
56
0
VERTEX
8
OBJECT__10
10
0
20
0
30
0
70
128
71
378
72
60
73
56
0
VERTEX
8
OBJECT__10
10
0
20
0
30
0
70
128
71
407
72
408
73
409
0
VERTEX
8
OBJECT__10
10
0
20
0
30
0
70
128
71
409
72
410
73
407
0
VERTEX
8
OBJECT__10
10
0
20
0
30
0
70
128
71
405
72
56
73
411
0
VERTEX
8
OBJECT__10
10
0
20
0
30
0
70
128
71
411
72
412
73
405
0
VERTEX
8
OBJECT__10
10
0
20
0
30
0
70
128
71
412
72
407
73
405
0
VERTEX
8
OBJECT__10
10
0
20
0
30
0
70
128
71
413
72
414
73
409
0
VERTEX
8
OBJECT__10
10
0
20
0
30
0
70
128
71
415
72
416
73
414
0
VERTEX
8
OBJECT__10
10
0
20
0
30
0
70
128
71
415
72
374
73
417
0
VERTEX
8
OBJECT__10
10
0
20
0
30
0
70
128
71
417
72
416
73
415
0
VERTEX
8
OBJECT__10
10
0
20
0
30
0
70
128
71
414
72
413
73
415
0
VERTEX
8
OBJECT__10
10
0
20
0
30
0
70
128
71
374
72
380
73
417
0
VERTEX
8
OBJECT__10
10
0
20
0
30
0
70
128
71
409
72
408
73
413
0
VERTEX
8
OBJECT__10
10
0
20
0
30
0
70
128
71
410
72
405
73
407
0
VERTEX
8
OBJECT__10
10
0
20
0
30
0
70
128
71
378
72
377
73
404
0
VERTEX
8
OBJECT__10
10
0
20
0
30
0
70
128
71
418
72
419
73
413
0
VERTEX
8
OBJECT__10
10
0
20
0
30
0
70
128
71
418
72
420
73
421
0
VERTEX
8
OBJECT__10
10
0
20
0
30
0
70
128
71
421
72
419
73
418
0
VERTEX
8
OBJECT__10
10
0
20
0
30
0
70
128
71
413
72
408
73
422
0
VERTEX
8
OBJECT__10
10
0
20
0
30
0
70
128
71
420
72
423
73
357
0
VERTEX
8
OBJECT__10
10
0
20
0
30
0
70
128
71
357
72
424
73
420
0
VERTEX
8
OBJECT__10
10
0
20
0
30
0
70
128
71
357
72
423
73
425
0
VERTEX
8
OBJECT__10
10
0
20
0
30
0
70
128
71
425
72
358
73
357
0
VERTEX
8
OBJECT__10
10
0
20
0
30
0
70
128
71
424
72
426
73
420
0
VERTEX
8
OBJECT__10
10
0
20
0
30
0
70
128
71
426
72
421
73
420
0
VERTEX
8
OBJECT__10
10
0
20
0
30
0
70
128
71
418
72
427
73
342
0
VERTEX
8
OBJECT__10
10
0
20
0
30
0
70
128
71
418
72
422
73
427
0
VERTEX
8
OBJECT__10
10
0
20
0
30
0
70
128
71
342
72
341
73
428
0
VERTEX
8
OBJECT__10
10
0
20
0
30
0
70
128
71
342
72
428
73
418
0
VERTEX
8
OBJECT__10
10
0
20
0
30
0
70
128
71
413
72
422
73
418
0
VERTEX
8
OBJECT__10
10
0
20
0
30
0
70
128
71
398
72
60
73
378
0
VERTEX
8
OBJECT__10
10
0
20
0
30
0
70
128
71
429
72
430
73
431
0
VERTEX
8
OBJECT__10
10
0
20
0
30
0
70
128
71
432
72
433
73
434
0
VERTEX
8
OBJECT__10
10
0
20
0
30
0
70
128
71
434
72
430
73
432
0
VERTEX
8
OBJECT__10
10
0
20
0
30
0
70
128
71
430
72
429
73
432
0
VERTEX
8
OBJECT__10
10
0
20
0
30
0
70
128
71
399
72
435
73
432
0
VERTEX
8
OBJECT__10
10
0
20
0
30
0
70
128
71
432
72
60
73
399
0
VERTEX
8
OBJECT__10
10
0
20
0
30
0
70
128
71
435
72
433
73
432
0
VERTEX
8
OBJECT__10
10
0
20
0
30
0
70
128
71
431
72
436
73
392
0
VERTEX
8
OBJECT__10
10
0
20
0
30
0
70
128
71
392
72
391
73
437
0
VERTEX
8
OBJECT__10
10
0
20
0
30
0
70
128
71
431
72
430
73
436
0
VERTEX
8
OBJECT__10
10
0
20
0
30
0
70
128
71
392
72
437
73
431
0
VERTEX
8
OBJECT__10
10
0
20
0
30
0
70
128
71
431
72
438
73
429
0
VERTEX
8
OBJECT__10
10
0
20
0
30
0
70
128
71
359
72
381
73
356
0
VERTEX
8
OBJECT__10
10
0
20
0
30
0
70
128
71
439
72
56
73
350
0
VERTEX
8
OBJECT__10
10
0
20
0
30
0
70
128
71
350
72
349
73
439
0
VERTEX
8
OBJECT__10
10
0
20
0
30
0
70
128
71
56
72
160
73
440
0
VERTEX
8
OBJECT__10
10
0
20
0
30
0
70
128
71
440
72
350
73
56
0
VERTEX
8
OBJECT__10
10
0
20
0
30
0
70
128
71
439
72
411
73
56
0
VERTEX
8
OBJECT__10
10
0
20
0
30
0
70
128
71
441
72
442
73
443
0
VERTEX
8
OBJECT__10
10
0
20
0
30
0
70
128
71
441
72
382
73
442
0
VERTEX
8
OBJECT__10
10
0
20
0
30
0
70
128
71
443
72
444
73
441
0
VERTEX
8
OBJECT__10
10
0
20
0
30
0
70
128
71
441
72
445
73
382
0
VERTEX
8
OBJECT__10
10
0
20
0
30
0
70
128
71
446
72
447
73
448
0
VERTEX
8
OBJECT__10
10
0
20
0
30
0
70
128
71
446
72
420
73
447
0
VERTEX
8
OBJECT__10
10
0
20
0
30
0
70
128
71
448
72
449
73
446
0
VERTEX
8
OBJECT__10
10
0
20
0
30
0
70
128
71
446
72
450
73
420
0
VERTEX
8
OBJECT__10
10
0
20
0
30
0
70
128
71
451
72
452
73
453
0
VERTEX
8
OBJECT__10
10
0
20
0
30
0
70
128
71
454
72
455
73
453
0
VERTEX
8
OBJECT__10
10
0
20
0
30
0
70
128
71
453
72
452
73
456
0
VERTEX
8
OBJECT__10
10
0
20
0
30
0
70
128
71
457
72
458
73
455
0
VERTEX
8
OBJECT__10
10
0
20
0
30
0
70
128
71
457
72
459
73
460
0
VERTEX
8
OBJECT__10
10
0
20
0
30
0
70
128
71
460
72
458
73
457
0
VERTEX
8
OBJECT__10
10
0
20
0
30
0
70
128
71
455
72
454
73
457
0
VERTEX
8
OBJECT__10
10
0
20
0
30
0
70
128
71
459
72
448
73
460
0
VERTEX
8
OBJECT__10
10
0
20
0
30
0
70
128
71
453
72
456
73
454
0
VERTEX
8
OBJECT__10
10
0
20
0
30
0
70
128
71
445
72
461
73
462
0
VERTEX
8
OBJECT__10
10
0
20
0
30
0
70
128
71
463
72
464
73
465
0
VERTEX
8
OBJECT__10
10
0
20
0
30
0
70
128
71
465
72
466
73
463
0
VERTEX
8
OBJECT__10
10
0
20
0
30
0
70
128
71
464
72
467
73
465
0
VERTEX
8
OBJECT__10
10
0
20
0
30
0
70
128
71
468
72
469
73
463
0
VERTEX
8
OBJECT__10
10
0
20
0
30
0
70
128
71
464
72
470
73
462
0
VERTEX
8
OBJECT__10
10
0
20
0
30
0
70
128
71
464
72
463
73
471
0
VERTEX
8
OBJECT__10
10
0
20
0
30
0
70
128
71
471
72
470
73
464
0
VERTEX
8
OBJECT__10
10
0
20
0
30
0
70
128
71
462
72
461
73
464
0
VERTEX
8
OBJECT__10
10
0
20
0
30
0
70
128
71
466
72
468
73
463
0
VERTEX
8
OBJECT__10
10
0
20
0
30
0
70
128
71
450
72
472
73
473
0
VERTEX
8
OBJECT__10
10
0
20
0
30
0
70
128
71
474
72
475
73
476
0
VERTEX
8
OBJECT__10
10
0
20
0
30
0
70
128
71
476
72
477
73
474
0
VERTEX
8
OBJECT__10
10
0
20
0
30
0
70
128
71
475
72
478
73
476
0
VERTEX
8
OBJECT__10
10
0
20
0
30
0
70
128
71
479
72
443
73
474
0
VERTEX
8
OBJECT__10
10
0
20
0
30
0
70
128
71
475
72
480
73
473
0
VERTEX
8
OBJECT__10
10
0
20
0
30
0
70
128
71
475
72
474
73
481
0
VERTEX
8
OBJECT__10
10
0
20
0
30
0
70
128
71
481
72
480
73
475
0
VERTEX
8
OBJECT__10
10
0
20
0
30
0
70
128
71
473
72
472
73
475
0
VERTEX
8
OBJECT__10
10
0
20
0
30
0
70
128
71
477
72
479
73
474
0
VERTEX
8
OBJECT__10
10
0
20
0
30
0
70
128
71
482
72
483
73
484
0
VERTEX
8
OBJECT__10
10
0
20
0
30
0
70
128
71
484
72
485
73
482
0
VERTEX
8
OBJECT__10
10
0
20
0
30
0
70
128
71
459
72
486
73
449
0
VERTEX
8
OBJECT__10
10
0
20
0
30
0
70
128
71
459
72
487
73
488
0
VERTEX
8
OBJECT__10
10
0
20
0
30
0
70
128
71
488
72
486
73
459
0
VERTEX
8
OBJECT__10
10
0
20
0
30
0
70
128
71
482
72
489
73
488
0
VERTEX
8
OBJECT__10
10
0
20
0
30
0
70
128
71
482
72
478
73
489
0
VERTEX
8
OBJECT__10
10
0
20
0
30
0
70
128
71
478
72
490
73
491
0
VERTEX
8
OBJECT__10
10
0
20
0
30
0
70
128
71
491
72
489
73
478
0
VERTEX
8
OBJECT__10
10
0
20
0
30
0
70
128
71
478
72
475
73
490
0
VERTEX
8
OBJECT__10
10
0
20
0
30
0
70
128
71
488
72
487
73
482
0
VERTEX
8
OBJECT__10
10
0
20
0
30
0
70
128
71
449
72
448
73
459
0
VERTEX
8
OBJECT__10
10
0
20
0
30
0
70
128
71
492
72
493
73
494
0
VERTEX
8
OBJECT__10
10
0
20
0
30
0
70
128
71
494
72
495
73
492
0
VERTEX
8
OBJECT__10
10
0
20
0
30
0
70
128
71
479
72
496
73
444
0
VERTEX
8
OBJECT__10
10
0
20
0
30
0
70
128
71
479
72
497
73
498
0
VERTEX
8
OBJECT__10
10
0
20
0
30
0
70
128
71
498
72
496
73
479
0
VERTEX
8
OBJECT__10
10
0
20
0
30
0
70
128
71
492
72
499
73
498
0
VERTEX
8
OBJECT__10
10
0
20
0
30
0
70
128
71
492
72
467
73
499
0
VERTEX
8
OBJECT__10
10
0
20
0
30
0
70
128
71
467
72
500
73
501
0
VERTEX
8
OBJECT__10
10
0
20
0
30
0
70
128
71
501
72
499
73
467
0
VERTEX
8
OBJECT__10
10
0
20
0
30
0
70
128
71
498
72
497
73
492
0
VERTEX
8
OBJECT__10
10
0
20
0
30
0
70
128
71
444
72
443
73
479
0
VERTEX
8
OBJECT__10
10
0
20
0
30
0
70
128
71
7
72
502
73
503
0
VERTEX
8
OBJECT__10
10
0
20
0
30
0
70
128
71
504
72
505
73
502
0
VERTEX
8
OBJECT__10
10
0
20
0
30
0
70
128
71
7
72
506
73
504
0
VERTEX
8
OBJECT__10
10
0
20
0
30
0
70
128
71
7
72
507
73
508
0
VERTEX
8
OBJECT__10
10
0
20
0
30
0
70
128
71
508
72
509
73
7
0
VERTEX
8
OBJECT__10
10
0
20
0
30
0
70
128
71
509
72
506
73
7
0
VERTEX
8
OBJECT__10
10
0
20
0
30
0
70
128
71
508
72
510
73
511
0
VERTEX
8
OBJECT__10
10
0
20
0
30
0
70
128
71
508
72
507
73
510
0
VERTEX
8
OBJECT__10
10
0
20
0
30
0
70
128
71
507
72
512
73
513
0
VERTEX
8
OBJECT__10
10
0
20
0
30
0
70
128
71
513
72
510
73
507
0
VERTEX
8
OBJECT__10
10
0
20
0
30
0
70
128
71
507
72
514
73
515
0
VERTEX
8
OBJECT__10
10
0
20
0
30
0
70
128
71
515
72
512
73
507
0
VERTEX
8
OBJECT__10
10
0
20
0
30
0
70
128
71
511
72
516
73
508
0
VERTEX
8
OBJECT__10
10
0
20
0
30
0
70
128
71
502
72
7
73
504
0
VERTEX
8
OBJECT__10
10
0
20
0
30
0
70
128
71
478
72
517
73
518
0
VERTEX
8
OBJECT__10
10
0
20
0
30
0
70
128
71
518
72
519
73
478
0
VERTEX
8
OBJECT__10
10
0
20
0
30
0
70
128
71
516
72
520
73
518
0
VERTEX
8
OBJECT__10
10
0
20
0
30
0
70
128
71
511
72
521
73
520
0
VERTEX
8
OBJECT__10
10
0
20
0
30
0
70
128
71
511
72
493
73
521
0
VERTEX
8
OBJECT__10
10
0
20
0
30
0
70
128
71
493
72
511
73
522
0
VERTEX
8
OBJECT__10
10
0
20
0
30
0
70
128
71
522
72
494
73
493
0
VERTEX
8
OBJECT__10
10
0
20
0
30
0
70
128
71
520
72
516
73
511
0
VERTEX
8
OBJECT__10
10
0
20
0
30
0
70
128
71
518
72
517
73
516
0
VERTEX
8
OBJECT__10
10
0
20
0
30
0
70
128
71
519
72
476
73
478
0
VERTEX
8
OBJECT__10
10
0
20
0
30
0
70
128
71
523
72
524
73
454
0
VERTEX
8
OBJECT__10
10
0
20
0
30
0
70
128
71
523
72
525
73
526
0
VERTEX
8
OBJECT__10
10
0
20
0
30
0
70
128
71
526
72
524
73
523
0
VERTEX
8
OBJECT__10
10
0
20
0
30
0
70
128
71
505
72
527
73
526
0
VERTEX
8
OBJECT__10
10
0
20
0
30
0
70
128
71
504
72
528
73
527
0
VERTEX
8
OBJECT__10
10
0
20
0
30
0
70
128
71
504
72
483
73
528
0
VERTEX
8
OBJECT__10
10
0
20
0
30
0
70
128
71
483
72
504
73
529
0
VERTEX
8
OBJECT__10
10
0
20
0
30
0
70
128
71
529
72
484
73
483
0
VERTEX
8
OBJECT__10
10
0
20
0
30
0
70
128
71
527
72
505
73
504
0
VERTEX
8
OBJECT__10
10
0
20
0
30
0
70
128
71
526
72
525
73
505
0
VERTEX
8
OBJECT__10
10
0
20
0
30
0
70
128
71
454
72
456
73
523
0
VERTEX
8
OBJECT__10
10
0
20
0
30
0
70
128
71
467
72
530
73
531
0
VERTEX
8
OBJECT__10
10
0
20
0
30
0
70
128
71
531
72
532
73
467
0
VERTEX
8
OBJECT__10
10
0
20
0
30
0
70
128
71
515
72
533
73
531
0
VERTEX
8
OBJECT__10
10
0
20
0
30
0
70
128
71
514
72
534
73
533
0
VERTEX
8
OBJECT__10
10
0
20
0
30
0
70
128
71
514
72
535
73
534
0
VERTEX
8
OBJECT__10
10
0
20
0
30
0
70
128
71
533
72
515
73
514
0
VERTEX
8
OBJECT__10
10
0
20
0
30
0
70
128
71
514
72
536
73
535
0
VERTEX
8
OBJECT__10
10
0
20
0
30
0
70
128
71
531
72
530
73
515
0
VERTEX
8
OBJECT__10
10
0
20
0
30
0
70
128
71
532
72
465
73
467
0
VERTEX
8
OBJECT__10
10
0
20
0
30
0
70
128
71
537
72
429
73
469
0
VERTEX
8
OBJECT__10
10
0
20
0
30
0
70
128
71
469
72
468
73
537
0
VERTEX
8
OBJECT__10
10
0
20
0
30
0
70
128
71
537
72
536
73
429
0
VERTEX
8
OBJECT__10
10
0
20
0
30
0
70
128
71
429
72
438
73
538
0
VERTEX
8
OBJECT__10
10
0
20
0
30
0
70
128
71
538
72
469
73
429
0
VERTEX
8
OBJECT__10
10
0
20
0
30
0
70
128
71
536
72
514
73
429
0
VERTEX
8
OBJECT__10
10
0
20
0
30
0
70
128
71
503
72
315
73
7
0
VERTEX
8
OBJECT__10
10
0
20
0
30
0
70
128
71
495
72
467
73
492
0
VERTEX
8
OBJECT__10
10
0
20
0
30
0
70
128
71
485
72
478
73
482
0
VERTEX
8
OBJECT__10
10
0
20
0
30
0
70
128
71
473
72
423
73
450
0
VERTEX
8
OBJECT__10
10
0
20
0
30
0
70
128
71
462
72
387
73
445
0
VERTEX
8
OBJECT__10
10
0
20
0
30
0
70
128
71
140
72
338
73
539
0
VERTEX
8
OBJECT__10
10
0
20
0
30
0
70
128
71
539
72
451
73
140
0
VERTEX
8
OBJECT__10
10
0
20
0
30
0
70
128
71
451
72
345
73
140
0
VERTEX
8
OBJECT__10
10
0
20
0
30
0
70
128
71
453
72
345
73
451
0
VERTEX
8
OBJECT__10
10
0
20
0
30
0
70
128
71
450
72
423
73
420
0
VERTEX
8
OBJECT__10
10
0
20
0
30
0
70
128
71
540
72
523
73
541
0
VERTEX
8
OBJECT__10
10
0
20
0
30
0
70
128
71
542
72
285
73
540
0
VERTEX
8
OBJECT__10
10
0
20
0
30
0
70
128
71
541
72
542
73
540
0
VERTEX
8
OBJECT__10
10
0
20
0
30
0
70
128
71
523
72
456
73
541
0
VERTEX
8
OBJECT__10
10
0
20
0
30
0
70
128
71
542
72
287
73
285
0
VERTEX
8
OBJECT__10
10
0
20
0
30
0
70
128
71
445
72
387
73
382
0
VERTEX
8
OBJECT__10
10
0
20
0
30
0
70
128
71
467
72
464
73
500
0
VERTEX
8
OBJECT__10
10
0
20
0
30
0
70
128
71
340
72
143
73
140
0
VERTEX
8
OBJECT__10
10
0
20
0
30
0
70
128
71
260
72
257
73
335
0
VERTEX
8
OBJECT__10
10
0
20
0
30
0
70
128
71
191
72
190
73
210
0
VERTEX
8
OBJECT__10
10
0
20
0
30
0
70
128
71
121
72
136
73
122
0
VERTEX
8
OBJECT__10
10
0
20
0
30
0
70
128
71
94
72
54
73
73
0
VERTEX
8
OBJECT__10
10
0
20
0
30
0
70
128
71
58
72
51
73
49
0
VERTEX
8
OBJECT__10
10
0
20
0
30
0
70
128
71
49
72
48
73
54
0
VERTEX
8
OBJECT__10
10
0
20
0
30
0
70
128
71
53
72
73
73
54
0
VERTEX
8
OBJECT__10
10
0
20
0
30
0
70
128
71
50
72
45
73
42
0
VERTEX
8
OBJECT__10
10
0
20
0
30
0
70
128
71
42
72
39
73
48
0
VERTEX
8
OBJECT__10
10
0
20
0
30
0
70
128
71
47
72
55
73
48
0
VERTEX
8
OBJECT__10
10
0
20
0
30
0
70
128
71
44
72
38
73
36
0
VERTEX
8
OBJECT__10
10
0
20
0
30
0
70
128
71
36
72
32
73
39
0
VERTEX
8
OBJECT__10
10
0
20
0
30
0
70
128
71
41
72
46
73
39
0
VERTEX
8
OBJECT__10
10
0
20
0
30
0
70
128
71
37
72
30
73
29
0
VERTEX
8
OBJECT__10
10
0
20
0
30
0
70
128
71
29
72
26
73
32
0
VERTEX
8
OBJECT__10
10
0
20
0
30
0
70
128
71
31
72
25
73
22
0
VERTEX
8
OBJECT__10
10
0
20
0
30
0
70
128
71
22
72
20
73
26
0
VERTEX
8
OBJECT__10
10
0
20
0
30
0
70
128
71
27
72
33
73
26
0
VERTEX
8
OBJECT__10
10
0
20
0
30
0
70
128
71
24
72
17
73
15
0
VERTEX
8
OBJECT__10
10
0
20
0
30
0
70
128
71
15
72
13
73
20
0
VERTEX
8
OBJECT__10
10
0
20
0
30
0
70
128
71
19
72
28
73
20
0
VERTEX
8
OBJECT__10
10
0
20
0
30
0
70
128
71
16
72
10
73
6
0
VERTEX
8
OBJECT__10
10
0
20
0
30
0
70
128
71
6
72
1
73
13
0
VERTEX
8
OBJECT__10
10
0
20
0
30
0
70
128
71
12
72
21
73
13
0
VERTEX
8
OBJECT__10
10
0
20
0
30
0
70
128
71
9
72
507
73
7
0
VERTEX
8
OBJECT__10
10
0
20
0
30
0
70
128
71
7
72
2
73
1
0
VERTEX
8
OBJECT__10
10
0
20
0
30
0
70
128
71
4
72
14
73
1
0
SEQEND
8
OBJECT__10
0
POLYLINE
8
OBJECT__11
66
1
70
64
71
19
72
19
62
253
0
VERTEX
8
OBJECT__11
10
16.728001
20
3.030000
30
200.975006
70
192
0
VERTEX
8
OBJECT__11
10
16.795000
20
2.634000
30
200.154007
70
192
0
VERTEX
8
OBJECT__11
10
15.931000
20
2.657000
30
200.292999
70
192
0
VERTEX
8
OBJECT__11
10
15.843000
20
3.138000
30
201.070999
70
192
0
VERTEX
8
OBJECT__11
10
16.492001
20
4.028000
30
201.067001
70
192
0
VERTEX
8
OBJECT__11
10
15.936000
20
2.625000
30
200.000000
70
192
0
VERTEX
8
OBJECT__11
10
16.795000
20
2.633000
30
200.000000
70
192
0
VERTEX
8
OBJECT__11
10
15.623000
20
3.996000
30
201.059998
70
192
0
VERTEX
8
OBJECT__11
10
15.393000
20
4.888000
30
201.048996
70
192
0
VERTEX
8
OBJECT__11
10
16.316000
20
4.774000
30
201.136002
70
192
0
VERTEX
8
OBJECT__11
10
16.191000
20
5.176000
30
199.934006
70
192
0
VERTEX
8
OBJECT__11
10
15.313000
20
5.133000
30
199.945999
70
192
0
VERTEX
8
OBJECT__11
10
15.274000
20
5.249000
30
199.425003
70
192
0
VERTEX
8
OBJECT__11
10
16.152000
20
5.302000
30
199.557007
70
192
0
VERTEX
8
OBJECT__11
10
15.655000
20
3.924000
30
198.787003
70
192
0
VERTEX
8
OBJECT__11
10
16.531000
20
3.943000
30
198.720001
70
192
0
VERTEX
8
OBJECT__11
10
16.795000
20
2.632000
30
199.862000
70
192
0
VERTEX
8
OBJECT__11
10
16.566999
20
3.811000
30
198.638000
70
192
0
VERTEX
8
OBJECT__11
10
15.728000
20
3.671000
30
198.664993
70
192
0
VERTEX
8
OBJECT__11
10
0
20
0
30
0
70
128
71
1
72
2
73
3
0
VERTEX
8
OBJECT__11
10
0
20
0
30
0
70
128
71
4
72
5
73
1
0
VERTEX
8
OBJECT__11
10
0
20
0
30
0
70
128
71
6
72
3
73
2
0
VERTEX
8
OBJECT__11
10
0
20
0
30
0
70
128
71
2
72
7
73
6
0
VERTEX
8
OBJECT__11
10
0
20
0
30
0
70
128
71
3
72
4
73
1
0
VERTEX
8
OBJECT__11
10
0
20
0
30
0
70
128
71
8
72
9
73
10
0
VERTEX
8
OBJECT__11
10
0
20
0
30
0
70
128
71
11
72
10
73
9
0
VERTEX
8
OBJECT__11
10
0
20
0
30
0
70
128
71
9
72
12
73
11
0
VERTEX
8
OBJECT__11
10
0
20
0
30
0
70
128
71
12
72
13
73
14
0
VERTEX
8
OBJECT__11
10
0
20
0
30
0
70
128
71
14
72
13
73
15
0
VERTEX
8
OBJECT__11
10
0
20
0
30
0
70
128
71
15
72
16
73
14
0
VERTEX
8
OBJECT__11
10
0
20
0
30
0
70
128
71
17
72
18
73
19
0
VERTEX
8
OBJECT__11
10
0
20
0
30
0
70
128
71
19
72
6
73
17
0
VERTEX
8
OBJECT__11
10
0
20
0
30
0
70
128
71
6
72
7
73
17
0
VERTEX
8
OBJECT__11
10
0
20
0
30
0
70
128
71
16
72
15
73
19
0
VERTEX
8
OBJECT__11
10
0
20
0
30
0
70
128
71
18
72
16
73
19
0
VERTEX
8
OBJECT__11
10
0
20
0
30
0
70
128
71
14
72
11
73
12
0
VERTEX
8
OBJECT__11
10
0
20
0
30
0
70
128
71
10
72
5
73
8
0
VERTEX
8
OBJECT__11
10
0
20
0
30
0
70
128
71
4
72
8
73
5
0
SEQEND
8
OBJECT__11
0
POLYLINE
8
OBJECT__12
66
1
70
64
71
10
72
9
62
253
0
VERTEX
8
OBJECT__12
10
15.313000
20
5.133000
30
199.945999
70
192
0
VERTEX
8
OBJECT__12
10
15.393000
20
4.888000
30
201.048996
70
192
0
VERTEX
8
OBJECT__12
10
15.623000
20
3.996000
30
201.059998
70
192
0
VERTEX
8
OBJECT__12
10
15.760000
20
3.533000
30
199.929001
70
192
0
VERTEX
8
OBJECT__12
10
15.655000
20
3.924000
30
198.787003
70
192
0
VERTEX
8
OBJECT__12
10
15.274000
20
5.249000
30
199.425003
70
192
0
VERTEX
8
OBJECT__12
10
15.843000
20
3.138000
30
201.070999
70
192
0
VERTEX
8
OBJECT__12
10
15.931000
20
2.657000
30
200.292999
70
192
0
VERTEX
8
OBJECT__12
10
15.728000
20
3.671000
30
198.664993
70
192
0
VERTEX
8
OBJECT__12
10
15.936000
20
2.625000
30
200.000000
70
192
0
VERTEX
8
OBJECT__12
10
0
20
0
30
0
70
128
71
1
72
2
73
3
0
VERTEX
8
OBJECT__12
10
0
20
0
30
0
70
128
71
3
72
4
73
1
0
VERTEX
8
OBJECT__12
10
0
20
0
30
0
70
128
71
5
72
6
73
1
0
VERTEX
8
OBJECT__12
10
0
20
0
30
0
70
128
71
1
72
4
73
5
0
VERTEX
8
OBJECT__12
10
0
20
0
30
0
70
128
71
4
72
7
73
8
0
VERTEX
8
OBJECT__12
10
0
20
0
30
0
70
128
71
9
72
5
73
4
0
VERTEX
8
OBJECT__12
10
0
20
0
30
0
70
128
71
4
72
10
73
9
0
VERTEX
8
OBJECT__12
10
0
20
0
30
0
70
128
71
8
72
10
73
4
0
VERTEX
8
OBJECT__12
10
0
20
0
30
0
70
128
71
3
72
7
73
4
0
SEQEND
8
OBJECT__12
0
POLYLINE
8
OBJECT__13
66
1
70
64
71
21
72
21
62
253
0
VERTEX
8
OBJECT__13
10
16.979000
20
0.000000
30
201.080994
70
192
0
VERTEX
8
OBJECT__13
10
16.972000
20
-0.973000
30
200.970993
70
192
0
VERTEX
8
OBJECT__13
10
16.128000
20
-0.862000
30
201.070999
70
192
0
VERTEX
8
OBJECT__13
10
16.128000
20
0.001000
30
201.074005
70
192
0
VERTEX
8
OBJECT__13
10
16.979000
20
0.033000
30
201.085007
70
192
0
VERTEX
8
OBJECT__13
10
16.091999
20
-1.375000
30
200.000000
70
192
0
VERTEX
8
OBJECT__13
10
16.094999
20
-1.342000
30
200.298004
70
192
0
VERTEX
8
OBJECT__13
10
16.945000
20
-1.367000
30
200.149994
70
192
0
VERTEX
8
OBJECT__13
10
16.945000
20
-1.367000
30
200.000000
70
192
0
VERTEX
8
OBJECT__13
10
16.958000
20
1.164000
30
199.925995
70
192
0
VERTEX
8
OBJECT__13
10
16.983999
20
0.732000
30
201.164001
70
192
0
VERTEX
8
OBJECT__13
10
16.128000
20
0.854000
30
201.078003
70
192
0
VERTEX
8
OBJECT__13
10
16.111000
20
1.117000
30
199.940002
70
192
0
VERTEX
8
OBJECT__13
10
16.103001
20
1.240000
30
199.406006
70
192
0
VERTEX
8
OBJECT__13
10
16.950001
20
1.297000
30
199.544006
70
192
0
VERTEX
8
OBJECT__13
10
16.993999
20
0.000000
30
198.731995
70
192
0
VERTEX
8
OBJECT__13
10
16.141001
20
-0.071000
30
198.772003
70
192
0
VERTEX
8
OBJECT__13
10
16.996000
20
-0.048000
30
198.701996
70
192
0
VERTEX
8
OBJECT__13
10
16.945000
20
-1.367000
30
199.852005
70
192
0
VERTEX
8
OBJECT__13
10
16.999001
20
-0.157000
30
198.634003
70
192
0
VERTEX
8
OBJECT__13
10
16.148001
20
-0.304000
30
198.658997
70
192
0
VERTEX
8
OBJECT__13
10
0
20
0
30
0
70
128
71
1
72
2
73
3
0
VERTEX
8
OBJECT__13
10
0
20
0
30
0
70
128
71
4
72
5
73
1
0
VERTEX
8
OBJECT__13
10
0
20
0
30
0
70
128
71
6
72
7
73
8
0
VERTEX
8
OBJECT__13
10
0
20
0
30
0
70
128
71
7
72
3
73
2
0
VERTEX
8
OBJECT__13
10
0
20
0
30
0
70
128
71
2
72
8
73
7
0
VERTEX
8
OBJECT__13
10
0
20
0
30
0
70
128
71
8
72
9
73
6
0
VERTEX
8
OBJECT__13
10
0
20
0
30
0
70
128
71
10
72
11
73
12
0
VERTEX
8
OBJECT__13
10
0
20
0
30
0
70
128
71
4
72
12
73
11
0
VERTEX
8
OBJECT__13
10
0
20
0
30
0
70
128
71
11
72
5
73
4
0
VERTEX
8
OBJECT__13
10
0
20
0
30
0
70
128
71
13
72
14
73
15
0
VERTEX
8
OBJECT__13
10
0
20
0
30
0
70
128
71
16
72
15
73
14
0
VERTEX
8
OBJECT__13
10
0
20
0
30
0
70
128
71
17
72
18
73
16
0
VERTEX
8
OBJECT__13
10
0
20
0
30
0
70
128
71
14
72
17
73
16
0
VERTEX
8
OBJECT__13
10
0
20
0
30
0
70
128
71
19
72
20
73
21
0
VERTEX
8
OBJECT__13
10
0
20
0
30
0
70
128
71
6
72
9
73
19
0
VERTEX
8
OBJECT__13
10
0
20
0
30
0
70
128
71
17
72
21
73
20
0
VERTEX
8
OBJECT__13
10
0
20
0
30
0
70
128
71
20
72
18
73
17
0
VERTEX
8
OBJECT__13
10
0
20
0
30
0
70
128
71
21
72
6
73
19
0
VERTEX
8
OBJECT__13
10
0
20
0
30
0
70
128
71
15
72
10
73
13
0
VERTEX
8
OBJECT__13
10
0
20
0
30
0
70
128
71
12
72
13
73
10
0
VERTEX
8
OBJECT__13
10
0
20
0
30
0
70
128
71
3
72
4
73
1
0
SEQEND
8
OBJECT__13
0
POLYLINE
8
OBJECT__14
66
1
70
64
71
10
72
9
62
253
0
VERTEX
8
OBJECT__14
10
16.111000
20
1.117000
30
199.940002
70
192
0
VERTEX
8
OBJECT__14
10
16.128000
20
0.854000
30
201.078003
70
192
0
VERTEX
8
OBJECT__14
10
16.128000
20
0.001000
30
201.074005
70
192
0
VERTEX
8
OBJECT__14
10
16.143999
20
-0.467000
30
199.921005
70
192
0
VERTEX
8
OBJECT__14
10
16.141001
20
-0.071000
30
198.772003
70
192
0
VERTEX
8
OBJECT__14
10
16.103001
20
1.240000
30
199.406006
70
192
0
VERTEX
8
OBJECT__14
10
16.128000
20
-0.862000
30
201.070999
70
192
0
VERTEX
8
OBJECT__14
10
16.094999
20
-1.342000
30
200.298004
70
192
0
VERTEX
8
OBJECT__14
10
16.148001
20
-0.304000
30
198.658997
70
192
0
VERTEX
8
OBJECT__14
10
16.091999
20
-1.375000
30
200.000000
70
192
0
VERTEX
8
OBJECT__14
10
0
20
0
30
0
70
128
71
1
72
2
73
3
0
VERTEX
8
OBJECT__14
10
0
20
0
30
0
70
128
71
3
72
4
73
1
0
VERTEX
8
OBJECT__14
10
0
20
0
30
0
70
128
71
4
72
5
73
6
0
VERTEX
8
OBJECT__14
10
0
20
0
30
0
70
128
71
6
72
1
73
4
0
VERTEX
8
OBJECT__14
10
0
20
0
30
0
70
128
71
4
72
7
73
8
0
VERTEX
8
OBJECT__14
10
0
20
0
30
0
70
128
71
9
72
5
73
4
0
VERTEX
8
OBJECT__14
10
0
20
0
30
0
70
128
71
4
72
10
73
9
0
VERTEX
8
OBJECT__14
10
0
20
0
30
0
70
128
71
8
72
10
73
4
0
VERTEX
8
OBJECT__14
10
0
20
0
30
0
70
128
71
3
72
7
73
4
0
SEQEND
8
OBJECT__14
0
POLYLINE
8
OBJECT__15
66
1
70
64
71
19
72
19
62
253
0
VERTEX
8
OBJECT__15
10
16.238001
20
5.033000
30
197.227005
70
192
0
VERTEX
8
OBJECT__15
10
15.466000
20
4.653000
30
196.524002
70
192
0
VERTEX
8
OBJECT__15
10
15.312000
20
5.136000
30
197.320007
70
192
0
VERTEX
8
OBJECT__15
10
15.869000
20
6.022000
30
197.298004
70
192
0
VERTEX
8
OBJECT__15
10
15.475000
20
4.625000
30
196.250000
70
192
0
VERTEX
8
OBJECT__15
10
16.356001
20
4.633000
30
196.399002
70
192
0
VERTEX
8
OBJECT__15
10
16.357000
20
4.632000
30
196.250000
70
192
0
VERTEX
8
OBJECT__15
10
15.404000
20
7.187000
30
196.190994
70
192
0
VERTEX
8
OBJECT__15
10
15.572000
20
6.819000
30
197.354004
70
192
0
VERTEX
8
OBJECT__15
10
14.592000
20
6.923000
30
197.268997
70
192
0
VERTEX
8
OBJECT__15
10
14.968000
20
5.991000
30
197.296005
70
192
0
VERTEX
8
OBJECT__15
10
14.481000
20
7.150000
30
196.201996
70
192
0
VERTEX
8
OBJECT__15
10
14.429000
20
7.258000
30
195.694000
70
192
0
VERTEX
8
OBJECT__15
10
15.350000
20
7.305000
30
195.817993
70
192
0
VERTEX
8
OBJECT__15
10
15.013000
20
5.916000
30
195.063004
70
192
0
VERTEX
8
OBJECT__15
10
15.923000
20
5.931000
30
194.996994
70
192
0
VERTEX
8
OBJECT__15
10
15.994000
20
5.761000
30
194.895996
70
192
0
VERTEX
8
OBJECT__15
10
15.139000
20
5.627000
30
194.927002
70
192
0
VERTEX
8
OBJECT__15
10
16.357000
20
4.631000
30
196.126007
70
192
0
VERTEX
8
OBJECT__15
10
0
20
0
30
0
70
128
71
1
72
2
73
3
0
VERTEX
8
OBJECT__15
10
0
20
0
30
0
70
128
71
3
72
4
73
1
0
VERTEX
8
OBJECT__15
10
0
20
0
30
0
70
128
71
5
72
2
73
6
0
VERTEX
8
OBJECT__15
10
0
20
0
30
0
70
128
71
6
72
7
73
5
0
VERTEX
8
OBJECT__15
10
0
20
0
30
0
70
128
71
1
72
6
73
2
0
VERTEX
8
OBJECT__15
10
0
20
0
30
0
70
128
71
8
72
9
73
10
0
VERTEX
8
OBJECT__15
10
0
20
0
30
0
70
128
71
9
72
11
73
10
0
VERTEX
8
OBJECT__15
10
0
20
0
30
0
70
128
71
10
72
12
73
8
0
VERTEX
8
OBJECT__15
10
0
20
0
30
0
70
128
71
12
72
13
73
14
0
VERTEX
8
OBJECT__15
10
0
20
0
30
0
70
128
71
14
72
13
73
15
0
VERTEX
8
OBJECT__15
10
0
20
0
30
0
70
128
71
15
72
16
73
14
0
VERTEX
8
OBJECT__15
10
0
20
0
30
0
70
128
71
17
72
18
73
5
0
VERTEX
8
OBJECT__15
10
0
20
0
30
0
70
128
71
5
72
19
73
17
0
VERTEX
8
OBJECT__15
10
0
20
0
30
0
70
128
71
5
72
7
73
19
0
VERTEX
8
OBJECT__15
10
0
20
0
30
0
70
128
71
16
72
15
73
18
0
VERTEX
8
OBJECT__15
10
0
20
0
30
0
70
128
71
17
72
16
73
18
0
VERTEX
8
OBJECT__15
10
0
20
0
30
0
70
128
71
14
72
8
73
12
0
VERTEX
8
OBJECT__15
10
0
20
0
30
0
70
128
71
9
72
4
73
11
0
VERTEX
8
OBJECT__15
10
0
20
0
30
0
70
128
71
3
72
11
73
4
0
SEQEND
8
OBJECT__15
0
POLYLINE
8
OBJECT__16
66
1
70
64
71
10
72
9
62
253
0
VERTEX
8
OBJECT__16
10
14.481000
20
7.150000
30
196.201996
70
192
0
VERTEX
8
OBJECT__16
10
14.592000
20
6.923000
30
197.268997
70
192
0
VERTEX
8
OBJECT__16
10
14.968000
20
5.991000
30
197.296005
70
192
0
VERTEX
8
OBJECT__16
10
15.174000
20
5.531000
30
196.190994
70
192
0
VERTEX
8
OBJECT__16
10
15.013000
20
5.916000
30
195.063004
70
192
0
VERTEX
8
OBJECT__16
10
14.429000
20
7.258000
30
195.694000
70
192
0
VERTEX
8
OBJECT__16
10
15.312000
20
5.136000
30
197.320007
70
192
0
VERTEX
8
OBJECT__16
10
15.466000
20
4.653000
30
196.524002
70
192
0
VERTEX
8
OBJECT__16
10
15.139000
20
5.627000
30
194.927002
70
192
0
VERTEX
8
OBJECT__16
10
15.475000
20
4.625000
30
196.250000
70
192
0
VERTEX
8
OBJECT__16
10
0
20
0
30
0
70
128
71
1
72
2
73
3
0
VERTEX
8
OBJECT__16
10
0
20
0
30
0
70
128
71
3
72
4
73
1
0
VERTEX
8
OBJECT__16
10
0
20
0
30
0
70
128
71
5
72
6
73
1
0
VERTEX
8
OBJECT__16
10
0
20
0
30
0
70
128
71
1
72
4
73
5
0
VERTEX
8
OBJECT__16
10
0
20
0
30
0
70
128
71
4
72
7
73
8
0
VERTEX
8
OBJECT__16
10
0
20
0
30
0
70
128
71
9
72
5
73
4
0
VERTEX
8
OBJECT__16
10
0
20
0
30
0
70
128
71
4
72
10
73
9
0
VERTEX
8
OBJECT__16
10
0
20
0
30
0
70
128
71
8
72
10
73
4
0
VERTEX
8
OBJECT__16
10
0
20
0
30
0
70
128
71
3
72
7
73
4
0
SEQEND
8
OBJECT__16
0
POLYLINE
8
OBJECT__17
66
1
70
64
71
19
72
19
62
253
0
VERTEX
8
OBJECT__17
10
16.857000
20
2.031000
30
197.328995
70
192
0
VERTEX
8
OBJECT__17
10
16.969000
20
1.028000
30
197.223007
70
192
0
VERTEX
8
OBJECT__17
10
16.111000
20
1.137000
30
197.320007
70
192
0
VERTEX
8
OBJECT__17
10
16.988001
20
0.634000
30
196.404007
70
192
0
VERTEX
8
OBJECT__17
10
16.138000
20
0.658000
30
196.548004
70
192
0
VERTEX
8
OBJECT__17
10
16.139000
20
0.625000
30
196.250000
70
192
0
VERTEX
8
OBJECT__17
10
16.988001
20
0.633000
30
196.250000
70
192
0
VERTEX
8
OBJECT__17
10
16.003000
20
2.000000
30
197.320007
70
192
0
VERTEX
8
OBJECT__17
10
15.895000
20
2.865000
30
197.319000
70
192
0
VERTEX
8
OBJECT__17
10
16.777000
20
2.746000
30
197.404999
70
192
0
VERTEX
8
OBJECT__17
10
16.701000
20
3.168000
30
196.179001
70
192
0
VERTEX
8
OBJECT__17
10
15.845000
20
3.122000
30
196.192001
70
192
0
VERTEX
8
OBJECT__17
10
15.822000
20
3.244000
30
195.664001
70
192
0
VERTEX
8
OBJECT__17
10
16.677000
20
3.299000
30
195.798996
70
192
0
VERTEX
8
OBJECT__17
10
16.025999
20
1.928000
30
195.024002
70
192
0
VERTEX
8
OBJECT__17
10
16.882999
20
1.950000
30
194.955994
70
192
0
VERTEX
8
OBJECT__17
10
16.988001
20
0.633000
30
196.104996
70
192
0
VERTEX
8
OBJECT__17
10
16.900999
20
1.836000
30
194.884995
70
192
0
VERTEX
8
OBJECT__17
10
16.062000
20
1.694000
30
194.910004
70
192
0
VERTEX
8
OBJECT__17
10
0
20
0
30
0
70
128
71
1
72
2
73
3
0
VERTEX
8
OBJECT__17
10
0
20
0
30
0
70
128
71
2
72
4
73
5
0
VERTEX
8
OBJECT__17
10
0
20
0
30
0
70
128
71
6
72
5
73
4
0
VERTEX
8
OBJECT__17
10
0
20
0
30
0
70
128
71
4
72
7
73
6
0
VERTEX
8
OBJECT__17
10
0
20
0
30
0
70
128
71
5
72
3
73
2
0
VERTEX
8
OBJECT__17
10
0
20
0
30
0
70
128
71
8
72
9
73
10
0
VERTEX
8
OBJECT__17
10
0
20
0
30
0
70
128
71
11
72
10
73
9
0
VERTEX
8
OBJECT__17
10
0
20
0
30
0
70
128
71
9
72
12
73
11
0
VERTEX
8
OBJECT__17
10
0
20
0
30
0
70
128
71
12
72
13
73
14
0
VERTEX
8
OBJECT__17
10
0
20
0
30
0
70
128
71
14
72
13
73
15
0
VERTEX
8
OBJECT__17
10
0
20
0
30
0
70
128
71
15
72
16
73
14
0
VERTEX
8
OBJECT__17
10
0
20
0
30
0
70
128
71
17
72
18
73
19
0
VERTEX
8
OBJECT__17
10
0
20
0
30
0
70
128
71
19
72
6
73
17
0
VERTEX
8
OBJECT__17
10
0
20
0
30
0
70
128
71
6
72
7
73
17
0
VERTEX
8
OBJECT__17
10
0
20
0
30
0
70
128
71
16
72
15
73
19
0
VERTEX
8
OBJECT__17
10
0
20
0
30
0
70
128
71
18
72
16
73
19
0
VERTEX
8
OBJECT__17
10
0
20
0
30
0
70
128
71
14
72
11
73
12
0
VERTEX
8
OBJECT__17
10
0
20
0
30
0
70
128
71
10
72
1
73
8
0
VERTEX
8
OBJECT__17
10
0
20
0
30
0
70
128
71
3
72
8
73
1
0
SEQEND
8
OBJECT__17
0
POLYLINE
8
OBJECT__18
66
1
70
64
71
10
72
9
62
253
0
VERTEX
8
OBJECT__18
10
15.845000
20
3.122000
30
196.192001
70
192
0
VERTEX
8
OBJECT__18
10
15.895000
20
2.865000
30
197.319000
70
192
0
VERTEX
8
OBJECT__18
10
16.003000
20
2.000000
30
197.320007
70
192
0
VERTEX
8
OBJECT__18
10
16.077999
20
1.534000
30
196.171997
70
192
0
VERTEX
8
OBJECT__18
10
16.025999
20
1.928000
30
195.024002
70
192
0
VERTEX
8
OBJECT__18
10
15.822000
20
3.244000
30
195.664001
70
192
0
VERTEX
8
OBJECT__18
10
16.111000
20
1.137000
30
197.320007
70
192
0
VERTEX
8
OBJECT__18
10
16.138000
20
0.658000
30
196.548004
70
192
0
VERTEX
8
OBJECT__18
10
16.062000
20
1.694000
30
194.910004
70
192
0
VERTEX
8
OBJECT__18
10
16.139000
20
0.625000
30
196.250000
70
192
0
VERTEX
8
OBJECT__18
10
0
20
0
30
0
70
128
71
1
72
2
73
3
0
VERTEX
8
OBJECT__18
10
0
20
0
30
0
70
128
71
3
72
4
73
1
0
VERTEX
8
OBJECT__18
10
0
20
0
30
0
70
128
71
4
72
5
73
6
0
VERTEX
8
OBJECT__18
10
0
20
0
30
0
70
128
71
6
72
1
73
4
0
VERTEX
8
OBJECT__18
10
0
20
0
30
0
70
128
71
4
72
7
73
8
0
VERTEX
8
OBJECT__18
10
0
20
0
30
0
70
128
71
9
72
5
73
4
0
VERTEX
8
OBJECT__18
10
0
20
0
30
0
70
128
71
4
72
10
73
9
0
VERTEX
8
OBJECT__18
10
0
20
0
30
0
70
128
71
8
72
10
73
4
0
VERTEX
8
OBJECT__18
10
0
20
0
30
0
70
128
71
3
72
7
73
4
0
SEQEND
8
OBJECT__18
0
POLYLINE
8
OBJECT__19
66
1
70
64
71
19
72
19
62
253
0
VERTEX
8
OBJECT__19
10
15.794000
20
-3.375000
30
196.250000
70
192
0
VERTEX
8
OBJECT__19
10
15.801000
20
-3.343000
30
196.542999
70
192
0
VERTEX
8
OBJECT__19
10
16.663000
20
-3.367000
30
196.391998
70
192
0
VERTEX
8
OBJECT__19
10
15.896000
20
-2.858000
30
197.324005
70
192
0
VERTEX
8
OBJECT__19
10
16.738001
20
-2.974000
30
197.220001
70
192
0
VERTEX
8
OBJECT__19
10
16.003000
20
-2.000000
30
197.324997
70
192
0
VERTEX
8
OBJECT__19
10
16.865000
20
-1.967000
30
197.335007
70
192
0
VERTEX
8
OBJECT__19
10
16.978001
20
-0.836000
30
196.175995
70
192
0
VERTEX
8
OBJECT__19
10
16.952999
20
-1.268000
30
197.414001
70
192
0
VERTEX
8
OBJECT__19
10
16.110001
20
-1.143000
30
197.324997
70
192
0
VERTEX
8
OBJECT__19
10
16.871000
20
-2.051000
30
194.957993
70
192
0
VERTEX
8
OBJECT__19
10
16.985001
20
-0.703000
30
195.794006
70
192
0
VERTEX
8
OBJECT__19
10
16.132999
20
-0.762000
30
195.653000
70
192
0
VERTEX
8
OBJECT__19
10
16.125999
20
-0.885000
30
196.190994
70
192
0
VERTEX
8
OBJECT__19
10
16.663000
20
-3.367000
30
196.102997
70
192
0
VERTEX
8
OBJECT__19
10
16.861000
20
-2.168000
30
194.884995
70
192
0
VERTEX
8
OBJECT__19
10
15.983000
20
-2.321000
30
194.912994
70
192
0
VERTEX
8
OBJECT__19
10
16.007000
20
-2.074000
30
195.031006
70
192
0
VERTEX
8
OBJECT__19
10
16.663000
20
-3.367000
30
196.250000
70
192
0
VERTEX
8
OBJECT__19
10
0
20
0
30
0
70
128
71
1
72
2
73
3
0
VERTEX
8
OBJECT__19
10
0
20
0
30
0
70
128
71
2
72
4
73
5
0
VERTEX
8
OBJECT__19
10
0
20
0
30
0
70
128
71
5
72
3
73
2
0
VERTEX
8
OBJECT__19
10
0
20
0
30
0
70
128
71
5
72
4
73
6
0
VERTEX
8
OBJECT__19
10
0
20
0
30
0
70
128
71
6
72
7
73
5
0
VERTEX
8
OBJECT__19
10
0
20
0
30
0
70
128
71
8
72
9
73
10
0
VERTEX
8
OBJECT__19
10
0
20
0
30
0
70
128
71
10
72
9
73
7
0
VERTEX
8
OBJECT__19
10
0
20
0
30
0
70
128
71
7
72
6
73
10
0
VERTEX
8
OBJECT__19
10
0
20
0
30
0
70
128
71
11
72
12
73
13
0
VERTEX
8
OBJECT__19
10
0
20
0
30
0
70
128
71
14
72
13
73
12
0
VERTEX
8
OBJECT__19
10
0
20
0
30
0
70
128
71
12
72
8
73
14
0
VERTEX
8
OBJECT__19
10
0
20
0
30
0
70
128
71
15
72
16
73
17
0
VERTEX
8
OBJECT__19
10
0
20
0
30
0
70
128
71
16
72
18
73
17
0
VERTEX
8
OBJECT__19
10
0
20
0
30
0
70
128
71
17
72
1
73
15
0
VERTEX
8
OBJECT__19
10
0
20
0
30
0
70
128
71
1
72
19
73
15
0
VERTEX
8
OBJECT__19
10
0
20
0
30
0
70
128
71
16
72
11
73
18
0
VERTEX
8
OBJECT__19
10
0
20
0
30
0
70
128
71
13
72
18
73
11
0
VERTEX
8
OBJECT__19
10
0
20
0
30
0
70
128
71
10
72
14
73
8
0
VERTEX
8
OBJECT__19
10
0
20
0
30
0
70
128
71
3
72
19
73
1
0
SEQEND
8
OBJECT__19
0
POLYLINE
8
OBJECT__20
66
1
70
64
71
10
72
9
62
253
0
VERTEX
8
OBJECT__20
10
16.009001
20
-2.136000
30
196.220001
70
192
0
VERTEX
8
OBJECT__20
10
16.003000
20
-2.000000
30
197.324997
70
192
0
VERTEX
8
OBJECT__20
10
15.896000
20
-2.858000
30
197.324005
70
192
0
VERTEX
8
OBJECT__20
10
15.801000
20
-3.343000
30
196.542999
70
192
0
VERTEX
8
OBJECT__20
10
16.125999
20
-0.885000
30
196.190994
70
192
0
VERTEX
8
OBJECT__20
10
16.110001
20
-1.143000
30
197.324997
70
192
0
VERTEX
8
OBJECT__20
10
15.794000
20
-3.375000
30
196.250000
70
192
0
VERTEX
8
OBJECT__20
10
15.983000
20
-2.321000
30
194.912994
70
192
0
VERTEX
8
OBJECT__20
10
16.007000
20
-2.074000
30
195.031006
70
192
0
VERTEX
8
OBJECT__20
10
16.132999
20
-0.762000
30
195.653000
70
192
0
VERTEX
8
OBJECT__20
10
0
20
0
30
0
70
128
71
1
72
2
73
3
0
VERTEX
8
OBJECT__20
10
0
20
0
30
0
70
128
71
3
72
4
73
1
0
VERTEX
8
OBJECT__20
10
0
20
0
30
0
70
128
71
1
72
5
73
6
0
VERTEX
8
OBJECT__20
10
0
20
0
30
0
70
128
71
6
72
2
73
1
0
VERTEX
8
OBJECT__20
10
0
20
0
30
0
70
128
71
7
72
8
73
9
0
VERTEX
8
OBJECT__20
10
0
20
0
30
0
70
128
71
9
72
10
73
5
0
VERTEX
8
OBJECT__20
10
0
20
0
30
0
70
128
71
5
72
1
73
9
0
VERTEX
8
OBJECT__20
10
0
20
0
30
0
70
128
71
9
72
1
73
7
0
VERTEX
8
OBJECT__20
10
0
20
0
30
0
70
128
71
4
72
7
73
1
0
SEQEND
8
OBJECT__20
0
POLYLINE
8
OBJECT__21
66
1
70
64
71
19
72
19
62
253
0
VERTEX
8
OBJECT__21
10
15.230000
20
-5.375000
30
200.000000
70
192
0
VERTEX
8
OBJECT__21
10
15.241000
20
-5.346000
30
200.281998
70
192
0
VERTEX
8
OBJECT__21
10
16.129999
20
-5.369000
30
200.130005
70
192
0
VERTEX
8
OBJECT__21
10
15.405000
20
-4.852000
30
201.078995
70
192
0
VERTEX
8
OBJECT__21
10
16.256001
20
-4.974000
30
200.970001
70
192
0
VERTEX
8
OBJECT__21
10
15.622000
20
-4.003000
30
201.070999
70
192
0
VERTEX
8
OBJECT__21
10
16.507000
20
-3.969000
30
201.078003
70
192
0
VERTEX
8
OBJECT__21
10
16.761000
20
-2.833000
30
199.929001
70
192
0
VERTEX
8
OBJECT__21
10
16.686001
20
-3.254000
30
201.154999
70
192
0
VERTEX
8
OBJECT__21
10
15.845000
20
-3.128000
30
201.063004
70
192
0
VERTEX
8
OBJECT__21
10
16.502001
20
-4.059000
30
198.723999
70
192
0
VERTEX
8
OBJECT__21
10
16.784000
20
-2.702000
30
199.546997
70
192
0
VERTEX
8
OBJECT__21
10
15.913000
20
-2.762000
30
199.403000
70
192
0
VERTEX
8
OBJECT__21
10
15.891000
20
-2.881000
30
199.944000
70
192
0
VERTEX
8
OBJECT__21
10
16.129999
20
-5.368000
30
199.858002
70
192
0
VERTEX
8
OBJECT__21
10
16.474001
20
-4.198000
30
198.639008
70
192
0
VERTEX
8
OBJECT__21
10
15.551000
20
-4.360000
30
198.673004
70
192
0
VERTEX
8
OBJECT__21
10
15.615000
20
-4.079000
30
198.800995
70
192
0
VERTEX
8
OBJECT__21
10
16.129999
20
-5.368000
30
200.000000
70
192
0
VERTEX
8
OBJECT__21
10
0
20
0
30
0
70
128
71
1
72
2
73
3
0
VERTEX
8
OBJECT__21
10
0
20
0
30
0
70
128
71
2
72
4
73
5
0
VERTEX
8
OBJECT__21
10
0
20
0
30
0
70
128
71
5
72
3
73
2
0
VERTEX
8
OBJECT__21
10
0
20
0
30
0
70
128
71
5
72
4
73
6
0
VERTEX
8
OBJECT__21
10
0
20
0
30
0
70
128
71
6
72
7
73
5
0
VERTEX
8
OBJECT__21
10
0
20
0
30
0
70
128
71
8
72
9
73
10
0
VERTEX
8
OBJECT__21
10
0
20
0
30
0
70
128
71
10
72
9
73
7
0
VERTEX
8
OBJECT__21
10
0
20
0
30
0
70
128
71
7
72
6
73
10
0
VERTEX
8
OBJECT__21
10
0
20
0
30
0
70
128
71
11
72
12
73
13
0
VERTEX
8
OBJECT__21
10
0
20
0
30
0
70
128
71
14
72
13
73
12
0
VERTEX
8
OBJECT__21
10
0
20
0
30
0
70
128
71
12
72
8
73
14
0
VERTEX
8
OBJECT__21
10
0
20
0
30
0
70
128
71
15
72
16
73
17
0
VERTEX
8
OBJECT__21
10
0
20
0
30
0
70
128
71
16
72
18
73
17
0
VERTEX
8
OBJECT__21
10
0
20
0
30
0
70
128
71
1
72
19
73
15
0
VERTEX
8
OBJECT__21
10
0
20
0
30
0
70
128
71
17
72
1
73
15
0
VERTEX
8
OBJECT__21
10
0
20
0
30
0
70
128
71
16
72
11
73
18
0
VERTEX
8
OBJECT__21
10
0
20
0
30
0
70
128
71
13
72
18
73
11
0
VERTEX
8
OBJECT__21
10
0
20
0
30
0
70
128
71
10
72
14
73
8
0
VERTEX
8
OBJECT__21
10
0
20
0
30
0
70
128
71
3
72
19
73
1
0
SEQEND
8
OBJECT__21
0
POLYLINE
8
OBJECT__22
66
1
70
64
71
10
72
9
62
253
0
VERTEX
8
OBJECT__22
10
15.611000
20
-4.141000
30
199.972000
70
192
0
VERTEX
8
OBJECT__22
10
15.622000
20
-4.003000
30
201.070999
70
192
0
VERTEX
8
OBJECT__22
10
15.405000
20
-4.852000
30
201.078995
70
192
0
VERTEX
8
OBJECT__22
10
15.241000
20
-5.346000
30
200.281998
70
192
0
VERTEX
8
OBJECT__22
10
15.891000
20
-2.881000
30
199.944000
70
192
0
VERTEX
8
OBJECT__22
10
15.845000
20
-3.128000
30
201.063004
70
192
0
VERTEX
8
OBJECT__22
10
15.230000
20
-5.375000
30
200.000000
70
192
0
VERTEX
8
OBJECT__22
10
15.551000
20
-4.360000
30
198.673004
70
192
0
VERTEX
8
OBJECT__22
10
15.615000
20
-4.079000
30
198.800995
70
192
0
VERTEX
8
OBJECT__22
10
15.913000
20
-2.762000
30
199.403000
70
192
0
VERTEX
8
OBJECT__22
10
0
20
0
30
0
70
128
71
1
72
2
73
3
0
VERTEX
8
OBJECT__22
10
0
20
0
30
0
70
128
71
3
72
4
73
1
0
VERTEX
8
OBJECT__22
10
0
20
0
30
0
70
128
71
1
72
5
73
6
0
VERTEX
8
OBJECT__22
10
0
20
0
30
0
70
128
71
6
72
2
73
1
0
VERTEX
8
OBJECT__22
10
0
20
0
30
0
70
128
71
7
72
8
73
9
0
VERTEX
8
OBJECT__22
10
0
20
0
30
0
70
128
71
9
72
10
73
5
0
VERTEX
8
OBJECT__22
10
0
20
0
30
0
70
128
71
5
72
1
73
9
0
VERTEX
8
OBJECT__22
10
0
20
0
30
0
70
128
71
9
72
1
73
7
0
VERTEX
8
OBJECT__22
10
0
20
0
30
0
70
128
71
4
72
7
73
1
0
SEQEND
8
OBJECT__22
0
POLYLINE
8
OBJECT__23
66
1
70
64
71
20
72
20
62
253
0
VERTEX
8
OBJECT__23
10
16.094999
20
-1.342000
30
192.798004
70
192
0
VERTEX
8
OBJECT__23
10
16.947001
20
-1.339000
30
192.811005
70
192
0
VERTEX
8
OBJECT__23
10
16.954000
20
-1.225000
30
192.572006
70
192
0
VERTEX
8
OBJECT__23
10
16.128000
20
0.001000
30
193.574005
70
192
0
VERTEX
8
OBJECT__23
10
17.000000
20
0.003000
30
193.871994
70
192
0
VERTEX
8
OBJECT__23
10
17.000000
20
0.000000
30
193.869995
70
192
0
VERTEX
8
OBJECT__23
10
16.128000
20
-0.862000
30
193.570999
70
192
0
VERTEX
8
OBJECT__23
10
16.947001
20
1.343000
30
192.794998
70
192
0
VERTEX
8
OBJECT__23
10
17.000000
20
0.007000
30
193.875000
70
192
0
VERTEX
8
OBJECT__23
10
16.944000
20
1.375000
30
192.500000
70
192
0
VERTEX
8
OBJECT__23
10
16.128000
20
0.854000
30
193.578003
70
192
0
VERTEX
8
OBJECT__23
10
16.111000
20
1.117000
30
192.440002
70
192
0
VERTEX
8
OBJECT__23
10
16.103001
20
1.240000
30
191.906006
70
192
0
VERTEX
8
OBJECT__23
10
16.141001
20
-0.071000
30
191.272003
70
192
0
VERTEX
8
OBJECT__23
10
16.981001
20
0.000000
30
191.397995
70
192
0
VERTEX
8
OBJECT__23
10
16.966000
20
1.073000
30
191.641006
70
192
0
VERTEX
8
OBJECT__23
10
16.982000
20
-0.059000
30
191.384995
70
192
0
VERTEX
8
OBJECT__23
10
16.091999
20
-1.375000
30
192.500000
70
192
0
VERTEX
8
OBJECT__23
10
16.989000
20
-0.600000
30
191.263000
70
192
0
VERTEX
8
OBJECT__23
10
16.148001
20
-0.304000
30
191.158997
70
192
0
VERTEX
8
OBJECT__23
10
0
20
0
30
0
70
128
71
1
72
2
73
3
0
VERTEX
8
OBJECT__23
10
0
20
0
30
0
70
128
71
4
72
5
73
6
0
VERTEX
8
OBJECT__23
10
0
20
0
30
0
70
128
71
6
72
7
73
4
0
VERTEX
8
OBJECT__23
10
0
20
0
30
0
70
128
71
6
72
2
73
7
0
VERTEX
8
OBJECT__23
10
0
20
0
30
0
70
128
71
2
72
1
73
7
0
VERTEX
8
OBJECT__23
10
0
20
0
30
0
70
128
71
4
72
8
73
9
0
VERTEX
8
OBJECT__23
10
0
20
0
30
0
70
128
71
4
72
10
73
8
0
VERTEX
8
OBJECT__23
10
0
20
0
30
0
70
128
71
10
72
4
73
11
0
VERTEX
8
OBJECT__23
10
0
20
0
30
0
70
128
71
11
72
12
73
10
0
VERTEX
8
OBJECT__23
10
0
20
0
30
0
70
128
71
9
72
5
73
4
0
VERTEX
8
OBJECT__23
10
0
20
0
30
0
70
128
71
10
72
12
73
13
0
VERTEX
8
OBJECT__23
10
0
20
0
30
0
70
128
71
14
72
15
73
16
0
VERTEX
8
OBJECT__23
10
0
20
0
30
0
70
128
71
16
72
13
73
14
0
VERTEX
8
OBJECT__23
10
0
20
0
30
0
70
128
71
14
72
17
73
15
0
VERTEX
8
OBJECT__23
10
0
20
0
30
0
70
128
71
18
72
3
73
19
0
VERTEX
8
OBJECT__23
10
0
20
0
30
0
70
128
71
19
72
20
73
18
0
VERTEX
8
OBJECT__23
10
0
20
0
30
0
70
128
71
17
72
14
73
20
0
VERTEX
8
OBJECT__23
10
0
20
0
30
0
70
128
71
19
72
17
73
20
0
VERTEX
8
OBJECT__23
10
0
20
0
30
0
70
128
71
13
72
16
73
10
0
VERTEX
8
OBJECT__23
10
0
20
0
30
0
70
128
71
3
72
18
73
1
0
SEQEND
8
OBJECT__23
0
POLYLINE
8
OBJECT__24
66
1
70
64
71
10
72
9
62
253
0
VERTEX
8
OBJECT__24
10
16.111000
20
1.117000
30
192.440002
70
192
0
VERTEX
8
OBJECT__24
10
16.128000
20
0.854000
30
193.578003
70
192
0
VERTEX
8
OBJECT__24
10
16.128000
20
0.001000
30
193.574005
70
192
0
VERTEX
8
OBJECT__24
10
16.143999
20
-0.467000
30
192.421005
70
192
0
VERTEX
8
OBJECT__24
10
16.141001
20
-0.071000
30
191.272003
70
192
0
VERTEX
8
OBJECT__24
10
16.103001
20
1.240000
30
191.906006
70
192
0
VERTEX
8
OBJECT__24
10
16.128000
20
-0.862000
30
193.570999
70
192
0
VERTEX
8
OBJECT__24
10
16.094999
20
-1.342000
30
192.798004
70
192
0
VERTEX
8
OBJECT__24
10
16.148001
20
-0.304000
30
191.158997
70
192
0
VERTEX
8
OBJECT__24
10
16.091999
20
-1.375000
30
192.500000
70
192
0
VERTEX
8
OBJECT__24
10
0
20
0
30
0
70
128
71
1
72
2
73
3
0
VERTEX
8
OBJECT__24
10
0
20
0
30
0
70
128
71
3
72
4
73
1
0
VERTEX
8
OBJECT__24
10
0
20
0
30
0
70
128
71
4
72
5
73
6
0
VERTEX
8
OBJECT__24
10
0
20
0
30
0
70
128
71
6
72
1
73
4
0
VERTEX
8
OBJECT__24
10
0
20
0
30
0
70
128
71
4
72
7
73
8
0
VERTEX
8
OBJECT__24
10
0
20
0
30
0
70
128
71
9
72
5
73
4
0
VERTEX
8
OBJECT__24
10
0
20
0
30
0
70
128
71
4
72
10
73
9
0
VERTEX
8
OBJECT__24
10
0
20
0
30
0
70
128
71
8
72
10
73
4
0
VERTEX
8
OBJECT__24
10
0
20
0
30
0
70
128
71
3
72
7
73
4
0
SEQEND
8
OBJECT__24
0
POLYLINE
8
OBJECT__25
66
1
70
64
71
19
72
19
62
253
0
VERTEX
8
OBJECT__25
10
16.728001
20
3.030000
30
193.475006
70
192
0
VERTEX
8
OBJECT__25
10
16.795000
20
2.634000
30
192.654007
70
192
0
VERTEX
8
OBJECT__25
10
15.931000
20
2.657000
30
192.792999
70
192
0
VERTEX
8
OBJECT__25
10
15.843000
20
3.138000
30
193.570999
70
192
0
VERTEX
8
OBJECT__25
10
16.492001
20
4.028000
30
193.567001
70
192
0
VERTEX
8
OBJECT__25
10
15.936000
20
2.625000
30
192.500000
70
192
0
VERTEX
8
OBJECT__25
10
16.795000
20
2.633000
30
192.500000
70
192
0
VERTEX
8
OBJECT__25
10
15.623000
20
3.996000
30
193.559998
70
192
0
VERTEX
8
OBJECT__25
10
15.393000
20
4.888000
30
193.548996
70
192
0
VERTEX
8
OBJECT__25
10
16.316000
20
4.774000
30
193.636002
70
192
0
VERTEX
8
OBJECT__25
10
16.191000
20
5.176000
30
192.434006
70
192
0
VERTEX
8
OBJECT__25
10
15.313000
20
5.133000
30
192.445999
70
192
0
VERTEX
8
OBJECT__25
10
15.274000
20
5.249000
30
191.925003
70
192
0
VERTEX
8
OBJECT__25
10
16.152000
20
5.302000
30
192.057007
70
192
0
VERTEX
8
OBJECT__25
10
15.655000
20
3.924000
30
191.287003
70
192
0
VERTEX
8
OBJECT__25
10
16.531000
20
3.943000
30
191.220001
70
192
0
VERTEX
8
OBJECT__25
10
16.795000
20
2.632000
30
192.362000
70
192
0
VERTEX
8
OBJECT__25
10
16.566999
20
3.811000
30
191.138000
70
192
0
VERTEX
8
OBJECT__25
10
15.728000
20
3.671000
30
191.164993
70
192
0
VERTEX
8
OBJECT__25
10
0
20
0
30
0
70
128
71
1
72
2
73
3
0
VERTEX
8
OBJECT__25
10
0
20
0
30
0
70
128
71
4
72
5
73
1
0
VERTEX
8
OBJECT__25
10
0
20
0
30
0
70
128
71
6
72
3
73
2
0
VERTEX
8
OBJECT__25
10
0
20
0
30
0
70
128
71
2
72
7
73
6
0
VERTEX
8
OBJECT__25
10
0
20
0
30
0
70
128
71
3
72
4
73
1
0
VERTEX
8
OBJECT__25
10
0
20
0
30
0
70
128
71
8
72
9
73
10
0
VERTEX
8
OBJECT__25
10
0
20
0
30
0
70
128
71
11
72
10
73
9
0
VERTEX
8
OBJECT__25
10
0
20
0
30
0
70
128
71
9
72
12
73
11
0
VERTEX
8
OBJECT__25
10
0
20
0
30
0
70
128
71
12
72
13
73
14
0
VERTEX
8
OBJECT__25
10
0
20
0
30
0
70
128
71
14
72
13
73
15
0
VERTEX
8
OBJECT__25
10
0
20
0
30
0
70
128
71
15
72
16
73
14
0
VERTEX
8
OBJECT__25
10
0
20
0
30
0
70
128
71
17
72
18
73
19
0
VERTEX
8
OBJECT__25
10
0
20
0
30
0
70
128
71
19
72
6
73
17
0
VERTEX
8
OBJECT__25
10
0
20
0
30
0
70
128
71
6
72
7
73
17
0
VERTEX
8
OBJECT__25
10
0
20
0
30
0
70
128
71
16
72
15
73
19
0
VERTEX
8
OBJECT__25
10
0
20
0
30
0
70
128
71
18
72
16
73
19
0
VERTEX
8
OBJECT__25
10
0
20
0
30
0
70
128
71
14
72
11
73
12
0
VERTEX
8
OBJECT__25
10
0
20
0
30
0
70
128
71
10
72
5
73
8
0
VERTEX
8
OBJECT__25
10
0
20
0
30
0
70
128
71
4
72
8
73
5
0
SEQEND
8
OBJECT__25
0
POLYLINE
8
OBJECT__26
66
1
70
64
71
10
72
9
62
253
0
VERTEX
8
OBJECT__26
10
15.313000
20
5.133000
30
192.445999
70
192
0
VERTEX
8
OBJECT__26
10
15.393000
20
4.888000
30
193.548996
70
192
0
VERTEX
8
OBJECT__26
10
15.623000
20
3.996000
30
193.559998
70
192
0
VERTEX
8
OBJECT__26
10
15.760000
20
3.533000
30
192.429001
70
192
0
VERTEX
8
OBJECT__26
10
15.655000
20
3.924000
30
191.287003
70
192
0
VERTEX
8
OBJECT__26
10
15.274000
20
5.249000
30
191.925003
70
192
0
VERTEX
8
OBJECT__26
10
15.843000
20
3.138000
30
193.570999
70
192
0
VERTEX
8
OBJECT__26
10
15.931000
20
2.657000
30
192.792999
70
192
0
VERTEX
8
OBJECT__26
10
15.728000
20
3.671000
30
191.164993
70
192
0
VERTEX
8
OBJECT__26
10
15.936000
20
2.625000
30
192.500000
70
192
0
VERTEX
8
OBJECT__26
10
0
20
0
30
0
70
128
71
1
72
2
73
3
0
VERTEX
8
OBJECT__26
10
0
20
0
30
0
70
128
71
3
72
4
73
1
0
VERTEX
8
OBJECT__26
10
0
20
0
30
0
70
128
71
5
72
6
73
1
0
VERTEX
8
OBJECT__26
10
0
20
0
30
0
70
128
71
1
72
4
73
5
0
VERTEX
8
OBJECT__26
10
0
20
0
30
0
70
128
71
4
72
7
73
8
0
VERTEX
8
OBJECT__26
10
0
20
0
30
0
70
128
71
9
72
5
73
4
0
VERTEX
8
OBJECT__26
10
0
20
0
30
0
70
128
71
4
72
10
73
9
0
VERTEX
8
OBJECT__26
10
0
20
0
30
0
70
128
71
8
72
10
73
4
0
VERTEX
8
OBJECT__26
10
0
20
0
30
0
70
128
71
3
72
7
73
4
0
SEQEND
8
OBJECT__26
0
POLYLINE
8
OBJECT__27
66
1
70
64
71
19
72
19
62
253
0
VERTEX
8
OBJECT__27
10
14.369000
20
-7.375000
30
188.750000
70
192
0
VERTEX
8
OBJECT__27
10
14.381000
20
-7.351000
30
189.007004
70
192
0
VERTEX
8
OBJECT__27
10
15.319000
20
-7.371000
30
188.858994
70
192
0
VERTEX
8
OBJECT__27
10
14.630000
20
-6.843000
30
189.835999
70
192
0
VERTEX
8
OBJECT__27
10
15.504000
20
-6.974000
30
189.720001
70
192
0
VERTEX
8
OBJECT__27
10
14.963000
20
-6.008000
30
189.813995
70
192
0
VERTEX
8
OBJECT__27
10
15.890000
20
-5.972000
30
189.815002
70
192
0
VERTEX
8
OBJECT__27
10
16.177000
20
-5.226000
30
189.886002
70
192
0
VERTEX
8
OBJECT__27
10
15.324000
20
-5.102000
30
189.791000
70
192
0
VERTEX
8
OBJECT__27
10
15.398000
20
-4.872000
30
188.697998
70
192
0
VERTEX
8
OBJECT__27
10
15.870000
20
-6.073000
30
187.503998
70
192
0
VERTEX
8
OBJECT__27
10
16.337999
20
-4.699000
30
188.304993
70
192
0
VERTEX
8
OBJECT__27
10
15.434000
20
-4.758000
30
188.160004
70
192
0
VERTEX
8
OBJECT__27
10
16.299000
20
-4.825000
30
188.684006
70
192
0
VERTEX
8
OBJECT__27
10
15.808000
20
-6.253000
30
187.399002
70
192
0
VERTEX
8
OBJECT__27
10
14.943000
20
-6.088000
30
187.587006
70
192
0
VERTEX
8
OBJECT__27
10
14.819000
20
-6.423000
30
187.442001
70
192
0
VERTEX
8
OBJECT__27
10
15.320000
20
-7.369000
30
188.617996
70
192
0
VERTEX
8
OBJECT__27
10
15.320000
20
-7.370000
30
188.750000
70
192
0
VERTEX
8
OBJECT__27
10
0
20
0
30
0
70
128
71
1
72
2
73
3
0
VERTEX
8
OBJECT__27
10
0
20
0
30
0
70
128
71
3
72
2
73
4
0
VERTEX
8
OBJECT__27
10
0
20
0
30
0
70
128
71
4
72
5
73
3
0
VERTEX
8
OBJECT__27
10
0
20
0
30
0
70
128
71
5
72
4
73
6
0
VERTEX
8
OBJECT__27
10
0
20
0
30
0
70
128
71
6
72
7
73
5
0
VERTEX
8
OBJECT__27
10
0
20
0
30
0
70
128
71
8
72
9
73
10
0
VERTEX
8
OBJECT__27
10
0
20
0
30
0
70
128
71
9
72
8
73
7
0
VERTEX
8
OBJECT__27
10
0
20
0
30
0
70
128
71
7
72
6
73
9
0
VERTEX
8
OBJECT__27
10
0
20
0
30
0
70
128
71
11
72
12
73
13
0
VERTEX
8
OBJECT__27
10
0
20
0
30
0
70
128
71
13
72
12
73
14
0
VERTEX
8
OBJECT__27
10
0
20
0
30
0
70
128
71
14
72
10
73
13
0
VERTEX
8
OBJECT__27
10
0
20
0
30
0
70
128
71
15
72
16
73
17
0
VERTEX
8
OBJECT__27
10
0
20
0
30
0
70
128
71
17
72
18
73
15
0
VERTEX
8
OBJECT__27
10
0
20
0
30
0
70
128
71
1
72
19
73
18
0
VERTEX
8
OBJECT__27
10
0
20
0
30
0
70
128
71
17
72
1
73
18
0
VERTEX
8
OBJECT__27
10
0
20
0
30
0
70
128
71
15
72
11
73
16
0
VERTEX
8
OBJECT__27
10
0
20
0
30
0
70
128
71
13
72
16
73
11
0
VERTEX
8
OBJECT__27
10
0
20
0
30
0
70
128
71
10
72
14
73
8
0
VERTEX
8
OBJECT__27
10
0
20
0
30
0
70
128
71
3
72
19
73
1
0
SEQEND
8
OBJECT__27
0
POLYLINE
8
OBJECT__28
66
1
70
64
71
11
72
11
62
253
0
VERTEX
8
OBJECT__28
10
14.963000
20
-6.008000
30
189.813995
70
192
0
VERTEX
8
OBJECT__28
10
14.630000
20
-6.843000
30
189.835999
70
192
0
VERTEX
8
OBJECT__28
10
14.798000
20
-6.471000
30
188.710999
70
192
0
VERTEX
8
OBJECT__28
10
14.943000
20
-6.088000
30
187.587006
70
192
0
VERTEX
8
OBJECT__28
10
14.973000
20
-6.056000
30
188.699997
70
192
0
VERTEX
8
OBJECT__28
10
15.398000
20
-4.872000
30
188.697998
70
192
0
VERTEX
8
OBJECT__28
10
15.324000
20
-5.102000
30
189.791000
70
192
0
VERTEX
8
OBJECT__28
10
15.434000
20
-4.758000
30
188.160004
70
192
0
VERTEX
8
OBJECT__28
10
14.381000
20
-7.351000
30
189.007004
70
192
0
VERTEX
8
OBJECT__28
10
14.819000
20
-6.423000
30
187.442001
70
192
0
VERTEX
8
OBJECT__28
10
14.369000
20
-7.375000
30
188.750000
70
192
0
VERTEX
8
OBJECT__28
10
0
20
0
30
0
70
128
71
1
72
2
73
3
0
VERTEX
8
OBJECT__28
10
0
20
0
30
0
70
128
71
3
72
4
73
5
0
VERTEX
8
OBJECT__28
10
0
20
0
30
0
70
128
71
5
72
6
73
7
0
VERTEX
8
OBJECT__28
10
0
20
0
30
0
70
128
71
4
72
8
73
6
0
VERTEX
8
OBJECT__28
10
0
20
0
30
0
70
128
71
6
72
5
73
4
0
VERTEX
8
OBJECT__28
10
0
20
0
30
0
70
128
71
7
72
1
73
5
0
VERTEX
8
OBJECT__28
10
0
20
0
30
0
70
128
71
3
72
2
73
9
0
VERTEX
8
OBJECT__28
10
0
20
0
30
0
70
128
71
10
72
4
73
3
0
VERTEX
8
OBJECT__28
10
0
20
0
30
0
70
128
71
3
72
11
73
10
0
VERTEX
8
OBJECT__28
10
0
20
0
30
0
70
128
71
9
72
11
73
3
0
VERTEX
8
OBJECT__28
10
0
20
0
30
0
70
128
71
3
72
5
73
1
0
SEQEND
8
OBJECT__28
0
POLYLINE
8
OBJECT__29
66
1
70
64
71
19
72
19
62
253
0
VERTEX
8
OBJECT__29
10
15.230000
20
-5.375000
30
192.500000
70
192
0
VERTEX
8
OBJECT__29
10
15.241000
20
-5.346000
30
192.781998
70
192
0
VERTEX
8
OBJECT__29
10
16.129999
20
-5.369000
30
192.630005
70
192
0
VERTEX
8
OBJECT__29
10
15.405000
20
-4.852000
30
193.578995
70
192
0
VERTEX
8
OBJECT__29
10
16.256001
20
-4.974000
30
193.470001
70
192
0
VERTEX
8
OBJECT__29
10
15.622000
20
-4.003000
30
193.570999
70
192
0
VERTEX
8
OBJECT__29
10
16.507000
20
-3.969000
30
193.578003
70
192
0
VERTEX
8
OBJECT__29
10
16.761000
20
-2.833000
30
192.429001
70
192
0
VERTEX
8
OBJECT__29
10
16.686001
20
-3.254000
30
193.654999
70
192
0
VERTEX
8
OBJECT__29
10
15.845000
20
-3.128000
30
193.563004
70
192
0
VERTEX
8
OBJECT__29
10
16.502001
20
-4.059000
30
191.223999
70
192
0
VERTEX
8
OBJECT__29
10
16.784000
20
-2.702000
30
192.046997
70
192
0
VERTEX
8
OBJECT__29
10
15.913000
20
-2.762000
30
191.903000
70
192
0
VERTEX
8
OBJECT__29
10
15.891000
20
-2.881000
30
192.444000
70
192
0
VERTEX
8
OBJECT__29
10
16.129999
20
-5.368000
30
192.358002
70
192
0
VERTEX
8
OBJECT__29
10
16.474001
20
-4.198000
30
191.139008
70
192
0
VERTEX
8
OBJECT__29
10
15.551000
20
-4.360000
30
191.173004
70
192
0
VERTEX
8
OBJECT__29
10
15.615000
20
-4.079000
30
191.300995
70
192
0
VERTEX
8
OBJECT__29
10
16.129999
20
-5.368000
30
192.500000
70
192
0
VERTEX
8
OBJECT__29
10
0
20
0
30
0
70
128
71
1
72
2
73
3
0
VERTEX
8
OBJECT__29
10
0
20
0
30
0
70
128
71
2
72
4
73
5
0
VERTEX
8
OBJECT__29
10
0
20
0
30
0
70
128
71
5
72
3
73
2
0
VERTEX
8
OBJECT__29
10
0
20
0
30
0
70
128
71
5
72
4
73
6
0
VERTEX
8
OBJECT__29
10
0
20
0
30
0
70
128
71
6
72
7
73
5
0
VERTEX
8
OBJECT__29
10
0
20
0
30
0
70
128
71
8
72
9
73
10
0
VERTEX
8
OBJECT__29
10
0
20
0
30
0
70
128
71
10
72
9
73
7
0
VERTEX
8
OBJECT__29
10
0
20
0
30
0
70
128
71
7
72
6
73
10
0
VERTEX
8
OBJECT__29
10
0
20
0
30
0
70
128
71
11
72
12
73
13
0
VERTEX
8
OBJECT__29
10
0
20
0
30
0
70
128
71
14
72
13
73
12
0
VERTEX
8
OBJECT__29
10
0
20
0
30
0
70
128
71
12
72
8
73
14
0
VERTEX
8
OBJECT__29
10
0
20
0
30
0
70
128
71
15
72
16
73
17
0
VERTEX
8
OBJECT__29
10
0
20
0
30
0
70
128
71
16
72
18
73
17
0
VERTEX
8
OBJECT__29
10
0
20
0
30
0
70
128
71
1
72
19
73
15
0
VERTEX
8
OBJECT__29
10
0
20
0
30
0
70
128
71
17
72
1
73
15
0
VERTEX
8
OBJECT__29
10
0
20
0
30
0
70
128
71
16
72
11
73
18
0
VERTEX
8
OBJECT__29
10
0
20
0
30
0
70
128
71
13
72
18
73
11
0
VERTEX
8
OBJECT__29
10
0
20
0
30
0
70
128
71
10
72
14
73
8
0
VERTEX
8
OBJECT__29
10
0
20
0
30
0
70
128
71
3
72
19
73
1
0
SEQEND
8
OBJECT__29
0
POLYLINE
8
OBJECT__30
66
1
70
64
71
10
72
9
62
253
0
VERTEX
8
OBJECT__30
10
15.611000
20
-4.141000
30
192.472000
70
192
0
VERTEX
8
OBJECT__30
10
15.622000
20
-4.003000
30
193.570999
70
192
0
VERTEX
8
OBJECT__30
10
15.405000
20
-4.852000
30
193.578995
70
192
0
VERTEX
8
OBJECT__30
10
15.241000
20
-5.346000
30
192.781998
70
192
0
VERTEX
8
OBJECT__30
10
15.891000
20
-2.881000
30
192.444000
70
192
0
VERTEX
8
OBJECT__30
10
15.845000
20
-3.128000
30
193.563004
70
192
0
VERTEX
8
OBJECT__30
10
15.230000
20
-5.375000
30
192.500000
70
192
0
VERTEX
8
OBJECT__30
10
15.551000
20
-4.360000
30
191.173004
70
192
0
VERTEX
8
OBJECT__30
10
15.615000
20
-4.079000
30
191.300995
70
192
0
VERTEX
8
OBJECT__30
10
15.913000
20
-2.762000
30
191.903000
70
192
0
VERTEX
8
OBJECT__30
10
0
20
0
30
0
70
128
71
1
72
2
73
3
0
VERTEX
8
OBJECT__30
10
0
20
0
30
0
70
128
71
3
72
4
73
1
0
VERTEX
8
OBJECT__30
10
0
20
0
30
0
70
128
71
1
72
5
73
6
0
VERTEX
8
OBJECT__30
10
0
20
0
30
0
70
128
71
6
72
2
73
1
0
VERTEX
8
OBJECT__30
10
0
20
0
30
0
70
128
71
7
72
8
73
9
0
VERTEX
8
OBJECT__30
10
0
20
0
30
0
70
128
71
9
72
10
73
5
0
VERTEX
8
OBJECT__30
10
0
20
0
30
0
70
128
71
5
72
1
73
9
0
VERTEX
8
OBJECT__30
10
0
20
0
30
0
70
128
71
9
72
1
73
7
0
VERTEX
8
OBJECT__30
10
0
20
0
30
0
70
128
71
4
72
7
73
1
0
SEQEND
8
OBJECT__30
0
POLYLINE
8
OBJECT__31
66
1
70
64
71
67
72
67
62
253
0
VERTEX
8
OBJECT__31
10
0.107000
20
-16.983000
30
214.800003
70
192
0
VERTEX
8
OBJECT__31
10
5.253000
20
-16.167999
30
214.800003
70
192
0
VERTEX
8
OBJECT__31
10
2.731000
20
-16.577000
30
215.000000
70
192
0
VERTEX
8
OBJECT__31
10
6.429000
20
-15.521000
30
215.000000
70
192
0
VERTEX
8
OBJECT__31
10
6.364000
20
-15.361000
30
214.800003
70
192
0
VERTEX
8
OBJECT__31
10
6.506000
20
-15.476000
30
215.000000
70
192
0
VERTEX
8
OBJECT__31
10
-6.235000
20
-15.455000
30
214.800003
70
192
0
VERTEX
8
OBJECT__31
10
-5.253000
20
-16.167999
30
214.800003
70
192
0
VERTEX
8
OBJECT__31
10
-5.577000
20
-15.848000
30
215.000000
70
192
0
VERTEX
8
OBJECT__31
10
0.000000
20
-17.000000
30
214.800003
70
192
0
VERTEX
8
OBJECT__31
10
-1.471000
20
-16.735001
30
215.000000
70
192
0
VERTEX
8
OBJECT__31
10
0.104000
20
-16.676001
30
215.000000
70
192
0
VERTEX
8
OBJECT__31
10
-11.678000
20
-11.500000
30
214.800003
70
192
0
VERTEX
8
OBJECT__31
10
-6.324000
20
-15.474000
30
215.000000
70
192
0
VERTEX
8
OBJECT__31
10
-9.334000
20
-13.968000
30
215.000000
70
192
0
VERTEX
8
OBJECT__31
10
-11.866000
20
-11.819000
30
215.000000
70
192
0
VERTEX
8
OBJECT__31
10
-15.005000
20
-6.141000
30
214.800003
70
192
0
VERTEX
8
OBJECT__31
10
-14.729000
20
-8.080000
30
215.000000
70
192
0
VERTEX
8
OBJECT__31
10
-15.448000
20
-6.261000
30
215.000000
70
192
0
VERTEX
8
OBJECT__31
10
-12.264000
20
-11.482000
30
215.000000
70
192
0
VERTEX
8
OBJECT__31
10
-13.753000
20
-9.992000
30
214.800003
70
192
0
VERTEX
8
OBJECT__31
10
-17.000000
20
0.000000
30
214.800003
70
192
0
VERTEX
8
OBJECT__31
10
-16.275000
20
-4.167000
30
215.000000
70
192
0
VERTEX
8
OBJECT__31
10
-16.799999
20
0.001000
30
215.000000
70
192
0
VERTEX
8
OBJECT__31
10
-16.361000
20
3.814000
30
215.000000
70
192
0
VERTEX
8
OBJECT__31
10
-15.448000
20
6.279000
30
215.000000
70
192
0
VERTEX
8
OBJECT__31
10
-15.000000
20
6.154000
30
214.800003
70
192
0
VERTEX
8
OBJECT__31
10
-12.510000
20
11.214000
30
215.000000
70
192
0
VERTEX
8
OBJECT__31
10
-11.847000
20
11.789000
30
215.000000
70
192
0
VERTEX
8
OBJECT__31
10
-14.900000
20
7.761000
30
215.000000
70
192
0
VERTEX
8
OBJECT__31
10
-11.683000
20
11.497000
30
214.800003
70
192
0
VERTEX
8
OBJECT__31
10
-13.753000
20
9.992000
30
214.800003
70
192
0
VERTEX
8
OBJECT__31
10
-6.344000
20
15.504000
30
215.000000
70
192
0
VERTEX
8
OBJECT__31
10
-6.238000
20
15.452000
30
214.800003
70
192
0
VERTEX
8
OBJECT__31
10
-9.335000
20
13.968000
30
215.000000
70
192
0
VERTEX
8
OBJECT__31
10
-5.914000
20
15.725000
30
215.000000
70
192
0
VERTEX
8
OBJECT__31
10
-5.253000
20
16.167999
30
214.800003
70
192
0
VERTEX
8
OBJECT__31
10
-1.824000
20
16.701000
30
215.000000
70
192
0
VERTEX
8
OBJECT__31
10
0.102000
20
16.669001
30
215.000000
70
192
0
VERTEX
8
OBJECT__31
10
0.106000
20
16.167999
30
214.800003
70
192
0
VERTEX
8
OBJECT__31
10
6.502000
20
15.480000
30
215.000000
70
192
0
VERTEX
8
OBJECT__31
10
6.360000
20
15.364000
30
214.800003
70
192
0
VERTEX
8
OBJECT__31
10
5.253000
20
16.167999
30
214.800003
70
192
0
VERTEX
8
OBJECT__31
10
6.429000
20
15.521000
30
215.000000
70
192
0
VERTEX
8
OBJECT__31
10
2.378000
20
16.631001
30
215.000000
70
192
0
VERTEX
8
OBJECT__31
10
11.836000
20
11.756000
30
215.000000
70
192
0
VERTEX
8
OBJECT__31
10
11.696000
20
11.487000
30
214.800003
70
192
0
VERTEX
8
OBJECT__31
10
9.791000
20
13.652000
30
215.000000
70
192
0
VERTEX
8
OBJECT__31
10
13.753000
20
9.992000
30
214.800003
70
192
0
VERTEX
8
OBJECT__31
10
12.872000
20
10.795000
30
215.000000
70
192
0
VERTEX
8
OBJECT__31
10
15.149000
20
7.262000
30
215.000000
70
192
0
VERTEX
8
OBJECT__31
10
14.974000
20
6.235000
30
214.800003
70
192
0
VERTEX
8
OBJECT__31
10
15.446000
20
6.371000
30
215.000000
70
192
0
VERTEX
8
OBJECT__31
10
17.000000
20
0.000000
30
214.800003
70
192
0
VERTEX
8
OBJECT__31
10
16.476999
20
3.278000
30
215.000000
70
192
0
VERTEX
8
OBJECT__31
10
16.746000
20
-0.014000
30
215.000000
70
192
0
VERTEX
8
OBJECT__31
10
16.997000
20
-0.009000
30
214.800003
70
192
0
VERTEX
8
OBJECT__31
10
15.412000
20
-6.355000
30
215.000000
70
192
0
VERTEX
8
OBJECT__31
10
14.972000
20
-6.241000
30
214.800003
70
192
0
VERTEX
8
OBJECT__31
10
16.791000
20
-0.557000
30
215.000000
70
192
0
VERTEX
8
OBJECT__31
10
16.127001
20
-4.706000
30
215.000000
70
192
0
VERTEX
8
OBJECT__31
10
14.453000
20
-8.564000
30
215.000000
70
192
0
VERTEX
8
OBJECT__31
10
11.914000
20
-11.834000
30
215.000000
70
192
0
VERTEX
8
OBJECT__31
10
11.701000
20
-11.483000
30
214.800003
70
192
0
VERTEX
8
OBJECT__31
10
13.753000
20
-9.992000
30
214.800003
70
192
0
VERTEX
8
OBJECT__31
10
11.879000
20
-11.880000
30
215.000000
70
192
0
VERTEX
8
OBJECT__31
10
10.077000
20
-13.442000
30
215.000000
70
192
0
VERTEX
8
OBJECT__31
10
0
20
0
30
0
70
128
71
1
72
2
73
3
0
VERTEX
8
OBJECT__31
10
0
20
0
30
0
70
128
71
4
72
3
73
2
0
VERTEX
8
OBJECT__31
10
0
20
0
30
0
70
128
71
2
72
5
73
4
0
VERTEX
8
OBJECT__31
10
0
20
0
30
0
70
128
71
5
72
6
73
4
0
VERTEX
8
OBJECT__31
10
0
20
0
30
0
70
128
71
7
72
8
73
9
0
VERTEX
8
OBJECT__31
10
0
20
0
30
0
70
128
71
8
72
10
73
11
0
VERTEX
8
OBJECT__31
10
0
20
0
30
0
70
128
71
12
72
11
73
10
0
VERTEX
8
OBJECT__31
10
0
20
0
30
0
70
128
71
10
72
1
73
12
0
VERTEX
8
OBJECT__31
10
0
20
0
30
0
70
128
71
11
72
9
73
8
0
VERTEX
8
OBJECT__31
10
0
20
0
30
0
70
128
71
13
72
14
73
15
0
VERTEX
8
OBJECT__31
10
0
20
0
30
0
70
128
71
15
72
16
73
13
0
VERTEX
8
OBJECT__31
10
0
20
0
30
0
70
128
71
17
72
16
73
18
0
VERTEX
8
OBJECT__31
10
0
20
0
30
0
70
128
71
17
72
13
73
16
0
VERTEX
8
OBJECT__31
10
0
20
0
30
0
70
128
71
18
72
19
73
17
0
VERTEX
8
OBJECT__31
10
0
20
0
30
0
70
128
71
16
72
20
73
18
0
VERTEX
8
OBJECT__31
10
0
20
0
30
0
70
128
71
17
72
21
73
13
0
VERTEX
8
OBJECT__31
10
0
20
0
30
0
70
128
71
22
72
17
73
23
0
VERTEX
8
OBJECT__31
10
0
20
0
30
0
70
128
71
23
72
24
73
22
0
VERTEX
8
OBJECT__31
10
0
20
0
30
0
70
128
71
17
72
19
73
23
0
VERTEX
8
OBJECT__31
10
0
20
0
30
0
70
128
71
22
72
24
73
25
0
VERTEX
8
OBJECT__31
10
0
20
0
30
0
70
128
71
25
72
26
73
22
0
VERTEX
8
OBJECT__31
10
0
20
0
30
0
70
128
71
26
72
27
73
22
0
VERTEX
8
OBJECT__31
10
0
20
0
30
0
70
128
71
28
72
29
73
27
0
VERTEX
8
OBJECT__31
10
0
20
0
30
0
70
128
71
27
72
30
73
28
0
VERTEX
8
OBJECT__31
10
0
20
0
30
0
70
128
71
27
72
26
73
30
0
VERTEX
8
OBJECT__31
10
0
20
0
30
0
70
128
71
29
72
31
73
27
0
VERTEX
8
OBJECT__31
10
0
20
0
30
0
70
128
71
31
72
32
73
27
0
VERTEX
8
OBJECT__31
10
0
20
0
30
0
70
128
71
33
72
34
73
31
0
VERTEX
8
OBJECT__31
10
0
20
0
30
0
70
128
71
31
72
35
73
33
0
VERTEX
8
OBJECT__31
10
0
20
0
30
0
70
128
71
34
72
33
73
36
0
VERTEX
8
OBJECT__31
10
0
20
0
30
0
70
128
71
37
72
36
73
38
0
VERTEX
8
OBJECT__31
10
0
20
0
30
0
70
128
71
38
72
39
73
37
0
VERTEX
8
OBJECT__31
10
0
20
0
30
0
70
128
71
39
72
40
73
37
0
VERTEX
8
OBJECT__31
10
0
20
0
30
0
70
128
71
41
72
42
73
43
0
VERTEX
8
OBJECT__31
10
0
20
0
30
0
70
128
71
43
72
40
73
41
0
VERTEX
8
OBJECT__31
10
0
20
0
30
0
70
128
71
44
72
41
73
40
0
VERTEX
8
OBJECT__31
10
0
20
0
30
0
70
128
71
40
72
45
73
44
0
VERTEX
8
OBJECT__31
10
0
20
0
30
0
70
128
71
40
72
39
73
45
0
VERTEX
8
OBJECT__31
10
0
20
0
30
0
70
128
71
46
72
47
73
42
0
VERTEX
8
OBJECT__31
10
0
20
0
30
0
70
128
71
42
72
48
73
46
0
VERTEX
8
OBJECT__31
10
0
20
0
30
0
70
128
71
49
72
50
73
51
0
VERTEX
8
OBJECT__31
10
0
20
0
30
0
70
128
71
51
72
52
73
49
0
VERTEX
8
OBJECT__31
10
0
20
0
30
0
70
128
71
51
72
53
73
52
0
VERTEX
8
OBJECT__31
10
0
20
0
30
0
70
128
71
49
72
47
73
46
0
VERTEX
8
OBJECT__31
10
0
20
0
30
0
70
128
71
46
72
50
73
49
0
VERTEX
8
OBJECT__31
10
0
20
0
30
0
70
128
71
54
72
53
73
55
0
VERTEX
8
OBJECT__31
10
0
20
0
30
0
70
128
71
55
72
56
73
54
0
VERTEX
8
OBJECT__31
10
0
20
0
30
0
70
128
71
54
72
52
73
53
0
VERTEX
8
OBJECT__31
10
0
20
0
30
0
70
128
71
56
72
57
73
54
0
VERTEX
8
OBJECT__31
10
0
20
0
30
0
70
128
71
58
72
59
73
60
0
VERTEX
8
OBJECT__31
10
0
20
0
30
0
70
128
71
60
72
61
73
58
0
VERTEX
8
OBJECT__31
10
0
20
0
30
0
70
128
71
59
72
57
73
60
0
VERTEX
8
OBJECT__31
10
0
20
0
30
0
70
128
71
57
72
56
73
60
0
VERTEX
8
OBJECT__31
10
0
20
0
30
0
70
128
71
58
72
62
73
63
0
VERTEX
8
OBJECT__31
10
0
20
0
30
0
70
128
71
63
72
59
73
58
0
VERTEX
8
OBJECT__31
10
0
20
0
30
0
70
128
71
63
72
64
73
59
0
VERTEX
8
OBJECT__31
10
0
20
0
30
0
70
128
71
64
72
65
73
59
0
VERTEX
8
OBJECT__31
10
0
20
0
30
0
70
128
71
5
72
63
73
66
0
VERTEX
8
OBJECT__31
10
0
20
0
30
0
70
128
71
66
72
6
73
5
0
VERTEX
8
OBJECT__31
10
0
20
0
30
0
70
128
71
66
72
67
73
6
0
VERTEX
8
OBJECT__31
10
0
20
0
30
0
70
128
71
5
72
64
73
63
0
VERTEX
8
OBJECT__31
10
0
20
0
30
0
70
128
71
42
72
41
73
48
0
VERTEX
8
OBJECT__31
10
0
20
0
30
0
70
128
71
36
72
37
73
34
0
VERTEX
8
OBJECT__31
10
0
20
0
30
0
70
128
71
31
72
29
73
35
0
VERTEX
8
OBJECT__31
10
0
20
0
30
0
70
128
71
13
72
7
73
14
0
VERTEX
8
OBJECT__31
10
0
20
0
30
0
70
128
71
9
72
14
73
7
0
VERTEX
8
OBJECT__31
10
0
20
0
30
0
70
128
71
3
72
12
73
1
0
SEQEND
8
OBJECT__31
0
POLYLINE
8
OBJECT__32
66
1
70
64
71
41
72
39
62
253
0
VERTEX
8
OBJECT__32
10
0.104000
20
-16.676001
30
215.000000
70
192
0
VERTEX
8
OBJECT__32
10
2.731000
20
-16.577000
30
215.000000
70
192
0
VERTEX
8
OBJECT__32
10
6.429000
20
-15.521000
30
215.000000
70
192
0
VERTEX
8
OBJECT__32
10
-16.799999
20
0.001000
30
215.000000
70
192
0
VERTEX
8
OBJECT__32
10
15.412000
20
-6.355000
30
215.000000
70
192
0
VERTEX
8
OBJECT__32
10
16.127001
20
-4.706000
30
215.000000
70
192
0
VERTEX
8
OBJECT__32
10
6.506000
20
-15.476000
30
215.000000
70
192
0
VERTEX
8
OBJECT__32
10
-6.324000
20
-15.474000
30
215.000000
70
192
0
VERTEX
8
OBJECT__32
10
-5.577000
20
-15.848000
30
215.000000
70
192
0
VERTEX
8
OBJECT__32
10
-1.471000
20
-16.735001
30
215.000000
70
192
0
VERTEX
8
OBJECT__32
10
16.791000
20
-0.557000
30
215.000000
70
192
0
VERTEX
8
OBJECT__32
10
-11.866000
20
-11.819000
30
215.000000
70
192
0
VERTEX
8
OBJECT__32
10
-9.334000
20
-13.968000
30
215.000000
70
192
0
VERTEX
8
OBJECT__32
10
-15.448000
20
-6.261000
30
215.000000
70
192
0
VERTEX
8
OBJECT__32
10
-14.729000
20
-8.080000
30
215.000000
70
192
0
VERTEX
8
OBJECT__32
10
-6.344000
20
15.504000
30
215.000000
70
192
0
VERTEX
8
OBJECT__32
10
-16.361000
20
3.814000
30
215.000000
70
192
0
VERTEX
8
OBJECT__32
10
-15.448000
20
6.279000
30
215.000000
70
192
0
VERTEX
8
OBJECT__32
10
-11.847000
20
11.789000
30
215.000000
70
192
0
VERTEX
8
OBJECT__32
10
-12.510000
20
11.214000
30
215.000000
70
192
0
VERTEX
8
OBJECT__32
10
-9.335000
20
13.968000
30
215.000000
70
192
0
VERTEX
8
OBJECT__32
10
0.102000
20
16.669001
30
215.000000
70
192
0
VERTEX
8
OBJECT__32
10
-1.824000
20
16.701000
30
215.000000
70
192
0
VERTEX
8
OBJECT__32
10
6.429000
20
15.521000
30
215.000000
70
192
0
VERTEX
8
OBJECT__32
10
2.378000
20
16.631001
30
215.000000
70
192
0
VERTEX
8
OBJECT__32
10
15.446000
20
6.371000
30
215.000000
70
192
0
VERTEX
8
OBJECT__32
10
15.149000
20
7.262000
30
215.000000
70
192
0
VERTEX
8
OBJECT__32
10
16.746000
20
-0.014000
30
215.000000
70
192
0
VERTEX
8
OBJECT__32
10
11.914000
20
-11.834000
30
215.000000
70
192
0
VERTEX
8
OBJECT__32
10
14.453000
20
-8.564000
30
215.000000
70
192
0
VERTEX
8
OBJECT__32
10
10.077000
20
-13.442000
30
215.000000
70
192
0
VERTEX
8
OBJECT__32
10
-12.264000
20
-11.482000
30
215.000000
70
192
0
VERTEX
8
OBJECT__32
10
-5.914000
20
15.725000
30
215.000000
70
192
0
VERTEX
8
OBJECT__32
10
6.502000
20
15.480000
30
215.000000
70
192
0
VERTEX
8
OBJECT__32
10
12.872000
20
10.795000
30
215.000000
70
192
0
VERTEX
8
OBJECT__32
10
11.879000
20
-11.880000
30
215.000000
70
192
0
VERTEX
8
OBJECT__32
10
-16.275000
20
-4.167000
30
215.000000
70
192
0
VERTEX
8
OBJECT__32
10
-14.900000
20
7.761000
30
215.000000
70
192
0
VERTEX
8
OBJECT__32
10
11.836000
20
11.756000
30
215.000000
70
192
0
VERTEX
8
OBJECT__32
10
9.791000
20
13.652000
30
215.000000
70
192
0
VERTEX
8
OBJECT__32
10
16.476999
20
3.278000
30
215.000000
70
192
0
VERTEX
8
OBJECT__32
10
0
20
0
30
0
70
128
71
1
72
2
73
3
0
VERTEX
8
OBJECT__32
10
0
20
0
30
0
70
128
71
4
72
5
73
6
0
VERTEX
8
OBJECT__32
10
0
20
0
30
0
70
128
71
7
72
8
73
1
0
VERTEX
8
OBJECT__32
10
0
20
0
30
0
70
128
71
8
72
9
73
10
0
VERTEX
8
OBJECT__32
10
0
20
0
30
0
70
128
71
6
72
11
73
4
0
VERTEX
8
OBJECT__32
10
0
20
0
30
0
70
128
71
10
72
1
73
8
0
VERTEX
8
OBJECT__32
10
0
20
0
30
0
70
128
71
7
72
12
73
13
0
VERTEX
8
OBJECT__32
10
0
20
0
30
0
70
128
71
7
72
14
73
15
0
VERTEX
8
OBJECT__32
10
0
20
0
30
0
70
128
71
16
72
17
73
4
0
VERTEX
8
OBJECT__32
10
0
20
0
30
0
70
128
71
18
72
19
73
20
0
VERTEX
8
OBJECT__32
10
0
20
0
30
0
70
128
71
18
72
16
73
21
0
VERTEX
8
OBJECT__32
10
0
20
0
30
0
70
128
71
4
72
22
73
23
0
VERTEX
8
OBJECT__32
10
0
20
0
30
0
70
128
71
4
72
24
73
25
0
VERTEX
8
OBJECT__32
10
0
20
0
30
0
70
128
71
4
72
26
73
27
0
VERTEX
8
OBJECT__32
10
0
20
0
30
0
70
128
71
11
72
28
73
4
0
VERTEX
8
OBJECT__32
10
0
20
0
30
0
70
128
71
4
72
29
73
30
0
VERTEX
8
OBJECT__32
10
0
20
0
30
0
70
128
71
4
72
7
73
31
0
VERTEX
8
OBJECT__32
10
0
20
0
30
0
70
128
71
13
72
8
73
7
0
VERTEX
8
OBJECT__32
10
0
20
0
30
0
70
128
71
15
72
32
73
7
0
VERTEX
8
OBJECT__32
10
0
20
0
30
0
70
128
71
16
72
18
73
17
0
VERTEX
8
OBJECT__32
10
0
20
0
30
0
70
128
71
21
72
19
73
18
0
VERTEX
8
OBJECT__32
10
0
20
0
30
0
70
128
71
23
72
33
73
4
0
VERTEX
8
OBJECT__32
10
0
20
0
30
0
70
128
71
4
72
34
73
24
0
VERTEX
8
OBJECT__32
10
0
20
0
30
0
70
128
71
27
72
35
73
4
0
VERTEX
8
OBJECT__32
10
0
20
0
30
0
70
128
71
30
72
5
73
4
0
VERTEX
8
OBJECT__32
10
0
20
0
30
0
70
128
71
31
72
36
73
4
0
VERTEX
8
OBJECT__32
10
0
20
0
30
0
70
128
71
32
72
12
73
7
0
VERTEX
8
OBJECT__32
10
0
20
0
30
0
70
128
71
7
72
4
73
37
0
VERTEX
8
OBJECT__32
10
0
20
0
30
0
70
128
71
20
72
38
73
18
0
VERTEX
8
OBJECT__32
10
0
20
0
30
0
70
128
71
25
72
22
73
4
0
VERTEX
8
OBJECT__32
10
0
20
0
30
0
70
128
71
4
72
39
73
40
0
VERTEX
8
OBJECT__32
10
0
20
0
30
0
70
128
71
4
72
41
73
26
0
VERTEX
8
OBJECT__32
10
0
20
0
30
0
70
128
71
36
72
29
73
4
0
VERTEX
8
OBJECT__32
10
0
20
0
30
0
70
128
71
37
72
14
73
7
0
VERTEX
8
OBJECT__32
10
0
20
0
30
0
70
128
71
33
72
16
73
4
0
VERTEX
8
OBJECT__32
10
0
20
0
30
0
70
128
71
35
72
39
73
4
0
VERTEX
8
OBJECT__32
10
0
20
0
30
0
70
128
71
3
72
7
73
1
0
VERTEX
8
OBJECT__32
10
0
20
0
30
0
70
128
71
40
72
34
73
4
0
VERTEX
8
OBJECT__32
10
0
20
0
30
0
70
128
71
28
72
41
73
4
0
SEQEND
8
OBJECT__32
0
POLYLINE
8
OBJECT__33
66
1
70
64
71
19
72
19
62
253
0
VERTEX
8
OBJECT__33
10
16.790001
20
2.662000
30
170.317993
70
192
0
VERTEX
8
OBJECT__33
10
15.931000
20
2.657000
30
170.292999
70
192
0
VERTEX
8
OBJECT__33
10
15.843000
20
3.138000
30
171.070999
70
192
0
VERTEX
8
OBJECT__33
10
16.770000
20
2.777000
30
170.070007
70
192
0
VERTEX
8
OBJECT__33
10
15.936000
20
2.625000
30
170.000000
70
192
0
VERTEX
8
OBJECT__33
10
16.516001
20
4.020000
30
171.348007
70
192
0
VERTEX
8
OBJECT__33
10
16.510000
20
4.053000
30
171.373993
70
192
0
VERTEX
8
OBJECT__33
10
15.623000
20
3.996000
30
171.059998
70
192
0
VERTEX
8
OBJECT__33
10
15.393000
20
4.888000
30
171.048996
70
192
0
VERTEX
8
OBJECT__33
10
16.136999
20
5.348000
30
170.268997
70
192
0
VERTEX
8
OBJECT__33
10
15.313000
20
5.133000
30
169.945999
70
192
0
VERTEX
8
OBJECT__33
10
16.128000
20
5.375000
30
170.007004
70
192
0
VERTEX
8
OBJECT__33
10
16.129000
20
5.373000
30
170.001007
70
192
0
VERTEX
8
OBJECT__33
10
16.226000
20
5.072000
30
169.139008
70
192
0
VERTEX
8
OBJECT__33
10
15.655000
20
3.924000
30
168.787003
70
192
0
VERTEX
8
OBJECT__33
10
16.516001
20
3.943000
30
168.897995
70
192
0
VERTEX
8
OBJECT__33
10
15.274000
20
5.249000
30
169.425003
70
192
0
VERTEX
8
OBJECT__33
10
16.662001
20
3.374000
30
168.776001
70
192
0
VERTEX
8
OBJECT__33
10
15.728000
20
3.671000
30
168.664993
70
192
0
VERTEX
8
OBJECT__33
10
0
20
0
30
0
70
128
71
1
72
2
73
3
0
VERTEX
8
OBJECT__33
10
0
20
0
30
0
70
128
71
2
72
1
73
4
0
VERTEX
8
OBJECT__33
10
0
20
0
30
0
70
128
71
4
72
5
73
2
0
VERTEX
8
OBJECT__33
10
0
20
0
30
0
70
128
71
3
72
6
73
1
0
VERTEX
8
OBJECT__33
10
0
20
0
30
0
70
128
71
7
72
8
73
9
0
VERTEX
8
OBJECT__33
10
0
20
0
30
0
70
128
71
9
72
10
73
7
0
VERTEX
8
OBJECT__33
10
0
20
0
30
0
70
128
71
11
72
12
73
10
0
VERTEX
8
OBJECT__33
10
0
20
0
30
0
70
128
71
11
72
13
73
12
0
VERTEX
8
OBJECT__33
10
0
20
0
30
0
70
128
71
9
72
11
73
10
0
VERTEX
8
OBJECT__33
10
0
20
0
30
0
70
128
71
14
72
13
73
11
0
VERTEX
8
OBJECT__33
10
0
20
0
30
0
70
128
71
15
72
16
73
14
0
VERTEX
8
OBJECT__33
10
0
20
0
30
0
70
128
71
14
72
17
73
15
0
VERTEX
8
OBJECT__33
10
0
20
0
30
0
70
128
71
5
72
4
73
18
0
VERTEX
8
OBJECT__33
10
0
20
0
30
0
70
128
71
18
72
19
73
5
0
VERTEX
8
OBJECT__33
10
0
20
0
30
0
70
128
71
16
72
15
73
19
0
VERTEX
8
OBJECT__33
10
0
20
0
30
0
70
128
71
18
72
16
73
19
0
VERTEX
8
OBJECT__33
10
0
20
0
30
0
70
128
71
11
72
17
73
14
0
VERTEX
8
OBJECT__33
10
0
20
0
30
0
70
128
71
7
72
6
73
8
0
VERTEX
8
OBJECT__33
10
0
20
0
30
0
70
128
71
3
72
8
73
6
0
SEQEND
8
OBJECT__33
0
POLYLINE
8
OBJECT__34
66
1
70
64
71
10
72
9
62
253
0
VERTEX
8
OBJECT__34
10
15.313000
20
5.133000
30
169.945999
70
192
0
VERTEX
8
OBJECT__34
10
15.393000
20
4.888000
30
171.048996
70
192
0
VERTEX
8
OBJECT__34
10
15.623000
20
3.996000
30
171.059998
70
192
0
VERTEX
8
OBJECT__34
10
15.760000
20
3.533000
30
169.929001
70
192
0
VERTEX
8
OBJECT__34
10
15.655000
20
3.924000
30
168.787003
70
192
0
VERTEX
8
OBJECT__34
10
15.274000
20
5.249000
30
169.425003
70
192
0
VERTEX
8
OBJECT__34
10
15.843000
20
3.138000
30
171.070999
70
192
0
VERTEX
8
OBJECT__34
10
15.931000
20
2.657000
30
170.292999
70
192
0
VERTEX
8
OBJECT__34
10
15.728000
20
3.671000
30
168.664993
70
192
0
VERTEX
8
OBJECT__34
10
15.936000
20
2.625000
30
170.000000
70
192
0
VERTEX
8
OBJECT__34
10
0
20
0
30
0
70
128
71
1
72
2
73
3
0
VERTEX
8
OBJECT__34
10
0
20
0
30
0
70
128
71
3
72
4
73
1
0
VERTEX
8
OBJECT__34
10
0
20
0
30
0
70
128
71
5
72
6
73
1
0
VERTEX
8
OBJECT__34
10
0
20
0
30
0
70
128
71
1
72
4
73
5
0
VERTEX
8
OBJECT__34
10
0
20
0
30
0
70
128
71
4
72
7
73
8
0
VERTEX
8
OBJECT__34
10
0
20
0
30
0
70
128
71
9
72
5
73
4
0
VERTEX
8
OBJECT__34
10
0
20
0
30
0
70
128
71
4
72
10
73
9
0
VERTEX
8
OBJECT__34
10
0
20
0
30
0
70
128
71
8
72
10
73
4
0
VERTEX
8
OBJECT__34
10
0
20
0
30
0
70
128
71
3
72
7
73
4
0
SEQEND
8
OBJECT__34
0
POLYLINE
8
OBJECT__35
66
1
70
64
71
19
72
19
62
253
0
VERTEX
8
OBJECT__35
10
14.369000
20
-7.375000
30
166.250000
70
192
0
VERTEX
8
OBJECT__35
10
14.381000
20
-7.351000
30
166.507004
70
192
0
VERTEX
8
OBJECT__35
10
15.319000
20
-7.371000
30
166.358994
70
192
0
VERTEX
8
OBJECT__35
10
14.630000
20
-6.843000
30
167.335999
70
192
0
VERTEX
8
OBJECT__35
10
15.504000
20
-6.974000
30
167.220001
70
192
0
VERTEX
8
OBJECT__35
10
14.963000
20
-6.008000
30
167.313995
70
192
0
VERTEX
8
OBJECT__35
10
15.890000
20
-5.972000
30
167.315002
70
192
0
VERTEX
8
OBJECT__35
10
16.177000
20
-5.226000
30
167.386002
70
192
0
VERTEX
8
OBJECT__35
10
15.324000
20
-5.102000
30
167.291000
70
192
0
VERTEX
8
OBJECT__35
10
15.398000
20
-4.872000
30
166.197998
70
192
0
VERTEX
8
OBJECT__35
10
15.870000
20
-6.073000
30
165.003998
70
192
0
VERTEX
8
OBJECT__35
10
16.337999
20
-4.699000
30
165.804993
70
192
0
VERTEX
8
OBJECT__35
10
15.434000
20
-4.758000
30
165.660004
70
192
0
VERTEX
8
OBJECT__35
10
16.299000
20
-4.825000
30
166.184006
70
192
0
VERTEX
8
OBJECT__35
10
15.808000
20
-6.253000
30
164.899002
70
192
0
VERTEX
8
OBJECT__35
10
14.943000
20
-6.088000
30
165.087006
70
192
0
VERTEX
8
OBJECT__35
10
14.819000
20
-6.423000
30
164.942001
70
192
0
VERTEX
8
OBJECT__35
10
15.320000
20
-7.369000
30
166.117996
70
192
0
VERTEX
8
OBJECT__35
10
15.320000
20
-7.370000
30
166.250000
70
192
0
VERTEX
8
OBJECT__35
10
0
20
0
30
0
70
128
71
1
72
2
73
3
0
VERTEX
8
OBJECT__35
10
0
20
0
30
0
70
128
71
3
72
2
73
4
0
VERTEX
8
OBJECT__35
10
0
20
0
30
0
70
128
71
4
72
5
73
3
0
VERTEX
8
OBJECT__35
10
0
20
0
30
0
70
128
71
5
72
4
73
6
0
VERTEX
8
OBJECT__35
10
0
20
0
30
0
70
128
71
6
72
7
73
5
0
VERTEX
8
OBJECT__35
10
0
20
0
30
0
70
128
71
8
72
9
73
10
0
VERTEX
8
OBJECT__35
10
0
20
0
30
0
70
128
71
9
72
8
73
7
0
VERTEX
8
OBJECT__35
10
0
20
0
30
0
70
128
71
7
72
6
73
9
0
VERTEX
8
OBJECT__35
10
0
20
0
30
0
70
128
71
11
72
12
73
13
0
VERTEX
8
OBJECT__35
10
0
20
0
30
0
70
128
71
13
72
12
73
14
0
VERTEX
8
OBJECT__35
10
0
20
0
30
0
70
128
71
14
72
10
73
13
0
VERTEX
8
OBJECT__35
10
0
20
0
30
0
70
128
71
15
72
16
73
17
0
VERTEX
8
OBJECT__35
10
0
20
0
30
0
70
128
71
17
72
18
73
15
0
VERTEX
8
OBJECT__35
10
0
20
0
30
0
70
128
71
1
72
19
73
18
0
VERTEX
8
OBJECT__35
10
0
20
0
30
0
70
128
71
17
72
1
73
18
0
VERTEX
8
OBJECT__35
10
0
20
0
30
0
70
128
71
15
72
11
73
16
0
VERTEX
8
OBJECT__35
10
0
20
0
30
0
70
128
71
13
72
16
73
11
0
VERTEX
8
OBJECT__35
10
0
20
0
30
0
70
128
71
10
72
14
73
8
0
VERTEX
8
OBJECT__35
10
0
20
0
30
0
70
128
71
3
72
19
73
1
0
SEQEND
8
OBJECT__35
0
POLYLINE
8
OBJECT__36
66
1
70
64
71
11
72
11
62
253
0
VERTEX
8
OBJECT__36
10
14.963000
20
-6.008000
30
167.313995
70
192
0
VERTEX
8
OBJECT__36
10
14.630000
20
-6.843000
30
167.335999
70
192
0
VERTEX
8
OBJECT__36
10
14.798000
20
-6.471000
30
166.210999
70
192
0
VERTEX
8
OBJECT__36
10
14.943000
20
-6.088000
30
165.087006
70
192
0
VERTEX
8
OBJECT__36
10
14.973000
20
-6.056000
30
166.199997
70
192
0
VERTEX
8
OBJECT__36
10
15.398000
20
-4.872000
30
166.197998
70
192
0
VERTEX
8
OBJECT__36
10
15.324000
20
-5.102000
30
167.291000
70
192
0
VERTEX
8
OBJECT__36
10
15.434000
20
-4.758000
30
165.660004
70
192
0
VERTEX
8
OBJECT__36
10
14.381000
20
-7.351000
30
166.507004
70
192
0
VERTEX
8
OBJECT__36
10
14.819000
20
-6.423000
30
164.942001
70
192
0
VERTEX
8
OBJECT__36
10
14.369000
20
-7.375000
30
166.250000
70
192
0
VERTEX
8
OBJECT__36
10
0
20
0
30
0
70
128
71
1
72
2
73
3
0
VERTEX
8
OBJECT__36
10
0
20
0
30
0
70
128
71
3
72
4
73
5
0
VERTEX
8
OBJECT__36
10
0
20
0
30
0
70
128
71
5
72
6
73
7
0
VERTEX
8
OBJECT__36
10
0
20
0
30
0
70
128
71
4
72
8
73
6
0
VERTEX
8
OBJECT__36
10
0
20
0
30
0
70
128
71
6
72
5
73
4
0
VERTEX
8
OBJECT__36
10
0
20
0
30
0
70
128
71
7
72
1
73
5
0
VERTEX
8
OBJECT__36
10
0
20
0
30
0
70
128
71
3
72
2
73
9
0
VERTEX
8
OBJECT__36
10
0
20
0
30
0
70
128
71
10
72
4
73
3
0
VERTEX
8
OBJECT__36
10
0
20
0
30
0
70
128
71
3
72
11
73
10
0
VERTEX
8
OBJECT__36
10
0
20
0
30
0
70
128
71
9
72
11
73
3
0
VERTEX
8
OBJECT__36
10
0
20
0
30
0
70
128
71
3
72
5
73
1
0
SEQEND
8
OBJECT__36
0
POLYLINE
8
OBJECT__37
66
1
70
64
71
19
72
19
62
253
0
VERTEX
8
OBJECT__37
10
16.728001
20
3.030000
30
163.475006
70
192
0
VERTEX
8
OBJECT__37
10
16.795000
20
2.634000
30
162.654007
70
192
0
VERTEX
8
OBJECT__37
10
15.931000
20
2.657000
30
162.792999
70
192
0
VERTEX
8
OBJECT__37
10
15.843000
20
3.138000
30
163.570999
70
192
0
VERTEX
8
OBJECT__37
10
16.492001
20
4.028000
30
163.567001
70
192
0
VERTEX
8
OBJECT__37
10
15.936000
20
2.625000
30
162.500000
70
192
0
VERTEX
8
OBJECT__37
10
16.795000
20
2.633000
30
162.500000
70
192
0
VERTEX
8
OBJECT__37
10
15.623000
20
3.996000
30
163.559998
70
192
0
VERTEX
8
OBJECT__37
10
15.393000
20
4.888000
30
163.548996
70
192
0
VERTEX
8
OBJECT__37
10
16.316000
20
4.774000
30
163.636002
70
192
0
VERTEX
8
OBJECT__37
10
16.191000
20
5.176000
30
162.434006
70
192
0
VERTEX
8
OBJECT__37
10
15.313000
20
5.133000
30
162.445999
70
192
0
VERTEX
8
OBJECT__37
10
15.274000
20
5.249000
30
161.925003
70
192
0
VERTEX
8
OBJECT__37
10
16.152000
20
5.302000
30
162.057007
70
192
0
VERTEX
8
OBJECT__37
10
15.655000
20
3.924000
30
161.287003
70
192
0
VERTEX
8
OBJECT__37
10
16.531000
20
3.943000
30
161.220001
70
192
0
VERTEX
8
OBJECT__37
10
16.795000
20
2.632000
30
162.362000
70
192
0
VERTEX
8
OBJECT__37
10
16.566999
20
3.811000
30
161.138000
70
192
0
VERTEX
8
OBJECT__37
10
15.728000
20
3.671000
30
161.164993
70
192
0
VERTEX
8
OBJECT__37
10
0
20
0
30
0
70
128
71
1
72
2
73
3
0
VERTEX
8
OBJECT__37
10
0
20
0
30
0
70
128
71
4
72
5
73
1
0
VERTEX
8
OBJECT__37
10
0
20
0
30
0
70
128
71
6
72
3
73
2
0
VERTEX
8
OBJECT__37
10
0
20
0
30
0
70
128
71
2
72
7
73
6
0
VERTEX
8
OBJECT__37
10
0
20
0
30
0
70
128
71
3
72
4
73
1
0
VERTEX
8
OBJECT__37
10
0
20
0
30
0
70
128
71
8
72
9
73
10
0
VERTEX
8
OBJECT__37
10
0
20
0
30
0
70
128
71
11
72
10
73
9
0
VERTEX
8
OBJECT__37
10
0
20
0
30
0
70
128
71
9
72
12
73
11
0
VERTEX
8
OBJECT__37
10
0
20
0
30
0
70
128
71
12
72
13
73
14
0
VERTEX
8
OBJECT__37
10
0
20
0
30
0
70
128
71
14
72
13
73
15
0
VERTEX
8
OBJECT__37
10
0
20
0
30
0
70
128
71
15
72
16
73
14
0
VERTEX
8
OBJECT__37
10
0
20
0
30
0
70
128
71
17
72
18
73
19
0
VERTEX
8
OBJECT__37
10
0
20
0
30
0
70
128
71
19
72
6
73
17
0
VERTEX
8
OBJECT__37
10
0
20
0
30
0
70
128
71
6
72
7
73
17
0
VERTEX
8
OBJECT__37
10
0
20
0
30
0
70
128
71
16
72
15
73
19
0
VERTEX
8
OBJECT__37
10
0
20
0
30
0
70
128
71
18
72
16
73
19
0
VERTEX
8
OBJECT__37
10
0
20
0
30
0
70
128
71
14
72
11
73
12
0
VERTEX
8
OBJECT__37
10
0
20
0
30
0
70
128
71
10
72
5
73
8
0
VERTEX
8
OBJECT__37
10
0
20
0
30
0
70
128
71
4
72
8
73
5
0
SEQEND
8
OBJECT__37
0
POLYLINE
8
OBJECT__38
66
1
70
64
71
11
72
11
62
253
0
VERTEX
8
OBJECT__38
10
15.623000
20
3.996000
30
163.559998
70
192
0
VERTEX
8
OBJECT__38
10
15.843000
20
3.138000
30
163.570999
70
192
0
VERTEX
8
OBJECT__38
10
15.760000
20
3.533000
30
162.429001
70
192
0
VERTEX
8
OBJECT__38
10
15.655000
20
3.924000
30
161.287003
70
192
0
VERTEX
8
OBJECT__38
10
15.657000
20
3.965000
30
162.423996
70
192
0
VERTEX
8
OBJECT__38
10
15.313000
20
5.133000
30
162.445999
70
192
0
VERTEX
8
OBJECT__38
10
15.393000
20
4.888000
30
163.548996
70
192
0
VERTEX
8
OBJECT__38
10
15.274000
20
5.249000
30
161.925003
70
192
0
VERTEX
8
OBJECT__38
10
15.931000
20
2.657000
30
162.792999
70
192
0
VERTEX
8
OBJECT__38
10
15.728000
20
3.671000
30
161.164993
70
192
0
VERTEX
8
OBJECT__38
10
15.936000
20
2.625000
30
162.500000
70
192
0
VERTEX
8
OBJECT__38
10
0
20
0
30
0
70
128
71
1
72
2
73
3
0
VERTEX
8
OBJECT__38
10
0
20
0
30
0
70
128
71
3
72
4
73
5
0
VERTEX
8
OBJECT__38
10
0
20
0
30
0
70
128
71
5
72
6
73
7
0
VERTEX
8
OBJECT__38
10
0
20
0
30
0
70
128
71
4
72
8
73
6
0
VERTEX
8
OBJECT__38
10
0
20
0
30
0
70
128
71
6
72
5
73
4
0
VERTEX
8
OBJECT__38
10
0
20
0
30
0
70
128
71
7
72
1
73
5
0
VERTEX
8
OBJECT__38
10
0
20
0
30
0
70
128
71
3
72
2
73
9
0
VERTEX
8
OBJECT__38
10
0
20
0
30
0
70
128
71
10
72
4
73
3
0
VERTEX
8
OBJECT__38
10
0
20
0
30
0
70
128
71
3
72
11
73
10
0
VERTEX
8
OBJECT__38
10
0
20
0
30
0
70
128
71
9
72
11
73
3
0
VERTEX
8
OBJECT__38
10
0
20
0
30
0
70
128
71
3
72
5
73
1
0
SEQEND
8
OBJECT__38
0
POLYLINE
8
OBJECT__39
66
1
70
64
71
19
72
19
62
253
0
VERTEX
8
OBJECT__39
10
14.369000
20
-7.375000
30
158.750000
70
192
0
VERTEX
8
OBJECT__39
10
14.381000
20
-7.351000
30
159.007004
70
192
0
VERTEX
8
OBJECT__39
10
15.319000
20
-7.371000
30
158.858994
70
192
0
VERTEX
8
OBJECT__39
10
14.630000
20
-6.843000
30
159.835999
70
192
0
VERTEX
8
OBJECT__39
10
15.504000
20
-6.974000
30
159.720001
70
192
0
VERTEX
8
OBJECT__39
10
14.963000
20
-6.008000
30
159.813995
70
192
0
VERTEX
8
OBJECT__39
10
15.890000
20
-5.972000
30
159.815002
70
192
0
VERTEX
8
OBJECT__39
10
16.177000
20
-5.226000
30
159.886002
70
192
0
VERTEX
8
OBJECT__39
10
15.324000
20
-5.102000
30
159.791000
70
192
0
VERTEX
8
OBJECT__39
10
15.398000
20
-4.872000
30
158.697998
70
192
0
VERTEX
8
OBJECT__39
10
15.870000
20
-6.073000
30
157.503998
70
192
0
VERTEX
8
OBJECT__39
10
16.337999
20
-4.699000
30
158.304993
70
192
0
VERTEX
8
OBJECT__39
10
15.434000
20
-4.758000
30
158.160004
70
192
0
VERTEX
8
OBJECT__39
10
16.299000
20
-4.825000
30
158.684006
70
192
0
VERTEX
8
OBJECT__39
10
15.808000
20
-6.253000
30
157.399002
70
192
0
VERTEX
8
OBJECT__39
10
14.943000
20
-6.088000
30
157.587006
70
192
0
VERTEX
8
OBJECT__39
10
14.819000
20
-6.423000
30
157.442001
70
192
0
VERTEX
8
OBJECT__39
10
15.320000
20
-7.369000
30
158.617996
70
192
0
VERTEX
8
OBJECT__39
10
15.320000
20
-7.370000
30
158.750000
70
192
0
VERTEX
8
OBJECT__39
10
0
20
0
30
0
70
128
71
1
72
2
73
3
0
VERTEX
8
OBJECT__39
10
0
20
0
30
0
70
128
71
3
72
2
73
4
0
VERTEX
8
OBJECT__39
10
0
20
0
30
0
70
128
71
4
72
5
73
3
0
VERTEX
8
OBJECT__39
10
0
20
0
30
0
70
128
71
5
72
4
73
6
0
VERTEX
8
OBJECT__39
10
0
20
0
30
0
70
128
71
6
72
7
73
5
0
VERTEX
8
OBJECT__39
10
0
20
0
30
0
70
128
71
8
72
9
73
10
0
VERTEX
8
OBJECT__39
10
0
20
0
30
0
70
128
71
9
72
8
73
7
0
VERTEX
8
OBJECT__39
10
0
20
0
30
0
70
128
71
7
72
6
73
9
0
VERTEX
8
OBJECT__39
10
0
20
0
30
0
70
128
71
11
72
12
73
13
0
VERTEX
8
OBJECT__39
10
0
20
0
30
0
70
128
71
13
72
12
73
14
0
VERTEX
8
OBJECT__39
10
0
20
0
30
0
70
128
71
14
72
10
73
13
0
VERTEX
8
OBJECT__39
10
0
20
0
30
0
70
128
71
15
72
16
73
17
0
VERTEX
8
OBJECT__39
10
0
20
0
30
0
70
128
71
17
72
18
73
15
0
VERTEX
8
OBJECT__39
10
0
20
0
30
0
70
128
71
1
72
19
73
18
0
VERTEX
8
OBJECT__39
10
0
20
0
30
0
70
128
71
17
72
1
73
18
0
VERTEX
8
OBJECT__39
10
0
20
0
30
0
70
128
71
15
72
11
73
16
0
VERTEX
8
OBJECT__39
10
0
20
0
30
0
70
128
71
13
72
16
73
11
0
VERTEX
8
OBJECT__39
10
0
20
0
30
0
70
128
71
10
72
14
73
8
0
VERTEX
8
OBJECT__39
10
0
20
0
30
0
70
128
71
3
72
19
73
1
0
SEQEND
8
OBJECT__39
0
POLYLINE
8
OBJECT__40
66
1
70
64
71
10
72
9
62
253
0
VERTEX
8
OBJECT__40
10
15.398000
20
-4.872000
30
158.697998
70
192
0
VERTEX
8
OBJECT__40
10
15.324000
20
-5.102000
30
159.791000
70
192
0
VERTEX
8
OBJECT__40
10
14.963000
20
-6.008000
30
159.813995
70
192
0
VERTEX
8
OBJECT__40
10
14.798000
20
-6.471000
30
158.710999
70
192
0
VERTEX
8
OBJECT__40
10
14.943000
20
-6.088000
30
157.587006
70
192
0
VERTEX
8
OBJECT__40
10
15.434000
20
-4.758000
30
158.160004
70
192
0
VERTEX
8
OBJECT__40
10
14.630000
20
-6.843000
30
159.835999
70
192
0
VERTEX
8
OBJECT__40
10
14.381000
20
-7.351000
30
159.007004
70
192
0
VERTEX
8
OBJECT__40
10
14.819000
20
-6.423000
30
157.442001
70
192
0
VERTEX
8
OBJECT__40
10
14.369000
20
-7.375000
30
158.750000
70
192
0
VERTEX
8
OBJECT__40
10
0
20
0
30
0
70
128
71
1
72
2
73
3
0
VERTEX
8
OBJECT__40
10
0
20
0
30
0
70
128
71
3
72
4
73
1
0
VERTEX
8
OBJECT__40
10
0
20
0
30
0
70
128
71
5
72
6
73
1
0
VERTEX
8
OBJECT__40
10
0
20
0
30
0
70
128
71
1
72
4
73
5
0
VERTEX
8
OBJECT__40
10
0
20
0
30
0
70
128
71
4
72
7
73
8
0
VERTEX
8
OBJECT__40
10
0
20
0
30
0
70
128
71
9
72
5
73
4
0
VERTEX
8
OBJECT__40
10
0
20
0
30
0
70
128
71
4
72
10
73
9
0
VERTEX
8
OBJECT__40
10
0
20
0
30
0
70
128
71
8
72
10
73
4
0
VERTEX
8
OBJECT__40
10
0
20
0
30
0
70
128
71
3
72
7
73
4
0
SEQEND
8
OBJECT__40
0
POLYLINE
8
OBJECT__41
66
1
70
64
71
19
72
19
62
253
0
VERTEX
8
OBJECT__41
10
15.794000
20
-3.375000
30
158.750000
70
192
0
VERTEX
8
OBJECT__41
10
15.801000
20
-3.343000
30
159.042999
70
192
0
VERTEX
8
OBJECT__41
10
16.663000
20
-3.367000
30
158.891998
70
192
0
VERTEX
8
OBJECT__41
10
15.896000
20
-2.858000
30
159.824005
70
192
0
VERTEX
8
OBJECT__41
10
16.738001
20
-2.974000
30
159.720001
70
192
0
VERTEX
8
OBJECT__41
10
16.003000
20
-2.000000
30
159.824997
70
192
0
VERTEX
8
OBJECT__41
10
16.865000
20
-1.967000
30
159.835007
70
192
0
VERTEX
8
OBJECT__41
10
16.978001
20
-0.836000
30
158.675995
70
192
0
VERTEX
8
OBJECT__41
10
16.952999
20
-1.268000
30
159.914001
70
192
0
VERTEX
8
OBJECT__41
10
16.110001
20
-1.143000
30
159.824997
70
192
0
VERTEX
8
OBJECT__41
10
16.871000
20
-2.051000
30
157.457993
70
192
0
VERTEX
8
OBJECT__41
10
16.985001
20
-0.703000
30
158.294006
70
192
0
VERTEX
8
OBJECT__41
10
16.132999
20
-0.762000
30
158.153000
70
192
0
VERTEX
8
OBJECT__41
10
16.125999
20
-0.885000
30
158.690994
70
192
0
VERTEX
8
OBJECT__41
10
16.663000
20
-3.367000
30
158.602997
70
192
0
VERTEX
8
OBJECT__41
10
16.861000
20
-2.168000
30
157.384995
70
192
0
VERTEX
8
OBJECT__41
10
15.983000
20
-2.321000
30
157.412994
70
192
0
VERTEX
8
OBJECT__41
10
16.007000
20
-2.074000
30
157.531006
70
192
0
VERTEX
8
OBJECT__41
10
16.663000
20
-3.367000
30
158.750000
70
192
0
VERTEX
8
OBJECT__41
10
0
20
0
30
0
70
128
71
1
72
2
73
3
0
VERTEX
8
OBJECT__41
10
0
20
0
30
0
70
128
71
2
72
4
73
5
0
VERTEX
8
OBJECT__41
10
0
20
0
30
0
70
128
71
5
72
3
73
2
0
VERTEX
8
OBJECT__41
10
0
20
0
30
0
70
128
71
5
72
4
73
6
0
VERTEX
8
OBJECT__41
10
0
20
0
30
0
70
128
71
6
72
7
73
5
0
VERTEX
8
OBJECT__41
10
0
20
0
30
0
70
128
71
8
72
9
73
10
0
VERTEX
8
OBJECT__41
10
0
20
0
30
0
70
128
71
10
72
9
73
7
0
VERTEX
8
OBJECT__41
10
0
20
0
30
0
70
128
71
7
72
6
73
10
0
VERTEX
8
OBJECT__41
10
0
20
0
30
0
70
128
71
11
72
12
73
13
0
VERTEX
8
OBJECT__41
10
0
20
0
30
0
70
128
71
14
72
13
73
12
0
VERTEX
8
OBJECT__41
10
0
20
0
30
0
70
128
71
12
72
8
73
14
0
VERTEX
8
OBJECT__41
10
0
20
0
30
0
70
128
71
15
72
16
73
17
0
VERTEX
8
OBJECT__41
10
0
20
0
30
0
70
128
71
16
72
18
73
17
0
VERTEX
8
OBJECT__41
10
0
20
0
30
0
70
128
71
17
72
1
73
15
0
VERTEX
8
OBJECT__41
10
0
20
0
30
0
70
128
71
1
72
19
73
15
0
VERTEX
8
OBJECT__41
10
0
20
0
30
0
70
128
71
16
72
11
73
18
0
VERTEX
8
OBJECT__41
10
0
20
0
30
0
70
128
71
13
72
18
73
11
0
VERTEX
8
OBJECT__41
10
0
20
0
30
0
70
128
71
10
72
14
73
8
0
VERTEX
8
OBJECT__41
10
0
20
0
30
0
70
128
71
3
72
19
73
1
0
SEQEND
8
OBJECT__41
0
POLYLINE
8
OBJECT__42
66
1
70
64
71
10
72
9
62
253
0
VERTEX
8
OBJECT__42
10
16.009001
20
-2.136000
30
158.720001
70
192
0
VERTEX
8
OBJECT__42
10
16.003000
20
-2.000000
30
159.824997
70
192
0
VERTEX
8
OBJECT__42
10
15.896000
20
-2.858000
30
159.824005
70
192
0
VERTEX
8
OBJECT__42
10
15.801000
20
-3.343000
30
159.042999
70
192
0
VERTEX
8
OBJECT__42
10
16.125999
20
-0.885000
30
158.690994
70
192
0
VERTEX
8
OBJECT__42
10
16.110001
20
-1.143000
30
159.824997
70
192
0
VERTEX
8
OBJECT__42
10
15.794000
20
-3.375000
30
158.750000
70
192
0
VERTEX
8
OBJECT__42
10
15.983000
20
-2.321000
30
157.412994
70
192
0
VERTEX
8
OBJECT__42
10
16.007000
20
-2.074000
30
157.531006
70
192
0
VERTEX
8
OBJECT__42
10
16.132999
20
-0.762000
30
158.153000
70
192
0
VERTEX
8
OBJECT__42
10
0
20
0
30
0
70
128
71
1
72
2
73
3
0
VERTEX
8
OBJECT__42
10
0
20
0
30
0
70
128
71
3
72
4
73
1
0
VERTEX
8
OBJECT__42
10
0
20
0
30
0
70
128
71
1
72
5
73
6
0
VERTEX
8
OBJECT__42
10
0
20
0
30
0
70
128
71
6
72
2
73
1
0
VERTEX
8
OBJECT__42
10
0
20
0
30
0
70
128
71
7
72
8
73
9
0
VERTEX
8
OBJECT__42
10
0
20
0
30
0
70
128
71
9
72
10
73
5
0
VERTEX
8
OBJECT__42
10
0
20
0
30
0
70
128
71
5
72
1
73
9
0
VERTEX
8
OBJECT__42
10
0
20
0
30
0
70
128
71
9
72
1
73
7
0
VERTEX
8
OBJECT__42
10
0
20
0
30
0
70
128
71
4
72
7
73
1
0
SEQEND
8
OBJECT__42
0
POLYLINE
8
OBJECT__43
66
1
70
64
71
19
72
19
62
253
0
VERTEX
8
OBJECT__43
10
16.790001
20
2.662000
30
155.317001
70
192
0
VERTEX
8
OBJECT__43
10
15.931000
20
2.657000
30
155.292999
70
192
0
VERTEX
8
OBJECT__43
10
15.843000
20
3.138000
30
156.070999
70
192
0
VERTEX
8
OBJECT__43
10
16.770000
20
2.777000
30
155.070007
70
192
0
VERTEX
8
OBJECT__43
10
15.936000
20
2.625000
30
155.000000
70
192
0
VERTEX
8
OBJECT__43
10
16.517000
20
4.020000
30
156.348999
70
192
0
VERTEX
8
OBJECT__43
10
16.510000
20
4.053000
30
156.373993
70
192
0
VERTEX
8
OBJECT__43
10
15.623000
20
3.996000
30
156.059998
70
192
0
VERTEX
8
OBJECT__43
10
15.393000
20
4.888000
30
156.048996
70
192
0
VERTEX
8
OBJECT__43
10
16.136999
20
5.348000
30
155.270004
70
192
0
VERTEX
8
OBJECT__43
10
15.313000
20
5.133000
30
154.945999
70
192
0
VERTEX
8
OBJECT__43
10
16.128000
20
5.375000
30
155.007996
70
192
0
VERTEX
8
OBJECT__43
10
16.129000
20
5.372000
30
155.001007
70
192
0
VERTEX
8
OBJECT__43
10
16.226000
20
5.073000
30
154.139999
70
192
0
VERTEX
8
OBJECT__43
10
15.655000
20
3.924000
30
153.787003
70
192
0
VERTEX
8
OBJECT__43
10
16.516001
20
3.943000
30
153.897003
70
192
0
VERTEX
8
OBJECT__43
10
15.274000
20
5.249000
30
154.425003
70
192
0
VERTEX
8
OBJECT__43
10
16.662001
20
3.375000
30
153.776001
70
192
0
VERTEX
8
OBJECT__43
10
15.728000
20
3.671000
30
153.664993
70
192
0
VERTEX
8
OBJECT__43
10
0
20
0
30
0
70
128
71
1
72
2
73
3
0
VERTEX
8
OBJECT__43
10
0
20
0
30
0
70
128
71
2
72
1
73
4
0
VERTEX
8
OBJECT__43
10
0
20
0
30
0
70
128
71
4
72
5
73
2
0
VERTEX
8
OBJECT__43
10
0
20
0
30
0
70
128
71
3
72
6
73
1
0
VERTEX
8
OBJECT__43
10
0
20
0
30
0
70
128
71
7
72
8
73
9
0
VERTEX
8
OBJECT__43
10
0
20
0
30
0
70
128
71
9
72
10
73
7
0
VERTEX
8
OBJECT__43
10
0
20
0
30
0
70
128
71
11
72
12
73
10
0
VERTEX
8
OBJECT__43
10
0
20
0
30
0
70
128
71
11
72
13
73
12
0
VERTEX
8
OBJECT__43
10
0
20
0
30
0
70
128
71
9
72
11
73
10
0
VERTEX
8
OBJECT__43
10
0
20
0
30
0
70
128
71
14
72
13
73
11
0
VERTEX
8
OBJECT__43
10
0
20
0
30
0
70
128
71
15
72
16
73
14
0
VERTEX
8
OBJECT__43
10
0
20
0
30
0
70
128
71
14
72
17
73
15
0
VERTEX
8
OBJECT__43
10
0
20
0
30
0
70
128
71
5
72
4
73
18
0
VERTEX
8
OBJECT__43
10
0
20
0
30
0
70
128
71
18
72
19
73
5
0
VERTEX
8
OBJECT__43
10
0
20
0
30
0
70
128
71
16
72
15
73
19
0
VERTEX
8
OBJECT__43
10
0
20
0
30
0
70
128
71
18
72
16
73
19
0
VERTEX
8
OBJECT__43
10
0
20
0
30
0
70
128
71
11
72
17
73
14
0
VERTEX
8
OBJECT__43
10
0
20
0
30
0
70
128
71
7
72
6
73
8
0
VERTEX
8
OBJECT__43
10
0
20
0
30
0
70
128
71
3
72
8
73
6
0
SEQEND
8
OBJECT__43
0
POLYLINE
8
OBJECT__44
66
1
70
64
71
11
72
11
62
253
0
VERTEX
8
OBJECT__44
10
15.623000
20
3.996000
30
156.059998
70
192
0
VERTEX
8
OBJECT__44
10
15.843000
20
3.138000
30
156.070999
70
192
0
VERTEX
8
OBJECT__44
10
15.760000
20
3.533000
30
154.929001
70
192
0
VERTEX
8
OBJECT__44
10
15.655000
20
3.924000
30
153.787003
70
192
0
VERTEX
8
OBJECT__44
10
15.657000
20
3.965000
30
154.923996
70
192
0
VERTEX
8
OBJECT__44
10
15.313000
20
5.133000
30
154.945999
70
192
0
VERTEX
8
OBJECT__44
10
15.393000
20
4.888000
30
156.048996
70
192
0
VERTEX
8
OBJECT__44
10
15.274000
20
5.249000
30
154.425003
70
192
0
VERTEX
8
OBJECT__44
10
15.931000
20
2.657000
30
155.292999
70
192
0
VERTEX
8
OBJECT__44
10
15.728000
20
3.671000
30
153.664993
70
192
0
VERTEX
8
OBJECT__44
10
15.936000
20
2.625000
30
155.000000
70
192
0
VERTEX
8
OBJECT__44
10
0
20
0
30
0
70
128
71
1
72
2
73
3
0
VERTEX
8
OBJECT__44
10
0
20
0
30
0
70
128
71
3
72
4
73
5
0
VERTEX
8
OBJECT__44
10
0
20
0
30
0
70
128
71
5
72
6
73
7
0
VERTEX
8
OBJECT__44
10
0
20
0
30
0
70
128
71
4
72
8
73
6
0
VERTEX
8
OBJECT__44
10
0
20
0
30
0
70
128
71
6
72
5
73
4
0
VERTEX
8
OBJECT__44
10
0
20
0
30
0
70
128
71
7
72
1
73
5
0
VERTEX
8
OBJECT__44
10
0
20
0
30
0
70
128
71
3
72
2
73
9
0
VERTEX
8
OBJECT__44
10
0
20
0
30
0
70
128
71
10
72
4
73
3
0
VERTEX
8
OBJECT__44
10
0
20
0
30
0
70
128
71
3
72
11
73
10
0
VERTEX
8
OBJECT__44
10
0
20
0
30
0
70
128
71
9
72
11
73
3
0
VERTEX
8
OBJECT__44
10
0
20
0
30
0
70
128
71
3
72
5
73
1
0
SEQEND
8
OBJECT__44
0
POLYLINE
8
OBJECT__45
66
1
70
64
71
19
72
19
62
253
0
VERTEX
8
OBJECT__45
10
16.857000
20
2.031000
30
159.828995
70
192
0
VERTEX
8
OBJECT__45
10
16.969000
20
1.028000
30
159.723007
70
192
0
VERTEX
8
OBJECT__45
10
16.111000
20
1.137000
30
159.820007
70
192
0
VERTEX
8
OBJECT__45
10
16.988001
20
0.634000
30
158.904007
70
192
0
VERTEX
8
OBJECT__45
10
16.138000
20
0.658000
30
159.048004
70
192
0
VERTEX
8
OBJECT__45
10
16.139000
20
0.625000
30
158.750000
70
192
0
VERTEX
8
OBJECT__45
10
16.988001
20
0.633000
30
158.750000
70
192
0
VERTEX
8
OBJECT__45
10
16.003000
20
2.000000
30
159.820007
70
192
0
VERTEX
8
OBJECT__45
10
15.895000
20
2.865000
30
159.819000
70
192
0
VERTEX
8
OBJECT__45
10
16.777000
20
2.746000
30
159.904999
70
192
0
VERTEX
8
OBJECT__45
10
16.701000
20
3.168000
30
158.679001
70
192
0
VERTEX
8
OBJECT__45
10
15.845000
20
3.122000
30
158.692001
70
192
0
VERTEX
8
OBJECT__45
10
15.822000
20
3.244000
30
158.164001
70
192
0
VERTEX
8
OBJECT__45
10
16.677000
20
3.299000
30
158.298996
70
192
0
VERTEX
8
OBJECT__45
10
16.025999
20
1.928000
30
157.524002
70
192
0
VERTEX
8
OBJECT__45
10
16.882999
20
1.950000
30
157.455994
70
192
0
VERTEX
8
OBJECT__45
10
16.988001
20
0.633000
30
158.604996
70
192
0
VERTEX
8
OBJECT__45
10
16.900999
20
1.836000
30
157.384995
70
192
0
VERTEX
8
OBJECT__45
10
16.062000
20
1.694000
30
157.410004
70
192
0
VERTEX
8
OBJECT__45
10
0
20
0
30
0
70
128
71
1
72
2
73
3
0
VERTEX
8
OBJECT__45
10
0
20
0
30
0
70
128
71
2
72
4
73
5
0
VERTEX
8
OBJECT__45
10
0
20
0
30
0
70
128
71
6
72
5
73
4
0
VERTEX
8
OBJECT__45
10
0
20
0
30
0
70
128
71
4
72
7
73
6
0
VERTEX
8
OBJECT__45
10
0
20
0
30
0
70
128
71
5
72
3
73
2
0
VERTEX
8
OBJECT__45
10
0
20
0
30
0
70
128
71
8
72
9
73
10
0
VERTEX
8
OBJECT__45
10
0
20
0
30
0
70
128
71
11
72
10
73
9
0
VERTEX
8
OBJECT__45
10
0
20
0
30
0
70
128
71
9
72
12
73
11
0
VERTEX
8
OBJECT__45
10
0
20
0
30
0
70
128
71
12
72
13
73
14
0
VERTEX
8
OBJECT__45
10
0
20
0
30
0
70
128
71
14
72
13
73
15
0
VERTEX
8
OBJECT__45
10
0
20
0
30
0
70
128
71
15
72
16
73
14
0
VERTEX
8
OBJECT__45
10
0
20
0
30
0
70
128
71
17
72
18
73
19
0
VERTEX
8
OBJECT__45
10
0
20
0
30
0
70
128
71
19
72
6
73
17
0
VERTEX
8
OBJECT__45
10
0
20
0
30
0
70
128
71
6
72
7
73
17
0
VERTEX
8
OBJECT__45
10
0
20
0
30
0
70
128
71
16
72
15
73
19
0
VERTEX
8
OBJECT__45
10
0
20
0
30
0
70
128
71
18
72
16
73
19
0
VERTEX
8
OBJECT__45
10
0
20
0
30
0
70
128
71
14
72
11
73
12
0
VERTEX
8
OBJECT__45
10
0
20
0
30
0
70
128
71
10
72
1
73
8
0
VERTEX
8
OBJECT__45
10
0
20
0
30
0
70
128
71
3
72
8
73
1
0
SEQEND
8
OBJECT__45
0
POLYLINE
8
OBJECT__46
66
1
70
64
71
10
72
9
62
253
0
VERTEX
8
OBJECT__46
10
15.845000
20
3.122000
30
158.692001
70
192
0
VERTEX
8
OBJECT__46
10
15.895000
20
2.865000
30
159.819000
70
192
0
VERTEX
8
OBJECT__46
10
16.003000
20
2.000000
30
159.820007
70
192
0
VERTEX
8
OBJECT__46
10
16.077999
20
1.534000
30
158.671997
70
192
0
VERTEX
8
OBJECT__46
10
16.025999
20
1.928000
30
157.524002
70
192
0
VERTEX
8
OBJECT__46
10
15.822000
20
3.244000
30
158.164001
70
192
0
VERTEX
8
OBJECT__46
10
16.111000
20
1.137000
30
159.820007
70
192
0
VERTEX
8
OBJECT__46
10
16.138000
20
0.658000
30
159.048004
70
192
0
VERTEX
8
OBJECT__46
10
16.062000
20
1.694000
30
157.410004
70
192
0
VERTEX
8
OBJECT__46
10
16.139000
20
0.625000
30
158.750000
70
192
0
VERTEX
8
OBJECT__46
10
0
20
0
30
0
70
128
71
1
72
2
73
3
0
VERTEX
8
OBJECT__46
10
0
20
0
30
0
70
128
71
3
72
4
73
1
0
VERTEX
8
OBJECT__46
10
0
20
0
30
0
70
128
71
4
72
5
73
6
0
VERTEX
8
OBJECT__46
10
0
20
0
30
0
70
128
71
6
72
1
73
4
0
VERTEX
8
OBJECT__46
10
0
20
0
30
0
70
128
71
4
72
7
73
8
0
VERTEX
8
OBJECT__46
10
0
20
0
30
0
70
128
71
9
72
5
73
4
0
VERTEX
8
OBJECT__46
10
0
20
0
30
0
70
128
71
4
72
10
73
9
0
VERTEX
8
OBJECT__46
10
0
20
0
30
0
70
128
71
8
72
10
73
4
0
VERTEX
8
OBJECT__46
10
0
20
0
30
0
70
128
71
3
72
7
73
4
0
SEQEND
8
OBJECT__46
0
POLYLINE
8
OBJECT__47
66
1
70
64
71
19
72
19
62
253
0
VERTEX
8
OBJECT__47
10
15.230000
20
-5.375000
30
162.500000
70
192
0
VERTEX
8
OBJECT__47
10
15.241000
20
-5.346000
30
162.781998
70
192
0
VERTEX
8
OBJECT__47
10
16.129999
20
-5.369000
30
162.630005
70
192
0
VERTEX
8
OBJECT__47
10
15.405000
20
-4.852000
30
163.578995
70
192
0
VERTEX
8
OBJECT__47
10
16.256001
20
-4.974000
30
163.470001
70
192
0
VERTEX
8
OBJECT__47
10
15.622000
20
-4.003000
30
163.570999
70
192
0
VERTEX
8
OBJECT__47
10
16.507000
20
-3.969000
30
163.578003
70
192
0
VERTEX
8
OBJECT__47
10
16.761000
20
-2.833000
30
162.429001
70
192
0
VERTEX
8
OBJECT__47
10
16.686001
20
-3.254000
30
163.654999
70
192
0
VERTEX
8
OBJECT__47
10
15.845000
20
-3.128000
30
163.563004
70
192
0
VERTEX
8
OBJECT__47
10
16.502001
20
-4.059000
30
161.223999
70
192
0
VERTEX
8
OBJECT__47
10
16.784000
20
-2.702000
30
162.046997
70
192
0
VERTEX
8
OBJECT__47
10
15.913000
20
-2.762000
30
161.903000
70
192
0
VERTEX
8
OBJECT__47
10
15.891000
20
-2.881000
30
162.444000
70
192
0
VERTEX
8
OBJECT__47
10
16.129999
20
-5.368000
30
162.358002
70
192
0
VERTEX
8
OBJECT__47
10
16.474001
20
-4.198000
30
161.139008
70
192
0
VERTEX
8
OBJECT__47
10
15.551000
20
-4.360000
30
161.173004
70
192
0
VERTEX
8
OBJECT__47
10
15.615000
20
-4.079000
30
161.300995
70
192
0
VERTEX
8
OBJECT__47
10
16.129999
20
-5.368000
30
162.500000
70
192
0
VERTEX
8
OBJECT__47
10
0
20
0
30
0
70
128
71
1
72
2
73
3
0
VERTEX
8
OBJECT__47
10
0
20
0
30
0
70
128
71
2
72
4
73
5
0
VERTEX
8
OBJECT__47
10
0
20
0
30
0
70
128
71
5
72
3
73
2
0
VERTEX
8
OBJECT__47
10
0
20
0
30
0
70
128
71
5
72
4
73
6
0
VERTEX
8
OBJECT__47
10
0
20
0
30
0
70
128
71
6
72
7
73
5
0
VERTEX
8
OBJECT__47
10
0
20
0
30
0
70
128
71
8
72
9
73
10
0
VERTEX
8
OBJECT__47
10
0
20
0
30
0
70
128
71
10
72
9
73
7
0
VERTEX
8
OBJECT__47
10
0
20
0
30
0
70
128
71
7
72
6
73
10
0
VERTEX
8
OBJECT__47
10
0
20
0
30
0
70
128
71
11
72
12
73
13
0
VERTEX
8
OBJECT__47
10
0
20
0
30
0
70
128
71
14
72
13
73
12
0
VERTEX
8
OBJECT__47
10
0
20
0
30
0
70
128
71
12
72
8
73
14
0
VERTEX
8
OBJECT__47
10
0
20
0
30
0
70
128
71
15
72
16
73
17
0
VERTEX
8
OBJECT__47
10
0
20
0
30
0
70
128
71
16
72
18
73
17
0
VERTEX
8
OBJECT__47
10
0
20
0
30
0
70
128
71
1
72
19
73
15
0
VERTEX
8
OBJECT__47
10
0
20
0
30
0
70
128
71
17
72
1
73
15
0
VERTEX
8
OBJECT__47
10
0
20
0
30
0
70
128
71
16
72
11
73
18
0
VERTEX
8
OBJECT__47
10
0
20
0
30
0
70
128
71
13
72
18
73
11
0
VERTEX
8
OBJECT__47
10
0
20
0
30
0
70
128
71
10
72
14
73
8
0
VERTEX
8
OBJECT__47
10
0
20
0
30
0
70
128
71
3
72
19
73
1
0
SEQEND
8
OBJECT__47
0
POLYLINE
8
OBJECT__48
66
1
70
64
71
10
72
9
62
253
0
VERTEX
8
OBJECT__48
10
15.611000
20
-4.141000
30
162.472000
70
192
0
VERTEX
8
OBJECT__48
10
15.622000
20
-4.003000
30
163.570999
70
192
0
VERTEX
8
OBJECT__48
10
15.405000
20
-4.852000
30
163.578995
70
192
0
VERTEX
8
OBJECT__48
10
15.241000
20
-5.346000
30
162.781998
70
192
0
VERTEX
8
OBJECT__48
10
15.891000
20
-2.881000
30
162.444000
70
192
0
VERTEX
8
OBJECT__48
10
15.845000
20
-3.128000
30
163.563004
70
192
0
VERTEX
8
OBJECT__48
10
15.230000
20
-5.375000
30
162.500000
70
192
0
VERTEX
8
OBJECT__48
10
15.551000
20
-4.360000
30
161.173004
70
192
0
VERTEX
8
OBJECT__48
10
15.615000
20
-4.079000
30
161.300995
70
192
0
VERTEX
8
OBJECT__48
10
15.913000
20
-2.762000
30
161.903000
70
192
0
VERTEX
8
OBJECT__48
10
0
20
0
30
0
70
128
71
1
72
2
73
3
0
VERTEX
8
OBJECT__48
10
0
20
0
30
0
70
128
71
3
72
4
73
1
0
VERTEX
8
OBJECT__48
10
0
20
0
30
0
70
128
71
1
72
5
73
6
0
VERTEX
8
OBJECT__48
10
0
20
0
30
0
70
128
71
6
72
2
73
1
0
VERTEX
8
OBJECT__48
10
0
20
0
30
0
70
128
71
7
72
8
73
9
0
VERTEX
8
OBJECT__48
10
0
20
0
30
0
70
128
71
9
72
10
73
5
0
VERTEX
8
OBJECT__48
10
0
20
0
30
0
70
128
71
5
72
1
73
9
0
VERTEX
8
OBJECT__48
10
0
20
0
30
0
70
128
71
9
72
1
73
7
0
VERTEX
8
OBJECT__48
10
0
20
0
30
0
70
128
71
4
72
7
73
1
0
SEQEND
8
OBJECT__48
0
POLYLINE
8
OBJECT__49
66
1
70
64
71
19
72
19
62
253
0
VERTEX
8
OBJECT__49
10
16.238001
20
5.033000
30
167.227005
70
192
0
VERTEX
8
OBJECT__49
10
15.466000
20
4.653000
30
166.524002
70
192
0
VERTEX
8
OBJECT__49
10
15.312000
20
5.136000
30
167.320007
70
192
0
VERTEX
8
OBJECT__49
10
15.869000
20
6.022000
30
167.298004
70
192
0
VERTEX
8
OBJECT__49
10
15.475000
20
4.625000
30
166.250000
70
192
0
VERTEX
8
OBJECT__49
10
16.356001
20
4.633000
30
166.399002
70
192
0
VERTEX
8
OBJECT__49
10
16.357000
20
4.632000
30
166.250000
70
192
0
VERTEX
8
OBJECT__49
10
15.404000
20
7.187000
30
166.190994
70
192
0
VERTEX
8
OBJECT__49
10
15.572000
20
6.819000
30
167.354004
70
192
0
VERTEX
8
OBJECT__49
10
14.592000
20
6.923000
30
167.268997
70
192
0
VERTEX
8
OBJECT__49
10
14.968000
20
5.991000
30
167.296005
70
192
0
VERTEX
8
OBJECT__49
10
14.481000
20
7.150000
30
166.201996
70
192
0
VERTEX
8
OBJECT__49
10
14.429000
20
7.258000
30
165.694000
70
192
0
VERTEX
8
OBJECT__49
10
15.350000
20
7.305000
30
165.817993
70
192
0
VERTEX
8
OBJECT__49
10
15.013000
20
5.916000
30
165.063004
70
192
0
VERTEX
8
OBJECT__49
10
15.923000
20
5.931000
30
164.996994
70
192
0
VERTEX
8
OBJECT__49
10
15.994000
20
5.761000
30
164.895996
70
192
0
VERTEX
8
OBJECT__49
10
15.139000
20
5.627000
30
164.927002
70
192
0
VERTEX
8
OBJECT__49
10
16.357000
20
4.631000
30
166.126007
70
192
0
VERTEX
8
OBJECT__49
10
0
20
0
30
0
70
128
71
1
72
2
73
3
0
VERTEX
8
OBJECT__49
10
0
20
0
30
0
70
128
71
3
72
4
73
1
0
VERTEX
8
OBJECT__49
10
0
20
0
30
0
70
128
71
5
72
2
73
6
0
VERTEX
8
OBJECT__49
10
0
20
0
30
0
70
128
71
6
72
7
73
5
0
VERTEX
8
OBJECT__49
10
0
20
0
30
0
70
128
71
1
72
6
73
2
0
VERTEX
8
OBJECT__49
10
0
20
0
30
0
70
128
71
8
72
9
73
10
0
VERTEX
8
OBJECT__49
10
0
20
0
30
0
70
128
71
9
72
11
73
10
0
VERTEX
8
OBJECT__49
10
0
20
0
30
0
70
128
71
10
72
12
73
8
0
VERTEX
8
OBJECT__49
10
0
20
0
30
0
70
128
71
12
72
13
73
14
0
VERTEX
8
OBJECT__49
10
0
20
0
30
0
70
128
71
14
72
13
73
15
0
VERTEX
8
OBJECT__49
10
0
20
0
30
0
70
128
71
15
72
16
73
14
0
VERTEX
8
OBJECT__49
10
0
20
0
30
0
70
128
71
17
72
18
73
5
0
VERTEX
8
OBJECT__49
10
0
20
0
30
0
70
128
71
5
72
19
73
17
0
VERTEX
8
OBJECT__49
10
0
20
0
30
0
70
128
71
5
72
7
73
19
0
VERTEX
8
OBJECT__49
10
0
20
0
30
0
70
128
71
16
72
15
73
18
0
VERTEX
8
OBJECT__49
10
0
20
0
30
0
70
128
71
17
72
16
73
18
0
VERTEX
8
OBJECT__49
10
0
20
0
30
0
70
128
71
14
72
8
73
12
0
VERTEX
8
OBJECT__49
10
0
20
0
30
0
70
128
71
9
72
4
73
11
0
VERTEX
8
OBJECT__49
10
0
20
0
30
0
70
128
71
3
72
11
73
4
0
SEQEND
8
OBJECT__49
0
POLYLINE
8
OBJECT__50
66
1
70
64
71
10
72
9
62
253
0
VERTEX
8
OBJECT__50
10
14.481000
20
7.150000
30
166.201996
70
192
0
VERTEX
8
OBJECT__50
10
14.592000
20
6.923000
30
167.268997
70
192
0
VERTEX
8
OBJECT__50
10
14.968000
20
5.991000
30
167.296005
70
192
0
VERTEX
8
OBJECT__50
10
15.174000
20
5.531000
30
166.190994
70
192
0
VERTEX
8
OBJECT__50
10
15.013000
20
5.916000
30
165.063004
70
192
0
VERTEX
8
OBJECT__50
10
14.429000
20
7.258000
30
165.694000
70
192
0
VERTEX
8
OBJECT__50
10
15.312000
20
5.136000
30
167.320007
70
192
0
VERTEX
8
OBJECT__50
10
15.466000
20
4.653000
30
166.524002
70
192
0
VERTEX
8
OBJECT__50
10
15.139000
20
5.627000
30
164.927002
70
192
0
VERTEX
8
OBJECT__50
10
15.475000
20
4.625000
30
166.250000
70
192
0
VERTEX
8
OBJECT__50
10
0
20
0
30
0
70
128
71
1
72
2
73
3
0
VERTEX
8
OBJECT__50
10
0
20
0
30
0
70
128
71
3
72
4
73
1
0
VERTEX
8
OBJECT__50
10
0
20
0
30
0
70
128
71
5
72
6
73
1
0
VERTEX
8
OBJECT__50
10
0
20
0
30
0
70
128
71
1
72
4
73
5
0
VERTEX
8
OBJECT__50
10
0
20
0
30
0
70
128
71
4
72
7
73
8
0
VERTEX
8
OBJECT__50
10
0
20
0
30
0
70
128
71
9
72
5
73
4
0
VERTEX
8
OBJECT__50
10
0
20
0
30
0
70
128
71
4
72
10
73
9
0
VERTEX
8
OBJECT__50
10
0
20
0
30
0
70
128
71
8
72
10
73
4
0
VERTEX
8
OBJECT__50
10
0
20
0
30
0
70
128
71
3
72
7
73
4
0
SEQEND
8
OBJECT__50
0
POLYLINE
8
OBJECT__51
66
1
70
64
71
21
72
21
62
253
0
VERTEX
8
OBJECT__51
10
16.979000
20
0.000000
30
163.580994
70
192
0
VERTEX
8
OBJECT__51
10
16.972000
20
-0.973000
30
163.470993
70
192
0
VERTEX
8
OBJECT__51
10
16.128000
20
-0.862000
30
163.570999
70
192
0
VERTEX
8
OBJECT__51
10
16.128000
20
0.001000
30
163.574005
70
192
0
VERTEX
8
OBJECT__51
10
16.979000
20
0.033000
30
163.585007
70
192
0
VERTEX
8
OBJECT__51
10
16.091999
20
-1.375000
30
162.500000
70
192
0
VERTEX
8
OBJECT__51
10
16.094999
20
-1.342000
30
162.798004
70
192
0
VERTEX
8
OBJECT__51
10
16.945000
20
-1.367000
30
162.649994
70
192
0
VERTEX
8
OBJECT__51
10
16.945000
20
-1.367000
30
162.500000
70
192
0
VERTEX
8
OBJECT__51
10
16.958000
20
1.164000
30
162.425995
70
192
0
VERTEX
8
OBJECT__51
10
16.983999
20
0.732000
30
163.664001
70
192
0
VERTEX
8
OBJECT__51
10
16.128000
20
0.854000
30
163.578003
70
192
0
VERTEX
8
OBJECT__51
10
16.111000
20
1.117000
30
162.440002
70
192
0
VERTEX
8
OBJECT__51
10
16.103001
20
1.240000
30
161.906006
70
192
0
VERTEX
8
OBJECT__51
10
16.950001
20
1.297000
30
162.044006
70
192
0
VERTEX
8
OBJECT__51
10
16.993999
20
0.000000
30
161.231995
70
192
0
VERTEX
8
OBJECT__51
10
16.141001
20
-0.071000
30
161.272003
70
192
0
VERTEX
8
OBJECT__51
10
16.996000
20
-0.048000
30
161.201996
70
192
0
VERTEX
8
OBJECT__51
10
16.945000
20
-1.367000
30
162.352005
70
192
0
VERTEX
8
OBJECT__51
10
16.999001
20
-0.157000
30
161.134003
70
192
0
VERTEX
8
OBJECT__51
10
16.148001
20
-0.304000
30
161.158997
70
192
0
VERTEX
8
OBJECT__51
10
0
20
0
30
0
70
128
71
1
72
2
73
3
0
VERTEX
8
OBJECT__51
10
0
20
0
30
0
70
128
71
4
72
5
73
1
0
VERTEX
8
OBJECT__51
10
0
20
0
30
0
70
128
71
6
72
7
73
8
0
VERTEX
8
OBJECT__51
10
0
20
0
30
0
70
128
71
7
72
3
73
2
0
VERTEX
8
OBJECT__51
10
0
20
0
30
0
70
128
71
2
72
8
73
7
0
VERTEX
8
OBJECT__51
10
0
20
0
30
0
70
128
71
8
72
9
73
6
0
VERTEX
8
OBJECT__51
10
0
20
0
30
0
70
128
71
10
72
11
73
12
0
VERTEX
8
OBJECT__51
10
0
20
0
30
0
70
128
71
4
72
12
73
11
0
VERTEX
8
OBJECT__51
10
0
20
0
30
0
70
128
71
11
72
5
73
4
0
VERTEX
8
OBJECT__51
10
0
20
0
30
0
70
128
71
13
72
14
73
15
0
VERTEX
8
OBJECT__51
10
0
20
0
30
0
70
128
71
16
72
15
73
14
0
VERTEX
8
OBJECT__51
10
0
20
0
30
0
70
128
71
17
72
18
73
16
0
VERTEX
8
OBJECT__51
10
0
20
0
30
0
70
128
71
14
72
17
73
16
0
VERTEX
8
OBJECT__51
10
0
20
0
30
0
70
128
71
19
72
20
73
21
0
VERTEX
8
OBJECT__51
10
0
20
0
30
0
70
128
71
6
72
9
73
19
0
VERTEX
8
OBJECT__51
10
0
20
0
30
0
70
128
71
17
72
21
73
20
0
VERTEX
8
OBJECT__51
10
0
20
0
30
0
70
128
71
20
72
18
73
17
0
VERTEX
8
OBJECT__51
10
0
20
0
30
0
70
128
71
21
72
6
73
19
0
VERTEX
8
OBJECT__51
10
0
20
0
30
0
70
128
71
15
72
10
73
13
0
VERTEX
8
OBJECT__51
10
0
20
0
30
0
70
128
71
12
72
13
73
10
0
VERTEX
8
OBJECT__51
10
0
20
0
30
0
70
128
71
3
72
4
73
1
0
SEQEND
8
OBJECT__51
0
POLYLINE
8
OBJECT__52
66
1
70
64
71
10
72
9
62
253
0
VERTEX
8
OBJECT__52
10
16.111000
20
1.117000
30
162.440002
70
192
0
VERTEX
8
OBJECT__52
10
16.128000
20
0.854000
30
163.578003
70
192
0
VERTEX
8
OBJECT__52
10
16.128000
20
0.001000
30
163.574005
70
192
0
VERTEX
8
OBJECT__52
10
16.143999
20
-0.467000
30
162.421005
70
192
0
VERTEX
8
OBJECT__52
10
16.141001
20
-0.071000
30
161.272003
70
192
0
VERTEX
8
OBJECT__52
10
16.103001
20
1.240000
30
161.906006
70
192
0
VERTEX
8
OBJECT__52
10
16.128000
20
-0.862000
30
163.570999
70
192
0
VERTEX
8
OBJECT__52
10
16.094999
20
-1.342000
30
162.798004
70
192
0
VERTEX
8
OBJECT__52
10
16.148001
20
-0.304000
30
161.158997
70
192
0
VERTEX
8
OBJECT__52
10
16.091999
20
-1.375000
30
162.500000
70
192
0
VERTEX
8
OBJECT__52
10
0
20
0
30
0
70
128
71
1
72
2
73
3
0
VERTEX
8
OBJECT__52
10
0
20
0
30
0
70
128
71
3
72
4
73
1
0
VERTEX
8
OBJECT__52
10
0
20
0
30
0
70
128
71
4
72
5
73
6
0
VERTEX
8
OBJECT__52
10
0
20
0
30
0
70
128
71
6
72
1
73
4
0
VERTEX
8
OBJECT__52
10
0
20
0
30
0
70
128
71
4
72
7
73
8
0
VERTEX
8
OBJECT__52
10
0
20
0
30
0
70
128
71
9
72
5
73
4
0
VERTEX
8
OBJECT__52
10
0
20
0
30
0
70
128
71
4
72
10
73
9
0
VERTEX
8
OBJECT__52
10
0
20
0
30
0
70
128
71
8
72
10
73
4
0
VERTEX
8
OBJECT__52
10
0
20
0
30
0
70
128
71
3
72
7
73
4
0
SEQEND
8
OBJECT__52
0
POLYLINE
8
OBJECT__53
66
1
70
64
71
19
72
19
62
253
0
VERTEX
8
OBJECT__53
10
15.794000
20
-3.375000
30
166.250000
70
192
0
VERTEX
8
OBJECT__53
10
15.801000
20
-3.343000
30
166.542999
70
192
0
VERTEX
8
OBJECT__53
10
16.663000
20
-3.367000
30
166.391998
70
192
0
VERTEX
8
OBJECT__53
10
15.896000
20
-2.858000
30
167.324005
70
192
0
VERTEX
8
OBJECT__53
10
16.738001
20
-2.974000
30
167.220001
70
192
0
VERTEX
8
OBJECT__53
10
16.003000
20
-2.000000
30
167.324997
70
192
0
VERTEX
8
OBJECT__53
10
16.865000
20
-1.967000
30
167.335007
70
192
0
VERTEX
8
OBJECT__53
10
16.978001
20
-0.836000
30
166.175995
70
192
0
VERTEX
8
OBJECT__53
10
16.952999
20
-1.268000
30
167.414001
70
192
0
VERTEX
8
OBJECT__53
10
16.110001
20
-1.143000
30
167.324997
70
192
0
VERTEX
8
OBJECT__53
10
16.871000
20
-2.051000
30
164.957993
70
192
0
VERTEX
8
OBJECT__53
10
16.985001
20
-0.703000
30
165.794006
70
192
0
VERTEX
8
OBJECT__53
10
16.132999
20
-0.762000
30
165.653000
70
192
0
VERTEX
8
OBJECT__53
10
16.125999
20
-0.885000
30
166.190994
70
192
0
VERTEX
8
OBJECT__53
10
16.663000
20
-3.367000
30
166.102997
70
192
0
VERTEX
8
OBJECT__53
10
16.861000
20
-2.168000
30
164.884995
70
192
0
VERTEX
8
OBJECT__53
10
15.983000
20
-2.321000
30
164.912994
70
192
0
VERTEX
8
OBJECT__53
10
16.007000
20
-2.074000
30
165.031006
70
192
0
VERTEX
8
OBJECT__53
10
16.663000
20
-3.367000
30
166.250000
70
192
0
VERTEX
8
OBJECT__53
10
0
20
0
30
0
70
128
71
1
72
2
73
3
0
VERTEX
8
OBJECT__53
10
0
20
0
30
0
70
128
71
2
72
4
73
5
0
VERTEX
8
OBJECT__53
10
0
20
0
30
0
70
128
71
5
72
3
73
2
0
VERTEX
8
OBJECT__53
10
0
20
0
30
0
70
128
71
5
72
4
73
6
0
VERTEX
8
OBJECT__53
10
0
20
0
30
0
70
128
71
6
72
7
73
5
0
VERTEX
8
OBJECT__53
10
0
20
0
30
0
70
128
71
8
72
9
73
10
0
VERTEX
8
OBJECT__53
10
0
20
0
30
0
70
128
71
10
72
9
73
7
0
VERTEX
8
OBJECT__53
10
0
20
0
30
0
70
128
71
7
72
6
73
10
0
VERTEX
8
OBJECT__53
10
0
20
0
30
0
70
128
71
11
72
12
73
13
0
VERTEX
8
OBJECT__53
10
0
20
0
30
0
70
128
71
14
72
13
73
12
0
VERTEX
8
OBJECT__53
10
0
20
0
30
0
70
128
71
12
72
8
73
14
0
VERTEX
8
OBJECT__53
10
0
20
0
30
0
70
128
71
15
72
16
73
17
0
VERTEX
8
OBJECT__53
10
0
20
0
30
0
70
128
71
16
72
18
73
17
0
VERTEX
8
OBJECT__53
10
0
20
0
30
0
70
128
71
17
72
1
73
15
0
VERTEX
8
OBJECT__53
10
0
20
0
30
0
70
128
71
1
72
19
73
15
0
VERTEX
8
OBJECT__53
10
0
20
0
30
0
70
128
71
16
72
11
73
18
0
VERTEX
8
OBJECT__53
10
0
20
0
30
0
70
128
71
13
72
18
73
11
0
VERTEX
8
OBJECT__53
10
0
20
0
30
0
70
128
71
10
72
14
73
8
0
VERTEX
8
OBJECT__53
10
0
20
0
30
0
70
128
71
3
72
19
73
1
0
SEQEND
8
OBJECT__53
0
POLYLINE
8
OBJECT__54
66
1
70
64
71
10
72
9
62
253
0
VERTEX
8
OBJECT__54
10
16.009001
20
-2.136000
30
166.220001
70
192
0
VERTEX
8
OBJECT__54
10
16.003000
20
-2.000000
30
167.324997
70
192
0
VERTEX
8
OBJECT__54
10
15.896000
20
-2.858000
30
167.324005
70
192
0
VERTEX
8
OBJECT__54
10
15.801000
20
-3.343000
30
166.542999
70
192
0
VERTEX
8
OBJECT__54
10
16.125999
20
-0.885000
30
166.190994
70
192
0
VERTEX
8
OBJECT__54
10
16.110001
20
-1.143000
30
167.324997
70
192
0
VERTEX
8
OBJECT__54
10
15.794000
20
-3.375000
30
166.250000
70
192
0
VERTEX
8
OBJECT__54
10
15.983000
20
-2.321000
30
164.912994
70
192
0
VERTEX
8
OBJECT__54
10
16.007000
20
-2.074000
30
165.031006
70
192
0
VERTEX
8
OBJECT__54
10
16.132999
20
-0.762000
30
165.653000
70
192
0
VERTEX
8
OBJECT__54
10
0
20
0
30
0
70
128
71
1
72
2
73
3
0
VERTEX
8
OBJECT__54
10
0
20
0
30
0
70
128
71
3
72
4
73
1
0
VERTEX
8
OBJECT__54
10
0
20
0
30
0
70
128
71
1
72
5
73
6
0
VERTEX
8
OBJECT__54
10
0
20
0
30
0
70
128
71
6
72
2
73
1
0
VERTEX
8
OBJECT__54
10
0
20
0
30
0
70
128
71
7
72
8
73
9
0
VERTEX
8
OBJECT__54
10
0
20
0
30
0
70
128
71
9
72
10
73
5
0
VERTEX
8
OBJECT__54
10
0
20
0
30
0
70
128
71
5
72
1
73
9
0
VERTEX
8
OBJECT__54
10
0
20
0
30
0
70
128
71
9
72
1
73
7
0
VERTEX
8
OBJECT__54
10
0
20
0
30
0
70
128
71
4
72
7
73
1
0
SEQEND
8
OBJECT__54
0
POLYLINE
8
OBJECT__55
66
1
70
64
71
19
72
19
62
253
0
VERTEX
8
OBJECT__55
10
16.857000
20
2.031000
30
167.328995
70
192
0
VERTEX
8
OBJECT__55
10
16.969000
20
1.028000
30
167.223007
70
192
0
VERTEX
8
OBJECT__55
10
16.111000
20
1.137000
30
167.320007
70
192
0
VERTEX
8
OBJECT__55
10
16.988001
20
0.634000
30
166.404007
70
192
0
VERTEX
8
OBJECT__55
10
16.138000
20
0.658000
30
166.548004
70
192
0
VERTEX
8
OBJECT__55
10
16.139000
20
0.625000
30
166.250000
70
192
0
VERTEX
8
OBJECT__55
10
16.988001
20
0.633000
30
166.250000
70
192
0
VERTEX
8
OBJECT__55
10
16.003000
20
2.000000
30
167.320007
70
192
0
VERTEX
8
OBJECT__55
10
15.895000
20
2.865000
30
167.319000
70
192
0
VERTEX
8
OBJECT__55
10
16.777000
20
2.746000
30
167.404999
70
192
0
VERTEX
8
OBJECT__55
10
16.701000
20
3.168000
30
166.179001
70
192
0
VERTEX
8
OBJECT__55
10
15.845000
20
3.122000
30
166.192001
70
192
0
VERTEX
8
OBJECT__55
10
15.822000
20
3.244000
30
165.664001
70
192
0
VERTEX
8
OBJECT__55
10
16.677000
20
3.299000
30
165.798996
70
192
0
VERTEX
8
OBJECT__55
10
16.025999
20
1.928000
30
165.024002
70
192
0
VERTEX
8
OBJECT__55
10
16.882999
20
1.950000
30
164.955994
70
192
0
VERTEX
8
OBJECT__55
10
16.988001
20
0.633000
30
166.104996
70
192
0
VERTEX
8
OBJECT__55
10
16.900999
20
1.836000
30
164.884995
70
192
0
VERTEX
8
OBJECT__55
10
16.062000
20
1.694000
30
164.910004
70
192
0
VERTEX
8
OBJECT__55
10
0
20
0
30
0
70
128
71
1
72
2
73
3
0
VERTEX
8
OBJECT__55
10
0
20
0
30
0
70
128
71
2
72
4
73
5
0
VERTEX
8
OBJECT__55
10
0
20
0
30
0
70
128
71
6
72
5
73
4
0
VERTEX
8
OBJECT__55
10
0
20
0
30
0
70
128
71
4
72
7
73
6
0
VERTEX
8
OBJECT__55
10
0
20
0
30
0
70
128
71
5
72
3
73
2
0
VERTEX
8
OBJECT__55
10
0
20
0
30
0
70
128
71
8
72
9
73
10
0
VERTEX
8
OBJECT__55
10
0
20
0
30
0
70
128
71
11
72
10
73
9
0
VERTEX
8
OBJECT__55
10
0
20
0
30
0
70
128
71
9
72
12
73
11
0
VERTEX
8
OBJECT__55
10
0
20
0
30
0
70
128
71
12
72
13
73
14
0
VERTEX
8
OBJECT__55
10
0
20
0
30
0
70
128
71
14
72
13
73
15
0
VERTEX
8
OBJECT__55
10
0
20
0
30
0
70
128
71
15
72
16
73
14
0
VERTEX
8
OBJECT__55
10
0
20
0
30
0
70
128
71
17
72
18
73
19
0
VERTEX
8
OBJECT__55
10
0
20
0
30
0
70
128
71
19
72
6
73
17
0
VERTEX
8
OBJECT__55
10
0
20
0
30
0
70
128
71
6
72
7
73
17
0
VERTEX
8
OBJECT__55
10
0
20
0
30
0
70
128
71
16
72
15
73
19
0
VERTEX
8
OBJECT__55
10
0
20
0
30
0
70
128
71
18
72
16
73
19
0
VERTEX
8
OBJECT__55
10
0
20
0
30
0
70
128
71
14
72
11
73
12
0
VERTEX
8
OBJECT__55
10
0
20
0
30
0
70
128
71
10
72
1
73
8
0
VERTEX
8
OBJECT__55
10
0
20
0
30
0
70
128
71
3
72
8
73
1
0
SEQEND
8
OBJECT__55
0
POLYLINE
8
OBJECT__56
66
1
70
64
71
10
72
9
62
253
0
VERTEX
8
OBJECT__56
10
15.845000
20
3.122000
30
166.192001
70
192
0
VERTEX
8
OBJECT__56
10
15.895000
20
2.865000
30
167.319000
70
192
0
VERTEX
8
OBJECT__56
10
16.003000
20
2.000000
30
167.320007
70
192
0
VERTEX
8
OBJECT__56
10
16.077999
20
1.534000
30
166.171997
70
192
0
VERTEX
8
OBJECT__56
10
16.025999
20
1.928000
30
165.024002
70
192
0
VERTEX
8
OBJECT__56
10
15.822000
20
3.244000
30
165.664001
70
192
0
VERTEX
8
OBJECT__56
10
16.111000
20
1.137000
30
167.320007
70
192
0
VERTEX
8
OBJECT__56
10
16.138000
20
0.658000
30
166.548004
70
192
0
VERTEX
8
OBJECT__56
10
16.062000
20
1.694000
30
164.910004
70
192
0
VERTEX
8
OBJECT__56
10
16.139000
20
0.625000
30
166.250000
70
192
0
VERTEX
8
OBJECT__56
10
0
20
0
30
0
70
128
71
1
72
2
73
3
0
VERTEX
8
OBJECT__56
10
0
20
0
30
0
70
128
71
3
72
4
73
1
0
VERTEX
8
OBJECT__56
10
0
20
0
30
0
70
128
71
4
72
5
73
6
0
VERTEX
8
OBJECT__56
10
0
20
0
30
0
70
128
71
6
72
1
73
4
0
VERTEX
8
OBJECT__56
10
0
20
0
30
0
70
128
71
4
72
7
73
8
0
VERTEX
8
OBJECT__56
10
0
20
0
30
0
70
128
71
9
72
5
73
4
0
VERTEX
8
OBJECT__56
10
0
20
0
30
0
70
128
71
4
72
10
73
9
0
VERTEX
8
OBJECT__56
10
0
20
0
30
0
70
128
71
8
72
10
73
4
0
VERTEX
8
OBJECT__56
10
0
20
0
30
0
70
128
71
3
72
7
73
4
0
SEQEND
8
OBJECT__56
0
POLYLINE
8
OBJECT__57
66
1
70
64
71
21
72
21
62
253
0
VERTEX
8
OBJECT__57
10
16.979000
20
0.000000
30
171.080994
70
192
0
VERTEX
8
OBJECT__57
10
16.972000
20
-0.973000
30
170.970993
70
192
0
VERTEX
8
OBJECT__57
10
16.128000
20
-0.862000
30
171.070999
70
192
0
VERTEX
8
OBJECT__57
10
16.128000
20
0.001000
30
171.074005
70
192
0
VERTEX
8
OBJECT__57
10
16.979000
20
0.033000
30
171.085007
70
192
0
VERTEX
8
OBJECT__57
10
16.091999
20
-1.375000
30
170.000000
70
192
0
VERTEX
8
OBJECT__57
10
16.094999
20
-1.342000
30
170.298004
70
192
0
VERTEX
8
OBJECT__57
10
16.945000
20
-1.367000
30
170.149994
70
192
0
VERTEX
8
OBJECT__57
10
16.945000
20
-1.367000
30
170.000000
70
192
0
VERTEX
8
OBJECT__57
10
16.958000
20
1.164000
30
169.925995
70
192
0
VERTEX
8
OBJECT__57
10
16.983999
20
0.732000
30
171.164001
70
192
0
VERTEX
8
OBJECT__57
10
16.128000
20
0.854000
30
171.078003
70
192
0
VERTEX
8
OBJECT__57
10
16.111000
20
1.117000
30
169.940002
70
192
0
VERTEX
8
OBJECT__57
10
16.103001
20
1.240000
30
169.406006
70
192
0
VERTEX
8
OBJECT__57
10
16.950001
20
1.297000
30
169.544006
70
192
0
VERTEX
8
OBJECT__57
10
16.993999
20
0.000000
30
168.731995
70
192
0
VERTEX
8
OBJECT__57
10
16.141001
20
-0.071000
30
168.772003
70
192
0
VERTEX
8
OBJECT__57
10
16.996000
20
-0.048000
30
168.701996
70
192
0
VERTEX
8
OBJECT__57
10
16.945000
20
-1.367000
30
169.852005
70
192
0
VERTEX
8
OBJECT__57
10
16.999001
20
-0.157000
30
168.634003
70
192
0
VERTEX
8
OBJECT__57
10
16.148001
20
-0.304000
30
168.658997
70
192
0
VERTEX
8
OBJECT__57
10
0
20
0
30
0
70
128
71
1
72
2
73
3
0
VERTEX
8
OBJECT__57
10
0
20
0
30
0
70
128
71
4
72
5
73
1
0
VERTEX
8
OBJECT__57
10
0
20
0
30
0
70
128
71
6
72
7
73
8
0
VERTEX
8
OBJECT__57
10
0
20
0
30
0
70
128
71
7
72
3
73
2
0
VERTEX
8
OBJECT__57
10
0
20
0
30
0
70
128
71
2
72
8
73
7
0
VERTEX
8
OBJECT__57
10
0
20
0
30
0
70
128
71
8
72
9
73
6
0
VERTEX
8
OBJECT__57
10
0
20
0
30
0
70
128
71
10
72
11
73
12
0
VERTEX
8
OBJECT__57
10
0
20
0
30
0
70
128
71
4
72
12
73
11
0
VERTEX
8
OBJECT__57
10
0
20
0
30
0
70
128
71
11
72
5
73
4
0
VERTEX
8
OBJECT__57
10
0
20
0
30
0
70
128
71
13
72
14
73
15
0
VERTEX
8
OBJECT__57
10
0
20
0
30
0
70
128
71
16
72
15
73
14
0
VERTEX
8
OBJECT__57
10
0
20
0
30
0
70
128
71
17
72
18
73
16
0
VERTEX
8
OBJECT__57
10
0
20
0
30
0
70
128
71
14
72
17
73
16
0
VERTEX
8
OBJECT__57
10
0
20
0
30
0
70
128
71
19
72
20
73
21
0
VERTEX
8
OBJECT__57
10
0
20
0
30
0
70
128
71
6
72
9
73
19
0
VERTEX
8
OBJECT__57
10
0
20
0
30
0
70
128
71
17
72
21
73
20
0
VERTEX
8
OBJECT__57
10
0
20
0
30
0
70
128
71
20
72
18
73
17
0
VERTEX
8
OBJECT__57
10
0
20
0
30
0
70
128
71
21
72
6
73
19
0
VERTEX
8
OBJECT__57
10
0
20
0
30
0
70
128
71
15
72
10
73
13
0
VERTEX
8
OBJECT__57
10
0
20
0
30
0
70
128
71
12
72
13
73
10
0
VERTEX
8
OBJECT__57
10
0
20
0
30
0
70
128
71
3
72
4
73
1
0
SEQEND
8
OBJECT__57
0
POLYLINE
8
OBJECT__58
66
1
70
64
71
10
72
9
62
253
0
VERTEX
8
OBJECT__58
10
16.111000
20
1.117000
30
169.940002
70
192
0
VERTEX
8
OBJECT__58
10
16.128000
20
0.854000
30
171.078003
70
192
0
VERTEX
8
OBJECT__58
10
16.128000
20
0.001000
30
171.074005
70
192
0
VERTEX
8
OBJECT__58
10
16.143999
20
-0.467000
30
169.921005
70
192
0
VERTEX
8
OBJECT__58
10
16.141001
20
-0.071000
30
168.772003
70
192
0
VERTEX
8
OBJECT__58
10
16.103001
20
1.240000
30
169.406006
70
192
0
VERTEX
8
OBJECT__58
10
16.128000
20
-0.862000
30
171.070999
70
192
0
VERTEX
8
OBJECT__58
10
16.094999
20
-1.342000
30
170.298004
70
192
0
VERTEX
8
OBJECT__58
10
16.148001
20
-0.304000
30
168.658997
70
192
0
VERTEX
8
OBJECT__58
10
16.091999
20
-1.375000
30
170.000000
70
192
0
VERTEX
8
OBJECT__58
10
0
20
0
30
0
70
128
71
1
72
2
73
3
0
VERTEX
8
OBJECT__58
10
0
20
0
30
0
70
128
71
3
72
4
73
1
0
VERTEX
8
OBJECT__58
10
0
20
0
30
0
70
128
71
4
72
5
73
6
0
VERTEX
8
OBJECT__58
10
0
20
0
30
0
70
128
71
6
72
1
73
4
0
VERTEX
8
OBJECT__58
10
0
20
0
30
0
70
128
71
4
72
7
73
8
0
VERTEX
8
OBJECT__58
10
0
20
0
30
0
70
128
71
9
72
5
73
4
0
VERTEX
8
OBJECT__58
10
0
20
0
30
0
70
128
71
4
72
10
73
9
0
VERTEX
8
OBJECT__58
10
0
20
0
30
0
70
128
71
8
72
10
73
4
0
VERTEX
8
OBJECT__58
10
0
20
0
30
0
70
128
71
3
72
7
73
4
0
SEQEND
8
OBJECT__58
0
POLYLINE
8
OBJECT__59
66
1
70
64
71
19
72
19
62
253
0
VERTEX
8
OBJECT__59
10
15.230000
20
-5.375000
30
170.000000
70
192
0
VERTEX
8
OBJECT__59
10
15.241000
20
-5.346000
30
170.281998
70
192
0
VERTEX
8
OBJECT__59
10
16.129999
20
-5.369000
30
170.130005
70
192
0
VERTEX
8
OBJECT__59
10
15.405000
20
-4.852000
30
171.078995
70
192
0
VERTEX
8
OBJECT__59
10
16.256001
20
-4.974000
30
170.970001
70
192
0
VERTEX
8
OBJECT__59
10
15.622000
20
-4.003000
30
171.070999
70
192
0
VERTEX
8
OBJECT__59
10
16.507000
20
-3.969000
30
171.078003
70
192
0
VERTEX
8
OBJECT__59
10
16.761000
20
-2.833000
30
169.929001
70
192
0
VERTEX
8
OBJECT__59
10
16.686001
20
-3.254000
30
171.154999
70
192
0
VERTEX
8
OBJECT__59
10
15.845000
20
-3.128000
30
171.063004
70
192
0
VERTEX
8
OBJECT__59
10
16.502001
20
-4.059000
30
168.723999
70
192
0
VERTEX
8
OBJECT__59
10
16.784000
20
-2.702000
30
169.546997
70
192
0
VERTEX
8
OBJECT__59
10
15.913000
20
-2.762000
30
169.403000
70
192
0
VERTEX
8
OBJECT__59
10
15.891000
20
-2.881000
30
169.944000
70
192
0
VERTEX
8
OBJECT__59
10
16.129999
20
-5.368000
30
169.858002
70
192
0
VERTEX
8
OBJECT__59
10
16.474001
20
-4.198000
30
168.639008
70
192
0
VERTEX
8
OBJECT__59
10
15.551000
20
-4.360000
30
168.673004
70
192
0
VERTEX
8
OBJECT__59
10
15.615000
20
-4.079000
30
168.800995
70
192
0
VERTEX
8
OBJECT__59
10
16.129999
20
-5.368000
30
170.000000
70
192
0
VERTEX
8
OBJECT__59
10
0
20
0
30
0
70
128
71
1
72
2
73
3
0
VERTEX
8
OBJECT__59
10
0
20
0
30
0
70
128
71
2
72
4
73
5
0
VERTEX
8
OBJECT__59
10
0
20
0
30
0
70
128
71
5
72
3
73
2
0
VERTEX
8
OBJECT__59
10
0
20
0
30
0
70
128
71
5
72
4
73
6
0
VERTEX
8
OBJECT__59
10
0
20
0
30
0
70
128
71
6
72
7
73
5
0
VERTEX
8
OBJECT__59
10
0
20
0
30
0
70
128
71
8
72
9
73
10
0
VERTEX
8
OBJECT__59
10
0
20
0
30
0
70
128
71
10
72
9
73
7
0
VERTEX
8
OBJECT__59
10
0
20
0
30
0
70
128
71
7
72
6
73
10
0
VERTEX
8
OBJECT__59
10
0
20
0
30
0
70
128
71
11
72
12
73
13
0
VERTEX
8
OBJECT__59
10
0
20
0
30
0
70
128
71
14
72
13
73
12
0
VERTEX
8
OBJECT__59
10
0
20
0
30
0
70
128
71
12
72
8
73
14
0
VERTEX
8
OBJECT__59
10
0
20
0
30
0
70
128
71
15
72
16
73
17
0
VERTEX
8
OBJECT__59
10
0
20
0
30
0
70
128
71
16
72
18
73
17
0
VERTEX
8
OBJECT__59
10
0
20
0
30
0
70
128
71
1
72
19
73
15
0
VERTEX
8
OBJECT__59
10
0
20
0
30
0
70
128
71
17
72
1
73
15
0
VERTEX
8
OBJECT__59
10
0
20
0
30
0
70
128
71
16
72
11
73
18
0
VERTEX
8
OBJECT__59
10
0
20
0
30
0
70
128
71
13
72
18
73
11
0
VERTEX
8
OBJECT__59
10
0
20
0
30
0
70
128
71
10
72
14
73
8
0
VERTEX
8
OBJECT__59
10
0
20
0
30
0
70
128
71
3
72
19
73
1
0
SEQEND
8
OBJECT__59
0
POLYLINE
8
OBJECT__60
66
1
70
64
71
10
72
9
62
253
0
VERTEX
8
OBJECT__60
10
15.611000
20
-4.141000
30
169.972000
70
192
0
VERTEX
8
OBJECT__60
10
15.622000
20
-4.003000
30
171.070999
70
192
0
VERTEX
8
OBJECT__60
10
15.405000
20
-4.852000
30
171.078995
70
192
0
VERTEX
8
OBJECT__60
10
15.241000
20
-5.346000
30
170.281998
70
192
0
VERTEX
8
OBJECT__60
10
15.891000
20
-2.881000
30
169.944000
70
192
0
VERTEX
8
OBJECT__60
10
15.845000
20
-3.128000
30
171.063004
70
192
0
VERTEX
8
OBJECT__60
10
15.230000
20
-5.375000
30
170.000000
70
192
0
VERTEX
8
OBJECT__60
10
15.551000
20
-4.360000
30
168.673004
70
192
0
VERTEX
8
OBJECT__60
10
15.615000
20
-4.079000
30
168.800995
70
192
0
VERTEX
8
OBJECT__60
10
15.913000
20
-2.762000
30
169.403000
70
192
0
VERTEX
8
OBJECT__60
10
0
20
0
30
0
70
128
71
1
72
2
73
3
0
VERTEX
8
OBJECT__60
10
0
20
0
30
0
70
128
71
3
72
4
73
1
0
VERTEX
8
OBJECT__60
10
0
20
0
30
0
70
128
71
1
72
5
73
6
0
VERTEX
8
OBJECT__60
10
0
20
0
30
0
70
128
71
6
72
2
73
1
0
VERTEX
8
OBJECT__60
10
0
20
0
30
0
70
128
71
7
72
8
73
9
0
VERTEX
8
OBJECT__60
10
0
20
0
30
0
70
128
71
9
72
10
73
5
0
VERTEX
8
OBJECT__60
10
0
20
0
30
0
70
128
71
5
72
1
73
9
0
VERTEX
8
OBJECT__60
10
0
20
0
30
0
70
128
71
9
72
1
73
7
0
VERTEX
8
OBJECT__60
10
0
20
0
30
0
70
128
71
4
72
7
73
1
0
SEQEND
8
OBJECT__60
0
POLYLINE
8
OBJECT__61
66
1
70
64
71
21
72
21
62
253
0
VERTEX
8
OBJECT__61
10
16.238001
20
5.033000
30
174.727005
70
192
0
VERTEX
8
OBJECT__61
10
15.466000
20
4.653000
30
174.024002
70
192
0
VERTEX
8
OBJECT__61
10
15.312000
20
5.136000
30
174.820007
70
192
0
VERTEX
8
OBJECT__61
10
15.869000
20
6.022000
30
174.798004
70
192
0
VERTEX
8
OBJECT__61
10
15.475000
20
4.625000
30
173.750000
70
192
0
VERTEX
8
OBJECT__61
10
16.356001
20
4.633000
30
173.899002
70
192
0
VERTEX
8
OBJECT__61
10
16.357000
20
4.632000
30
173.806000
70
192
0
VERTEX
8
OBJECT__61
10
16.357000
20
4.632000
30
173.750000
70
192
0
VERTEX
8
OBJECT__61
10
14.592000
20
6.923000
30
174.768997
70
192
0
VERTEX
8
OBJECT__61
10
15.421000
20
7.151000
30
173.806000
70
192
0
VERTEX
8
OBJECT__61
10
15.572000
20
6.819000
30
174.854004
70
192
0
VERTEX
8
OBJECT__61
10
14.968000
20
5.991000
30
174.796005
70
192
0
VERTEX
8
OBJECT__61
10
14.481000
20
7.150000
30
173.701996
70
192
0
VERTEX
8
OBJECT__61
10
15.404000
20
7.187000
30
173.690994
70
192
0
VERTEX
8
OBJECT__61
10
14.429000
20
7.258000
30
173.194000
70
192
0
VERTEX
8
OBJECT__61
10
15.350000
20
7.305000
30
173.317993
70
192
0
VERTEX
8
OBJECT__61
10
15.013000
20
5.916000
30
172.563004
70
192
0
VERTEX
8
OBJECT__61
10
15.923000
20
5.931000
30
172.496994
70
192
0
VERTEX
8
OBJECT__61
10
15.994000
20
5.761000
30
172.395996
70
192
0
VERTEX
8
OBJECT__61
10
15.139000
20
5.627000
30
172.427002
70
192
0
VERTEX
8
OBJECT__61
10
16.357000
20
4.631000
30
173.626007
70
192
0
VERTEX
8
OBJECT__61
10
0
20
0
30
0
70
128
71
1
72
2
73
3
0
VERTEX
8
OBJECT__61
10
0
20
0
30
0
70
128
71
3
72
4
73
1
0
VERTEX
8
OBJECT__61
10
0
20
0
30
0
70
128
71
5
72
2
73
6
0
VERTEX
8
OBJECT__61
10
0
20
0
30
0
70
128
71
6
72
7
73
5
0
VERTEX
8
OBJECT__61
10
0
20
0
30
0
70
128
71
7
72
8
73
5
0
VERTEX
8
OBJECT__61
10
0
20
0
30
0
70
128
71
1
72
6
73
2
0
VERTEX
8
OBJECT__61
10
0
20
0
30
0
70
128
71
9
72
10
73
11
0
VERTEX
8
OBJECT__61
10
0
20
0
30
0
70
128
71
11
72
12
73
9
0
VERTEX
8
OBJECT__61
10
0
20
0
30
0
70
128
71
13
72
14
73
10
0
VERTEX
8
OBJECT__61
10
0
20
0
30
0
70
128
71
9
72
13
73
10
0
VERTEX
8
OBJECT__61
10
0
20
0
30
0
70
128
71
13
72
15
73
16
0
VERTEX
8
OBJECT__61
10
0
20
0
30
0
70
128
71
16
72
15
73
17
0
VERTEX
8
OBJECT__61
10
0
20
0
30
0
70
128
71
17
72
18
73
16
0
VERTEX
8
OBJECT__61
10
0
20
0
30
0
70
128
71
19
72
20
73
5
0
VERTEX
8
OBJECT__61
10
0
20
0
30
0
70
128
71
5
72
21
73
19
0
VERTEX
8
OBJECT__61
10
0
20
0
30
0
70
128
71
5
72
8
73
21
0
VERTEX
8
OBJECT__61
10
0
20
0
30
0
70
128
71
18
72
17
73
20
0
VERTEX
8
OBJECT__61
10
0
20
0
30
0
70
128
71
19
72
18
73
20
0
VERTEX
8
OBJECT__61
10
0
20
0
30
0
70
128
71
16
72
14
73
13
0
VERTEX
8
OBJECT__61
10
0
20
0
30
0
70
128
71
11
72
4
73
12
0
VERTEX
8
OBJECT__61
10
0
20
0
30
0
70
128
71
3
72
12
73
4
0
SEQEND
8
OBJECT__61
0
POLYLINE
8
OBJECT__62
66
1
70
64
71
10
72
9
62
253
0
VERTEX
8
OBJECT__62
10
14.481000
20
7.150000
30
173.701996
70
192
0
VERTEX
8
OBJECT__62
10
14.592000
20
6.923000
30
174.768997
70
192
0
VERTEX
8
OBJECT__62
10
14.968000
20
5.991000
30
174.796005
70
192
0
VERTEX
8
OBJECT__62
10
15.174000
20
5.531000
30
173.690994
70
192
0
VERTEX
8
OBJECT__62
10
15.013000
20
5.916000
30
172.563004
70
192
0
VERTEX
8
OBJECT__62
10
14.429000
20
7.258000
30
173.194000
70
192
0
VERTEX
8
OBJECT__62
10
15.312000
20
5.136000
30
174.820007
70
192
0
VERTEX
8
OBJECT__62
10
15.466000
20
4.653000
30
174.024002
70
192
0
VERTEX
8
OBJECT__62
10
15.139000
20
5.627000
30
172.427002
70
192
0
VERTEX
8
OBJECT__62
10
15.475000
20
4.625000
30
173.750000
70
192
0
VERTEX
8
OBJECT__62
10
0
20
0
30
0
70
128
71
1
72
2
73
3
0
VERTEX
8
OBJECT__62
10
0
20
0
30
0
70
128
71
3
72
4
73
1
0
VERTEX
8
OBJECT__62
10
0
20
0
30
0
70
128
71
5
72
6
73
1
0
VERTEX
8
OBJECT__62
10
0
20
0
30
0
70
128
71
1
72
4
73
5
0
VERTEX
8
OBJECT__62
10
0
20
0
30
0
70
128
71
4
72
7
73
8
0
VERTEX
8
OBJECT__62
10
0
20
0
30
0
70
128
71
9
72
5
73
4
0
VERTEX
8
OBJECT__62
10
0
20
0
30
0
70
128
71
4
72
10
73
9
0
VERTEX
8
OBJECT__62
10
0
20
0
30
0
70
128
71
8
72
10
73
4
0
VERTEX
8
OBJECT__62
10
0
20
0
30
0
70
128
71
3
72
7
73
4
0
SEQEND
8
OBJECT__62
0
POLYLINE
8
OBJECT__63
66
1
70
64
71
19
72
19
62
253
0
VERTEX
8
OBJECT__63
10
15.230000
20
-5.375000
30
177.500000
70
192
0
VERTEX
8
OBJECT__63
10
15.241000
20
-5.346000
30
177.781998
70
192
0
VERTEX
8
OBJECT__63
10
16.129999
20
-5.369000
30
177.630005
70
192
0
VERTEX
8
OBJECT__63
10
15.405000
20
-4.852000
30
178.578995
70
192
0
VERTEX
8
OBJECT__63
10
16.256001
20
-4.974000
30
178.470001
70
192
0
VERTEX
8
OBJECT__63
10
15.622000
20
-4.003000
30
178.570999
70
192
0
VERTEX
8
OBJECT__63
10
16.507000
20
-3.969000
30
178.578003
70
192
0
VERTEX
8
OBJECT__63
10
16.761000
20
-2.833000
30
177.429001
70
192
0
VERTEX
8
OBJECT__63
10
16.686001
20
-3.254000
30
178.654999
70
192
0
VERTEX
8
OBJECT__63
10
15.845000
20
-3.128000
30
178.563004
70
192
0
VERTEX
8
OBJECT__63
10
16.502001
20
-4.059000
30
176.223999
70
192
0
VERTEX
8
OBJECT__63
10
16.784000
20
-2.702000
30
177.046997
70
192
0
VERTEX
8
OBJECT__63
10
15.913000
20
-2.762000
30
176.903000
70
192
0
VERTEX
8
OBJECT__63
10
15.891000
20
-2.881000
30
177.444000
70
192
0
VERTEX
8
OBJECT__63
10
16.129999
20
-5.368000
30
177.358002
70
192
0
VERTEX
8
OBJECT__63
10
16.474001
20
-4.198000
30
176.139008
70
192
0
VERTEX
8
OBJECT__63
10
15.551000
20
-4.360000
30
176.173004
70
192
0
VERTEX
8
OBJECT__63
10
15.615000
20
-4.079000
30
176.300995
70
192
0
VERTEX
8
OBJECT__63
10
16.129999
20
-5.368000
30
177.500000
70
192
0
VERTEX
8
OBJECT__63
10
0
20
0
30
0
70
128
71
1
72
2
73
3
0
VERTEX
8
OBJECT__63
10
0
20
0
30
0
70
128
71
2
72
4
73
5
0
VERTEX
8
OBJECT__63
10
0
20
0
30
0
70
128
71
5
72
3
73
2
0
VERTEX
8
OBJECT__63
10
0
20
0
30
0
70
128
71
5
72
4
73
6
0
VERTEX
8
OBJECT__63
10
0
20
0
30
0
70
128
71
6
72
7
73
5
0
VERTEX
8
OBJECT__63
10
0
20
0
30
0
70
128
71
8
72
9
73
10
0
VERTEX
8
OBJECT__63
10
0
20
0
30
0
70
128
71
10
72
9
73
7
0
VERTEX
8
OBJECT__63
10
0
20
0
30
0
70
128
71
7
72
6
73
10
0
VERTEX
8
OBJECT__63
10
0
20
0
30
0
70
128
71
11
72
12
73
13
0
VERTEX
8
OBJECT__63
10
0
20
0
30
0
70
128
71
14
72
13
73
12
0
VERTEX
8
OBJECT__63
10
0
20
0
30
0
70
128
71
12
72
8
73
14
0
VERTEX
8
OBJECT__63
10
0
20
0
30
0
70
128
71
15
72
16
73
17
0
VERTEX
8
OBJECT__63
10
0
20
0
30
0
70
128
71
16
72
18
73
17
0
VERTEX
8
OBJECT__63
10
0
20
0
30
0
70
128
71
1
72
19
73
15
0
VERTEX
8
OBJECT__63
10
0
20
0
30
0
70
128
71
17
72
1
73
15
0
VERTEX
8
OBJECT__63
10
0
20
0
30
0
70
128
71
16
72
11
73
18
0
VERTEX
8
OBJECT__63
10
0
20
0
30
0
70
128
71
13
72
18
73
11
0
VERTEX
8
OBJECT__63
10
0
20
0
30
0
70
128
71
10
72
14
73
8
0
VERTEX
8
OBJECT__63
10
0
20
0
30
0
70
128
71
3
72
19
73
1
0
SEQEND
8
OBJECT__63
0
POLYLINE
8
OBJECT__64
66
1
70
64
71
10
72
9
62
253
0
VERTEX
8
OBJECT__64
10
15.611000
20
-4.141000
30
177.472000
70
192
0
VERTEX
8
OBJECT__64
10
15.622000
20
-4.003000
30
178.570999
70
192
0
VERTEX
8
OBJECT__64
10
15.405000
20
-4.852000
30
178.578995
70
192
0
VERTEX
8
OBJECT__64
10
15.241000
20
-5.346000
30
177.781998
70
192
0
VERTEX
8
OBJECT__64
10
15.891000
20
-2.881000
30
177.444000
70
192
0
VERTEX
8
OBJECT__64
10
15.845000
20
-3.128000
30
178.563004
70
192
0
VERTEX
8
OBJECT__64
10
15.230000
20
-5.375000
30
177.500000
70
192
0
VERTEX
8
OBJECT__64
10
15.551000
20
-4.360000
30
176.173004
70
192
0
VERTEX
8
OBJECT__64
10
15.615000
20
-4.079000
30
176.300995
70
192
0
VERTEX
8
OBJECT__64
10
15.913000
20
-2.762000
30
176.903000
70
192
0
VERTEX
8
OBJECT__64
10
0
20
0
30
0
70
128
71
1
72
2
73
3
0
VERTEX
8
OBJECT__64
10
0
20
0
30
0
70
128
71
3
72
4
73
1
0
VERTEX
8
OBJECT__64
10
0
20
0
30
0
70
128
71
1
72
5
73
6
0
VERTEX
8
OBJECT__64
10
0
20
0
30
0
70
128
71
6
72
2
73
1
0
VERTEX
8
OBJECT__64
10
0
20
0
30
0
70
128
71
7
72
8
73
9
0
VERTEX
8
OBJECT__64
10
0
20
0
30
0
70
128
71
9
72
10
73
5
0
VERTEX
8
OBJECT__64
10
0
20
0
30
0
70
128
71
5
72
1
73
9
0
VERTEX
8
OBJECT__64
10
0
20
0
30
0
70
128
71
9
72
1
73
7
0
VERTEX
8
OBJECT__64
10
0
20
0
30
0
70
128
71
4
72
7
73
1
0
SEQEND
8
OBJECT__64
0
POLYLINE
8
OBJECT__65
66
1
70
64
71
19
72
19
62
253
0
VERTEX
8
OBJECT__65
10
16.238001
20
5.033000
30
182.227005
70
192
0
VERTEX
8
OBJECT__65
10
15.466000
20
4.653000
30
181.524002
70
192
0
VERTEX
8
OBJECT__65
10
15.312000
20
5.136000
30
182.320007
70
192
0
VERTEX
8
OBJECT__65
10
15.869000
20
6.022000
30
182.298004
70
192
0
VERTEX
8
OBJECT__65
10
15.475000
20
4.625000
30
181.250000
70
192
0
VERTEX
8
OBJECT__65
10
16.356001
20
4.633000
30
181.399002
70
192
0
VERTEX
8
OBJECT__65
10
16.357000
20
4.632000
30
181.250000
70
192
0
VERTEX
8
OBJECT__65
10
15.404000
20
7.187000
30
181.190994
70
192
0
VERTEX
8
OBJECT__65
10
15.572000
20
6.819000
30
182.354004
70
192
0
VERTEX
8
OBJECT__65
10
14.592000
20
6.923000
30
182.268997
70
192
0
VERTEX
8
OBJECT__65
10
14.968000
20
5.991000
30
182.296005
70
192
0
VERTEX
8
OBJECT__65
10
14.481000
20
7.150000
30
181.201996
70
192
0
VERTEX
8
OBJECT__65
10
14.429000
20
7.258000
30
180.694000
70
192
0
VERTEX
8
OBJECT__65
10
15.350000
20
7.305000
30
180.817993
70
192
0
VERTEX
8
OBJECT__65
10
15.013000
20
5.916000
30
180.063004
70
192
0
VERTEX
8
OBJECT__65
10
15.923000
20
5.931000
30
179.996994
70
192
0
VERTEX
8
OBJECT__65
10
15.994000
20
5.761000
30
179.895996
70
192
0
VERTEX
8
OBJECT__65
10
15.139000
20
5.627000
30
179.927002
70
192
0
VERTEX
8
OBJECT__65
10
16.357000
20
4.631000
30
181.126007
70
192
0
VERTEX
8
OBJECT__65
10
0
20
0
30
0
70
128
71
1
72
2
73
3
0
VERTEX
8
OBJECT__65
10
0
20
0
30
0
70
128
71
3
72
4
73
1
0
VERTEX
8
OBJECT__65
10
0
20
0
30
0
70
128
71
5
72
2
73
6
0
VERTEX
8
OBJECT__65
10
0
20
0
30
0
70
128
71
6
72
7
73
5
0
VERTEX
8
OBJECT__65
10
0
20
0
30
0
70
128
71
1
72
6
73
2
0
VERTEX
8
OBJECT__65
10
0
20
0
30
0
70
128
71
8
72
9
73
10
0
VERTEX
8
OBJECT__65
10
0
20
0
30
0
70
128
71
9
72
11
73
10
0
VERTEX
8
OBJECT__65
10
0
20
0
30
0
70
128
71
10
72
12
73
8
0
VERTEX
8
OBJECT__65
10
0
20
0
30
0
70
128
71
12
72
13
73
14
0
VERTEX
8
OBJECT__65
10
0
20
0
30
0
70
128
71
14
72
13
73
15
0
VERTEX
8
OBJECT__65
10
0
20
0
30
0
70
128
71
15
72
16
73
14
0
VERTEX
8
OBJECT__65
10
0
20
0
30
0
70
128
71
17
72
18
73
5
0
VERTEX
8
OBJECT__65
10
0
20
0
30
0
70
128
71
5
72
19
73
17
0
VERTEX
8
OBJECT__65
10
0
20
0
30
0
70
128
71
5
72
7
73
19
0
VERTEX
8
OBJECT__65
10
0
20
0
30
0
70
128
71
16
72
15
73
18
0
VERTEX
8
OBJECT__65
10
0
20
0
30
0
70
128
71
17
72
16
73
18
0
VERTEX
8
OBJECT__65
10
0
20
0
30
0
70
128
71
14
72
8
73
12
0
VERTEX
8
OBJECT__65
10
0
20
0
30
0
70
128
71
9
72
4
73
11
0
VERTEX
8
OBJECT__65
10
0
20
0
30
0
70
128
71
3
72
11
73
4
0
SEQEND
8
OBJECT__65
0
POLYLINE
8
OBJECT__66
66
1
70
64
71
10
72
9
62
253
0
VERTEX
8
OBJECT__66
10
14.481000
20
7.150000
30
181.201996
70
192
0
VERTEX
8
OBJECT__66
10
14.592000
20
6.923000
30
182.268997
70
192
0
VERTEX
8
OBJECT__66
10
14.968000
20
5.991000
30
182.296005
70
192
0
VERTEX
8
OBJECT__66
10
15.174000
20
5.531000
30
181.190994
70
192
0
VERTEX
8
OBJECT__66
10
15.013000
20
5.916000
30
180.063004
70
192
0
VERTEX
8
OBJECT__66
10
14.429000
20
7.258000
30
180.694000
70
192
0
VERTEX
8
OBJECT__66
10
15.312000
20
5.136000
30
182.320007
70
192
0
VERTEX
8
OBJECT__66
10
15.466000
20
4.653000
30
181.524002
70
192
0
VERTEX
8
OBJECT__66
10
15.139000
20
5.627000
30
179.927002
70
192
0
VERTEX
8
OBJECT__66
10
15.475000
20
4.625000
30
181.250000
70
192
0
VERTEX
8
OBJECT__66
10
0
20
0
30
0
70
128
71
1
72
2
73
3
0
VERTEX
8
OBJECT__66
10
0
20
0
30
0
70
128
71
3
72
4
73
1
0
VERTEX
8
OBJECT__66
10
0
20
0
30
0
70
128
71
5
72
6
73
1
0
VERTEX
8
OBJECT__66
10
0
20
0
30
0
70
128
71
1
72
4
73
5
0
VERTEX
8
OBJECT__66
10
0
20
0
30
0
70
128
71
4
72
7
73
8
0
VERTEX
8
OBJECT__66
10
0
20
0
30
0
70
128
71
9
72
5
73
4
0
VERTEX
8
OBJECT__66
10
0
20
0
30
0
70
128
71
4
72
10
73
9
0
VERTEX
8
OBJECT__66
10
0
20
0
30
0
70
128
71
8
72
10
73
4
0
VERTEX
8
OBJECT__66
10
0
20
0
30
0
70
128
71
3
72
7
73
4
0
SEQEND
8
OBJECT__66
0
POLYLINE
8
OBJECT__67
66
1
70
64
71
21
72
21
62
253
0
VERTEX
8
OBJECT__67
10
16.979000
20
0.000000
30
178.580994
70
192
0
VERTEX
8
OBJECT__67
10
16.972000
20
-0.973000
30
178.470993
70
192
0
VERTEX
8
OBJECT__67
10
16.128000
20
-0.862000
30
178.570999
70
192
0
VERTEX
8
OBJECT__67
10
16.128000
20
0.001000
30
178.574005
70
192
0
VERTEX
8
OBJECT__67
10
16.979000
20
0.033000
30
178.585007
70
192
0
VERTEX
8
OBJECT__67
10
16.091999
20
-1.375000
30
177.500000
70
192
0
VERTEX
8
OBJECT__67
10
16.094999
20
-1.342000
30
177.798004
70
192
0
VERTEX
8
OBJECT__67
10
16.945000
20
-1.367000
30
177.649994
70
192
0
VERTEX
8
OBJECT__67
10
16.945000
20
-1.367000
30
177.500000
70
192
0
VERTEX
8
OBJECT__67
10
16.958000
20
1.164000
30
177.425995
70
192
0
VERTEX
8
OBJECT__67
10
16.983999
20
0.732000
30
178.664001
70
192
0
VERTEX
8
OBJECT__67
10
16.128000
20
0.854000
30
178.578003
70
192
0
VERTEX
8
OBJECT__67
10
16.111000
20
1.117000
30
177.440002
70
192
0
VERTEX
8
OBJECT__67
10
16.103001
20
1.240000
30
176.906006
70
192
0
VERTEX
8
OBJECT__67
10
16.950001
20
1.297000
30
177.044006
70
192
0
VERTEX
8
OBJECT__67
10
16.993999
20
0.000000
30
176.231995
70
192
0
VERTEX
8
OBJECT__67
10
16.141001
20
-0.071000
30
176.272003
70
192
0
VERTEX
8
OBJECT__67
10
16.996000
20
-0.048000
30
176.201996
70
192
0
VERTEX
8
OBJECT__67
10
16.945000
20
-1.367000
30
177.352005
70
192
0
VERTEX
8
OBJECT__67
10
16.999001
20
-0.157000
30
176.134003
70
192
0
VERTEX
8
OBJECT__67
10
16.148001
20
-0.304000
30
176.158997
70
192
0
VERTEX
8
OBJECT__67
10
0
20
0
30
0
70
128
71
1
72
2
73
3
0
VERTEX
8
OBJECT__67
10
0
20
0
30
0
70
128
71
4
72
5
73
1
0
VERTEX
8
OBJECT__67
10
0
20
0
30
0
70
128
71
6
72
7
73
8
0
VERTEX
8
OBJECT__67
10
0
20
0
30
0
70
128
71
7
72
3
73
2
0
VERTEX
8
OBJECT__67
10
0
20
0
30
0
70
128
71
2
72
8
73
7
0
VERTEX
8
OBJECT__67
10
0
20
0
30
0
70
128
71
8
72
9
73
6
0
VERTEX
8
OBJECT__67
10
0
20
0
30
0
70
128
71
10
72
11
73
12
0
VERTEX
8
OBJECT__67
10
0
20
0
30
0
70
128
71
4
72
12
73
11
0
VERTEX
8
OBJECT__67
10
0
20
0
30
0
70
128
71
11
72
5
73
4
0
VERTEX
8
OBJECT__67
10
0
20
0
30
0
70
128
71
13
72
14
73
15
0
VERTEX
8
OBJECT__67
10
0
20
0
30
0
70
128
71
16
72
15
73
14
0
VERTEX
8
OBJECT__67
10
0
20
0
30
0
70
128
71
17
72
18
73
16
0
VERTEX
8
OBJECT__67
10
0
20
0
30
0
70
128
71
14
72
17
73
16
0
VERTEX
8
OBJECT__67
10
0
20
0
30
0
70
128
71
19
72
20
73
21
0
VERTEX
8
OBJECT__67
10
0
20
0
30
0
70
128
71
6
72
9
73
19
0
VERTEX
8
OBJECT__67
10
0
20
0
30
0
70
128
71
17
72
21
73
20
0
VERTEX
8
OBJECT__67
10
0
20
0
30
0
70
128
71
20
72
18
73
17
0
VERTEX
8
OBJECT__67
10
0
20
0
30
0
70
128
71
21
72
6
73
19
0
VERTEX
8
OBJECT__67
10
0
20
0
30
0
70
128
71
15
72
10
73
13
0
VERTEX
8
OBJECT__67
10
0
20
0
30
0
70
128
71
12
72
13
73
10
0
VERTEX
8
OBJECT__67
10
0
20
0
30
0
70
128
71
3
72
4
73
1
0
SEQEND
8
OBJECT__67
0
POLYLINE
8
OBJECT__68
66
1
70
64
71
10
72
9
62
253
0
VERTEX
8
OBJECT__68
10
16.111000
20
1.117000
30
177.440002
70
192
0
VERTEX
8
OBJECT__68
10
16.128000
20
0.854000
30
178.578003
70
192
0
VERTEX
8
OBJECT__68
10
16.128000
20
0.001000
30
178.574005
70
192
0
VERTEX
8
OBJECT__68
10
16.143999
20
-0.467000
30
177.421005
70
192
0
VERTEX
8
OBJECT__68
10
16.141001
20
-0.071000
30
176.272003
70
192
0
VERTEX
8
OBJECT__68
10
16.103001
20
1.240000
30
176.906006
70
192
0
VERTEX
8
OBJECT__68
10
16.128000
20
-0.862000
30
178.570999
70
192
0
VERTEX
8
OBJECT__68
10
16.094999
20
-1.342000
30
177.798004
70
192
0
VERTEX
8
OBJECT__68
10
16.148001
20
-0.304000
30
176.158997
70
192
0
VERTEX
8
OBJECT__68
10
16.091999
20
-1.375000
30
177.500000
70
192
0
VERTEX
8
OBJECT__68
10
0
20
0
30
0
70
128
71
1
72
2
73
3
0
VERTEX
8
OBJECT__68
10
0
20
0
30
0
70
128
71
3
72
4
73
1
0
VERTEX
8
OBJECT__68
10
0
20
0
30
0
70
128
71
4
72
5
73
6
0
VERTEX
8
OBJECT__68
10
0
20
0
30
0
70
128
71
6
72
1
73
4
0
VERTEX
8
OBJECT__68
10
0
20
0
30
0
70
128
71
4
72
7
73
8
0
VERTEX
8
OBJECT__68
10
0
20
0
30
0
70
128
71
9
72
5
73
4
0
VERTEX
8
OBJECT__68
10
0
20
0
30
0
70
128
71
4
72
10
73
9
0
VERTEX
8
OBJECT__68
10
0
20
0
30
0
70
128
71
8
72
10
73
4
0
VERTEX
8
OBJECT__68
10
0
20
0
30
0
70
128
71
3
72
7
73
4
0
SEQEND
8
OBJECT__68
0
POLYLINE
8
OBJECT__69
66
1
70
64
71
19
72
19
62
253
0
VERTEX
8
OBJECT__69
10
14.369000
20
-7.375000
30
181.250000
70
192
0
VERTEX
8
OBJECT__69
10
14.381000
20
-7.351000
30
181.507004
70
192
0
VERTEX
8
OBJECT__69
10
15.319000
20
-7.371000
30
181.358994
70
192
0
VERTEX
8
OBJECT__69
10
14.630000
20
-6.843000
30
182.335999
70
192
0
VERTEX
8
OBJECT__69
10
15.504000
20
-6.974000
30
182.220001
70
192
0
VERTEX
8
OBJECT__69
10
14.963000
20
-6.008000
30
182.313995
70
192
0
VERTEX
8
OBJECT__69
10
15.890000
20
-5.972000
30
182.315002
70
192
0
VERTEX
8
OBJECT__69
10
16.177000
20
-5.226000
30
182.386002
70
192
0
VERTEX
8
OBJECT__69
10
15.324000
20
-5.102000
30
182.291000
70
192
0
VERTEX
8
OBJECT__69
10
15.398000
20
-4.872000
30
181.197998
70
192
0
VERTEX
8
OBJECT__69
10
15.870000
20
-6.073000
30
180.003998
70
192
0
VERTEX
8
OBJECT__69
10
16.337999
20
-4.699000
30
180.804993
70
192
0
VERTEX
8
OBJECT__69
10
15.434000
20
-4.758000
30
180.660004
70
192
0
VERTEX
8
OBJECT__69
10
16.299000
20
-4.825000
30
181.184006
70
192
0
VERTEX
8
OBJECT__69
10
15.808000
20
-6.253000
30
179.899002
70
192
0
VERTEX
8
OBJECT__69
10
14.943000
20
-6.088000
30
180.087006
70
192
0
VERTEX
8
OBJECT__69
10
14.819000
20
-6.423000
30
179.942001
70
192
0
VERTEX
8
OBJECT__69
10
15.320000
20
-7.369000
30
181.117996
70
192
0
VERTEX
8
OBJECT__69
10
15.320000
20
-7.370000
30
181.250000
70
192
0
VERTEX
8
OBJECT__69
10
0
20
0
30
0
70
128
71
1
72
2
73
3
0
VERTEX
8
OBJECT__69
10
0
20
0
30
0
70
128
71
3
72
2
73
4
0
VERTEX
8
OBJECT__69
10
0
20
0
30
0
70
128
71
4
72
5
73
3
0
VERTEX
8
OBJECT__69
10
0
20
0
30
0
70
128
71
5
72
4
73
6
0
VERTEX
8
OBJECT__69
10
0
20
0
30
0
70
128
71
6
72
7
73
5
0
VERTEX
8
OBJECT__69
10
0
20
0
30
0
70
128
71
8
72
9
73
10
0
VERTEX
8
OBJECT__69
10
0
20
0
30
0
70
128
71
9
72
8
73
7
0
VERTEX
8
OBJECT__69
10
0
20
0
30
0
70
128
71
7
72
6
73
9
0
VERTEX
8
OBJECT__69
10
0
20
0
30
0
70
128
71
11
72
12
73
13
0
VERTEX
8
OBJECT__69
10
0
20
0
30
0
70
128
71
13
72
12
73
14
0
VERTEX
8
OBJECT__69
10
0
20
0
30
0
70
128
71
14
72
10
73
13
0
VERTEX
8
OBJECT__69
10
0
20
0
30
0
70
128
71
15
72
16
73
17
0
VERTEX
8
OBJECT__69
10
0
20
0
30
0
70
128
71
17
72
18
73
15
0
VERTEX
8
OBJECT__69
10
0
20
0
30
0
70
128
71
1
72
19
73
18
0
VERTEX
8
OBJECT__69
10
0
20
0
30
0
70
128
71
17
72
1
73
18
0
VERTEX
8
OBJECT__69
10
0
20
0
30
0
70
128
71
15
72
11
73
16
0
VERTEX
8
OBJECT__69
10
0
20
0
30
0
70
128
71
13
72
16
73
11
0
VERTEX
8
OBJECT__69
10
0
20
0
30
0
70
128
71
10
72
14
73
8
0
VERTEX
8
OBJECT__69
10
0
20
0
30
0
70
128
71
3
72
19
73
1
0
SEQEND
8
OBJECT__69
0
POLYLINE
8
OBJECT__70
66
1
70
64
71
11
72
11
62
253
0
VERTEX
8
OBJECT__70
10
14.963000
20
-6.008000
30
182.313995
70
192
0
VERTEX
8
OBJECT__70
10
14.630000
20
-6.843000
30
182.335999
70
192
0
VERTEX
8
OBJECT__70
10
14.798000
20
-6.471000
30
181.210999
70
192
0
VERTEX
8
OBJECT__70
10
14.943000
20
-6.088000
30
180.087006
70
192
0
VERTEX
8
OBJECT__70
10
14.973000
20
-6.056000
30
181.199997
70
192
0
VERTEX
8
OBJECT__70
10
15.398000
20
-4.872000
30
181.197998
70
192
0
VERTEX
8
OBJECT__70
10
15.324000
20
-5.102000
30
182.291000
70
192
0
VERTEX
8
OBJECT__70
10
15.434000
20
-4.758000
30
180.660004
70
192
0
VERTEX
8
OBJECT__70
10
14.381000
20
-7.351000
30
181.507004
70
192
0
VERTEX
8
OBJECT__70
10
14.819000
20
-6.423000
30
179.942001
70
192
0
VERTEX
8
OBJECT__70
10
14.369000
20
-7.375000
30
181.250000
70
192
0
VERTEX
8
OBJECT__70
10
0
20
0
30
0
70
128
71
1
72
2
73
3
0
VERTEX
8
OBJECT__70
10
0
20
0
30
0
70
128
71
3
72
4
73
5
0
VERTEX
8
OBJECT__70
10
0
20
0
30
0
70
128
71
5
72
6
73
7
0
VERTEX
8
OBJECT__70
10
0
20
0
30
0
70
128
71
4
72
8
73
6
0
VERTEX
8
OBJECT__70
10
0
20
0
30
0
70
128
71
6
72
5
73
4
0
VERTEX
8
OBJECT__70
10
0
20
0
30
0
70
128
71
7
72
1
73
5
0
VERTEX
8
OBJECT__70
10
0
20
0
30
0
70
128
71
3
72
2
73
9
0
VERTEX
8
OBJECT__70
10
0
20
0
30
0
70
128
71
10
72
4
73
3
0
VERTEX
8
OBJECT__70
10
0
20
0
30
0
70
128
71
3
72
11
73
10
0
VERTEX
8
OBJECT__70
10
0
20
0
30
0
70
128
71
9
72
11
73
3
0
VERTEX
8
OBJECT__70
10
0
20
0
30
0
70
128
71
3
72
5
73
1
0
SEQEND
8
OBJECT__70
0
POLYLINE
8
OBJECT__71
66
1
70
64
71
19
72
19
62
253
0
VERTEX
8
OBJECT__71
10
14.369000
20
-7.375000
30
196.250000
70
192
0
VERTEX
8
OBJECT__71
10
14.381000
20
-7.351000
30
196.507004
70
192
0
VERTEX
8
OBJECT__71
10
15.319000
20
-7.371000
30
196.358994
70
192
0
VERTEX
8
OBJECT__71
10
14.630000
20
-6.843000
30
197.335999
70
192
0
VERTEX
8
OBJECT__71
10
15.504000
20
-6.974000
30
197.220001
70
192
0
VERTEX
8
OBJECT__71
10
14.963000
20
-6.008000
30
197.313995
70
192
0
VERTEX
8
OBJECT__71
10
15.890000
20
-5.972000
30
197.315002
70
192
0
VERTEX
8
OBJECT__71
10
16.177000
20
-5.226000
30
197.386002
70
192
0
VERTEX
8
OBJECT__71
10
15.324000
20
-5.102000
30
197.291000
70
192
0
VERTEX
8
OBJECT__71
10
15.398000
20
-4.872000
30
196.197998
70
192
0
VERTEX
8
OBJECT__71
10
15.870000
20
-6.073000
30
195.003998
70
192
0
VERTEX
8
OBJECT__71
10
16.337999
20
-4.699000
30
195.804993
70
192
0
VERTEX
8
OBJECT__71
10
15.434000
20
-4.758000
30
195.660004
70
192
0
VERTEX
8
OBJECT__71
10
16.299000
20
-4.825000
30
196.184006
70
192
0
VERTEX
8
OBJECT__71
10
15.808000
20
-6.253000
30
194.899002
70
192
0
VERTEX
8
OBJECT__71
10
14.943000
20
-6.088000
30
195.087006
70
192
0
VERTEX
8
OBJECT__71
10
14.819000
20
-6.423000
30
194.942001
70
192
0
VERTEX
8
OBJECT__71
10
15.320000
20
-7.369000
30
196.117996
70
192
0
VERTEX
8
OBJECT__71
10
15.320000
20
-7.370000
30
196.250000
70
192
0
VERTEX
8
OBJECT__71
10
0
20
0
30
0
70
128
71
1
72
2
73
3
0
VERTEX
8
OBJECT__71
10
0
20
0
30
0
70
128
71
3
72
2
73
4
0
VERTEX
8
OBJECT__71
10
0
20
0
30
0
70
128
71
4
72
5
73
3
0
VERTEX
8
OBJECT__71
10
0
20
0
30
0
70
128
71
5
72
4
73
6
0
VERTEX
8
OBJECT__71
10
0
20
0
30
0
70
128
71
6
72
7
73
5
0
VERTEX
8
OBJECT__71
10
0
20
0
30
0
70
128
71
8
72
9
73
10
0
VERTEX
8
OBJECT__71
10
0
20
0
30
0
70
128
71
9
72
8
73
7
0
VERTEX
8
OBJECT__71
10
0
20
0
30
0
70
128
71
7
72
6
73
9
0
VERTEX
8
OBJECT__71
10
0
20
0
30
0
70
128
71
11
72
12
73
13
0
VERTEX
8
OBJECT__71
10
0
20
0
30
0
70
128
71
13
72
12
73
14
0
VERTEX
8
OBJECT__71
10
0
20
0
30
0
70
128
71
14
72
10
73
13
0
VERTEX
8
OBJECT__71
10
0
20
0
30
0
70
128
71
15
72
16
73
17
0
VERTEX
8
OBJECT__71
10
0
20
0
30
0
70
128
71
17
72
18
73
15
0
VERTEX
8
OBJECT__71
10
0
20
0
30
0
70
128
71
1
72
19
73
18
0
VERTEX
8
OBJECT__71
10
0
20
0
30
0
70
128
71
17
72
1
73
18
0
VERTEX
8
OBJECT__71
10
0
20
0
30
0
70
128
71
15
72
11
73
16
0
VERTEX
8
OBJECT__71
10
0
20
0
30
0
70
128
71
13
72
16
73
11
0
VERTEX
8
OBJECT__71
10
0
20
0
30
0
70
128
71
10
72
14
73
8
0
VERTEX
8
OBJECT__71
10
0
20
0
30
0
70
128
71
3
72
19
73
1
0
SEQEND
8
OBJECT__71
0
POLYLINE
8
OBJECT__72
66
1
70
64
71
10
72
9
62
253
0
VERTEX
8
OBJECT__72
10
15.398000
20
-4.872000
30
196.197998
70
192
0
VERTEX
8
OBJECT__72
10
15.324000
20
-5.102000
30
197.291000
70
192
0
VERTEX
8
OBJECT__72
10
14.963000
20
-6.008000
30
197.313995
70
192
0
VERTEX
8
OBJECT__72
10
14.798000
20
-6.471000
30
196.210999
70
192
0
VERTEX
8
OBJECT__72
10
14.943000
20
-6.088000
30
195.087006
70
192
0
VERTEX
8
OBJECT__72
10
15.434000
20
-4.758000
30
195.660004
70
192
0
VERTEX
8
OBJECT__72
10
14.630000
20
-6.843000
30
197.335999
70
192
0
VERTEX
8
OBJECT__72
10
14.381000
20
-7.351000
30
196.507004
70
192
0
VERTEX
8
OBJECT__72
10
14.819000
20
-6.423000
30
194.942001
70
192
0
VERTEX
8
OBJECT__72
10
14.369000
20
-7.375000
30
196.250000
70
192
0
VERTEX
8
OBJECT__72
10
0
20
0
30
0
70
128
71
1
72
2
73
3
0
VERTEX
8
OBJECT__72
10
0
20
0
30
0
70
128
71
3
72
4
73
1
0
VERTEX
8
OBJECT__72
10
0
20
0
30
0
70
128
71
5
72
6
73
1
0
VERTEX
8
OBJECT__72
10
0
20
0
30
0
70
128
71
1
72
4
73
5
0
VERTEX
8
OBJECT__72
10
0
20
0
30
0
70
128
71
4
72
7
73
8
0
VERTEX
8
OBJECT__72
10
0
20
0
30
0
70
128
71
9
72
5
73
4
0
VERTEX
8
OBJECT__72
10
0
20
0
30
0
70
128
71
4
72
10
73
9
0
VERTEX
8
OBJECT__72
10
0
20
0
30
0
70
128
71
8
72
10
73
4
0
VERTEX
8
OBJECT__72
10
0
20
0
30
0
70
128
71
3
72
7
73
4
0
SEQEND
8
OBJECT__72
0
POLYLINE
8
OBJECT__73
66
1
70
64
71
19
72
19
62
253
0
VERTEX
8
OBJECT__73
10
15.794000
20
-3.375000
30
188.750000
70
192
0
VERTEX
8
OBJECT__73
10
15.801000
20
-3.343000
30
189.042999
70
192
0
VERTEX
8
OBJECT__73
10
16.663000
20
-3.367000
30
188.891998
70
192
0
VERTEX
8
OBJECT__73
10
15.896000
20
-2.858000
30
189.824005
70
192
0
VERTEX
8
OBJECT__73
10
16.738001
20
-2.974000
30
189.720001
70
192
0
VERTEX
8
OBJECT__73
10
16.003000
20
-2.000000
30
189.824997
70
192
0
VERTEX
8
OBJECT__73
10
16.865000
20
-1.967000
30
189.835007
70
192
0
VERTEX
8
OBJECT__73
10
16.978001
20
-0.836000
30
188.675995
70
192
0
VERTEX
8
OBJECT__73
10
16.952999
20
-1.268000
30
189.914001
70
192
0
VERTEX
8
OBJECT__73
10
16.110001
20
-1.143000
30
189.824997
70
192
0
VERTEX
8
OBJECT__73
10
16.871000
20
-2.051000
30
187.457993
70
192
0
VERTEX
8
OBJECT__73
10
16.985001
20
-0.703000
30
188.294006
70
192
0
VERTEX
8
OBJECT__73
10
16.132999
20
-0.762000
30
188.153000
70
192
0
VERTEX
8
OBJECT__73
10
16.125999
20
-0.885000
30
188.690994
70
192
0
VERTEX
8
OBJECT__73
10
16.663000
20
-3.367000
30
188.602997
70
192
0
VERTEX
8
OBJECT__73
10
16.861000
20
-2.168000
30
187.384995
70
192
0
VERTEX
8
OBJECT__73
10
15.983000
20
-2.321000
30
187.412994
70
192
0
VERTEX
8
OBJECT__73
10
16.007000
20
-2.074000
30
187.531006
70
192
0
VERTEX
8
OBJECT__73
10
16.663000
20
-3.367000
30
188.750000
70
192
0
VERTEX
8
OBJECT__73
10
0
20
0
30
0
70
128
71
1
72
2
73
3
0
VERTEX
8
OBJECT__73
10
0
20
0
30
0
70
128
71
2
72
4
73
5
0
VERTEX
8
OBJECT__73
10
0
20
0
30
0
70
128
71
5
72
3
73
2
0
VERTEX
8
OBJECT__73
10
0
20
0
30
0
70
128
71
5
72
4
73
6
0
VERTEX
8
OBJECT__73
10
0
20
0
30
0
70
128
71
6
72
7
73
5
0
VERTEX
8
OBJECT__73
10
0
20
0
30
0
70
128
71
8
72
9
73
10
0
VERTEX
8
OBJECT__73
10
0
20
0
30
0
70
128
71
10
72
9
73
7
0
VERTEX
8
OBJECT__73
10
0
20
0
30
0
70
128
71
7
72
6
73
10
0
VERTEX
8
OBJECT__73
10
0
20
0
30
0
70
128
71
11
72
12
73
13
0
VERTEX
8
OBJECT__73
10
0
20
0
30
0
70
128
71
14
72
13
73
12
0
VERTEX
8
OBJECT__73
10
0
20
0
30
0
70
128
71
12
72
8
73
14
0
VERTEX
8
OBJECT__73
10
0
20
0
30
0
70
128
71
15
72
16
73
17
0
VERTEX
8
OBJECT__73
10
0
20
0
30
0
70
128
71
16
72
18
73
17
0
VERTEX
8
OBJECT__73
10
0
20
0
30
0
70
128
71
17
72
1
73
15
0
VERTEX
8
OBJECT__73
10
0
20
0
30
0
70
128
71
1
72
19
73
15
0
VERTEX
8
OBJECT__73
10
0
20
0
30
0
70
128
71
16
72
11
73
18
0
VERTEX
8
OBJECT__73
10
0
20
0
30
0
70
128
71
13
72
18
73
11
0
VERTEX
8
OBJECT__73
10
0
20
0
30
0
70
128
71
10
72
14
73
8
0
VERTEX
8
OBJECT__73
10
0
20
0
30
0
70
128
71
3
72
19
73
1
0
SEQEND
8
OBJECT__73
0
POLYLINE
8
OBJECT__74
66
1
70
64
71
10
72
9
62
253
0
VERTEX
8
OBJECT__74
10
16.009001
20
-2.136000
30
188.720001
70
192
0
VERTEX
8
OBJECT__74
10
16.003000
20
-2.000000
30
189.824997
70
192
0
VERTEX
8
OBJECT__74
10
15.896000
20
-2.858000
30
189.824005
70
192
0
VERTEX
8
OBJECT__74
10
15.801000
20
-3.343000
30
189.042999
70
192
0
VERTEX
8
OBJECT__74
10
16.125999
20
-0.885000
30
188.690994
70
192
0
VERTEX
8
OBJECT__74
10
16.110001
20
-1.143000
30
189.824997
70
192
0
VERTEX
8
OBJECT__74
10
15.794000
20
-3.375000
30
188.750000
70
192
0
VERTEX
8
OBJECT__74
10
15.983000
20
-2.321000
30
187.412994
70
192
0
VERTEX
8
OBJECT__74
10
16.007000
20
-2.074000
30
187.531006
70
192
0
VERTEX
8
OBJECT__74
10
16.132999
20
-0.762000
30
188.153000
70
192
0
VERTEX
8
OBJECT__74
10
0
20
0
30
0
70
128
71
1
72
2
73
3
0
VERTEX
8
OBJECT__74
10
0
20
0
30
0
70
128
71
3
72
4
73
1
0
VERTEX
8
OBJECT__74
10
0
20
0
30
0
70
128
71
1
72
5
73
6
0
VERTEX
8
OBJECT__74
10
0
20
0
30
0
70
128
71
6
72
2
73
1
0
VERTEX
8
OBJECT__74
10
0
20
0
30
0
70
128
71
7
72
8
73
9
0
VERTEX
8
OBJECT__74
10
0
20
0
30
0
70
128
71
9
72
10
73
5
0
VERTEX
8
OBJECT__74
10
0
20
0
30
0
70
128
71
5
72
1
73
9
0
VERTEX
8
OBJECT__74
10
0
20
0
30
0
70
128
71
9
72
1
73
7
0
VERTEX
8
OBJECT__74
10
0
20
0
30
0
70
128
71
4
72
7
73
1
0
SEQEND
8
OBJECT__74
0
POLYLINE
8
OBJECT__75
66
1
70
64
71
19
72
19
62
253
0
VERTEX
8
OBJECT__75
10
16.857000
20
2.031000
30
189.828995
70
192
0
VERTEX
8
OBJECT__75
10
16.969000
20
1.028000
30
189.723007
70
192
0
VERTEX
8
OBJECT__75
10
16.111000
20
1.137000
30
189.820007
70
192
0
VERTEX
8
OBJECT__75
10
16.988001
20
0.634000
30
188.904007
70
192
0
VERTEX
8
OBJECT__75
10
16.138000
20
0.658000
30
189.048004
70
192
0
VERTEX
8
OBJECT__75
10
16.139000
20
0.625000
30
188.750000
70
192
0
VERTEX
8
OBJECT__75
10
16.988001
20
0.633000
30
188.750000
70
192
0
VERTEX
8
OBJECT__75
10
16.003000
20
2.000000
30
189.820007
70
192
0
VERTEX
8
OBJECT__75
10
15.895000
20
2.865000
30
189.819000
70
192
0
VERTEX
8
OBJECT__75
10
16.777000
20
2.746000
30
189.904999
70
192
0
VERTEX
8
OBJECT__75
10
16.701000
20
3.168000
30
188.679001
70
192
0
VERTEX
8
OBJECT__75
10
15.845000
20
3.122000
30
188.692001
70
192
0
VERTEX
8
OBJECT__75
10
15.822000
20
3.244000
30
188.164001
70
192
0
VERTEX
8
OBJECT__75
10
16.677000
20
3.299000
30
188.298996
70
192
0
VERTEX
8
OBJECT__75
10
16.025999
20
1.928000
30
187.524002
70
192
0
VERTEX
8
OBJECT__75
10
16.882999
20
1.950000
30
187.455994
70
192
0
VERTEX
8
OBJECT__75
10
16.988001
20
0.633000
30
188.604996
70
192
0
VERTEX
8
OBJECT__75
10
16.900999
20
1.836000
30
187.384995
70
192
0
VERTEX
8
OBJECT__75
10
16.062000
20
1.694000
30
187.410004
70
192
0
VERTEX
8
OBJECT__75
10
0
20
0
30
0
70
128
71
1
72
2
73
3
0
VERTEX
8
OBJECT__75
10
0
20
0
30
0
70
128
71
2
72
4
73
5
0
VERTEX
8
OBJECT__75
10
0
20
0
30
0
70
128
71
6
72
5
73
4
0
VERTEX
8
OBJECT__75
10
0
20
0
30
0
70
128
71
4
72
7
73
6
0
VERTEX
8
OBJECT__75
10
0
20
0
30
0
70
128
71
5
72
3
73
2
0
VERTEX
8
OBJECT__75
10
0
20
0
30
0
70
128
71
8
72
9
73
10
0
VERTEX
8
OBJECT__75
10
0
20
0
30
0
70
128
71
11
72
10
73
9
0
VERTEX
8
OBJECT__75
10
0
20
0
30
0
70
128
71
9
72
12
73
11
0
VERTEX
8
OBJECT__75
10
0
20
0
30
0
70
128
71
12
72
13
73
14
0
VERTEX
8
OBJECT__75
10
0
20
0
30
0
70
128
71
14
72
13
73
15
0
VERTEX
8
OBJECT__75
10
0
20
0
30
0
70
128
71
15
72
16
73
14
0
VERTEX
8
OBJECT__75
10
0
20
0
30
0
70
128
71
17
72
18
73
19
0
VERTEX
8
OBJECT__75
10
0
20
0
30
0
70
128
71
19
72
6
73
17
0
VERTEX
8
OBJECT__75
10
0
20
0
30
0
70
128
71
6
72
7
73
17
0
VERTEX
8
OBJECT__75
10
0
20
0
30
0
70
128
71
16
72
15
73
19
0
VERTEX
8
OBJECT__75
10
0
20
0
30
0
70
128
71
18
72
16
73
19
0
VERTEX
8
OBJECT__75
10
0
20
0
30
0
70
128
71
14
72
11
73
12
0
VERTEX
8
OBJECT__75
10
0
20
0
30
0
70
128
71
10
72
1
73
8
0
VERTEX
8
OBJECT__75
10
0
20
0
30
0
70
128
71
3
72
8
73
1
0
SEQEND
8
OBJECT__75
0
POLYLINE
8
OBJECT__76
66
1
70
64
71
10
72
9
62
253
0
VERTEX
8
OBJECT__76
10
15.845000
20
3.122000
30
188.692001
70
192
0
VERTEX
8
OBJECT__76
10
15.895000
20
2.865000
30
189.819000
70
192
0
VERTEX
8
OBJECT__76
10
16.003000
20
2.000000
30
189.820007
70
192
0
VERTEX
8
OBJECT__76
10
16.077999
20
1.534000
30
188.671997
70
192
0
VERTEX
8
OBJECT__76
10
16.025999
20
1.928000
30
187.524002
70
192
0
VERTEX
8
OBJECT__76
10
15.822000
20
3.244000
30
188.164001
70
192
0
VERTEX
8
OBJECT__76
10
16.111000
20
1.137000
30
189.820007
70
192
0
VERTEX
8
OBJECT__76
10
16.138000
20
0.658000
30
189.048004
70
192
0
VERTEX
8
OBJECT__76
10
16.062000
20
1.694000
30
187.410004
70
192
0
VERTEX
8
OBJECT__76
10
16.139000
20
0.625000
30
188.750000
70
192
0
VERTEX
8
OBJECT__76
10
0
20
0
30
0
70
128
71
1
72
2
73
3
0
VERTEX
8
OBJECT__76
10
0
20
0
30
0
70
128
71
3
72
4
73
1
0
VERTEX
8
OBJECT__76
10
0
20
0
30
0
70
128
71
4
72
5
73
6
0
VERTEX
8
OBJECT__76
10
0
20
0
30
0
70
128
71
6
72
1
73
4
0
VERTEX
8
OBJECT__76
10
0
20
0
30
0
70
128
71
4
72
7
73
8
0
VERTEX
8
OBJECT__76
10
0
20
0
30
0
70
128
71
9
72
5
73
4
0
VERTEX
8
OBJECT__76
10
0
20
0
30
0
70
128
71
4
72
10
73
9
0
VERTEX
8
OBJECT__76
10
0
20
0
30
0
70
128
71
8
72
10
73
4
0
VERTEX
8
OBJECT__76
10
0
20
0
30
0
70
128
71
3
72
7
73
4
0
SEQEND
8
OBJECT__76
0
POLYLINE
8
OBJECT__77
66
1
70
64
71
19
72
19
62
253
0
VERTEX
8
OBJECT__77
10
16.238001
20
5.033000
30
189.727005
70
192
0
VERTEX
8
OBJECT__77
10
15.466000
20
4.653000
30
189.024002
70
192
0
VERTEX
8
OBJECT__77
10
15.312000
20
5.136000
30
189.820007
70
192
0
VERTEX
8
OBJECT__77
10
15.869000
20
6.022000
30
189.798004
70
192
0
VERTEX
8
OBJECT__77
10
15.475000
20
4.625000
30
188.750000
70
192
0
VERTEX
8
OBJECT__77
10
16.356001
20
4.633000
30
188.899002
70
192
0
VERTEX
8
OBJECT__77
10
16.357000
20
4.632000
30
188.750000
70
192
0
VERTEX
8
OBJECT__77
10
15.404000
20
7.187000
30
188.690994
70
192
0
VERTEX
8
OBJECT__77
10
15.572000
20
6.819000
30
189.854004
70
192
0
VERTEX
8
OBJECT__77
10
14.592000
20
6.923000
30
189.768997
70
192
0
VERTEX
8
OBJECT__77
10
14.968000
20
5.991000
30
189.796005
70
192
0
VERTEX
8
OBJECT__77
10
14.481000
20
7.150000
30
188.701996
70
192
0
VERTEX
8
OBJECT__77
10
14.429000
20
7.258000
30
188.194000
70
192
0
VERTEX
8
OBJECT__77
10
15.350000
20
7.305000
30
188.317993
70
192
0
VERTEX
8
OBJECT__77
10
15.013000
20
5.916000
30
187.563004
70
192
0
VERTEX
8
OBJECT__77
10
15.923000
20
5.931000
30
187.496994
70
192
0
VERTEX
8
OBJECT__77
10
15.994000
20
5.761000
30
187.395996
70
192
0
VERTEX
8
OBJECT__77
10
15.139000
20
5.627000
30
187.427002
70
192
0
VERTEX
8
OBJECT__77
10
16.357000
20
4.631000
30
188.626007
70
192
0
VERTEX
8
OBJECT__77
10
0
20
0
30
0
70
128
71
1
72
2
73
3
0
VERTEX
8
OBJECT__77
10
0
20
0
30
0
70
128
71
3
72
4
73
1
0
VERTEX
8
OBJECT__77
10
0
20
0
30
0
70
128
71
5
72
2
73
6
0
VERTEX
8
OBJECT__77
10
0
20
0
30
0
70
128
71
6
72
7
73
5
0
VERTEX
8
OBJECT__77
10
0
20
0
30
0
70
128
71
1
72
6
73
2
0
VERTEX
8
OBJECT__77
10
0
20
0
30
0
70
128
71
8
72
9
73
10
0
VERTEX
8
OBJECT__77
10
0
20
0
30
0
70
128
71
9
72
11
73
10
0
VERTEX
8
OBJECT__77
10
0
20
0
30
0
70
128
71
10
72
12
73
8
0
VERTEX
8
OBJECT__77
10
0
20
0
30
0
70
128
71
12
72
13
73
14
0
VERTEX
8
OBJECT__77
10
0
20
0
30
0
70
128
71
14
72
13
73
15
0
VERTEX
8
OBJECT__77
10
0
20
0
30
0
70
128
71
15
72
16
73
14
0
VERTEX
8
OBJECT__77
10
0
20
0
30
0
70
128
71
17
72
18
73
5
0
VERTEX
8
OBJECT__77
10
0
20
0
30
0
70
128
71
5
72
19
73
17
0
VERTEX
8
OBJECT__77
10
0
20
0
30
0
70
128
71
5
72
7
73
19
0
VERTEX
8
OBJECT__77
10
0
20
0
30
0
70
128
71
16
72
15
73
18
0
VERTEX
8
OBJECT__77
10
0
20
0
30
0
70
128
71
17
72
16
73
18
0
VERTEX
8
OBJECT__77
10
0
20
0
30
0
70
128
71
14
72
8
73
12
0
VERTEX
8
OBJECT__77
10
0
20
0
30
0
70
128
71
9
72
4
73
11
0
VERTEX
8
OBJECT__77
10
0
20
0
30
0
70
128
71
3
72
11
73
4
0
SEQEND
8
OBJECT__77
0
POLYLINE
8
OBJECT__78
66
1
70
64
71
10
72
9
62
253
0
VERTEX
8
OBJECT__78
10
14.481000
20
7.150000
30
188.701996
70
192
0
VERTEX
8
OBJECT__78
10
14.592000
20
6.923000
30
189.768997
70
192
0
VERTEX
8
OBJECT__78
10
14.968000
20
5.991000
30
189.796005
70
192
0
VERTEX
8
OBJECT__78
10
15.174000
20
5.531000
30
188.690994
70
192
0
VERTEX
8
OBJECT__78
10
15.013000
20
5.916000
30
187.563004
70
192
0
VERTEX
8
OBJECT__78
10
14.429000
20
7.258000
30
188.194000
70
192
0
VERTEX
8
OBJECT__78
10
15.312000
20
5.136000
30
189.820007
70
192
0
VERTEX
8
OBJECT__78
10
15.466000
20
4.653000
30
189.024002
70
192
0
VERTEX
8
OBJECT__78
10
15.139000
20
5.627000
30
187.427002
70
192
0
VERTEX
8
OBJECT__78
10
15.475000
20
4.625000
30
188.750000
70
192
0
VERTEX
8
OBJECT__78
10
0
20
0
30
0
70
128
71
1
72
2
73
3
0
VERTEX
8
OBJECT__78
10
0
20
0
30
0
70
128
71
3
72
4
73
1
0
VERTEX
8
OBJECT__78
10
0
20
0
30
0
70
128
71
5
72
6
73
1
0
VERTEX
8
OBJECT__78
10
0
20
0
30
0
70
128
71
1
72
4
73
5
0
VERTEX
8
OBJECT__78
10
0
20
0
30
0
70
128
71
4
72
7
73
8
0
VERTEX
8
OBJECT__78
10
0
20
0
30
0
70
128
71
9
72
5
73
4
0
VERTEX
8
OBJECT__78
10
0
20
0
30
0
70
128
71
4
72
10
73
9
0
VERTEX
8
OBJECT__78
10
0
20
0
30
0
70
128
71
8
72
10
73
4
0
VERTEX
8
OBJECT__78
10
0
20
0
30
0
70
128
71
3
72
7
73
4
0
SEQEND
8
OBJECT__78
0
POLYLINE
8
OBJECT__79
66
1
70
64
71
19
72
19
62
253
0
VERTEX
8
OBJECT__79
10
16.728001
20
3.030000
30
185.975006
70
192
0
VERTEX
8
OBJECT__79
10
16.795000
20
2.634000
30
185.154007
70
192
0
VERTEX
8
OBJECT__79
10
15.931000
20
2.657000
30
185.292999
70
192
0
VERTEX
8
OBJECT__79
10
15.843000
20
3.138000
30
186.070999
70
192
0
VERTEX
8
OBJECT__79
10
16.492001
20
4.028000
30
186.067001
70
192
0
VERTEX
8
OBJECT__79
10
15.936000
20
2.625000
30
185.000000
70
192
0
VERTEX
8
OBJECT__79
10
16.795000
20
2.633000
30
185.000000
70
192
0
VERTEX
8
OBJECT__79
10
15.623000
20
3.996000
30
186.059998
70
192
0
VERTEX
8
OBJECT__79
10
15.393000
20
4.888000
30
186.048996
70
192
0
VERTEX
8
OBJECT__79
10
16.316000
20
4.774000
30
186.136002
70
192
0
VERTEX
8
OBJECT__79
10
16.191000
20
5.176000
30
184.934006
70
192
0
VERTEX
8
OBJECT__79
10
15.313000
20
5.133000
30
184.945999
70
192
0
VERTEX
8
OBJECT__79
10
15.274000
20
5.249000
30
184.425003
70
192
0
VERTEX
8
OBJECT__79
10
16.152000
20
5.302000
30
184.557007
70
192
0
VERTEX
8
OBJECT__79
10
15.655000
20
3.924000
30
183.787003
70
192
0
VERTEX
8
OBJECT__79
10
16.531000
20
3.943000
30
183.720001
70
192
0
VERTEX
8
OBJECT__79
10
16.795000
20
2.632000
30
184.862000
70
192
0
VERTEX
8
OBJECT__79
10
16.566999
20
3.811000
30
183.638000
70
192
0
VERTEX
8
OBJECT__79
10
15.728000
20
3.671000
30
183.664993
70
192
0
VERTEX
8
OBJECT__79
10
0
20
0
30
0
70
128
71
1
72
2
73
3
0
VERTEX
8
OBJECT__79
10
0
20
0
30
0
70
128
71
4
72
5
73
1
0
VERTEX
8
OBJECT__79
10
0
20
0
30
0
70
128
71
6
72
3
73
2
0
VERTEX
8
OBJECT__79
10
0
20
0
30
0
70
128
71
2
72
7
73
6
0
VERTEX
8
OBJECT__79
10
0
20
0
30
0
70
128
71
3
72
4
73
1
0
VERTEX
8
OBJECT__79
10
0
20
0
30
0
70
128
71
8
72
9
73
10
0
VERTEX
8
OBJECT__79
10
0
20
0
30
0
70
128
71
11
72
10
73
9
0
VERTEX
8
OBJECT__79
10
0
20
0
30
0
70
128
71
9
72
12
73
11
0
VERTEX
8
OBJECT__79
10
0
20
0
30
0
70
128
71
12
72
13
73
14
0
VERTEX
8
OBJECT__79
10
0
20
0
30
0
70
128
71
14
72
13
73
15
0
VERTEX
8
OBJECT__79
10
0
20
0
30
0
70
128
71
15
72
16
73
14
0
VERTEX
8
OBJECT__79
10
0
20
0
30
0
70
128
71
17
72
18
73
19
0
VERTEX
8
OBJECT__79
10
0
20
0
30
0
70
128
71
19
72
6
73
17
0
VERTEX
8
OBJECT__79
10
0
20
0
30
0
70
128
71
6
72
7
73
17
0
VERTEX
8
OBJECT__79
10
0
20
0
30
0
70
128
71
16
72
15
73
19
0
VERTEX
8
OBJECT__79
10
0
20
0
30
0
70
128
71
18
72
16
73
19
0
VERTEX
8
OBJECT__79
10
0
20
0
30
0
70
128
71
14
72
11
73
12
0
VERTEX
8
OBJECT__79
10
0
20
0
30
0
70
128
71
10
72
5
73
8
0
VERTEX
8
OBJECT__79
10
0
20
0
30
0
70
128
71
4
72
8
73
5
0
SEQEND
8
OBJECT__79
0
POLYLINE
8
OBJECT__80
66
1
70
64
71
11
72
11
62
253
0
VERTEX
8
OBJECT__80
10
15.623000
20
3.996000
30
186.059998
70
192
0
VERTEX
8
OBJECT__80
10
15.843000
20
3.138000
30
186.070999
70
192
0
VERTEX
8
OBJECT__80
10
15.760000
20
3.533000
30
184.929001
70
192
0
VERTEX
8
OBJECT__80
10
15.655000
20
3.924000
30
183.787003
70
192
0
VERTEX
8
OBJECT__80
10
15.657000
20
3.965000
30
184.923996
70
192
0
VERTEX
8
OBJECT__80
10
15.313000
20
5.133000
30
184.945999
70
192
0
VERTEX
8
OBJECT__80
10
15.393000
20
4.888000
30
186.048996
70
192
0
VERTEX
8
OBJECT__80
10
15.274000
20
5.249000
30
184.425003
70
192
0
VERTEX
8
OBJECT__80
10
15.931000
20
2.657000
30
185.292999
70
192
0
VERTEX
8
OBJECT__80
10
15.728000
20
3.671000
30
183.664993
70
192
0
VERTEX
8
OBJECT__80
10
15.936000
20
2.625000
30
185.000000
70
192
0
VERTEX
8
OBJECT__80
10
0
20
0
30
0
70
128
71
1
72
2
73
3
0
VERTEX
8
OBJECT__80
10
0
20
0
30
0
70
128
71
3
72
4
73
5
0
VERTEX
8
OBJECT__80
10
0
20
0
30
0
70
128
71
5
72
6
73
7
0
VERTEX
8
OBJECT__80
10
0
20
0
30
0
70
128
71
4
72
8
73
6
0
VERTEX
8
OBJECT__80
10
0
20
0
30
0
70
128
71
6
72
5
73
4
0
VERTEX
8
OBJECT__80
10
0
20
0
30
0
70
128
71
7
72
1
73
5
0
VERTEX
8
OBJECT__80
10
0
20
0
30
0
70
128
71
3
72
2
73
9
0
VERTEX
8
OBJECT__80
10
0
20
0
30
0
70
128
71
10
72
4
73
3
0
VERTEX
8
OBJECT__80
10
0
20
0
30
0
70
128
71
3
72
11
73
10
0
VERTEX
8
OBJECT__80
10
0
20
0
30
0
70
128
71
9
72
11
73
3
0
VERTEX
8
OBJECT__80
10
0
20
0
30
0
70
128
71
3
72
5
73
1
0
SEQEND
8
OBJECT__80
0
POLYLINE
8
OBJECT__81
66
1
70
64
71
21
72
21
62
253
0
VERTEX
8
OBJECT__81
10
16.979000
20
0.000000
30
186.080994
70
192
0
VERTEX
8
OBJECT__81
10
16.972000
20
-0.973000
30
185.970993
70
192
0
VERTEX
8
OBJECT__81
10
16.128000
20
-0.862000
30
186.070999
70
192
0
VERTEX
8
OBJECT__81
10
16.128000
20
0.001000
30
186.074005
70
192
0
VERTEX
8
OBJECT__81
10
16.979000
20
0.033000
30
186.085007
70
192
0
VERTEX
8
OBJECT__81
10
16.091999
20
-1.375000
30
185.000000
70
192
0
VERTEX
8
OBJECT__81
10
16.094999
20
-1.342000
30
185.298004
70
192
0
VERTEX
8
OBJECT__81
10
16.945000
20
-1.367000
30
185.149994
70
192
0
VERTEX
8
OBJECT__81
10
16.945000
20
-1.367000
30
185.000000
70
192
0
VERTEX
8
OBJECT__81
10
16.958000
20
1.164000
30
184.925995
70
192
0
VERTEX
8
OBJECT__81
10
16.983999
20
0.732000
30
186.164001
70
192
0
VERTEX
8
OBJECT__81
10
16.128000
20
0.854000
30
186.078003
70
192
0
VERTEX
8
OBJECT__81
10
16.111000
20
1.117000
30
184.940002
70
192
0
VERTEX
8
OBJECT__81
10
16.103001
20
1.240000
30
184.406006
70
192
0
VERTEX
8
OBJECT__81
10
16.950001
20
1.297000
30
184.544006
70
192
0
VERTEX
8
OBJECT__81
10
16.993999
20
0.000000
30
183.731995
70
192
0
VERTEX
8
OBJECT__81
10
16.141001
20
-0.071000
30
183.772003
70
192
0
VERTEX
8
OBJECT__81
10
16.996000
20
-0.048000
30
183.701996
70
192
0
VERTEX
8
OBJECT__81
10
16.945000
20
-1.367000
30
184.852005
70
192
0
VERTEX
8
OBJECT__81
10
16.999001
20
-0.157000
30
183.634003
70
192
0
VERTEX
8
OBJECT__81
10
16.148001
20
-0.304000
30
183.658997
70
192
0
VERTEX
8
OBJECT__81
10
0
20
0
30
0
70
128
71
1
72
2
73
3
0
VERTEX
8
OBJECT__81
10
0
20
0
30
0
70
128
71
4
72
5
73
1
0
VERTEX
8
OBJECT__81
10
0
20
0
30
0
70
128
71
6
72
7
73
8
0
VERTEX
8
OBJECT__81
10
0
20
0
30
0
70
128
71
7
72
3
73
2
0
VERTEX
8
OBJECT__81
10
0
20
0
30
0
70
128
71
2
72
8
73
7
0
VERTEX
8
OBJECT__81
10
0
20
0
30
0
70
128
71
8
72
9
73
6
0
VERTEX
8
OBJECT__81
10
0
20
0
30
0
70
128
71
10
72
11
73
12
0
VERTEX
8
OBJECT__81
10
0
20
0
30
0
70
128
71
4
72
12
73
11
0
VERTEX
8
OBJECT__81
10
0
20
0
30
0
70
128
71
11
72
5
73
4
0
VERTEX
8
OBJECT__81
10
0
20
0
30
0
70
128
71
13
72
14
73
15
0
VERTEX
8
OBJECT__81
10
0
20
0
30
0
70
128
71
16
72
15
73
14
0
VERTEX
8
OBJECT__81
10
0
20
0
30
0
70
128
71
17
72
18
73
16
0
VERTEX
8
OBJECT__81
10
0
20
0
30
0
70
128
71
14
72
17
73
16
0
VERTEX
8
OBJECT__81
10
0
20
0
30
0
70
128
71
19
72
20
73
21
0
VERTEX
8
OBJECT__81
10
0
20
0
30
0
70
128
71
6
72
9
73
19
0
VERTEX
8
OBJECT__81
10
0
20
0
30
0
70
128
71
17
72
21
73
20
0
VERTEX
8
OBJECT__81
10
0
20
0
30
0
70
128
71
20
72
18
73
17
0
VERTEX
8
OBJECT__81
10
0
20
0
30
0
70
128
71
21
72
6
73
19
0
VERTEX
8
OBJECT__81
10
0
20
0
30
0
70
128
71
15
72
10
73
13
0
VERTEX
8
OBJECT__81
10
0
20
0
30
0
70
128
71
12
72
13
73
10
0
VERTEX
8
OBJECT__81
10
0
20
0
30
0
70
128
71
3
72
4
73
1
0
SEQEND
8
OBJECT__81
0
POLYLINE
8
OBJECT__82
66
1
70
64
71
10
72
9
62
253
0
VERTEX
8
OBJECT__82
10
16.111000
20
1.117000
30
184.940002
70
192
0
VERTEX
8
OBJECT__82
10
16.128000
20
0.854000
30
186.078003
70
192
0
VERTEX
8
OBJECT__82
10
16.128000
20
0.001000
30
186.074005
70
192
0
VERTEX
8
OBJECT__82
10
16.143999
20
-0.467000
30
184.921005
70
192
0
VERTEX
8
OBJECT__82
10
16.141001
20
-0.071000
30
183.772003
70
192
0
VERTEX
8
OBJECT__82
10
16.103001
20
1.240000
30
184.406006
70
192
0
VERTEX
8
OBJECT__82
10
16.128000
20
-0.862000
30
186.070999
70
192
0
VERTEX
8
OBJECT__82
10
16.094999
20
-1.342000
30
185.298004
70
192
0
VERTEX
8
OBJECT__82
10
16.148001
20
-0.304000
30
183.658997
70
192
0
VERTEX
8
OBJECT__82
10
16.091999
20
-1.375000
30
185.000000
70
192
0
VERTEX
8
OBJECT__82
10
0
20
0
30
0
70
128
71
1
72
2
73
3
0
VERTEX
8
OBJECT__82
10
0
20
0
30
0
70
128
71
3
72
4
73
1
0
VERTEX
8
OBJECT__82
10
0
20
0
30
0
70
128
71
4
72
5
73
6
0
VERTEX
8
OBJECT__82
10
0
20
0
30
0
70
128
71
6
72
1
73
4
0
VERTEX
8
OBJECT__82
10
0
20
0
30
0
70
128
71
4
72
7
73
8
0
VERTEX
8
OBJECT__82
10
0
20
0
30
0
70
128
71
9
72
5
73
4
0
VERTEX
8
OBJECT__82
10
0
20
0
30
0
70
128
71
4
72
10
73
9
0
VERTEX
8
OBJECT__82
10
0
20
0
30
0
70
128
71
8
72
10
73
4
0
VERTEX
8
OBJECT__82
10
0
20
0
30
0
70
128
71
3
72
7
73
4
0
SEQEND
8
OBJECT__82
0
POLYLINE
8
OBJECT__83
66
1
70
64
71
19
72
19
62
253
0
VERTEX
8
OBJECT__83
10
15.230000
20
-5.375000
30
185.000000
70
192
0
VERTEX
8
OBJECT__83
10
15.241000
20
-5.346000
30
185.281998
70
192
0
VERTEX
8
OBJECT__83
10
16.129999
20
-5.369000
30
185.130005
70
192
0
VERTEX
8
OBJECT__83
10
15.405000
20
-4.852000
30
186.078995
70
192
0
VERTEX
8
OBJECT__83
10
16.256001
20
-4.974000
30
185.970001
70
192
0
VERTEX
8
OBJECT__83
10
15.622000
20
-4.003000
30
186.070999
70
192
0
VERTEX
8
OBJECT__83
10
16.507000
20
-3.969000
30
186.078003
70
192
0
VERTEX
8
OBJECT__83
10
16.761000
20
-2.833000
30
184.929001
70
192
0
VERTEX
8
OBJECT__83
10
16.686001
20
-3.254000
30
186.154999
70
192
0
VERTEX
8
OBJECT__83
10
15.845000
20
-3.128000
30
186.063004
70
192
0
VERTEX
8
OBJECT__83
10
16.502001
20
-4.059000
30
183.723999
70
192
0
VERTEX
8
OBJECT__83
10
16.784000
20
-2.702000
30
184.546997
70
192
0
VERTEX
8
OBJECT__83
10
15.913000
20
-2.762000
30
184.403000
70
192
0
VERTEX
8
OBJECT__83
10
15.891000
20
-2.881000
30
184.944000
70
192
0
VERTEX
8
OBJECT__83
10
16.129999
20
-5.368000
30
184.858002
70
192
0
VERTEX
8
OBJECT__83
10
16.474001
20
-4.198000
30
183.639008
70
192
0
VERTEX
8
OBJECT__83
10
15.551000
20
-4.360000
30
183.673004
70
192
0
VERTEX
8
OBJECT__83
10
15.615000
20
-4.079000
30
183.800995
70
192
0
VERTEX
8
OBJECT__83
10
16.129999
20
-5.368000
30
185.000000
70
192
0
VERTEX
8
OBJECT__83
10
0
20
0
30
0
70
128
71
1
72
2
73
3
0
VERTEX
8
OBJECT__83
10
0
20
0
30
0
70
128
71
2
72
4
73
5
0
VERTEX
8
OBJECT__83
10
0
20
0
30
0
70
128
71
5
72
3
73
2
0
VERTEX
8
OBJECT__83
10
0
20
0
30
0
70
128
71
5
72
4
73
6
0
VERTEX
8
OBJECT__83
10
0
20
0
30
0
70
128
71
6
72
7
73
5
0
VERTEX
8
OBJECT__83
10
0
20
0
30
0
70
128
71
8
72
9
73
10
0
VERTEX
8
OBJECT__83
10
0
20
0
30
0
70
128
71
10
72
9
73
7
0
VERTEX
8
OBJECT__83
10
0
20
0
30
0
70
128
71
7
72
6
73
10
0
VERTEX
8
OBJECT__83
10
0
20
0
30
0
70
128
71
11
72
12
73
13
0
VERTEX
8
OBJECT__83
10
0
20
0
30
0
70
128
71
14
72
13
73
12
0
VERTEX
8
OBJECT__83
10
0
20
0
30
0
70
128
71
12
72
8
73
14
0
VERTEX
8
OBJECT__83
10
0
20
0
30
0
70
128
71
15
72
16
73
17
0
VERTEX
8
OBJECT__83
10
0
20
0
30
0
70
128
71
16
72
18
73
17
0
VERTEX
8
OBJECT__83
10
0
20
0
30
0
70
128
71
1
72
19
73
15
0
VERTEX
8
OBJECT__83
10
0
20
0
30
0
70
128
71
17
72
1
73
15
0
VERTEX
8
OBJECT__83
10
0
20
0
30
0
70
128
71
16
72
11
73
18
0
VERTEX
8
OBJECT__83
10
0
20
0
30
0
70
128
71
13
72
18
73
11
0
VERTEX
8
OBJECT__83
10
0
20
0
30
0
70
128
71
10
72
14
73
8
0
VERTEX
8
OBJECT__83
10
0
20
0
30
0
70
128
71
3
72
19
73
1
0
SEQEND
8
OBJECT__83
0
POLYLINE
8
OBJECT__84
66
1
70
64
71
10
72
9
62
253
0
VERTEX
8
OBJECT__84
10
15.611000
20
-4.141000
30
184.972000
70
192
0
VERTEX
8
OBJECT__84
10
15.622000
20
-4.003000
30
186.070999
70
192
0
VERTEX
8
OBJECT__84
10
15.405000
20
-4.852000
30
186.078995
70
192
0
VERTEX
8
OBJECT__84
10
15.241000
20
-5.346000
30
185.281998
70
192
0
VERTEX
8
OBJECT__84
10
15.891000
20
-2.881000
30
184.944000
70
192
0
VERTEX
8
OBJECT__84
10
15.845000
20
-3.128000
30
186.063004
70
192
0
VERTEX
8
OBJECT__84
10
15.230000
20
-5.375000
30
185.000000
70
192
0
VERTEX
8
OBJECT__84
10
15.551000
20
-4.360000
30
183.673004
70
192
0
VERTEX
8
OBJECT__84
10
15.615000
20
-4.079000
30
183.800995
70
192
0
VERTEX
8
OBJECT__84
10
15.913000
20
-2.762000
30
184.403000
70
192
0
VERTEX
8
OBJECT__84
10
0
20
0
30
0
70
128
71
1
72
2
73
3
0
VERTEX
8
OBJECT__84
10
0
20
0
30
0
70
128
71
3
72
4
73
1
0
VERTEX
8
OBJECT__84
10
0
20
0
30
0
70
128
71
1
72
5
73
6
0
VERTEX
8
OBJECT__84
10
0
20
0
30
0
70
128
71
6
72
2
73
1
0
VERTEX
8
OBJECT__84
10
0
20
0
30
0
70
128
71
7
72
8
73
9
0
VERTEX
8
OBJECT__84
10
0
20
0
30
0
70
128
71
9
72
10
73
5
0
VERTEX
8
OBJECT__84
10
0
20
0
30
0
70
128
71
5
72
1
73
9
0
VERTEX
8
OBJECT__84
10
0
20
0
30
0
70
128
71
9
72
1
73
7
0
VERTEX
8
OBJECT__84
10
0
20
0
30
0
70
128
71
4
72
7
73
1
0
SEQEND
8
OBJECT__84
0
POLYLINE
8
OBJECT__85
66
1
70
64
71
19
72
19
62
253
0
VERTEX
8
OBJECT__85
10
15.794000
20
-3.375000
30
181.250000
70
192
0
VERTEX
8
OBJECT__85
10
15.801000
20
-3.343000
30
181.542999
70
192
0
VERTEX
8
OBJECT__85
10
16.663000
20
-3.367000
30
181.391998
70
192
0
VERTEX
8
OBJECT__85
10
15.896000
20
-2.858000
30
182.324005
70
192
0
VERTEX
8
OBJECT__85
10
16.738001
20
-2.974000
30
182.220001
70
192
0
VERTEX
8
OBJECT__85
10
16.003000
20
-2.000000
30
182.324997
70
192
0
VERTEX
8
OBJECT__85
10
16.865000
20
-1.967000
30
182.335007
70
192
0
VERTEX
8
OBJECT__85
10
16.978001
20
-0.836000
30
181.175995
70
192
0
VERTEX
8
OBJECT__85
10
16.952999
20
-1.268000
30
182.414001
70
192
0
VERTEX
8
OBJECT__85
10
16.110001
20
-1.143000
30
182.324997
70
192
0
VERTEX
8
OBJECT__85
10
16.871000
20
-2.051000
30
179.957993
70
192
0
VERTEX
8
OBJECT__85
10
16.985001
20
-0.703000
30
180.794006
70
192
0
VERTEX
8
OBJECT__85
10
16.132999
20
-0.762000
30
180.653000
70
192
0
VERTEX
8
OBJECT__85
10
16.125999
20
-0.885000
30
181.190994
70
192
0
VERTEX
8
OBJECT__85
10
16.663000
20
-3.367000
30
181.102997
70
192
0
VERTEX
8
OBJECT__85
10
16.861000
20
-2.168000
30
179.884995
70
192
0
VERTEX
8
OBJECT__85
10
15.983000
20
-2.321000
30
179.912994
70
192
0
VERTEX
8
OBJECT__85
10
16.007000
20
-2.074000
30
180.031006
70
192
0
VERTEX
8
OBJECT__85
10
16.663000
20
-3.367000
30
181.250000
70
192
0
VERTEX
8
OBJECT__85
10
0
20
0
30
0
70
128
71
1
72
2
73
3
0
VERTEX
8
OBJECT__85
10
0
20
0
30
0
70
128
71
2
72
4
73
5
0
VERTEX
8
OBJECT__85
10
0
20
0
30
0
70
128
71
5
72
3
73
2
0
VERTEX
8
OBJECT__85
10
0
20
0
30
0
70
128
71
5
72
4
73
6
0
VERTEX
8
OBJECT__85
10
0
20
0
30
0
70
128
71
6
72
7
73
5
0
VERTEX
8
OBJECT__85
10
0
20
0
30
0
70
128
71
8
72
9
73
10
0
VERTEX
8
OBJECT__85
10
0
20
0
30
0
70
128
71
10
72
9
73
7
0
VERTEX
8
OBJECT__85
10
0
20
0
30
0
70
128
71
7
72
6
73
10
0
VERTEX
8
OBJECT__85
10
0
20
0
30
0
70
128
71
11
72
12
73
13
0
VERTEX
8
OBJECT__85
10
0
20
0
30
0
70
128
71
14
72
13
73
12
0
VERTEX
8
OBJECT__85
10
0
20
0
30
0
70
128
71
12
72
8
73
14
0
VERTEX
8
OBJECT__85
10
0
20
0
30
0
70
128
71
15
72
16
73
17
0
VERTEX
8
OBJECT__85
10
0
20
0
30
0
70
128
71
16
72
18
73
17
0
VERTEX
8
OBJECT__85
10
0
20
0
30
0
70
128
71
17
72
1
73
15
0
VERTEX
8
OBJECT__85
10
0
20
0
30
0
70
128
71
1
72
19
73
15
0
VERTEX
8
OBJECT__85
10
0
20
0
30
0
70
128
71
16
72
11
73
18
0
VERTEX
8
OBJECT__85
10
0
20
0
30
0
70
128
71
13
72
18
73
11
0
VERTEX
8
OBJECT__85
10
0
20
0
30
0
70
128
71
10
72
14
73
8
0
VERTEX
8
OBJECT__85
10
0
20
0
30
0
70
128
71
3
72
19
73
1
0
SEQEND
8
OBJECT__85
0
POLYLINE
8
OBJECT__86
66
1
70
64
71
10
72
9
62
253
0
VERTEX
8
OBJECT__86
10
16.009001
20
-2.136000
30
181.220001
70
192
0
VERTEX
8
OBJECT__86
10
16.003000
20
-2.000000
30
182.324997
70
192
0
VERTEX
8
OBJECT__86
10
15.896000
20
-2.858000
30
182.324005
70
192
0
VERTEX
8
OBJECT__86
10
15.801000
20
-3.343000
30
181.542999
70
192
0
VERTEX
8
OBJECT__86
10
16.125999
20
-0.885000
30
181.190994
70
192
0
VERTEX
8
OBJECT__86
10
16.110001
20
-1.143000
30
182.324997
70
192
0
VERTEX
8
OBJECT__86
10
15.794000
20
-3.375000
30
181.250000
70
192
0
VERTEX
8
OBJECT__86
10
15.983000
20
-2.321000
30
179.912994
70
192
0
VERTEX
8
OBJECT__86
10
16.007000
20
-2.074000
30
180.031006
70
192
0
VERTEX
8
OBJECT__86
10
16.132999
20
-0.762000
30
180.653000
70
192
0
VERTEX
8
OBJECT__86
10
0
20
0
30
0
70
128
71
1
72
2
73
3
0
VERTEX
8
OBJECT__86
10
0
20
0
30
0
70
128
71
3
72
4
73
1
0
VERTEX
8
OBJECT__86
10
0
20
0
30
0
70
128
71
1
72
5
73
6
0
VERTEX
8
OBJECT__86
10
0
20
0
30
0
70
128
71
6
72
2
73
1
0
VERTEX
8
OBJECT__86
10
0
20
0
30
0
70
128
71
7
72
8
73
9
0
VERTEX
8
OBJECT__86
10
0
20
0
30
0
70
128
71
9
72
10
73
5
0
VERTEX
8
OBJECT__86
10
0
20
0
30
0
70
128
71
5
72
1
73
9
0
VERTEX
8
OBJECT__86
10
0
20
0
30
0
70
128
71
9
72
1
73
7
0
VERTEX
8
OBJECT__86
10
0
20
0
30
0
70
128
71
4
72
7
73
1
0
SEQEND
8
OBJECT__86
0
POLYLINE
8
OBJECT__87
66
1
70
64
71
19
72
19
62
253
0
VERTEX
8
OBJECT__87
10
16.857000
20
2.031000
30
182.328995
70
192
0
VERTEX
8
OBJECT__87
10
16.969000
20
1.028000
30
182.223007
70
192
0
VERTEX
8
OBJECT__87
10
16.111000
20
1.137000
30
182.320007
70
192
0
VERTEX
8
OBJECT__87
10
16.988001
20
0.634000
30
181.404007
70
192
0
VERTEX
8
OBJECT__87
10
16.138000
20
0.658000
30
181.548004
70
192
0
VERTEX
8
OBJECT__87
10
16.139000
20
0.625000
30
181.250000
70
192
0
VERTEX
8
OBJECT__87
10
16.988001
20
0.633000
30
181.250000
70
192
0
VERTEX
8
OBJECT__87
10
16.003000
20
2.000000
30
182.320007
70
192
0
VERTEX
8
OBJECT__87
10
15.895000
20
2.865000
30
182.319000
70
192
0
VERTEX
8
OBJECT__87
10
16.777000
20
2.746000
30
182.404999
70
192
0
VERTEX
8
OBJECT__87
10
16.701000
20
3.168000
30
181.179001
70
192
0
VERTEX
8
OBJECT__87
10
15.845000
20
3.122000
30
181.192001
70
192
0
VERTEX
8
OBJECT__87
10
15.822000
20
3.244000
30
180.664001
70
192
0
VERTEX
8
OBJECT__87
10
16.677000
20
3.299000
30
180.798996
70
192
0
VERTEX
8
OBJECT__87
10
16.025999
20
1.928000
30
180.024002
70
192
0
VERTEX
8
OBJECT__87
10
16.882999
20
1.950000
30
179.955994
70
192
0
VERTEX
8
OBJECT__87
10
16.988001
20
0.633000
30
181.104996
70
192
0
VERTEX
8
OBJECT__87
10
16.900999
20
1.836000
30
179.884995
70
192
0
VERTEX
8
OBJECT__87
10
16.062000
20
1.694000
30
179.910004
70
192
0
VERTEX
8
OBJECT__87
10
0
20
0
30
0
70
128
71
1
72
2
73
3
0
VERTEX
8
OBJECT__87
10
0
20
0
30
0
70
128
71
2
72
4
73
5
0
VERTEX
8
OBJECT__87
10
0
20
0
30
0
70
128
71
6
72
5
73
4
0
VERTEX
8
OBJECT__87
10
0
20
0
30
0
70
128
71
4
72
7
73
6
0
VERTEX
8
OBJECT__87
10
0
20
0
30
0
70
128
71
5
72
3
73
2
0
VERTEX
8
OBJECT__87
10
0
20
0
30
0
70
128
71
8
72
9
73
10
0
VERTEX
8
OBJECT__87
10
0
20
0
30
0
70
128
71
11
72
10
73
9
0
VERTEX
8
OBJECT__87
10
0
20
0
30
0
70
128
71
9
72
12
73
11
0
VERTEX
8
OBJECT__87
10
0
20
0
30
0
70
128
71
12
72
13
73
14
0
VERTEX
8
OBJECT__87
10
0
20
0
30
0
70
128
71
14
72
13
73
15
0
VERTEX
8
OBJECT__87
10
0
20
0
30
0
70
128
71
15
72
16
73
14
0
VERTEX
8
OBJECT__87
10
0
20
0
30
0
70
128
71
17
72
18
73
19
0
VERTEX
8
OBJECT__87
10
0
20
0
30
0
70
128
71
19
72
6
73
17
0
VERTEX
8
OBJECT__87
10
0
20
0
30
0
70
128
71
6
72
7
73
17
0
VERTEX
8
OBJECT__87
10
0
20
0
30
0
70
128
71
16
72
15
73
19
0
VERTEX
8
OBJECT__87
10
0
20
0
30
0
70
128
71
18
72
16
73
19
0
VERTEX
8
OBJECT__87
10
0
20
0
30
0
70
128
71
14
72
11
73
12
0
VERTEX
8
OBJECT__87
10
0
20
0
30
0
70
128
71
10
72
1
73
8
0
VERTEX
8
OBJECT__87
10
0
20
0
30
0
70
128
71
3
72
8
73
1
0
SEQEND
8
OBJECT__87
0
POLYLINE
8
OBJECT__88
66
1
70
64
71
10
72
9
62
253
0
VERTEX
8
OBJECT__88
10
15.845000
20
3.122000
30
181.192001
70
192
0
VERTEX
8
OBJECT__88
10
15.895000
20
2.865000
30
182.319000
70
192
0
VERTEX
8
OBJECT__88
10
16.003000
20
2.000000
30
182.320007
70
192
0
VERTEX
8
OBJECT__88
10
16.077999
20
1.534000
30
181.171997
70
192
0
VERTEX
8
OBJECT__88
10
16.025999
20
1.928000
30
180.024002
70
192
0
VERTEX
8
OBJECT__88
10
15.822000
20
3.244000
30
180.664001
70
192
0
VERTEX
8
OBJECT__88
10
16.111000
20
1.137000
30
182.320007
70
192
0
VERTEX
8
OBJECT__88
10
16.138000
20
0.658000
30
181.548004
70
192
0
VERTEX
8
OBJECT__88
10
16.062000
20
1.694000
30
179.910004
70
192
0
VERTEX
8
OBJECT__88
10
16.139000
20
0.625000
30
181.250000
70
192
0
VERTEX
8
OBJECT__88
10
0
20
0
30
0
70
128
71
1
72
2
73
3
0
VERTEX
8
OBJECT__88
10
0
20
0
30
0
70
128
71
3
72
4
73
1
0
VERTEX
8
OBJECT__88
10
0
20
0
30
0
70
128
71
4
72
5
73
6
0
VERTEX
8
OBJECT__88
10
0
20
0
30
0
70
128
71
6
72
1
73
4
0
VERTEX
8
OBJECT__88
10
0
20
0
30
0
70
128
71
4
72
7
73
8
0
VERTEX
8
OBJECT__88
10
0
20
0
30
0
70
128
71
9
72
5
73
4
0
VERTEX
8
OBJECT__88
10
0
20
0
30
0
70
128
71
4
72
10
73
9
0
VERTEX
8
OBJECT__88
10
0
20
0
30
0
70
128
71
8
72
10
73
4
0
VERTEX
8
OBJECT__88
10
0
20
0
30
0
70
128
71
3
72
7
73
4
0
SEQEND
8
OBJECT__88
0
POLYLINE
8
OBJECT__89
66
1
70
64
71
19
72
19
62
253
0
VERTEX
8
OBJECT__89
10
16.728001
20
3.030000
30
178.475006
70
192
0
VERTEX
8
OBJECT__89
10
16.795000
20
2.634000
30
177.654007
70
192
0
VERTEX
8
OBJECT__89
10
15.931000
20
2.657000
30
177.792999
70
192
0
VERTEX
8
OBJECT__89
10
15.843000
20
3.138000
30
178.570999
70
192
0
VERTEX
8
OBJECT__89
10
16.492001
20
4.028000
30
178.567001
70
192
0
VERTEX
8
OBJECT__89
10
15.936000
20
2.625000
30
177.500000
70
192
0
VERTEX
8
OBJECT__89
10
16.795000
20
2.633000
30
177.500000
70
192
0
VERTEX
8
OBJECT__89
10
15.623000
20
3.996000
30
178.559998
70
192
0
VERTEX
8
OBJECT__89
10
15.393000
20
4.888000
30
178.548996
70
192
0
VERTEX
8
OBJECT__89
10
16.316000
20
4.774000
30
178.636002
70
192
0
VERTEX
8
OBJECT__89
10
16.191000
20
5.176000
30
177.434006
70
192
0
VERTEX
8
OBJECT__89
10
15.313000
20
5.133000
30
177.445999
70
192
0
VERTEX
8
OBJECT__89
10
15.274000
20
5.249000
30
176.925003
70
192
0
VERTEX
8
OBJECT__89
10
16.152000
20
5.302000
30
177.057007
70
192
0
VERTEX
8
OBJECT__89
10
15.655000
20
3.924000
30
176.287003
70
192
0
VERTEX
8
OBJECT__89
10
16.531000
20
3.943000
30
176.220001
70
192
0
VERTEX
8
OBJECT__89
10
16.795000
20
2.632000
30
177.362000
70
192
0
VERTEX
8
OBJECT__89
10
16.566999
20
3.811000
30
176.138000
70
192
0
VERTEX
8
OBJECT__89
10
15.728000
20
3.671000
30
176.164993
70
192
0
VERTEX
8
OBJECT__89
10
0
20
0
30
0
70
128
71
1
72
2
73
3
0
VERTEX
8
OBJECT__89
10
0
20
0
30
0
70
128
71
4
72
5
73
1
0
VERTEX
8
OBJECT__89
10
0
20
0
30
0
70
128
71
6
72
3
73
2
0
VERTEX
8
OBJECT__89
10
0
20
0
30
0
70
128
71
2
72
7
73
6
0
VERTEX
8
OBJECT__89
10
0
20
0
30
0
70
128
71
3
72
4
73
1
0
VERTEX
8
OBJECT__89
10
0
20
0
30
0
70
128
71
8
72
9
73
10
0
VERTEX
8
OBJECT__89
10
0
20
0
30
0
70
128
71
11
72
10
73
9
0
VERTEX
8
OBJECT__89
10
0
20
0
30
0
70
128
71
9
72
12
73
11
0
VERTEX
8
OBJECT__89
10
0
20
0
30
0
70
128
71
12
72
13
73
14
0
VERTEX
8
OBJECT__89
10
0
20
0
30
0
70
128
71
14
72
13
73
15
0
VERTEX
8
OBJECT__89
10
0
20
0
30
0
70
128
71
15
72
16
73
14
0
VERTEX
8
OBJECT__89
10
0
20
0
30
0
70
128
71
17
72
18
73
19
0
VERTEX
8
OBJECT__89
10
0
20
0
30
0
70
128
71
19
72
6
73
17
0
VERTEX
8
OBJECT__89
10
0
20
0
30
0
70
128
71
6
72
7
73
17
0
VERTEX
8
OBJECT__89
10
0
20
0
30
0
70
128
71
16
72
15
73
19
0
VERTEX
8
OBJECT__89
10
0
20
0
30
0
70
128
71
18
72
16
73
19
0
VERTEX
8
OBJECT__89
10
0
20
0
30
0
70
128
71
14
72
11
73
12
0
VERTEX
8
OBJECT__89
10
0
20
0
30
0
70
128
71
10
72
5
73
8
0
VERTEX
8
OBJECT__89
10
0
20
0
30
0
70
128
71
4
72
8
73
5
0
SEQEND
8
OBJECT__89
0
POLYLINE
8
OBJECT__90
66
1
70
64
71
11
72
11
62
253
0
VERTEX
8
OBJECT__90
10
15.623000
20
3.996000
30
178.559998
70
192
0
VERTEX
8
OBJECT__90
10
15.843000
20
3.138000
30
178.570999
70
192
0
VERTEX
8
OBJECT__90
10
15.760000
20
3.533000
30
177.429001
70
192
0
VERTEX
8
OBJECT__90
10
15.655000
20
3.924000
30
176.287003
70
192
0
VERTEX
8
OBJECT__90
10
15.657000
20
3.965000
30
177.423996
70
192
0
VERTEX
8
OBJECT__90
10
15.313000
20
5.133000
30
177.445999
70
192
0
VERTEX
8
OBJECT__90
10
15.393000
20
4.888000
30
178.548996
70
192
0
VERTEX
8
OBJECT__90
10
15.274000
20
5.249000
30
176.925003
70
192
0
VERTEX
8
OBJECT__90
10
15.931000
20
2.657000
30
177.792999
70
192
0
VERTEX
8
OBJECT__90
10
15.728000
20
3.671000
30
176.164993
70
192
0
VERTEX
8
OBJECT__90
10
15.936000
20
2.625000
30
177.500000
70
192
0
VERTEX
8
OBJECT__90
10
0
20
0
30
0
70
128
71
1
72
2
73
3
0
VERTEX
8
OBJECT__90
10
0
20
0
30
0
70
128
71
3
72
4
73
5
0
VERTEX
8
OBJECT__90
10
0
20
0
30
0
70
128
71
5
72
6
73
7
0
VERTEX
8
OBJECT__90
10
0
20
0
30
0
70
128
71
4
72
8
73
6
0
VERTEX
8
OBJECT__90
10
0
20
0
30
0
70
128
71
6
72
5
73
4
0
VERTEX
8
OBJECT__90
10
0
20
0
30
0
70
128
71
7
72
1
73
5
0
VERTEX
8
OBJECT__90
10
0
20
0
30
0
70
128
71
3
72
2
73
9
0
VERTEX
8
OBJECT__90
10
0
20
0
30
0
70
128
71
10
72
4
73
3
0
VERTEX
8
OBJECT__90
10
0
20
0
30
0
70
128
71
3
72
11
73
10
0
VERTEX
8
OBJECT__90
10
0
20
0
30
0
70
128
71
9
72
11
73
3
0
VERTEX
8
OBJECT__90
10
0
20
0
30
0
70
128
71
3
72
5
73
1
0
SEQEND
8
OBJECT__90
0
POLYLINE
8
OBJECT__91
66
1
70
64
71
19
72
19
62
253
0
VERTEX
8
OBJECT__91
10
16.238001
20
5.033000
30
159.727005
70
192
0
VERTEX
8
OBJECT__91
10
15.466000
20
4.653000
30
159.024002
70
192
0
VERTEX
8
OBJECT__91
10
15.312000
20
5.136000
30
159.820007
70
192
0
VERTEX
8
OBJECT__91
10
15.869000
20
6.022000
30
159.798004
70
192
0
VERTEX
8
OBJECT__91
10
15.475000
20
4.625000
30
158.750000
70
192
0
VERTEX
8
OBJECT__91
10
16.356001
20
4.633000
30
158.899002
70
192
0
VERTEX
8
OBJECT__91
10
16.357000
20
4.632000
30
158.750000
70
192
0
VERTEX
8
OBJECT__91
10
15.404000
20
7.187000
30
158.690994
70
192
0
VERTEX
8
OBJECT__91
10
15.572000
20
6.819000
30
159.854004
70
192
0
VERTEX
8
OBJECT__91
10
14.592000
20
6.923000
30
159.768997
70
192
0
VERTEX
8
OBJECT__91
10
14.968000
20
5.991000
30
159.796005
70
192
0
VERTEX
8
OBJECT__91
10
14.481000
20
7.150000
30
158.701996
70
192
0
VERTEX
8
OBJECT__91
10
14.429000
20
7.258000
30
158.194000
70
192
0
VERTEX
8
OBJECT__91
10
15.350000
20
7.305000
30
158.317993
70
192
0
VERTEX
8
OBJECT__91
10
15.013000
20
5.916000
30
157.563004
70
192
0
VERTEX
8
OBJECT__91
10
15.923000
20
5.931000
30
157.496994
70
192
0
VERTEX
8
OBJECT__91
10
15.994000
20
5.761000
30
157.395996
70
192
0
VERTEX
8
OBJECT__91
10
15.139000
20
5.627000
30
157.427002
70
192
0
VERTEX
8
OBJECT__91
10
16.357000
20
4.631000
30
158.626007
70
192
0
VERTEX
8
OBJECT__91
10
0
20
0
30
0
70
128
71
1
72
2
73
3
0
VERTEX
8
OBJECT__91
10
0
20
0
30
0
70
128
71
3
72
4
73
1
0
VERTEX
8
OBJECT__91
10
0
20
0
30
0
70
128
71
5
72
2
73
6
0
VERTEX
8
OBJECT__91
10
0
20
0
30
0
70
128
71
6
72
7
73
5
0
VERTEX
8
OBJECT__91
10
0
20
0
30
0
70
128
71
1
72
6
73
2
0
VERTEX
8
OBJECT__91
10
0
20
0
30
0
70
128
71
8
72
9
73
10
0
VERTEX
8
OBJECT__91
10
0
20
0
30
0
70
128
71
9
72
11
73
10
0
VERTEX
8
OBJECT__91
10
0
20
0
30
0
70
128
71
10
72
12
73
8
0
VERTEX
8
OBJECT__91
10
0
20
0
30
0
70
128
71
12
72
13
73
14
0
VERTEX
8
OBJECT__91
10
0
20
0
30
0
70
128
71
14
72
13
73
15
0
VERTEX
8
OBJECT__91
10
0
20
0
30
0
70
128
71
15
72
16
73
14
0
VERTEX
8
OBJECT__91
10
0
20
0
30
0
70
128
71
17
72
18
73
5
0
VERTEX
8
OBJECT__91
10
0
20
0
30
0
70
128
71
5
72
19
73
17
0
VERTEX
8
OBJECT__91
10
0
20
0
30
0
70
128
71
5
72
7
73
19
0
VERTEX
8
OBJECT__91
10
0
20
0
30
0
70
128
71
16
72
15
73
18
0
VERTEX
8
OBJECT__91
10
0
20
0
30
0
70
128
71
17
72
16
73
18
0
VERTEX
8
OBJECT__91
10
0
20
0
30
0
70
128
71
14
72
8
73
12
0
VERTEX
8
OBJECT__91
10
0
20
0
30
0
70
128
71
9
72
4
73
11
0
VERTEX
8
OBJECT__91
10
0
20
0
30
0
70
128
71
3
72
11
73
4
0
SEQEND
8
OBJECT__91
0
POLYLINE
8
OBJECT__92
66
1
70
64
71
10
72
9
62
253
0
VERTEX
8
OBJECT__92
10
14.481000
20
7.150000
30
158.701996
70
192
0
VERTEX
8
OBJECT__92
10
14.592000
20
6.923000
30
159.768997
70
192
0
VERTEX
8
OBJECT__92
10
14.968000
20
5.991000
30
159.796005
70
192
0
VERTEX
8
OBJECT__92
10
15.174000
20
5.531000
30
158.690994
70
192
0
VERTEX
8
OBJECT__92
10
15.013000
20
5.916000
30
157.563004
70
192
0
VERTEX
8
OBJECT__92
10
14.429000
20
7.258000
30
158.194000
70
192
0
VERTEX
8
OBJECT__92
10
15.312000
20
5.136000
30
159.820007
70
192
0
VERTEX
8
OBJECT__92
10
15.466000
20
4.653000
30
159.024002
70
192
0
VERTEX
8
OBJECT__92
10
15.139000
20
5.627000
30
157.427002
70
192
0
VERTEX
8
OBJECT__92
10
15.475000
20
4.625000
30
158.750000
70
192
0
VERTEX
8
OBJECT__92
10
0
20
0
30
0
70
128
71
1
72
2
73
3
0
VERTEX
8
OBJECT__92
10
0
20
0
30
0
70
128
71
3
72
4
73
1
0
VERTEX
8
OBJECT__92
10
0
20
0
30
0
70
128
71
5
72
6
73
1
0
VERTEX
8
OBJECT__92
10
0
20
0
30
0
70
128
71
1
72
4
73
5
0
VERTEX
8
OBJECT__92
10
0
20
0
30
0
70
128
71
4
72
7
73
8
0
VERTEX
8
OBJECT__92
10
0
20
0
30
0
70
128
71
9
72
5
73
4
0
VERTEX
8
OBJECT__92
10
0
20
0
30
0
70
128
71
4
72
10
73
9
0
VERTEX
8
OBJECT__92
10
0
20
0
30
0
70
128
71
8
72
10
73
4
0
VERTEX
8
OBJECT__92
10
0
20
0
30
0
70
128
71
3
72
7
73
4
0
SEQEND
8
OBJECT__92
0
POLYLINE
8
OBJECT__93
66
1
70
64
71
21
72
21
62
253
0
VERTEX
8
OBJECT__93
10
16.979000
20
0.000000
30
156.080994
70
192
0
VERTEX
8
OBJECT__93
10
16.972000
20
-0.973000
30
155.970993
70
192
0
VERTEX
8
OBJECT__93
10
16.128000
20
-0.862000
30
156.070999
70
192
0
VERTEX
8
OBJECT__93
10
16.128000
20
0.001000
30
156.074005
70
192
0
VERTEX
8
OBJECT__93
10
16.979000
20
0.033000
30
156.085007
70
192
0
VERTEX
8
OBJECT__93
10
16.091999
20
-1.375000
30
155.000000
70
192
0
VERTEX
8
OBJECT__93
10
16.094999
20
-1.342000
30
155.298004
70
192
0
VERTEX
8
OBJECT__93
10
16.945000
20
-1.367000
30
155.149994
70
192
0
VERTEX
8
OBJECT__93
10
16.945000
20
-1.367000
30
155.000000
70
192
0
VERTEX
8
OBJECT__93
10
16.958000
20
1.164000
30
154.925995
70
192
0
VERTEX
8
OBJECT__93
10
16.983999
20
0.732000
30
156.164001
70
192
0
VERTEX
8
OBJECT__93
10
16.128000
20
0.854000
30
156.078003
70
192
0
VERTEX
8
OBJECT__93
10
16.111000
20
1.117000
30
154.940002
70
192
0
VERTEX
8
OBJECT__93
10
16.103001
20
1.240000
30
154.406006
70
192
0
VERTEX
8
OBJECT__93
10
16.950001
20
1.297000
30
154.544006
70
192
0
VERTEX
8
OBJECT__93
10
16.993999
20
0.000000
30
153.731995
70
192
0
VERTEX
8
OBJECT__93
10
16.141001
20
-0.071000
30
153.772003
70
192
0
VERTEX
8
OBJECT__93
10
16.996000
20
-0.048000
30
153.701996
70
192
0
VERTEX
8
OBJECT__93
10
16.945000
20
-1.367000
30
154.852005
70
192
0
VERTEX
8
OBJECT__93
10
16.999001
20
-0.157000
30
153.634003
70
192
0
VERTEX
8
OBJECT__93
10
16.148001
20
-0.304000
30
153.658997
70
192
0
VERTEX
8
OBJECT__93
10
0
20
0
30
0
70
128
71
1
72
2
73
3
0
VERTEX
8
OBJECT__93
10
0
20
0
30
0
70
128
71
4
72
5
73
1
0
VERTEX
8
OBJECT__93
10
0
20
0
30
0
70
128
71
6
72
7
73
8
0
VERTEX
8
OBJECT__93
10
0
20
0
30
0
70
128
71
7
72
3
73
2
0
VERTEX
8
OBJECT__93
10
0
20
0
30
0
70
128
71
2
72
8
73
7
0
VERTEX
8
OBJECT__93
10
0
20
0
30
0
70
128
71
8
72
9
73
6
0
VERTEX
8
OBJECT__93
10
0
20
0
30
0
70
128
71
10
72
11
73
12
0
VERTEX
8
OBJECT__93
10
0
20
0
30
0
70
128
71
4
72
12
73
11
0
VERTEX
8
OBJECT__93
10
0
20
0
30
0
70
128
71
11
72
5
73
4
0
VERTEX
8
OBJECT__93
10
0
20
0
30
0
70
128
71
13
72
14
73
15
0
VERTEX
8
OBJECT__93
10
0
20
0
30
0
70
128
71
16
72
15
73
14
0
VERTEX
8
OBJECT__93
10
0
20
0
30
0
70
128
71
17
72
18
73
16
0
VERTEX
8
OBJECT__93
10
0
20
0
30
0
70
128
71
14
72
17
73
16
0
VERTEX
8
OBJECT__93
10
0
20
0
30
0
70
128
71
19
72
20
73
21
0
VERTEX
8
OBJECT__93
10
0
20
0
30
0
70
128
71
6
72
9
73
19
0
VERTEX
8
OBJECT__93
10
0
20
0
30
0
70
128
71
17
72
21
73
20
0
VERTEX
8
OBJECT__93
10
0
20
0
30
0
70
128
71
20
72
18
73
17
0
VERTEX
8
OBJECT__93
10
0
20
0
30
0
70
128
71
21
72
6
73
19
0
VERTEX
8
OBJECT__93
10
0
20
0
30
0
70
128
71
15
72
10
73
13
0
VERTEX
8
OBJECT__93
10
0
20
0
30
0
70
128
71
12
72
13
73
10
0
VERTEX
8
OBJECT__93
10
0
20
0
30
0
70
128
71
3
72
4
73
1
0
SEQEND
8
OBJECT__93
0
POLYLINE
8
OBJECT__94
66
1
70
64
71
10
72
9
62
253
0
VERTEX
8
OBJECT__94
10
16.111000
20
1.117000
30
154.940002
70
192
0
VERTEX
8
OBJECT__94
10
16.128000
20
0.854000
30
156.078003
70
192
0
VERTEX
8
OBJECT__94
10
16.128000
20
0.001000
30
156.074005
70
192
0
VERTEX
8
OBJECT__94
10
16.143999
20
-0.467000
30
154.921005
70
192
0
VERTEX
8
OBJECT__94
10
16.141001
20
-0.071000
30
153.772003
70
192
0
VERTEX
8
OBJECT__94
10
16.103001
20
1.240000
30
154.406006
70
192
0
VERTEX
8
OBJECT__94
10
16.128000
20
-0.862000
30
156.070999
70
192
0
VERTEX
8
OBJECT__94
10
16.094999
20
-1.342000
30
155.298004
70
192
0
VERTEX
8
OBJECT__94
10
16.148001
20
-0.304000
30
153.658997
70
192
0
VERTEX
8
OBJECT__94
10
16.091999
20
-1.375000
30
155.000000
70
192
0
VERTEX
8
OBJECT__94
10
0
20
0
30
0
70
128
71
1
72
2
73
3
0
VERTEX
8
OBJECT__94
10
0
20
0
30
0
70
128
71
3
72
4
73
1
0
VERTEX
8
OBJECT__94
10
0
20
0
30
0
70
128
71
4
72
5
73
6
0
VERTEX
8
OBJECT__94
10
0
20
0
30
0
70
128
71
6
72
1
73
4
0
VERTEX
8
OBJECT__94
10
0
20
0
30
0
70
128
71
4
72
7
73
8
0
VERTEX
8
OBJECT__94
10
0
20
0
30
0
70
128
71
9
72
5
73
4
0
VERTEX
8
OBJECT__94
10
0
20
0
30
0
70
128
71
4
72
10
73
9
0
VERTEX
8
OBJECT__94
10
0
20
0
30
0
70
128
71
8
72
10
73
4
0
VERTEX
8
OBJECT__94
10
0
20
0
30
0
70
128
71
3
72
7
73
4
0
SEQEND
8
OBJECT__94
0
POLYLINE
8
OBJECT__95
66
1
70
64
71
19
72
19
62
253
0
VERTEX
8
OBJECT__95
10
15.230000
20
-5.375000
30
155.000000
70
192
0
VERTEX
8
OBJECT__95
10
15.241000
20
-5.346000
30
155.281998
70
192
0
VERTEX
8
OBJECT__95
10
16.129999
20
-5.369000
30
155.130005
70
192
0
VERTEX
8
OBJECT__95
10
15.405000
20
-4.852000
30
156.078995
70
192
0
VERTEX
8
OBJECT__95
10
16.256001
20
-4.974000
30
155.970001
70
192
0
VERTEX
8
OBJECT__95
10
15.622000
20
-4.003000
30
156.070999
70
192
0
VERTEX
8
OBJECT__95
10
16.507000
20
-3.969000
30
156.078003
70
192
0
VERTEX
8
OBJECT__95
10
16.761000
20
-2.833000
30
154.929001
70
192
0
VERTEX
8
OBJECT__95
10
16.686001
20
-3.254000
30
156.154999
70
192
0
VERTEX
8
OBJECT__95
10
15.845000
20
-3.128000
30
156.063004
70
192
0
VERTEX
8
OBJECT__95
10
16.502001
20
-4.059000
30
153.723999
70
192
0
VERTEX
8
OBJECT__95
10
16.784000
20
-2.702000
30
154.546997
70
192
0
VERTEX
8
OBJECT__95
10
15.913000
20
-2.762000
30
154.403000
70
192
0
VERTEX
8
OBJECT__95
10
15.891000
20
-2.881000
30
154.944000
70
192
0
VERTEX
8
OBJECT__95
10
16.129999
20
-5.368000
30
154.858002
70
192
0
VERTEX
8
OBJECT__95
10
16.474001
20
-4.198000
30
153.639008
70
192
0
VERTEX
8
OBJECT__95
10
15.551000
20
-4.360000
30
153.673004
70
192
0
VERTEX
8
OBJECT__95
10
15.615000
20
-4.079000
30
153.800995
70
192
0
VERTEX
8
OBJECT__95
10
16.129999
20
-5.368000
30
155.000000
70
192
0
VERTEX
8
OBJECT__95
10
0
20
0
30
0
70
128
71
1
72
2
73
3
0
VERTEX
8
OBJECT__95
10
0
20
0
30
0
70
128
71
2
72
4
73
5
0
VERTEX
8
OBJECT__95
10
0
20
0
30
0
70
128
71
5
72
3
73
2
0
VERTEX
8
OBJECT__95
10
0
20
0
30
0
70
128
71
5
72
4
73
6
0
VERTEX
8
OBJECT__95
10
0
20
0
30
0
70
128
71
6
72
7
73
5
0
VERTEX
8
OBJECT__95
10
0
20
0
30
0
70
128
71
8
72
9
73
10
0
VERTEX
8
OBJECT__95
10
0
20
0
30
0
70
128
71
10
72
9
73
7
0
VERTEX
8
OBJECT__95
10
0
20
0
30
0
70
128
71
7
72
6
73
10
0
VERTEX
8
OBJECT__95
10
0
20
0
30
0
70
128
71
11
72
12
73
13
0
VERTEX
8
OBJECT__95
10
0
20
0
30
0
70
128
71
14
72
13
73
12
0
VERTEX
8
OBJECT__95
10
0
20
0
30
0
70
128
71
12
72
8
73
14
0
VERTEX
8
OBJECT__95
10
0
20
0
30
0
70
128
71
15
72
16
73
17
0
VERTEX
8
OBJECT__95
10
0
20
0
30
0
70
128
71
16
72
18
73
17
0
VERTEX
8
OBJECT__95
10
0
20
0
30
0
70
128
71
1
72
19
73
15
0
VERTEX
8
OBJECT__95
10
0
20
0
30
0
70
128
71
17
72
1
73
15
0
VERTEX
8
OBJECT__95
10
0
20
0
30
0
70
128
71
16
72
11
73
18
0
VERTEX
8
OBJECT__95
10
0
20
0
30
0
70
128
71
13
72
18
73
11
0
VERTEX
8
OBJECT__95
10
0
20
0
30
0
70
128
71
10
72
14
73
8
0
VERTEX
8
OBJECT__95
10
0
20
0
30
0
70
128
71
3
72
19
73
1
0
SEQEND
8
OBJECT__95
0
POLYLINE
8
OBJECT__96
66
1
70
64
71
10
72
9
62
253
0
VERTEX
8
OBJECT__96
10
15.611000
20
-4.141000
30
154.972000
70
192
0
VERTEX
8
OBJECT__96
10
15.622000
20
-4.003000
30
156.070999
70
192
0
VERTEX
8
OBJECT__96
10
15.405000
20
-4.852000
30
156.078995
70
192
0
VERTEX
8
OBJECT__96
10
15.241000
20
-5.346000
30
155.281998
70
192
0
VERTEX
8
OBJECT__96
10
15.891000
20
-2.881000
30
154.944000
70
192
0
VERTEX
8
OBJECT__96
10
15.845000
20
-3.128000
30
156.063004
70
192
0
VERTEX
8
OBJECT__96
10
15.230000
20
-5.375000
30
155.000000
70
192
0
VERTEX
8
OBJECT__96
10
15.551000
20
-4.360000
30
153.673004
70
192
0
VERTEX
8
OBJECT__96
10
15.615000
20
-4.079000
30
153.800995
70
192
0
VERTEX
8
OBJECT__96
10
15.913000
20
-2.762000
30
154.403000
70
192
0
VERTEX
8
OBJECT__96
10
0
20
0
30
0
70
128
71
1
72
2
73
3
0
VERTEX
8
OBJECT__96
10
0
20
0
30
0
70
128
71
3
72
4
73
1
0
VERTEX
8
OBJECT__96
10
0
20
0
30
0
70
128
71
1
72
5
73
6
0
VERTEX
8
OBJECT__96
10
0
20
0
30
0
70
128
71
6
72
2
73
1
0
VERTEX
8
OBJECT__96
10
0
20
0
30
0
70
128
71
7
72
8
73
9
0
VERTEX
8
OBJECT__96
10
0
20
0
30
0
70
128
71
9
72
10
73
5
0
VERTEX
8
OBJECT__96
10
0
20
0
30
0
70
128
71
5
72
1
73
9
0
VERTEX
8
OBJECT__96
10
0
20
0
30
0
70
128
71
9
72
1
73
7
0
VERTEX
8
OBJECT__96
10
0
20
0
30
0
70
128
71
4
72
7
73
1
0
SEQEND
8
OBJECT__96
0
POLYLINE
8
OBJECT__97
66
1
70
64
71
21
72
21
62
253
0
VERTEX
8
OBJECT__97
10
16.857000
20
2.031000
30
174.828995
70
192
0
VERTEX
8
OBJECT__97
10
16.969000
20
1.028000
30
174.723007
70
192
0
VERTEX
8
OBJECT__97
10
16.111000
20
1.137000
30
174.820007
70
192
0
VERTEX
8
OBJECT__97
10
16.988001
20
0.634000
30
173.904007
70
192
0
VERTEX
8
OBJECT__97
10
16.138000
20
0.658000
30
174.048004
70
192
0
VERTEX
8
OBJECT__97
10
16.139000
20
0.625000
30
173.750000
70
192
0
VERTEX
8
OBJECT__97
10
16.988001
20
0.633000
30
173.806000
70
192
0
VERTEX
8
OBJECT__97
10
16.988001
20
0.633000
30
173.750000
70
192
0
VERTEX
8
OBJECT__97
10
16.003000
20
2.000000
30
174.820007
70
192
0
VERTEX
8
OBJECT__97
10
15.895000
20
2.865000
30
174.819000
70
192
0
VERTEX
8
OBJECT__97
10
16.777000
20
2.746000
30
174.904999
70
192
0
VERTEX
8
OBJECT__97
10
16.708000
20
3.124000
30
173.806000
70
192
0
VERTEX
8
OBJECT__97
10
15.845000
20
3.122000
30
173.692001
70
192
0
VERTEX
8
OBJECT__97
10
16.701000
20
3.168000
30
173.679001
70
192
0
VERTEX
8
OBJECT__97
10
15.822000
20
3.244000
30
173.164001
70
192
0
VERTEX
8
OBJECT__97
10
16.677000
20
3.299000
30
173.298996
70
192
0
VERTEX
8
OBJECT__97
10
16.025999
20
1.928000
30
172.524002
70
192
0
VERTEX
8
OBJECT__97
10
16.882999
20
1.950000
30
172.455994
70
192
0
VERTEX
8
OBJECT__97
10
16.988001
20
0.633000
30
173.604996
70
192
0
VERTEX
8
OBJECT__97
10
16.900999
20
1.836000
30
172.384995
70
192
0
VERTEX
8
OBJECT__97
10
16.062000
20
1.694000
30
172.410004
70
192
0
VERTEX
8
OBJECT__97
10
0
20
0
30
0
70
128
71
1
72
2
73
3
0
VERTEX
8
OBJECT__97
10
0
20
0
30
0
70
128
71
2
72
4
73
5
0
VERTEX
8
OBJECT__97
10
0
20
0
30
0
70
128
71
6
72
5
73
4
0
VERTEX
8
OBJECT__97
10
0
20
0
30
0
70
128
71
4
72
7
73
6
0
VERTEX
8
OBJECT__97
10
0
20
0
30
0
70
128
71
7
72
8
73
6
0
VERTEX
8
OBJECT__97
10
0
20
0
30
0
70
128
71
5
72
3
73
2
0
VERTEX
8
OBJECT__97
10
0
20
0
30
0
70
128
71
9
72
10
73
11
0
VERTEX
8
OBJECT__97
10
0
20
0
30
0
70
128
71
12
72
11
73
10
0
VERTEX
8
OBJECT__97
10
0
20
0
30
0
70
128
71
13
72
14
73
12
0
VERTEX
8
OBJECT__97
10
0
20
0
30
0
70
128
71
10
72
13
73
12
0
VERTEX
8
OBJECT__97
10
0
20
0
30
0
70
128
71
13
72
15
73
16
0
VERTEX
8
OBJECT__97
10
0
20
0
30
0
70
128
71
16
72
15
73
17
0
VERTEX
8
OBJECT__97
10
0
20
0
30
0
70
128
71
17
72
18
73
16
0
VERTEX
8
OBJECT__97
10
0
20
0
30
0
70
128
71
19
72
20
73
21
0
VERTEX
8
OBJECT__97
10
0
20
0
30
0
70
128
71
21
72
6
73
19
0
VERTEX
8
OBJECT__97
10
0
20
0
30
0
70
128
71
6
72
8
73
19
0
VERTEX
8
OBJECT__97
10
0
20
0
30
0
70
128
71
18
72
17
73
21
0
VERTEX
8
OBJECT__97
10
0
20
0
30
0
70
128
71
20
72
18
73
21
0
VERTEX
8
OBJECT__97
10
0
20
0
30
0
70
128
71
16
72
14
73
13
0
VERTEX
8
OBJECT__97
10
0
20
0
30
0
70
128
71
11
72
1
73
9
0
VERTEX
8
OBJECT__97
10
0
20
0
30
0
70
128
71
3
72
9
73
1
0
SEQEND
8
OBJECT__97
0
POLYLINE
8
OBJECT__98
66
1
70
64
71
10
72
9
62
253
0
VERTEX
8
OBJECT__98
10
15.845000
20
3.122000
30
173.692001
70
192
0
VERTEX
8
OBJECT__98
10
15.895000
20
2.865000
30
174.819000
70
192
0
VERTEX
8
OBJECT__98
10
16.003000
20
2.000000
30
174.820007
70
192
0
VERTEX
8
OBJECT__98
10
16.077999
20
1.534000
30
173.671997
70
192
0
VERTEX
8
OBJECT__98
10
16.025999
20
1.928000
30
172.524002
70
192
0
VERTEX
8
OBJECT__98
10
15.822000
20
3.244000
30
173.164001
70
192
0
VERTEX
8
OBJECT__98
10
16.111000
20
1.137000
30
174.820007
70
192
0
VERTEX
8
OBJECT__98
10
16.138000
20
0.658000
30
174.048004
70
192
0
VERTEX
8
OBJECT__98
10
16.062000
20
1.694000
30
172.410004
70
192
0
VERTEX
8
OBJECT__98
10
16.139000
20
0.625000
30
173.750000
70
192
0
VERTEX
8
OBJECT__98
10
0
20
0
30
0
70
128
71
1
72
2
73
3
0
VERTEX
8
OBJECT__98
10
0
20
0
30
0
70
128
71
3
72
4
73
1
0
VERTEX
8
OBJECT__98
10
0
20
0
30
0
70
128
71
4
72
5
73
6
0
VERTEX
8
OBJECT__98
10
0
20
0
30
0
70
128
71
6
72
1
73
4
0
VERTEX
8
OBJECT__98
10
0
20
0
30
0
70
128
71
4
72
7
73
8
0
VERTEX
8
OBJECT__98
10
0
20
0
30
0
70
128
71
9
72
5
73
4
0
VERTEX
8
OBJECT__98
10
0
20
0
30
0
70
128
71
4
72
10
73
9
0
VERTEX
8
OBJECT__98
10
0
20
0
30
0
70
128
71
8
72
10
73
4
0
VERTEX
8
OBJECT__98
10
0
20
0
30
0
70
128
71
3
72
7
73
4
0
SEQEND
8
OBJECT__98
0
POLYLINE
8
OBJECT__99
66
1
70
64
71
21
72
21
62
253
0
VERTEX
8
OBJECT__99
10
15.794000
20
-3.375000
30
173.750000
70
192
0
VERTEX
8
OBJECT__99
10
15.801000
20
-3.343000
30
174.042999
70
192
0
VERTEX
8
OBJECT__99
10
16.663000
20
-3.367000
30
173.891998
70
192
0
VERTEX
8
OBJECT__99
10
16.663000
20
-3.367000
30
173.806000
70
192
0
VERTEX
8
OBJECT__99
10
15.896000
20
-2.858000
30
174.824005
70
192
0
VERTEX
8
OBJECT__99
10
16.738001
20
-2.974000
30
174.720001
70
192
0
VERTEX
8
OBJECT__99
10
16.003000
20
-2.000000
30
174.824997
70
192
0
VERTEX
8
OBJECT__99
10
16.865000
20
-1.967000
30
174.835007
70
192
0
VERTEX
8
OBJECT__99
10
16.975000
20
-0.882000
30
173.806000
70
192
0
VERTEX
8
OBJECT__99
10
16.952999
20
-1.268000
30
174.914001
70
192
0
VERTEX
8
OBJECT__99
10
16.110001
20
-1.143000
30
174.824997
70
192
0
VERTEX
8
OBJECT__99
10
16.125999
20
-0.885000
30
173.690994
70
192
0
VERTEX
8
OBJECT__99
10
16.978001
20
-0.836000
30
173.675995
70
192
0
VERTEX
8
OBJECT__99
10
16.871000
20
-2.051000
30
172.457993
70
192
0
VERTEX
8
OBJECT__99
10
16.985001
20
-0.703000
30
173.294006
70
192
0
VERTEX
8
OBJECT__99
10
16.132999
20
-0.762000
30
173.153000
70
192
0
VERTEX
8
OBJECT__99
10
16.663000
20
-3.367000
30
173.602997
70
192
0
VERTEX
8
OBJECT__99
10
16.861000
20
-2.168000
30
172.384995
70
192
0
VERTEX
8
OBJECT__99
10
15.983000
20
-2.321000
30
172.412994
70
192
0
VERTEX
8
OBJECT__99
10
16.007000
20
-2.074000
30
172.531006
70
192
0
VERTEX
8
OBJECT__99
10
16.663000
20
-3.367000
30
173.750000
70
192
0
VERTEX
8
OBJECT__99
10
0
20
0
30
0
70
128
71
1
72
2
73
3
0
VERTEX
8
OBJECT__99
10
0
20
0
30
0
70
128
71
3
72
4
73
1
0
VERTEX
8
OBJECT__99
10
0
20
0
30
0
70
128
71
2
72
5
73
6
0
VERTEX
8
OBJECT__99
10
0
20
0
30
0
70
128
71
6
72
3
73
2
0
VERTEX
8
OBJECT__99
10
0
20
0
30
0
70
128
71
6
72
5
73
7
0
VERTEX
8
OBJECT__99
10
0
20
0
30
0
70
128
71
7
72
8
73
6
0
VERTEX
8
OBJECT__99
10
0
20
0
30
0
70
128
71
9
72
10
73
11
0
VERTEX
8
OBJECT__99
10
0
20
0
30
0
70
128
71
12
72
13
73
9
0
VERTEX
8
OBJECT__99
10
0
20
0
30
0
70
128
71
11
72
10
73
8
0
VERTEX
8
OBJECT__99
10
0
20
0
30
0
70
128
71
8
72
7
73
11
0
VERTEX
8
OBJECT__99
10
0
20
0
30
0
70
128
71
14
72
15
73
16
0
VERTEX
8
OBJECT__99
10
0
20
0
30
0
70
128
71
12
72
16
73
15
0
VERTEX
8
OBJECT__99
10
0
20
0
30
0
70
128
71
15
72
13
73
12
0
VERTEX
8
OBJECT__99
10
0
20
0
30
0
70
128
71
17
72
18
73
19
0
VERTEX
8
OBJECT__99
10
0
20
0
30
0
70
128
71
18
72
20
73
19
0
VERTEX
8
OBJECT__99
10
0
20
0
30
0
70
128
71
19
72
1
73
17
0
VERTEX
8
OBJECT__99
10
0
20
0
30
0
70
128
71
1
72
21
73
17
0
VERTEX
8
OBJECT__99
10
0
20
0
30
0
70
128
71
18
72
14
73
20
0
VERTEX
8
OBJECT__99
10
0
20
0
30
0
70
128
71
16
72
20
73
14
0
VERTEX
8
OBJECT__99
10
0
20
0
30
0
70
128
71
11
72
12
73
9
0
VERTEX
8
OBJECT__99
10
0
20
0
30
0
70
128
71
4
72
21
73
1
0
SEQEND
8
OBJECT__99
0
POLYLINE
8
OBJECT__100
66
1
70
64
71
10
72
9
62
253
0
VERTEX
8
OBJECT__100
10
16.009001
20
-2.136000
30
173.720001
70
192
0
VERTEX
8
OBJECT__100
10
16.003000
20
-2.000000
30
174.824997
70
192
0
VERTEX
8
OBJECT__100
10
15.896000
20
-2.858000
30
174.824005
70
192
0
VERTEX
8
OBJECT__100
10
15.801000
20
-3.343000
30
174.042999
70
192
0
VERTEX
8
OBJECT__100
10
16.125999
20
-0.885000
30
173.690994
70
192
0
VERTEX
8
OBJECT__100
10
16.110001
20
-1.143000
30
174.824997
70
192
0
VERTEX
8
OBJECT__100
10
15.794000
20
-3.375000
30
173.750000
70
192
0
VERTEX
8
OBJECT__100
10
15.983000
20
-2.321000
30
172.412994
70
192
0
VERTEX
8
OBJECT__100
10
16.007000
20
-2.074000
30
172.531006
70
192
0
VERTEX
8
OBJECT__100
10
16.132999
20
-0.762000
30
173.153000
70
192
0
VERTEX
8
OBJECT__100
10
0
20
0
30
0
70
128
71
1
72
2
73
3
0
VERTEX
8
OBJECT__100
10
0
20
0
30
0
70
128
71
3
72
4
73
1
0
VERTEX
8
OBJECT__100
10
0
20
0
30
0
70
128
71
1
72
5
73
6
0
VERTEX
8
OBJECT__100
10
0
20
0
30
0
70
128
71
6
72
2
73
1
0
VERTEX
8
OBJECT__100
10
0
20
0
30
0
70
128
71
7
72
8
73
9
0
VERTEX
8
OBJECT__100
10
0
20
0
30
0
70
128
71
9
72
10
73
5
0
VERTEX
8
OBJECT__100
10
0
20
0
30
0
70
128
71
5
72
1
73
9
0
VERTEX
8
OBJECT__100
10
0
20
0
30
0
70
128
71
9
72
1
73
7
0
VERTEX
8
OBJECT__100
10
0
20
0
30
0
70
128
71
4
72
7
73
1
0
SEQEND
8
OBJECT__100
0
POLYLINE
8
OBJECT__101
66
1
70
64
71
21
72
21
62
253
0
VERTEX
8
OBJECT__101
10
14.369000
20
-7.375000
30
173.750000
70
192
0
VERTEX
8
OBJECT__101
10
14.381000
20
-7.351000
30
174.007004
70
192
0
VERTEX
8
OBJECT__101
10
15.319000
20
-7.371000
30
173.858994
70
192
0
VERTEX
8
OBJECT__101
10
15.319000
20
-7.370000
30
173.806000
70
192
0
VERTEX
8
OBJECT__101
10
14.630000
20
-6.843000
30
174.835999
70
192
0
VERTEX
8
OBJECT__101
10
15.504000
20
-6.974000
30
174.720001
70
192
0
VERTEX
8
OBJECT__101
10
14.963000
20
-6.008000
30
174.813995
70
192
0
VERTEX
8
OBJECT__101
10
15.890000
20
-5.972000
30
174.815002
70
192
0
VERTEX
8
OBJECT__101
10
16.287001
20
-4.866000
30
173.806000
70
192
0
VERTEX
8
OBJECT__101
10
16.177000
20
-5.226000
30
174.886002
70
192
0
VERTEX
8
OBJECT__101
10
15.324000
20
-5.102000
30
174.791000
70
192
0
VERTEX
8
OBJECT__101
10
15.398000
20
-4.872000
30
173.697998
70
192
0
VERTEX
8
OBJECT__101
10
16.299000
20
-4.825000
30
173.684006
70
192
0
VERTEX
8
OBJECT__101
10
15.870000
20
-6.073000
30
172.503998
70
192
0
VERTEX
8
OBJECT__101
10
16.337999
20
-4.699000
30
173.304993
70
192
0
VERTEX
8
OBJECT__101
10
15.434000
20
-4.758000
30
173.160004
70
192
0
VERTEX
8
OBJECT__101
10
15.808000
20
-6.253000
30
172.399002
70
192
0
VERTEX
8
OBJECT__101
10
14.943000
20
-6.088000
30
172.587006
70
192
0
VERTEX
8
OBJECT__101
10
14.819000
20
-6.423000
30
172.442001
70
192
0
VERTEX
8
OBJECT__101
10
15.320000
20
-7.369000
30
173.617996
70
192
0
VERTEX
8
OBJECT__101
10
15.320000
20
-7.370000
30
173.750000
70
192
0
VERTEX
8
OBJECT__101
10
0
20
0
30
0
70
128
71
1
72
2
73
3
0
VERTEX
8
OBJECT__101
10
0
20
0
30
0
70
128
71
3
72
4
73
1
0
VERTEX
8
OBJECT__101
10
0
20
0
30
0
70
128
71
3
72
2
73
5
0
VERTEX
8
OBJECT__101
10
0
20
0
30
0
70
128
71
5
72
6
73
3
0
VERTEX
8
OBJECT__101
10
0
20
0
30
0
70
128
71
6
72
5
73
7
0
VERTEX
8
OBJECT__101
10
0
20
0
30
0
70
128
71
7
72
8
73
6
0
VERTEX
8
OBJECT__101
10
0
20
0
30
0
70
128
71
9
72
10
73
11
0
VERTEX
8
OBJECT__101
10
0
20
0
30
0
70
128
71
12
72
13
73
9
0
VERTEX
8
OBJECT__101
10
0
20
0
30
0
70
128
71
11
72
10
73
8
0
VERTEX
8
OBJECT__101
10
0
20
0
30
0
70
128
71
8
72
7
73
11
0
VERTEX
8
OBJECT__101
10
0
20
0
30
0
70
128
71
14
72
15
73
16
0
VERTEX
8
OBJECT__101
10
0
20
0
30
0
70
128
71
16
72
15
73
13
0
VERTEX
8
OBJECT__101
10
0
20
0
30
0
70
128
71
13
72
12
73
16
0
VERTEX
8
OBJECT__101
10
0
20
0
30
0
70
128
71
17
72
18
73
19
0
VERTEX
8
OBJECT__101
10
0
20
0
30
0
70
128
71
19
72
20
73
17
0
VERTEX
8
OBJECT__101
10
0
20
0
30
0
70
128
71
1
72
21
73
20
0
VERTEX
8
OBJECT__101
10
0
20
0
30
0
70
128
71
19
72
1
73
20
0
VERTEX
8
OBJECT__101
10
0
20
0
30
0
70
128
71
17
72
14
73
18
0
VERTEX
8
OBJECT__101
10
0
20
0
30
0
70
128
71
16
72
18
73
14
0
VERTEX
8
OBJECT__101
10
0
20
0
30
0
70
128
71
11
72
12
73
9
0
VERTEX
8
OBJECT__101
10
0
20
0
30
0
70
128
71
4
72
21
73
1
0
SEQEND
8
OBJECT__101
0
POLYLINE
8
OBJECT__102
66
1
70
64
71
10
72
9
62
253
0
VERTEX
8
OBJECT__102
10
15.398000
20
-4.872000
30
173.697998
70
192
0
VERTEX
8
OBJECT__102
10
15.324000
20
-5.102000
30
174.791000
70
192
0
VERTEX
8
OBJECT__102
10
14.963000
20
-6.008000
30
174.813995
70
192
0
VERTEX
8
OBJECT__102
10
14.798000
20
-6.471000
30
173.710999
70
192
0
VERTEX
8
OBJECT__102
10
14.943000
20
-6.088000
30
172.587006
70
192
0
VERTEX
8
OBJECT__102
10
15.434000
20
-4.758000
30
173.160004
70
192
0
VERTEX
8
OBJECT__102
10
14.630000
20
-6.843000
30
174.835999
70
192
0
VERTEX
8
OBJECT__102
10
14.381000
20
-7.351000
30
174.007004
70
192
0
VERTEX
8
OBJECT__102
10
14.819000
20
-6.423000
30
172.442001
70
192
0
VERTEX
8
OBJECT__102
10
14.369000
20
-7.375000
30
173.750000
70
192
0
VERTEX
8
OBJECT__102
10
0
20
0
30
0
70
128
71
1
72
2
73
3
0
VERTEX
8
OBJECT__102
10
0
20
0
30
0
70
128
71
3
72
4
73
1
0
VERTEX
8
OBJECT__102
10
0
20
0
30
0
70
128
71
5
72
6
73
1
0
VERTEX
8
OBJECT__102
10
0
20
0
30
0
70
128
71
1
72
4
73
5
0
VERTEX
8
OBJECT__102
10
0
20
0
30
0
70
128
71
4
72
7
73
8
0
VERTEX
8
OBJECT__102
10
0
20
0
30
0
70
128
71
9
72
5
73
4
0
VERTEX
8
OBJECT__102
10
0
20
0
30
0
70
128
71
4
72
10
73
9
0
VERTEX
8
OBJECT__102
10
0
20
0
30
0
70
128
71
8
72
10
73
4
0
VERTEX
8
OBJECT__102
10
0
20
0
30
0
70
128
71
3
72
7
73
4
0
SEQEND
8
OBJECT__102
0
ENDSEC
0
EOF
