  0
SECTION
  2
HEADER
  9
$ACADVER
  1
AC1015
  9
$ACADMAINTVER
 70
     6
  9
$DWGCODEPAGE
  3
ANSI_1252
  9
$INSBASE
 10
0.0
 20
0.0
 30
0.0
  9
$EXTMIN
 10
0.0
 20
0.0
 30
0.0
  9
$EXTMAX
 10
1682.0
 20
2378.0
 30
0.0
  9
$LIMMIN
 10
0.0
 20
0.0
  9
$LIMMAX
 10
1682.0
 20
2378.0
  9
$ORTHOMODE
 70
     0
  9
$REGENMODE
 70
     1
  9
$FILLMODE
 70
     1
  9
$QTEXTMODE
 70
     0
  9
$MIRRTEXT
 70
     1
  9
$LTSCALE
 40
1.0
  9
$ATTMODE
 70
     1
  9
$TEXTSIZE
 40
2.5
  9
$TRACEWID
 40
1.0
  9
$TEXTSTYLE
  7
Standard
  9
$CLAYER
  8
0
  9
$CELTYPE
  6
ByLayer
  9
$CECOLOR
 62
   256
  9
$CELTSCALE
 40
1.0
  9
$DISPSILH
 70
     0
  9
$DIMSCALE
 40
1.0
  9
$DIMASZ
 40
2.5
  9
$DIMEXO
 40
0.625
  9
$DIMDLI
 40
3.75
  9
$DIMRND
 40
0.0
  9
$DIMDLE
 40
0.0
  9
$DIMEXE
 40
1.25
  9
$DIMTP
 40
0.0
  9
$DIMTM
 40
0.0
  9
$DIMTXT
 40
2.5
  9
$DIMCEN
 40
2.5
  9
$DIMTSZ
 40
0.0
  9
$DIMTOL
 70
     0
  9
$DIMLIM
 70
     0
  9
$DIMTIH
 70
     0
  9
$DIMTOH
 70
     0
  9
$DIMSE1
 70
     0
  9
$DIMSE2
 70
     0
  9
$DIMTAD
 70
     1
  9
$DIMZIN
 70
     8
  9
$DIMBLK
  1

  9
$DIMASO
 70
     1
  9
$DIMSHO
 70
     1
  9
$DIMPOST
  1

  9
$DIMAPOST
  1

  9
$DIMALT
 70
     0
  9
$DIMALTD
 70
     3
  9
$DIMALTF
 40
0.0393700787
  9
$DIMLFAC
 40
1.0
  9
$DIMTOFL
 70
     1
  9
$DIMTVP
 40
0.0
  9
$DIMTIX
 70
     0
  9
$DIMSOXD
 70
     0
  9
$DIMSAH
 70
     0
  9
$DIMBLK1
  1

  9
$DIMBLK2
  1

  9
$DIMSTYLE
  2
ISO-25
  9
$DIMCLRD
 70
     0
  9
$DIMCLRE
 70
     0
  9
$DIMCLRT
 70
     0
  9
$DIMTFAC
 40
1.0
  9
$DIMGAP
 40
0.625
  9
$DIMJUST
 70
     0
  9
$DIMSD1
 70
     0
  9
$DIMSD2
 70
     0
  9
$DIMTOLJ
 70
     0
  9
$DIMTZIN
 70
     8
  9
$DIMALTZ
 70
     0
  9
$DIMALTTZ
 70
     0
  9
$DIMUPT
 70
     0
  9
$DIMDEC
 70
     2
  9
$DIMTDEC
 70
     2
  9
$DIMALTU
 70
     2
  9
$DIMALTTD
 70
     3
  9
$DIMTXSTY
  7
Standard
  9
$DIMAUNIT
 70
     0
  9
$DIMADEC
 70
     0
  9
$DIMALTRND
 40
0.0
  9
$DIMAZIN
 70
     0
  9
$DIMDSEP
 70
    44
  9
$DIMATFIT
 70
     3
  9
$DIMFRAC
 70
     0
  9
$DIMLDRBLK
  1

  9
$DIMLUNIT
 70
     2
  9
$DIMLWD
 70
    -2
  9
$DIMLWE
 70
    -2
  9
$DIMTMOVE
 70
     0
  9
$LUNITS
 70
     2
  9
$LUPREC
 70
     4
  9
$SKETCHINC
 40
1.0
  9
$FILLETRAD
 40
10.0
  9
$AUNITS
 70
     0
  9
$AUPREC
 70
     0
  9
$MENU
  1
.
  9
$ELEVATION
 40
0.0
  9
$PELEVATION
 40
0.0
  9
$THICKNESS
 40
0.0
  9
$LIMCHECK
 70
     0
  9
$CHAMFERA
 40
10.0
  9
$CHAMFERB
 40
10.0
  9
$CHAMFERC
 40
20.0
  9
$CHAMFERD
 40
0.0
  9
$SKPOLY
 70
     0
  9
$TDCREATE
 40
2455400.420117199
  9
$TDUCREATE
 40
2455400.336783866
  9
$TDUPDATE
 40
2455400.420117211
  9
$TDUUPDATE
 40
2455400.336783877
  9
$TDINDWG
 40
0.0000000116
  9
$TDUSRTIMER
 40
0.0000000116
  9
$USRTIMER
 70
     1
  9
$ANGBASE
 50
0.0
  9
$ANGDIR
 70
     0
  9
$PDMODE
 70
     0
  9
$PDSIZE
 40
0.0
  9
$PLINEWID
 40
0.0
  9
$SPLFRAME
 70
     0
  9
$SPLINETYPE
 70
     6
  9
$SPLINESEGS
 70
     8
  9
$HANDSEED
  5
1C0
  9
$SURFTAB1
 70
     6
  9
$SURFTAB2
 70
     6
  9
$SURFTYPE
 70
     6
  9
$SURFU
 70
     6
  9
$SURFV
 70
     6
  9
$UCSBASE
  2

  9
$UCSNAME
  2

  9
$UCSORG
 10
0.0
 20
0.0
 30
0.0
  9
$UCSXDIR
 10
1.0
 20
0.0
 30
0.0
  9
$UCSYDIR
 10
0.0
 20
1.0
 30
0.0
  9
$UCSORTHOREF
  2

  9
$UCSORTHOVIEW
 70
     0
  9
$UCSORGTOP
 10
0.0
 20
0.0
 30
0.0
  9
$UCSORGBOTTOM
 10
0.0
 20
0.0
 30
0.0
  9
$UCSORGLEFT
 10
0.0
 20
0.0
 30
0.0
  9
$UCSORGRIGHT
 10
0.0
 20
0.0
 30
0.0
  9
$UCSORGFRONT
 10
0.0
 20
0.0
 30
0.0
  9
$UCSORGBACK
 10
0.0
 20
0.0
 30
0.0
  9
$PUCSBASE
  2

  9
$PUCSNAME
  2

  9
$PUCSORG
 10
0.0
 20
0.0
 30
0.0
  9
$PUCSXDIR
 10
1.0
 20
0.0
 30
0.0
  9
$PUCSYDIR
 10
0.0
 20
1.0
 30
0.0
  9
$PUCSORTHOREF
  2

  9
$PUCSORTHOVIEW
 70
     0
  9
$PUCSORGTOP
 10
0.0
 20
0.0
 30
0.0
  9
$PUCSORGBOTTOM
 10
0.0
 20
0.0
 30
0.0
  9
$PUCSORGLEFT
 10
0.0
 20
0.0
 30
0.0
  9
$PUCSORGRIGHT
 10
0.0
 20
0.0
 30
0.0
  9
$PUCSORGFRONT
 10
0.0
 20
0.0
 30
0.0
  9
$PUCSORGBACK
 10
0.0
 20
0.0
 30
0.0
  9
$USERI1
 70
     0
  9
$USERI2
 70
     0
  9
$USERI3
 70
     0
  9
$USERI4
 70
     0
  9
$USERI5
 70
     0
  9
$USERR1
 40
0.0
  9
$USERR2
 40
0.0
  9
$USERR3
 40
0.0
  9
$USERR4
 40
0.0
  9
$USERR5
 40
0.0
  9
$WORLDVIEW
 70
     1
  9
$SHADEDGE
 70
     3
  9
$SHADEDIF
 70
    70
  9
$TILEMODE
 70
     1
  9
$MAXACTVP
 70
    64
  9
$PINSBASE
 10
0.0
 20
0.0
 30
0.0
  9
$PLIMCHECK
 70
     0
  9
$PEXTMIN
 10
0.0
 20
0.0
 30
0.0
  9
$PEXTMAX
 10
1682.0
 20
2378.0
 30
0.0
  9
$PLIMMIN
 10
0.0
 20
0.0
  9
$PLIMMAX
 10
1682.0
 20
2378.0
  9
$UNITMODE
 70
     0
  9
$VISRETAIN
 70
     1
  9
$PLINEGEN
 70
     0
  9
$PSLTSCALE
 70
     1
  9
$TREEDEPTH
 70
  3020
  9
$CMLSTYLE
  2
Standard
  9
$CMLJUST
 70
     0
  9
$CMLSCALE
 40
20.0
  9
$PROXYGRAPHICS
 70
     1
  9
$MEASUREMENT
 70
     1
  9
$CELWEIGHT
370
    -1
  9
$ENDCAPS
280
     0
  9
$JOINSTYLE
280
     0
  9
$LWDISPLAY
290
     0
  9
$INSUNITS
 70
     4
  9
$HYPERLINKBASE
  1

  9
$STYLESHEET
  1

  9
$XEDIT
290
     1
  9
$CEPSNTYPE
380
     0
  9
$PSTYLEMODE
290
     1
  9
$FINGERPRINTGUID
  2
{0DF2DBD1-F017-404B-B1DC-0B2098885E5F}
  9
$VERSIONGUID
  2
{FAEB1C32-E019-11D5-929B-00C0DF256EC4}
  9
$EXTNAMES
290
     1
  9
$PSVPSCALE
 40
0.0
  9
$OLESTARTUP
290
     0
  0
ENDSEC
  0
SECTION
  2
CLASSES
  0
CLASS
  1
ACDBDICTIONARYWDFLT
  2
AcDbDictionaryWithDefault
  3
ObjectDBX Classes
 90
        0
280
     0
281
     0
  0
CLASS
  1
VISUALSTYLE
  2
AcDbVisualStyle
  3
ObjectDBX Classes
 90
     4095
280
     0
281
     0
  0
CLASS
  1
SCALE
  2
AcDbScale
  3
ObjectDBX Classes
 90
     1153
280
     0
281
     0
  0
CLASS
  1
DICTIONARYVAR
  2
AcDbDictionaryVar
  3
ObjectDBX Classes
 90
        0
280
     0
281
     0
  0
CLASS
  1
ACDBPLACEHOLDER
  2
AcDbPlaceHolder
  3
ObjectDBX Classes
 90
        0
280
     0
281
     0
  0
CLASS
  1
LAYOUT
  2
AcDbLayout
  3
ObjectDBX Classes
 90
        0
280
     0
281
     0
  0
ENDSEC
  0
SECTION
  2
TABLES
  0
TABLE
  2
VPORT
  5
8
330
0
100
AcDbSymbolTable
 70
     1
  0
VPORT
  5
29
330
8
100
AcDbSymbolTableRecord
100
AcDbViewportTableRecord
  2
*Active
 70
     0
 10
0.0
 20
0.0
 11
1.0
 21
1.0
 12
344.1869158879
 22
148.5
 13
0.0
 23
0.0
 14
10.0
 24
10.0
 15
10.0
 25
10.0
 16
0.0
 26
0.0
 36
1.0
 17
0.0
 27
0.0
 37
0.0
 40
297.0
 41
1.9729729729
 42
50.0
 43
0.0
 44
0.0
 50
0.0
 51
0.0
 71
     0
 72
   100
 73
     1
 74
     3
 75
     0
 76
     0
 77
     0
 78
     0
281
     0
 65
     1
110
0.0
120
0.0
130
0.0
111
1.0
121
0.0
131
0.0
112
0.0
122
1.0
132
0.0
 79
     0
146
0.0
  0
ENDTAB
  0
TABLE
  2
LTYPE
  5
5
330
0
100
AcDbSymbolTable
 70
     2
  0
LTYPE
  5
14
330
5
100
AcDbSymbolTableRecord
100
AcDbLinetypeTableRecord
  2
ByBlock
 70
     0
  3

 72
    65
 73
     0
 40
0.0
  0
LTYPE
  5
15
330
5
100
AcDbSymbolTableRecord
100
AcDbLinetypeTableRecord
  2
ByLayer
 70
     0
  3

 72
    65
 73
     0
 40
0.0
  0
LTYPE
  5
16
330
5
100
AcDbSymbolTableRecord
100
AcDbLinetypeTableRecord
  2
Continuous
 70
     0
  3
Solid line
 72
    65
 73
     0
 40
0.0
  0
LTYPE
  5
60
330
5
100
AcDbSymbolTableRecord
100
AcDbLinetypeTableRecord
  2
CENTER2
 70
     0
  3
Center (.5x) ___ _ ___ _ ___ _ ___ _ ___ _ ___
 72
    65
 73
     4
 40
28.575
 49
19.05
 74
     4
 75
     0
340
0
 46
0.0
 50
0.0
 44
0.0
 45
0.0
 49
-3.175
 74
     4
 75
     0
340
0
 46
0.0
 50
0.0
 44
0.0
 45
0.0
 49
3.175
 74
     4
 75
     0
340
0
 46
0.0
 50
0.0
 44
0.0
 45
0.0
 49
-3.175
 74
     4
 75
     0
340
0
 46
0.0
 50
0.0
 44
0.0
 45
0.0
  0
ENDTAB
  0
TABLE
  2
LAYER
  5
2
330
0
100
AcDbSymbolTable
 70
    10
  0
LAYER
  5
10
330
2
100
AcDbSymbolTableRecord
100
AcDbLayerTableRecord
  2
0
 70
     0
 62
     7
  6
Continuous
370
    -3
390
F
  0
LAYER
  5
5D
330
2
100
AcDbSymbolTableRecord
100
AcDbLayerTableRecord
  2
Default
 70
     0
 62
     7
  6
Continuous
370
    -3
390
F
  0
LAYER
  5
7A
330
2
100
AcDbSymbolTableRecord
100
AcDbLayerTableRecord
  2
$DDT_AUDIT_GENERATED_(7A)
 70
     0
 62
     7
  6
Continuous
370
    -3
390
F
  0
LAYER
  5
86
330
2
100
AcDbSymbolTableRecord
100
AcDbLayerTableRecord
  2
$DDT_AUDIT_GENERATED_(86)
 70
     0
 62
     7
  6
Continuous
370
    -3
390
F
  0
LAYER
  5
CD
330
2
100
AcDbSymbolTableRecord
100
AcDbLayerTableRecord
  2
$DDT_AUDIT_GENERATED_(CD)
 70
     0
 62
     7
  6
Continuous
370
    -3
390
F
  0
LAYER
  5
108
330
2
100
AcDbSymbolTableRecord
100
AcDbLayerTableRecord
  2
$DDT_AUDIT_GENERATED_(108)
 70
     0
 62
     7
  6
Continuous
370
    -3
390
F
  0
LAYER
  5
130
330
2
100
AcDbSymbolTableRecord
100
AcDbLayerTableRecord
  2
$DDT_AUDIT_GENERATED_(130)
 70
     0
 62
     7
  6
Continuous
370
    -3
390
F
  0
LAYER
  5
133
330
2
100
AcDbSymbolTableRecord
100
AcDbLayerTableRecord
  2
$DDT_AUDIT_GENERATED_(133)
 70
     0
 62
     7
  6
Continuous
370
    -3
390
F
  0
LAYER
  5
158
330
2
100
AcDbSymbolTableRecord
100
AcDbLayerTableRecord
  2
$DDT_AUDIT_GENERATED_(158)
 70
     0
 62
     7
  6
Continuous
370
    -3
390
F
  0
LAYER
  5
19F
330
2
100
AcDbSymbolTableRecord
100
AcDbLayerTableRecord
  2
$DDT_AUDIT_GENERATED_(19F)
 70
     0
 62
     7
  6
Continuous
370
    -3
390
F
  0
ENDTAB
  0
TABLE
  2
STYLE
  5
3
330
0
100
AcDbSymbolTable
 70
     2
  0
STYLE
  5
11
330
3
100
AcDbSymbolTableRecord
100
AcDbTextStyleTableRecord
  2
Standard
 70
     0
 40
0.0
 41
1.0
 50
0.0
 71
     0
 42
2.5
  3
txt
  4

  0
STYLE
  5
1AF
330
3
100
AcDbSymbolTableRecord
100
AcDbTextStyleTableRecord
  2
SEACAD_seiso_ttf
 70
     0
 40
0.0
 41
1.0
 50
0.0
 71
     0
 42
0.2
  3
seiso.ttf
  4

  0
ENDTAB
  0
TABLE
  2
VIEW
  5
6
330
0
100
AcDbSymbolTable
 70
     0
  0
ENDTAB
  0
TABLE
  2
UCS
  5
7
330
0
100
AcDbSymbolTable
 70
     0
  0
ENDTAB
  0
TABLE
  2
APPID
  5
9
330
0
100
AcDbSymbolTable
 70
     1
  0
APPID
  5
12
330
9
100
AcDbSymbolTableRecord
100
AcDbRegAppTableRecord
  2
ACAD
 70
     0
  0
ENDTAB
  0
TABLE
  2
DIMSTYLE
  5
A
330
0
100
AcDbSymbolTable
 70
     1
100
AcDbDimStyleTable
  0
DIMSTYLE
105
27
330
A
100
AcDbSymbolTableRecord
100
AcDbDimStyleTableRecord
  2
ISO-25
 70
     0
 41
2.5
 42
0.625
 43
3.75
 44
1.25
 73
     0
 74
     0
 77
     1
 78
     8
140
2.5
141
2.5
143
0.0393700787
147
0.625
171
     3
172
     1
271
     2
272
     2
274
     3
278
    44
283
     0
284
     8
340
11
  0
ENDTAB
  0
TABLE
  2
BLOCK_RECORD
  5
1
330
0
100
AcDbSymbolTable
 70
     9
  0
BLOCK_RECORD
  5
1F
330
1
100
AcDbSymbolTableRecord
100
AcDbBlockTableRecord
  2
*Model_Space
340
22
  0
BLOCK_RECORD
  5
1B
330
1
100
AcDbSymbolTableRecord
100
AcDbBlockTableRecord
  2
*Paper_Space
340
1E
  0
BLOCK_RECORD
  5
5E
330
1
100
AcDbSymbolTableRecord
100
AcDbBlockTableRecord
  2
SEANNOT_GROUP
340
0
102
{BLKREFS
331
5F
102
}
  0
BLOCK_RECORD
  5
64
330
1
100
AcDbSymbolTableRecord
100
AcDbBlockTableRecord
  2
SEANNOT_GROUP1
340
0
102
{BLKREFS
331
65
102
}
  0
BLOCK_RECORD
  5
69
330
1
100
AcDbSymbolTableRecord
100
AcDbBlockTableRecord
  2
SEANNOT_GROUP2
340
0
102
{BLKREFS
331
6A
102
}
  0
BLOCK_RECORD
  5
6E
330
1
100
AcDbSymbolTableRecord
100
AcDbBlockTableRecord
  2
SEANNOT_GROUP3
340
0
102
{BLKREFS
331
6F
102
}
  0
BLOCK_RECORD
  5
73
330
1
100
AcDbSymbolTableRecord
100
AcDbBlockTableRecord
  2
SEANNOT_GROUP4
340
0
102
{BLKREFS
331
74
102
}
  0
BLOCK_RECORD
  5
78
330
1
100
AcDbSymbolTableRecord
100
AcDbBlockTableRecord
  2
SE
340
0
102
{BLKREFS
331
79
102
}
  0
BLOCK_RECORD
  5
16F
330
1
100
AcDbSymbolTableRecord
100
AcDbBlockTableRecord
  2
SE1
340
0
102
{BLKREFS
331
170
102
}
  0
BLOCK_RECORD
  5
18F
330
1
100
AcDbSymbolTableRecord
100
AcDbBlockTableRecord
  2
SE2
340
0
102
{BLKREFS
331
190
102
}
  0
ENDTAB
  0
ENDSEC
  0
SECTION
  2
BLOCKS
  0
BLOCK
  5
20
330
1F
100
AcDbEntity
  8
0
100
AcDbBlockBegin
  2
*Model_Space
 70
     0
 10
0.0
 20
0.0
 30
0.0
  3
*Model_Space
  1

  0
ENDBLK
  5
21
330
1F
100
AcDbEntity
  8
0
100
AcDbBlockEnd
  0
BLOCK
  5
1C
330
1B
100
AcDbEntity
 67
     1
  8
0
100
AcDbBlockBegin
  2
*Paper_Space
 70
     0
 10
0.0
 20
0.0
 30
0.0
  3
*Paper_Space
  1

  0
ENDBLK
  5
1D
330
1B
100
AcDbEntity
 67
     1
  8
0
100
AcDbBlockEnd
  0
BLOCK
  5
62
330
5E
100
AcDbEntity
  8
0
100
AcDbBlockBegin
  2
SEANNOT_GROUP
 70
     0
 10
0.0
 20
0.0
 30
0.0
  3
SEANNOT_GROUP
  1

  0
LINE
  5
61
330
5E
100
AcDbEntity
  8
Default
  6
CENTER2
 62
     7
100
AcDbLine
 10
98.2582046431
 20
555.8496189177
 30
0.0
 11
98.2582046431
 21
351.8496189177
 31
0.0
  0
ENDBLK
  5
63
330
5E
100
AcDbEntity
  8
0
100
AcDbBlockEnd
  0
BLOCK
  5
67
330
64
100
AcDbEntity
  8
0
100
AcDbBlockBegin
  2
SEANNOT_GROUP1
 70
     0
 10
0.0
 20
0.0
 30
0.0
  3
SEANNOT_GROUP1
  1

  0
LINE
  5
66
330
64
100
AcDbEntity
  8
Default
  6
CENTER2
 62
     7
100
AcDbLine
 10
98.2582046431
 20
260.0313526027
 30
0.0
 11
98.2582046431
 21
153.7871367033
 31
0.0
  0
ENDBLK
  5
68
330
64
100
AcDbEntity
  8
0
100
AcDbBlockEnd
  0
BLOCK
  5
6C
330
69
100
AcDbEntity
  8
0
100
AcDbBlockBegin
  2
SEANNOT_GROUP2
 70
     0
 10
0.0
 20
0.0
 30
0.0
  3
SEANNOT_GROUP2
  1

  0
LINE
  5
6B
330
69
100
AcDbEntity
  8
Default
  6
CENTER2
 62
     7
100
AcDbLine
 10
172.7582046431
 20
453.8496189177
 30
0.0
 11
197.6342362604
 21
453.8496189177
 31
0.0
  0
ENDBLK
  5
6D
330
69
100
AcDbEntity
  8
0
100
AcDbBlockEnd
  0
BLOCK
  5
71
330
6E
100
AcDbEntity
  8
0
100
AcDbBlockBegin
  2
SEANNOT_GROUP3
 70
     0
 10
0.0
 20
0.0
 30
0.0
  3
SEANNOT_GROUP3
  1

  0
LINE
  5
70
330
6E
100
AcDbEntity
  8
Default
  6
CENTER2
 62
     7
100
AcDbLine
 10
23.7582046431
 20
453.8496189177
 30
0.0
 11
4.6286382431
 21
453.8496189177
 31
0.0
  0
ENDBLK
  5
72
330
6E
100
AcDbEntity
  8
0
100
AcDbBlockEnd
  0
BLOCK
  5
76
330
73
100
AcDbEntity
  8
0
100
AcDbBlockBegin
  2
SEANNOT_GROUP4
 70
     0
 10
0.0
 20
0.0
 30
0.0
  3
SEANNOT_GROUP4
  1

  0
LINE
  5
75
330
73
100
AcDbEntity
  8
Default
  6
CENTER2
 62
     7
100
AcDbLine
 10
283.2603019587
 20
453.8496189177
 30
0.0
 11
345.9682539695
 21
453.8496189177
 31
0.0
  0
ENDBLK
  5
77
330
73
100
AcDbEntity
  8
0
100
AcDbBlockEnd
  0
BLOCK
  5
16D
330
78
100
AcDbEntity
  8
0
100
AcDbBlockBegin
  2
SE
 70
     0
 10
0.0
 20
0.0
 30
0.0
  3
SE
  1

  0
LINE
  5
7B
330
78
100
AcDbEntity
  8
$DDT_AUDIT_GENERATED_(7A)
  6
Continuous
 62
     7
100
AcDbLine
 10
20.2582046431
 20
545.3506850516
 30
0.0
 11
20.2582046431
 21
362.3485527838
 31
0.0
  0
ELLIPSE
  5
7C
330
78
100
AcDbEntity
  8
$DDT_AUDIT_GENERATED_(7A)
  6
Continuous
 62
     7
100
AcDbEllipse
 10
27.2592709394
 20
545.3485526214
 30
0.0
 11
-4.951255324187067
 21
4.951255324187066
 31
0.0
210
0.0
220
0.0
230
1.0
 40
0.9996954599
 41
0.0101146770046812
 42
0.7852458701498759
  0
LINE
  5
7D
330
78
100
AcDbEntity
  8
$DDT_AUDIT_GENERATED_(7A)
  6
Continuous
 62
     7
100
AcDbLine
 10
27.2571385092
 20
355.3496189177
 30
0.0
 11
169.259270777
 21
355.3496189177
 31
0.0
  0
ELLIPSE
  5
7E
330
78
100
AcDbEntity
  8
$DDT_AUDIT_GENERATED_(7A)
  6
Continuous
 62
     7
100
AcDbEllipse
 10
27.2592709394
 20
362.350685214
 30
0.0
 11
4.951255324187066
 21
4.951255324187067
 31
0.0
210
0.0
220
0.0
230
1.0
 40
0.9996954599
 41
2.356346783439917
 42
3.926838523739678
  0
LINE
  5
7F
330
78
100
AcDbEntity
  8
$DDT_AUDIT_GENERATED_(7A)
  6
Continuous
 62
     7
100
AcDbLine
 10
176.2582046431
 20
362.3485527838
 30
0.0
 11
176.2582046431
 21
545.3506850516
 31
0.0
  0
ELLIPSE
  5
80
330
78
100
AcDbEntity
  8
$DDT_AUDIT_GENERATED_(7A)
  6
Continuous
 62
     7
100
AcDbEllipse
 10
169.2571383468
 20
362.350685214
 30
0.0
 11
-4.951255324187067
 21
4.951255324187066
 31
0.0
210
0.0
220
0.0
230
1.0
 40
0.9996954599
 41
2.356346783439925
 42
3.926838523739661
  0
LINE
  5
81
330
78
100
AcDbEntity
  8
$DDT_AUDIT_GENERATED_(7A)
  6
Continuous
 62
     7
100
AcDbLine
 10
169.259270777
 20
552.3496189177
 30
0.0
 11
27.2571385092
 21
552.3496189177
 31
0.0
  0
ELLIPSE
  5
82
330
78
100
AcDbEntity
  8
$DDT_AUDIT_GENERATED_(7A)
  6
Continuous
 62
     7
100
AcDbEllipse
 10
169.2571383468
 20
545.3485526214
 30
0.0
 11
4.951255324187066
 21
4.951255324187067
 31
0.0
210
0.0
220
0.0
230
1.0
 40
0.9996954599
 41
0.2441885874408744
 42
0.7852458701498759
  0
ELLIPSE
  5
83
330
78
100
AcDbEntity
  8
$DDT_AUDIT_GENERATED_(7A)
  6
Continuous
 62
     7
100
AcDbEllipse
 10
27.2592709394
 20
545.3485526214
 30
0.0
 11
4.951255324187067
 21
-4.951255324187066
 31
0.0
210
0.0
220
0.0
230
1.0
 40
0.9996954599
 41
2.356346783439916
 42
3.151707330594474
  0
ELLIPSE
  5
84
330
78
100
AcDbEntity
  8
$DDT_AUDIT_GENERATED_(7A)
  6
Continuous
 62
     7
100
AcDbEllipse
 10
169.2571383468
 20
545.3485526214
 30
0.0
 11
-4.951255324187066
 21
-4.951255324187067
 31
0.0
210
0.0
220
0.0
230
1.0
 40
0.9996954599
 41
2.356346783439921
 42
3.385781241030668
  0
SPLINE
  5
85
330
78
100
AcDbEntity
  8
$DDT_AUDIT_GENERATED_(7A)
  6
Continuous
 62
     7
100
AcDbSpline
210
0.0
220
0.0
230
1.0
 70
    11
 71
     3
 72
    71
 73
    67
 74
     0
 42
0.000000000036674
 43
0.0000000001
 40
0.0
 40
0.0
 40
0.0
 40
0.0
 40
0.0312499999999999
 40
0.0312499999999999
 40
0.0625000000000001
 40
0.0625000000000001
 40
0.09375
 40
0.09375
 40
0.1250000000000001
 40
0.1250000000000001
 40
0.15625
 40
0.15625
 40
0.1874999999999999
 40
0.1874999999999999
 40
0.2187500000000001
 40
0.2187500000000001
 40
0.25
 40
0.25
 40
0.2812500000000001
 40
0.2812500000000001
 40
0.3125000000000001
 40
0.3125000000000001
 40
0.3437499999999999
 40
0.3437499999999999
 40
0.375
 40
0.375
 40
0.4062500000000001
 40
0.4062500000000001
 40
0.4374999999999999
 40
0.4374999999999999
 40
0.4687499999999999
 40
0.4687499999999999
 40
0.5
 40
0.5
 40
0.5
 40
0.53125
 40
0.53125
 40
0.5625000000000001
 40
0.5625000000000001
 40
0.59375
 40
0.59375
 40
0.625
 40
0.625
 40
0.65625
 40
0.65625
 40
0.6874999999999999
 40
0.6874999999999999
 40
0.71875
 40
0.71875
 40
0.75
 40
0.75
 40
0.7812500000000002
 40
0.7812500000000002
 40
0.8125000000000001
 40
0.8125000000000001
 40
0.84375
 40
0.84375
 40
0.8749999999999999
 40
0.8749999999999999
 40
0.90625
 40
0.90625
 40
0.9374999999999999
 40
0.9374999999999999
 40
0.9687500000000001
 40
0.9687500000000001
 40
1.0
 40
1.0
 40
1.0
 40
1.0
 10
98.25820464309324
 20
403.3496189176614
 30
0.0
 10
95.93473507668295
 20
403.3496189176614
 30
0.0
 10
93.61132296173109
 20
403.6751463556496
 30
0.0
 10
89.05367346130966
 20
404.9647781589469
 30
0.0
 10
86.81954877098794
 20
405.9288506360197
 30
0.0
 10
82.526336817276
 20
408.4585544156633
 30
0.0
 10
80.46735571053831
 20
410.0241231671566
 30
0.0
 10
76.60356703125493
 20
413.6966838256096
 30
0.0
 10
74.79885499733537
 20
415.8035849223542
 30
0.0
 10
71.51297282460457
 20
420.477868013128
 30
0.0
 10
70.03188393484588
 20
423.0451344275229
 30
0.0
 10
67.45018287785797
 20
428.5415098728212
 30
0.0
 10
66.34963454767143
 20
431.4704829962972
 30
0.0
 10
64.5713279302117
 20
437.5777281701529
 30
0.0
 10
63.89361361471718
 20
440.755849208168
 30
0.0
 10
62.98704076283786
 20
447.2392661035276
 30
0.0
 10
62.75820464309219
 20
450.5444016469141
 30
0.0
 10
62.75820464309219
 20
457.1548361884107
 30
0.0
 10
62.98704076283787
 20
460.4599717318001
 30
0.0
 10
63.89361361471718
 20
466.943388627154
 30
0.0
 10
64.57132793022272
 20
470.1215096651663
 30
0.0
 10
66.34963454766039
 20
476.2287548390331
 30
0.0
 10
67.45018287785798
 20
479.1577279624983
 30
0.0
 10
70.0318839348459
 20
484.6541034078071
 30
0.0
 10
71.5129728246065
 20
487.2213698222051
 30
0.0
 10
74.7988549973334
 20
491.8956529129621
 30
0.0
 10
76.60356703125956
 20
494.0025540097152
 30
0.0
 10
80.46735571053371
 20
497.6751146681681
 30
0.0
 10
82.52633681727563
 20
499.2406834196647
 30
0.0
 10
86.81954877098842
 20
501.7703871993018
 30
0.0
 10
89.05367346130897
 20
502.734459676376
 30
0.0
 10
93.61132296173183
 20
504.0240914796771
 30
0.0
 10
95.93473507576114
 20
504.3496189176795
 30
0.0
 10
98.25820464309324
 20
504.3496189176634
 30
0.0
 10
100.5816742104253
 20
504.3496189176473
 30
0.0
 10
102.9050863244554
 20
504.0240914796752
 30
0.0
 10
107.4627358248768
 20
502.7344596763779
 30
0.0
 10
109.6968605151985
 20
501.7703871992965
 30
0.0
 10
113.9900724689105
 20
499.2406834196701
 30
0.0
 10
116.0490535756482
 20
497.6751146681681
 30
0.0
 10
119.9128422549316
 20
494.0025540097152
 30
0.0
 10
121.7175542888512
 20
491.8956529129705
 30
0.0
 10
125.003436461582
 20
487.2213698221966
 30
0.0
 10
126.4845253513353
 20
484.6541034078071
 30
0.0
 10
129.0662264083338
 20
479.1577279624983
 30
0.0
 10
130.1667747385179
 20
476.2287548390382
 30
0.0
 10
131.9450813559719
 20
470.1215096651611
 30
0.0
 10
132.6227956714756
 20
466.9433886271559
 30
0.0
 10
133.5293685233423
 20
460.4599717317981
 30
0.0
 10
133.7582046430943
 20
457.1548361884107
 30
0.0
 10
133.7582046430943
 20
450.5444016469142
 30
0.0
 10
133.5293685233536
 20
447.2392661035294
 30
0.0
 10
132.6227956714642
 20
440.755849208166
 30
0.0
 10
131.9450813559719
 20
437.5777281701525
 30
0.0
 10
130.1667747385179
 20
431.4704829962975
 30
0.0
 10
129.0662264083232
 20
428.5415098728264
 30
0.0
 10
126.4845253513458
 20
423.0451344275176
 30
0.0
 10
125.003436461577
 20
420.4778680131282
 30
0.0
 10
121.7175542888561
 20
415.8035849223542
 30
0.0
 10
119.9128422549315
 20
413.6966838256095
 30
0.0
 10
116.0490535756481
 20
410.0241231671566
 30
0.0
 10
113.9900724689125
 20
408.4585544156633
 30
0.0
 10
109.6968605151963
 20
405.9288506360197
 30
0.0
 10
107.4627358248778
 20
404.9647781589305
 30
0.0
 10
102.9050863244543
 20
403.675146355666
 30
0.0
 10
100.5816742095035
 20
403.3496189176614
 30
0.0
 10
98.25820464309324
 20
403.3496189176614
 30
0.0
  0
LINE
  5
87
330
78
100
AcDbEntity
  8
$DDT_AUDIT_GENERATED_(86)
  6
Continuous
 62
     7
100
AcDbLine
 10
126.7030347418
 20
483.4721259799
 30
0.0
 11
126.7829590519
 21
483.6028696765
 31
0.0
  0
LINE
  5
88
330
78
100
AcDbEntity
  8
$DDT_AUDIT_GENERATED_(86)
  6
Continuous
 62
     7
100
AcDbLine
 10
69.8133708168
 20
483.4721320777
 30
0.0
 11
69.7334502343
 21
483.6028696765
 31
0.0
  0
LINE
  5
89
330
78
100
AcDbEntity
  8
$DDT_AUDIT_GENERATED_(86)
  6
Continuous
 62
     7
100
AcDbLine
 10
83.2582046431
 20
437.5776556008
 30
0.0
 11
83.2582046431
 21
438.1419456829
 31
0.0
  0
SPLINE
  5
8A
330
78
100
AcDbEntity
  8
$DDT_AUDIT_GENERATED_(86)
  6
Continuous
 62
     7
100
AcDbSpline
210
0.0
220
0.0
230
1.0
 70
     8
 71
     3
 72
    10
 73
     6
 74
     0
 42
0.0000000012784439
 43
0.0000000001
 40
0.3916765822421487
 40
0.3916765822421487
 40
0.3916765822421487
 40
0.3916765822421487
 40
0.4245042843200819
 40
0.4245042843200819
 40
0.4509747392809098
 40
0.4509747392809098
 40
0.4509747392809098
 40
0.4509747392809098
 10
133.3577422234732
 20
454.1063967271432
 30
0.0
 10
133.358050477511
 20
454.0208049243827
 30
0.0
 10
133.3582046430932
 20
453.9352119486454
 30
0.0
 10
133.3582046430932
 20
453.7806014011083
 30
0.0
 10
133.3581044058135
 20
453.7115839204745
 30
0.0
 10
133.3579039716899
 20
453.6425670617644
 30
0.0
  0
ARC
  5
8B
330
78
100
AcDbEntity
  8
$DDT_AUDIT_GENERATED_(86)
  6
Continuous
 62
     7
100
AcDbCircle
 10
101.7106372578
 20
445.6993268566
 30
0.0
 40
39.10273196563885
100
AcDbArc
 50
286.2600612248
 51
287.5611060862
  0
LINE
  5
8C
330
78
100
AcDbEntity
  8
$DDT_AUDIT_GENERATED_(86)
  6
Continuous
 62
     7
100
AcDbLine
 10
129.5582046431
 20
454.0996189177
 30
0.0
 11
129.5582046431
 21
453.5996189177
 31
0.0
  0
LINE
  5
8D
330
78
100
AcDbEntity
  8
$DDT_AUDIT_GENERATED_(86)
  6
Continuous
 62
     7
100
AcDbLine
 10
126.0582046431
 20
453.5996189177
 30
0.0
 11
126.0582046431
 21
454.0996189177
 31
0.0
  0
LINE
  5
8E
330
78
100
AcDbEntity
  8
$DDT_AUDIT_GENERATED_(86)
  6
Continuous
 62
     7
100
AcDbLine
 10
129.636816312
 20
453.5996189177
 30
0.0
 11
129.636816312
 21
454.0996189177
 31
0.0
  0
LINE
  5
8F
330
78
100
AcDbEntity
  8
$DDT_AUDIT_GENERATED_(86)
  6
Continuous
 62
     7
100
AcDbLine
 10
125.9795929742
 20
454.0996189177
 30
0.0
 11
125.9795929742
 21
453.5996189177
 31
0.0
  0
SPLINE
  5
90
330
78
100
AcDbEntity
  8
$DDT_AUDIT_GENERATED_(86)
  6
Continuous
 62
     7
100
AcDbSpline
210
0.0
220
0.0
230
1.0
 70
     8
 71
     3
 72
    10
 73
     6
 74
     0
 42
0.0000000012784446
 43
0.0000000001
 40
0.5424237799161702
 40
0.5424237799161702
 40
0.5424237799161702
 40
0.5424237799161702
 40
0.5754957156800916
 40
0.5754957156800916
 40
0.6117795764903267
 40
0.6117795764903267
 40
0.6117795764903267
 40
0.6117795764903267
 10
63.15867396840605
 20
453.5909307338923
 30
0.0
 10
63.15836111115119
 20
453.677159310502
 30
0.0
 10
63.15820464309324
 20
453.7633890860469
 30
0.0
 10
63.15820464309324
 20
453.9442233348446
 30
0.0
 10
63.15839297913787
 20
454.038827684536
 30
0.0
 10
63.15876954708558
 20
454.1334304575036
 30
0.0
  0
ARC
  5
91
330
78
100
AcDbEntity
  8
$DDT_AUDIT_GENERATED_(86)
  6
Continuous
 62
     7
100
AcDbCircle
 10
94.6933466213
 20
445.3927195231
 30
0.0
 40
38.84353883834083
100
AcDbArc
 50
252.9271499718
 51
254.1060089687
  0
LINE
  5
92
330
78
100
AcDbEntity
  8
$DDT_AUDIT_GENERATED_(86)
  6
Continuous
 62
     7
100
AcDbLine
 10
66.9582046431
 20
453.5996189177
 30
0.0
 11
66.9582046431
 21
454.0996189177
 31
0.0
  0
LINE
  5
93
330
78
100
AcDbEntity
  8
$DDT_AUDIT_GENERATED_(86)
  6
Continuous
 62
     7
100
AcDbLine
 10
70.4582046431
 20
454.0996189177
 30
0.0
 11
70.4582046431
 21
453.5996189177
 31
0.0
  0
LINE
  5
94
330
78
100
AcDbEntity
  8
$DDT_AUDIT_GENERATED_(86)
  6
Continuous
 62
     7
100
AcDbLine
 10
66.8795929742
 20
454.0996189177
 30
0.0
 11
66.8795929742
 21
453.5996189177
 31
0.0
  0
LINE
  5
95
330
78
100
AcDbEntity
  8
$DDT_AUDIT_GENERATED_(86)
  6
Continuous
 62
     7
100
AcDbLine
 10
70.536816312
 20
453.5996189177
 30
0.0
 11
70.536816312
 21
454.0996189177
 31
0.0
  0
LINE
  5
96
330
78
100
AcDbEntity
  8
$DDT_AUDIT_GENERATED_(86)
  6
Continuous
 62
     7
100
AcDbLine
 10
113.2582046431
 20
438.1419456829
 30
0.0
 11
113.2582046431
 21
437.577783719
 31
0.0
  0
LINE
  5
97
330
78
100
AcDbEntity
  8
$DDT_AUDIT_GENERATED_(86)
  6
Continuous
 62
     7
100
AcDbLine
 10
125.1838970876
 20
421.4443811282
 30
0.0
 11
125.2473802704
 21
421.3872206137
 31
0.0
  0
SPLINE
  5
98
330
78
100
AcDbEntity
  8
$DDT_AUDIT_GENERATED_(86)
  6
Continuous
 62
     7
100
AcDbSpline
210
0.0
220
0.0
230
1.0
 70
     8
 71
     3
 72
    12
 73
     8
 74
     0
 42
0.0000000006725194
 43
0.0000000001
 40
0.0
 40
0.0
 40
0.0
 40
0.0
 40
0.2031125631756544
 40
0.2031125631756544
 40
0.7572364065499321
 40
0.7572364065499321
 40
1.0
 40
1.0
 40
1.0
 40
1.0
 10
124.9920900681609
 20
420.9451906508507
 30
0.0
 10
124.4385147893675
 20
420.0321896304103
 30
0.0
 10
123.8618628547374
 20
419.1474444709731
 30
0.0
 10
121.6310586640072
 20
415.9633051560221
 30
0.0
 10
119.8370755739538
 20
413.8616009165813
 30
0.0
 10
117.0734054021197
 20
411.2258194040531
 30
0.0
 10
116.2069718611218
 20
410.4744811843186
 30
0.0
 10
115.3192981391666
 20
409.7773474319281
 30
0.0
  0
ARC
  5
99
330
78
100
AcDbEntity
  8
$DDT_AUDIT_GENERATED_(86)
  6
Continuous
 62
     7
100
AcDbCircle
 10
118.8020553855
 20
424.814921523
 30
0.0
 40
7.300092218261804
100
AcDbArc
 50
327.9882327403
 51
331.9954201585
  0
ARC
  5
9A
330
78
100
AcDbEntity
  8
$DDT_AUDIT_GENERATED_(86)
  6
Continuous
 62
     7
100
AcDbCircle
 10
131.5357919395
 20
435.9506885715
 30
0.0
 40
62.0692464944671
100
AcDbArc
 50
192.6879807232
 51
193.3806079263
  0
LINE
  5
9B
330
78
100
AcDbEntity
  8
$DDT_AUDIT_GENERATED_(86)
  6
Continuous
 62
     7
100
AcDbLine
 10
71.1514611436
 20
421.5867074127
 30
0.0
 11
71.220494617
 21
421.6488654313
 31
0.0
  0
ARC
  5
9C
330
78
100
AcDbEntity
  8
$DDT_AUDIT_GENERATED_(86)
  6
Continuous
 62
     7
100
AcDbCircle
 10
77.6340269642
 20
424.9967613219
 30
0.0
 40
7.324761244019781
100
AcDbArc
 50
207.7459228928
 51
211.7435569929
  0
ARC
  5
9D
330
78
100
AcDbEntity
  8
$DDT_AUDIT_GENERATED_(86)
  6
Continuous
 62
     7
100
AcDbCircle
 10
69.3320785935
 20
475.6275003501
 30
0.0
 40
7.985462734640576
100
AcDbArc
 50
87.1189402729
 51
88.0726929103
  0
ARC
  5
9E
330
78
100
AcDbEntity
  8
$DDT_AUDIT_GENERATED_(86)
  6
Continuous
 62
     7
100
AcDbCircle
 10
127.2079050202
 20
474.0960224337
 30
0.0
 40
9.516339820296704
100
AcDbArc
 50
91.8560290693
 51
92.5593568327
  0
LINE
  5
9F
330
78
100
AcDbEntity
  8
$DDT_AUDIT_GENERATED_(86)
  6
Continuous
 62
     7
100
AcDbLine
 10
83.8658855045
 20
437.232090963
 30
0.0
 11
83.8929611208
 21
437.7966674036
 31
0.0
  0
LINE
  5
A0
330
78
100
AcDbEntity
  8
$DDT_AUDIT_GENERATED_(86)
  6
Continuous
 62
     7
100
AcDbLine
 10
112.6240106671
 20
437.7849382068
 30
0.0
 11
112.6505237817
 21
437.232090963
 31
0.0
  0
ARC
  5
A1
330
78
100
AcDbEntity
  8
$DDT_AUDIT_GENERATED_(86)
  6
Continuous
 62
     7
100
AcDbCircle
 10
125.473818746
 20
483.1804886152
 30
0.0
 40
1.183477313709518
100
AcDbArc
 50
19.3748975487
 51
30.0473575892
  0
SPLINE
  5
A2
330
78
100
AcDbEntity
  8
$DDT_AUDIT_GENERATED_(86)
  6
Continuous
 62
     7
100
AcDbSpline
210
0.0
220
0.0
230
1.0
 70
     8
 71
     3
 72
    12
 73
     8
 74
     0
 42
0.0000000004858454
 43
0.0000000001
 40
0.0
 40
0.0
 40
0.0
 40
0.0
 40
0.2976972504734591
 40
0.2976972504734591
 40
0.6975076330863031
 40
0.6975076330863031
 40
1.0
 40
1.0
 40
1.0
 40
1.0
 10
70.01815857091165
 20
483.7730742143481
 30
0.0
 10
71.04018229556749
 20
485.7354256400093
 30
0.0
 10
72.16276396127053
 20
487.5913838904127
 30
0.0
 10
75.00157734171431
 20
491.6433653821496
 30
0.0
 10
76.78928239452593
 20
493.7375592041447
 30
0.0
 10
80.15166191650681
 20
496.9443448301982
 30
0.0
 10
81.67222294555081
 20
498.1717394453803
 30
0.0
 10
83.24823958752462
 20
499.2322904781845
 30
0.0
  0
ARC
  5
A3
330
78
100
AcDbEntity
  8
$DDT_AUDIT_GENERATED_(86)
  6
Continuous
 62
     7
100
AcDbCircle
 10
71.0410683246
 20
483.1811891143
 30
0.0
 40
1.18180892529854
100
AcDbArc
 50
149.9450872212
 51
160.6326576409
  0
LINE
  5
A4
330
78
100
AcDbEntity
  8
$DDT_AUDIT_GENERATED_(86)
  6
Continuous
 62
     7
100
AcDbLine
 10
113.5088218497
 20
408.4189501484
 30
0.0
 11
113.5100657567
 21
408.419060151
 31
0.0
  0
LINE
  5
A5
330
78
100
AcDbEntity
  8
$DDT_AUDIT_GENERATED_(86)
  6
Continuous
 62
     7
100
AcDbLine
 10
113.5100657567
 20
408.419060151
 30
0.0
 11
113.3926990535
 21
408.5247376052
 31
0.0
  0
ARC
  5
A6
330
78
100
AcDbEntity
  8
$DDT_AUDIT_GENERATED_(86)
  6
Continuous
 62
     7
100
AcDbCircle
 10
119.1586810526
 20
491.8121553664
 30
0.0
 40
83.58418022786324
100
AcDbArc
 50
266.125000312
 51
266.2269116316
  0
LINE
  5
A7
330
78
100
AcDbEntity
  8
$DDT_AUDIT_GENERATED_(86)
  6
Continuous
 62
     7
100
AcDbLine
 10
115.0985823413
 20
409.5723910101
 30
0.0
 11
115.0986361094
 21
409.5722401237
 31
0.0
  0
ARC
  5
A8
330
78
100
AcDbEntity
  8
$DDT_AUDIT_GENERATED_(86)
  6
Continuous
 62
     7
100
AcDbCircle
 10
8.360255062
 20
413.6350165023
 30
0.0
 40
106.815673665107
100
AcDbArc
 50
357.7366912731
 51
357.8202065768
  0
LINE
  5
A9
330
78
100
AcDbEntity
  8
$DDT_AUDIT_GENERATED_(86)
  6
Continuous
 62
     7
100
AcDbLine
 10
115.0003437032
 20
409.6608454771
 30
0.0
 11
115.0985823413
 21
409.5723910101
 31
0.0
  0
ARC
  5
AA
330
78
100
AcDbEntity
  8
$DDT_AUDIT_GENERATED_(86)
  6
Continuous
 62
     7
100
AcDbCircle
 10
118.3817219836
 20
405.7369072045
 30
0.0
 40
5.069871500784963
100
AcDbArc
 50
127.1600572559
 51
130.5943748358
  0
LINE
  5
AB
330
78
100
AcDbEntity
  8
$DDT_AUDIT_GENERATED_(86)
  6
Continuous
 62
     7
100
AcDbLine
 10
83.0075874365
 20
408.4189501484
 30
0.0
 11
83.0789398191
 21
408.3964474004
 31
0.0
  0
LINE
  5
AC
330
78
100
AcDbEntity
  8
$DDT_AUDIT_GENERATED_(86)
  6
Continuous
 62
     7
100
AcDbLine
 10
83.0063435295
 20
408.419060151
 30
0.0
 11
83.0075874365
 21
408.4189501484
 31
0.0
  0
LINE
  5
AD
330
78
100
AcDbEntity
  8
$DDT_AUDIT_GENERATED_(86)
  6
Continuous
 62
     7
100
AcDbLine
 10
83.1237102327
 20
408.5247376052
 30
0.0
 11
83.0063435295
 21
408.419060151
 31
0.0
  0
LINE
  5
AE
330
78
100
AcDbEntity
  8
$DDT_AUDIT_GENERATED_(86)
  6
Continuous
 62
     7
100
AcDbLine
 10
81.4178269449
 20
409.5723910101
 30
0.0
 11
81.516065583
 21
409.6608454771
 31
0.0
  0
ARC
  5
AF
330
78
100
AcDbEntity
  8
$DDT_AUDIT_GENERATED_(86)
  6
Continuous
 62
     7
100
AcDbCircle
 10
77.3577282419
 20
491.8121552412
 30
0.0
 40
83.58418010245076
100
AcDbArc
 50
273.7595711213
 51
273.8749996881
  0
ARC
  5
B0
330
78
100
AcDbEntity
  8
$DDT_AUDIT_GENERATED_(86)
  6
Continuous
 62
     7
100
AcDbCircle
 10
188.1561539158
 20
413.6350164902
 30
0.0
 40
106.815673356455
100
AcDbArc
 50
182.1797934231
 51
182.2651129237
  0
LINE
  5
B1
330
78
100
AcDbEntity
  8
$DDT_AUDIT_GENERATED_(86)
  6
Continuous
 62
     7
100
AcDbLine
 10
81.4177731768
 20
409.5722401237
 30
0.0
 11
81.4178269449
 21
409.5723910101
 31
0.0
  0
LINE
  5
B2
330
78
100
AcDbEntity
  8
$DDT_AUDIT_GENERATED_(86)
  6
Continuous
 62
     7
100
AcDbLine
 10
83.38862527
 20
408.3502949466
 30
0.0
 11
83.289373684
 21
408.2609284172
 31
0.0
  0
ARC
  5
B3
330
78
100
AcDbEntity
  8
$DDT_AUDIT_GENERATED_(86)
  6
Continuous
 62
     7
100
AcDbCircle
 10
80.7252632371
 20
404.5105182821
 30
0.0
 40
4.543152932198768
100
AcDbArc
 50
55.6400519084
 51
58.7970414975
  0
SPLINE
  5
B4
330
78
100
AcDbEntity
  8
$DDT_AUDIT_GENERATED_(86)
  6
Continuous
 62
     7
100
AcDbSpline
210
0.0
220
0.0
230
1.0
 70
     8
 71
     3
 72
    12
 73
     8
 74
     0
 42
0.0000000006622219
 43
0.0000000001
 40
0.0
 40
0.0
 40
0.0
 40
0.0
 40
0.2392605069716243
 40
0.2392605069716243
 40
0.7853883254248362
 40
0.7853883254248362
 40
1.0
 40
1.0
 40
1.0
 40
1.0
 10
81.19711114701894
 20
409.7773474319274
 30
0.0
 10
80.30943742506193
 20
410.4744811843179
 30
0.0
 10
79.44300388406307
 20
411.2258194040528
 30
0.0
 10
76.67933371224186
 20
413.8616009165812
 30
0.0
 10
74.88535062217927
 20
415.9633051560221
 30
0.0
 10
72.61141341750644
 20
419.2090103968565
 30
0.0
 10
71.99487177104014
 20
420.1599021513728
 30
0.0
 10
71.40496654937267
 20
421.1430704119073
 30
0.0
  0
ARC
  5
B5
330
78
100
AcDbEntity
  8
$DDT_AUDIT_GENERATED_(86)
  6
Continuous
 62
     7
100
AcDbCircle
 10
78.1384201689
 20
405.7415371625
 30
0.0
 40
5.06392683897865
100
AcDbArc
 50
49.4036087467
 51
52.8419591618
  0
SPLINE
  5
B6
330
78
100
AcDbEntity
  8
$DDT_AUDIT_GENERATED_(86)
  6
Continuous
 62
     7
100
AcDbSpline
210
0.0
220
0.0
230
1.0
 70
     8
 71
     3
 72
     8
 73
     4
 74
     0
 42
0.0000000159744462
 43
0.0000000001
 40
0.0
 40
0.0
 40
0.0
 40
0.0
 40
0.4508615369769092
 40
0.4508615369769092
 40
0.4508615369769092
 40
0.4508615369769092
 10
132.3639302277834
 20
440.0282999611225
 30
0.0
 10
132.2732180639447
 20
440.0492425141263
 30
0.0
 10
132.1918616576257
 20
440.1024200932977
 30
0.0
 10
132.1359498280949
 20
440.175413706148
 30
0.0
  0
SPLINE
  5
B7
330
78
100
AcDbEntity
  8
$DDT_AUDIT_GENERATED_(86)
  6
Continuous
 62
     7
100
AcDbSpline
210
0.0
220
0.0
230
1.0
 70
     8
 71
     3
 72
     8
 73
     4
 74
     0
 42
0.0000000159809655
 43
0.0000000001
 40
0.5545729548224251
 40
0.5545729548224251
 40
0.5545729548224251
 40
0.5545729548224251
 40
1.0
 40
1.0
 40
1.0
 40
1.0
 10
131.1960104152464
 20
436.1003838620068
 30
0.0
 10
131.2775820661759
 20
436.1402689252948
 30
0.0
 10
131.372902339312
 20
436.1518803452796
 30
0.0
 10
131.4624449791705
 20
436.1312077979866
 30
0.0
  0
ARC
  5
B8
330
78
100
AcDbEntity
  8
$DDT_AUDIT_GENERATED_(86)
  6
Continuous
 62
     7
100
AcDbCircle
 10
132.7791842216
 20
440.6297988017
 30
0.0
 40
0.4000609484025105
100
AcDbArc
 50
169.2700287261
 51
217.4195122874
  0
ARC
  5
B9
330
78
100
AcDbEntity
  8
$DDT_AUDIT_GENERATED_(86)
  6
Continuous
 62
     7
100
AcDbCircle
 10
131.5716227442
 20
435.4086343472
 30
0.0
 40
0.4000609483245076
100
AcDbArc
 50
117.0491175529
 51
164.6435871248
  0
SPLINE
  5
BA
330
78
100
AcDbEntity
  8
$DDT_AUDIT_GENERATED_(86)
  6
Continuous
 62
     7
100
AcDbSpline
210
0.0
220
0.0
230
1.0
 70
     8
 71
     3
 72
     8
 73
     4
 74
     0
 42
0.0000000159519244
 43
0.0000000001
 40
0.5429839676887371
 40
0.5429839676887371
 40
0.5429839676887371
 40
0.5429839676887371
 40
1.0
 40
1.0
 40
1.0
 40
1.0
 10
64.38288776295359
 20
440.1786226320766
 30
0.0
 10
64.32693426965913
 20
440.1040320628283
 30
0.0
 10
64.2444295897712
 20
440.0495284137953
 30
0.0
 10
64.15247905840751
 20
440.0282999611235
 30
0.0
  0
SPLINE
  5
BB
330
78
100
AcDbEntity
  8
$DDT_AUDIT_GENERATED_(86)
  6
Continuous
 62
     7
100
AcDbSpline
210
0.0
220
0.0
230
1.0
 70
     8
 71
     3
 72
     8
 73
     4
 74
     0
 42
0.0000000160049833
 43
0.0000000001
 40
0.0
 40
0.0
 40
0.0
 40
0.0
 40
0.4379105163903782
 40
0.4379105163903782
 40
0.4379105163903782
 40
0.4379105163903782
 10
65.05396430701677
 20
436.1312077979869
 30
0.0
 10
65.14199583069885
 20
436.1515314766215
 30
0.0
 10
65.2354128217529
 20
436.1407110806763
 30
0.0
 10
65.31603239525624
 20
436.1024916501324
 30
0.0
  0
ARC
  5
BC
330
78
100
AcDbEntity
  8
$DDT_AUDIT_GENERATED_(86)
  6
Continuous
 62
     7
100
AcDbCircle
 10
63.7372250646
 20
440.6297988017
 30
0.0
 40
0.4000609491563209
100
AcDbArc
 50
325.9921783297
 51
10.7299712739
  0
ARC
  5
BD
330
78
100
AcDbEntity
  8
$DDT_AUDIT_GENERATED_(86)
  6
Continuous
 62
     7
100
AcDbCircle
 10
64.9447865419
 20
435.4086343472
 30
0.0
 40
0.4000609484452298
100
AcDbArc
 50
15.3564128751
 51
60.1794715681
  0
SPLINE
  5
BE
330
78
100
AcDbEntity
  8
$DDT_AUDIT_GENERATED_(86)
  6
Continuous
 62
     7
100
AcDbSpline
210
0.0
220
0.0
230
1.0
 70
     8
 71
     3
 72
     8
 73
     4
 74
     0
 42
0.0000000166159634
 43
0.0000000001
 40
0.5289775428511291
 40
0.5289775428511291
 40
0.5289775428511291
 40
0.5289775428511291
 40
1.0
 40
1.0
 40
1.0
 40
1.0
 10
96.16547008082715
 20
403.7475189176383
 30
0.0
 10
96.22464102414018
 20
403.6763690933232
 30
0.0
 10
96.25820464309379
 20
403.5848375618527
 30
0.0
 10
96.25820464309383
 20
403.4913920868842
 30
0.0
  0
SPLINE
  5
BF
330
78
100
AcDbEntity
  8
$DDT_AUDIT_GENERATED_(86)
  6
Continuous
 62
     7
100
AcDbSpline
210
0.0
220
0.0
230
1.0
 70
     8
 71
     3
 72
     8
 73
     4
 74
     0
 42
0.0000000166348705
 43
0.0000000001
 40
0.0
 40
0.0
 40
0.0
 40
0.0
 40
0.4644631145435294
 40
0.4644631145435294
 40
0.4644631145435294
 40
0.4644631145435294
 10
100.2582046430932
 20
403.4913920868862
 30
0.0
 10
100.2582046430932
 20
403.5835366455915
 30
0.0
 10
100.2907677124613
 20
403.6736871564387
 30
0.0
 10
100.3483766410789
 20
403.7444072558914
 30
0.0
  0
LINE
  5
C0
330
78
100
AcDbEntity
  8
$DDT_AUDIT_GENERATED_(86)
  6
Continuous
 62
     7
100
AcDbLine
 10
131.7089577814
 20
437.1097133665
 30
0.0
 11
131.4956063666
 21
437.1589694217
 31
0.0
  0
LINE
  5
C1
330
78
100
AcDbEntity
  8
$DDT_AUDIT_GENERATED_(86)
  6
Continuous
 62
     7
100
AcDbLine
 10
65.0208029196
 20
437.1589694217
 30
0.0
 11
64.8075485529
 21
437.1097357718
 31
0.0
  0
LINE
  5
C2
330
78
100
AcDbEntity
  8
$DDT_AUDIT_GENERATED_(86)
  6
Continuous
 62
     7
100
AcDbLine
 10
64.3330551605
 20
439.0345717053
 30
0.0
 11
64.6000300738
 21
439.0962077206
 31
0.0
  0
LINE
  5
C3
330
78
100
AcDbEntity
  8
$DDT_AUDIT_GENERATED_(86)
  6
Continuous
 62
     7
100
AcDbLine
 10
131.9163792124
 20
439.0962077206
 30
0.0
 11
132.1651166956
 21
439.0387821478
 31
0.0
  0
LINE
  5
C4
330
78
100
AcDbEntity
  8
$DDT_AUDIT_GENERATED_(86)
  6
Continuous
 62
     7
100
AcDbLine
 10
99.2493247942
 20
403.6680663896
 30
0.0
 11
99.2493247942
 21
403.3913523246
 31
0.0
  0
LINE
  5
C5
330
78
100
AcDbEntity
  8
$DDT_AUDIT_GENERATED_(86)
  6
Continuous
 62
     7
100
AcDbLine
 10
97.267084492
 20
403.4098579494
 30
0.0
 11
97.267084492
 21
403.6680663896
 31
0.0
  0
SPLINE
  5
C6
330
78
100
AcDbEntity
  8
$DDT_AUDIT_GENERATED_(86)
  6
Continuous
 62
     7
100
AcDbSpline
210
0.0
220
0.0
230
1.0
 70
     8
 71
     3
 72
    12
 73
     8
 74
     0
 42
0.0000000004858454
 43
0.0000000001
 40
0.0
 40
0.0
 40
0.0
 40
0.0
 40
0.3024923669136279
 40
0.3024923669136279
 40
0.702302749526511
 40
0.702302749526511
 40
1.0
 40
1.0
 40
1.0
 40
1.0
 10
113.2681696986619
 20
499.2322904781835
 30
0.0
 10
114.8441863406354
 20
498.1717394453796
 30
0.0
 10
116.3647473696836
 20
496.9443448301978
 30
0.0
 10
119.7271268916559
 20
493.7375592041448
 30
0.0
 10
121.5148319444722
 20
491.6433653821495
 30
0.0
 10
124.353645324916
 20
487.5913838904126
 30
0.0
 10
125.4762269906161
 20
485.7354256400093
 30
0.0
 10
126.4982507152726
 20
483.7730742143481
 30
0.0
  0
ARC
  5
C7
330
78
100
AcDbEntity
  8
$DDT_AUDIT_GENERATED_(86)
  6
Continuous
 62
     7
100
AcDbCircle
 10
85.9912654181
 20
503.5779094534
 30
0.0
 40
2.408813158949543
100
AcDbArc
 50
294.1914840397
 51
296.2831712793
  0
ARC
  5
C8
330
78
100
AcDbEntity
  8
$DDT_AUDIT_GENERATED_(86)
  6
Continuous
 62
     7
100
AcDbCircle
 10
83.1550632224
 20
501.2896229327
 30
0.0
 40
3.824386736727791
100
AcDbArc
 50
0.0329153859
 51
1.363655017
  0
ARC
  5
C9
330
78
100
AcDbEntity
  8
$DDT_AUDIT_GENERATED_(86)
  6
Continuous
 62
     7
100
AcDbCircle
 10
98.2568269476
 20
478.6284506608
 30
0.0
 40
25.39262086509614
100
AcDbArc
 50
63.822262518
 51
116.169649226
  0
ARC
  5
CA
330
78
100
AcDbEntity
  8
$DDT_AUDIT_GENERATED_(86)
  6
Continuous
 62
     7
100
AcDbCircle
 10
106.2832269726
 20
494.3044807217
 30
0.0
 40
7.788888732675708
100
AcDbArc
 50
65.2987055005
 51
65.9378966969
  0
ARC
  5
CB
330
78
100
AcDbEntity
  8
$DDT_AUDIT_GENERATED_(86)
  6
Continuous
 62
     7
100
AcDbCircle
 10
69.653312765
 20
479.4927596558
 30
0.0
 40
4.118992620312026
100
AcDbArc
 50
87.5991250627
 51
90.6999802627
  0
ARC
  5
CC
330
78
100
AcDbEntity
  8
$DDT_AUDIT_GENERATED_(86)
  6
Continuous
 62
     7
100
AcDbCircle
 10
126.8631806309
 20
479.4870934821
 30
0.0
 40
4.124657346437727
100
AcDbArc
 50
89.3021495839
 51
92.3987450907
  0
LINE
  5
CE
330
78
100
AcDbEntity
  8
$DDT_AUDIT_GENERATED_(CD)
  6
Continuous
 62
     7
100
AcDbLine
 10
127.0538408769
 20
454.0996189177
 30
0.0
 11
123.0082046431
 21
454.0996189177
 31
0.0
  0
LINE
  5
CF
330
78
100
AcDbEntity
  8
$DDT_AUDIT_GENERATED_(CD)
  6
Continuous
 62
     7
100
AcDbLine
 10
123.0082046431
 20
453.924404496
 30
0.0
 11
123.0082046431
 21
453.8496191196
 31
0.0
  0
SPLINE
  5
D0
330
78
100
AcDbEntity
  8
$DDT_AUDIT_GENERATED_(CD)
  6
Continuous
 62
     7
100
AcDbSpline
210
0.0
220
0.0
230
1.0
 70
     8
 71
     3
 72
     8
 73
     4
 74
     0
 42
0.0000000004487437
 43
0.0000000001
 40
0.0
 40
0.0
 40
0.0
 40
0.0
 40
0.094073486876096
 40
0.094073486876096
 40
0.094073486876096
 40
0.094073486876096
 10
123.0082046430921
 20
453.8496191195739
 30
0.0
 10
123.0082046520659
 20
453.1491782256996
 30
0.0
 10
122.96075765936
 20
452.4512615000674
 30
0.0
 10
122.868516210451
 20
451.7609915267924
 30
0.0
  0
SPLINE
  5
D1
330
78
100
AcDbEntity
  8
$DDT_AUDIT_GENERATED_(CD)
  6
Continuous
 62
     7
100
AcDbSpline
210
0.0
220
0.0
230
1.0
 70
     8
 71
     3
 72
     8
 73
     4
 74
     0
 42
0.0000000004495182
 43
0.0000000001
 40
0.8760276769812254
 40
0.8760276769812254
 40
0.8760276769812254
 40
0.8760276769812254
 40
0.9753294710427298
 40
0.9753294710427298
 40
0.9753294710427298
 40
0.9753294710427298
 10
113.1954096244414
 20
438.1022667905154
 30
0.0
 10
112.5661991062973
 20
437.722218641406
 30
0.0
 10
111.9191186808442
 20
437.3690571793094
 30
0.0
 10
111.2581647855312
 20
437.0434350336255
 30
0.0
  0
SPLINE
  5
D2
330
78
100
AcDbEntity
  8
$DDT_AUDIT_GENERATED_(CD)
  6
Continuous
 62
     7
100
AcDbSpline
210
0.0
220
0.0
230
1.0
 70
     8
 71
     3
 72
     8
 73
     4
 74
     0
 42
0.0000000004492062
 43
0.0000000001
 40
0.984979122628381
 40
0.984979122628381
 40
0.984979122628381
 40
0.984979122628381
 40
1.0
 40
1.0
 40
1.0
 40
1.0
 10
111.065090852754
 20
436.9492887986067
 30
0.0
 10
110.9647095699612
 20
436.9008441349046
 30
0.0
 10
110.8640197332258
 20
436.8530310514485
 30
0.0
 10
110.7630351746324
 20
436.8058518070566
 30
0.0
  0
SPLINE
  5
D3
330
78
100
AcDbEntity
  8
$DDT_AUDIT_GENERATED_(CD)
  6
Continuous
 62
     7
100
AcDbSpline
210
0.0
220
0.0
230
1.0
 70
     8
 71
     3
 72
    10
 73
     6
 74
     0
 42
0.0000000004418753
 43
0.0000000001
 40
0.0
 40
0.0
 40
0.0
 40
0.0
 40
0.5
 40
0.5
 40
0.9767171048266361
 40
0.9767171048266361
 40
0.9767171048266361
 40
0.9767171048266361
 10
109.2535626177408
 20
436.1556049169356
 30
0.0
 10
105.7570320625626
 20
434.7720253971622
 30
0.0
 10
102.0175357393242
 20
434.0996267525832
 30
0.0
 10
94.6740549560931
 20
434.0996115794908
 30
0.0
 10
91.10765970746913
 20
434.7108752025681
 30
0.0
 10
87.7528563837565
 20
435.9669468572529
 30
0.0
  0
SPLINE
  5
D4
330
78
100
AcDbEntity
  8
$DDT_AUDIT_GENERATED_(CD)
  6
Continuous
 62
     7
100
AcDbSpline
210
0.0
220
0.0
230
1.0
 70
     8
 71
     3
 72
     8
 73
     4
 74
     0
 42
0.0000000004433436
 43
0.0000000001
 40
0.9857140777756572
 40
0.9857140777756572
 40
0.9857140777756572
 40
0.9857140777756572
 40
1.0
 40
1.0
 40
1.0
 40
1.0
 10
87.56314047290276
 20
436.0387527484298
 30
0.0
 10
87.46284749790084
 20
436.0771235393964
 30
0.0
 10
87.36274782481858
 20
436.1160739613848
 30
0.0
 10
87.26284666844572
 20
436.1556049169356
 30
0.0
  0
LINE
  5
D5
330
78
100
AcDbEntity
  8
$DDT_AUDIT_GENERATED_(CD)
  6
Continuous
 62
     7
100
AcDbLine
 10
133.2077668339
 20
454.0996189177
 30
0.0
 11
128.5621865231
 21
454.0996189177
 31
0.0
  0
LINE
  5
D6
330
78
100
AcDbEntity
  8
$DDT_AUDIT_GENERATED_(CD)
  6
Continuous
 62
     7
100
AcDbLine
 10
133.3074837648
 20
454.099792928
 30
0.0
 11
133.2326272372
 21
454.0996184285
 31
0.0
  0
SPLINE
  5
D7
330
78
100
AcDbEntity
  8
$DDT_AUDIT_GENERATED_(CD)
  6
Continuous
 62
     7
100
AcDbSpline
210
0.0
220
0.0
230
1.0
 70
     8
 71
     3
 72
    14
 73
    10
 74
     0
 42
0.0000000001512015
 43
0.0000000001
 40
0.0
 40
0.0
 40
0.0
 40
0.0
 40
0.2334189077813994
 40
0.2334189077813994
 40
0.4889459385209329
 40
0.4889459385209329
 40
0.7444729692604665
 40
0.7444729692604665
 40
1.0
 40
1.0
 40
1.0
 40
1.0
 10
133.4814689885977
 20
455.7996493832711
 30
0.0
 10
133.3174683183491
 20
461.7764071893438
 30
0.0
 10
132.4007065557181
 20
467.7080820099249
 30
0.0
 10
129.0130066754318
 20
479.2690263883863
 30
0.0
 10
126.404482231146
 20
484.8102475926362
 30
0.0
 10
119.8944437033124
 20
494.0639180287945
 30
0.0
 10
115.9949873715196
 20
497.7731247246879
 30
0.0
 10
107.4823617266198
 20
502.7925317744919
 30
0.0
 10
102.8744066255221
 20
504.0996189176624
 30
0.0
 10
98.25820464309325
 20
504.0996189176624
 30
0.0
  0
SPLINE
  5
D8
330
78
100
AcDbEntity
  8
$DDT_AUDIT_GENERATED_(CD)
  6
Continuous
 62
     7
100
AcDbSpline
210
0.0
220
0.0
230
1.0
 70
     8
 71
     3
 72
     8
 73
     4
 74
     0
 42
0.0000000596735839
 43
0.0000000001
 40
0.0
 40
0.0
 40
0.0
 40
0.0
 40
1.0
 40
1.0
 40
1.0
 40
1.0
 10
133.307483764844
 20
454.0997929280232
 30
0.0
 10
133.3618657234154
 20
454.0999832672575
 30
0.0
 10
133.4157772394425
 20
454.1235025792064
 30
0.0
 10
133.4529052190427
 20
454.1632321214333
 30
0.0
  0
SPLINE
  5
D9
330
78
100
AcDbEntity
  8
$DDT_AUDIT_GENERATED_(CD)
  6
Continuous
 62
     7
100
AcDbSpline
210
0.0
220
0.0
230
1.0
 70
     8
 71
     3
 72
    10
 73
     6
 74
     0
 42
0.0000000434193815
 43
0.0000000001
 40
0.0
 40
0.0
 40
0.0
 40
0.0
 40
0.5
 40
0.5
 40
1.0
 40
1.0
 40
1.0
 40
1.0
 10
133.2326272372362
 20
454.0996184285317
 30
0.0
 10
133.207766833885
 20
454.0996189176624
 30
0.0
 10
133.207766833885
 20
454.1211735369404
 30
0.0
 10
133.207766833885
 20
454.1952215859097
 30
0.0
 10
133.207766833885
 20
454.2472590401026
 30
0.0
 10
133.2322762811455
 20
454.2996178151909
 30
0.0
  0
LINE
  5
DA
330
78
100
AcDbEntity
  8
$DDT_AUDIT_GENERATED_(CD)
  6
Continuous
 62
     7
100
AcDbLine
 10
133.2053956302
 20
454.2994368401
 30
0.0
 11
133.2567838208
 21
454.299616701
 31
0.0
  0
LINE
  5
DB
330
78
100
AcDbEntity
  8
$DDT_AUDIT_GENERATED_(CD)
  6
Continuous
 62
     7
100
AcDbLine
 10
133.4553057999
 20
454.3007613045
 30
0.0
 11
133.452905219
 21
454.1632321214
 31
0.0
  0
LINE
  5
DC
330
78
100
AcDbEntity
  8
$DDT_AUDIT_GENERATED_(CD)
  6
Continuous
 62
     7
100
AcDbLine
 10
133.4553057999
 20
454.3007613045
 30
0.0
 11
133.4814689886
 21
455.7996493833
 31
0.0
  0
SPLINE
  5
DD
330
78
100
AcDbEntity
  8
$DDT_AUDIT_GENERATED_(CD)
  6
Continuous
 62
     7
100
AcDbSpline
210
0.0
220
0.0
230
1.0
 70
     8
 71
     3
 72
    14
 73
    10
 74
     0
 42
0.0000000001512015
 43
0.0000000001
 40
0.0
 40
0.0
 40
0.0
 40
0.0
 40
0.2334189077813994
 40
0.2334189077813994
 40
0.4889459385209329
 40
0.4889459385209329
 40
0.7444729692604665
 40
0.7444729692604665
 40
1.0
 40
1.0
 40
1.0
 40
1.0
 10
63.0349402975888
 20
455.7996493832711
 30
0.0
 10
63.19894096783737
 20
461.7764071893438
 30
0.0
 10
64.11570273046837
 20
467.7080820099249
 30
0.0
 10
67.50340261075466
 20
479.2690263883863
 30
0.0
 10
70.1119270550405
 20
484.8102475926362
 30
0.0
 10
76.62196558287404
 20
494.0639180287945
 30
0.0
 10
80.52142191466692
 20
497.7731247246879
 30
0.0
 10
89.03404755956666
 20
502.7925317744919
 30
0.0
 10
93.64200266066437
 20
504.0996189176624
 30
0.0
 10
98.25820464309325
 20
504.0996189176624
 30
0.0
  0
SPLINE
  5
DE
330
78
100
AcDbEntity
  8
$DDT_AUDIT_GENERATED_(CD)
  6
Continuous
 62
     7
100
AcDbSpline
210
0.0
220
0.0
230
1.0
 70
     8
 71
     3
 72
    14
 73
    10
 74
     0
 42
0.0000000004496958
 43
0.0000000001
 40
0.0
 40
0.0
 40
0.0
 40
0.0
 40
0.25
 40
0.25
 40
0.5
 40
0.5
 40
0.75
 40
0.75
 40
0.9753294710429856
 40
0.9753294710429856
 40
0.9753294710429856
 40
0.9753294710429856
 10
73.50820464309436
 20
453.8496191195739
 30
0.0
 10
73.50820461924668
 20
451.9881996135742
 30
0.0
 10
73.84328907082696
 20
450.1446065151737
 30
0.0
 10
75.08406090761332
 20
446.6853545865307
 30
0.0
 10
75.99968296790009
 20
445.0452043400413
 30
0.0
 10
78.23353221888712
 20
442.1166084555769
 30
0.0
 10
79.5661677793012
 20
440.8038218778573
 30
0.0
 10
82.33008766227704
 20
438.6629977658583
 30
0.0
 10
83.75844892272285
 20
437.7823166071157
 30
0.0
 10
85.2582445006604
 20
437.043435033623
 30
0.0
  0
SPLINE
  5
DF
330
78
100
AcDbEntity
  8
$DDT_AUDIT_GENERATED_(CD)
  6
Continuous
 62
     7
100
AcDbSpline
210
0.0
220
0.0
230
1.0
 70
     8
 71
     3
 72
     8
 73
     4
 74
     0
 42
0.0000000004492062
 43
0.0000000001
 40
0.9849791226285238
 40
0.9849791226285238
 40
0.9849791226285238
 40
0.9849791226285238
 40
1.0
 40
1.0
 40
1.0
 40
1.0
 10
85.45131843343536
 20
436.9492887986053
 30
0.0
 10
85.55169971622718
 20
436.9008441349037
 30
0.0
 10
85.65238955296162
 20
436.8530310514481
 30
0.0
 10
85.75337411155408
 20
436.8058518070566
 30
0.0
  0
LINE
  5
E0
330
78
100
AcDbEntity
  8
$DDT_AUDIT_GENERATED_(CD)
  6
Continuous
 62
     7
100
AcDbLine
 10
73.5082046431
 20
453.9357742341
 30
0.0
 11
73.5082046431
 21
453.8496191196
 31
0.0
  0
LINE
  5
E1
330
78
100
AcDbEntity
  8
$DDT_AUDIT_GENERATED_(CD)
  6
Continuous
 62
     7
100
AcDbLine
 10
69.4625684093
 20
454.0996189177
 30
0.0
 11
73.332783555
 21
454.0996189177
 31
0.0
  0
SPLINE
  5
E2
330
78
100
AcDbEntity
  8
$DDT_AUDIT_GENERATED_(CD)
  6
Continuous
 62
     7
100
AcDbSpline
210
0.0
220
0.0
230
1.0
 70
     8
 71
     3
 72
     8
 73
     4
 74
     0
 42
0.0000000596735839
 43
0.0000000001
 40
0.0
 40
0.0
 40
0.0
 40
0.0
 40
1.0
 40
1.0
 40
1.0
 40
1.0
 10
63.20892552134249
 20
454.0997929280232
 30
0.0
 10
63.1545435627711
 20
454.0999832672575
 30
0.0
 10
63.10063204674399
 20
454.1235025792064
 30
0.0
 10
63.06350406714381
 20
454.1632321214333
 30
0.0
  0
LINE
  5
E3
330
78
100
AcDbEntity
  8
$DDT_AUDIT_GENERATED_(CD)
  6
Continuous
 62
     7
100
AcDbLine
 10
63.0611034863
 20
454.3007613045
 30
0.0
 11
63.0635040671
 21
454.1632321214
 31
0.0
  0
LINE
  5
E4
330
78
100
AcDbEntity
  8
$DDT_AUDIT_GENERATED_(CD)
  6
Continuous
 62
     7
100
AcDbLine
 10
63.2089255213
 20
454.099792928
 30
0.0
 11
63.283782049
 21
454.0996184285
 31
0.0
  0
SPLINE
  5
E5
330
78
100
AcDbEntity
  8
$DDT_AUDIT_GENERATED_(CD)
  6
Continuous
 62
     7
100
AcDbSpline
210
0.0
220
0.0
230
1.0
 70
     8
 71
     3
 72
    10
 73
     6
 74
     0
 42
0.0000000434142838
 43
0.0000000001
 40
0.0
 40
0.0
 40
0.0
 40
0.0
 40
0.5
 40
0.5
 40
1.0
 40
1.0
 40
1.0
 40
1.0
 10
63.2837820489503
 20
454.0996184285317
 30
0.0
 10
63.3085251730941
 20
454.0994443248845
 30
0.0
 10
63.308484035137
 20
454.1210241031076
 30
0.0
 10
63.30851012756094
 20
454.1951456548602
 30
0.0
 10
63.30857575695592
 20
454.2472300095066
 30
0.0
 10
63.28413300504099
 20
454.2996178151909
 30
0.0
  0
LINE
  5
E6
330
78
100
AcDbEntity
  8
$DDT_AUDIT_GENERATED_(CD)
  6
Continuous
 62
     7
100
AcDbLine
 10
63.3086424523
 20
454.0996189177
 30
0.0
 11
67.954222763
 21
454.0996189177
 31
0.0
  0
LINE
  5
E7
330
78
100
AcDbEntity
  8
$DDT_AUDIT_GENERATED_(CD)
  6
Continuous
 62
     7
100
AcDbLine
 10
63.0611034863
 20
454.3007613045
 30
0.0
 11
63.0349402976
 21
455.7996493833
 31
0.0
  0
LINE
  5
E8
330
78
100
AcDbEntity
  8
$DDT_AUDIT_GENERATED_(CD)
  6
Continuous
 62
     7
100
AcDbLine
 10
128.563076174
 20
454.1554751254
 30
0.0
 11
128.5597720298
 21
453.9480263676
 31
0.0
  0
LINE
  5
E9
330
78
100
AcDbEntity
  8
$DDT_AUDIT_GENERATED_(CD)
  6
Continuous
 62
     7
100
AcDbLine
 10
69.463543383
 20
454.1554751254
 30
0.0
 11
69.4599196863
 21
453.947873677
 31
0.0
  0
LINE
  5
EA
330
78
100
AcDbEntity
  8
$DDT_AUDIT_GENERATED_(CD)
  6
Continuous
 62
     7
100
AcDbLine
 10
110.7641857908
 20
436.8717705612
 30
0.0
 11
110.7593042152
 21
436.5921052828
 31
0.0
  0
LINE
  5
EB
330
78
100
AcDbEntity
  8
$DDT_AUDIT_GENERATED_(CD)
  6
Continuous
 62
     7
100
AcDbLine
 10
87.2639504897
 20
436.2188427924
 30
0.0
 11
87.2607228374
 21
436.0339307182
 31
0.0
  0
LINE
  5
EC
330
78
100
AcDbEntity
  8
$DDT_AUDIT_GENERATED_(CD)
  6
Continuous
 62
     7
100
AcDbLine
 10
127.4062370843
 20
453.8496189177
 30
0.0
 11
127.1564743694
 21
453.8496189177
 31
0.0
  0
LINE
  5
ED
330
78
100
AcDbEntity
  8
$DDT_AUDIT_GENERATED_(CD)
  6
Continuous
 62
     7
100
AcDbLine
 10
127.056489484
 20
453.9478803182
 30
0.0
 11
127.0528659032
 21
454.1554751254
 31
0.0
  0
ARC
  5
EE
330
78
100
AcDbEntity
  8
$DDT_AUDIT_GENERATED_(CD)
  6
Continuous
 62
     7
100
AcDbCircle
 10
127.1564743694
 20
453.9496189177
 30
0.0
 40
0.0999999999999943
100
AcDbArc
 50
180.9961943127
 51
270.0
  0
LINE
  5
EF
330
78
100
AcDbEntity
  8
$DDT_AUDIT_GENERATED_(CD)
  6
Continuous
 62
     7
100
AcDbLine
 10
67.9566372564
 20
453.9480263676
 30
0.0
 11
67.9533331122
 21
454.1554751254
 31
0.0
  0
LINE
  5
F0
330
78
100
AcDbEntity
  8
$DDT_AUDIT_GENERATED_(CD)
  6
Continuous
 62
     7
100
AcDbLine
 10
68.3063809232
 20
453.8496189177
 30
0.0
 11
68.0566245745
 21
453.8496189177
 31
0.0
  0
ARC
  5
F1
330
78
100
AcDbEntity
  8
$DDT_AUDIT_GENERATED_(CD)
  6
Continuous
 62
     7
100
AcDbCircle
 10
68.0566245745
 20
453.9496189177
 30
0.0
 40
0.1000000000000006
100
AcDbArc
 50
180.912502519
 51
270.0
  0
LINE
  5
F2
330
78
100
AcDbEntity
  8
$DDT_AUDIT_GENERATED_(CD)
  6
Continuous
 62
     7
100
AcDbLine
 10
128.210028363
 20
453.8496189177
 30
0.0
 11
127.4062370843
 21
453.8496189177
 31
0.0
  0
LINE
  5
F3
330
78
100
AcDbEntity
  8
$DDT_AUDIT_GENERATED_(CD)
  6
Continuous
 62
     7
100
AcDbLine
 10
128.4597847116
 20
453.8496189177
 30
0.0
 11
128.210028363
 21
453.8496189177
 31
0.0
  0
ARC
  5
F4
330
78
100
AcDbEntity
  8
$DDT_AUDIT_GENERATED_(CD)
  6
Continuous
 62
     7
100
AcDbCircle
 10
128.4597847116
 20
453.9496189177
 30
0.0
 40
0.1000000000000014
100
AcDbArc
 50
270.0
 51
359.087497481
  0
LINE
  5
F5
330
78
100
AcDbEntity
  8
$DDT_AUDIT_GENERATED_(CD)
  6
Continuous
 62
     7
100
AcDbLine
 10
87.2607228374
 20
436.0339307182
 30
0.0
 11
87.260720328
 21
436.0337869521
 31
0.0
  0
ARC
  5
F6
330
78
100
AcDbEntity
  8
$DDT_AUDIT_GENERATED_(CD)
  6
Continuous
 62
     7
100
AcDbCircle
 10
97.4388055307
 20
461.8633997104
 30
0.0
 40
27.89766150154014
100
AcDbArc
 50
247.7488026472
 51
248.3000609252
  0
ELLIPSE
  5
F7
330
78
100
AcDbEntity
  8
$DDT_AUDIT_GENERATED_(CD)
  6
Continuous
 62
     7
100
AcDbEllipse
 10
86.9119721924
 20
436.1364758956
 30
0.0
 11
0.08351048074737438
 21
0.05500908657070021
 31
0.0
210
0.0
220
0.0
230
1.0
 40
0.9882054002
 41
3.747059649949332
 42
5.677718310814651
  0
ARC
  5
F8
330
78
100
AcDbEntity
  8
$DDT_AUDIT_GENERATED_(CD)
  6
Continuous
 62
     7
100
AcDbCircle
 10
87.1607380589
 20
436.0356760859
 30
0.0
 40
0.1000001147669621
100
AcDbArc
 50
248.2999240609
 51
358.9175428775
  0
LINE
  5
F9
330
78
100
AcDbEntity
  8
$DDT_AUDIT_GENERATED_(CD)
  6
Continuous
 62
     7
100
AcDbLine
 10
85.7571082613
 20
436.59192251
 30
0.0
 11
85.757105071
 21
436.5921052828
 31
0.0
  0
LINE
  5
FA
330
78
100
AcDbEntity
  8
$DDT_AUDIT_GENERATED_(CD)
  6
Continuous
 62
     7
100
AcDbLine
 10
85.757105071
 20
436.5921052828
 30
0.0
 11
85.7522234954
 21
436.8717705612
 31
0.0
  0
ARC
  5
FB
330
78
100
AcDbEntity
  8
$DDT_AUDIT_GENERATED_(CD)
  6
Continuous
 62
     7
100
AcDbCircle
 10
97.1852720543
 20
461.2704493863
 30
0.0
 40
27.25273820228198
100
AcDbArc
 50
245.3419295423
 51
245.9251104047
  0
ARC
  5
FC
330
78
100
AcDbEntity
  8
$DDT_AUDIT_GENERATED_(CD)
  6
Continuous
 62
     7
100
AcDbCircle
 10
85.8570930308
 20
436.5936677506
 30
0.0
 40
0.0999999999999975
100
AcDbArc
 50
181.0
 51
245.3415577002
  0
LINE
  5
FD
330
78
100
AcDbEntity
  8
$DDT_AUDIT_GENERATED_(CD)
  6
Continuous
 62
     7
100
AcDbLine
 10
109.2556889576
 20
436.0337869911
 30
0.0
 11
109.2556864488
 21
436.0339307182
 31
0.0
  0
LINE
  5
FE
330
78
100
AcDbEntity
  8
$DDT_AUDIT_GENERATED_(CD)
  6
Continuous
 62
     7
100
AcDbLine
 10
109.2556864488
 20
436.0339307182
 30
0.0
 11
109.2524587965
 21
436.2188427924
 31
0.0
  0
ARC
  5
FF
330
78
100
AcDbEntity
  8
$DDT_AUDIT_GENERATED_(CD)
  6
Continuous
 62
     7
100
AcDbCircle
 10
99.0829447942
 20
461.8501639288
 30
0.0
 40
27.88338887423192
100
AcDbArc
 50
291.6997979878
 51
292.2513384398
  0
ARC
  5
100
330
78
100
AcDbEntity
  8
$DDT_AUDIT_GENERATED_(CD)
  6
Continuous
 62
     7
100
AcDbCircle
 10
109.3556712273
 20
436.0356760859
 30
0.0
 40
0.1000001147046295
100
AcDbArc
 50
181.0824347152
 51
291.7000759563
  0
LINE
  5
101
330
78
100
AcDbEntity
  8
$DDT_AUDIT_GENERATED_(CD)
  6
Continuous
 62
     7
100
AcDbLine
 10
110.7593042152
 20
436.5921052828
 30
0.0
 11
110.7593010249
 21
436.59192251
 31
0.0
  0
ARC
  5
102
330
78
100
AcDbEntity
  8
$DDT_AUDIT_GENERATED_(CD)
  6
Continuous
 62
     7
100
AcDbCircle
 10
99.3376302023
 20
461.2561134249
 30
0.0
 40
27.23700060289823
100
AcDbArc
 50
294.0747211122
 51
294.6582389407
  0
ARC
  5
103
330
78
100
AcDbEntity
  8
$DDT_AUDIT_GENERATED_(CD)
  6
Continuous
 62
     7
100
AcDbCircle
 10
110.6593162553
 20
436.5936677506
 30
0.0
 40
0.0999999999999865
100
AcDbArc
 50
294.6584422998
 51
359.0
  0
ELLIPSE
  5
104
330
78
100
AcDbEntity
  8
$DDT_AUDIT_GENERATED_(CD)
  6
Continuous
 62
     7
100
AcDbEllipse
 10
110.4075632674
 20
436.4796450798
 30
0.0
 11
0.04079335675778901
 21
-0.09130116124360377
 31
0.0
210
0.0
220
0.0
230
1.0
 40
0.995367368
 41
0.0
 42
1.134933210653581
  0
LINE
  5
105
330
78
100
AcDbEntity
  8
$DDT_AUDIT_GENERATED_(CD)
  6
Continuous
 62
     7
100
AcDbLine
 10
69.1101722019
 20
453.8496189177
 30
0.0
 11
68.3063809232
 21
453.8496189177
 31
0.0
  0
LINE
  5
106
330
78
100
AcDbEntity
  8
$DDT_AUDIT_GENERATED_(CD)
  6
Continuous
 62
     7
100
AcDbLine
 10
69.3599349168
 20
453.8496189177
 30
0.0
 11
69.1101722019
 21
453.8496189177
 31
0.0
  0
ARC
  5
107
330
78
100
AcDbEntity
  8
$DDT_AUDIT_GENERATED_(CD)
  6
Continuous
 62
     7
100
AcDbCircle
 10
69.3599349168
 20
453.9496189177
 30
0.0
 40
0.1000000000000011
100
AcDbArc
 50
270.0
 51
359.0000000011
  0
LINE
  5
109
330
78
100
AcDbEntity
  8
$DDT_AUDIT_GENERATED_(108)
  6
Continuous
 62
     7
100
AcDbLine
 10
63.5586439912
 20
453.5996189177
 30
0.0
 11
67.9582046431
 21
453.5996189177
 31
0.0
  0
LINE
  5
10A
330
78
100
AcDbEntity
  8
$DDT_AUDIT_GENERATED_(108)
  6
Continuous
 62
     7
100
AcDbLine
 10
63.2089255213
 20
453.5994449073
 30
0.0
 11
63.2589216456
 21
453.5996198959
 31
0.0
  0
LINE
  5
10B
330
78
100
AcDbEntity
  8
$DDT_AUDIT_GENERATED_(108)
  6
Continuous
 62
     7
100
AcDbLine
 10
63.2589216456
 20
453.5996198959
 30
0.0
 11
63.5586403083
 21
453.6006689244
 31
0.0
  0
SPLINE
  5
10C
330
78
100
AcDbEntity
  8
$DDT_AUDIT_GENERATED_(108)
  6
Continuous
 62
     7
100
AcDbSpline
210
0.0
220
0.0
230
1.0
 70
     8
 71
     3
 72
    14
 73
    10
 74
     0
 42
0.0000000001518962
 43
0.0000000001
 40
0.0
 40
0.0
 40
0.0
 40
0.0
 40
0.2304132386870615
 40
0.2304132386870615
 40
0.4869421591247077
 40
0.4869421591247077
 40
0.7434710795623538
 40
0.7434710795623538
 40
1.0
 40
1.0
 40
1.0
 40
1.0
 10
63.043804452214
 20
451.5996189176624
 30
0.0
 10
63.2298155728712
 20
445.724448725254
 30
0.0
 10
64.14276272247405
 20
439.8988102596975
 30
0.0
 10
67.50340261071113
 20
428.4302114468949
 30
0.0
 10
70.11192705504047
 20
422.8889902426886
 30
0.0
 10
76.62196558287403
 20
413.6353198065302
 30
0.0
 10
80.5214219146669
 20
409.9261131106369
 30
0.0
 10
89.03404755956663
 20
404.9067060608328
 30
0.0
 10
93.64200266066436
 20
403.5996189176624
 30
0.0
 10
98.25820464309322
 20
403.5996189176624
 30
0.0
  0
SPLINE
  5
10D
330
78
100
AcDbEntity
  8
$DDT_AUDIT_GENERATED_(108)
  6
Continuous
 62
     7
100
AcDbSpline
210
0.0
220
0.0
230
1.0
 70
     8
 71
     3
 72
     8
 73
     4
 74
     0
 42
0.0000000684083075
 43
0.0000000001
 40
0.0
 40
0.0
 40
0.0
 40
0.0
 40
1.0
 40
1.0
 40
1.0
 40
1.0
 10
63.20892552134248
 20
453.5994449073015
 30
0.0
 10
63.16120260648147
 20
453.5992778750116
 30
0.0
 10
63.1137457200204
 20
453.5813377685918
 30
0.0
 10
63.07784661637366
 20
453.5498931961975
 30
0.0
  0
LINE
  5
10E
330
78
100
AcDbEntity
  8
$DDT_AUDIT_GENERATED_(108)
  6
Continuous
 62
     7
100
AcDbLine
 10
69.4582046431
 20
453.5996189177
 30
0.0
 11
72.8143641123
 21
453.5996189177
 31
0.0
  0
SPLINE
  5
10F
330
78
100
AcDbEntity
  8
$DDT_AUDIT_GENERATED_(108)
  6
Continuous
 62
     7
100
AcDbSpline
210
0.0
220
0.0
230
1.0
 70
     8
 71
     3
 72
    14
 73
    10
 74
     0
 42
0.0000000004425342
 43
0.0000000001
 40
0.0
 40
0.0
 40
0.0
 40
0.0
 40
0.25
 40
0.25
 40
0.5
 40
0.5
 40
0.75
 40
0.75
 40
1.0
 40
1.0
 40
1.0
 40
1.0
 10
73.01428919483921
 20
453.4050926145073
 30
0.0
 10
73.0660584524095
 20
451.514236509779
 30
0.0
 10
73.45250132443218
 20
449.6506689288524
 30
0.0
 10
74.78747478419162
 20
446.1631249751233
 30
0.0
 10
75.74743021911691
 20
444.5132565682165
 30
0.0
 10
78.06139920207339
 20
441.5724643242517
 30
0.0
 10
79.43273295616147
 20
440.2547097541419
 30
0.0
 10
82.41105116976176
 20
437.9990841978006
 30
0.0
 10
84.04354981346262
 20
437.0386033558712
 30
0.0
 10
85.75820464309322
 20
436.2551073356371
 30
0.0
  0
ARC
  5
110
330
78
100
AcDbEntity
  8
$DDT_AUDIT_GENERATED_(108)
  6
Continuous
 62
     7
100
AcDbCircle
 10
72.8143641123
 20
453.3996189177
 30
0.0
 40
0.2000000000000008
100
AcDbArc
 50
1.5682944636
 51
90.0
  0
SPLINE
  5
111
330
78
100
AcDbEntity
  8
$DDT_AUDIT_GENERATED_(108)
  6
Continuous
 62
     7
100
AcDbSpline
210
0.0
220
0.0
230
1.0
 70
     8
 71
     3
 72
    10
 73
     6
 74
     0
 42
0.0000000004419714
 43
0.0000000001
 40
0.0
 40
0.0
 40
0.0
 40
0.0
 40
0.5
 40
0.5
 40
1.0
 40
1.0
 40
1.0
 40
1.0
 10
87.25820464309322
 20
435.6222038732827
 30
0.0
 10
90.76220448390352
 20
434.2621410472882
 30
0.0
 10
94.50041105343139
 20
433.5996258886847
 30
0.0
 10
102.0158814188188
 20
433.5996119467484
 30
0.0
 10
105.7542419196237
 20
434.2621554542282
 30
0.0
 10
109.2582046430932
 20
435.6222038732827
 30
0.0
  0
LINE
  5
112
330
78
100
AcDbEntity
  8
$DDT_AUDIT_GENERATED_(108)
  6
Continuous
 62
     7
100
AcDbLine
 10
85.7582046431
 20
436.1591336591
 30
0.0
 11
85.7582046431
 21
436.3732639708
 31
0.0
  0
LINE
  5
113
330
78
100
AcDbEntity
  8
$DDT_AUDIT_GENERATED_(108)
  6
Continuous
 62
     7
100
AcDbLine
 10
67.9582046431
 20
453.5996189177
 30
0.0
 11
67.9582046431
 21
453.7496189177
 31
0.0
  0
LINE
  5
114
330
78
100
AcDbEntity
  8
$DDT_AUDIT_GENERATED_(108)
  6
Continuous
 62
     7
100
AcDbLine
 10
87.2582046431
 20
435.821542553
 30
0.0
 11
87.2582046431
 21
435.5285020723
 31
0.0
  0
ARC
  5
115
330
78
100
AcDbEntity
  8
$DDT_AUDIT_GENERATED_(108)
  6
Continuous
 62
     7
100
AcDbCircle
 10
87.1582046431
 20
435.821542553
 30
0.0
 40
0.0999999999999944
100
AcDbArc
 50
0.0
 51
68.4566223606
  0
LINE
  5
116
330
78
100
AcDbEntity
  8
$DDT_AUDIT_GENERATED_(108)
  6
Continuous
 62
     7
100
AcDbLine
 10
69.4582046431
 20
453.7496189177
 30
0.0
 11
69.4582046431
 21
453.5996189177
 31
0.0
  0
ARC
  5
117
330
78
100
AcDbEntity
  8
$DDT_AUDIT_GENERATED_(108)
  6
Continuous
 62
     7
100
AcDbCircle
 10
69.3582046431
 20
453.7496189177
 30
0.0
 40
0.1
100
AcDbArc
 50
0.0
 51
90.0
  0
ARC
  5
118
330
78
100
AcDbEntity
  8
$DDT_AUDIT_GENERATED_(108)
  6
Continuous
 62
     7
100
AcDbCircle
 10
68.0582046431
 20
453.7496189177
 30
0.0
 40
0.0999999999999994
100
AcDbArc
 50
90.0
 51
180.0
  0
SPLINE
  5
119
330
78
100
AcDbEntity
  8
$DDT_AUDIT_GENERATED_(108)
  6
Continuous
 62
     7
100
AcDbSpline
210
0.0
220
0.0
230
1.0
 70
     8
 71
     3
 72
     8
 73
     4
 74
     0
 42
0.0000000071050985
 43
0.0000000001
 40
0.0
 40
0.0
 40
0.0
 40
0.0
 40
1.0
 40
1.0
 40
1.0
 40
1.0
 10
85.89961562653907
 20
436.4642866627775
 30
0.0
 10
86.32665145908159
 20
436.2700057267384
 30
0.0
 10
86.75855992201215
 20
436.0868271281081
 30
0.0
 10
87.19492519555332
 20
435.9145565360031
 30
0.0
  0
ARC
  5
11A
330
78
100
AcDbEntity
  8
$DDT_AUDIT_GENERATED_(108)
  6
Continuous
 62
     7
100
AcDbCircle
 10
85.8582046431
 20
436.3732639708
 30
0.0
 40
0.0999999999999994
100
AcDbArc
 50
65.5367289783
 51
180.0
  0
LINE
  5
11B
330
78
100
AcDbEntity
  8
$DDT_AUDIT_GENERATED_(108)
  6
Continuous
 62
     7
100
AcDbLine
 10
63.0752050318
 20
453.3985569186
 30
0.0
 11
63.0778466164
 21
453.5498931962
 31
0.0
  0
LINE
  5
11C
330
78
100
AcDbEntity
  8
$DDT_AUDIT_GENERATED_(108)
  6
Continuous
 62
     7
100
AcDbLine
 10
63.0752050318
 20
453.3985569186
 30
0.0
 11
63.0438044522
 21
451.5996189177
 31
0.0
  0
SPLINE
  5
11D
330
78
100
AcDbEntity
  8
$DDT_AUDIT_GENERATED_(108)
  6
Continuous
 62
     7
100
AcDbSpline
210
0.0
220
0.0
230
1.0
 70
     8
 71
     3
 72
    14
 73
    10
 74
     0
 42
0.0000000001518962
 43
0.0000000001
 40
0.0
 40
0.0
 40
0.0
 40
0.0
 40
0.2304132386870615
 40
0.2304132386870615
 40
0.4869421591247077
 40
0.4869421591247077
 40
0.7434710795623538
 40
0.7434710795623538
 40
1.0
 40
1.0
 40
1.0
 40
1.0
 10
133.4726048339724
 20
451.5996189176624
 30
0.0
 10
133.2865937133153
 20
445.724448725254
 30
0.0
 10
132.3736465637124
 20
439.8988102596975
 30
0.0
 10
129.0130066754753
 20
428.4302114468949
 30
0.0
 10
126.404482231146
 20
422.8889902426885
 30
0.0
 10
119.8944437033124
 20
413.6353198065302
 30
0.0
 10
115.9949873715196
 20
409.9261131106369
 30
0.0
 10
107.4823617266198
 20
404.9067060608328
 30
0.0
 10
102.8744066255221
 20
403.5996189176624
 30
0.0
 10
98.25820464309322
 20
403.5996189176624
 30
0.0
  0
SPLINE
  5
11E
330
78
100
AcDbEntity
  8
$DDT_AUDIT_GENERATED_(108)
  6
Continuous
 62
     7
100
AcDbSpline
210
0.0
220
0.0
230
1.0
 70
     8
 71
     3
 72
     8
 73
     4
 74
     0
 42
0.0000000684083075
 43
0.0000000001
 40
0.0
 40
0.0
 40
0.0
 40
0.0
 40
1.0
 40
1.0
 40
1.0
 40
1.0
 10
133.307483764844
 20
453.5994449073015
 30
0.0
 10
133.355206679705
 20
453.5992778750116
 30
0.0
 10
133.402663566166
 20
453.5813377685918
 30
0.0
 10
133.4385626698128
 20
453.5498931961975
 30
0.0
  0
LINE
  5
11F
330
78
100
AcDbEntity
  8
$DDT_AUDIT_GENERATED_(108)
  6
Continuous
 62
     7
100
AcDbLine
 10
133.4412042544
 20
453.3985569186
 30
0.0
 11
133.4385626698
 21
453.5498931962
 31
0.0
  0
LINE
  5
120
330
78
100
AcDbEntity
  8
$DDT_AUDIT_GENERATED_(108)
  6
Continuous
 62
     7
100
AcDbLine
 10
133.3074837648
 20
453.5994449073
 30
0.0
 11
133.2574876406
 21
453.5996198959
 31
0.0
  0
LINE
  5
121
330
78
100
AcDbEntity
  8
$DDT_AUDIT_GENERATED_(108)
  6
Continuous
 62
     7
100
AcDbLine
 10
133.2574876406
 20
453.5996198959
 30
0.0
 11
132.9577689779
 21
453.6006689244
 31
0.0
  0
LINE
  5
122
330
78
100
AcDbEntity
  8
$DDT_AUDIT_GENERATED_(108)
  6
Continuous
 62
     7
100
AcDbLine
 10
132.957765295
 20
453.5996189177
 30
0.0
 11
128.5582046431
 21
453.5996189177
 31
0.0
  0
ARC
  5
123
330
78
100
AcDbEntity
  8
$DDT_AUDIT_GENERATED_(108)
  6
Continuous
 62
     7
100
AcDbCircle
 10
123.7020451739
 20
453.3996189177
 30
0.0
 40
0.2000000000000008
100
AcDbArc
 50
90.0
 51
178.4317055364
  0
SPLINE
  5
124
330
78
100
AcDbEntity
  8
$DDT_AUDIT_GENERATED_(108)
  6
Continuous
 62
     7
100
AcDbSpline
210
0.0
220
0.0
230
1.0
 70
     8
 71
     3
 72
    14
 73
    10
 74
     0
 42
0.0000000004425342
 43
0.0000000001
 40
0.0
 40
0.0
 40
0.0
 40
0.0
 40
0.25
 40
0.25
 40
0.5
 40
0.5
 40
0.75
 40
0.75
 40
1.0
 40
1.0
 40
1.0
 40
1.0
 10
123.5021200913472
 20
453.4050926145073
 30
0.0
 10
123.450350833777
 20
451.514236509779
 30
0.0
 10
123.0639079617543
 20
449.6506689288524
 30
0.0
 10
121.7289345019948
 20
446.1631249751233
 30
0.0
 10
120.7689790670695
 20
444.5132565682165
 30
0.0
 10
118.4550100841131
 20
441.5724643242517
 30
0.0
 10
117.083676330025
 20
440.2547097541419
 30
0.0
 10
114.1053581164247
 20
437.9990841978006
 30
0.0
 10
112.4728594727238
 20
437.0386033558712
 30
0.0
 10
110.7582046430932
 20
436.2551073356371
 30
0.0
  0
LINE
  5
125
330
78
100
AcDbEntity
  8
$DDT_AUDIT_GENERATED_(108)
  6
Continuous
 62
     7
100
AcDbLine
 10
127.0582046431
 20
453.5996189177
 30
0.0
 11
123.7020451739
 21
453.5996189177
 31
0.0
  0
LINE
  5
126
330
78
100
AcDbEntity
  8
$DDT_AUDIT_GENERATED_(108)
  6
Continuous
 62
     7
100
AcDbLine
 10
110.7582046431
 20
436.1591336591
 30
0.0
 11
110.7582046431
 21
436.3732639708
 31
0.0
  0
SPLINE
  5
127
330
78
100
AcDbEntity
  8
$DDT_AUDIT_GENERATED_(108)
  6
Continuous
 62
     7
100
AcDbSpline
210
0.0
220
0.0
230
1.0
 70
     8
 71
     3
 72
     8
 73
     4
 74
     0
 42
0.0000000071050985
 43
0.0000000001
 40
0.0
 40
0.0
 40
0.0
 40
0.0
 40
1.0
 40
1.0
 40
1.0
 40
1.0
 10
110.6167936596474
 20
436.4642866627775
 30
0.0
 10
110.1897578271049
 20
436.2700057267384
 30
0.0
 10
109.7578493641743
 20
436.0868271281081
 30
0.0
 10
109.3214840906331
 20
435.9145565360031
 30
0.0
  0
LINE
  5
128
330
78
100
AcDbEntity
  8
$DDT_AUDIT_GENERATED_(108)
  6
Continuous
 62
     7
100
AcDbLine
 10
109.2582046431
 20
435.821542553
 30
0.0
 11
109.2582046431
 21
435.5285020723
 31
0.0
  0
LINE
  5
129
330
78
100
AcDbEntity
  8
$DDT_AUDIT_GENERATED_(108)
  6
Continuous
 62
     7
100
AcDbLine
 10
127.0582046431
 20
453.7496189177
 30
0.0
 11
127.0582046431
 21
453.5996189177
 31
0.0
  0
LINE
  5
12A
330
78
100
AcDbEntity
  8
$DDT_AUDIT_GENERATED_(108)
  6
Continuous
 62
     7
100
AcDbLine
 10
128.5582046431
 20
453.5996189177
 30
0.0
 11
128.5582046431
 21
453.7496189177
 31
0.0
  0
ARC
  5
12B
330
78
100
AcDbEntity
  8
$DDT_AUDIT_GENERATED_(108)
  6
Continuous
 62
     7
100
AcDbCircle
 10
109.3582046431
 20
435.821542553
 30
0.0
 40
0.0999999999999944
100
AcDbArc
 50
111.5433776394
 51
180.0
  0
ARC
  5
12C
330
78
100
AcDbEntity
  8
$DDT_AUDIT_GENERATED_(108)
  6
Continuous
 62
     7
100
AcDbCircle
 10
127.1582046431
 20
453.7496189177
 30
0.0
 40
0.1
100
AcDbArc
 50
90.0
 51
180.0
  0
ARC
  5
12D
330
78
100
AcDbEntity
  8
$DDT_AUDIT_GENERATED_(108)
  6
Continuous
 62
     7
100
AcDbCircle
 10
128.4582046431
 20
453.7496189177
 30
0.0
 40
0.0999999999999994
100
AcDbArc
 50
0.0
 51
90.0
  0
ARC
  5
12E
330
78
100
AcDbEntity
  8
$DDT_AUDIT_GENERATED_(108)
  6
Continuous
 62
     7
100
AcDbCircle
 10
110.6582046431
 20
436.3732639708
 30
0.0
 40
0.0999999999999994
100
AcDbArc
 50
0.0
 51
114.4632710217
  0
LINE
  5
12F
330
78
100
AcDbEntity
  8
$DDT_AUDIT_GENERATED_(108)
  6
Continuous
 62
     7
100
AcDbLine
 10
133.4412042544
 20
453.3985569186
 30
0.0
 11
133.472604834
 21
451.5996189177
 31
0.0
  0
LINE
  5
131
330
78
100
AcDbEntity
  8
$DDT_AUDIT_GENERATED_(130)
  6
Continuous
 62
     7
100
AcDbLine
 10
88.1863516627
 20
435.8169801107
 30
0.0
 11
88.2347050221
 21
435.2642986831
 31
0.0
  0
LINE
  5
132
330
78
100
AcDbEntity
  8
$DDT_AUDIT_GENERATED_(130)
  6
Continuous
 62
     7
100
AcDbLine
 10
108.2813859614
 20
435.2606604671
 30
0.0
 11
108.3309391773
 21
435.827056316
 31
0.0
  0
LINE
  5
134
330
78
100
AcDbEntity
  8
$DDT_AUDIT_GENERATED_(133)
  6
Continuous
 62
     7
100
AcDbLine
 10
67.8582041437
 20
454.1554751254
 30
0.0
 11
67.6218182918
 21
454.1083132392
 31
0.0
  0
LINE
  5
135
330
78
100
AcDbEntity
  8
$DDT_AUDIT_GENERATED_(133)
  6
Continuous
 62
     7
100
AcDbLine
 10
67.8582041437
 20
454.1554751254
 30
0.0
 11
69.5582041437
 21
454.1554751254
 31
0.0
  0
LINE
  5
136
330
78
100
AcDbEntity
  8
$DDT_AUDIT_GENERATED_(133)
  6
Continuous
 62
     7
100
AcDbLine
 10
110.8582051425
 20
436.9123783203
 30
0.0
 11
111.0945909944
 21
436.9732375369
 31
0.0
  0
LINE
  5
137
330
78
100
AcDbEntity
  8
$DDT_AUDIT_GENERATED_(133)
  6
Continuous
 62
     7
100
AcDbLine
 10
110.8582051425
 20
436.9123783203
 30
0.0
 11
109.1582051425
 21
436.1781338362
 31
0.0
  0
LINE
  5
138
330
78
100
AcDbEntity
  8
$DDT_AUDIT_GENERATED_(133)
  6
Continuous
 62
     7
100
AcDbLine
 10
128.6582051425
 20
454.1554751254
 30
0.0
 11
128.8945909944
 21
454.1083132392
 31
0.0
  0
LINE
  5
139
330
78
100
AcDbEntity
  8
$DDT_AUDIT_GENERATED_(133)
  6
Continuous
 62
     7
100
AcDbLine
 10
128.6582051425
 20
454.1554751254
 30
0.0
 11
126.9582051425
 21
454.1554751254
 31
0.0
  0
LINE
  5
13A
330
78
100
AcDbEntity
  8
$DDT_AUDIT_GENERATED_(133)
  6
Continuous
 62
     7
100
AcDbLine
 10
85.6582041437
 20
436.9123783203
 30
0.0
 11
85.4218182918
 21
436.9732375369
 31
0.0
  0
LINE
  5
13B
330
78
100
AcDbEntity
  8
$DDT_AUDIT_GENERATED_(133)
  6
Continuous
 62
     7
100
AcDbLine
 10
85.6582041437
 20
436.9123783203
 30
0.0
 11
87.3582041437
 21
436.1781338362
 31
0.0
  0
LINE
  5
13C
330
78
100
AcDbEntity
  8
$DDT_AUDIT_GENERATED_(133)
  6
Continuous
 62
     7
100
AcDbLine
 10
126.7218192906
 20
454.1083132392
 30
0.0
 11
126.9582051425
 21
454.1554751254
 31
0.0
  0
LINE
  5
13D
330
78
100
AcDbEntity
  8
$DDT_AUDIT_GENERATED_(133)
  6
Continuous
 62
     7
100
AcDbLine
 10
128.8945909944
 20
454.1083132392
 30
0.0
 11
129.2160979737
 21
454.1031708572
 31
0.0
  0
LINE
  5
13E
330
78
100
AcDbEntity
  8
$DDT_AUDIT_GENERATED_(133)
  6
Continuous
 62
     7
100
AcDbLine
 10
87.5945899956
 20
436.0361396574
 30
0.0
 11
87.3582041437
 21
436.1781338362
 31
0.0
  0
LINE
  5
13F
330
78
100
AcDbEntity
  8
$DDT_AUDIT_GENERATED_(133)
  6
Continuous
 62
     7
100
AcDbLine
 10
108.9218192906
 20
436.0361396574
 30
0.0
 11
109.1582051425
 21
436.1781338362
 31
0.0
  0
LINE
  5
140
330
78
100
AcDbEntity
  8
$DDT_AUDIT_GENERATED_(133)
  6
Continuous
 62
     7
100
AcDbLine
 10
87.5945899956
 20
436.0361396574
 30
0.0
 11
87.9160969656
 21
435.9103618142
 31
0.0
  0
LINE
  5
141
330
78
100
AcDbEntity
  8
$DDT_AUDIT_GENERATED_(133)
  6
Continuous
 62
     7
100
AcDbLine
 10
111.0945909944
 20
436.9732375369
 30
0.0
 11
111.4160979675
 21
437.1258491745
 31
0.0
  0
LINE
  5
142
330
78
100
AcDbEntity
  8
$DDT_AUDIT_GENERATED_(133)
  6
Continuous
 62
     7
100
AcDbLine
 10
69.7945899956
 20
454.1083132392
 30
0.0
 11
69.5582041437
 21
454.1554751254
 31
0.0
  0
LINE
  5
143
330
78
100
AcDbEntity
  8
$DDT_AUDIT_GENERATED_(133)
  6
Continuous
 62
     7
100
AcDbLine
 10
69.7945899956
 20
454.1083132392
 30
0.0
 11
70.1160969748
 21
454.1031708572
 31
0.0
  0
SPLINE
  5
144
330
78
100
AcDbEntity
  8
$DDT_AUDIT_GENERATED_(133)
  6
Continuous
 62
     7
100
AcDbSpline
210
0.0
220
0.0
230
1.0
 70
     8
 71
     3
 72
    36
 73
    32
 74
     0
 42
0.0000000001425205
 43
0.0000000001
 40
0.0
 40
0.0
 40
0.0
 40
0.0
 40
0.0625
 40
0.0625
 40
0.1250000000000001
 40
0.1250000000000001
 40
0.1875000000000001
 40
0.1875000000000001
 40
0.2500000000000001
 40
0.2500000000000001
 40
0.3125000000000001
 40
0.3125000000000001
 40
0.3750000000000001
 40
0.3750000000000001
 40
0.4375000000000001
 40
0.4375000000000001
 40
0.5
 40
0.5
 40
0.5625
 40
0.5625
 40
0.625
 40
0.625
 40
0.7499999999999999
 40
0.7499999999999999
 40
0.8125
 40
0.8125
 40
0.875
 40
0.875
 40
0.9375000000000001
 40
0.9375000000000001
 40
1.0
 40
1.0
 40
1.0
 40
1.0
 10
122.8707656052254
 20
454.0336401752393
 30
0.0
 10
122.8882660890856
 20
452.5560964899311
 30
0.0
 10
122.6978457718419
 20
451.1127431538377
 30
0.0
 10
121.9285099815726
 20
448.2897774327893
 30
0.0
 10
121.3490569820195
 20
446.928225830796
 30
0.0
 10
119.8910281916254
 20
444.4067054707621
 30
0.0
 10
118.9994224664136
 20
443.2236317866468
 30
0.0
 10
117.0125047802147
 20
441.0994202393695
 30
0.0
 10
115.9012630954578
 20
440.1371869783105
 30
0.0
 10
113.5250911813416
 20
438.4382754166192
 30
0.0
 10
112.2700833536048
 20
437.7051756220785
 30
0.0
 10
109.6400965302176
 20
436.445666351648
 30
0.0
 10
108.2609995843047
 20
435.9197936746089
 30
0.0
 10
105.4701976873883
 20
435.0912793843644
 30
0.0
 10
104.0487236577755
 20
434.7828671051251
 30
0.0
 10
101.1554047375376
 20
434.3702498967057
 30
0.0
 10
99.68311317892578
 20
434.2677770709937
 30
0.0
 10
96.7741339469883
 20
434.2705681865139
 30
0.0
 10
95.32652216979335
 20
434.3737915070296
 30
0.0
 10
92.4453380537089
 20
434.7874580183537
 30
0.0
 10
91.00032537816776
 20
435.1025096425162
 30
0.0
 10
86.81881215858454
 20
436.3511823836162
 30
0.0
 10
84.19206607459293
 20
437.5804599536536
 30
0.0
 10
80.61436544686518
 20
440.1373980551124
 30
0.0
 10
79.51631752291384
 20
441.0880185289288
 30
0.0
 10
77.52926022910088
 20
443.2086593661724
 30
0.0
 10
76.63407135879139
 20
444.3942109610147
 30
0.0
 10
75.1743207034445
 20
446.9136572748348
 30
0.0
 10
74.59464594995187
 20
448.2699275120641
 30
0.0
 10
73.81926515489657
 20
451.1052892769657
 30
0.0
 10
73.62810796741617
 20
452.5533158271029
 30
0.0
 10
73.64564126420537
 20
454.0336378171076
 30
0.0
  0
ARC
  5
145
330
78
100
AcDbEntity
  8
$DDT_AUDIT_GENERATED_(133)
  6
Continuous
 62
     7
100
AcDbCircle
 10
123.0691462337
 20
454.0354238215
 30
0.0
 40
0.198388646745033
100
AcDbArc
 50
88.903649699
 51
180.5151342109
  0
ARC
  5
146
330
78
100
AcDbEntity
  8
$DDT_AUDIT_GENERATED_(133)
  6
Continuous
 62
     7
100
AcDbCircle
 10
132.8808716918
 20
454.3750838856
 30
0.0
 40
0.2000304750201939
100
AcDbArc
 50
270.0175760017
 51
312.9445444612
  0
ARC
  5
147
330
78
100
AcDbEntity
  8
$DDT_AUDIT_GENERATED_(133)
  6
Continuous
 62
     7
100
AcDbCircle
 10
63.6355252244
 20
454.3750748014
 30
0.0
 40
0.2000304750369121
100
AcDbArc
 50
230.0196198462
 51
269.9824242154
  0
LINE
  5
148
330
78
100
AcDbEntity
  8
$DDT_AUDIT_GENERATED_(133)
  6
Continuous
 62
     7
100
AcDbLine
 10
67.3003113125
 20
454.1031708572
 30
0.0
 11
67.6218182918
 21
454.1083132392
 31
0.0
  0
LINE
  5
149
330
78
100
AcDbEntity
  8
$DDT_AUDIT_GENERATED_(133)
  6
Continuous
 62
     7
100
AcDbLine
 10
63.5631139963
 20
454.1031708572
 30
0.0
 11
67.3003113125
 21
454.1031708572
 31
0.0
  0
SPLINE
  5
14A
330
78
100
AcDbEntity
  8
$DDT_AUDIT_GENERATED_(133)
  6
Continuous
 62
     7
100
AcDbSpline
210
0.0
220
0.0
230
1.0
 70
     8
 71
     3
 72
    78
 73
    74
 74
     0
 42
0.0000000000749592
 43
0.0000000001
 40
0.0
 40
0.0
 40
0.0
 40
0.0
 40
0.059531336336242
 40
0.059531336336242
 40
0.0909936185308858
 40
0.0909936185308858
 40
0.1067247596282077
 40
0.1067247596282077
 40
0.1224559007255294
 40
0.1224559007255294
 40
0.1853804651148169
 40
0.1853804651148169
 40
0.2168427473094607
 40
0.2168427473094607
 40
0.2325738884067825
 40
0.2325738884067825
 40
0.2483050295041044
 40
0.2483050295041044
 40
0.311229593893392
 40
0.311229593893392
 40
0.3426918760880358
 40
0.3426918760880358
 40
0.3584230171853576
 40
0.3584230171853576
 40
0.3741541582826795
 40
0.3741541582826795
 40
0.4056164404773233
 40
0.4056164404773233
 40
0.4213475815746452
 40
0.4213475815746452
 40
0.4370787226719671
 40
0.4370787226719671
 40
0.4685410048666108
 40
0.4685410048666108
 40
0.4842721459639327
 40
0.4842721459639327
 40
0.5000032870612545
 40
0.5000032870612545
 40
0.5314655692558983
 40
0.5314655692558983
 40
0.5471967103532202
 40
0.5471967103532202
 40
0.5629278514505419
 40
0.5629278514505419
 40
0.5943901336451857
 40
0.5943901336451857
 40
0.6101212747425077
 40
0.6101212747425077
 40
0.6179868452911685
 40
0.6179868452911685
 40
0.6258524158398295
 40
0.6258524158398295
 40
0.6573146980344733
 40
0.6573146980344733
 40
0.688776980229117
 40
0.688776980229117
 40
0.7045081213264389
 40
0.7045081213264389
 40
0.7202392624237608
 40
0.7202392624237608
 40
0.7517015446184045
 40
0.7517015446184045
 40
0.8146261090076921
 40
0.8146261090076921
 40
0.8303572501050139
 40
0.8303572501050139
 40
0.8460883912023358
 40
0.8460883912023358
 40
0.8775506733969796
 40
0.8775506733969796
 40
0.9404752377862671
 40
0.9404752377862671
 40
1.0
 40
1.0
 40
1.0
 40
1.0
 10
133.1532586781176
 20
454.3043657733124
 30
0.0
 10
133.1369670053898
 20
456.9629573864401
 30
0.0
 10
132.9777628612802
 20
459.6075582714999
 30
0.0
 10
132.506756582705
 20
463.6274007877878
 30
0.0
 10
132.3020637518241
 20
465.0132030674173
 30
0.0
 10
131.929156720597
 20
467.0854308315322
 30
0.0
 10
131.7936416004191
 20
467.7760471674702
 30
0.0
 10
131.5010903430333
 20
469.1495124453943
 30
0.0
 10
131.3441200067431
 20
469.8322542594941
 30
0.0
 10
130.5053190509025
 20
473.2258308018013
 30
0.0
 10
129.6622178326644
 20
475.8764840136508
 30
0.0
 10
128.1174317318957
 20
479.7479251587954
 30
0.0
 10
127.5555768421204
 20
481.0208939029192
 30
0.0
 10
126.6379052066051
 20
482.9024005950243
 30
0.0
 10
126.3195075928427
 20
483.5249021806062
 30
0.0
 10
125.6567312102552
 20
484.760210075588
 30
0.0
 10
125.3118911418609
 20
485.373841393598
 30
0.0
 10
123.5253276587351
 20
488.4075941648686
 30
0.0
 10
121.9158841731747
 20
490.6893208845929
 30
0.0
 10
119.1661009762258
 20
493.8413366175943
 30
0.0
 10
118.1931976804177
 20
494.8466124339594
 30
0.0
 10
116.6371269876113
 20
496.2765569301206
 30
0.0
 10
116.1016496861193
 20
496.7404697703969
 30
0.0
 10
115.0098773245209
 20
497.6294376018448
 30
0.0
 10
114.4521539313212
 20
498.0560749215989
 30
0.0
 10
112.7419826834932
 20
499.2801399931573
 30
0.0
 10
111.5503625543573
 20
500.0184986586673
 30
0.0
 10
109.6784318283088
 20
500.9985950703191
 30
0.0
 10
109.0379745968459
 20
501.3048876563916
 30
0.0
 10
107.7437247034222
 20
501.8649856189986
 30
0.0
 10
107.0890291514593
 20
502.1194023776126
 30
0.0
 10
105.1017949242033
 20
502.8042771538648
 30
0.0
 10
103.7461911683266
 20
503.1566393489294
 30
0.0
 10
101.6621207171312
 20
503.5136511005881
 30
0.0
 10
100.9561772214032
 20
503.6039417866989
 30
0.0
 10
99.55386106257346
 20
503.7211518222869
 30
0.0
 10
98.85479602363196
 20
503.7487987444649
 30
0.0
 10
96.76380598552899
 20
503.7399755849879
 30
0.0
 10
95.37810339718986
 20
503.6113697365622
 30
0.0
 10
93.31139361182812
 20
503.2430331001925
 30
0.0
 10
92.624114589057
 20
503.0907502012618
 30
0.0
 10
91.25497811665852
 20
502.7279828543306
 30
0.0
 10
90.58252466813155
 20
502.5199660491842
 30
0.0
 10
88.59890270234905
 20
501.821746784182
 30
0.0
 10
87.32134721285789
 20
501.257648787884
 30
0.0
 10
85.46681722265977
 20
500.2756385726493
 30
0.0
 10
84.85902148982828
 20
499.9254809023631
 30
0.0
 10
83.96267469213137
 20
499.366508626217
 30
0.0
 10
83.66607746030496
 20
499.1742808846951
 30
0.0
 10
83.07977168941625
 20
498.7797053800512
 30
0.0
 10
82.79090329262898
 20
498.577857388686
 30
0.0
 10
81.36644234644959
 20
497.5474292730376
 30
0.0
 10
80.28912569682845
 20
496.65680483702
 30
0.0
 10
78.24342926091413
 20
494.7595620701954
 30
0.0
 10
77.27521695151576
 20
493.7527666160311
 30
0.0
 10
75.89701343721848
 20
492.1636571897172
 30
0.0
 10
75.4496445550682
 20
491.6202941629273
 30
0.0
 10
74.58037964181926
 20
490.5100058996839
 30
0.0
 10
74.16103005976312
 20
489.9464094197252
 30
0.0
 10
72.94544328126668
 20
488.232136918194
 30
0.0
 10
72.19192679102702
 20
487.0578397235304
 30
0.0
 10
70.08187735037531
 20
483.4516865037464
 30
0.0
 10
68.86796355348199
 20
480.9409781241013
 30
0.0
 10
67.57471820663093
 20
477.6786424340092
 30
0.0
 10
67.32701908155006
 20
477.0189525011001
 30
0.0
 10
66.85733358724782
 20
475.6972409405267
 30
0.0
 10
66.63490679439943
 20
475.0342219832552
 30
0.0
 10
66.00329250451986
 20
473.0389516014926
 30
0.0
 10
65.6298143641191
 20
471.7004789170351
 30
0.0
 10
64.64228772417998
 20
467.6619058644317
 30
0.0
 10
64.16062193159763
 20
464.9387422956737
 30
0.0
 10
63.53756025928386
 20
459.5848025523638
 30
0.0
 10
63.37937491026369
 20
456.9568981611781
 30
0.0
 10
63.36314819889005
 20
454.3043636743475
 30
0.0
  0
LINE
  5
14B
330
78
100
AcDbEntity
  8
$DDT_AUDIT_GENERATED_(133)
  6
Continuous
 62
     7
100
AcDbLine
 10
85.1003113187
 20
437.1258491745
 30
0.0
 11
85.4218182918
 21
436.9732375369
 31
0.0
  0
ARC
  5
14C
330
78
100
AcDbEntity
  8
$DDT_AUDIT_GENERATED_(133)
  6
Continuous
 62
     7
100
AcDbCircle
 10
92.7459806727
 20
454.7977807772
 30
0.0
 40
19.25495848972522
100
AcDbArc
 50
182.664909257
 51
246.6045287521
  0
ARC
  5
14D
330
78
100
AcDbEntity
  8
$DDT_AUDIT_GENERATED_(133)
  6
Continuous
 62
     7
100
AcDbCircle
 10
73.3119765099
 20
453.9033002087
 30
0.0
 40
0.1998706731117286
100
AcDbArc
 50
359.7785724026
 51
90.0284440301
  0
LINE
  5
14E
330
78
100
AcDbEntity
  8
$DDT_AUDIT_GENERATED_(133)
  6
Continuous
 62
     7
100
AcDbLine
 10
70.1160969748
 20
454.1031708572
 30
0.0
 11
73.3118772857
 21
454.1031708572
 31
0.0
  0
LINE
  5
14F
330
78
100
AcDbEntity
  8
$DDT_AUDIT_GENERATED_(133)
  6
Continuous
 62
     7
100
AcDbLine
 10
108.6003123206
 20
435.9103618142
 30
0.0
 11
108.9218192906
 21
436.0361396574
 31
0.0
  0
SPLINE
  5
150
330
78
100
AcDbEntity
  8
$DDT_AUDIT_GENERATED_(133)
  6
Continuous
 62
     7
100
AcDbSpline
210
0.0
220
0.0
230
1.0
 70
     8
 71
     3
 72
    18
 73
    14
 74
     0
 42
0.0000000004733485
 43
0.0000000001
 40
0.0
 40
0.0
 40
0.0
 40
0.0
 40
0.0445879300097045
 40
0.0445879300097045
 40
0.2722939650046436
 40
0.2722939650046436
 40
0.4999999999995827
 40
0.4999999999995827
 40
0.7277060349945218
 40
0.7277060349945218
 40
0.9554120699894609
 40
0.9554120699894609
 40
1.0
 40
1.0
 40
1.0
 40
1.0
 10
87.91609696563235
 20
435.9103618142377
 30
0.0
 10
88.20421935466155
 20
435.8045814207749
 30
0.0
 10
88.49489068765817
 20
435.7032216529972
 30
0.0
 10
90.28429578726283
 20
435.1117623297045
 30
0.0
 10
91.84170367878986
 20
434.7347686399081
 30
0.0
 10
95.018848310912
 20
434.2304666655415
 30
0.0
 10
96.6385064410123
 20
434.1031708574015
 30
0.0
 10
99.87790284517415
 20
434.1031708574015
 30
0.0
 10
101.4975609752744
 20
434.2304666655388
 30
0.0
 10
104.6747056073965
 20
434.7347686399109
 30
0.0
 10
106.2321134989223
 20
435.1117623297045
 30
0.0
 10
108.021518598534
 20
435.703221652999
 30
0.0
 10
108.3121899315362
 20
435.8045814207787
 30
0.0
 10
108.6003123205707
 20
435.9103618142441
 30
0.0
  0
LINE
  5
151
330
78
100
AcDbEntity
  8
$DDT_AUDIT_GENERATED_(133)
  6
Continuous
 62
     7
100
AcDbLine
 10
126.4003123114
 20
454.1031708572
 30
0.0
 11
126.7218192906
 21
454.1083132392
 31
0.0
  0
LINE
  5
152
330
78
100
AcDbEntity
  8
$DDT_AUDIT_GENERATED_(133)
  6
Continuous
 62
     7
100
AcDbLine
 10
123.2045320005
 20
454.1031708572
 30
0.0
 11
126.4003123114
 21
454.1031708572
 31
0.0
  0
ARC
  5
153
330
78
100
AcDbEntity
  8
$DDT_AUDIT_GENERATED_(133)
  6
Continuous
 62
     7
100
AcDbCircle
 10
123.2044327763
 20
453.9033002087
 30
0.0
 40
0.1998706731112926
100
AcDbArc
 50
89.9715559698
 51
180.221427598
  0
ARC
  5
154
330
78
100
AcDbEntity
  8
$DDT_AUDIT_GENERATED_(133)
  6
Continuous
 62
     7
100
AcDbCircle
 10
103.7703599742
 20
454.7978281897
 30
0.0
 40
19.25502925928377
100
AcDbArc
 50
293.395602681
 51
357.33495931
  0
LINE
  5
155
330
78
100
AcDbEntity
  8
$DDT_AUDIT_GENERATED_(133)
  6
Continuous
 62
     7
100
AcDbLine
 10
129.2199071656
 20
454.1031403963
 30
0.0
 11
132.9532928936
 21
454.1031403963
 31
0.0
  0
ARC
  5
156
330
78
100
AcDbEntity
  8
$DDT_AUDIT_GENERATED_(133)
  6
Continuous
 62
     7
100
AcDbCircle
 10
132.9532928936
 20
454.3031403963
 30
0.0
 40
0.1999999999997658
100
AcDbArc
 50
269.9999999999
 51
0.3511003393
  0
ARC
  5
157
330
78
100
AcDbEntity
  8
$DDT_AUDIT_GENERATED_(133)
  6
Continuous
 62
     7
100
AcDbCircle
 10
63.5631139963
 20
454.3031403963
 30
0.0
 40
0.2000000000000026
100
AcDbArc
 50
179.6495010727
 51
270.0
  0
LINE
  5
159
330
78
100
AcDbEntity
  8
$DDT_AUDIT_GENERATED_(158)
  6
Continuous
 62
     7
100
AcDbLine
 10
109.1582046431
 20
435.4864599665
 30
0.0
 11
110.8582046431
 21
436.2011757649
 31
0.0
  0
LINE
  5
15A
330
78
100
AcDbEntity
  8
$DDT_AUDIT_GENERATED_(158)
  6
Continuous
 62
     7
100
AcDbLine
 10
109.1582046431
 20
435.4864599665
 30
0.0
 11
108.7468414641
 21
435.4201254824
 31
0.0
  0
LINE
  5
15B
330
78
100
AcDbEntity
  8
$DDT_AUDIT_GENERATED_(158)
  6
Continuous
 62
     7
100
AcDbLine
 10
111.2695678221
 20
436.4855851395
 30
0.0
 11
110.8582046431
 21
436.2011757649
 31
0.0
  0
LINE
  5
15C
330
78
100
AcDbEntity
  8
$DDT_AUDIT_GENERATED_(158)
  6
Continuous
 62
     7
100
AcDbLine
 10
108.7468414641
 20
435.4201254824
 30
0.0
 11
108.4253344883
 21
435.3100234406
 31
0.0
  0
LINE
  5
15D
330
78
100
AcDbEntity
  8
$DDT_AUDIT_GENERATED_(158)
  6
Continuous
 62
     7
100
AcDbLine
 10
85.6582046431
 20
436.2011757649
 30
0.0
 11
87.3582046431
 21
435.4864599665
 31
0.0
  0
LINE
  5
15E
330
78
100
AcDbEntity
  8
$DDT_AUDIT_GENERATED_(158)
  6
Continuous
 62
     7
100
AcDbLine
 10
85.6582046431
 20
436.2011757649
 30
0.0
 11
85.2468414641
 21
436.4855851395
 31
0.0
  0
LINE
  5
15F
330
78
100
AcDbEntity
  8
$DDT_AUDIT_GENERATED_(158)
  6
Continuous
 62
     7
100
AcDbLine
 10
87.7695678221
 20
435.4201254824
 30
0.0
 11
87.3582046431
 21
435.4864599665
 31
0.0
  0
LINE
  5
160
330
78
100
AcDbEntity
  8
$DDT_AUDIT_GENERATED_(158)
  6
Continuous
 62
     7
100
AcDbLine
 10
85.2468414641
 20
436.4855851395
 30
0.0
 11
84.9253344924
 21
436.6489138925
 31
0.0
  0
LINE
  5
161
330
78
100
AcDbEntity
  8
$DDT_AUDIT_GENERATED_(158)
  6
Continuous
 62
     7
100
AcDbLine
 10
111.5910747937
 20
436.6489138925
 30
0.0
 11
111.2695678221
 21
436.4855851395
 31
0.0
  0
SPLINE
  5
162
330
78
100
AcDbEntity
  8
$DDT_AUDIT_GENERATED_(158)
  6
Continuous
 62
     7
100
AcDbSpline
210
0.0
220
0.0
230
1.0
 70
     8
 71
     3
 72
    14
 73
    10
 74
     0
 42
0.000000000461487
 43
0.0000000001
 40
0.0
 40
0.0
 40
0.0
 40
0.0
 40
0.25
 40
0.25
 40
0.5
 40
0.5
 40
0.75
 40
0.75
 40
1.0
 40
1.0
 40
1.0
 40
1.0
 10
84.92533449244662
 20
436.6489138924822
 30
0.0
 10
83.30316027704781
 20
437.4575893835028
 30
0.0
 10
81.76639296787847
 20
438.4290468576672
 30
0.0
 10
78.96780747396564
 20
440.6821654930982
 30
0.0
 10
77.68291621029603
 20
441.9874514698269
 30
0.0
 10
75.53386029927634
 20
444.857996479876
 30
0.0
 10
74.64571589433781
 20
446.4555203339549
 30
0.0
 10
73.40959426728946
 20
449.8317444032904
 30
0.0
 10
73.06114885617198
 20
451.5822090877024
 30
0.0
 10
73.01084685181507
 20
453.4016239554102
 30
0.0
  0
ARC
  5
163
330
78
100
AcDbEntity
  8
$DDT_AUDIT_GENERATED_(158)
  6
Continuous
 62
     7
100
AcDbCircle
 10
103.3840507544
 20
455.0988626123
 30
0.0
 40
20.19296539257765
100
AcDbArc
 50
293.9807604244
 51
355.1785449021
  0
LINE
  5
164
330
78
100
AcDbEntity
  8
$DDT_AUDIT_GENERATED_(158)
  6
Continuous
 62
     7
100
AcDbLine
 10
132.9532339129
 20
453.5960669781
 30
0.0
 11
123.7054555915
 21
453.5960669781
 31
0.0
  0
LINE
  5
165
330
78
100
AcDbEntity
  8
$DDT_AUDIT_GENERATED_(158)
  6
Continuous
 62
     7
100
AcDbLine
 10
72.8109536946
 20
453.5960669781
 30
0.0
 11
63.563164554
 21
453.5960669781
 31
0.0
  0
SPLINE
  5
166
330
78
100
AcDbEntity
  8
$DDT_AUDIT_GENERATED_(158)
  6
Continuous
 62
     7
100
AcDbSpline
210
0.0
220
0.0
230
1.0
 70
     8
 71
     3
 72
    94
 73
    90
 74
     0
 42
0.0000000000749793
 43
0.0000000001
 40
0.0
 40
0.0
 40
0.0
 40
0.0
 40
0.0599012150913296
 40
0.0599012150913296
 40
0.0913687526355604
 40
0.0913687526355604
 40
0.1228362901797912
 40
0.1228362901797912
 40
0.154303827724022
 40
0.154303827724022
 40
0.1857713652682527
 40
0.1857713652682527
 40
0.2015051340403681
 40
0.2015051340403681
 40
0.2172389028124835
 40
0.2172389028124835
 40
0.2487064403567143
 40
0.2487064403567143
 40
0.2644402091288296
 40
0.2644402091288296
 40
0.2801739779009451
 40
0.2801739779009451
 40
0.3116415154451758
 40
0.3116415154451758
 40
0.3273752842172911
 40
0.3273752842172911
 40
0.3431090529894066
 40
0.3431090529894066
 40
0.358842821761522
 40
0.358842821761522
 40
0.3745765905336373
 40
0.3745765905336373
 40
0.4060441280778681
 40
0.4060441280778681
 40
0.4375116656220989
 40
0.4375116656220989
 40
0.4689792031663298
 40
0.4689792031663298
 40
0.4768460875523876
 40
0.4768460875523876
 40
0.4847129719384451
 40
0.4847129719384451
 40
0.5004467407105604
 40
0.5004467407105604
 40
0.5319142782547911
 40
0.5319142782547911
 40
0.5397811626408489
 40
0.5397811626408489
 40
0.5476480470269066
 40
0.5476480470269066
 40
0.563381815799022
 40
0.563381815799022
 40
0.5948493533432528
 40
0.5948493533432528
 40
0.6027162377293106
 40
0.6027162377293106
 40
0.6105831221153681
 40
0.6105831221153681
 40
0.6263168908874835
 40
0.6263168908874835
 40
0.6577844284317141
 40
0.6577844284317141
 40
0.6892519659759451
 40
0.6892519659759451
 40
0.7049857347480604
 40
0.7049857347480604
 40
0.7207195035201759
 40
0.7207195035201759
 40
0.7521870410644066
 40
0.7521870410644066
 40
0.7836545786086373
 40
0.7836545786086373
 40
0.7993883473807528
 40
0.7993883473807528
 40
0.8151221161528681
 40
0.8151221161528681
 40
0.846589653697099
 40
0.846589653697099
 40
0.8623234224692143
 40
0.8623234224692143
 40
0.8780571912413296
 40
0.8780571912413296
 40
0.9095247287855603
 40
0.9095247287855603
 40
0.9409922663297913
 40
0.9409922663297913
 40
0.9724598038740221
 40
0.9724598038740221
 40
1.0
 40
1.0
 40
1.0
 40
1.0
 10
63.36319903549509
 20
453.3948293852258
 30
0.0
 10
63.38012199686335
 20
450.7261661267762
 30
0.0
 10
63.54600178613598
 20
448.0658686798898
 30
0.0
 10
64.03135185889472
 20
444.0211058474906
 30
0.0
 10
64.2403973848488
 20
442.6341061925073
 30
0.0
 10
64.74304756560117
 20
439.8792660934023
 30
0.0
 10
65.03676634377459
 20
438.5103577311459
 30
0.0
 10
65.7125693697745
 20
435.7902836563466
 30
0.0
 10
66.09520322684124
 20
434.4378309581212
 30
0.0
 10
66.94846082169252
 20
431.7697535152374
 30
0.0
 10
67.41948245800195
 20
430.4520708800407
 30
0.0
 10
68.19672335182042
 20
428.5015995312503
 30
0.0
 10
68.46760883739267
 20
427.855792050188
 30
0.0
 10
69.0339601079184
 20
426.573233862293
 30
0.0
 10
69.32973977715086
 20
425.9358719999307
 30
0.0
 10
70.25227336996745
 20
424.0449476163874
 30
0.0
 10
70.91455670815083
 20
422.8111923183549
 30
0.0
 10
71.98477642800614
 20
421.0042069924478
 30
0.0
 10
72.35434242295425
 20
420.4091684828354
 30
0.0
 10
73.12049855465808
 20
419.2344512648667
 30
0.0
 10
73.51751514621995
 20
418.6542254980495
 30
0.0
 10
74.74573919164258
 20
416.945960681496
 30
0.0
 10
75.61519970933745
 20
415.8480771265213
 30
0.0
 10
77.0036976870576
 20
414.2694378232958
 30
0.0
 10
77.48123307331237
 20
413.7540014594933
 30
0.0
 10
78.46347284042349
 20
412.7504862303716
 30
0.0
 10
78.96740169785974
 20
412.2631281179943
 30
0.0
 10
80.00220035945009
 20
411.3186982952438
 30
0.0
 10
80.53306746849299
 20
410.8616235566048
 30
0.0
 10
81.6234256346719
 20
409.979652472532
 30
0.0
 10
82.18391049461555
 20
409.5540936334668
 30
0.0
 10
83.90100468319584
 20
408.3364572292199
 30
0.0
 10
85.09428086942813
 20
407.6017098253416
 30
0.0
 10
87.58975771835867
 20
406.3049992707981
 30
0.0
 10
88.86934616940358
 20
405.7549788523568
 30
0.0
 10
91.49380279947714
 20
404.8619260216402
 30
0.0
 10
92.83888057754774
 20
404.5186608078525
 30
0.0
 10
94.56521436787864
 20
404.230977761569
 30
0.0
 10
94.91331849251063
 20
404.1804717854569
 30
0.0
 10
95.61158592829985
 20
404.0944111888406
 30
0.0
 10
95.96030779574859
 20
404.0590078124205
 30
0.0
 10
97.00525453285577
 20
403.9753731239321
 30
0.0
 10
97.70026165636435
 20
403.9496965150017
 30
0.0
 10
99.78050211965265
 20
403.9612479234063
 30
0.0
 10
101.1609711525063
 20
404.0867504615046
 30
0.0
 10
102.8786543400862
 20
404.3901586796683
 30
0.0
 10
103.2217945058985
 20
404.4581911553029
 30
0.0
 10
103.9072777009815
 20
404.6090376323026
 30
0.0
 10
104.2499908194155
 20
404.691983947054
 30
0.0
 10
105.2676154967895
 20
404.9605105680938
 30
0.0
 10
105.9350283334448
 20
405.166337711769
 30
0.0
 10
107.9061257182992
 20
405.8596950529932
 30
0.0
 10
109.1787874779576
 20
406.4228131193898
 30
0.0
 10
110.7219186134445
 20
407.2429295254886
 30
0.0
 10
111.0281504529746
 20
407.4127870776848
 30
0.0
 10
111.6358908823849
 20
407.7640111396354
 30
0.0
 10
111.9374054000817
 20
407.9454156974371
 30
0.0
 10
112.8284334833547
 20
408.5024237270499
 30
0.0
 10
113.4067550389555
 20
408.8920958121032
 30
0.0
 10
115.0982072976399
 20
410.1119325733511
 30
0.0
 10
116.1680107407616
 20
410.9927015798158
 30
0.0
 10
118.2052780050205
 20
412.8737680979488
 30
0.0
 10
119.1726696996279
 20
413.8741498057967
 30
0.0
 10
120.5529799831728
 20
415.4573862411613
 30
0.0
 10
121.0001557008517
 20
415.9977818537811
 30
0.0
 10
121.8652021411961
 20
417.0965158494989
 30
0.0
 10
122.2838558185276
 20
417.6557456102645
 30
0.0
 10
123.500448674831
 20
419.3614297516314
 30
0.0
 10
124.2594154802851
 20
420.5362688045491
 30
0.0
 10
125.6799812253602
 20
422.9524344459858
 30
0.0
 10
126.3374487729989
 20
424.1866411570577
 30
0.0
 10
127.2514372092805
 20
426.0736688269142
 30
0.0
 10
127.5440318743798
 20
426.7086471417095
 30
0.0
 10
128.1059141801753
 20
427.9901316363763
 30
0.0
 10
128.375406257736
 20
428.6371741016635
 30
0.0
 10
129.1480836677236
 20
430.5904532760257
 30
0.0
 10
129.6155841113019
 20
431.9085751437253
 30
0.0
 10
130.2499270984929
 20
433.9081484950228
 30
0.0
 10
130.4502008611206
 20
434.5784122743883
 30
0.0
 10
130.8289104284407
 20
435.9262477517837
 30
0.0
 10
131.0073833628871
 20
436.6040339034015
 30
0.0
 10
131.5093860124089
 20
438.6428726424493
 30
0.0
 10
131.8000655536747
 20
440.0110518342376
 30
0.0
 10
132.2969002412058
 20
442.7646132185837
 30
0.0
 10
132.5031722301432
 20
444.1514987873251
 30
0.0
 10
132.8315399197001
 20
446.9311312752061
 30
0.0
 10
132.9538600812274
 20
448.3245924835555
 30
0.0
 10
133.1060000763416
 20
450.9443262572966
 30
0.0
 10
133.1453796816157
 20
452.170605034736
 30
0.0
 10
133.1531993726734
 20
453.3948201569625
 30
0.0
  0
LINE
  5
167
330
78
100
AcDbEntity
  8
$DDT_AUDIT_GENERATED_(158)
  6
Continuous
 62
     7
100
AcDbLine
 10
88.0910747979
 20
435.3100234406
 30
0.0
 11
87.7695678221
 21
435.4201254824
 31
0.0
  0
SPLINE
  5
168
330
78
100
AcDbEntity
  8
$DDT_AUDIT_GENERATED_(158)
  6
Continuous
 62
     7
100
AcDbSpline
210
0.0
220
0.0
230
1.0
 70
     8
 71
     3
 72
    18
 73
    14
 74
     0
 42
0.0000000004821425
 43
0.0000000001
 40
0.0
 40
0.0
 40
0.0
 40
0.0
 40
0.0261476866244117
 40
0.0261476866244117
 40
0.2630738433119335
 40
0.2630738433119335
 40
0.4999999999994553
 40
0.4999999999994553
 40
0.736926156686977
 40
0.736926156686977
 40
0.9738523133744988
 40
0.9738523133744988
 40
1.0
 40
1.0
 40
1.0
 40
1.0
 10
108.4253344882774
 20
435.310023440553
 30
0.0
 10
108.2583676067289
 20
435.2511200241833
 30
0.0
 10
108.0906038890643
 20
435.1936693426405
 30
0.0
 10
106.395083085061
 20
434.630432464455
 30
0.0
 10
104.80583568792
 20
434.2438039663809
 30
0.0
 10
101.5637539480671
 20
433.7266148328845
 30
0.0
 10
99.91099971761925
 20
433.5960669778916
 30
0.0
 10
96.60540956856724
 20
433.5960669778916
 30
0.0
 10
94.95265533811937
 20
433.7266148328845
 30
0.0
 10
91.71057359826648
 20
434.2438039663809
 30
0.0
 10
90.12132620112554
 20
434.630432464455
 30
0.0
 10
88.42580539711516
 20
435.1936693426429
 30
0.0
 10
88.25804167944361
 20
435.251120024188
 30
0.0
 10
88.09107479788815
 20
435.31002344056
 30
0.0
  0
ARC
  5
169
330
78
100
AcDbEntity
  8
$DDT_AUDIT_GENERATED_(158)
  6
Continuous
 62
     7
100
AcDbCircle
 10
72.8109536946
 20
453.3960974391
 30
0.0
 40
0.1999999999999952
100
AcDbArc
 50
1.5836731201
 51
90.0
  0
ARC
  5
16A
330
78
100
AcDbEntity
  8
$DDT_AUDIT_GENERATED_(158)
  6
Continuous
 62
     7
100
AcDbCircle
 10
63.563164554
 20
453.3960974391
 30
0.0
 40
0.2000000000000018
100
AcDbArc
 50
90.0
 51
180.3633284381
  0
ARC
  5
16B
330
78
100
AcDbEntity
  8
$DDT_AUDIT_GENERATED_(158)
  6
Continuous
 62
     7
100
AcDbCircle
 10
132.9532339129
 20
453.3960974391
 30
0.0
 40
0.2000000000000031
100
AcDbArc
 50
359.634027403
 51
90.0
  0
ARC
  5
16C
330
78
100
AcDbEntity
  8
$DDT_AUDIT_GENERATED_(158)
  6
Continuous
 62
     7
100
AcDbCircle
 10
123.7054555915
 20
453.3960974391
 30
0.0
 40
0.2000000000000041
100
AcDbArc
 50
90.0
 51
178.4163268773
  0
ENDBLK
  5
16E
330
78
100
AcDbEntity
  8
0
100
AcDbBlockEnd
  0
BLOCK
  5
18D
330
16F
100
AcDbEntity
  8
0
100
AcDbBlockBegin
  2
SE1
 70
     0
 10
0.0
 20
0.0
 30
0.0
  3
SE1
  1

  0
LINE
  5
171
330
16F
100
AcDbEntity
  8
$DDT_AUDIT_GENERATED_(7A)
  6
Continuous
 62
     7
100
AcDbLine
 10
20.2582046431
 20
239.4030458663
 30
0.0
 11
22.2582046431
 21
239.4030458663
 31
0.0
  0
LINE
  5
172
330
16F
100
AcDbEntity
  8
$DDT_AUDIT_GENERATED_(7A)
  6
Continuous
 62
     7
100
AcDbLine
 10
169.259270777
 20
239.4030458663
 30
0.0
 11
27.2571385092
 21
239.4030458663
 31
0.0
  0
LINE
  5
173
330
16F
100
AcDbEntity
  8
$DDT_AUDIT_GENERATED_(7A)
  6
Continuous
 62
     7
100
AcDbLine
 10
169.259270777
 20
239.4030458663
 30
0.0
 11
172.864813024
 21
239.4030458663
 31
0.0
  0
LINE
  5
174
330
16F
100
AcDbEntity
  8
$DDT_AUDIT_GENERATED_(7A)
  6
Continuous
 62
     7
100
AcDbLine
 10
176.2582046431
 20
239.4030458663
 30
0.0
 11
176.1792056045
 21
234.8771939782
 31
0.0
  0
LINE
  5
175
330
16F
100
AcDbEntity
  8
$DDT_AUDIT_GENERATED_(7A)
  6
Continuous
 62
     7
100
AcDbLine
 10
176.1792056045
 20
234.8771939782
 30
0.0
 11
176.1762190478
 21
234.7060942563
 31
0.0
  0
LINE
  5
176
330
16F
100
AcDbEntity
  8
$DDT_AUDIT_GENERATED_(7A)
  6
Continuous
 62
     7
100
AcDbLine
 10
20.3372064463
 20
234.8770355937
 30
0.0
 11
20.2582046431
 21
239.4030458663
 31
0.0
  0
LINE
  5
177
330
16F
100
AcDbEntity
  8
$DDT_AUDIT_GENERATED_(7A)
  6
Continuous
 62
     7
100
AcDbLine
 10
20.3394406687
 20
234.7490370764
 30
0.0
 11
20.3372064463
 21
234.8770355937
 31
0.0
  0
LINE
  5
178
330
16F
100
AcDbEntity
  8
$DDT_AUDIT_GENERATED_(7A)
  6
Continuous
 62
     7
100
AcDbLine
 10
22.2582046431
 20
239.4030458663
 30
0.0
 11
27.2571385092
 21
239.4030458663
 31
0.0
  0
LINE
  5
179
330
16F
100
AcDbEntity
  8
$DDT_AUDIT_GENERATED_(7A)
  6
Continuous
 62
     7
100
AcDbLine
 10
172.864813024
 20
239.4030458663
 30
0.0
 11
176.2582046431
 21
239.4030458663
 31
0.0
  0
SPLINE
  5
17A
330
16F
100
AcDbEntity
  8
$DDT_AUDIT_GENERATED_(7A)
  6
Continuous
 62
     7
100
AcDbSpline
210
0.0
220
0.0
230
1.0
 70
     8
 71
     3
 72
    44
 73
    40
 74
     0
 42
0.0000000000694951
 43
0.0000000001
 40
0.2391007533613972
 40
0.2391007533613972
 40
0.2391007533613972
 40
0.2391007533613972
 40
0.25
 40
0.25
 40
0.2812499999999999
 40
0.2812499999999999
 40
0.3124999999999999
 40
0.3124999999999999
 40
0.3437499999999999
 40
0.3437499999999999
 40
0.3749999999999999
 40
0.3749999999999999
 40
0.4062499999999998
 40
0.4062499999999998
 40
0.4374999999999997
 40
0.4374999999999997
 40
0.4531249999999997
 40
0.4531249999999997
 40
0.4687499999999997
 40
0.4687499999999997
 40
0.4843749999999998
 40
0.4843749999999998
 40
0.4999999999999998
 40
0.4999999999999998
 40
0.5312499999999998
 40
0.5312499999999998
 40
0.5624999999999998
 40
0.5624999999999998
 40
0.5937499999999999
 40
0.5937499999999999
 40
0.6249999999999999
 40
0.6249999999999999
 40
0.6562499999999999
 40
0.6562499999999999
 40
0.6874999999999999
 40
0.6874999999999999
 40
0.71875
 40
0.71875
 40
0.7384960823078521
 40
0.7384960823078521
 40
0.7384960823078521
 40
0.7384960823078521
 10
62.32777307306055
 20
228.6102851647843
 30
0.0
 10
62.32969867191363
 20
228.6102763948768
 30
0.0
 10
62.35216651319205
 20
228.6102657946987
 30
0.0
 10
62.51840608731718
 20
228.6102452192472
 30
0.0
 10
62.81328725514228
 20
228.6101418761132
 30
0.0
 10
63.74908465386163
 20
228.6093878539982
 30
0.0
 10
64.38541536449769
 20
228.6087399421234
 30
0.0
 10
66.0126072832814
 20
228.6075610390179
 30
0.0
 10
67.0025512166183
 20
228.607160490445
 30
0.0
 10
69.39052449284458
 20
228.6072252112724
 30
0.0
 10
70.80521401551043
 20
228.6075159414238
 30
0.0
 10
74.0335014557616
 20
228.6076851101442
 30
0.0
 10
75.84870286718981
 20
228.6073353762513
 30
0.0
 10
79.98518285889573
 20
228.6066292076481
 30
0.0
 10
82.26646094814235
 20
228.606856496481
 30
0.0
 10
85.99746300112493
 20
228.6080439713915
 30
0.0
 10
87.30838045822159
 20
228.6084234574986
 30
0.0
 10
89.99260428316386
 20
228.6086879191289
 30
0.0
 10
91.36303696243512
 20
228.6085789866596
 30
0.0
 10
94.16366564807971
 20
228.6082528146526
 30
0.0
 10
95.60692653476143
 20
228.6081085984049
 30
0.0
 10
98.49222552894253
 20
228.607996968093
 30
0.0
 10
99.92384319914596
 20
228.6080280358912
 30
0.0
 10
104.1869036386419
 20
228.6084653427295
 30
0.0
 10
107.0047368217413
 20
228.6086618607442
 30
0.0
 10
112.2004594627865
 20
228.6077650249102
 30
0.0
 10
114.637351095226
 20
228.6070735938173
 30
0.0
 10
118.9861150740318
 20
228.606618403718
 30
0.0
 10
120.9500012852512
 20
228.6070069231918
 30
0.0
 10
124.436238027742
 20
228.6076641809079
 30
0.0
 10
125.9391352389005
 20
228.6076474968023
 30
0.0
 10
128.55766449968
 20
228.6072153991814
 30
0.0
 10
129.6770610027386
 20
228.6071533870948
 30
0.0
 10
131.5312961947677
 20
228.6082499300631
 30
0.0
 10
132.2624754351051
 20
228.6090964563791
 30
0.0
 10
133.3794494837959
 20
228.6098216793982
 30
0.0
 10
133.7644952788481
 20
228.6096611069422
 30
0.0
 10
134.1184221803918
 20
228.6092219871782
 30
0.0
 10
134.1873561698177
 20
228.6090843499359
 30
0.0
 10
134.188266360815
 20
228.6090578074135
 30
0.0
  0
ARC
  5
17B
330
16F
100
AcDbEntity
  8
$DDT_AUDIT_GENERATED_(7A)
  6
Continuous
 62
     7
100
AcDbCircle
 10
126.4761749443
 20
1050.8785340025
 30
0.0
 40
822.3034934034245
100
AcDbArc
 50
270.5356976872
 51
273.1361318932
  0
ARC
  5
17C
330
16F
100
AcDbEntity
  8
$DDT_AUDIT_GENERATED_(7A)
  6
Continuous
 62
     7
100
AcDbCircle
 10
70.2795326636
 20
1059.0146707416
 30
0.0
 40
830.4421014431723
100
AcDbArc
 50
266.8780718015
 51
269.4527760217
  0
ARC
  5
17D
330
16F
100
AcDbEntity
  8
$DDT_AUDIT_GENERATED_(7A)
  6
Continuous
 62
     7
100
AcDbCircle
 10
171.1777388606
 20
234.8367960977
 30
0.0
 40
4.999999956216225
100
AcDbArc
 50
272.8948224322
 51
357.9871077452
  0
ARC
  5
17E
330
16F
100
AcDbEntity
  8
$DDT_AUDIT_GENERATED_(7A)
  6
Continuous
 62
     7
100
AcDbCircle
 10
25.3386747211
 20
234.8365502913
 30
0.0
 40
4.999999716340017
100
AcDbArc
 50
182.0077334085
 51
267.1043750901
  0
ARC
  5
17F
330
16F
100
AcDbEntity
  8
$DDT_AUDIT_GENERATED_(133)
  6
Continuous
 62
     7
100
AcDbCircle
 10
87.4527008663
 20
282.5487176198
 30
0.0
 40
58.82751341137338
100
AcDbArc
 50
246.4762083334
 51
256.149592359
  0
ARC
  5
180
330
16F
100
AcDbEntity
  8
$DDT_AUDIT_GENERATED_(133)
  6
Continuous
 62
     7
100
AcDbCircle
 10
109.0634348783
 20
282.5552556656
 30
0.0
 40
58.83406652139545
100
AcDbArc
 50
283.84910038
 51
293.4953439913
  0
SPLINE
  5
181
330
16F
100
AcDbEntity
  8
$DDT_AUDIT_GENERATED_(133)
  6
Continuous
 62
     7
100
AcDbSpline
210
0.0
220
0.0
230
1.0
 70
     8
 71
     3
 72
    10
 73
     6
 74
     0
 42
0.0000000167967275
 43
0.0000000001
 40
0.0
 40
0.0
 40
0.0
 40
0.0
 40
0.5
 40
0.5
 40
0.8490483094015073
 40
0.8490483094015073
 40
0.8490483094015073
 40
0.8490483094015073
 10
73.37011485172454
 20
225.431670205664
 30
0.0
 10
73.50155808391358
 20
225.3985282988632
 30
0.0
 10
73.63094141336674
 20
225.3661643169445
 30
0.0
 10
73.79104432204059
 20
225.3262376330104
 30
0.0
 10
73.83841306658447
 20
225.3144467041412
 30
0.0
 10
73.8604674252808
 20
225.3089164593024
 30
0.0
  0
SPLINE
  5
182
330
16F
100
AcDbEntity
  8
$DDT_AUDIT_GENERATED_(133)
  6
Continuous
 62
     7
100
AcDbSpline
210
0.0
220
0.0
230
1.0
 70
     8
 71
     3
 72
    10
 73
     6
 74
     0
 42
0.0000000191189874
 43
0.0000000001
 40
0.0
 40
0.0
 40
0.0
 40
0.0
 40
0.5000000000000001
 40
0.5000000000000001
 40
1.0
 40
1.0
 40
1.0
 40
1.0
 10
122.642079315691
 20
225.3052485491437
 30
0.0
 10
122.640469397056
 20
225.3049757147373
 30
0.0
 10
122.6969442628753
 20
225.3190141811015
 30
0.0
 10
122.8848925402988
 20
225.3658819052556
 30
0.0
 10
123.0149090772251
 20
225.3984017742429
 30
0.0
 10
123.1462862951803
 20
225.431524349989
 30
0.0
  0
ARC
  5
183
330
16F
100
AcDbEntity
  8
$DDT_AUDIT_GENERATED_(133)
  6
Continuous
 62
     7
100
AcDbCircle
 10
98.2586404602
 20
379.3824198947
 30
0.0
 40
155.9946269970277
100
AcDbArc
 50
261.0065184631
 51
261.00657921
  0
ARC
  5
184
330
16F
100
AcDbEntity
  8
$DDT_AUDIT_GENERATED_(133)
  6
Continuous
 62
     7
100
AcDbCircle
 10
98.2586404602
 20
379.3824198947
 30
0.0
 40
155.9946269970277
100
AcDbArc
 50
278.9930938481
 51
278.9931544301
  0
ARC
  5
185
330
16F
100
AcDbEntity
  8
$DDT_AUDIT_GENERATED_(133)
  6
Continuous
 62
     7
100
AcDbCircle
 10
98.2588287169
 20
335.2456309585
 30
0.0
 40
112.601057760413
100
AcDbArc
 50
257.5031004979
 51
282.4968991708
  0
ARC
  5
186
330
16F
100
AcDbEntity
  8
$DDT_AUDIT_GENERATED_(133)
  6
Continuous
 62
     7
100
AcDbCircle
 10
73.9260290065
 20
225.5513716189
 30
0.0
 40
0.2511720517862411
100
AcDbArc
 50
254.2033105927
 51
256.8760250958
  0
ARC
  5
187
330
16F
100
AcDbEntity
  8
$DDT_AUDIT_GENERATED_(133)
  6
Continuous
 62
     7
100
AcDbCircle
 10
73.9398643856
 20
225.5894536749
 30
0.0
 40
0.2917045393849689
100
AcDbArc
 50
250.4893699639
 51
257.7081864888
  0
SPLINE
  5
188
330
16F
100
AcDbEntity
  8
$DDT_AUDIT_GENERATED_(158)
  6
Continuous
 62
     7
100
AcDbSpline
210
0.0
220
0.0
230
1.0
 70
     8
 71
     3
 72
     8
 73
     4
 74
     0
 42
0.0000000002197265
 43
0.0000000001
 40
0.1444224619719323
 40
0.1444224619719323
 40
0.1444224619719323
 40
0.1444224619719323
 40
0.1477428859275764
 40
0.1477428859275764
 40
0.1477428859275764
 40
0.1477428859275764
 10
67.31876850384323
 20
225.2023991222481
 30
0.0
 10
67.36607080125265
 20
225.1861007374488
 30
0.0
 10
67.41379941933415
 20
225.1699999092036
 30
0.0
 10
67.46195412837235
 20
225.1540942360875
 30
0.0
  0
SPLINE
  5
189
330
16F
100
AcDbEntity
  8
$DDT_AUDIT_GENERATED_(158)
  6
Continuous
 62
     7
100
AcDbSpline
210
0.0
220
0.0
230
1.0
 70
     8
 71
     3
 72
     8
 73
     4
 74
     0
 42
0.0000000002187425
 43
0.0000000001
 40
0.8512477142213175
 40
0.8512477142213175
 40
0.8512477142213175
 40
0.8512477142213175
 40
0.8555403496408516
 40
0.8555403496408516
 40
0.8555403496408516
 40
0.8555403496408516
 10
128.9927950286591
 20
225.042637712467
 30
0.0
 10
129.0556133722939
 20
225.0627935199423
 30
0.0
 10
129.1177264828033
 20
225.0833034065506
 30
0.0
 10
129.1791344130643
 20
225.1041719396996
 30
0.0
  0
SPLINE
  5
18A
330
16F
100
AcDbEntity
  8
$DDT_AUDIT_GENERATED_(158)
  6
Continuous
 62
     7
100
AcDbSpline
210
0.0
220
0.0
230
1.0
 70
     8
 71
     3
 72
    59
 73
    55
 74
     0
 42
0.0000000001610594
 43
0.0000000001
 40
0.0
 40
0.0
 40
0.0
 40
0.0
 40
0.0032304219698081
 40
0.0096394307119749
 40
0.0167381096227615
 40
0.0276665285806756
 40
0.0391049980984305
 40
0.0498547775576216
 40
0.0620337674943273
 40
0.0763051915105179
 40
0.0911531514196246
 40
0.1037328156705695
 40
0.1160559649660205
 40
0.1461918633101806
 40
0.1698005339058822
 40
0.1920402623328308
 40
0.2132368421781677
 40
0.2302701758570756
 40
0.2494458969755607
 40
0.2707238696460542
 40
0.2940653932797911
 40
0.3194417135774303
 40
0.3466773629130098
 40
0.3739121224584543
 40
0.4006258695797
 40
0.4267686260075116
 40
0.4647189280266411
 40
0.5008686588934254
 40
0.5351393192926769
 40
0.568398012177643
 40
0.6025743055360201
 40
0.6377305867021241
 40
0.666563533193893
 40
0.6960908138942681
 40
0.7263796640560427
 40
0.7545504010307421
 40
0.77894795894037
 40
0.7941216683515684
 40
0.8074458081409374
 40
0.8197514101676789
 40
0.8346342794463475
 40
0.8526630096776692
 40
0.8716392155347233
 40
0.8891383210212964
 40
0.9031921843536075
 40
0.9160268668079403
 40
0.9286039006748222
 40
0.9417620944212794
 40
0.9569484106885683
 40
0.9719358684227168
 40
0.9765309892043565
 40
0.9825277068578179
 40
0.9908668116342612
 40
1.0
 40
1.0
 40
1.0
 40
1.0
 10
67.475660634299
 20
225.1507201968687
 30
0.0
 10
67.5463974723576
 20
225.1269750571971
 30
0.0
 10
67.72566361484722
 20
225.0668721638378
 30
0.0
 10
68.05895339368818
 20
224.9620621650482
 30
0.0
 10
68.51887251039206
 20
224.8222790149206
 30
0.0
 10
69.07534041420926
 20
224.6632845849411
 30
0.0
 10
69.70062087221568
 20
224.4972404288008
 30
0.0
 10
70.345559465295
 20
224.338173635465
 30
0.0
 10
71.02717817376826
 20
224.1821327636103
 30
0.0
 10
71.77718592350992
 20
224.0240002131024
 30
0.0
 10
72.54503252934013
 20
223.8757478827917
 30
0.0
 10
73.27815538448323
 20
223.7451293288804
 30
0.0
 10
74.27449288808788
 20
223.5791838386043
 30
0.0
 10
75.5154421691952
 20
223.3942030986338
 30
0.0
 10
76.9152186358116
 20
223.20814361823
 30
0.0
 10
78.17406227121506
 20
223.0538597900701
 30
0.0
 10
79.29691588466059
 20
222.9250502574374
 30
0.0
 10
80.36510771029783
 20
222.8081128965179
 30
0.0
 10
81.46012875839817
 20
222.6925559067717
 30
0.0
 10
82.70697367132504
 20
222.5650186746405
 30
0.0
 10
84.11824224017717
 20
222.4237421102144
 30
0.0
 10
85.7021898375157
 20
222.266699121354
 30
0.0
 10
87.42498304737215
 20
222.094077929927
 30
0.0
 10
89.24110220802118
 20
221.9094519660422
 30
0.0
 10
91.07763862164606
 20
221.7333800382846
 30
0.0
 10
93.19568239334217
 20
221.5554356767556
 30
0.0
 10
95.56739573897933
 20
221.4067399996352
 30
0.0
 10
98.14983566083905
 20
221.3546076029106
 30
0.0
 10
100.6190736463918
 20
221.4198869177468
 30
0.0
 10
103.021526913772
 20
221.5661217060425
 30
0.0
 10
105.408806476933
 20
221.7735291823905
 30
0.0
 10
107.6390246226967
 20
222.0020837960492
 30
0.0
 10
109.6949878764498
 20
222.2118939605406
 30
0.0
 10
111.5715709994247
 20
222.3929117713074
 30
0.0
 10
113.3424734846279
 20
222.5596367528898
 30
0.0
 10
114.9390776219644
 20
222.7098511172939
 30
0.0
 10
116.2048658235082
 20
222.832149676739
 30
0.0
 10
117.1768356312664
 20
222.9296446531984
 30
0.0
 10
117.9215153234008
 20
223.007005626205
 30
0.0
 10
118.6700274425591
 20
223.0877442873083
 30
0.0
 10
119.5427421321616
 20
223.1864668272231
 30
0.0
 10
120.536984518027
 20
223.3067951793543
 30
0.0
 10
121.5659534931237
 20
223.4423796903948
 30
0.0
 10
122.5198766003316
 20
223.5806651481035
 30
0.0
 10
123.3593651437949
 20
223.7140907100308
 30
0.0
 10
124.1081778124039
 20
223.8435797476299
 30
0.0
 10
124.8384469550093
 20
223.980763745718
 30
0.0
 10
125.6140274450521
 20
224.1395054241424
 30
0.0
 10
126.442011282744
 20
224.3262888042804
 30
0.0
 10
127.103828019765
 20
224.4922271248091
 30
0.0
 10
127.5958856629781
 20
224.6245078343723
 30
0.0
 10
127.9746463811525
 20
224.7303538342532
 30
0.0
 10
128.4586206641011
 20
224.8724116333485
 30
0.0
 10
128.780189368195
 20
224.9753798521182
 30
0.0
 10
128.9801146631344
 20
225.0396484526051
 30
0.0
  0
SPLINE
  5
18B
330
16F
100
AcDbEntity
  8
$DDT_AUDIT_GENERATED_(158)
  6
Continuous
 62
     7
100
AcDbSpline
210
0.0
220
0.0
230
1.0
 70
     8
 71
     3
 72
    26
 73
    22
 74
     0
 42
0.0000000017126506
 43
0.0000000001
 40
0.0531963703257928
 40
0.0531963703257928
 40
0.0531963703257928
 40
0.0531963703257928
 40
0.0774010496878959
 40
0.1433408916054375
 40
0.1980109890910458
 40
0.2414945125028082
 40
0.2727403678027666
 40
0.2937073945004056
 40
0.3074854033933587
 40
0.3212158173422522
 40
0.3351846783102934
 40
0.3493931250429987
 40
0.3638439710273159
 40
0.4055654370169071
 40
0.4566703216976354
 40
0.5195302915880686
 40
0.5937103160223748
 40
0.678942586602981
 40
0.7751164500131434
 40
0.8822766447249161
 40
1.0
 40
1.0
 40
1.0
 40
1.0
 10
63.46774538563432
 20
228.6107999100696
 30
0.0
 10
63.47209909043827
 20
228.5807254400417
 30
0.0
 10
63.49026915532502
 20
228.4686445775317
 30
0.0
 10
63.5372052254638
 20
228.2712817155498
 30
0.0
 10
63.61426142100399
 20
228.0440808741415
 30
0.0
 10
63.69397850119718
 20
227.8585863894298
 30
0.0
 10
63.76436685817664
 20
227.7189417122092
 30
0.0
 10
63.81883591703599
 20
227.621412228304
 30
0.0
 10
63.86186218156087
 20
227.5492586315774
 30
0.0
 10
63.90004846790865
 20
227.488337600939
 30
0.0
 10
63.94011532042237
 20
227.4273966373501
 30
0.0
 10
63.98231216858187
 20
227.3661376311714
 30
0.0
 10
64.05429566730719
 20
227.266228189436
 30
0.0
 10
64.17073652555433
 20
227.1177746042326
 30
0.0
 10
64.35266221216047
 20
226.9136056005764
 30
0.0
 10
64.59556033274065
 20
226.6773873752257
 30
0.0
 10
64.91401718192778
 20
226.413261035181
 30
0.0
 10
65.33387610722771
 20
226.1196856030277
 30
0.0
 10
65.87706522601405
 20
225.804556194272
 30
0.0
 10
66.5832230499134
 20
225.4678569473002
 30
0.0
 10
67.10864411819836
 20
225.2788568047759
 30
0.0
 10
67.43810636119268
 20
225.1621004300985
 30
0.0
  0
SPLINE
  5
18C
330
16F
100
AcDbEntity
  8
$DDT_AUDIT_GENERATED_(158)
  6
Continuous
 62
     7
100
AcDbSpline
210
0.0
220
0.0
230
1.0
 70
     8
 71
     3
 72
    26
 73
    22
 74
     0
 42
0.0000000017295717
 43
0.0000000001
 40
0.0
 40
0.0
 40
0.0
 40
0.0
 40
0.1146209921880407
 40
0.2177256123443748
 40
0.3093677919322818
 40
0.3895690937882209
 40
0.4586579462015553
 40
0.5175610171180852
 40
0.5663584264897017
 40
0.6007757104383495
 40
0.6295424457864623
 40
0.6574513683500102
 40
0.6846988194928278
 40
0.6980777273030644
 40
0.7114399328692687
 40
0.7318837809743082
 40
0.7633296041797066
 40
0.8057924905374693
 40
0.8593124446429854
 40
0.9239843484036057
 40
0.9753726794528383
 40
0.9753726794528383
 40
0.9753726794528383
 40
0.9753726794528383
 10
129.0593640446156
 20
225.0643204777645
 30
0.0
 10
129.3819565752777
 20
225.1769947748824
 30
0.0
 10
129.8935127283544
 20
225.3583697951909
 30
0.0
 10
130.5834105862436
 20
225.6828108538083
 30
0.0
 10
131.1112526570837
 20
225.983563184145
 30
0.0
 10
131.5192106167153
 20
226.2613939640207
 30
0.0
 10
131.8286518278879
 20
226.5082888007796
 30
0.0
 10
132.0661570367076
 20
226.7272144805212
 30
0.0
 10
132.2397929584997
 20
226.9094514971453
 30
0.0
 10
132.3670791055539
 20
227.0580630495773
 30
0.0
 10
132.4658446530082
 20
227.1838793203805
 30
0.0
 10
132.5513280053691
 20
227.3022676204563
 30
0.0
 10
132.6166629700872
 20
227.4009572509638
 30
0.0
 10
132.6652664938871
 20
227.4796388994576
 30
0.0
 10
132.7061404928191
 20
227.5490419392859
 30
0.0
 10
132.7591776225694
 20
227.6449725486654
 30
0.0
 10
132.8275647293854
 20
227.7819043369425
 30
0.0
 10
132.9049842481732
 20
227.9632757139409
 30
0.0
 10
132.9795677355933
 20
228.1832987506179
 30
0.0
 10
133.0340965134257
 20
228.4106033905641
 30
0.0
 10
133.0529653353906
 20
228.5467720328873
 30
0.0
 10
133.0603731316342
 20
228.6107556486835
 30
0.0
  0
ENDBLK
  5
18E
330
16F
100
AcDbEntity
  8
0
100
AcDbBlockEnd
  0
BLOCK
  5
1AD
330
18F
100
AcDbEntity
  8
0
100
AcDbBlockBegin
  2
SE2
 70
     0
 10
0.0
 20
0.0
 30
0.0
  3
SE2
  1

  0
LINE
  5
191
330
18F
100
AcDbEntity
  8
$DDT_AUDIT_GENERATED_(7A)
  6
Continuous
 62
     7
100
AcDbLine
 10
286.7603019587
 20
545.3506850516
 30
0.0
 11
286.7603019587
 21
362.3485527838
 31
0.0
  0
LINE
  5
192
330
18F
100
AcDbEntity
  8
$DDT_AUDIT_GENERATED_(7A)
  6
Continuous
 62
     7
100
AcDbLine
 10
286.7603019587
 20
545.3506850516
 30
0.0
 11
286.7603019587
 21
550.2494904312
 31
0.0
  0
LINE
  5
193
330
18F
100
AcDbEntity
  8
$DDT_AUDIT_GENERATED_(7A)
  6
Continuous
 62
     7
100
AcDbLine
 10
286.7603019587
 20
552.3496189177
 30
0.0
 11
291.2868448602
 21
552.2706078174
 31
0.0
  0
LINE
  5
194
330
18F
100
AcDbEntity
  8
$DDT_AUDIT_GENERATED_(7A)
  6
Continuous
 62
     7
100
AcDbLine
 10
286.7603019587
 20
355.3496189177
 30
0.0
 11
286.7603019587
 21
362.3485527838
 31
0.0
  0
LINE
  5
195
330
18F
100
AcDbEntity
  8
$DDT_AUDIT_GENERATED_(7A)
  6
Continuous
 62
     7
100
AcDbLine
 10
291.2868785067
 20
355.4286306052
 30
0.0
 11
286.7603019587
 21
355.3496189177
 31
0.0
  0
LINE
  5
196
330
18F
100
AcDbEntity
  8
$DDT_AUDIT_GENERATED_(7A)
  6
Continuous
 62
     7
100
AcDbLine
 10
291.2868785067
 20
355.4286306052
 30
0.0
 11
291.4275241798
 21
355.4310855846
 31
0.0
  0
LINE
  5
197
330
18F
100
AcDbEntity
  8
$DDT_AUDIT_GENERATED_(7A)
  6
Continuous
 62
     7
100
AcDbLine
 10
286.7603019587
 20
550.2494904312
 30
0.0
 11
286.7603019587
 21
552.3496189177
 31
0.0
  0
SPLINE
  5
198
330
18F
100
AcDbEntity
  8
$DDT_AUDIT_GENERATED_(7A)
  6
Continuous
 62
     7
100
AcDbSpline
210
0.0
220
0.0
230
1.0
 70
     8
 71
     3
 72
    40
 73
    36
 74
     0
 42
0.0000000000480947
 43
0.0000000001
 40
0.0
 40
0.0
 40
0.0
 40
0.0
 40
0.03125
 40
0.03125
 40
0.0625000000000001
 40
0.0625000000000001
 40
0.0937500000000001
 40
0.0937500000000001
 40
0.1250000000000001
 40
0.1250000000000001
 40
0.1875000000000001
 40
0.1875000000000001
 40
0.21875
 40
0.21875
 40
0.25
 40
0.25
 40
0.2812499999999999
 40
0.2812499999999999
 40
0.3124999999999999
 40
0.3124999999999999
 40
0.3437499999999999
 40
0.3437499999999999
 40
0.3749999999999999
 40
0.3749999999999999
 40
0.4062499999999998
 40
0.4062499999999998
 40
0.4374999999999997
 40
0.4374999999999997
 40
0.4531249999999997
 40
0.4531249999999997
 40
0.4687499999999997
 40
0.4687499999999997
 40
0.4843749999999998
 40
0.4843749999999998
 40
0.4889559319770562
 40
0.4889559319770562
 40
0.4889559319770562
 40
0.4889559319770562
 10
297.5551928953137
 20
403.116231381349
 30
0.0
 10
297.5549464861552
 20
403.4757124530104
 30
0.0
 10
297.5544992754174
 20
404.304593306403
 30
0.0
 10
297.5556372614092
 20
406.7687889752515
 30
0.0
 10
297.5565692642253
 20
408.3762176347472
 30
0.0
 10
297.5561804908962
 20
412.1173869545355
 30
0.0
 10
297.5554518579598
 20
414.2481772303317
 30
0.0
 10
297.5554990842225
 20
418.7879555313335
 30
0.0
 10
297.5561890975495
 20
421.2279826415366
 30
0.0
 10
297.557175271115
 20
428.9033699366543
 30
0.0
 10
297.5552770445002
 20
434.3004099757841
 30
0.0
 10
297.5534440218414
 20
442.7230040947991
 30
0.0
 10
297.5531444823755
 20
445.5820419886338
 30
0.0
 10
297.5530134389427
 20
451.2703838088156
 30
0.0
 10
297.5530720959668
 20
454.1172614025746
 30
0.0
 10
297.5531026057818
 20
459.8164128419284
 30
0.0
 10
297.5532059489158
 20
462.6877194525104
 30
0.0
 10
297.5539599710308
 20
468.3314459647274
 30
0.0
 10
297.5546078829057
 20
471.0985216323711
 30
0.0
 10
297.5557867860111
 20
476.5173513159864
 30
0.0
 10
297.556187334584
 20
479.1694037180154
 30
0.0
 10
297.5561226137567
 20
484.3407666167125
 30
0.0
 10
297.5558318836053
 20
486.8817777069021
 30
0.0
 10
297.5556627148849
 20
491.6172657682354
 30
0.0
 10
297.5560124487778
 20
493.8277273952806
 30
0.0
 10
297.556718617381
 20
497.8527591916173
 30
0.0
 10
297.556491328548
 20
499.6214205438415
 30
0.0
 10
297.5553038536375
 20
501.7642031460397
 30
0.0
 10
297.5549243675305
 20
502.399996844824
 30
0.0
 10
297.5546599059001
 20
503.4547584280038
 30
0.0
 10
297.5547688383695
 20
503.8747132038035
 30
0.0
 10
297.5550950103765
 20
504.4879292192106
 30
0.0
 10
297.5552392266242
 20
504.6819574677373
 30
0.0
 10
297.5553114056478
 20
504.7709963621284
 30
0.0
 10
297.5553203015515
 20
504.7805591394587
 30
0.0
 10
297.5553210284714
 20
504.7796211030314
 30
0.0
  0
SPLINE
  5
199
330
18F
100
AcDbEntity
  8
$DDT_AUDIT_GENERATED_(7A)
  6
Continuous
 62
     7
100
AcDbSpline
210
0.0
220
0.0
230
1.0
 70
     8
 71
     3
 72
    12
 73
     8
 74
     0
 42
0.0000000002289803
 43
0.0000000001
 40
0.961274766302074
 40
0.961274766302074
 40
0.961274766302074
 40
0.961274766302074
 40
0.96875
 40
0.96875
 40
0.984375
 40
0.984375
 40
0.986114534782753
 40
0.986114534782753
 40
0.986114534782753
 40
0.986114534782753
 10
297.5548468512187
 20
404.0138408362442
 30
0.0
 10
297.5548543773843
 20
403.8160189040918
 30
0.0
 10
297.5548924157624
 20
403.643714417194
 30
0.0
 10
297.5550894890681
 20
403.1978397987
 30
0.0
 10
297.5552916113372
 20
403.0123934801754
 30
0.0
 10
297.5553402563929
 20
402.9391806824485
 30
0.0
 10
297.5553438054694
 20
402.933355220354
 30
0.0
 10
297.5553460948944
 20
402.9290415385187
 30
0.0
  0
SPLINE
  5
19A
330
18F
100
AcDbEntity
  8
$DDT_AUDIT_GENERATED_(7A)
  6
Continuous
 62
     7
100
AcDbSpline
210
0.0
220
0.0
230
1.0
 70
     8
 71
     3
 72
     8
 73
     4
 74
     0
 42
0.0000000005692673
 43
0.0000000001
 40
0.988823413613607
 40
0.988823413613607
 40
0.988823413613607
 40
0.988823413613607
 40
1.0
 40
1.0
 40
1.0
 40
1.0
 10
297.5553478697113
 20
402.9198986336869
 30
0.0
 10
297.5553383763953
 20
402.9224811309079
 30
0.0
 10
297.5552810237377
 20
402.9876627012947
 30
0.0
 10
297.5551928953137
 20
403.116231381349
 30
0.0
  0
ARC
  5
19B
330
18F
100
AcDbEntity
  8
$DDT_AUDIT_GENERATED_(7A)
  6
Continuous
 62
     7
100
AcDbCircle
 10
-723.9155389748
 20
496.9118138639
 30
0.0
 40
1021.500658817045
100
AcDbArc
 50
0.4411476198
 51
2.8399222933
  0
ARC
  5
19C
330
18F
100
AcDbEntity
  8
$DDT_AUDIT_GENERATED_(7A)
  6
Continuous
 62
     7
100
AcDbCircle
 10
-726.5250511982
 20
410.8716774859
 30
0.0
 40
1024.111176527966
100
AcDbArc
 50
357.1626051892
 51
359.556476445
  0
ARC
  5
19D
330
18F
100
AcDbEntity
  8
$DDT_AUDIT_GENERATED_(7A)
  6
Continuous
 62
     7
100
AcDbCircle
 10
291.3402662869
 20
547.2689137031
 30
0.0
 40
4.999999999658871
100
AcDbArc
 50
2.9102618613
 51
88.9999719855
  0
ARC
  5
19E
330
18F
100
AcDbEntity
  8
$DDT_AUDIT_GENERATED_(7A)
  6
Continuous
 62
     7
100
AcDbCircle
 10
291.3402609333
 20
360.4303240389
 30
0.0
 40
4.999999997946047
100
AcDbArc
 50
271.0000228386
 51
357.088990337
  0
LINE
  5
1A0
330
18F
100
AcDbEntity
  8
$DDT_AUDIT_GENERATED_(19F)
  6
Continuous
 62
     7
100
AcDbLine
 10
286.7550665691
 20
357.7255196012
 30
0.0
 11
286.7603019587
 21
357.7253825077
 31
0.0
  0
ARC
  5
1A1
330
18F
100
AcDbEntity
  8
$DDT_AUDIT_GENERATED_(133)
  6
Continuous
 62
     7
100
AcDbCircle
 10
108.0072554717
 20
453.8345187071
 30
0.0
 40
195.7039342980577
100
AcDbArc
 50
354.6935967981
 51
14.4378698589
  0
ARC
  5
1A2
330
18F
100
AcDbEntity
  8
$DDT_AUDIT_GENERATED_(158)
  6
Continuous
 62
     7
100
AcDbCircle
 10
87.3267808522
 20
417.0717875354
 30
0.0
 40
216.4855364149866
100
AcDbArc
 50
6.5832296416
 51
9.6290688633
  0
ARC
  5
1A3
330
18F
100
AcDbEntity
  8
$DDT_AUDIT_GENERATED_(158)
  6
Continuous
 62
     7
100
AcDbCircle
 10
87.3267808522
 20
417.0717875354
 30
0.0
 40
216.4855364149866
100
AcDbArc
 50
5.8434930876
 51
6.5832296416
  0
ARC
  5
1A4
330
18F
100
AcDbEntity
  8
$DDT_AUDIT_GENERATED_(158)
  6
Continuous
 62
     7
100
AcDbCircle
 10
87.3267808522
 20
417.0717875354
 30
0.0
 40
216.4855364149866
100
AcDbArc
 50
4.8026979191
 51
4.965857165
  0
LINE
  5
1A5
330
18F
100
AcDbEntity
  8
$DDT_AUDIT_GENERATED_(158)
  6
Continuous
 62
     7
100
AcDbLine
 10
297.5651215103
 20
453.5157504804
 30
0.0
 11
300.5730080752
 21
453.4632476251
 31
0.0
  0
LINE
  5
1A6
330
18F
100
AcDbEntity
  8
$DDT_AUDIT_GENERATED_(158)
  6
Continuous
 62
     7
100
AcDbLine
 10
297.5547740598
 20
404.0333064385
 30
0.0
 11
298.3232134343
 21
404.0467195973
 31
0.0
  0
SPLINE
  5
1A7
330
18F
100
AcDbEntity
  8
$DDT_AUDIT_GENERATED_(158)
  6
Continuous
 62
     7
100
AcDbSpline
210
0.0
220
0.0
230
1.0
 70
     8
 71
     3
 72
    51
 73
    47
 74
     0
 42
0.0000000003127202
 43
0.0000000001
 40
0.0
 40
0.0
 40
0.0
 40
0.0
 40
0.0413326991822112
 40
0.079839440106118
 40
0.1149310229836347
 40
0.1471254830280631
 40
0.1855848490946932
 40
0.2204934357658119
 40
0.2523577554893772
 40
0.291443446753147
 40
0.3257338666805348
 40
0.3553965727726511
 40
0.3805685095673387
 40
0.401361220606808
 40
0.4243986579835882
 40
0.4448823228983599
 40
0.463871746642265
 40
0.4813939428989284
 40
0.4974549185701859
 40
0.5119830972657081
 40
0.5249936343947131
 40
0.5351561828512214
 40
0.5398172674210149
 40
0.5409763817939273
 40
0.5422267268752837
 40
0.5452046383273492
 40
0.5538746522903666
 40
0.5647856358886236
 40
0.57910593101297
 40
0.5969721729664951
 40
0.6184887657824198
 40
0.6446325873370228
 40
0.6700312225848372
 40
0.6933732578671123
 40
0.7213254519276185
 40
0.7454253070465228
 40
0.7656314598241766
 40
0.7829135735076095
 40
0.8214938046250149
 40
0.8614386492877726
 40
0.9026514782164239
 40
0.932628197015377
 40
0.960891110035884
 40
0.9743717308455363
 40
0.9885112274018323
 40
1.0
 40
1.0
 40
1.0
 40
1.0
 10
302.9864733135645
 20
407.4882785191871
 30
0.0
 10
303.1913679450711
 20
408.131405534721
 30
0.0
 10
303.5206331997207
 20
409.1786847472097
 30
0.0
 10
303.941244329306
 20
410.8669997507284
 30
0.0
 10
304.2473684188155
 20
412.4001476819788
 30
0.0
 10
304.4857288318582
 20
413.9542322427358
 30
0.0
 10
304.6516484374804
 20
415.5126546260522
 30
0.0
 10
304.7488313132338
 20
417.0724352657676
 30
0.0
 10
304.7928593477972
 20
418.6435589271945
 30
0.0
 10
304.7915726512965
 20
420.2062316998198
 30
0.0
 10
304.7453751571696
 20
421.735438791062
 30
0.0
 10
304.6720650543525
 20
423.0566837331936
 30
0.0
 10
304.5859963111416
 20
424.1762228062738
 30
0.0
 10
304.4895115604654
 20
425.1961226466626
 30
0.0
 10
304.3838552070716
 20
426.1451197310211
 30
0.0
 10
304.2662539841301
 20
427.0657086588974
 30
0.0
 10
304.14690749388
 20
427.9034415940449
 30
0.0
 10
304.0266701720317
 20
428.6745800361455
 30
0.0
 10
303.9081920755922
 20
429.3790565487609
 30
0.0
 10
303.7941309363484
 20
430.0155986112761
 30
0.0
 10
303.6901064699933
 20
430.5658287638572
 30
0.0
 10
303.6109443012515
 20
430.9674241936822
 30
0.0
 10
303.5634093518813
 20
431.2022803448384
 30
0.0
 10
303.5433201929165
 20
431.3006514946862
 30
0.0
 10
303.5299070163975
 20
431.3661396178503
 30
0.0
 10
303.5052024144422
 20
431.4860993097061
 30
0.0
 10
303.481605197237
 20
431.5987855922126
 30
0.0
 10
303.457960301455
 20
431.7081160646887
 30
0.0
 10
303.4363479931265
 20
431.8030438862026
 30
0.0
 10
303.4139625918157
 20
431.8966354385213
 30
0.0
 10
303.3885491195794
 20
432.0007687262258
 30
0.0
 10
303.3598097726777
 20
432.1218074695745
 30
0.0
 10
303.3250582491226
 20
432.2821982283776
 30
0.0
 10
303.2854867328755
 20
432.4826922216096
 30
0.0
 10
303.2432097989418
 20
432.7190502296439
 30
0.0
 10
303.2006329682044
 20
432.9847029347989
 30
0.0
 10
303.1636543398074
 20
433.2338252205894
 30
0.0
 10
303.1179620130844
 20
433.5566057985985
 30
0.0
 10
303.045480573773
 20
434.0932187605299
 30
0.0
 10
302.9374615232715
 20
434.9419644045217
 30
0.0
 10
302.8234646582181
 20
435.8783133333087
 30
0.0
 10
302.7114655943915
 20
436.8255402174486
 30
0.0
 10
302.6244134236068
 20
437.5764583002477
 30
0.0
 10
302.5543231474054
 20
438.1892942410302
 30
0.0
 10
302.5020355621142
 20
438.6498335834297
 30
0.0
 10
302.4688469845813
 20
438.9463168648663
 30
0.0
 10
302.4512262120302
 20
439.1037911504831
 30
0.0
  0
ARC
  5
1A8
330
18F
100
AcDbEntity
  8
$DDT_AUDIT_GENERATED_(158)
  6
Continuous
 62
     7
100
AcDbCircle
 10
546.7898206951
 20
464.0536011763
 30
0.0
 40
245.5511003035847
100
AcDbArc
 50
186.5684558715
 51
187.2722903312
  0
ARC
  5
1A9
330
18F
100
AcDbEntity
  8
$DDT_AUDIT_GENERATED_(158)
  6
Continuous
 62
     7
100
AcDbCircle
 10
546.7898206951
 20
464.0536011763
 30
0.0
 40
245.5511003035847
100
AcDbArc
 50
187.3280276801
 51
187.3816455437
  0
ARC
  5
1AA
330
18F
100
AcDbEntity
  8
$DDT_AUDIT_GENERATED_(158)
  6
Continuous
 62
     7
100
AcDbCircle
 10
298.2359430019
 20
409.0469740848
 30
0.0
 40
5.001016018438709
100
AcDbArc
 50
271.0014530445
 51
341.7052192151
  0
ARC
  5
1AB
330
18F
100
AcDbEntity
  8
$DDT_AUDIT_GENERATED_(158)
  6
Continuous
 62
     7
100
AcDbCircle
 10
659.7566910706
 20
490.5212068578
 30
0.0
 40
360.9195853539294
100
AcDbArc
 50
185.9219394353
 51
185.9642314254
  0
ARC
  5
1AC
330
18F
100
AcDbEntity
  8
$DDT_AUDIT_GENERATED_(158)
  6
Continuous
 62
     7
100
AcDbCircle
 10
300.5697132223
 20
453.2632746774
 30
0.0
 40
0.1999999939831328
100
AcDbArc
 50
5.8846274253
 51
89.0001770681
  0
ENDBLK
  5
1AE
330
18F
100
AcDbEntity
  8
0
100
AcDbBlockEnd
  0
ENDSEC
  0
SECTION
  2
ENTITIES
  0
INSERT
  5
5F
330
1F
100
AcDbEntity
  8
Default
100
AcDbBlockReference
  2
SEANNOT_GROUP
 10
0.0
 20
0.0
 30
0.0
  0
INSERT
  5
65
330
1F
100
AcDbEntity
  8
Default
100
AcDbBlockReference
  2
SEANNOT_GROUP1
 10
0.0
 20
0.0
 30
0.0
  0
INSERT
  5
6A
330
1F
100
AcDbEntity
  8
Default
100
AcDbBlockReference
  2
SEANNOT_GROUP2
 10
0.0
 20
0.0
 30
0.0
  0
INSERT
  5
6F
330
1F
100
AcDbEntity
  8
Default
100
AcDbBlockReference
  2
SEANNOT_GROUP3
 10
0.0
 20
0.0
 30
0.0
  0
INSERT
  5
74
330
1F
100
AcDbEntity
  8
Default
100
AcDbBlockReference
  2
SEANNOT_GROUP4
 10
0.0
 20
0.0
 30
0.0
  0
INSERT
  5
79
330
1F
100
AcDbEntity
  8
Default
100
AcDbBlockReference
  2
SE
 10
0.0
 20
0.0
 30
0.0
  0
INSERT
  5
170
330
1F
100
AcDbEntity
  8
Default
100
AcDbBlockReference
  2
SE1
 10
0.0
 20
0.0
 30
0.0
  0
INSERT
  5
190
330
1F
100
AcDbEntity
  8
Default
100
AcDbBlockReference
  2
SE2
 10
0.0
 20
0.0
 30
0.0
  0
TEXT
  5
1B0
330
1F
100
AcDbEntity
  8
Default
  6
Continuous
 62
     7
100
AcDbText
 10
5.9362635081
 20
53.4225120485
 30
0.0
 40
10.0
  1
Grohe AG^J
  7
SEACAD_seiso_ttf
 11
5.9362635081
 21
63.4225120485
 31
0.0
100
AcDbText
 73
     3
  0
TEXT
  5
1B1
330
1F
100
AcDbEntity
  8
Default
  6
Continuous
 62
     7
100
AcDbText
 10
5.9362635081
 20
37.0588756849
 30
0.0
 40
10.0
  1
 
  7
SEACAD_seiso_ttf
 11
5.9362635081
 21
47.0588756849
 31
0.0
100
AcDbText
 73
     3
  0
TEXT
  5
1B2
330
1F
100
AcDbEntity
  8
Default
  6
Continuous
 62
     7
100
AcDbText
 10
5.9362635081
 20
20.6952393213
 30
0.0
 40
10.0
  1
ecn: 
  7
SEACAD_seiso_ttf
 11
5.9362635081
 21
30.6952393213
 31
0.0
100
AcDbText
 73
     3
  0
TEXT
  5
1B3
330
1F
100
AcDbEntity
  8
Default
  6
Continuous
 62
     7
100
AcDbText
 10
5.9362635081
 20
4.3316029576
 30
0.0
 40
10.0
  1
unit: mm
  7
SEACAD_seiso_ttf
 11
5.9362635081
 21
14.3316029576
 31
0.0
100
AcDbText
 73
     3
  0
LINE
  5
1B4
330
1F
100
AcDbEntity
  8
Default
  6
Continuous
 62
     7
100
AcDbLine
 10
0.0
 20
0.0
 30
0.0
 11
100.0
 21
0.0
 31
0.0
  0
LINE
  5
1B5
330
1F
100
AcDbEntity
  8
Default
  6
Continuous
 62
     7
100
AcDbLine
 10
0.0
 20
0.0
 30
0.0
 11
0.0
 21
100.0
 31
0.0
  0
TEXT
  5
1B6
330
1F
100
AcDbEntity
  8
Default
  6
Continuous
 62
     7
100
AcDbText
 10
24.3923665681
 20
-18.2375342018
 30
0.0
 40
10.0
  1
100 mm
  7
SEACAD_seiso_ttf
 11
24.3923665681
 21
-8.2375342018
 31
0.0
100
AcDbText
 73
     3
  0
TEXT
  5
1B7
330
1F
100
AcDbEntity
  8
Default
  6
Continuous
 62
     7
100
AcDbText
 10
-7.6150308803
 20
24.6231930421
 30
0.0
 40
10.0
  1
100 mm
 50
90.0
  7
SEACAD_seiso_ttf
 11
-17.6150308803
 21
24.6231930421
 31
0.0
100
AcDbText
 73
     3
  0
TEXT
  5
1B8
330
1F
100
AcDbEntity
  8
Default
  6
Continuous
 62
     7
100
AcDbText
 10
28.4878128572
 20
20.0907663715
 30
0.0
 40
10.0
  1
212671
  7
SEACAD_seiso_ttf
 11
28.4878128572
 21
30.0907663715
 31
0.0
100
AcDbText
 73
     3
  0
TEXT
  5
1B9
330
1F
100
AcDbEntity
  8
Default
  6
Continuous
 62
     7
100
AcDbText
 10
5.9012241913
 20
36.7242780188
 30
0.0
 40
10.0
  1
38505XXX
  7
SEACAD_seiso_ttf
 11
5.9012241913
 21
46.7242780188
 31
0.0
100
AcDbText
 73
     3
  0
ENDSEC
  0
SECTION
  2
OBJECTS
  0
DICTIONARY
  5
C
330
0
100
AcDbDictionary
281
     1
  3
ACAD_GROUP
350
D
  3
ACAD_LAYOUT
350
1A
  3
ACAD_MLEADERSTYLE
350
1BD
  3
ACAD_MLINESTYLE
350
17
  3
ACAD_PLOTSETTINGS
350
19
  3
ACAD_PLOTSTYLENAME
350
E
  3
ACAD_SCALELIST
350
3B
  3
ACAD_TABLESTYLE
350
1BC
  3
ACAD_VISUALSTYLE
350
2A
  3
AcDbVariableDictionary
350
1BA
  0
DICTIONARY
  5
D
102
{ACAD_REACTORS
330
C
102
}
330
C
100
AcDbDictionary
281
     1
  0
DICTIONARY
  5
1A
102
{ACAD_REACTORS
330
C
102
}
330
C
100
AcDbDictionary
281
     1
  3
Layout1
350
1E
  3
Model
350
22
  0
DICTIONARY
  5
1BD
102
{ACAD_REACTORS
330
C
102
}
330
C
100
AcDbDictionary
281
     1
  0
DICTIONARY
  5
17
102
{ACAD_REACTORS
330
C
102
}
330
C
100
AcDbDictionary
281
     1
  3
Standard
350
18
  0
DICTIONARY
  5
19
102
{ACAD_REACTORS
330
C
102
}
330
C
100
AcDbDictionary
281
     1
  0
ACDBDICTIONARYWDFLT
  5
E
102
{ACAD_REACTORS
330
C
102
}
330
C
100
AcDbDictionary
281
     1
  3
Normal
350
F
100
AcDbDictionaryWithDefault
340
F
  0
DICTIONARY
  5
3B
102
{ACAD_REACTORS
330
C
102
}
330
C
100
AcDbDictionary
281
     1
  3
A0
350
3C
  3
A1
350
3D
  3
A2
350
3E
  3
A3
350
3F
  3
A4
350
40
  3
A5
350
41
  3
A6
350
42
  3
A7
350
43
  3
A8
350
44
  3
A9
350
45
  3
B0
350
46
  3
B1
350
47
  3
B2
350
48
  3
B3
350
49
  3
B4
350
4A
  3
B5
350
4B
  3
B6
350
4C
  3
B7
350
4D
  3
B8
350
4E
  3
B9
350
4F
  3
C0
350
50
  3
C1
350
51
  3
C2
350
52
  3
C3
350
53
  3
C4
350
54
  3
C5
350
55
  3
C6
350
56
  3
C7
350
57
  3
C8
350
58
  3
C9
350
59
  3
D0
350
5A
  3
D1
350
5B
  3
D2
350
5C
  0
DICTIONARY
  5
1BC
102
{ACAD_REACTORS
330
C
102
}
330
C
100
AcDbDictionary
281
     1
  0
DICTIONARY
  5
2A
102
{ACAD_REACTORS
330
C
102
}
330
C
100
AcDbDictionary
281
     1
  3
2dWireframe
350
2F
  3
3D Hidden
350
31
  3
3dWireframe
350
30
  3
Basic
350
32
  3
Brighten
350
36
  3
ColorChange
350
3A
  3
Conceptual
350
34
  3
Dim
350
35
  3
Facepattern
350
39
  3
Flat
350
2B
  3
FlatWithEdges
350
2C
  3
Gouraud
350
2D
  3
GouraudWithEdges
350
2E
  3
Linepattern
350
38
  3
Realistic
350
33
  3
Thicken
350
37
  0
DICTIONARY
  5
1BA
102
{ACAD_REACTORS
330
C
102
}
330
C
100
AcDbDictionary
281
     1
  3
CANNOSCALE
350
1BB
  3
PSOLHEIGHT
350
1BF
  3
PSOLWIDTH
350
1BE
  0
LAYOUT
  5
1E
102
{ACAD_REACTORS
330
1A
102
}
330
1A
100
AcDbPlotSettings
  1

  2
none_device
  4

  6

 40
0.0
 41
0.0
 42
0.0
 43
0.0
 44
0.0
 45
0.0
 46
0.0
 47
0.0
 48
0.0
 49
0.0
140
0.0
141
0.0
142
1.0
143
1.0
 70
   688
 72
     0
 73
     0
 74
     5
  7

 75
    16
147
1.0
148
0.0
149
0.0
100
AcDbLayout
  1
Layout1
 70
     1
 71
     1
 10
0.0
 20
0.0
 11
1682.0
 21
2378.0
 12
0.0
 22
0.0
 32
0.0
 14
0.0
 24
0.0
 34
0.0
 15
1682.0
 25
2378.0
 35
0.0
146
0.0
 13
0.0
 23
0.0
 33
0.0
 16
1.0
 26
0.0
 36
0.0
 17
0.0
 27
1.0
 37
0.0
 76
     0
330
1B
  0
LAYOUT
  5
22
102
{ACAD_REACTORS
330
1A
102
}
330
1A
100
AcDbPlotSettings
  1

  2
none_device
  4

  6

 40
0.0
 41
0.0
 42
0.0
 43
0.0
 44
0.0
 45
0.0
 46
0.0
 47
0.0
 48
0.0
 49
0.0
140
0.0
141
0.0
142
1.0
143
1.0
 70
  1712
 72
     0
 73
     0
 74
     0
  7

 75
     0
147
1.0
148
0.0
149
0.0
100
AcDbLayout
  1
Model
 70
     1
 71
     0
 10
0.0
 20
0.0
 11
1682.0
 21
2378.0
 12
0.0
 22
0.0
 32
0.0
 14
0.0
 24
0.0
 34
0.0
 15
1682.0
 25
2378.0
 35
0.0
146
0.0
 13
0.0
 23
0.0
 33
0.0
 16
1.0
 26
0.0
 36
0.0
 17
0.0
 27
1.0
 37
0.0
 76
     0
330
1F
331
29
  0
MLINESTYLE
  5
18
102
{ACAD_REACTORS
330
17
102
}
330
17
100
AcDbMlineStyle
  2
Standard
 70
     0
  3

 62
   256
 51
90.0
 52
90.0
 71
     2
 49
0.5
 62
   256
  6
BYLAYER
 49
-0.5
 62
   256
  6
BYLAYER
  0
ACDBPLACEHOLDER
  5
F
102
{ACAD_REACTORS
330
E
102
}
330
E
  0
SCALE
  5
3C
102
{ACAD_REACTORS
330
3B
102
}
330
3B
100
AcDbScale
 70
     0
300
1:1
140
1.0
141
1.0
290
     1
  0
SCALE
  5
3D
102
{ACAD_REACTORS
330
3B
102
}
330
3B
100
AcDbScale
 70
     0
300
1:2
140
1.0
141
2.0
290
     0
  0
SCALE
  5
3E
102
{ACAD_REACTORS
330
3B
102
}
330
3B
100
AcDbScale
 70
     0
300
1:4
140
1.0
141
4.0
290
     0
  0
SCALE
  5
3F
102
{ACAD_REACTORS
330
3B
102
}
330
3B
100
AcDbScale
 70
     0
300
1:5
140
1.0
141
5.0
290
     0
  0
SCALE
  5
40
102
{ACAD_REACTORS
330
3B
102
}
330
3B
100
AcDbScale
 70
     0
300
1:8
140
1.0
141
8.0
290
     0
  0
SCALE
  5
41
102
{ACAD_REACTORS
330
3B
102
}
330
3B
100
AcDbScale
 70
     0
300
1:10
140
1.0
141
10.0
290
     0
  0
SCALE
  5
42
102
{ACAD_REACTORS
330
3B
102
}
330
3B
100
AcDbScale
 70
     0
300
1:16
140
1.0
141
16.0
290
     0
  0
SCALE
  5
43
102
{ACAD_REACTORS
330
3B
102
}
330
3B
100
AcDbScale
 70
     0
300
1:20
140
1.0
141
20.0
290
     0
  0
SCALE
  5
44
102
{ACAD_REACTORS
330
3B
102
}
330
3B
100
AcDbScale
 70
     0
300
1:30
140
1.0
141
30.0
290
     0
  0
SCALE
  5
45
102
{ACAD_REACTORS
330
3B
102
}
330
3B
100
AcDbScale
 70
     0
300
1:40
140
1.0
141
40.0
290
     0
  0
SCALE
  5
46
102
{ACAD_REACTORS
330
3B
102
}
330
3B
100
AcDbScale
 70
     0
300
1:50
140
1.0
141
50.0
290
     0
  0
SCALE
  5
47
102
{ACAD_REACTORS
330
3B
102
}
330
3B
100
AcDbScale
 70
     0
300
1:100
140
1.0
141
100.0
290
     0
  0
SCALE
  5
48
102
{ACAD_REACTORS
330
3B
102
}
330
3B
100
AcDbScale
 70
     0
300
2:1
140
2.0
141
1.0
290
     0
  0
SCALE
  5
49
102
{ACAD_REACTORS
330
3B
102
}
330
3B
100
AcDbScale
 70
     0
300
4:1
140
4.0
141
1.0
290
     0
  0
SCALE
  5
4A
102
{ACAD_REACTORS
330
3B
102
}
330
3B
100
AcDbScale
 70
     0
300
8:1
140
8.0
141
1.0
290
     0
  0
SCALE
  5
4B
102
{ACAD_REACTORS
330
3B
102
}
330
3B
100
AcDbScale
 70
     0
300
10:1
140
10.0
141
1.0
290
     0
  0
SCALE
  5
4C
102
{ACAD_REACTORS
330
3B
102
}
330
3B
100
AcDbScale
 70
     0
300
100:1
140
100.0
141
1.0
290
     0
  0
SCALE
  5
4D
102
{ACAD_REACTORS
330
3B
102
}
330
3B
100
AcDbScale
 70
     0
300
1/128" = 1'-0"
140
0.0078125
141
12.0
290
     0
  0
SCALE
  5
4E
102
{ACAD_REACTORS
330
3B
102
}
330
3B
100
AcDbScale
 70
     0
300
1/64" = 1'-0"
140
0.015625
141
12.0
290
     0
  0
SCALE
  5
4F
102
{ACAD_REACTORS
330
3B
102
}
330
3B
100
AcDbScale
 70
     0
300
1/32" = 1'-0"
140
0.03125
141
12.0
290
     0
  0
SCALE
  5
50
102
{ACAD_REACTORS
330
3B
102
}
330
3B
100
AcDbScale
 70
     0
300
1/16" = 1'-0"
140
0.0625
141
12.0
290
     0
  0
SCALE
  5
51
102
{ACAD_REACTORS
330
3B
102
}
330
3B
100
AcDbScale
 70
     0
300
3/32" = 1'-0"
140
0.09375
141
12.0
290
     0
  0
SCALE
  5
52
102
{ACAD_REACTORS
330
3B
102
}
330
3B
100
AcDbScale
 70
     0
300
1/8" = 1'-0"
140
0.125
141
12.0
290
     0
  0
SCALE
  5
53
102
{ACAD_REACTORS
330
3B
102
}
330
3B
100
AcDbScale
 70
     0
300
3/16" = 1'-0"
140
0.1875
141
12.0
290
     0
  0
SCALE
  5
54
102
{ACAD_REACTORS
330
3B
102
}
330
3B
100
AcDbScale
 70
     0
300
1/4" = 1'-0"
140
0.25
141
12.0
290
     0
  0
SCALE
  5
55
102
{ACAD_REACTORS
330
3B
102
}
330
3B
100
AcDbScale
 70
     0
300
3/8" = 1'-0"
140
0.375
141
12.0
290
     0
  0
SCALE
  5
56
102
{ACAD_REACTORS
330
3B
102
}
330
3B
100
AcDbScale
 70
     0
300
1/2" = 1'-0"
140
0.5
141
12.0
290
     0
  0
SCALE
  5
57
102
{ACAD_REACTORS
330
3B
102
}
330
3B
100
AcDbScale
 70
     0
300
3/4" = 1'-0"
140
0.75
141
12.0
290
     0
  0
SCALE
  5
58
102
{ACAD_REACTORS
330
3B
102
}
330
3B
100
AcDbScale
 70
     0
300
1" = 1'-0"
140
1.0
141
12.0
290
     0
  0
SCALE
  5
59
102
{ACAD_REACTORS
330
3B
102
}
330
3B
100
AcDbScale
 70
     0
300
1-1/2" = 1'-0"
140
1.5
141
12.0
290
     0
  0
SCALE
  5
5A
102
{ACAD_REACTORS
330
3B
102
}
330
3B
100
AcDbScale
 70
     0
300
3" = 1'-0"
140
3.0
141
12.0
290
     0
  0
SCALE
  5
5B
102
{ACAD_REACTORS
330
3B
102
}
330
3B
100
AcDbScale
 70
     0
300
6" = 1'-0"
140
6.0
141
12.0
290
     0
  0
SCALE
  5
5C
102
{ACAD_REACTORS
330
3B
102
}
330
3B
100
AcDbScale
 70
     0
300
1'-0" = 1'-0"
140
12.0
141
12.0
290
     0
  0
VISUALSTYLE
  5
2F
102
{ACAD_REACTORS
330
2A
102
}
330
2A
100
AcDbVisualStyle
  2
2dWireframe
 70
     4
 71
     0
 72
     2
 73
     0
 90
        0
 40
-0.6
 41
-30.0
 62
     5
 63
     7
 74
     1
 91
        4
 64
     7
 65
   257
 75
     1
175
     1
 42
1.0
 92
        0
 66
   257
 43
1.0
 76
     1
 77
     6
 78
     2
 67
     7
 79
     5
170
     0
171
     0
290
     0
174
     0
 93
        1
 44
0.0
173
     0
291
     0
 45
0.0
1001
ACAD
1000
AcDbSavedByObjectVersion
1070
     0
  0
VISUALSTYLE
  5
31
102
{ACAD_REACTORS
330
2A
102
}
330
2A
100
AcDbVisualStyle
  2
3D Hidden
 70
     6
 71
     1
 72
     2
 73
     2
 90
        0
 40
-0.6
 41
-30.0
 62
     5
 63
     7
 74
     2
 91
        2
 64
     7
 65
   257
 75
     2
175
     1
 42
40.0
 92
        0
 66
   257
 43
1.0
 76
     1
 77
     6
 78
     2
 67
     7
 79
     3
170
     0
171
     0
290
     0
174
     0
 93
        1
 44
0.0
173
     0
291
     0
 45
0.0
1001
ACAD
1000
AcDbSavedByObjectVersion
1070
     0
  0
VISUALSTYLE
  5
30
102
{ACAD_REACTORS
330
2A
102
}
330
2A
100
AcDbVisualStyle
  2
3dWireframe
 70
     5
 71
     0
 72
     2
 73
     0
 90
        0
 40
-0.6
 41
-30.0
 62
     5
 63
     7
 74
     1
 91
        4
 64
     7
 65
   257
 75
     1
175
     1
 42
1.0
 92
        0
 66
   257
 43
1.0
 76
     1
 77
     6
 78
     2
 67
     7
 79
     5
170
     0
171
     0
290
     0
174
     0
 93
        1
 44
0.0
173
     0
291
     0
 45
0.0
1001
ACAD
1000
AcDbSavedByObjectVersion
1070
     0
  0
VISUALSTYLE
  5
32
102
{ACAD_REACTORS
330
2A
102
}
330
2A
100
AcDbVisualStyle
  2
Basic
 70
     7
 71
     1
 72
     0
 73
     1
 90
        0
 40
-0.6
 41
-30.0
 62
     5
 63
     7
 74
     0
 91
        4
 64
     7
 65
   257
 75
     1
175
     1
 42
1.0
 92
        8
 66
     7
 43
1.0
 76
     1
 77
     6
 78
     2
 67
     7
 79
     5
170
     0
171
     0
290
     0
174
     0
 93
        1
 44
0.0
173
     0
291
     1
 45
0.0
1001
ACAD
1000
AcDbSavedByObjectVersion
1070
     0
  0
VISUALSTYLE
  5
36
102
{ACAD_REACTORS
330
2A
102
}
330
2A
100
AcDbVisualStyle
  2
Brighten
 70
    12
 71
     2
 72
     2
 73
     0
 90
        0
 40
-0.6
 41
-30.0
 62
     5
 63
     7
 74
     1
 91
        4
 64
     7
 65
   257
 75
     1
175
     1
 42
1.0
 92
        8
 66
     7
 43
1.0
 76
     1
 77
     6
 78
     2
 67
     7
 79
     5
170
     0
171
     0
290
     0
174
     0
 93
        1
 44
50.0
173
     0
291
     1
 45
0.0
1001
ACAD
1000
AcDbSavedByObjectVersion
1070
     0
  0
VISUALSTYLE
  5
3A
102
{ACAD_REACTORS
330
2A
102
}
330
2A
100
AcDbVisualStyle
  2
ColorChange
 70
    16
 71
     2
 72
     2
 73
     3
 90
        0
 40
-0.6
 41
-30.0
 62
     5
 63
     8
 74
     1
 91
        4
 64
     7
 65
   257
 75
     1
175
     1
 42
1.0
 92
        8
 66
     8
 43
1.0
 76
     1
 77
     6
 78
     2
 67
     7
 79
     5
170
     0
171
     0
290
     0
174
     0
 93
        1
 44
0.0
173
     0
291
     1
 45
0.0
1001
ACAD
1000
AcDbSavedByObjectVersion
1070
     0
  0
VISUALSTYLE
  5
34
102
{ACAD_REACTORS
330
2A
102
}
330
2A
100
AcDbVisualStyle
  2
Conceptual
 70
     9
 71
     3
 72
     2
 73
     0
 90
        0
 40
-0.6
 41
-30.0
 62
     5
 63
     7
 74
     2
 91
        2
 64
     7
 65
   257
 75
     1
175
     1
 42
40.0
 92
        8
 66
     7
 43
1.0
 76
     1
 77
     6
 78
     2
 67
     7
 79
     3
170
     0
171
     0
290
     0
174
     0
 93
        1
 44
0.0
173
     0
291
     0
 45
0.0
1001
ACAD
1000
AcDbSavedByObjectVersion
1070
     0
  0
VISUALSTYLE
  5
35
102
{ACAD_REACTORS
330
2A
102
}
330
2A
100
AcDbVisualStyle
  2
Dim
 70
    11
 71
     2
 72
     2
 73
     0
 90
        0
 40
-0.6
 41
-30.0
 62
     5
 63
     7
 74
     1
 91
        4
 64
     7
 65
   257
 75
     1
175
     1
 42
1.0
 92
        8
 66
     7
 43
1.0
 76
     1
 77
     6
 78
     2
 67
     7
 79
     5
170
     0
171
     0
290
     0
174
     0
 93
        1
 44
-50.0
173
     0
291
     1
 45
0.0
1001
ACAD
1000
AcDbSavedByObjectVersion
1070
     0
  0
VISUALSTYLE
  5
39
102
{ACAD_REACTORS
330
2A
102
}
330
2A
100
AcDbVisualStyle
  2
Facepattern
 70
    15
 71
     2
 72
     2
 73
     0
 90
        0
 40
-0.6
 41
-30.0
 62
     5
 63
     7
 74
     1
 91
        4
 64
     7
 65
   257
 75
     1
175
     1
 42
1.0
 92
        8
 66
     7
 43
1.0
 76
     1
 77
     6
 78
     2
 67
     7
 79
     5
170
     0
171
     0
290
     0
174
     0
 93
        1
 44
0.0
173
     0
291
     1
 45
0.0
1001
ACAD
1000
AcDbSavedByObjectVersion
1070
     0
  0
VISUALSTYLE
  5
2B
102
{ACAD_REACTORS
330
2A
102
}
330
2A
100
AcDbVisualStyle
  2
Flat
 70
     0
 71
     2
 72
     1
 73
     1
 90
        2
 40
-0.6
 41
30.0
 62
     5
 63
     7
 74
     0
 91
        4
 64
     7
 65
   257
 75
     1
175
     1
 42
1.0
 92
        8
 66
     7
 43
1.0
 76
     1
 77
     6
 78
     2
 67
     7
 79
     5
170
     0
171
     0
290
     0
174
     0
 93
       13
 44
0.0
173
     0
291
     1
 45
0.0
1001
ACAD
1000
AcDbSavedByObjectVersion
1070
     0
  0
VISUALSTYLE
  5
2C
102
{ACAD_REACTORS
330
2A
102
}
330
2A
100
AcDbVisualStyle
  2
FlatWithEdges
 70
     1
 71
     2
 72
     1
 73
     1
 90
        2
 40
-0.6
 41
30.0
 62
     5
 63
     7
 74
     1
 91
        4
 64
     7
 65
   257
 75
     1
175
     1
 42
1.0
 92
        0
 66
   257
 43
1.0
 76
     1
 77
     6
 78
     2
 67
     7
 79
     5
170
     0
171
     0
290
     0
174
     0
 93
       13
 44
0.0
173
     0
291
     1
 45
0.0
1001
ACAD
1000
AcDbSavedByObjectVersion
1070
     0
  0
VISUALSTYLE
  5
2D
102
{ACAD_REACTORS
330
2A
102
}
330
2A
100
AcDbVisualStyle
  2
Gouraud
 70
     2
 71
     2
 72
     2
 73
     1
 90
        2
 40
-0.6
 41
30.0
 62
     5
 63
     7
 74
     0
 91
        4
 64
     7
 65
   257
 75
     1
175
     1
 42
1.0
 92
        0
 66
     7
 43
1.0
 76
     1
 77
     6
 78
     2
 67
     7
 79
     5
170
     0
171
     0
290
     0
174
     0
 93
       13
 44
0.0
173
     0
291
     1
 45
0.0
1001
ACAD
1000
AcDbSavedByObjectVersion
1070
     0
  0
VISUALSTYLE
  5
2E
102
{ACAD_REACTORS
330
2A
102
}
330
2A
100
AcDbVisualStyle
  2
GouraudWithEdges
 70
     3
 71
     2
 72
     2
 73
     1
 90
        2
 40
-0.6
 41
30.0
 62
     5
 63
     7
 74
     1
 91
        4
 64
     7
 65
   257
 75
     1
175
     1
 42
1.0
 92
        0
 66
   257
 43
1.0
 76
     1
 77
     6
 78
     2
 67
     7
 79
     5
170
     0
171
     0
290
     0
174
     0
 93
       13
 44
0.0
173
     0
291
     1
 45
0.0
1001
ACAD
1000
AcDbSavedByObjectVersion
1070
     0
  0
VISUALSTYLE
  5
38
102
{ACAD_REACTORS
330
2A
102
}
330
2A
100
AcDbVisualStyle
  2
Linepattern
 70
    14
 71
     2
 72
     2
 73
     0
 90
        0
 40
-0.6
 41
-30.0
 62
     5
 63
     7
 74
     1
 91
        4
 64
     7
 65
   257
 75
     7
175
     7
 42
1.0
 92
        8
 66
     7
 43
1.0
 76
     1
 77
     6
 78
     2
 67
     7
 79
     5
170
     0
171
     0
290
     0
174
     0
 93
        1
 44
0.0
173
     0
291
     1
 45
0.0
1001
ACAD
1000
AcDbSavedByObjectVersion
1070
     0
  0
VISUALSTYLE
  5
33
102
{ACAD_REACTORS
330
2A
102
}
330
2A
100
AcDbVisualStyle
  2
Realistic
 70
     8
 71
     2
 72
     2
 73
     0
 90
        0
 40
-0.6
 41
-30.0
 62
     5
 63
     7
 74
     1
 91
        0
 64
     7
 65
   257
 75
     1
175
     1
 42
1.0
 92
        8
 66
     8
 43
1.0
 76
     1
 77
     6
 78
     2
 67
     7
 79
     5
170
     0
171
     0
290
     0
174
     0
 93
       13
 44
0.0
173
     0
291
     0
 45
0.0
1001
ACAD
1000
AcDbSavedByObjectVersion
1070
     0
  0
VISUALSTYLE
  5
37
102
{ACAD_REACTORS
330
2A
102
}
330
2A
100
AcDbVisualStyle
  2
Thicken
 70
    13
 71
     2
 72
     2
 73
     0
 90
        0
 40
-0.6
 41
-30.0
 62
     5
 63
     7
 74
     1
 91
        4
 64
     7
 65
   257
 75
     1
175
     1
 42
1.0
 92
       12
 66
     7
 43
1.0
 76
     1
 77
     6
 78
     2
 67
     7
 79
     5
170
     0
171
     0
290
     0
174
     0
 93
        1
 44
0.0
173
     0
291
     1
 45
0.0
1001
ACAD
1000
AcDbSavedByObjectVersion
1070
     0
  0
DICTIONARYVAR
  5
1BB
102
{ACAD_REACTORS
330
1BA
102
}
330
1BA
100
DictionaryVariables
280
     0
  1
1:1
  0
DICTIONARYVAR
  5
1BF
102
{ACAD_REACTORS
330
1BA
102
}
330
1BA
100
DictionaryVariables
280
     0
  1
80.000000
  0
DICTIONARYVAR
  5
1BE
102
{ACAD_REACTORS
330
1BA
102
}
330
1BA
100
DictionaryVariables
280
     0
  1
5.000000
  0
ENDSEC
  0
EOF
