  0
SECTION
  2
HEADER
  9
$ACADVER
  1
AC1015
  9
$ACADMAINTVER
 70
     6
  9
$DWGCODEPAGE
  3
ANSI_1252
  9
$INSBASE
 10
0.0
 20
0.0
 30
0.0
  9
$EXTMIN
 10
0.0
 20
0.0
 30
0.0
  9
$EXTMAX
 10
1682.0
 20
2378.0
 30
0.0
  9
$LIMMIN
 10
0.0
 20
0.0
  9
$LIMMAX
 10
1682.0
 20
2378.0
  9
$ORTHOMODE
 70
     0
  9
$REGENMODE
 70
     1
  9
$FILLMODE
 70
     1
  9
$QTEXTMODE
 70
     0
  9
$MIRRTEXT
 70
     1
  9
$LTSCALE
 40
1.0
  9
$ATTMODE
 70
     1
  9
$TEXTSIZE
 40
2.5
  9
$TRACEWID
 40
1.0
  9
$TEXTSTYLE
  7
Standard
  9
$CLAYER
  8
0
  9
$CELTYPE
  6
ByLayer
  9
$CECOLOR
 62
   256
  9
$CELTSCALE
 40
1.0
  9
$DISPSILH
 70
     0
  9
$DIMSCALE
 40
1.0
  9
$DIMASZ
 40
2.5
  9
$DIMEXO
 40
0.625
  9
$DIMDLI
 40
3.75
  9
$DIMRND
 40
0.0
  9
$DIMDLE
 40
0.0
  9
$DIMEXE
 40
1.25
  9
$DIMTP
 40
0.0
  9
$DIMTM
 40
0.0
  9
$DIMTXT
 40
2.5
  9
$DIMCEN
 40
2.5
  9
$DIMTSZ
 40
0.0
  9
$DIMTOL
 70
     0
  9
$DIMLIM
 70
     0
  9
$DIMTIH
 70
     0
  9
$DIMTOH
 70
     0
  9
$DIMSE1
 70
     0
  9
$DIMSE2
 70
     0
  9
$DIMTAD
 70
     1
  9
$DIMZIN
 70
     8
  9
$DIMBLK
  1

  9
$DIMASO
 70
     1
  9
$DIMSHO
 70
     1
  9
$DIMPOST
  1

  9
$DIMAPOST
  1

  9
$DIMALT
 70
     0
  9
$DIMALTD
 70
     3
  9
$DIMALTF
 40
0.0393700787
  9
$DIMLFAC
 40
1.0
  9
$DIMTOFL
 70
     1
  9
$DIMTVP
 40
0.0
  9
$DIMTIX
 70
     0
  9
$DIMSOXD
 70
     0
  9
$DIMSAH
 70
     0
  9
$DIMBLK1
  1

  9
$DIMBLK2
  1

  9
$DIMSTYLE
  2
ISO-25
  9
$DIMCLRD
 70
     0
  9
$DIMCLRE
 70
     0
  9
$DIMCLRT
 70
     0
  9
$DIMTFAC
 40
1.0
  9
$DIMGAP
 40
0.625
  9
$DIMJUST
 70
     0
  9
$DIMSD1
 70
     0
  9
$DIMSD2
 70
     0
  9
$DIMTOLJ
 70
     0
  9
$DIMTZIN
 70
     8
  9
$DIMALTZ
 70
     0
  9
$DIMALTTZ
 70
     0
  9
$DIMUPT
 70
     0
  9
$DIMDEC
 70
     2
  9
$DIMTDEC
 70
     2
  9
$DIMALTU
 70
     2
  9
$DIMALTTD
 70
     3
  9
$DIMTXSTY
  7
Standard
  9
$DIMAUNIT
 70
     0
  9
$DIMADEC
 70
     0
  9
$DIMALTRND
 40
0.0
  9
$DIMAZIN
 70
     0
  9
$DIMDSEP
 70
    44
  9
$DIMATFIT
 70
     3
  9
$DIMFRAC
 70
     0
  9
$DIMLDRBLK
  1

  9
$DIMLUNIT
 70
     2
  9
$DIMLWD
 70
    -2
  9
$DIMLWE
 70
    -2
  9
$DIMTMOVE
 70
     0
  9
$LUNITS
 70
     2
  9
$LUPREC
 70
     4
  9
$SKETCHINC
 40
1.0
  9
$FILLETRAD
 40
10.0
  9
$AUNITS
 70
     0
  9
$AUPREC
 70
     0
  9
$MENU
  1
.
  9
$ELEVATION
 40
0.0
  9
$PELEVATION
 40
0.0
  9
$THICKNESS
 40
0.0
  9
$LIMCHECK
 70
     0
  9
$CHAMFERA
 40
10.0
  9
$CHAMFERB
 40
10.0
  9
$CHAMFERC
 40
20.0
  9
$CHAMFERD
 40
0.0
  9
$SKPOLY
 70
     0
  9
$TDCREATE
 40
2455391.373927697
  9
$TDUCREATE
 40
2455391.290594364
  9
$TDUPDATE
 40
2455391.373927708
  9
$TDUUPDATE
 40
2455391.290594375
  9
$TDINDWG
 40
0.0000000116
  9
$TDUSRTIMER
 40
0.0000000116
  9
$USRTIMER
 70
     1
  9
$ANGBASE
 50
0.0
  9
$ANGDIR
 70
     0
  9
$PDMODE
 70
     0
  9
$PDSIZE
 40
0.0
  9
$PLINEWID
 40
0.0
  9
$SPLFRAME
 70
     0
  9
$SPLINETYPE
 70
     6
  9
$SPLINESEGS
 70
     8
  9
$HANDSEED
  5
131
  9
$SURFTAB1
 70
     6
  9
$SURFTAB2
 70
     6
  9
$SURFTYPE
 70
     6
  9
$SURFU
 70
     6
  9
$SURFV
 70
     6
  9
$UCSBASE
  2

  9
$UCSNAME
  2

  9
$UCSORG
 10
0.0
 20
0.0
 30
0.0
  9
$UCSXDIR
 10
1.0
 20
0.0
 30
0.0
  9
$UCSYDIR
 10
0.0
 20
1.0
 30
0.0
  9
$UCSORTHOREF
  2

  9
$UCSORTHOVIEW
 70
     0
  9
$UCSORGTOP
 10
0.0
 20
0.0
 30
0.0
  9
$UCSORGBOTTOM
 10
0.0
 20
0.0
 30
0.0
  9
$UCSORGLEFT
 10
0.0
 20
0.0
 30
0.0
  9
$UCSORGRIGHT
 10
0.0
 20
0.0
 30
0.0
  9
$UCSORGFRONT
 10
0.0
 20
0.0
 30
0.0
  9
$UCSORGBACK
 10
0.0
 20
0.0
 30
0.0
  9
$PUCSBASE
  2

  9
$PUCSNAME
  2

  9
$PUCSORG
 10
0.0
 20
0.0
 30
0.0
  9
$PUCSXDIR
 10
1.0
 20
0.0
 30
0.0
  9
$PUCSYDIR
 10
0.0
 20
1.0
 30
0.0
  9
$PUCSORTHOREF
  2

  9
$PUCSORTHOVIEW
 70
     0
  9
$PUCSORGTOP
 10
0.0
 20
0.0
 30
0.0
  9
$PUCSORGBOTTOM
 10
0.0
 20
0.0
 30
0.0
  9
$PUCSORGLEFT
 10
0.0
 20
0.0
 30
0.0
  9
$PUCSORGRIGHT
 10
0.0
 20
0.0
 30
0.0
  9
$PUCSORGFRONT
 10
0.0
 20
0.0
 30
0.0
  9
$PUCSORGBACK
 10
0.0
 20
0.0
 30
0.0
  9
$USERI1
 70
     0
  9
$USERI2
 70
     0
  9
$USERI3
 70
     0
  9
$USERI4
 70
     0
  9
$USERI5
 70
     0
  9
$USERR1
 40
0.0
  9
$USERR2
 40
0.0
  9
$USERR3
 40
0.0
  9
$USERR4
 40
0.0
  9
$USERR5
 40
0.0
  9
$WORLDVIEW
 70
     1
  9
$SHADEDGE
 70
     3
  9
$SHADEDIF
 70
    70
  9
$TILEMODE
 70
     1
  9
$MAXACTVP
 70
    64
  9
$PINSBASE
 10
0.0
 20
0.0
 30
0.0
  9
$PLIMCHECK
 70
     0
  9
$PEXTMIN
 10
0.0
 20
0.0
 30
0.0
  9
$PEXTMAX
 10
1682.0
 20
2378.0
 30
0.0
  9
$PLIMMIN
 10
0.0
 20
0.0
  9
$PLIMMAX
 10
1682.0
 20
2378.0
  9
$UNITMODE
 70
     0
  9
$VISRETAIN
 70
     1
  9
$PLINEGEN
 70
     0
  9
$PSLTSCALE
 70
     1
  9
$TREEDEPTH
 70
  3020
  9
$CMLSTYLE
  2
Standard
  9
$CMLJUST
 70
     0
  9
$CMLSCALE
 40
20.0
  9
$PROXYGRAPHICS
 70
     1
  9
$MEASUREMENT
 70
     1
  9
$CELWEIGHT
370
    -1
  9
$ENDCAPS
280
     0
  9
$JOINSTYLE
280
     0
  9
$LWDISPLAY
290
     0
  9
$INSUNITS
 70
     4
  9
$HYPERLINKBASE
  1

  9
$STYLESHEET
  1

  9
$XEDIT
290
     1
  9
$CEPSNTYPE
380
     0
  9
$PSTYLEMODE
290
     1
  9
$FINGERPRINTGUID
  2
{9B62C844-487A-4542-B33F-4D8806507F79}
  9
$VERSIONGUID
  2
{FAEB1C32-E019-11D5-929B-00C0DF256EC4}
  9
$EXTNAMES
290
     1
  9
$PSVPSCALE
 40
0.0
  9
$OLESTARTUP
290
     0
  0
ENDSEC
  0
SECTION
  2
CLASSES
  0
CLASS
  1
ACDBDICTIONARYWDFLT
  2
AcDbDictionaryWithDefault
  3
ObjectDBX Classes
 90
        0
280
     0
281
     0
  0
CLASS
  1
VISUALSTYLE
  2
AcDbVisualStyle
  3
ObjectDBX Classes
 90
     4095
280
     0
281
     0
  0
CLASS
  1
SCALE
  2
AcDbScale
  3
ObjectDBX Classes
 90
     1153
280
     0
281
     0
  0
CLASS
  1
DICTIONARYVAR
  2
AcDbDictionaryVar
  3
ObjectDBX Classes
 90
        0
280
     0
281
     0
  0
CLASS
  1
ACDBPLACEHOLDER
  2
AcDbPlaceHolder
  3
ObjectDBX Classes
 90
        0
280
     0
281
     0
  0
CLASS
  1
LAYOUT
  2
AcDbLayout
  3
ObjectDBX Classes
 90
        0
280
     0
281
     0
  0
ENDSEC
  0
SECTION
  2
TABLES
  0
TABLE
  2
VPORT
  5
8
330
0
100
AcDbSymbolTable
 70
     1
  0
VPORT
  5
29
330
8
100
AcDbSymbolTableRecord
100
AcDbViewportTableRecord
  2
*Active
 70
     0
 10
0.0
 20
0.0
 11
1.0
 21
1.0
 12
344.1869158879
 22
148.5
 13
0.0
 23
0.0
 14
10.0
 24
10.0
 15
10.0
 25
10.0
 16
0.0
 26
0.0
 36
1.0
 17
0.0
 27
0.0
 37
0.0
 40
297.0
 41
1.9729729729
 42
50.0
 43
0.0
 44
0.0
 50
0.0
 51
0.0
 71
     0
 72
   100
 73
     1
 74
     3
 75
     0
 76
     0
 77
     0
 78
     0
281
     0
 65
     1
110
0.0
120
0.0
130
0.0
111
1.0
121
0.0
131
0.0
112
0.0
122
1.0
132
0.0
 79
     0
146
0.0
  0
ENDTAB
  0
TABLE
  2
LTYPE
  5
5
330
0
100
AcDbSymbolTable
 70
     2
  0
LTYPE
  5
14
330
5
100
AcDbSymbolTableRecord
100
AcDbLinetypeTableRecord
  2
ByBlock
 70
     0
  3

 72
    65
 73
     0
 40
0.0
  0
LTYPE
  5
15
330
5
100
AcDbSymbolTableRecord
100
AcDbLinetypeTableRecord
  2
ByLayer
 70
     0
  3

 72
    65
 73
     0
 40
0.0
  0
LTYPE
  5
16
330
5
100
AcDbSymbolTableRecord
100
AcDbLinetypeTableRecord
  2
Continuous
 70
     0
  3
Solid line
 72
    65
 73
     0
 40
0.0
  0
LTYPE
  5
60
330
5
100
AcDbSymbolTableRecord
100
AcDbLinetypeTableRecord
  2
CENTER2
 70
     0
  3
Center (.5x) ___ _ ___ _ ___ _ ___ _ ___ _ ___
 72
    65
 73
     4
 40
28.575
 49
19.05
 74
     4
 75
     0
340
0
 46
0.0
 50
0.0
 44
0.0
 45
0.0
 49
-3.175
 74
     4
 75
     0
340
0
 46
0.0
 50
0.0
 44
0.0
 45
0.0
 49
3.175
 74
     4
 75
     0
340
0
 46
0.0
 50
0.0
 44
0.0
 45
0.0
 49
-3.175
 74
     4
 75
     0
340
0
 46
0.0
 50
0.0
 44
0.0
 45
0.0
  0
ENDTAB
  0
TABLE
  2
LAYER
  5
2
330
0
100
AcDbSymbolTable
 70
    12
  0
LAYER
  5
10
330
2
100
AcDbSymbolTableRecord
100
AcDbLayerTableRecord
  2
0
 70
     0
 62
     7
  6
Continuous
370
    -3
390
F
  0
LAYER
  5
5D
330
2
100
AcDbSymbolTableRecord
100
AcDbLayerTableRecord
  2
Default
 70
     0
 62
     7
  6
Continuous
370
    -3
390
F
  0
LAYER
  5
77
330
2
100
AcDbSymbolTableRecord
100
AcDbLayerTableRecord
  2
$DDT_AUDIT_GENERATED_(77)
 70
     0
 62
     7
  6
Continuous
370
    -3
390
F
  0
LAYER
  5
84
330
2
100
AcDbSymbolTableRecord
100
AcDbLayerTableRecord
  2
$DDT_AUDIT_GENERATED_(84)
 70
     0
 62
     7
  6
Continuous
370
    -3
390
F
  0
LAYER
  5
86
330
2
100
AcDbSymbolTableRecord
100
AcDbLayerTableRecord
  2
$DDT_AUDIT_GENERATED_(86)
 70
     0
 62
     7
  6
Continuous
370
    -3
390
F
  0
LAYER
  5
96
330
2
100
AcDbSymbolTableRecord
100
AcDbLayerTableRecord
  2
$DDT_AUDIT_GENERATED_(96)
 70
     0
 62
     7
  6
Continuous
370
    -3
390
F
  0
LAYER
  5
9B
330
2
100
AcDbSymbolTableRecord
100
AcDbLayerTableRecord
  2
$DDT_AUDIT_GENERATED_(9B)
 70
     0
 62
     7
  6
Continuous
370
    -3
390
F
  0
LAYER
  5
A0
330
2
100
AcDbSymbolTableRecord
100
AcDbLayerTableRecord
  2
$DDT_AUDIT_GENERATED_(A0)
 70
     0
 62
     7
  6
Continuous
370
    -3
390
F
  0
LAYER
  5
C3
330
2
100
AcDbSymbolTableRecord
100
AcDbLayerTableRecord
  2
$DDT_AUDIT_GENERATED_(C3)
 70
     0
 62
     7
  6
Continuous
370
    -3
390
F
  0
LAYER
  5
F2
330
2
100
AcDbSymbolTableRecord
100
AcDbLayerTableRecord
  2
$DDT_AUDIT_GENERATED_(F2)
 70
     0
 62
     7
  6
Continuous
370
    -3
390
F
  0
LAYER
  5
FA
330
2
100
AcDbSymbolTableRecord
100
AcDbLayerTableRecord
  2
$DDT_AUDIT_GENERATED_(FA)
 70
     0
 62
     7
  6
Continuous
370
    -3
390
F
  0
LAYER
  5
FC
330
2
100
AcDbSymbolTableRecord
100
AcDbLayerTableRecord
  2
DV2_Standard
 70
     0
 62
     7
  6
Continuous
370
    -3
390
F
  0
ENDTAB
  0
TABLE
  2
STYLE
  5
3
330
0
100
AcDbSymbolTable
 70
     2
  0
STYLE
  5
11
330
3
100
AcDbSymbolTableRecord
100
AcDbTextStyleTableRecord
  2
Standard
 70
     0
 40
0.0
 41
1.0
 50
0.0
 71
     0
 42
2.5
  3
txt
  4

  0
STYLE
  5
120
330
3
100
AcDbSymbolTableRecord
100
AcDbTextStyleTableRecord
  2
SEACAD_seiso_ttf
 70
     0
 40
0.0
 41
1.0
 50
0.0
 71
     0
 42
0.2
  3
seiso.ttf
  4

  0
ENDTAB
  0
TABLE
  2
VIEW
  5
6
330
0
100
AcDbSymbolTable
 70
     0
  0
ENDTAB
  0
TABLE
  2
UCS
  5
7
330
0
100
AcDbSymbolTable
 70
     0
  0
ENDTAB
  0
TABLE
  2
APPID
  5
9
330
0
100
AcDbSymbolTable
 70
     1
  0
APPID
  5
12
330
9
100
AcDbSymbolTableRecord
100
AcDbRegAppTableRecord
  2
ACAD
 70
     0
  0
ENDTAB
  0
TABLE
  2
DIMSTYLE
  5
A
330
0
100
AcDbSymbolTable
 70
     1
100
AcDbDimStyleTable
  0
DIMSTYLE
105
27
330
A
100
AcDbSymbolTableRecord
100
AcDbDimStyleTableRecord
  2
ISO-25
 70
     0
 41
2.5
 42
0.625
 43
3.75
 44
1.25
 73
     0
 74
     0
 77
     1
 78
     8
140
2.5
141
2.5
143
0.0393700787
147
0.625
171
     3
172
     1
271
     2
272
     2
274
     3
278
    44
283
     0
284
     8
340
11
  0
ENDTAB
  0
TABLE
  2
BLOCK_RECORD
  5
1
330
0
100
AcDbSymbolTable
 70
     7
  0
BLOCK_RECORD
  5
1F
330
1
100
AcDbSymbolTableRecord
100
AcDbBlockTableRecord
  2
*Model_Space
340
22
  0
BLOCK_RECORD
  5
1B
330
1
100
AcDbSymbolTableRecord
100
AcDbBlockTableRecord
  2
*Paper_Space
340
1E
  0
BLOCK_RECORD
  5
5E
330
1
100
AcDbSymbolTableRecord
100
AcDbBlockTableRecord
  2
SEANNOT_GROUP
340
0
102
{BLKREFS
331
5F
102
}
  0
BLOCK_RECORD
  5
65
330
1
100
AcDbSymbolTableRecord
100
AcDbBlockTableRecord
  2
SEANNOT_GROUP1
340
0
102
{BLKREFS
331
66
102
}
  0
BLOCK_RECORD
  5
6B
330
1
100
AcDbSymbolTableRecord
100
AcDbBlockTableRecord
  2
SEANNOT_GROUP2
340
0
102
{BLKREFS
331
6C
102
}
  0
BLOCK_RECORD
  5
75
330
1
100
AcDbSymbolTableRecord
100
AcDbBlockTableRecord
  2
SE
340
0
102
{BLKREFS
331
76
102
}
  0
BLOCK_RECORD
  5
A7
330
1
100
AcDbSymbolTableRecord
100
AcDbBlockTableRecord
  2
SE1
340
0
102
{BLKREFS
331
A8
102
}
  0
BLOCK_RECORD
  5
100
330
1
100
AcDbSymbolTableRecord
100
AcDbBlockTableRecord
  2
SE2
340
0
102
{BLKREFS
331
101
102
}
  0
ENDTAB
  0
ENDSEC
  0
SECTION
  2
BLOCKS
  0
BLOCK
  5
20
330
1F
100
AcDbEntity
  8
0
100
AcDbBlockBegin
  2
*Model_Space
 70
     0
 10
0.0
 20
0.0
 30
0.0
  3
*Model_Space
  1

  0
ENDBLK
  5
21
330
1F
100
AcDbEntity
  8
0
100
AcDbBlockEnd
  0
BLOCK
  5
1C
330
1B
100
AcDbEntity
 67
     1
  8
0
100
AcDbBlockBegin
  2
*Paper_Space
 70
     0
 10
0.0
 20
0.0
 30
0.0
  3
*Paper_Space
  1

  0
ENDBLK
  5
1D
330
1B
100
AcDbEntity
 67
     1
  8
0
100
AcDbBlockEnd
  0
BLOCK
  5
63
330
5E
100
AcDbEntity
  8
0
100
AcDbBlockBegin
  2
SEANNOT_GROUP
 70
     0
 10
0.0
 20
0.0
 30
0.0
  3
SEANNOT_GROUP
  1

  0
LINE
  5
61
330
5E
100
AcDbEntity
  8
Default
  6
CENTER2
 62
     7
100
AcDbLine
 10
181.5628196085
 20
318.4669744083
 30
0.0
 11
141.5628205025
 21
318.4669744083
 31
0.0
  0
LINE
  5
62
330
5E
100
AcDbEntity
  8
Default
  6
CENTER2
 62
     7
100
AcDbLine
 10
161.5628200555
 20
338.4669739613
 30
0.0
 11
161.5628200555
 21
298.4669748553
 31
0.0
  0
ENDBLK
  5
64
330
5E
100
AcDbEntity
  8
0
100
AcDbBlockEnd
  0
BLOCK
  5
69
330
65
100
AcDbEntity
  8
0
100
AcDbBlockBegin
  2
SEANNOT_GROUP1
 70
     0
 10
0.0
 20
0.0
 30
0.0
  3
SEANNOT_GROUP1
  1

  0
LINE
  5
67
330
65
100
AcDbEntity
  8
Default
  6
CENTER2
 62
     7
100
AcDbLine
 10
51.349999553
 20
318.4669744083
 30
0.0
 11
11.350000447
 21
318.4669744083
 31
0.0
  0
LINE
  5
68
330
65
100
AcDbEntity
  8
Default
  6
CENTER2
 62
     7
100
AcDbLine
 10
31.35
 20
338.4669739613
 30
0.0
 11
31.35
 21
298.4669748553
 31
0.0
  0
ENDBLK
  5
6A
330
65
100
AcDbEntity
  8
0
100
AcDbBlockEnd
  0
BLOCK
  5
73
330
6B
100
AcDbEntity
  8
0
100
AcDbBlockBegin
  2
SEANNOT_GROUP2
 70
     0
 10
0.0
 20
0.0
 30
0.0
  3
SEANNOT_GROUP2
  1

  0
LINE
  5
6D
330
6B
100
AcDbEntity
  8
Default
  6
CENTER2
 62
     7
100
AcDbLine
 10
51.349999553
 20
208.8573540538
 30
0.0
 11
11.350000447
 21
208.8573540538
 31
0.0
  0
LINE
  5
6E
330
6B
100
AcDbEntity
  8
Default
  6
CENTER2
 62
     7
100
AcDbLine
 10
31.35
 20
228.8573536067
 30
0.0
 11
31.35
 21
188.8573545008
 31
0.0
  0
LINE
  5
6F
330
6B
100
AcDbEntity
  8
Default
  6
CENTER2
 62
     7
100
AcDbLine
 10
56.3499994412
 20
208.8573540538
 30
0.0
 11
57.3451489836
 21
208.8573540538
 31
0.0
  0
LINE
  5
70
330
6B
100
AcDbEntity
  8
Default
  6
CENTER2
 62
     7
100
AcDbLine
 10
31.35
 20
233.857353495
 30
0.0
 11
31.35
 21
234.8525030373
 31
0.0
  0
LINE
  5
71
330
6B
100
AcDbEntity
  8
Default
  6
CENTER2
 62
     7
100
AcDbLine
 10
6.3500005588
 20
208.8573540538
 30
0.0
 11
5.3548510164
 21
208.8573540538
 31
0.0
  0
LINE
  5
72
330
6B
100
AcDbEntity
  8
Default
  6
CENTER2
 62
     7
100
AcDbLine
 10
31.35
 20
183.8573546126
 30
0.0
 11
31.35
 21
182.8622050702
 31
0.0
  0
ENDBLK
  5
74
330
6B
100
AcDbEntity
  8
0
100
AcDbBlockEnd
  0
BLOCK
  5
A5
330
75
100
AcDbEntity
  8
0
100
AcDbBlockBegin
  2
SE
 70
     0
 10
0.0
 20
0.0
 30
0.0
  3
SE
  1

  0
LINE
  5
78
330
75
100
AcDbEntity
  8
$DDT_AUDIT_GENERATED_(77)
  6
Continuous
 62
     7
100
AcDbLine
 10
52.8501699344
 20
615.5758890231
 30
0.0
 11
9.8498300656
 21
615.5758890231
 31
0.0
  0
LINE
  5
79
330
75
100
AcDbEntity
  8
$DDT_AUDIT_GENERATED_(77)
  6
Continuous
 62
     7
100
AcDbLine
 10
10.6072670988
 20
617.3165873058
 30
0.0
 11
52.0927329012
 21
617.3165873058
 31
0.0
  0
CIRCLE
  5
7A
330
75
100
AcDbEntity
  8
$DDT_AUDIT_GENERATED_(77)
  6
Continuous
 62
     7
100
AcDbCircle
 10
31.35
 20
577.9669744083
 30
0.0
 40
13.5
  0
LINE
  5
7B
330
75
100
AcDbEntity
  8
$DDT_AUDIT_GENERATED_(77)
  6
Continuous
 62
     7
100
AcDbLine
 10
9.8498300656
 20
478.4669744083
 30
0.0
 11
52.8501699344
 21
478.4669744083
 31
0.0
  0
LINE
  5
7C
330
75
100
AcDbEntity
  8
$DDT_AUDIT_GENERATED_(77)
  6
Continuous
 62
     7
100
AcDbLine
 10
52.5777277362
 20
616.5836310741
 30
0.0
 11
52.1791107913
 21
617.2669744083
 31
0.0
  0
LINE
  5
7D
330
75
100
AcDbEntity
  8
$DDT_AUDIT_GENERATED_(77)
  6
Continuous
 62
     7
100
AcDbLine
 10
10.5208892087
 20
617.2669744083
 30
0.0
 11
10.1222722638
 21
616.5836310741
 31
0.0
  0
ARC
  5
7E
330
75
100
AcDbEntity
  8
$DDT_AUDIT_GENERATED_(77)
  6
Continuous
 62
     7
100
AcDbCircle
 10
11.8498300656
 20
615.5758890231
 30
0.0
 40
2.000000000000006
100
AcDbArc
 50
149.7435628365
 51
180.0
  0
ARC
  5
7F
330
75
100
AcDbEntity
  8
$DDT_AUDIT_GENERATED_(77)
  6
Continuous
 62
     7
100
AcDbCircle
 10
50.8501699344
 20
615.5758890231
 30
0.0
 40
2.000000000000002
100
AcDbArc
 50
0.0
 51
30.2564371635
  0
ARC
  5
80
330
75
100
AcDbEntity
  8
$DDT_AUDIT_GENERATED_(77)
  6
Continuous
 62
     7
100
AcDbCircle
 10
10.6072670988
 20
617.2165873058
 30
0.0
 40
0.099999999999989
100
AcDbArc
 50
90.0
 51
149.7435628364
  0
ARC
  5
81
330
75
100
AcDbEntity
  8
$DDT_AUDIT_GENERATED_(77)
  6
Continuous
 62
     7
100
AcDbCircle
 10
52.0927329012
 20
617.2165873058
 30
0.0
 40
0.1000000000000004
100
AcDbArc
 50
30.2564371636
 51
90.0
  0
LINE
  5
82
330
75
100
AcDbEntity
  8
$DDT_AUDIT_GENERATED_(77)
  6
Continuous
 62
     7
100
AcDbLine
 10
9.8498300656
 20
615.5758890231
 30
0.0
 11
9.8498300656
 21
478.4669744083
 31
0.0
  0
LINE
  5
83
330
75
100
AcDbEntity
  8
$DDT_AUDIT_GENERATED_(77)
  6
Continuous
 62
     7
100
AcDbLine
 10
52.8501699344
 20
478.4669744083
 30
0.0
 11
52.8501699344
 21
615.5758890231
 31
0.0
  0
LINE
  5
85
330
75
100
AcDbEntity
  8
$DDT_AUDIT_GENERATED_(84)
  6
Continuous
 62
     7
100
AcDbLine
 10
43.1950429704
 20
571.4376278567
 30
0.0
 11
43.1950429704
 21
571.4904817595
 31
0.0
  0
SPLINE
  5
87
330
75
100
AcDbEntity
  8
$DDT_AUDIT_GENERATED_(86)
  6
Continuous
 62
     7
100
AcDbSpline
210
0.0
220
0.0
230
1.0
 70
     8
 71
     3
 72
    16
 73
    12
 74
     0
 42
0.0000000001066536
 43
0.0000000001
 40
0.0
 40
0.0
 40
0.0
 40
0.0
 40
0.0164328177901116
 40
0.0329911079614869
 40
0.0965557063061048
 40
0.1576389861053372
 40
0.1896077723650767
 40
0.2202095491907277
 40
0.2567292653125041
 40
0.2827705495906568
 40
0.2828184996304896
 40
0.2828184996304896
 40
0.2828184996304896
 40
0.2828184996304896
 10
35.84999999601588
 20
646.3942055141384
 30
0.0
 10
35.10998111669601
 20
646.394051396496
 30
0.0
 10
33.61047912369742
 20
646.393828802758
 30
0.0
 10
29.17621692966596
 20
646.3936218369897
 30
0.0
 10
22.62640953951579
 20
646.3948828344224
 30
0.0
 10
16.51445524232013
 20
646.3992269575381
 30
0.0
 10
12.90355232027317
 20
646.4047329115639
 30
0.0
 10
10.75359926802847
 20
646.411377776817
 30
0.0
 10
9.568430103237619
 20
646.4178307137967
 30
0.0
 10
9.332744059951814
 20
646.4201677815703
 30
0.0
 10
9.332564242164349
 20
646.4201694999814
 30
0.0
 10
9.332564242830976
 20
646.4201694998495
 30
0.0
  0
SPLINE
  5
88
330
75
100
AcDbEntity
  8
$DDT_AUDIT_GENERATED_(86)
  6
Continuous
 62
     7
100
AcDbSpline
210
0.0
220
0.0
230
1.0
 70
     8
 71
     3
 72
    13
 73
     9
 74
     0
 42
0.0000000001240418
 43
0.0000000001
 40
0.7827100458861611
 40
0.7827100458861611
 40
0.7827100458861611
 40
0.7827100458861611
 40
0.7827507061040019
 40
0.8088531057811371
 40
0.8454069751584854
 40
0.8967281367911013
 40
0.9480935305162121
 40
1.0
 40
1.0
 40
1.0
 40
1.0
 10
53.36743602966339
 20
646.4201695549034
 30
0.0
 10
53.3674359385448
 20
646.4201695617766
 30
0.0
 10
53.36722409523816
 20
646.4201724701626
 30
0.0
 10
53.13039484438023
 20
646.4178475502661
 30
0.0
 10
51.68141956754818
 20
646.4098107445691
 30
0.0
 10
48.25341956202184
 20
646.4012773542331
 30
0.0
 10
42.70155706201699
 20
646.3965193093388
 30
0.0
 10
38.18750339120098
 20
646.3946923267356
 30
0.0
 10
35.84999999601589
 20
646.3942055141384
 30
0.0
  0
LINE
  5
89
330
75
100
AcDbEntity
  8
$DDT_AUDIT_GENERATED_(86)
  6
Continuous
 62
     7
100
AcDbLine
 10
53.5696387795
 20
618.7740825437
 30
0.0
 11
9.1303612205
 21
618.7740825437
 31
0.0
  0
SPLINE
  5
8A
330
75
100
AcDbEntity
  8
$DDT_AUDIT_GENERATED_(86)
  6
Continuous
 62
     7
100
AcDbSpline
210
0.0
220
0.0
230
1.0
 70
    11
 71
     3
 72
    22
 73
    18
 74
     0
 42
0.0000000003268827
 43
0.0000000001
 40
0.0
 40
0.0
 40
0.0
 40
0.0
 40
0.125
 40
0.125
 40
0.25
 40
0.25
 40
0.375
 40
0.375
 40
0.5
 40
0.5
 40
0.625
 40
0.625
 40
0.75
 40
0.75
 40
0.875
 40
0.875
 40
1.0
 40
1.0
 40
1.0
 40
1.0
 10
30.75133053148905
 20
641.7480101553871
 30
0.0
 10
31.9957162017101
 20
641.9097535824781
 30
0.0
 10
33.27913006617008
 20
641.5440227914094
 30
0.0
 10
35.24159691179322
 20
640.0304088167628
 30
0.0
 10
35.89918053018739
 20
638.8702775230953
 30
0.0
 10
36.21938664520053
 20
636.385117535748
 30
0.0
 10
35.85326006412582
 20
635.10318020385
 30
0.0
 10
34.34199292719215
 20
633.1440263593204
 30
0.0
 10
33.17069392812803
 20
632.4848265337741
 30
0.0
 10
30.71413766421799
 20
632.1661007162141
 30
0.0
 10
29.42959569652668
 20
632.5194856378429
 30
0.0
 10
27.44223739831495
 20
634.0510528291306
 30
0.0
 10
26.79507886163822
 20
635.2149977239241
 30
0.0
 10
26.47689936789044
 20
637.6697833711783
 30
0.0
 10
26.83869361366736
 20
638.9642255602779
 30
0.0
 10
28.34864137666758
 20
640.9266472516966
 30
0.0
 10
29.506944861268
 20
641.5862667282962
 30
0.0
 10
30.75133053148905
 20
641.7480101553871
 30
0.0
  0
SPLINE
  5
8B
330
75
100
AcDbEntity
  8
$DDT_AUDIT_GENERATED_(86)
  6
Continuous
 62
     7
100
AcDbSpline
210
0.0
220
0.0
230
1.0
 70
     8
 71
     3
 72
    20
 73
    16
 74
     0
 42
0.0000000002359862
 43
0.0000000001
 40
0.0
 40
0.0
 40
0.0
 40
0.0
 40
0.0784377582212152
 40
0.1628008103113644
 40
0.2471235794707624
 40
0.331424916542106
 40
0.4157147208851484
 40
0.4999993298101758
 40
0.5722431375121052
 40
0.6444901660672506
 40
0.7167442373093489
 40
0.7890101037361226
 40
0.8612958175226693
 40
0.9336191555493409
 40
1.0
 40
1.0
 40
1.0
 40
1.0
 10
52.52441193558735
 20
647.3139585332791
 30
0.0
 10
51.30856192407168
 20
647.3973596861373
 30
0.0
 10
49.18001911382402
 20
647.5418475263838
 30
0.0
 10
45.62135445946446
 20
647.6866898195691
 30
0.0
 10
42.06899726305889
 20
647.7943243002264
 30
0.0
 10
38.49209004036354
 20
647.8657164567857
 30
0.0
 10
34.92189153582385
 20
647.9074259491604
 30
0.0
 10
31.51998680064633
 20
647.920407580386
 30
0.0
 10
28.28875419418991
 20
647.9097789597619
 30
0.0
 10
25.22706385898124
 20
647.8794621038644
 30
0.0
 10
22.16690952988482
 20
647.8270694791339
 30
0.0
 10
19.10098534831161
 20
647.7514424950638
 30
0.0
 10
16.05613712959096
 20
647.6483382236211
 30
0.0
 10
13.01805690016665
 20
647.5115248583991
 30
0.0
 10
11.20443814213821
 20
647.3862586095563
 30
0.0
 10
10.17556846335449
 20
647.3144028434822
 30
0.0
  0
LINE
  5
8C
330
75
100
AcDbEntity
  8
$DDT_AUDIT_GENERATED_(86)
  6
Continuous
 62
     7
100
AcDbLine
 10
53.845107022
 20
619.0544010638
 30
0.0
 11
53.3672753266
 21
646.4293605637
 31
0.0
  0
LINE
  5
8D
330
75
100
AcDbEntity
  8
$DDT_AUDIT_GENERATED_(86)
  6
Continuous
 62
     7
100
AcDbLine
 10
9.3327246734
 20
646.4293605637
 30
0.0
 11
8.854892978
 21
619.0544010638
 31
0.0
  0
SPLINE
  5
8E
330
75
100
AcDbEntity
  8
$DDT_AUDIT_GENERATED_(86)
  6
Continuous
 62
     7
100
AcDbSpline
210
0.0
220
0.0
230
1.0
 70
     8
 71
     3
 72
    13
 73
     9
 74
     0
 42
0.0000000071609889
 43
0.0000000001
 40
0.0
 40
0.0
 40
0.0
 40
0.0
 40
0.2396388835873391
 40
0.3699190905342996
 40
0.5000000020257921
 40
0.6302929580664726
 40
0.7609951206888214
 40
1.0
 40
1.0
 40
1.0
 40
1.0
 10
10.17524123606402
 20
647.3193962304096
 30
0.0
 10
10.05445311549076
 20
647.306458069809
 30
0.0
 10
9.89602408935112
 20
647.2854901797517
 30
0.0
 10
9.684964566257937
 20
647.1806890038807
 30
0.0
 10
9.54461504215882
 20
647.0657739817367
 30
0.0
 10
9.4389785275646
 20
646.9180707459506
 30
0.0
 10
9.348224696993775
 20
646.700577916923
 30
0.0
 10
9.337610520553909
 20
646.541222047951
 30
0.0
 10
9.332564242830879
 20
646.4201694998495
 30
0.0
  0
SPLINE
  5
8F
330
75
100
AcDbEntity
  8
$DDT_AUDIT_GENERATED_(86)
  6
Continuous
 62
     7
100
AcDbSpline
210
0.0
220
0.0
230
1.0
 70
     8
 71
     3
 72
    13
 73
     9
 74
     0
 42
0.0000000071609888
 43
0.0000000001
 40
0.0
 40
0.0
 40
0.0
 40
0.0
 40
0.2390048813149804
 40
0.3697070444283743
 40
0.499999999131356
 40
0.6300809070206037
 40
0.7603611098230666
 40
1.0
 40
1.0
 40
1.0
 40
1.0
 10
53.36743575587452
 20
646.4201695740231
 30
0.0
 10
53.36238947804836
 20
646.5412221238505
 30
0.0
 10
53.35177530137393
 20
646.7005779948072
 30
0.0
 10
53.26102147002337
 20
646.9180708256275
 30
0.0
 10
53.15538495570772
 20
647.0657740603815
 30
0.0
 10
53.01503543416083
 20
647.1806890806415
 30
0.0
 10
52.8039759104968
 20
647.2854902569585
 30
0.0
 10
52.64554688207433
 20
647.3064581461091
 30
0.0
 10
52.52475875736103
 20
647.3193963061339
 30
0.0
  0
ARC
  5
90
330
75
100
AcDbEntity
  8
$DDT_AUDIT_GENERATED_(86)
  6
Continuous
 62
     7
100
AcDbCircle
 10
53.5696387795
 20
619.0495927478
 30
0.0
 40
0.2755102040815083
100
AcDbArc
 50
270.0
 51
1.0
  0
ARC
  5
91
330
75
100
AcDbEntity
  8
$DDT_AUDIT_GENERATED_(86)
  6
Continuous
 62
     7
100
AcDbCircle
 10
9.1303612205
 20
619.0495927478
 30
0.0
 40
0.2755102040816178
100
AcDbArc
 50
179.0
 51
270.0
  0
ARC
  5
92
330
75
100
AcDbEntity
  8
$DDT_AUDIT_GENERATED_(86)
  6
Continuous
 62
     7
100
AcDbCircle
 10
29.080601488
 20
636.0725274749
 30
0.0
 40
2.295533294774399
100
AcDbArc
 50
203.1521671146
 51
207.4524374195
  0
ARC
  5
93
330
75
100
AcDbEntity
  8
$DDT_AUDIT_GENERATED_(86)
  6
Continuous
 62
     7
100
AcDbCircle
 10
27.4069721133
 20
635.3959867854
 30
0.0
 40
0.4836096355443391
100
AcDbArc
 50
210.8391456234
 51
211.1345187416
  0
ARC
  5
94
330
75
100
AcDbEntity
  8
$DDT_AUDIT_GENERATED_(86)
  6
Continuous
 62
     7
100
AcDbCircle
 10
33.4856946592
 20
636.1466171691
 30
0.0
 40
2.442551606342668
100
AcDbArc
 50
332.4007951484
 51
336.5078708851
  0
ARC
  5
95
330
75
100
AcDbEntity
  8
$DDT_AUDIT_GENERATED_(86)
  6
Continuous
 62
     7
100
AcDbCircle
 10
35.2880940324
 20
635.3970622045
 30
0.0
 40
0.4858047517575041
100
AcDbArc
 50
328.4529935015
 51
328.6759231732
  0
ARC
  5
97
330
75
100
AcDbEntity
  8
$DDT_AUDIT_GENERATED_(96)
  6
Continuous
 62
     7
100
AcDbCircle
 10
31.349999863
 20
608.2826455921
 30
0.0
 40
22.59999999999999
100
AcDbArc
 50
152.3400606244
 51
155.2561404357
  0
ARC
  5
98
330
75
100
AcDbEntity
  8
$DDT_AUDIT_GENERATED_(96)
  6
Continuous
 62
     7
100
AcDbCircle
 10
31.349999863
 20
608.2826455921
 30
0.0
 40
22.59999999999999
100
AcDbArc
 50
24.7438595643
 51
27.6599393756
  0
ARC
  5
99
330
75
100
AcDbEntity
  8
$DDT_AUDIT_GENERATED_(96)
  6
Continuous
 62
     7
100
AcDbCircle
 10
11.0974066442
 20
617.6165873058
 30
0.0
 40
0.3000000000000034
100
AcDbArc
 50
155.2561404357
 51
270.0
  0
ARC
  5
9A
330
75
100
AcDbEntity
  8
$DDT_AUDIT_GENERATED_(96)
  6
Continuous
 62
     7
100
AcDbCircle
 10
51.6025930818
 20
617.6165873058
 30
0.0
 40
0.2999999999999947
100
AcDbArc
 50
270.0
 51
24.7438595643
  0
ELLIPSE
  5
9C
330
75
100
AcDbEntity
  8
$DDT_AUDIT_GENERATED_(9B)
  6
Continuous
 62
     7
100
AcDbEllipse
 10
31.35
 20
567.9946859161
 30
0.0
 11
-6.224999999999932
 21
1.387778780781446E-14
 31
0.0
210
0.0
220
0.0
230
1.0
 40
0.5735764364
 41
1.234512739521232
 42
1.907079914068562
  0
ELLIPSE
  5
9D
330
75
100
AcDbEntity
  8
$DDT_AUDIT_GENERATED_(9B)
  6
Continuous
 62
     7
100
AcDbEllipse
 10
31.35
 20
567.7818639721
 30
0.0
 11
6.074999999999923
 21
0.0
 31
0.0
210
0.0
220
0.0
230
1.0
 40
0.5735764364
 41
4.106238186636967
 42
5.31853977413241
  0
ELLIPSE
  5
9E
330
75
100
AcDbEntity
  8
$DDT_AUDIT_GENERATED_(9B)
  6
Continuous
 62
     7
100
AcDbEllipse
 10
31.35
 20
567.6180335633
 30
0.0
 11
6.074999999999923
 21
0.0
 31
0.0
210
0.0
220
0.0
230
1.0
 40
0.5735764364
 41
3.913015150207275
 42
5.511762810562102
  0
SPLINE
  5
9F
330
75
100
AcDbEntity
  8
$DDT_AUDIT_GENERATED_(9B)
  6
Continuous
 62
     7
100
AcDbSpline
210
0.0
220
0.0
230
1.0
 70
     8
 71
     3
 72
    35
 73
    31
 74
     0
 42
0.0000000005321945
 43
0.0000000001
 40
0.1819252407899616
 40
0.1819252407899616
 40
0.1819252407899616
 40
0.1819252407899616
 40
0.1859180819472626
 40
0.2095863320291198
 40
0.2333158113195812
 40
0.2570760455412409
 40
0.2808433172774982
 40
0.3046019288545046
 40
0.3283453669965313
 40
0.3520709278889098
 40
0.3757784198126941
 40
0.39946923192404
 40
0.4231457075000177
 40
0.4468107427003916
 40
0.4704675416668291
 40
0.4941194750691446
 40
0.5177700040163502
 40
0.5414223508843564
 40
0.5650791805115576
 40
0.5887440612770298
 40
0.6124205565542736
 40
0.6361121699781717
 40
0.6598222392699928
 40
0.6835537446112084
 40
0.70730898375434
 40
0.7310890478232733
 40
0.7548930133301084
 40
0.7787167592955897
 40
0.8025506940566176
 40
0.8196669782047958
 40
0.8196669782047958
 40
0.8196669782047958
 40
0.8196669782047958
 10
25.76874482063131
 20
565.6796844468412
 30
0.0
 10
25.7840331483677
 20
565.6658874040847
 30
0.0
 10
25.89092663895912
 20
565.5707421543452
 30
0.0
 10
26.10203491873951
 20
565.3996561077538
 30
0.0
 10
26.42240846280464
 20
565.177157466646
 30
0.0
 10
26.76966128493947
 20
564.9696857439683
 30
0.0
 10
27.14168695725437
 20
564.7783539689974
 30
0.0
 10
27.53629575463262
 20
564.6041238615071
 30
0.0
 10
27.9512461837326
 20
564.4478239652375
 30
0.0
 10
28.38425293977434
 20
564.31017064307
 30
0.0
 10
28.83296947096476
 20
564.1917864797895
 30
0.0
 10
29.29499064199466
 20
564.0932040048036
 30
0.0
 10
29.76785744981911
 20
564.0148662928983
 30
0.0
 10
30.24906409548214
 20
563.9571258400829
 30
0.0
 10
30.73606717149026
 20
563.920242771832
 30
0.0
 10
31.22629652449844
 20
563.9043831027917
 30
0.0
 10
31.71716529966241
 20
563.9096174851505
 30
0.0
 10
32.20607871450346
 20
563.9359200709144
 30
0.0
 10
32.69045368895382
 20
563.983168174434
 30
0.0
 10
33.16773443706003
 20
564.0511442633043
 30
0.0
 10
33.63540902421206
 20
564.1395400417939
 30
0.0
 10
34.09101500413691
 20
564.2479596640337
 30
0.0
 10
34.53214973104491
 20
564.3759240196551
 30
0.0
 10
34.95647869254425
 20
564.5228753742714
 30
0.0
 10
35.36174120931519
 20
564.6881816697369
 30
0.0
 10
35.74575287168059
 20
564.8711392921933
 30
0.0
 10
36.10640434639228
 20
565.0709725309184
 30
0.0
 10
36.44165378394461
 20
565.2868248300617
 30
0.0
 10
36.72061804250833
 20
565.496062783546
 30
0.0
 10
36.88261263508933
 20
565.6352720776963
 30
0.0
 10
36.94771257924586
 20
565.6946105970048
 30
0.0
  0
LINE
  5
A1
330
75
100
AcDbEntity
  8
$DDT_AUDIT_GENERATED_(A0)
  6
Continuous
 62
     7
100
AcDbLine
 10
9.85
 20
318.4669744083
 30
0.0
 11
52.85
 21
318.4669744083
 31
0.0
  0
LINE
  5
A2
330
75
100
AcDbEntity
  8
$DDT_AUDIT_GENERATED_(A0)
  6
Continuous
 62
     7
100
AcDbLine
 10
9.85
 20
318.4669744083
 30
0.0
 11
9.85
 21
478.4669744083
 31
0.0
  0
LINE
  5
A3
330
75
100
AcDbEntity
  8
$DDT_AUDIT_GENERATED_(A0)
  6
Continuous
 62
     7
100
AcDbLine
 10
52.85
 20
478.4669744083
 30
0.0
 11
52.85
 21
318.4669744083
 31
0.0
  0
LINE
  5
A4
330
75
100
AcDbEntity
  8
$DDT_AUDIT_GENERATED_(A0)
  6
Continuous
 62
     7
100
AcDbLine
 10
9.85
 20
478.4669744083
 30
0.0
 11
52.85
 21
478.4669744083
 31
0.0
  0
ENDBLK
  5
A6
330
75
100
AcDbEntity
  8
0
100
AcDbBlockEnd
  0
BLOCK
  5
FE
330
A7
100
AcDbEntity
  8
0
100
AcDbBlockBegin
  2
SE1
 70
     0
 10
0.0
 20
0.0
 30
0.0
  3
SE1
  1

  0
LINE
  5
A9
330
A7
100
AcDbEntity
  8
$DDT_AUDIT_GENERATED_(77)
  6
Continuous
 62
     7
100
AcDbLine
 10
183.0629899899
 20
615.5758890231
 30
0.0
 11
140.0626501211
 21
615.5758890231
 31
0.0
  0
LINE
  5
AA
330
A7
100
AcDbEntity
  8
$DDT_AUDIT_GENERATED_(77)
  6
Continuous
 62
     7
100
AcDbLine
 10
140.8200871543
 20
617.3165873058
 30
0.0
 11
182.3055529567
 21
617.3165873058
 31
0.0
  0
LINE
  5
AB
330
A7
100
AcDbEntity
  8
$DDT_AUDIT_GENERATED_(77)
  6
Continuous
 62
     7
100
AcDbLine
 10
264.0628200555
 20
590.4669744083
 30
0.0
 11
264.0628200555
 21
565.4669744083
 31
0.0
  0
ARC
  5
AC
330
A7
100
AcDbEntity
  8
$DDT_AUDIT_GENERATED_(77)
  6
Continuous
 62
     7
100
AcDbCircle
 10
245.6623507047
 20
551.7681648658
 30
0.0
 40
16.16081617466973
100
AcDbArc
 50
121.7926666367
 51
128.207333358
  0
LINE
  5
AD
330
A7
100
AcDbEntity
  8
$DDT_AUDIT_GENERATED_(77)
  6
Continuous
 62
     7
100
AcDbLine
 10
237.1480729871
 20
565.5042143116
 30
0.0
 11
240.9982768108
 21
568.2001560526
 31
0.0
  0
ARC
  5
AE
330
A7
100
AcDbEntity
  8
$DDT_AUDIT_GENERATED_(77)
  6
Continuous
 62
     7
100
AcDbCircle
 10
243.1665526588
 20
565.2420706166
 30
0.0
 40
3.667654509395156
100
AcDbArc
 50
94.7048641379
 51
126.2414063738
  0
ARC
  5
AF
330
A7
100
AcDbEntity
  8
$DDT_AUDIT_GENERATED_(77)
  6
Continuous
 62
     7
100
AcDbCircle
 10
238.1960851837
 20
524.5769037563
 30
0.0
 40
44.56578201291002
100
AcDbArc
 50
63.5190850582
 51
83.9854665731
  0
ARC
  5
B0
330
A7
100
AcDbEntity
  8
$DDT_AUDIT_GENERATED_(77)
  6
Continuous
 62
     7
100
AcDbCircle
 10
-77.6691336743
 20
536.3325527337
 30
0.0
 40
217.9339357186019
100
AcDbArc
 50
357.5319854596
 51
2.4680143516
  0
LINE
  5
B1
330
A7
100
AcDbEntity
  8
$DDT_AUDIT_GENERATED_(77)
  6
Continuous
 62
     7
100
AcDbLine
 10
140.0626501211
 20
478.4669744083
 30
0.0
 11
183.0629899899
 21
478.4669744083
 31
0.0
  0
LINE
  5
B2
330
A7
100
AcDbEntity
  8
$DDT_AUDIT_GENERATED_(77)
  6
Continuous
 62
     7
100
AcDbLine
 10
182.7905477917
 20
616.5836310741
 30
0.0
 11
182.3919308468
 21
617.2669744083
 31
0.0
  0
LINE
  5
B3
330
A7
100
AcDbEntity
  8
$DDT_AUDIT_GENERATED_(77)
  6
Continuous
 62
     7
100
AcDbLine
 10
140.7337092642
 20
617.2669744083
 30
0.0
 11
140.3350923193
 21
616.5836310741
 31
0.0
  0
ARC
  5
B4
330
A7
100
AcDbEntity
  8
$DDT_AUDIT_GENERATED_(77)
  6
Continuous
 62
     7
100
AcDbCircle
 10
142.0626501211
 20
615.5758890231
 30
0.0
 40
2.000000000000006
100
AcDbArc
 50
149.7435628365
 51
180.0
  0
ARC
  5
B5
330
A7
100
AcDbEntity
  8
$DDT_AUDIT_GENERATED_(77)
  6
Continuous
 62
     7
100
AcDbCircle
 10
181.0629899899
 20
615.5758890231
 30
0.0
 40
2.000000000000002
100
AcDbArc
 50
0.0
 51
30.2564371635
  0
ARC
  5
B6
330
A7
100
AcDbEntity
  8
$DDT_AUDIT_GENERATED_(77)
  6
Continuous
 62
     7
100
AcDbCircle
 10
140.8200871543
 20
617.2165873058
 30
0.0
 40
0.099999999999989
100
AcDbArc
 50
90.0
 51
149.7435628364
  0
ARC
  5
B7
330
A7
100
AcDbEntity
  8
$DDT_AUDIT_GENERATED_(77)
  6
Continuous
 62
     7
100
AcDbCircle
 10
182.3055529567
 20
617.2165873058
 30
0.0
 40
0.1000000000000004
100
AcDbArc
 50
30.2564371636
 51
90.0
  0
ARC
  5
B8
330
A7
100
AcDbEntity
  8
$DDT_AUDIT_GENERATED_(77)
  6
Continuous
 62
     7
100
AcDbCircle
 10
263.0628200555
 20
590.4669744083
 30
0.0
 40
1.000000000000001
100
AcDbArc
 50
0.0
 51
90.0
  0
ARC
  5
B9
330
A7
100
AcDbEntity
  8
$DDT_AUDIT_GENERATED_(77)
  6
Continuous
 62
     7
100
AcDbCircle
 10
263.0628200555
 20
565.4669744083
 30
0.0
 40
1.000000000000001
100
AcDbArc
 50
270.0
 51
0.0
  0
LINE
  5
BA
330
A7
100
AcDbEntity
  8
$DDT_AUDIT_GENERATED_(77)
  6
Continuous
 62
     7
100
AcDbLine
 10
258.0511752755
 20
564.4669744083
 30
0.0
 11
263.0628200555
 21
564.4669744083
 31
0.0
  0
LINE
  5
BB
330
A7
100
AcDbEntity
  8
$DDT_AUDIT_GENERATED_(77)
  6
Continuous
 62
     7
100
AcDbLine
 10
187.0630433882
 20
564.4669744083
 30
0.0
 11
235.6671692208
 21
564.4669744083
 31
0.0
  0
LINE
  5
BC
330
A7
100
AcDbEntity
  8
$DDT_AUDIT_GENERATED_(77)
  6
Continuous
 62
     7
100
AcDbLine
 10
263.0628200555
 20
591.4669744083
 30
0.0
 11
187.0631239382
 21
591.4669744083
 31
0.0
  0
ARC
  5
BD
330
A7
100
AcDbEntity
  8
$DDT_AUDIT_GENERATED_(77)
  6
Continuous
 62
     7
100
AcDbCircle
 10
187.0630743144
 20
560.4668900839
 30
0.0
 40
4.000084324565315
100
AcDbArc
 50
90.0004611181
 51
180.0004322323
  0
ARC
  5
BE
330
A7
100
AcDbEntity
  8
$DDT_AUDIT_GENERATED_(77)
  6
Continuous
 62
     7
100
AcDbCircle
 10
187.06329351
 20
595.4672784606
 30
0.0
 40
4.000303313448793
100
AcDbArc
 50
179.99790566
 51
269.9980632184
  0
LINE
  5
BF
330
A7
100
AcDbEntity
  8
$DDT_AUDIT_GENERATED_(77)
  6
Continuous
 62
     7
100
AcDbLine
 10
140.0626501211
 20
526.9479556159
 30
0.0
 11
140.0626501211
 21
478.4669744083
 31
0.0
  0
LINE
  5
C0
330
A7
100
AcDbEntity
  8
$DDT_AUDIT_GENERATED_(77)
  6
Continuous
 62
     7
100
AcDbLine
 10
140.0626501211
 20
615.5758890231
 30
0.0
 11
140.0626501211
 21
545.713175228
 31
0.0
  0
LINE
  5
C1
330
A7
100
AcDbEntity
  8
$DDT_AUDIT_GENERATED_(77)
  6
Continuous
 62
     7
100
AcDbLine
 10
183.0629899899
 20
595.4673837864
 30
0.0
 11
183.0629899899
 21
615.5758890231
 31
0.0
  0
LINE
  5
C2
330
A7
100
AcDbEntity
  8
$DDT_AUDIT_GENERATED_(77)
  6
Continuous
 62
     7
100
AcDbLine
 10
183.0629899899
 20
478.4669744083
 30
0.0
 11
183.0629899899
 21
560.4668605813
 31
0.0
  0
ARC
  5
C4
330
A7
100
AcDbEntity
  8
$DDT_AUDIT_GENERATED_(C3)
  6
Continuous
 62
     7
100
AcDbCircle
 10
178.5128200555
 20
478.3669744083
 30
0.0
 40
0.1999999999999988
100
AcDbArc
 50
149.9999999999
 51
180.0
  0
ARC
  5
C5
330
A7
100
AcDbEntity
  8
$DDT_AUDIT_GENERATED_(C3)
  6
Continuous
 62
     7
100
AcDbCircle
 10
144.6128200555
 20
478.3669744083
 30
0.0
 40
0.2
100
AcDbArc
 50
0.0
 51
30.0000000001
  0
ARC
  5
C6
330
A7
100
AcDbEntity
  8
$DDT_AUDIT_GENERATED_(86)
  6
Continuous
 62
     7
100
AcDbCircle
 10
161.5554680545
 20
-8282.3378220056
 30
0.0
 40
8928.75873003237
100
AcDbArc
 50
89.8587111212
 51
90.1412888388
  0
LINE
  5
C7
330
A7
100
AcDbEntity
  8
$DDT_AUDIT_GENERATED_(86)
  6
Continuous
 62
     7
100
AcDbLine
 10
183.7751047812
 20
618.7740825437
 30
0.0
 11
139.3358272223
 21
618.7740825437
 31
0.0
  0
ARC
  5
C8
330
A7
100
AcDbEntity
  8
$DDT_AUDIT_GENERATED_(86)
  6
Continuous
 62
     7
100
AcDbCircle
 10
206.6982085423
 20
637.4253806721
 30
0.0
 40
23.60283415266306
100
AcDbArc
 50
167.6476006428
 51
194.3523983926
  0
ARC
  5
C9
330
A7
100
AcDbEntity
  8
$DDT_AUDIT_GENERATED_(86)
  6
Continuous
 62
     7
100
AcDbCircle
 10
118.1761823552
 20
640.2306748036
 30
0.0
 40
21.54534354058263
100
AcDbArc
 50
349.5160382898
 51
8.4842208599
  0
SPLINE
  5
CA
330
A7
100
AcDbEntity
  8
$DDT_AUDIT_GENERATED_(86)
  6
Continuous
 62
     7
100
AcDbSpline
210
0.0
220
0.0
230
1.0
 70
    11
 71
     3
 72
    22
 73
    18
 74
     0
 42
0.0000000006079566
 43
0.0000000001
 40
0.0
 40
0.0
 40
0.0
 40
0.0
 40
0.2500000000000027
 40
0.2500000000000027
 40
0.375000000000004
 40
0.375000000000004
 40
0.4375000000000038
 40
0.4375000000000038
 40
0.5000000000000036
 40
0.5000000000000036
 40
0.5625000000000033
 40
0.5625000000000033
 40
0.6250000000000031
 40
0.6250000000000031
 40
0.7500000000000028
 40
0.7500000000000028
 40
1.0
 40
1.0
 40
1.0
 40
1.0
 10
234.2656813118464
 20
634.7703978996311
 30
0.0
 10
235.7727561353086
 20
634.2978030430494
 30
0.0
 10
237.2682187281805
 20
633.828636822803
 30
0.0
 10
239.4297929723968
 20
633.1504937788601
 30
0.0
 10
240.1407559298297
 20
632.9274458914368
 30
0.0
 10
241.0991292734168
 20
632.626778848177
 30
0.0
 10
241.4042419489073
 20
632.5310569439988
 30
0.0
 10
241.9143683579148
 20
632.3710168430168
 30
0.0
 10
242.1128995431332
 20
632.3087323954915
 30
0.0
 10
242.1064364569916
 20
632.3107601383383
 30
0.0
 10
241.902362803473
 20
632.3747835010475
 30
0.0
 10
241.3923832206293
 20
632.5347776905476
 30
0.0
 10
241.0807197095697
 20
632.6325548266602
 30
0.0
 10
240.1163619321152
 20
632.9350995053497
 30
0.0
 10
239.4043252329535
 20
633.1584843321068
 30
0.0
 10
237.2527088258049
 20
633.8335035324818
 30
0.0
 10
235.7688556384468
 20
634.2990276505735
 30
0.0
 10
234.2656813118464
 20
634.7703988730282
 30
0.0
  0
ARC
  5
CB
330
A7
100
AcDbEntity
  8
$DDT_AUDIT_GENERATED_(86)
  6
Continuous
 62
     7
100
AcDbCircle
 10
233.3669043479
 20
632.0650626949
 30
0.0
 40
2.850726901583436
100
AcDbArc
 50
71.6222865629
 51
136.916972137
  0
LINE
  5
CC
330
A7
100
AcDbEntity
  8
$DDT_AUDIT_GENERATED_(86)
  6
Continuous
 62
     7
100
AcDbLine
 10
231.2848342101
 20
634.012272958
 30
0.0
 11
229.819615417
 21
632.4453111962
 31
0.0
  0
LINE
  5
CD
330
A7
100
AcDbEntity
  8
$DDT_AUDIT_GENERATED_(86)
  6
Continuous
 62
     7
100
AcDbLine
 10
231.3217420506
 20
634.0517436265
 30
0.0
 11
231.2848341914
 21
634.012272938
 31
0.0
  0
SPLINE
  5
CE
330
A7
100
AcDbEntity
  8
$DDT_AUDIT_GENERATED_(86)
  6
Continuous
 62
     7
100
AcDbSpline
210
0.0
220
0.0
230
1.0
 70
     8
 71
     3
 72
    10
 73
     6
 74
     0
 42
0.0000000314057682
 43
0.0000000001
 40
0.0
 40
0.0
 40
0.0
 40
0.0
 40
0.5
 40
0.5
 40
1.0
 40
1.0
 40
1.0
 40
1.0
 10
234.4153380023306
 20
635.0373098295221
 30
0.0
 10
234.383879805078
 20
634.9547256731076
 30
0.0
 10
234.3524014166107
 20
634.8841813067286
 30
0.0
 10
234.2996102150613
 20
634.7900440661681
 30
0.0
 10
234.278394749303
 20
634.766624781679
 30
0.0
 10
234.2656813118464
 20
634.7703988730282
 30
0.0
  0
LINE
  5
CF
330
A7
100
AcDbEntity
  8
$DDT_AUDIT_GENERATED_(86)
  6
Continuous
 62
     7
100
AcDbLine
 10
247.3380265481
 20
632.7878731403
 30
0.0
 11
247.3380265481
 21
641.2521809863
 31
0.0
  0
ARC
  5
D0
330
A7
100
AcDbEntity
  8
$DDT_AUDIT_GENERATED_(86)
  6
Continuous
 62
     7
100
AcDbCircle
 10
161.5577459536
 20
288.2868022585
 30
0.0
 40
359.6293365944965
100
AcDbArc
 50
86.6282458241
 51
93.3724797248
  0
LINE
  5
D1
330
A7
100
AcDbEntity
  8
$DDT_AUDIT_GENERATED_(86)
  6
Continuous
 62
     7
100
AcDbLine
 10
183.6417341258
 20
642.4767658405
 30
0.0
 11
183.5727413283
 21
646.4293605637
 31
0.0
  0
LINE
  5
D2
330
A7
100
AcDbEntity
  8
$DDT_AUDIT_GENERATED_(86)
  6
Continuous
 62
     7
100
AcDbLine
 10
184.0505730238
 20
619.0544010638
 30
0.0
 11
183.8312263939
 21
631.6207610729
 31
0.0
  0
LINE
  5
D3
330
A7
100
AcDbEntity
  8
$DDT_AUDIT_GENERATED_(86)
  6
Continuous
 62
     7
100
AcDbLine
 10
139.3623389069
 20
636.354819504
 30
0.0
 11
139.0603589797
 21
619.0544010638
 31
0.0
  0
LINE
  5
D4
330
A7
100
AcDbEntity
  8
$DDT_AUDIT_GENERATED_(86)
  6
Continuous
 62
     7
100
AcDbLine
 10
139.5381906752
 20
646.4293605637
 30
0.0
 11
139.4847160344
 21
643.3658004441
 31
0.0
  0
SPLINE
  5
D5
330
A7
100
AcDbEntity
  8
$DDT_AUDIT_GENERATED_(86)
  6
Continuous
 62
     7
100
AcDbSpline
210
0.0
220
0.0
230
1.0
 70
     8
 71
     3
 72
    13
 73
     9
 74
     0
 42
0.0000000070335348
 43
0.0000000001
 40
0.0
 40
0.0
 40
0.0
 40
0.0
 40
0.2398314347356154
 40
0.3702034159045245
 40
0.4999999879297272
 40
0.6298262120296192
 40
0.7602574277313371
 40
1.0
 40
1.0
 40
1.0
 40
1.0
 10
140.4017982152798
 20
647.2945111743215
 30
0.0
 10
140.2784754803729
 20
647.2843490711167
 30
0.0
 10
140.116586431467
 20
647.2668399822841
 30
0.0
 10
139.8995319094001
 20
647.1646555759149
 30
0.0
 10
139.7550613838719
 20
647.050036629537
 30
0.0
 10
139.6465072800061
 20
646.9009202711204
 30
0.0
 10
139.5534090235942
 20
646.6798128271774
 30
0.0
 10
139.5426167933038
 20
646.517352269731
 30
0.0
 10
139.5375692726181
 20
646.3937604344588
 30
0.0
  0
SPLINE
  5
D6
330
A7
100
AcDbEntity
  8
$DDT_AUDIT_GENERATED_(86)
  6
Continuous
 62
     7
100
AcDbSpline
210
0.0
220
0.0
230
1.0
 70
     8
 71
     3
 72
    13
 73
     9
 74
     0
 42
0.000000007033535
 43
0.0000000001
 40
0.0
 40
0.0
 40
0.0
 40
0.0
 40
0.23974257885244
 40
0.3701737969919661
 40
0.500000021969806
 40
0.6297965929731674
 40
0.7601685716348315
 40
1.0
 40
1.0
 40
1.0
 40
1.0
 10
183.5733627309364
 20
646.3937604300016
 30
0.0
 10
183.56831521054
 20
646.5173522657959
 30
0.0
 10
183.557522980788
 20
646.6798128230978
 30
0.0
 10
183.4644247294583
 20
646.9009202680087
 30
0.0
 10
183.3558706316518
 20
647.0500366268191
 30
0.0
 10
183.2114001136033
 20
647.1646555737449
 30
0.0
 10
182.99434560277
 20
647.2668399802104
 30
0.0
 10
182.8324565612436
 20
647.2843490687394
 30
0.0
 10
182.7091338325133
 20
647.2945111717112
 30
0.0
  0
ARC
  5
D7
330
A7
100
AcDbEntity
  8
$DDT_AUDIT_GENERATED_(86)
  6
Continuous
 62
     7
100
AcDbCircle
 10
183.7751047812
 20
619.0495927478
 30
0.0
 40
0.2755102040815083
100
AcDbArc
 50
270.0
 51
1.0
  0
ARC
  5
D8
330
A7
100
AcDbEntity
  8
$DDT_AUDIT_GENERATED_(86)
  6
Continuous
 62
     7
100
AcDbCircle
 10
139.3358272223
 20
619.0495927478
 30
0.0
 40
0.2755102040816143
100
AcDbArc
 50
179.0
 51
270.0
  0
LINE
  5
D9
330
A7
100
AcDbEntity
  8
$DDT_AUDIT_GENERATED_(86)
  6
Continuous
 62
     7
100
AcDbLine
 10
246.8380265481
 20
641.7868064064
 30
0.0
 11
184.3416636255
 21
641.7868064064
 31
0.0
  0
LINE
  5
DA
330
A7
100
AcDbEntity
  8
$DDT_AUDIT_GENERATED_(86)
  6
Continuous
 62
     7
100
AcDbLine
 10
242.2539906092
 20
632.2868064381
 30
0.0
 11
246.8380265481
 21
632.2868064381
 31
0.0
  0
LINE
  5
DB
330
A7
100
AcDbEntity
  8
$DDT_AUDIT_GENERATED_(86)
  6
Continuous
 62
     7
100
AcDbLine
 10
184.5205603393
 20
632.2868064381
 30
0.0
 11
229.4594947326
 21
632.2868064381
 31
0.0
  0
SPLINE
  5
DC
330
A7
100
AcDbEntity
  8
$DDT_AUDIT_GENERATED_(86)
  6
Continuous
 62
     7
100
AcDbSpline
210
0.0
220
0.0
230
1.0
 70
     8
 71
     3
 72
    14
 73
    10
 74
     0
 42
0.0000000088769332
 43
0.0000000001
 40
0.0
 40
0.0
 40
0.0
 40
0.0
 40
0.1331336514805063
 40
0.3697044823162735
 40
0.5546353609946691
 40
0.7087426272349411
 40
0.8387457839691714
 40
0.9451061324965031
 40
1.0
 40
1.0
 40
1.0
 40
1.0
 10
184.3422851860074
 20
641.7978853516429
 30
0.0
 10
184.2880816460145
 20
641.7959677035606
 30
0.0
 10
184.1585697924851
 20
641.793499215045
 30
0.0
 10
183.9600015194137
 20
641.8855030228627
 30
0.0
 10
183.801197715996
 20
642.0284072372691
 30
0.0
 10
183.7069849474723
 20
642.1775417885018
 30
0.0
 10
183.6593609803206
 20
642.3138068915601
 30
0.0
 10
183.6416239521009
 20
642.4236387158542
 30
0.0
 10
183.6425641460078
 20
642.4795323345636
 30
0.0
 10
183.6431080774136
 20
642.501880671207
 30
0.0
  0
SPLINE
  5
DD
330
A7
100
AcDbEntity
  8
$DDT_AUDIT_GENERATED_(86)
  6
Continuous
 62
     7
100
AcDbSpline
210
0.0
220
0.0
230
1.0
 70
     8
 71
     3
 72
    13
 73
     9
 74
     0
 42
0.0000000093551138
 43
0.0000000001
 40
0.0
 40
0.0
 40
0.0
 40
0.0
 40
0.0438617646985193
 40
0.211897838032249
 40
0.4243402297756717
 40
0.646401704669721
 40
0.8867783641446495
 40
1.0
 40
1.0
 40
1.0
 40
1.0
 10
183.8362025070375
 20
631.6205369824308
 30
0.0
 10
183.8358387620183
 20
631.6374243809123
 30
0.0
 10
183.8347295836721
 20
631.7074151123419
 30
0.0
 10
183.8772188189765
 20
631.8571704592732
 30
0.0
 10
183.9824072169653
 20
632.041888458638
 30
0.0
 10
184.1633438887951
 20
632.1971766673112
 30
0.0
 10
184.3601833827132
 20
632.2825794547051
 30
0.0
 10
184.4772880099577
 20
632.2780199005842
 30
0.0
 10
184.5208378892921
 20
632.2757398164083
 30
0.0
  0
ARC
  5
DE
330
A7
100
AcDbEntity
  8
$DDT_AUDIT_GENERATED_(86)
  6
Continuous
 62
     7
100
AcDbCircle
 10
229.4544017934
 20
632.7868064458
 30
0.0
 40
0.4999999968352364
100
AcDbArc
 50
270.4626749304
 51
316.9222181454
  0
ARC
  5
DF
330
A7
100
AcDbEntity
  8
$DDT_AUDIT_GENERATED_(86)
  6
Continuous
 62
     7
100
AcDbCircle
 10
242.2593789159
 20
632.7868061378
 30
0.0
 40
0.4999994775373895
100
AcDbArc
 50
252.5833990303
 51
269.3370451008
  0
ARC
  5
E0
330
A7
100
AcDbEntity
  8
$DDT_AUDIT_GENERATED_(86)
  6
Continuous
 62
     7
100
AcDbCircle
 10
246.8380265482
 20
632.7868066536
 30
0.0
 40
0.4999999999312731
100
AcDbArc
 50
270.0739036636
 51
0.0
  0
ARC
  5
E1
330
A7
100
AcDbEntity
  8
$DDT_AUDIT_GENERATED_(86)
  6
Continuous
 62
     7
100
AcDbCircle
 10
246.8380265567
 20
641.2868023767
 30
0.0
 40
0.499999991365168
100
AcDbArc
 50
359.999076114
 51
89.5036645451
  0
ARC
  5
E2
330
A7
100
AcDbEntity
  8
$DDT_AUDIT_GENERATED_(96)
  6
Continuous
 62
     7
100
AcDbCircle
 10
161.5628200555
 20
608.2826455921
 30
0.0
 40
22.59999999999999
100
AcDbArc
 50
152.3400606244
 51
155.2561404357
  0
ARC
  5
E3
330
A7
100
AcDbEntity
  8
$DDT_AUDIT_GENERATED_(96)
  6
Continuous
 62
     7
100
AcDbCircle
 10
161.5628200555
 20
608.2826455921
 30
0.0
 40
22.59999999999999
100
AcDbArc
 50
24.7438595643
 51
27.6599393756
  0
ARC
  5
E4
330
A7
100
AcDbEntity
  8
$DDT_AUDIT_GENERATED_(96)
  6
Continuous
 62
     7
100
AcDbCircle
 10
141.3102268367
 20
617.6165873058
 30
0.0
 40
0.3000000000000034
100
AcDbArc
 50
155.2561404357
 51
270.0
  0
ARC
  5
E5
330
A7
100
AcDbEntity
  8
$DDT_AUDIT_GENERATED_(96)
  6
Continuous
 62
     7
100
AcDbCircle
 10
181.8154132743
 20
617.6165873058
 30
0.0
 40
0.2999999999999947
100
AcDbArc
 50
270.0
 51
24.7438595643
  0
LINE
  5
E6
330
A7
100
AcDbEntity
  8
$DDT_AUDIT_GENERATED_(9B)
  6
Continuous
 62
     7
100
AcDbLine
 10
237.1480729871
 20
565.5042143116
 30
0.0
 11
237.1050293796
 21
565.4740748532
 31
0.0
  0
LINE
  5
E7
330
A7
100
AcDbEntity
  8
$DDT_AUDIT_GENERATED_(9B)
  6
Continuous
 62
     7
100
AcDbLine
 10
235.9124865
 20
564.6390473392
 30
0.0
 11
236.0126668194
 21
564.7091943541
 31
0.0
  0
ELLIPSE
  5
E8
330
A7
100
AcDbEntity
  8
$DDT_AUDIT_GENERATED_(9B)
  6
Continuous
 62
     7
100
AcDbEllipse
 10
235.9266303539
 20
564.8320671607
 30
0.0
 11
-0.08603646545241041
 21
0.1228728066435398
 31
0.0
210
0.0
220
0.0
230
0.9999999999999998
 40
0.984807753
 41
2.707713890133321
 42
3.141592653589793
  0
LINE
  5
E9
330
A7
100
AcDbEntity
  8
$DDT_AUDIT_GENERATED_(9B)
  6
Continuous
 62
     7
100
AcDbLine
 10
245.2001174378
 20
568.7007673565
 30
0.0
 11
238.4317190468
 21
563.9614837815
 31
0.0
  0
LINE
  5
EA
330
A7
100
AcDbEntity
  8
$DDT_AUDIT_GENERATED_(9B)
  6
Continuous
 62
     7
100
AcDbLine
 10
237.0363183024
 20
565.4312885346
 30
0.0
 11
238.0139005026
 21
564.0351564639
 31
0.0
  0
ARC
  5
EB
330
A7
100
AcDbEntity
  8
$DDT_AUDIT_GENERATED_(9B)
  6
Continuous
 62
     7
100
AcDbCircle
 10
238.2596461159
 20
564.2072293948
 30
0.0
 40
0.3000000000000063
100
AcDbArc
 50
215.0
 51
305.0
  0
LINE
  5
EC
330
A7
100
AcDbEntity
  8
$DDT_AUDIT_GENERATED_(A0)
  6
Continuous
 62
     7
100
AcDbLine
 10
161.5628200555
 20
318.4669744083
 30
0.0
 11
140.0625424945
 21
318.4669744083
 31
0.0
  0
LINE
  5
ED
330
A7
100
AcDbEntity
  8
$DDT_AUDIT_GENERATED_(A0)
  6
Continuous
 62
     7
100
AcDbLine
 10
161.5628200555
 20
318.4669744083
 30
0.0
 11
183.0630976165
 21
318.4669744083
 31
0.0
  0
LINE
  5
EE
330
A7
100
AcDbEntity
  8
$DDT_AUDIT_GENERATED_(A0)
  6
Continuous
 62
     7
100
AcDbLine
 10
161.5628200555
 20
478.4669744083
 30
0.0
 11
183.0630976165
 21
478.4669744083
 31
0.0
  0
LINE
  5
EF
330
A7
100
AcDbEntity
  8
$DDT_AUDIT_GENERATED_(A0)
  6
Continuous
 62
     7
100
AcDbLine
 10
140.0625424945
 20
478.4669744083
 30
0.0
 11
161.5628200555
 21
478.4669744083
 31
0.0
  0
LINE
  5
F0
330
A7
100
AcDbEntity
  8
$DDT_AUDIT_GENERATED_(A0)
  6
Continuous
 62
     7
100
AcDbLine
 10
183.0630976165
 20
318.4669744083
 30
0.0
 11
183.0630976165
 21
478.4669744083
 31
0.0
  0
LINE
  5
F1
330
A7
100
AcDbEntity
  8
$DDT_AUDIT_GENERATED_(A0)
  6
Continuous
 62
     7
100
AcDbLine
 10
140.0625424945
 20
478.4669744083
 30
0.0
 11
140.0625424945
 21
318.4669744083
 31
0.0
  0
LINE
  5
F3
330
A7
100
AcDbEntity
  8
$DDT_AUDIT_GENERATED_(F2)
  6
Continuous
 62
     7
100
AcDbLine
 10
119.049975
 20
555.5292451857
 30
0.0
 11
119.049975
 21
551.5292451857
 31
0.0
  0
LINE
  5
F4
330
A7
100
AcDbEntity
  8
$DDT_AUDIT_GENERATED_(F2)
  6
Continuous
 62
     7
100
AcDbLine
 10
132.51726236
 20
555.5292451857
 30
0.0
 11
119.049975
 21
555.5292451857
 31
0.0
  0
LINE
  5
F5
330
A7
100
AcDbEntity
  8
$DDT_AUDIT_GENERATED_(F2)
  6
Continuous
 62
     7
100
AcDbLine
 10
119.049975
 20
551.5292451857
 30
0.0
 11
132.51726236
 21
551.5292451857
 31
0.0
  0
ARC
  5
F6
330
A7
100
AcDbEntity
  8
$DDT_AUDIT_GENERATED_(F2)
  6
Continuous
 62
     7
100
AcDbCircle
 10
132.51726236
 20
550.5292451857
 30
0.0
 40
1.000000000000001
100
AcDbArc
 50
18.0
 51
90.0
  0
ARC
  5
F7
330
A7
100
AcDbEntity
  8
$DDT_AUDIT_GENERATED_(F2)
  6
Continuous
 62
     7
100
AcDbCircle
 10
132.51726236
 20
550.5292451857
 30
0.0
 40
5.00000000000005
100
AcDbArc
 50
18.0
 51
90.0
  0
LINE
  5
F8
330
A7
100
AcDbEntity
  8
$DDT_AUDIT_GENERATED_(F2)
  6
Continuous
 62
     7
100
AcDbLine
 10
140.14669266
 20
543.2286130408
 30
0.0
 11
137.2725449414
 21
552.0743301576
 31
0.0
  0
LINE
  5
F9
330
A7
100
AcDbEntity
  8
$DDT_AUDIT_GENERATED_(F2)
  6
Continuous
 62
     7
100
AcDbLine
 10
133.4683188763
 20
550.8382621801
 30
0.0
 11
140.186194347
 21
530.162767439
 31
0.0
  0
LINE
  5
FB
330
A7
100
AcDbEntity
  8
$DDT_AUDIT_GENERATED_(FA)
  6
Continuous
 62
     7
100
AcDbLine
 10
139.4801566015
 20
636.9864914749
 30
0.0
 11
139.4801566015
 21
643.2045907108
 31
0.0
  0
ARC
  5
FD
330
A7
100
AcDbEntity
  8
DV2_Standard
  6
Continuous
 62
     7
100
AcDbCircle
 10
202.634450374
 20
577.9670842722
 30
0.0
 40
23.42472460271543
100
AcDbArc
 50
145.8504126966
 51
213.2382839422
  0
ENDBLK
  5
FF
330
A7
100
AcDbEntity
  8
0
100
AcDbBlockEnd
  0
BLOCK
  5
11E
330
100
100
AcDbEntity
  8
0
100
AcDbBlockBegin
  2
SE2
 70
     0
 10
0.0
 20
0.0
 30
0.0
  3
SE2
  1

  0
LINE
  5
102
330
100
100
AcDbEntity
  8
$DDT_AUDIT_GENERATED_(77)
  6
Continuous
 62
     7
100
AcDbLine
 10
18.85
 20
106.35
 30
0.0
 11
43.85
 21
106.35
 31
0.0
  0
ARC
  5
103
330
100
100
AcDbEntity
  8
$DDT_AUDIT_GENERATED_(77)
  6
Continuous
 62
     7
100
AcDbCircle
 10
43.85
 20
107.35
 30
0.0
 40
1.000000000000001
100
AcDbArc
 50
270.0
 51
0.0
  0
ARC
  5
104
330
100
100
AcDbEntity
  8
$DDT_AUDIT_GENERATED_(77)
  6
Continuous
 62
     7
100
AcDbCircle
 10
18.85
 20
107.35
 30
0.0
 40
1.000000000000001
100
AcDbArc
 50
180.0
 51
270.0
  0
LINE
  5
105
330
100
100
AcDbEntity
  8
$DDT_AUDIT_GENERATED_(77)
  6
Continuous
 62
     7
100
AcDbLine
 10
17.85
 20
188.12710456
 30
0.0
 11
17.85
 21
107.35
 31
0.0
  0
LINE
  5
106
330
100
100
AcDbEntity
  8
$DDT_AUDIT_GENERATED_(77)
  6
Continuous
 62
     7
100
AcDbLine
 10
44.85
 20
107.35
 30
0.0
 11
44.85
 21
188.12710456
 31
0.0
  0
ARC
  5
107
330
100
100
AcDbEntity
  8
$DDT_AUDIT_GENERATED_(77)
  6
Continuous
 62
     7
100
AcDbCircle
 10
7.2105931816
 20
187.6259042312
 30
0.0
 40
10.65073090737559
100
AcDbArc
 50
2.6423451534
 51
20.9344454089
  0
ARC
  5
108
330
100
100
AcDbEntity
  8
$DDT_AUDIT_GENERATED_(77)
  6
Continuous
 62
     7
100
AcDbCircle
 10
55.5101138617
 20
187.617178659
 30
0.0
 40
10.67182177793115
100
AcDbArc
 50
159.1959526746
 51
177.315895951
  0
ARC
  5
109
330
100
100
AcDbEntity
  8
$DDT_AUDIT_GENERATED_(86)
  6
Continuous
 62
     7
100
AcDbCircle
 10
31.3499080054
 20
208.0500854391
 30
0.0
 40
21.39776029492772
100
AcDbArc
 50
256.1155304115
 51
283.3622839129
  0
ARC
  5
10A
330
100
100
AcDbEntity
  8
$DDT_AUDIT_GENERATED_(86)
  6
Continuous
 62
     7
100
AcDbCircle
 10
31.351317097
 20
212.6910893647
 30
0.0
 40
18.35973067590858
100
AcDbArc
 50
78.8224601501
 51
101.2367127467
  0
LINE
  5
10B
330
100
100
AcDbEntity
  8
$DDT_AUDIT_GENERATED_(86)
  6
Continuous
 62
     7
100
AcDbLine
 10
27.098911503
 20
123.0747935074
 30
0.0
 11
35.5962991813
 21
123.0747935074
 31
0.0
  0
ARC
  5
10C
330
100
100
AcDbEntity
  8
$DDT_AUDIT_GENERATED_(86)
  6
Continuous
 62
     7
100
AcDbCircle
 10
31.35
 20
208.8573540538
 30
0.0
 40
22.49514898356903
100
AcDbArc
 50
0.0
 51
257.651272479
  0
ARC
  5
10D
330
100
100
AcDbEntity
  8
$DDT_AUDIT_GENERATED_(86)
  6
Continuous
 62
     7
100
AcDbCircle
 10
31.35
 20
208.8573540538
 30
0.0
 40
22.49514898356903
100
AcDbArc
 50
282.3374781626
 51
0.0
  0
LINE
  5
10E
330
100
100
AcDbEntity
  8
$DDT_AUDIT_GENERATED_(86)
  6
Continuous
 62
     7
100
AcDbLine
 10
36.0974085797
 20
123.5747935074
 30
0.0
 11
36.0974085797
 21
186.6290013775
 31
0.0
  0
LINE
  5
10F
330
100
100
AcDbEntity
  8
$DDT_AUDIT_GENERATED_(86)
  6
Continuous
 62
     7
100
AcDbLine
 10
26.5974086113
 20
186.6301725442
 30
0.0
 11
26.5974086113
 21
123.5747935074
 31
0.0
  0
SPLINE
  5
110
330
100
100
AcDbEntity
  8
$DDT_AUDIT_GENERATED_(86)
  6
Continuous
 62
     7
100
AcDbSpline
210
0.0
220
0.0
230
1.0
 70
     8
 71
     3
 72
    17
 73
    13
 74
     0
 42
0.0000000069783715
 43
0.0000000001
 40
0.4467718429649025
 40
0.4467718429649025
 40
0.4467718429649025
 40
0.4467718429649025
 40
0.5084172535402453
 40
0.5717330035100926
 40
0.622651616119474
 40
0.6686866920602157
 40
0.7140934840143514
 40
0.7650894205709627
 40
0.8237330195760193
 40
0.8870953345829067
 40
0.9538826992794255
 40
1.0
 40
1.0
 40
1.0
 40
1.0
 10
26.19951594173229
 20
187.2620490049527
 30
0.0
 10
26.19950026003958
 20
187.2620596039089
 30
0.0
 10
26.20253412684805
 20
187.260853838632
 30
0.0
 10
26.2191185778583
 20
187.2535080391146
 30
0.0
 10
26.25159340915524
 20
187.2368126240243
 30
0.0
 10
26.29956497930202
 20
187.2074654276461
 30
0.0
 10
26.36297252363754
 20
187.1591090671088
 30
0.0
 10
26.43504035125378
 20
187.0872305791022
 30
0.0
 10
26.50569403540923
 20
186.9891072002818
 30
0.0
 10
26.56198431314318
 20
186.8679311572232
 30
0.0
 10
26.59471013844356
 20
186.741803746141
 30
0.0
 10
26.59442273740303
 20
186.6659727927015
 30
0.0
 10
26.59390062032672
 20
186.6295639807578
 30
0.0
  0
SPLINE
  5
111
330
100
100
AcDbEntity
  8
$DDT_AUDIT_GENERATED_(86)
  6
Continuous
 62
     7
100
AcDbSpline
210
0.0
220
0.0
230
1.0
 70
     8
 71
     3
 72
    18
 73
    14
 74
     0
 42
0.0000000072248958
 43
0.0000000001
 40
0.0
 40
0.0
 40
0.0
 40
0.0
 40
0.0597951737831383
 40
0.1234994218631027
 40
0.1819491142696973
 40
0.23640167997058
 40
0.2855047106004999
 40
0.329286180490976
 40
0.3709470025018565
 40
0.4160407654447452
 40
0.469353261139368
 40
0.5380299717292845
 40
0.5735718021479012
 40
0.5735718021479012
 40
0.5735718021479012
 40
0.5735718021479012
 10
36.09923492774071
 20
186.62770413364
 30
0.0
 10
36.1000507563903
 20
186.6731752768459
 30
0.0
 10
36.10247237227229
 20
186.7527767358738
 30
0.0
 10
36.13719625056177
 20
186.8768973638618
 30
0.0
 10
36.18883674451821
 20
186.985647440043
 30
0.0
 10
36.2514152086386
 20
187.0751483550972
 30
0.0
 10
36.31655317180758
 20
187.1438173068822
 30
0.0
 10
36.37626082241913
 20
187.1926696090675
 30
0.0
 10
36.42493756827641
 20
187.2249532645859
 30
0.0
 10
36.46101760505012
 20
187.2450643183893
 30
0.0
 10
36.48556482386154
 20
187.2568868210039
 30
0.0
 10
36.49479305354622
 20
187.2607495666362
 30
0.0
 10
36.496196536501
 20
187.2613126983092
 30
0.0
 10
36.49620523604051
 20
187.2613170715325
 30
0.0
  0
ARC
  5
112
330
100
100
AcDbEntity
  8
$DDT_AUDIT_GENERATED_(86)
  6
Continuous
 62
     7
100
AcDbCircle
 10
27.8098540436
 20
230.4102987829
 30
0.0
 40
0.2873816845211733
100
AcDbArc
 50
87.2394929621
 51
87.4428899442
  0
ARC
  5
113
330
100
100
AcDbEntity
  8
$DDT_AUDIT_GENERATED_(86)
  6
Continuous
 62
     7
100
AcDbCircle
 10
34.8896702261
 20
230.407944716
 30
0.0
 40
0.2885931502419311
100
AcDbArc
 50
93.1832032064
 51
93.9315209611
  0
ARC
  5
114
330
100
100
AcDbEntity
  8
$DDT_AUDIT_GENERATED_(86)
  6
Continuous
 62
     7
100
AcDbCircle
 10
35.5974015975
 20
123.5747935134
 30
0.0
 40
0.4999991358192855
100
AcDbArc
 50
269.9983990984
 51
0.2003010325
  0
ARC
  5
115
330
100
100
AcDbEntity
  8
$DDT_AUDIT_GENERATED_(86)
  6
Continuous
 62
     7
100
AcDbCircle
 10
27.0974103185
 20
123.5747935098
 30
0.0
 40
0.4999997887806261
100
AcDbArc
 50
179.6694687633
 51
270.0003913579
  0
LINE
  5
116
330
100
100
AcDbEntity
  8
$DDT_AUDIT_GENERATED_(F2)
  6
Continuous
 62
     7
100
AcDbLine
 10
29.35
 20
251.3628450555
 30
0.0
 11
33.35
 21
251.3628450555
 31
0.0
  0
LINE
  5
117
330
100
100
AcDbEntity
  8
$DDT_AUDIT_GENERATED_(F2)
  6
Continuous
 62
     7
100
AcDbLine
 10
33.35
 20
237.8955576955
 30
0.0
 11
33.35
 21
251.3628450555
 31
0.0
  0
LINE
  5
118
330
100
100
AcDbEntity
  8
$DDT_AUDIT_GENERATED_(F2)
  6
Continuous
 62
     7
100
AcDbLine
 10
29.35
 20
251.3628450555
 30
0.0
 11
29.35
 21
237.8955576955
 31
0.0
  0
LINE
  5
119
330
100
100
AcDbEntity
  8
$DDT_AUDIT_GENERATED_(F2)
  6
Continuous
 62
     7
100
AcDbLine
 10
29.35
 20
237.8955576955
 30
0.0
 11
29.35
 21
235.0423881466
 31
0.0
  0
LINE
  5
11A
330
100
100
AcDbEntity
  8
$DDT_AUDIT_GENERATED_(F2)
  6
Continuous
 62
     7
100
AcDbLine
 10
33.35
 20
235.0423881466
 30
0.0
 11
33.35
 21
237.8955576955
 31
0.0
  0
LINE
  5
11B
330
100
100
AcDbEntity
  8
$DDT_AUDIT_GENERATED_(F2)
  6
Continuous
 62
     7
100
AcDbLine
 10
33.35
 20
231.2634185853
 30
0.0
 11
33.35
 21
235.0423881466
 31
0.0
  0
LINE
  5
11C
330
100
100
AcDbEntity
  8
$DDT_AUDIT_GENERATED_(F2)
  6
Continuous
 62
     7
100
AcDbLine
 10
29.35
 20
235.0423881466
 30
0.0
 11
29.35
 21
231.2634185853
 31
0.0
  0
LINE
  5
11D
330
100
100
AcDbEntity
  8
$DDT_AUDIT_GENERATED_(FA)
  6
Continuous
 62
     7
100
AcDbLine
 10
34.7
 20
230.932663454
 30
0.0
 11
28.0
 21
230.932663454
 31
0.0
  0
ENDBLK
  5
11F
330
100
100
AcDbEntity
  8
0
100
AcDbBlockEnd
  0
ENDSEC
  0
SECTION
  2
ENTITIES
  0
INSERT
  5
5F
330
1F
100
AcDbEntity
  8
Default
100
AcDbBlockReference
  2
SEANNOT_GROUP
 10
0.0
 20
0.0
 30
0.0
  0
INSERT
  5
66
330
1F
100
AcDbEntity
  8
Default
100
AcDbBlockReference
  2
SEANNOT_GROUP1
 10
0.0
 20
0.0
 30
0.0
  0
INSERT
  5
6C
330
1F
100
AcDbEntity
  8
Default
100
AcDbBlockReference
  2
SEANNOT_GROUP2
 10
0.0
 20
0.0
 30
0.0
  0
INSERT
  5
76
330
1F
100
AcDbEntity
  8
Default
100
AcDbBlockReference
  2
SE
 10
0.0
 20
0.0
 30
0.0
  0
INSERT
  5
A8
330
1F
100
AcDbEntity
  8
Default
100
AcDbBlockReference
  2
SE1
 10
0.0
 20
0.0
 30
0.0
  0
INSERT
  5
101
330
1F
100
AcDbEntity
  8
Default
100
AcDbBlockReference
  2
SE2
 10
0.0
 20
0.0
 30
0.0
  0
TEXT
  5
121
330
1F
100
AcDbEntity
  8
Default
  6
Continuous
 62
     7
100
AcDbText
 10
5.9362635081
 20
53.4225120485
 30
0.0
 40
10.0
  1
Grohe AG^J
  7
SEACAD_seiso_ttf
 11
5.9362635081
 21
63.4225120485
 31
0.0
100
AcDbText
 73
     3
  0
TEXT
  5
122
330
1F
100
AcDbEntity
  8
Default
  6
Continuous
 62
     7
100
AcDbText
 10
5.9362635081
 20
37.0588756849
 30
0.0
 40
10.0
  1
 
  7
SEACAD_seiso_ttf
 11
5.9362635081
 21
47.0588756849
 31
0.0
100
AcDbText
 73
     3
  0
TEXT
  5
123
330
1F
100
AcDbEntity
  8
Default
  6
Continuous
 62
     7
100
AcDbText
 10
5.9362635081
 20
20.6952393213
 30
0.0
 40
10.0
  1
ecn: 
  7
SEACAD_seiso_ttf
 11
5.9362635081
 21
30.6952393213
 31
0.0
100
AcDbText
 73
     3
  0
TEXT
  5
124
330
1F
100
AcDbEntity
  8
Default
  6
Continuous
 62
     7
100
AcDbText
 10
5.9362635081
 20
4.3316029576
 30
0.0
 40
10.0
  1
unit: mm
  7
SEACAD_seiso_ttf
 11
5.9362635081
 21
14.3316029576
 31
0.0
100
AcDbText
 73
     3
  0
LINE
  5
125
330
1F
100
AcDbEntity
  8
Default
  6
Continuous
 62
     7
100
AcDbLine
 10
0.0
 20
0.0
 30
0.0
 11
100.0
 21
0.0
 31
0.0
  0
LINE
  5
126
330
1F
100
AcDbEntity
  8
Default
  6
Continuous
 62
     7
100
AcDbLine
 10
0.0
 20
0.0
 30
0.0
 11
0.0
 21
100.0
 31
0.0
  0
TEXT
  5
127
330
1F
100
AcDbEntity
  8
Default
  6
Continuous
 62
     7
100
AcDbText
 10
24.3923665681
 20
-18.2375342018
 30
0.0
 40
10.0
  1
100 mm
  7
SEACAD_seiso_ttf
 11
24.3923665681
 21
-8.2375342018
 31
0.0
100
AcDbText
 73
     3
  0
TEXT
  5
128
330
1F
100
AcDbEntity
  8
Default
  6
Continuous
 62
     7
100
AcDbText
 10
-7.6150308803
 20
24.6231930421
 30
0.0
 40
10.0
  1
100 mm
 50
90.0
  7
SEACAD_seiso_ttf
 11
-17.6150308803
 21
24.6231930421
 31
0.0
100
AcDbText
 73
     3
  0
TEXT
  5
129
330
1F
100
AcDbEntity
  8
Default
  6
Continuous
 62
     7
100
AcDbText
 10
28.4878128572
 20
20.0907663715
 30
0.0
 40
10.0
  1
219181
  7
SEACAD_seiso_ttf
 11
28.4878128572
 21
30.0907663715
 31
0.0
100
AcDbText
 73
     3
  0
TEXT
  5
12A
330
1F
100
AcDbEntity
  8
Default
  6
Continuous
 62
     7
100
AcDbText
 10
5.9012241913
 20
36.7242780188
 30
0.0
 40
10.0
  1
32901000
  7
SEACAD_seiso_ttf
 11
5.9012241913
 21
46.7242780188
 31
0.0
100
AcDbText
 73
     3
  0
ENDSEC
  0
SECTION
  2
OBJECTS
  0
DICTIONARY
  5
C
330
0
100
AcDbDictionary
281
     1
  3
ACAD_GROUP
350
D
  3
ACAD_LAYOUT
350
1A
  3
ACAD_MLEADERSTYLE
350
12E
  3
ACAD_MLINESTYLE
350
17
  3
ACAD_PLOTSETTINGS
350
19
  3
ACAD_PLOTSTYLENAME
350
E
  3
ACAD_SCALELIST
350
3B
  3
ACAD_TABLESTYLE
350
12D
  3
ACAD_VISUALSTYLE
350
2A
  3
AcDbVariableDictionary
350
12B
  0
DICTIONARY
  5
D
102
{ACAD_REACTORS
330
C
102
}
330
C
100
AcDbDictionary
281
     1
  0
DICTIONARY
  5
1A
102
{ACAD_REACTORS
330
C
102
}
330
C
100
AcDbDictionary
281
     1
  3
Layout1
350
1E
  3
Model
350
22
  0
DICTIONARY
  5
12E
102
{ACAD_REACTORS
330
C
102
}
330
C
100
AcDbDictionary
281
     1
  0
DICTIONARY
  5
17
102
{ACAD_REACTORS
330
C
102
}
330
C
100
AcDbDictionary
281
     1
  3
Standard
350
18
  0
DICTIONARY
  5
19
102
{ACAD_REACTORS
330
C
102
}
330
C
100
AcDbDictionary
281
     1
  0
ACDBDICTIONARYWDFLT
  5
E
102
{ACAD_REACTORS
330
C
102
}
330
C
100
AcDbDictionary
281
     1
  3
Normal
350
F
100
AcDbDictionaryWithDefault
340
F
  0
DICTIONARY
  5
3B
102
{ACAD_REACTORS
330
C
102
}
330
C
100
AcDbDictionary
281
     1
  3
A0
350
3C
  3
A1
350
3D
  3
A2
350
3E
  3
A3
350
3F
  3
A4
350
40
  3
A5
350
41
  3
A6
350
42
  3
A7
350
43
  3
A8
350
44
  3
A9
350
45
  3
B0
350
46
  3
B1
350
47
  3
B2
350
48
  3
B3
350
49
  3
B4
350
4A
  3
B5
350
4B
  3
B6
350
4C
  3
B7
350
4D
  3
B8
350
4E
  3
B9
350
4F
  3
C0
350
50
  3
C1
350
51
  3
C2
350
52
  3
C3
350
53
  3
C4
350
54
  3
C5
350
55
  3
C6
350
56
  3
C7
350
57
  3
C8
350
58
  3
C9
350
59
  3
D0
350
5A
  3
D1
350
5B
  3
D2
350
5C
  0
DICTIONARY
  5
12D
102
{ACAD_REACTORS
330
C
102
}
330
C
100
AcDbDictionary
281
     1
  0
DICTIONARY
  5
2A
102
{ACAD_REACTORS
330
C
102
}
330
C
100
AcDbDictionary
281
     1
  3
2dWireframe
350
2F
  3
3D Hidden
350
31
  3
3dWireframe
350
30
  3
Basic
350
32
  3
Brighten
350
36
  3
ColorChange
350
3A
  3
Conceptual
350
34
  3
Dim
350
35
  3
Facepattern
350
39
  3
Flat
350
2B
  3
FlatWithEdges
350
2C
  3
Gouraud
350
2D
  3
GouraudWithEdges
350
2E
  3
Linepattern
350
38
  3
Realistic
350
33
  3
Thicken
350
37
  0
DICTIONARY
  5
12B
102
{ACAD_REACTORS
330
C
102
}
330
C
100
AcDbDictionary
281
     1
  3
CANNOSCALE
350
12C
  3
PSOLHEIGHT
350
130
  3
PSOLWIDTH
350
12F
  0
LAYOUT
  5
1E
102
{ACAD_REACTORS
330
1A
102
}
330
1A
100
AcDbPlotSettings
  1

  2
none_device
  4

  6

 40
0.0
 41
0.0
 42
0.0
 43
0.0
 44
0.0
 45
0.0
 46
0.0
 47
0.0
 48
0.0
 49
0.0
140
0.0
141
0.0
142
1.0
143
1.0
 70
   688
 72
     0
 73
     0
 74
     5
  7

 75
    16
147
1.0
148
0.0
149
0.0
100
AcDbLayout
  1
Layout1
 70
     1
 71
     1
 10
0.0
 20
0.0
 11
1682.0
 21
2378.0
 12
0.0
 22
0.0
 32
0.0
 14
0.0
 24
0.0
 34
0.0
 15
1682.0
 25
2378.0
 35
0.0
146
0.0
 13
0.0
 23
0.0
 33
0.0
 16
1.0
 26
0.0
 36
0.0
 17
0.0
 27
1.0
 37
0.0
 76
     0
330
1B
  0
LAYOUT
  5
22
102
{ACAD_REACTORS
330
1A
102
}
330
1A
100
AcDbPlotSettings
  1

  2
none_device
  4

  6

 40
0.0
 41
0.0
 42
0.0
 43
0.0
 44
0.0
 45
0.0
 46
0.0
 47
0.0
 48
0.0
 49
0.0
140
0.0
141
0.0
142
1.0
143
1.0
 70
  1712
 72
     0
 73
     0
 74
     0
  7

 75
     0
147
1.0
148
0.0
149
0.0
100
AcDbLayout
  1
Model
 70
     1
 71
     0
 10
0.0
 20
0.0
 11
1682.0
 21
2378.0
 12
0.0
 22
0.0
 32
0.0
 14
0.0
 24
0.0
 34
0.0
 15
1682.0
 25
2378.0
 35
0.0
146
0.0
 13
0.0
 23
0.0
 33
0.0
 16
1.0
 26
0.0
 36
0.0
 17
0.0
 27
1.0
 37
0.0
 76
     0
330
1F
331
29
  0
MLINESTYLE
  5
18
102
{ACAD_REACTORS
330
17
102
}
330
17
100
AcDbMlineStyle
  2
Standard
 70
     0
  3

 62
   256
 51
90.0
 52
90.0
 71
     2
 49
0.5
 62
   256
  6
BYLAYER
 49
-0.5
 62
   256
  6
BYLAYER
  0
ACDBPLACEHOLDER
  5
F
102
{ACAD_REACTORS
330
E
102
}
330
E
  0
SCALE
  5
3C
102
{ACAD_REACTORS
330
3B
102
}
330
3B
100
AcDbScale
 70
     0
300
1:1
140
1.0
141
1.0
290
     1
  0
SCALE
  5
3D
102
{ACAD_REACTORS
330
3B
102
}
330
3B
100
AcDbScale
 70
     0
300
1:2
140
1.0
141
2.0
290
     0
  0
SCALE
  5
3E
102
{ACAD_REACTORS
330
3B
102
}
330
3B
100
AcDbScale
 70
     0
300
1:4
140
1.0
141
4.0
290
     0
  0
SCALE
  5
3F
102
{ACAD_REACTORS
330
3B
102
}
330
3B
100
AcDbScale
 70
     0
300
1:5
140
1.0
141
5.0
290
     0
  0
SCALE
  5
40
102
{ACAD_REACTORS
330
3B
102
}
330
3B
100
AcDbScale
 70
     0
300
1:8
140
1.0
141
8.0
290
     0
  0
SCALE
  5
41
102
{ACAD_REACTORS
330
3B
102
}
330
3B
100
AcDbScale
 70
     0
300
1:10
140
1.0
141
10.0
290
     0
  0
SCALE
  5
42
102
{ACAD_REACTORS
330
3B
102
}
330
3B
100
AcDbScale
 70
     0
300
1:16
140
1.0
141
16.0
290
     0
  0
SCALE
  5
43
102
{ACAD_REACTORS
330
3B
102
}
330
3B
100
AcDbScale
 70
     0
300
1:20
140
1.0
141
20.0
290
     0
  0
SCALE
  5
44
102
{ACAD_REACTORS
330
3B
102
}
330
3B
100
AcDbScale
 70
     0
300
1:30
140
1.0
141
30.0
290
     0
  0
SCALE
  5
45
102
{ACAD_REACTORS
330
3B
102
}
330
3B
100
AcDbScale
 70
     0
300
1:40
140
1.0
141
40.0
290
     0
  0
SCALE
  5
46
102
{ACAD_REACTORS
330
3B
102
}
330
3B
100
AcDbScale
 70
     0
300
1:50
140
1.0
141
50.0
290
     0
  0
SCALE
  5
47
102
{ACAD_REACTORS
330
3B
102
}
330
3B
100
AcDbScale
 70
     0
300
1:100
140
1.0
141
100.0
290
     0
  0
SCALE
  5
48
102
{ACAD_REACTORS
330
3B
102
}
330
3B
100
AcDbScale
 70
     0
300
2:1
140
2.0
141
1.0
290
     0
  0
SCALE
  5
49
102
{ACAD_REACTORS
330
3B
102
}
330
3B
100
AcDbScale
 70
     0
300
4:1
140
4.0
141
1.0
290
     0
  0
SCALE
  5
4A
102
{ACAD_REACTORS
330
3B
102
}
330
3B
100
AcDbScale
 70
     0
300
8:1
140
8.0
141
1.0
290
     0
  0
SCALE
  5
4B
102
{ACAD_REACTORS
330
3B
102
}
330
3B
100
AcDbScale
 70
     0
300
10:1
140
10.0
141
1.0
290
     0
  0
SCALE
  5
4C
102
{ACAD_REACTORS
330
3B
102
}
330
3B
100
AcDbScale
 70
     0
300
100:1
140
100.0
141
1.0
290
     0
  0
SCALE
  5
4D
102
{ACAD_REACTORS
330
3B
102
}
330
3B
100
AcDbScale
 70
     0
300
1/128" = 1'-0"
140
0.0078125
141
12.0
290
     0
  0
SCALE
  5
4E
102
{ACAD_REACTORS
330
3B
102
}
330
3B
100
AcDbScale
 70
     0
300
1/64" = 1'-0"
140
0.015625
141
12.0
290
     0
  0
SCALE
  5
4F
102
{ACAD_REACTORS
330
3B
102
}
330
3B
100
AcDbScale
 70
     0
300
1/32" = 1'-0"
140
0.03125
141
12.0
290
     0
  0
SCALE
  5
50
102
{ACAD_REACTORS
330
3B
102
}
330
3B
100
AcDbScale
 70
     0
300
1/16" = 1'-0"
140
0.0625
141
12.0
290
     0
  0
SCALE
  5
51
102
{ACAD_REACTORS
330
3B
102
}
330
3B
100
AcDbScale
 70
     0
300
3/32" = 1'-0"
140
0.09375
141
12.0
290
     0
  0
SCALE
  5
52
102
{ACAD_REACTORS
330
3B
102
}
330
3B
100
AcDbScale
 70
     0
300
1/8" = 1'-0"
140
0.125
141
12.0
290
     0
  0
SCALE
  5
53
102
{ACAD_REACTORS
330
3B
102
}
330
3B
100
AcDbScale
 70
     0
300
3/16" = 1'-0"
140
0.1875
141
12.0
290
     0
  0
SCALE
  5
54
102
{ACAD_REACTORS
330
3B
102
}
330
3B
100
AcDbScale
 70
     0
300
1/4" = 1'-0"
140
0.25
141
12.0
290
     0
  0
SCALE
  5
55
102
{ACAD_REACTORS
330
3B
102
}
330
3B
100
AcDbScale
 70
     0
300
3/8" = 1'-0"
140
0.375
141
12.0
290
     0
  0
SCALE
  5
56
102
{ACAD_REACTORS
330
3B
102
}
330
3B
100
AcDbScale
 70
     0
300
1/2" = 1'-0"
140
0.5
141
12.0
290
     0
  0
SCALE
  5
57
102
{ACAD_REACTORS
330
3B
102
}
330
3B
100
AcDbScale
 70
     0
300
3/4" = 1'-0"
140
0.75
141
12.0
290
     0
  0
SCALE
  5
58
102
{ACAD_REACTORS
330
3B
102
}
330
3B
100
AcDbScale
 70
     0
300
1" = 1'-0"
140
1.0
141
12.0
290
     0
  0
SCALE
  5
59
102
{ACAD_REACTORS
330
3B
102
}
330
3B
100
AcDbScale
 70
     0
300
1-1/2" = 1'-0"
140
1.5
141
12.0
290
     0
  0
SCALE
  5
5A
102
{ACAD_REACTORS
330
3B
102
}
330
3B
100
AcDbScale
 70
     0
300
3" = 1'-0"
140
3.0
141
12.0
290
     0
  0
SCALE
  5
5B
102
{ACAD_REACTORS
330
3B
102
}
330
3B
100
AcDbScale
 70
     0
300
6" = 1'-0"
140
6.0
141
12.0
290
     0
  0
SCALE
  5
5C
102
{ACAD_REACTORS
330
3B
102
}
330
3B
100
AcDbScale
 70
     0
300
1'-0" = 1'-0"
140
12.0
141
12.0
290
     0
  0
VISUALSTYLE
  5
2F
102
{ACAD_REACTORS
330
2A
102
}
330
2A
100
AcDbVisualStyle
  2
2dWireframe
 70
     4
 71
     0
 72
     2
 73
     0
 90
        0
 40
-0.6
 41
-30.0
 62
     5
 63
     7
 74
     1
 91
        4
 64
     7
 65
   257
 75
     1
175
     1
 42
1.0
 92
        0
 66
   257
 43
1.0
 76
     1
 77
     6
 78
     2
 67
     7
 79
     5
170
     0
171
     0
290
     0
174
     0
 93
        1
 44
0.0
173
     0
291
     0
 45
0.0
1001
ACAD
1000
AcDbSavedByObjectVersion
1070
     0
  0
VISUALSTYLE
  5
31
102
{ACAD_REACTORS
330
2A
102
}
330
2A
100
AcDbVisualStyle
  2
3D Hidden
 70
     6
 71
     1
 72
     2
 73
     2
 90
        0
 40
-0.6
 41
-30.0
 62
     5
 63
     7
 74
     2
 91
        2
 64
     7
 65
   257
 75
     2
175
     1
 42
40.0
 92
        0
 66
   257
 43
1.0
 76
     1
 77
     6
 78
     2
 67
     7
 79
     3
170
     0
171
     0
290
     0
174
     0
 93
        1
 44
0.0
173
     0
291
     0
 45
0.0
1001
ACAD
1000
AcDbSavedByObjectVersion
1070
     0
  0
VISUALSTYLE
  5
30
102
{ACAD_REACTORS
330
2A
102
}
330
2A
100
AcDbVisualStyle
  2
3dWireframe
 70
     5
 71
     0
 72
     2
 73
     0
 90
        0
 40
-0.6
 41
-30.0
 62
     5
 63
     7
 74
     1
 91
        4
 64
     7
 65
   257
 75
     1
175
     1
 42
1.0
 92
        0
 66
   257
 43
1.0
 76
     1
 77
     6
 78
     2
 67
     7
 79
     5
170
     0
171
     0
290
     0
174
     0
 93
        1
 44
0.0
173
     0
291
     0
 45
0.0
1001
ACAD
1000
AcDbSavedByObjectVersion
1070
     0
  0
VISUALSTYLE
  5
32
102
{ACAD_REACTORS
330
2A
102
}
330
2A
100
AcDbVisualStyle
  2
Basic
 70
     7
 71
     1
 72
     0
 73
     1
 90
        0
 40
-0.6
 41
-30.0
 62
     5
 63
     7
 74
     0
 91
        4
 64
     7
 65
   257
 75
     1
175
     1
 42
1.0
 92
        8
 66
     7
 43
1.0
 76
     1
 77
     6
 78
     2
 67
     7
 79
     5
170
     0
171
     0
290
     0
174
     0
 93
        1
 44
0.0
173
     0
291
     1
 45
0.0
1001
ACAD
1000
AcDbSavedByObjectVersion
1070
     0
  0
VISUALSTYLE
  5
36
102
{ACAD_REACTORS
330
2A
102
}
330
2A
100
AcDbVisualStyle
  2
Brighten
 70
    12
 71
     2
 72
     2
 73
     0
 90
        0
 40
-0.6
 41
-30.0
 62
     5
 63
     7
 74
     1
 91
        4
 64
     7
 65
   257
 75
     1
175
     1
 42
1.0
 92
        8
 66
     7
 43
1.0
 76
     1
 77
     6
 78
     2
 67
     7
 79
     5
170
     0
171
     0
290
     0
174
     0
 93
        1
 44
50.0
173
     0
291
     1
 45
0.0
1001
ACAD
1000
AcDbSavedByObjectVersion
1070
     0
  0
VISUALSTYLE
  5
3A
102
{ACAD_REACTORS
330
2A
102
}
330
2A
100
AcDbVisualStyle
  2
ColorChange
 70
    16
 71
     2
 72
     2
 73
     3
 90
        0
 40
-0.6
 41
-30.0
 62
     5
 63
     8
 74
     1
 91
        4
 64
     7
 65
   257
 75
     1
175
     1
 42
1.0
 92
        8
 66
     8
 43
1.0
 76
     1
 77
     6
 78
     2
 67
     7
 79
     5
170
     0
171
     0
290
     0
174
     0
 93
        1
 44
0.0
173
     0
291
     1
 45
0.0
1001
ACAD
1000
AcDbSavedByObjectVersion
1070
     0
  0
VISUALSTYLE
  5
34
102
{ACAD_REACTORS
330
2A
102
}
330
2A
100
AcDbVisualStyle
  2
Conceptual
 70
     9
 71
     3
 72
     2
 73
     0
 90
        0
 40
-0.6
 41
-30.0
 62
     5
 63
     7
 74
     2
 91
        2
 64
     7
 65
   257
 75
     1
175
     1
 42
40.0
 92
        8
 66
     7
 43
1.0
 76
     1
 77
     6
 78
     2
 67
     7
 79
     3
170
     0
171
     0
290
     0
174
     0
 93
        1
 44
0.0
173
     0
291
     0
 45
0.0
1001
ACAD
1000
AcDbSavedByObjectVersion
1070
     0
  0
VISUALSTYLE
  5
35
102
{ACAD_REACTORS
330
2A
102
}
330
2A
100
AcDbVisualStyle
  2
Dim
 70
    11
 71
     2
 72
     2
 73
     0
 90
        0
 40
-0.6
 41
-30.0
 62
     5
 63
     7
 74
     1
 91
        4
 64
     7
 65
   257
 75
     1
175
     1
 42
1.0
 92
        8
 66
     7
 43
1.0
 76
     1
 77
     6
 78
     2
 67
     7
 79
     5
170
     0
171
     0
290
     0
174
     0
 93
        1
 44
-50.0
173
     0
291
     1
 45
0.0
1001
ACAD
1000
AcDbSavedByObjectVersion
1070
     0
  0
VISUALSTYLE
  5
39
102
{ACAD_REACTORS
330
2A
102
}
330
2A
100
AcDbVisualStyle
  2
Facepattern
 70
    15
 71
     2
 72
     2
 73
     0
 90
        0
 40
-0.6
 41
-30.0
 62
     5
 63
     7
 74
     1
 91
        4
 64
     7
 65
   257
 75
     1
175
     1
 42
1.0
 92
        8
 66
     7
 43
1.0
 76
     1
 77
     6
 78
     2
 67
     7
 79
     5
170
     0
171
     0
290
     0
174
     0
 93
        1
 44
0.0
173
     0
291
     1
 45
0.0
1001
ACAD
1000
AcDbSavedByObjectVersion
1070
     0
  0
VISUALSTYLE
  5
2B
102
{ACAD_REACTORS
330
2A
102
}
330
2A
100
AcDbVisualStyle
  2
Flat
 70
     0
 71
     2
 72
     1
 73
     1
 90
        2
 40
-0.6
 41
30.0
 62
     5
 63
     7
 74
     0
 91
        4
 64
     7
 65
   257
 75
     1
175
     1
 42
1.0
 92
        8
 66
     7
 43
1.0
 76
     1
 77
     6
 78
     2
 67
     7
 79
     5
170
     0
171
     0
290
     0
174
     0
 93
       13
 44
0.0
173
     0
291
     1
 45
0.0
1001
ACAD
1000
AcDbSavedByObjectVersion
1070
     0
  0
VISUALSTYLE
  5
2C
102
{ACAD_REACTORS
330
2A
102
}
330
2A
100
AcDbVisualStyle
  2
FlatWithEdges
 70
     1
 71
     2
 72
     1
 73
     1
 90
        2
 40
-0.6
 41
30.0
 62
     5
 63
     7
 74
     1
 91
        4
 64
     7
 65
   257
 75
     1
175
     1
 42
1.0
 92
        0
 66
   257
 43
1.0
 76
     1
 77
     6
 78
     2
 67
     7
 79
     5
170
     0
171
     0
290
     0
174
     0
 93
       13
 44
0.0
173
     0
291
     1
 45
0.0
1001
ACAD
1000
AcDbSavedByObjectVersion
1070
     0
  0
VISUALSTYLE
  5
2D
102
{ACAD_REACTORS
330
2A
102
}
330
2A
100
AcDbVisualStyle
  2
Gouraud
 70
     2
 71
     2
 72
     2
 73
     1
 90
        2
 40
-0.6
 41
30.0
 62
     5
 63
     7
 74
     0
 91
        4
 64
     7
 65
   257
 75
     1
175
     1
 42
1.0
 92
        0
 66
     7
 43
1.0
 76
     1
 77
     6
 78
     2
 67
     7
 79
     5
170
     0
171
     0
290
     0
174
     0
 93
       13
 44
0.0
173
     0
291
     1
 45
0.0
1001
ACAD
1000
AcDbSavedByObjectVersion
1070
     0
  0
VISUALSTYLE
  5
2E
102
{ACAD_REACTORS
330
2A
102
}
330
2A
100
AcDbVisualStyle
  2
GouraudWithEdges
 70
     3
 71
     2
 72
     2
 73
     1
 90
        2
 40
-0.6
 41
30.0
 62
     5
 63
     7
 74
     1
 91
        4
 64
     7
 65
   257
 75
     1
175
     1
 42
1.0
 92
        0
 66
   257
 43
1.0
 76
     1
 77
     6
 78
     2
 67
     7
 79
     5
170
     0
171
     0
290
     0
174
     0
 93
       13
 44
0.0
173
     0
291
     1
 45
0.0
1001
ACAD
1000
AcDbSavedByObjectVersion
1070
     0
  0
VISUALSTYLE
  5
38
102
{ACAD_REACTORS
330
2A
102
}
330
2A
100
AcDbVisualStyle
  2
Linepattern
 70
    14
 71
     2
 72
     2
 73
     0
 90
        0
 40
-0.6
 41
-30.0
 62
     5
 63
     7
 74
     1
 91
        4
 64
     7
 65
   257
 75
     7
175
     7
 42
1.0
 92
        8
 66
     7
 43
1.0
 76
     1
 77
     6
 78
     2
 67
     7
 79
     5
170
     0
171
     0
290
     0
174
     0
 93
        1
 44
0.0
173
     0
291
     1
 45
0.0
1001
ACAD
1000
AcDbSavedByObjectVersion
1070
     0
  0
VISUALSTYLE
  5
33
102
{ACAD_REACTORS
330
2A
102
}
330
2A
100
AcDbVisualStyle
  2
Realistic
 70
     8
 71
     2
 72
     2
 73
     0
 90
        0
 40
-0.6
 41
-30.0
 62
     5
 63
     7
 74
     1
 91
        0
 64
     7
 65
   257
 75
     1
175
     1
 42
1.0
 92
        8
 66
     8
 43
1.0
 76
     1
 77
     6
 78
     2
 67
     7
 79
     5
170
     0
171
     0
290
     0
174
     0
 93
       13
 44
0.0
173
     0
291
     0
 45
0.0
1001
ACAD
1000
AcDbSavedByObjectVersion
1070
     0
  0
VISUALSTYLE
  5
37
102
{ACAD_REACTORS
330
2A
102
}
330
2A
100
AcDbVisualStyle
  2
Thicken
 70
    13
 71
     2
 72
     2
 73
     0
 90
        0
 40
-0.6
 41
-30.0
 62
     5
 63
     7
 74
     1
 91
        4
 64
     7
 65
   257
 75
     1
175
     1
 42
1.0
 92
       12
 66
     7
 43
1.0
 76
     1
 77
     6
 78
     2
 67
     7
 79
     5
170
     0
171
     0
290
     0
174
     0
 93
        1
 44
0.0
173
     0
291
     1
 45
0.0
1001
ACAD
1000
AcDbSavedByObjectVersion
1070
     0
  0
DICTIONARYVAR
  5
12C
102
{ACAD_REACTORS
330
12B
102
}
330
12B
100
DictionaryVariables
280
     0
  1
1:1
  0
DICTIONARYVAR
  5
130
102
{ACAD_REACTORS
330
12B
102
}
330
12B
100
DictionaryVariables
280
     0
  1
80.000000
  0
DICTIONARYVAR
  5
12F
102
{ACAD_REACTORS
330
12B
102
}
330
12B
100
DictionaryVariables
280
     0
  1
5.000000
  0
ENDSEC
  0
EOF
