  0
SECTION
  2
HEADER
  9
$ACADVER
  1
AC1015
  9
$ACADMAINTVER
 70
     6
  9
$DWGCODEPAGE
  3
ANSI_1252
  9
$INSBASE
 10
0.0
 20
0.0
 30
0.0
  9
$EXTMIN
 10
0.0
 20
0.0
 30
0.0
  9
$EXTMAX
 10
1682.0
 20
2378.0
 30
0.0
  9
$LIMMIN
 10
0.0
 20
0.0
  9
$LIMMAX
 10
1682.0
 20
2378.0
  9
$ORTHOMODE
 70
     0
  9
$REGENMODE
 70
     1
  9
$FILLMODE
 70
     1
  9
$QTEXTMODE
 70
     0
  9
$MIRRTEXT
 70
     1
  9
$LTSCALE
 40
1.0
  9
$ATTMODE
 70
     1
  9
$TEXTSIZE
 40
2.5
  9
$TRACEWID
 40
1.0
  9
$TEXTSTYLE
  7
Standard
  9
$CLAYER
  8
0
  9
$CELTYPE
  6
ByLayer
  9
$CECOLOR
 62
   256
  9
$CELTSCALE
 40
1.0
  9
$DISPSILH
 70
     0
  9
$DIMSCALE
 40
1.0
  9
$DIMASZ
 40
2.5
  9
$DIMEXO
 40
0.625
  9
$DIMDLI
 40
3.75
  9
$DIMRND
 40
0.0
  9
$DIMDLE
 40
0.0
  9
$DIMEXE
 40
1.25
  9
$DIMTP
 40
0.0
  9
$DIMTM
 40
0.0
  9
$DIMTXT
 40
2.5
  9
$DIMCEN
 40
2.5
  9
$DIMTSZ
 40
0.0
  9
$DIMTOL
 70
     0
  9
$DIMLIM
 70
     0
  9
$DIMTIH
 70
     0
  9
$DIMTOH
 70
     0
  9
$DIMSE1
 70
     0
  9
$DIMSE2
 70
     0
  9
$DIMTAD
 70
     1
  9
$DIMZIN
 70
     8
  9
$DIMBLK
  1

  9
$DIMASO
 70
     1
  9
$DIMSHO
 70
     1
  9
$DIMPOST
  1

  9
$DIMAPOST
  1

  9
$DIMALT
 70
     0
  9
$DIMALTD
 70
     3
  9
$DIMALTF
 40
0.0393700787
  9
$DIMLFAC
 40
1.0
  9
$DIMTOFL
 70
     1
  9
$DIMTVP
 40
0.0
  9
$DIMTIX
 70
     0
  9
$DIMSOXD
 70
     0
  9
$DIMSAH
 70
     0
  9
$DIMBLK1
  1

  9
$DIMBLK2
  1

  9
$DIMSTYLE
  2
ISO-25
  9
$DIMCLRD
 70
     0
  9
$DIMCLRE
 70
     0
  9
$DIMCLRT
 70
     0
  9
$DIMTFAC
 40
1.0
  9
$DIMGAP
 40
0.625
  9
$DIMJUST
 70
     0
  9
$DIMSD1
 70
     0
  9
$DIMSD2
 70
     0
  9
$DIMTOLJ
 70
     0
  9
$DIMTZIN
 70
     8
  9
$DIMALTZ
 70
     0
  9
$DIMALTTZ
 70
     0
  9
$DIMUPT
 70
     0
  9
$DIMDEC
 70
     2
  9
$DIMTDEC
 70
     2
  9
$DIMALTU
 70
     2
  9
$DIMALTTD
 70
     3
  9
$DIMTXSTY
  7
Standard
  9
$DIMAUNIT
 70
     0
  9
$DIMADEC
 70
     0
  9
$DIMALTRND
 40
0.0
  9
$DIMAZIN
 70
     0
  9
$DIMDSEP
 70
    44
  9
$DIMATFIT
 70
     3
  9
$DIMFRAC
 70
     0
  9
$DIMLDRBLK
  1

  9
$DIMLUNIT
 70
     2
  9
$DIMLWD
 70
    -2
  9
$DIMLWE
 70
    -2
  9
$DIMTMOVE
 70
     0
  9
$LUNITS
 70
     2
  9
$LUPREC
 70
     4
  9
$SKETCHINC
 40
1.0
  9
$FILLETRAD
 40
10.0
  9
$AUNITS
 70
     0
  9
$AUPREC
 70
     0
  9
$MENU
  1
.
  9
$ELEVATION
 40
0.0
  9
$PELEVATION
 40
0.0
  9
$THICKNESS
 40
0.0
  9
$LIMCHECK
 70
     0
  9
$CHAMFERA
 40
10.0
  9
$CHAMFERB
 40
10.0
  9
$CHAMFERC
 40
20.0
  9
$CHAMFERD
 40
0.0
  9
$SKPOLY
 70
     0
  9
$TDCREATE
 40
2455391.346030405
  9
$TDUCREATE
 40
2455391.262697072
  9
$TDUPDATE
 40
2455391.346030417
  9
$TDUUPDATE
 40
2455391.262697083
  9
$TDINDWG
 40
0.0000000116
  9
$TDUSRTIMER
 40
0.0000000116
  9
$USRTIMER
 70
     1
  9
$ANGBASE
 50
0.0
  9
$ANGDIR
 70
     0
  9
$PDMODE
 70
     0
  9
$PDSIZE
 40
0.0
  9
$PLINEWID
 40
0.0
  9
$SPLFRAME
 70
     0
  9
$SPLINETYPE
 70
     6
  9
$SPLINESEGS
 70
     8
  9
$HANDSEED
  5
123
  9
$SURFTAB1
 70
     6
  9
$SURFTAB2
 70
     6
  9
$SURFTYPE
 70
     6
  9
$SURFU
 70
     6
  9
$SURFV
 70
     6
  9
$UCSBASE
  2

  9
$UCSNAME
  2

  9
$UCSORG
 10
0.0
 20
0.0
 30
0.0
  9
$UCSXDIR
 10
1.0
 20
0.0
 30
0.0
  9
$UCSYDIR
 10
0.0
 20
1.0
 30
0.0
  9
$UCSORTHOREF
  2

  9
$UCSORTHOVIEW
 70
     0
  9
$UCSORGTOP
 10
0.0
 20
0.0
 30
0.0
  9
$UCSORGBOTTOM
 10
0.0
 20
0.0
 30
0.0
  9
$UCSORGLEFT
 10
0.0
 20
0.0
 30
0.0
  9
$UCSORGRIGHT
 10
0.0
 20
0.0
 30
0.0
  9
$UCSORGFRONT
 10
0.0
 20
0.0
 30
0.0
  9
$UCSORGBACK
 10
0.0
 20
0.0
 30
0.0
  9
$PUCSBASE
  2

  9
$PUCSNAME
  2

  9
$PUCSORG
 10
0.0
 20
0.0
 30
0.0
  9
$PUCSXDIR
 10
1.0
 20
0.0
 30
0.0
  9
$PUCSYDIR
 10
0.0
 20
1.0
 30
0.0
  9
$PUCSORTHOREF
  2

  9
$PUCSORTHOVIEW
 70
     0
  9
$PUCSORGTOP
 10
0.0
 20
0.0
 30
0.0
  9
$PUCSORGBOTTOM
 10
0.0
 20
0.0
 30
0.0
  9
$PUCSORGLEFT
 10
0.0
 20
0.0
 30
0.0
  9
$PUCSORGRIGHT
 10
0.0
 20
0.0
 30
0.0
  9
$PUCSORGFRONT
 10
0.0
 20
0.0
 30
0.0
  9
$PUCSORGBACK
 10
0.0
 20
0.0
 30
0.0
  9
$USERI1
 70
     0
  9
$USERI2
 70
     0
  9
$USERI3
 70
     0
  9
$USERI4
 70
     0
  9
$USERI5
 70
     0
  9
$USERR1
 40
0.0
  9
$USERR2
 40
0.0
  9
$USERR3
 40
0.0
  9
$USERR4
 40
0.0
  9
$USERR5
 40
0.0
  9
$WORLDVIEW
 70
     1
  9
$SHADEDGE
 70
     3
  9
$SHADEDIF
 70
    70
  9
$TILEMODE
 70
     1
  9
$MAXACTVP
 70
    64
  9
$PINSBASE
 10
0.0
 20
0.0
 30
0.0
  9
$PLIMCHECK
 70
     0
  9
$PEXTMIN
 10
0.0
 20
0.0
 30
0.0
  9
$PEXTMAX
 10
1682.0
 20
2378.0
 30
0.0
  9
$PLIMMIN
 10
0.0
 20
0.0
  9
$PLIMMAX
 10
1682.0
 20
2378.0
  9
$UNITMODE
 70
     0
  9
$VISRETAIN
 70
     1
  9
$PLINEGEN
 70
     0
  9
$PSLTSCALE
 70
     1
  9
$TREEDEPTH
 70
  3020
  9
$CMLSTYLE
  2
Standard
  9
$CMLJUST
 70
     0
  9
$CMLSCALE
 40
20.0
  9
$PROXYGRAPHICS
 70
     1
  9
$MEASUREMENT
 70
     1
  9
$CELWEIGHT
370
    -1
  9
$ENDCAPS
280
     0
  9
$JOINSTYLE
280
     0
  9
$LWDISPLAY
290
     0
  9
$INSUNITS
 70
     4
  9
$HYPERLINKBASE
  1

  9
$STYLESHEET
  1

  9
$XEDIT
290
     1
  9
$CEPSNTYPE
380
     0
  9
$PSTYLEMODE
290
     1
  9
$FINGERPRINTGUID
  2
{8D134E0E-9348-4070-8378-848CF9A57E87}
  9
$VERSIONGUID
  2
{FAEB1C32-E019-11D5-929B-00C0DF256EC4}
  9
$EXTNAMES
290
     1
  9
$PSVPSCALE
 40
0.0
  9
$OLESTARTUP
290
     0
  0
ENDSEC
  0
SECTION
  2
CLASSES
  0
CLASS
  1
ACDBDICTIONARYWDFLT
  2
AcDbDictionaryWithDefault
  3
ObjectDBX Classes
 90
        0
280
     0
281
     0
  0
CLASS
  1
VISUALSTYLE
  2
AcDbVisualStyle
  3
ObjectDBX Classes
 90
     4095
280
     0
281
     0
  0
CLASS
  1
SCALE
  2
AcDbScale
  3
ObjectDBX Classes
 90
     1153
280
     0
281
     0
  0
CLASS
  1
DICTIONARYVAR
  2
AcDbDictionaryVar
  3
ObjectDBX Classes
 90
        0
280
     0
281
     0
  0
CLASS
  1
ACDBPLACEHOLDER
  2
AcDbPlaceHolder
  3
ObjectDBX Classes
 90
        0
280
     0
281
     0
  0
CLASS
  1
LAYOUT
  2
AcDbLayout
  3
ObjectDBX Classes
 90
        0
280
     0
281
     0
  0
ENDSEC
  0
SECTION
  2
TABLES
  0
TABLE
  2
VPORT
  5
8
330
0
100
AcDbSymbolTable
 70
     1
  0
VPORT
  5
29
330
8
100
AcDbSymbolTableRecord
100
AcDbViewportTableRecord
  2
*Active
 70
     0
 10
0.0
 20
0.0
 11
1.0
 21
1.0
 12
344.1869158879
 22
148.5
 13
0.0
 23
0.0
 14
10.0
 24
10.0
 15
10.0
 25
10.0
 16
0.0
 26
0.0
 36
1.0
 17
0.0
 27
0.0
 37
0.0
 40
297.0
 41
1.9729729729
 42
50.0
 43
0.0
 44
0.0
 50
0.0
 51
0.0
 71
     0
 72
   100
 73
     1
 74
     3
 75
     0
 76
     0
 77
     0
 78
     0
281
     0
 65
     1
110
0.0
120
0.0
130
0.0
111
1.0
121
0.0
131
0.0
112
0.0
122
1.0
132
0.0
 79
     0
146
0.0
  0
ENDTAB
  0
TABLE
  2
LTYPE
  5
5
330
0
100
AcDbSymbolTable
 70
     2
  0
LTYPE
  5
14
330
5
100
AcDbSymbolTableRecord
100
AcDbLinetypeTableRecord
  2
ByBlock
 70
     0
  3

 72
    65
 73
     0
 40
0.0
  0
LTYPE
  5
15
330
5
100
AcDbSymbolTableRecord
100
AcDbLinetypeTableRecord
  2
ByLayer
 70
     0
  3

 72
    65
 73
     0
 40
0.0
  0
LTYPE
  5
16
330
5
100
AcDbSymbolTableRecord
100
AcDbLinetypeTableRecord
  2
Continuous
 70
     0
  3
Solid line
 72
    65
 73
     0
 40
0.0
  0
LTYPE
  5
60
330
5
100
AcDbSymbolTableRecord
100
AcDbLinetypeTableRecord
  2
CENTER2
 70
     0
  3
Center (.5x) ___ _ ___ _ ___ _ ___ _ ___ _ ___
 72
    65
 73
     4
 40
28.575
 49
19.05
 74
     4
 75
     0
340
0
 46
0.0
 50
0.0
 44
0.0
 45
0.0
 49
-3.175
 74
     4
 75
     0
340
0
 46
0.0
 50
0.0
 44
0.0
 45
0.0
 49
3.175
 74
     4
 75
     0
340
0
 46
0.0
 50
0.0
 44
0.0
 45
0.0
 49
-3.175
 74
     4
 75
     0
340
0
 46
0.0
 50
0.0
 44
0.0
 45
0.0
  0
ENDTAB
  0
TABLE
  2
LAYER
  5
2
330
0
100
AcDbSymbolTable
 70
    10
  0
LAYER
  5
10
330
2
100
AcDbSymbolTableRecord
100
AcDbLayerTableRecord
  2
0
 70
     0
 62
     7
  6
Continuous
370
    -3
390
F
  0
LAYER
  5
5D
330
2
100
AcDbSymbolTableRecord
100
AcDbLayerTableRecord
  2
Default
 70
     0
 62
     7
  6
Continuous
370
    -3
390
F
  0
LAYER
  5
77
330
2
100
AcDbSymbolTableRecord
100
AcDbLayerTableRecord
  2
$DDT_AUDIT_GENERATED_(77)
 70
     0
 62
     7
  6
Continuous
370
    -3
390
F
  0
LAYER
  5
84
330
2
100
AcDbSymbolTableRecord
100
AcDbLayerTableRecord
  2
$DDT_AUDIT_GENERATED_(84)
 70
     0
 62
     7
  6
Continuous
370
    -3
390
F
  0
LAYER
  5
86
330
2
100
AcDbSymbolTableRecord
100
AcDbLayerTableRecord
  2
$DDT_AUDIT_GENERATED_(86)
 70
     0
 62
     7
  6
Continuous
370
    -3
390
F
  0
LAYER
  5
96
330
2
100
AcDbSymbolTableRecord
100
AcDbLayerTableRecord
  2
$DDT_AUDIT_GENERATED_(96)
 70
     0
 62
     7
  6
Continuous
370
    -3
390
F
  0
LAYER
  5
9B
330
2
100
AcDbSymbolTableRecord
100
AcDbLayerTableRecord
  2
$DDT_AUDIT_GENERATED_(9B)
 70
     0
 62
     7
  6
Continuous
370
    -3
390
F
  0
LAYER
  5
E4
330
2
100
AcDbSymbolTableRecord
100
AcDbLayerTableRecord
  2
$DDT_AUDIT_GENERATED_(E4)
 70
     0
 62
     7
  6
Continuous
370
    -3
390
F
  0
LAYER
  5
EC
330
2
100
AcDbSymbolTableRecord
100
AcDbLayerTableRecord
  2
$DDT_AUDIT_GENERATED_(EC)
 70
     0
 62
     7
  6
Continuous
370
    -3
390
F
  0
LAYER
  5
EE
330
2
100
AcDbSymbolTableRecord
100
AcDbLayerTableRecord
  2
DV2_Standard
 70
     0
 62
     7
  6
Continuous
370
    -3
390
F
  0
ENDTAB
  0
TABLE
  2
STYLE
  5
3
330
0
100
AcDbSymbolTable
 70
     2
  0
STYLE
  5
11
330
3
100
AcDbSymbolTableRecord
100
AcDbTextStyleTableRecord
  2
Standard
 70
     0
 40
0.0
 41
1.0
 50
0.0
 71
     0
 42
2.5
  3
txt
  4

  0
STYLE
  5
112
330
3
100
AcDbSymbolTableRecord
100
AcDbTextStyleTableRecord
  2
SEACAD_seiso_ttf
 70
     0
 40
0.0
 41
1.0
 50
0.0
 71
     0
 42
0.2
  3
seiso.ttf
  4

  0
ENDTAB
  0
TABLE
  2
VIEW
  5
6
330
0
100
AcDbSymbolTable
 70
     0
  0
ENDTAB
  0
TABLE
  2
UCS
  5
7
330
0
100
AcDbSymbolTable
 70
     0
  0
ENDTAB
  0
TABLE
  2
APPID
  5
9
330
0
100
AcDbSymbolTable
 70
     1
  0
APPID
  5
12
330
9
100
AcDbSymbolTableRecord
100
AcDbRegAppTableRecord
  2
ACAD
 70
     0
  0
ENDTAB
  0
TABLE
  2
DIMSTYLE
  5
A
330
0
100
AcDbSymbolTable
 70
     1
100
AcDbDimStyleTable
  0
DIMSTYLE
105
27
330
A
100
AcDbSymbolTableRecord
100
AcDbDimStyleTableRecord
  2
ISO-25
 70
     0
 41
2.5
 42
0.625
 43
3.75
 44
1.25
 73
     0
 74
     0
 77
     1
 78
     8
140
2.5
141
2.5
143
0.0393700787
147
0.625
171
     3
172
     1
271
     2
272
     2
274
     3
278
    44
283
     0
284
     8
340
11
  0
ENDTAB
  0
TABLE
  2
BLOCK_RECORD
  5
1
330
0
100
AcDbSymbolTable
 70
     7
  0
BLOCK_RECORD
  5
1F
330
1
100
AcDbSymbolTableRecord
100
AcDbBlockTableRecord
  2
*Model_Space
340
22
  0
BLOCK_RECORD
  5
1B
330
1
100
AcDbSymbolTableRecord
100
AcDbBlockTableRecord
  2
*Paper_Space
340
1E
  0
BLOCK_RECORD
  5
5E
330
1
100
AcDbSymbolTableRecord
100
AcDbBlockTableRecord
  2
SEANNOT_GROUP
340
0
102
{BLKREFS
331
5F
102
}
  0
BLOCK_RECORD
  5
65
330
1
100
AcDbSymbolTableRecord
100
AcDbBlockTableRecord
  2
SEANNOT_GROUP1
340
0
102
{BLKREFS
331
66
102
}
  0
BLOCK_RECORD
  5
6B
330
1
100
AcDbSymbolTableRecord
100
AcDbBlockTableRecord
  2
SEANNOT_GROUP2
340
0
102
{BLKREFS
331
6C
102
}
  0
BLOCK_RECORD
  5
75
330
1
100
AcDbSymbolTableRecord
100
AcDbBlockTableRecord
  2
SE
340
0
102
{BLKREFS
331
76
102
}
  0
BLOCK_RECORD
  5
A2
330
1
100
AcDbSymbolTableRecord
100
AcDbBlockTableRecord
  2
SE1
340
0
102
{BLKREFS
331
A3
102
}
  0
BLOCK_RECORD
  5
F2
330
1
100
AcDbSymbolTableRecord
100
AcDbBlockTableRecord
  2
SE2
340
0
102
{BLKREFS
331
F3
102
}
  0
ENDTAB
  0
ENDSEC
  0
SECTION
  2
BLOCKS
  0
BLOCK
  5
20
330
1F
100
AcDbEntity
  8
0
100
AcDbBlockBegin
  2
*Model_Space
 70
     0
 10
0.0
 20
0.0
 30
0.0
  3
*Model_Space
  1

  0
ENDBLK
  5
21
330
1F
100
AcDbEntity
  8
0
100
AcDbBlockEnd
  0
BLOCK
  5
1C
330
1B
100
AcDbEntity
 67
     1
  8
0
100
AcDbBlockBegin
  2
*Paper_Space
 70
     0
 10
0.0
 20
0.0
 30
0.0
  3
*Paper_Space
  1

  0
ENDBLK
  5
1D
330
1B
100
AcDbEntity
 67
     1
  8
0
100
AcDbBlockEnd
  0
BLOCK
  5
63
330
5E
100
AcDbEntity
  8
0
100
AcDbBlockBegin
  2
SEANNOT_GROUP
 70
     0
 10
0.0
 20
0.0
 30
0.0
  3
SEANNOT_GROUP
  1

  0
LINE
  5
61
330
5E
100
AcDbEntity
  8
Default
  6
CENTER2
 62
     7
100
AcDbLine
 10
51.349999553
 20
324.7963593211
 30
0.0
 11
11.350000447
 21
324.7963593211
 31
0.0
  0
LINE
  5
62
330
5E
100
AcDbEntity
  8
Default
  6
CENTER2
 62
     7
100
AcDbLine
 10
31.35
 20
344.7963588741
 30
0.0
 11
31.35
 21
304.7963597682
 31
0.0
  0
ENDBLK
  5
64
330
5E
100
AcDbEntity
  8
0
100
AcDbBlockEnd
  0
BLOCK
  5
69
330
65
100
AcDbEntity
  8
0
100
AcDbBlockBegin
  2
SEANNOT_GROUP1
 70
     0
 10
0.0
 20
0.0
 30
0.0
  3
SEANNOT_GROUP1
  1

  0
LINE
  5
67
330
65
100
AcDbEntity
  8
Default
  6
CENTER2
 62
     7
100
AcDbLine
 10
183.7178362091
 20
324.7963593211
 30
0.0
 11
143.7178371031
 21
324.7963593211
 31
0.0
  0
LINE
  5
68
330
65
100
AcDbEntity
  8
Default
  6
CENTER2
 62
     7
100
AcDbLine
 10
163.7178366561
 20
344.7963588741
 30
0.0
 11
163.7178366561
 21
304.7963597682
 31
0.0
  0
ENDBLK
  5
6A
330
65
100
AcDbEntity
  8
0
100
AcDbBlockEnd
  0
BLOCK
  5
73
330
6B
100
AcDbEntity
  8
0
100
AcDbBlockBegin
  2
SEANNOT_GROUP2
 70
     0
 10
0.0
 20
0.0
 30
0.0
  3
SEANNOT_GROUP2
  1

  0
LINE
  5
6D
330
6B
100
AcDbEntity
  8
Default
  6
CENTER2
 62
     7
100
AcDbLine
 10
51.349999553
 20
208.8573540538
 30
0.0
 11
11.350000447
 21
208.8573540538
 31
0.0
  0
LINE
  5
6E
330
6B
100
AcDbEntity
  8
Default
  6
CENTER2
 62
     7
100
AcDbLine
 10
31.35
 20
228.8573536067
 30
0.0
 11
31.35
 21
188.8573545008
 31
0.0
  0
LINE
  5
6F
330
6B
100
AcDbEntity
  8
Default
  6
CENTER2
 62
     7
100
AcDbLine
 10
56.3499994412
 20
208.8573540538
 30
0.0
 11
57.3451489836
 21
208.8573540538
 31
0.0
  0
LINE
  5
70
330
6B
100
AcDbEntity
  8
Default
  6
CENTER2
 62
     7
100
AcDbLine
 10
31.35
 20
233.857353495
 30
0.0
 11
31.35
 21
234.8525030373
 31
0.0
  0
LINE
  5
71
330
6B
100
AcDbEntity
  8
Default
  6
CENTER2
 62
     7
100
AcDbLine
 10
6.3500005588
 20
208.8573540538
 30
0.0
 11
5.3548510164
 21
208.8573540538
 31
0.0
  0
LINE
  5
72
330
6B
100
AcDbEntity
  8
Default
  6
CENTER2
 62
     7
100
AcDbLine
 10
31.35
 20
183.8573546126
 30
0.0
 11
31.35
 21
182.8622050702
 31
0.0
  0
ENDBLK
  5
74
330
6B
100
AcDbEntity
  8
0
100
AcDbBlockEnd
  0
BLOCK
  5
A0
330
75
100
AcDbEntity
  8
0
100
AcDbBlockBegin
  2
SE
 70
     0
 10
0.0
 20
0.0
 30
0.0
  3
SE
  1

  0
LINE
  5
78
330
75
100
AcDbEntity
  8
$DDT_AUDIT_GENERATED_(77)
  6
Continuous
 62
     7
100
AcDbLine
 10
52.8501699344
 20
461.9052739359
 30
0.0
 11
9.8498300656
 21
461.9052739359
 31
0.0
  0
LINE
  5
79
330
75
100
AcDbEntity
  8
$DDT_AUDIT_GENERATED_(77)
  6
Continuous
 62
     7
100
AcDbLine
 10
10.6072670988
 20
463.6459722186
 30
0.0
 11
52.0927329012
 21
463.6459722186
 31
0.0
  0
CIRCLE
  5
7A
330
75
100
AcDbEntity
  8
$DDT_AUDIT_GENERATED_(77)
  6
Continuous
 62
     7
100
AcDbCircle
 10
31.35
 20
424.2963593211
 30
0.0
 40
13.5
  0
LINE
  5
7B
330
75
100
AcDbEntity
  8
$DDT_AUDIT_GENERATED_(77)
  6
Continuous
 62
     7
100
AcDbLine
 10
9.8498300656
 20
324.7963593211
 30
0.0
 11
52.8501699344
 21
324.7963593211
 31
0.0
  0
LINE
  5
7C
330
75
100
AcDbEntity
  8
$DDT_AUDIT_GENERATED_(77)
  6
Continuous
 62
     7
100
AcDbLine
 10
52.5777277362
 20
462.9130159869
 30
0.0
 11
52.1791107913
 21
463.5963593211
 31
0.0
  0
LINE
  5
7D
330
75
100
AcDbEntity
  8
$DDT_AUDIT_GENERATED_(77)
  6
Continuous
 62
     7
100
AcDbLine
 10
10.5208892087
 20
463.5963593211
 30
0.0
 11
10.1222722638
 21
462.9130159869
 31
0.0
  0
ARC
  5
7E
330
75
100
AcDbEntity
  8
$DDT_AUDIT_GENERATED_(77)
  6
Continuous
 62
     7
100
AcDbCircle
 10
11.8498300656
 20
461.9052739359
 30
0.0
 40
2.000000000000006
100
AcDbArc
 50
149.7435628365
 51
180.0
  0
ARC
  5
7F
330
75
100
AcDbEntity
  8
$DDT_AUDIT_GENERATED_(77)
  6
Continuous
 62
     7
100
AcDbCircle
 10
50.8501699344
 20
461.9052739359
 30
0.0
 40
2.000000000000002
100
AcDbArc
 50
0.0
 51
30.2564371635
  0
ARC
  5
80
330
75
100
AcDbEntity
  8
$DDT_AUDIT_GENERATED_(77)
  6
Continuous
 62
     7
100
AcDbCircle
 10
10.6072670988
 20
463.5459722186
 30
0.0
 40
0.099999999999989
100
AcDbArc
 50
90.0
 51
149.7435628365
  0
ARC
  5
81
330
75
100
AcDbEntity
  8
$DDT_AUDIT_GENERATED_(77)
  6
Continuous
 62
     7
100
AcDbCircle
 10
52.0927329012
 20
463.5459722186
 30
0.0
 40
0.1000000000000004
100
AcDbArc
 50
30.2564371635
 51
90.0
  0
LINE
  5
82
330
75
100
AcDbEntity
  8
$DDT_AUDIT_GENERATED_(77)
  6
Continuous
 62
     7
100
AcDbLine
 10
9.8498300656
 20
461.9052739359
 30
0.0
 11
9.8498300656
 21
324.7963593211
 31
0.0
  0
LINE
  5
83
330
75
100
AcDbEntity
  8
$DDT_AUDIT_GENERATED_(77)
  6
Continuous
 62
     7
100
AcDbLine
 10
52.8501699344
 20
324.7963593211
 30
0.0
 11
52.8501699344
 21
461.9052739359
 31
0.0
  0
LINE
  5
85
330
75
100
AcDbEntity
  8
$DDT_AUDIT_GENERATED_(84)
  6
Continuous
 62
     7
100
AcDbLine
 10
43.1950429704
 20
417.7670127695
 30
0.0
 11
43.1950429704
 21
417.8198666724
 31
0.0
  0
SPLINE
  5
87
330
75
100
AcDbEntity
  8
$DDT_AUDIT_GENERATED_(86)
  6
Continuous
 62
     7
100
AcDbSpline
210
0.0
220
0.0
230
1.0
 70
     8
 71
     3
 72
    16
 73
    12
 74
     0
 42
0.0000000001066536
 43
0.0000000001
 40
0.0
 40
0.0
 40
0.0
 40
0.0
 40
0.0164328177901116
 40
0.0329911079614869
 40
0.0965557063061048
 40
0.1576389861053372
 40
0.1896077723650767
 40
0.2202095491907277
 40
0.2567292653125041
 40
0.2827705495906568
 40
0.2828184996304896
 40
0.2828184996304896
 40
0.2828184996304896
 40
0.2828184996304896
 10
35.84999999601585
 20
492.7235904269688
 30
0.0
 10
35.10998111669598
 20
492.7234363093263
 30
0.0
 10
33.61047912369738
 20
492.7232137155884
 30
0.0
 10
29.17621692966593
 20
492.7230067498201
 30
0.0
 10
22.62640953951575
 20
492.7242677472528
 30
0.0
 10
16.5144552423201
 20
492.7286118703684
 30
0.0
 10
12.90355232027314
 20
492.7341178243943
 30
0.0
 10
10.75359926802844
 20
492.7407626896472
 30
0.0
 10
9.568430103237588
 20
492.7472156266271
 30
0.0
 10
9.332744059951784
 20
492.7495526944007
 30
0.0
 10
9.332564242164315
 20
492.7495544128118
 30
0.0
 10
9.33256424283094
 20
492.7495544126798
 30
0.0
  0
SPLINE
  5
88
330
75
100
AcDbEntity
  8
$DDT_AUDIT_GENERATED_(86)
  6
Continuous
 62
     7
100
AcDbSpline
210
0.0
220
0.0
230
1.0
 70
     8
 71
     3
 72
    13
 73
     9
 74
     0
 42
0.0000000001240418
 43
0.0000000001
 40
0.7827100458861611
 40
0.7827100458861611
 40
0.7827100458861611
 40
0.7827100458861611
 40
0.7827507061040019
 40
0.8088531057811371
 40
0.8454069751584854
 40
0.8967281367911013
 40
0.9480935305162121
 40
1.0
 40
1.0
 40
1.0
 40
1.0
 10
53.36743602966336
 20
492.7495544677338
 30
0.0
 10
53.36743593854477
 20
492.749554474607
 30
0.0
 10
53.36722409523812
 20
492.7495573829929
 30
0.0
 10
53.1303948443802
 20
492.7472324630965
 30
0.0
 10
51.68141956754815
 20
492.7391956573994
 30
0.0
 10
48.2534195620218
 20
492.7306622670635
 30
0.0
 10
42.70155706201695
 20
492.7259042221693
 30
0.0
 10
38.18750339120095
 20
492.724077239566
 30
0.0
 10
35.84999999601585
 20
492.7235904269688
 30
0.0
  0
LINE
  5
89
330
75
100
AcDbEntity
  8
$DDT_AUDIT_GENERATED_(86)
  6
Continuous
 62
     7
100
AcDbLine
 10
53.5696387795
 20
465.1034674565
 30
0.0
 11
9.1303612205
 21
465.1034674565
 31
0.0
  0
SPLINE
  5
8A
330
75
100
AcDbEntity
  8
$DDT_AUDIT_GENERATED_(86)
  6
Continuous
 62
     7
100
AcDbSpline
210
0.0
220
0.0
230
1.0
 70
    11
 71
     3
 72
    22
 73
    18
 74
     0
 42
0.0000000003268827
 43
0.0000000001
 40
0.0
 40
0.0
 40
0.0
 40
0.0
 40
0.125
 40
0.125
 40
0.25
 40
0.25
 40
0.375
 40
0.375
 40
0.5
 40
0.5
 40
0.625
 40
0.625
 40
0.75
 40
0.75
 40
0.875
 40
0.875
 40
1.0
 40
1.0
 40
1.0
 40
1.0
 10
30.75133053148901
 20
488.0773950682175
 30
0.0
 10
31.99571620171007
 20
488.2391384953083
 30
0.0
 10
33.27913006617004
 20
487.8734077042397
 30
0.0
 10
35.24159691179318
 20
486.3597937295931
 30
0.0
 10
35.89918053018736
 20
485.1996624359257
 30
0.0
 10
36.21938664520049
 20
482.7145024485784
 30
0.0
 10
35.85326006412578
 20
481.4325651166805
 30
0.0
 10
34.34199292719212
 20
479.4734112721508
 30
0.0
 10
33.170693928128
 20
478.8142114466045
 30
0.0
 10
30.71413766421796
 20
478.4954856290445
 30
0.0
 10
29.42959569652665
 20
478.8488705506733
 30
0.0
 10
27.44223739831492
 20
480.380437741961
 30
0.0
 10
26.79507886163819
 20
481.5443826367544
 30
0.0
 10
26.4768993678904
 20
483.9991682840087
 30
0.0
 10
26.83869361366732
 20
485.2936104731083
 30
0.0
 10
28.34864137666754
 20
487.256032164527
 30
0.0
 10
29.50694486126796
 20
487.9156516411265
 30
0.0
 10
30.75133053148901
 20
488.0773950682175
 30
0.0
  0
SPLINE
  5
8B
330
75
100
AcDbEntity
  8
$DDT_AUDIT_GENERATED_(86)
  6
Continuous
 62
     7
100
AcDbSpline
210
0.0
220
0.0
230
1.0
 70
     8
 71
     3
 72
    20
 73
    16
 74
     0
 42
0.0000000002359862
 43
0.0000000001
 40
0.0
 40
0.0
 40
0.0
 40
0.0
 40
0.0784377582212152
 40
0.1628008103113644
 40
0.2471235794707624
 40
0.331424916542106
 40
0.4157147208851484
 40
0.4999993298101758
 40
0.5722431375121052
 40
0.6444901660672506
 40
0.7167442373093489
 40
0.7890101037361226
 40
0.8612958175226693
 40
0.9336191555493409
 40
1.0
 40
1.0
 40
1.0
 40
1.0
 10
52.52441193558732
 20
493.6433434461095
 30
0.0
 10
51.30856192407164
 20
493.7267445989677
 30
0.0
 10
49.180019113824
 20
493.8712324392142
 30
0.0
 10
45.62135445946442
 20
494.0160747323995
 30
0.0
 10
42.06899726305886
 20
494.1237092130567
 30
0.0
 10
38.49209004036351
 20
494.1951013696163
 30
0.0
 10
34.92189153582381
 20
494.2368108619905
 30
0.0
 10
31.51998680064629
 20
494.2497924932165
 30
0.0
 10
28.28875419418988
 20
494.2391638725921
 30
0.0
 10
25.22706385898121
 20
494.2088470166946
 30
0.0
 10
22.16690952988479
 20
494.1564543919645
 30
0.0
 10
19.10098534831157
 20
494.080827407894
 30
0.0
 10
16.05613712959094
 20
493.9777231364516
 30
0.0
 10
13.01805690016662
 20
493.8409097712293
 30
0.0
 10
11.20443814213817
 20
493.7156435223867
 30
0.0
 10
10.17556846335446
 20
493.6437877563126
 30
0.0
  0
LINE
  5
8C
330
75
100
AcDbEntity
  8
$DDT_AUDIT_GENERATED_(86)
  6
Continuous
 62
     7
100
AcDbLine
 10
53.845107022
 20
465.3837859767
 30
0.0
 11
53.3672753266
 21
492.7587454765
 31
0.0
  0
LINE
  5
8D
330
75
100
AcDbEntity
  8
$DDT_AUDIT_GENERATED_(86)
  6
Continuous
 62
     7
100
AcDbLine
 10
9.3327246734
 20
492.7587454765
 30
0.0
 11
8.854892978
 21
465.3837859767
 31
0.0
  0
SPLINE
  5
8E
330
75
100
AcDbEntity
  8
$DDT_AUDIT_GENERATED_(86)
  6
Continuous
 62
     7
100
AcDbSpline
210
0.0
220
0.0
230
1.0
 70
     8
 71
     3
 72
    13
 73
     9
 74
     0
 42
0.0000000071609889
 43
0.0000000001
 40
0.0
 40
0.0
 40
0.0
 40
0.0
 40
0.2396388835873391
 40
0.3699190905342996
 40
0.5000000020257921
 40
0.6302929580664726
 40
0.7609951206888214
 40
1.0
 40
1.0
 40
1.0
 40
1.0
 10
10.17524123606399
 20
493.6487811432399
 30
0.0
 10
10.05445311549073
 20
493.6358429826394
 30
0.0
 10
9.89602408935105
 20
493.6148750925821
 30
0.0
 10
9.684964566257934
 20
493.510073916711
 30
0.0
 10
9.54461504215874
 20
493.3951588945673
 30
0.0
 10
9.438978527564597
 20
493.2474556587808
 30
0.0
 10
9.348224696993721
 20
493.0299628297534
 30
0.0
 10
9.337610520553874
 20
492.8706069607814
 30
0.0
 10
9.332564242830847
 20
492.7495544126799
 30
0.0
  0
SPLINE
  5
8F
330
75
100
AcDbEntity
  8
$DDT_AUDIT_GENERATED_(86)
  6
Continuous
 62
     7
100
AcDbSpline
210
0.0
220
0.0
230
1.0
 70
     8
 71
     3
 72
    13
 73
     9
 74
     0
 42
0.0000000071609888
 43
0.0000000001
 40
0.0
 40
0.0
 40
0.0
 40
0.0
 40
0.2390048813149804
 40
0.3697070444283743
 40
0.499999999131356
 40
0.6300809070206037
 40
0.7603611098230666
 40
1.0
 40
1.0
 40
1.0
 40
1.0
 10
53.3674357558745
 20
492.7495544868535
 30
0.0
 10
53.36238947804832
 20
492.8706070366808
 30
0.0
 10
53.35177530137386
 20
493.0299629076377
 30
0.0
 10
53.26102147002337
 20
493.2474557384578
 30
0.0
 10
53.15538495570767
 20
493.3951589732119
 30
0.0
 10
53.01503543416081
 20
493.5100739934718
 30
0.0
 10
52.80397591049677
 20
493.6148751697888
 30
0.0
 10
52.64554688207431
 20
493.6358430589395
 30
0.0
 10
52.524758757361
 20
493.6487812189642
 30
0.0
  0
ARC
  5
90
330
75
100
AcDbEntity
  8
$DDT_AUDIT_GENERATED_(86)
  6
Continuous
 62
     7
100
AcDbCircle
 10
53.5696387795
 20
465.3789776606
 30
0.0
 40
0.2755102040815083
100
AcDbArc
 50
270.0
 51
1.0
  0
ARC
  5
91
330
75
100
AcDbEntity
  8
$DDT_AUDIT_GENERATED_(86)
  6
Continuous
 62
     7
100
AcDbCircle
 10
9.1303612205
 20
465.3789776606
 30
0.0
 40
0.2755102040816178
100
AcDbArc
 50
179.0
 51
270.0
  0
ARC
  5
92
330
75
100
AcDbEntity
  8
$DDT_AUDIT_GENERATED_(86)
  6
Continuous
 62
     7
100
AcDbCircle
 10
29.080601488
 20
482.4019123877
 30
0.0
 40
2.29553329471593
100
AcDbArc
 50
203.1521671146
 51
207.4524374195
  0
ARC
  5
93
330
75
100
AcDbEntity
  8
$DDT_AUDIT_GENERATED_(86)
  6
Continuous
 62
     7
100
AcDbCircle
 10
27.4069721133
 20
481.7253716982
 30
0.0
 40
0.4836096355442617
100
AcDbArc
 50
210.8391456234
 51
211.1345187416
  0
ARC
  5
94
330
75
100
AcDbEntity
  8
$DDT_AUDIT_GENERATED_(86)
  6
Continuous
 62
     7
100
AcDbCircle
 10
33.4856946592
 20
482.476002082
 30
0.0
 40
2.442551606345539
100
AcDbArc
 50
332.4007951484
 51
336.5078708851
  0
ARC
  5
95
330
75
100
AcDbEntity
  8
$DDT_AUDIT_GENERATED_(86)
  6
Continuous
 62
     7
100
AcDbCircle
 10
35.2880940324
 20
481.7264471173
 30
0.0
 40
0.485804751757639
100
AcDbArc
 50
328.4529935015
 51
328.6759231732
  0
ARC
  5
97
330
75
100
AcDbEntity
  8
$DDT_AUDIT_GENERATED_(96)
  6
Continuous
 62
     7
100
AcDbCircle
 10
31.349999863
 20
454.6120305049
 30
0.0
 40
22.59999999999999
100
AcDbArc
 50
152.3400606244
 51
155.2561404357
  0
ARC
  5
98
330
75
100
AcDbEntity
  8
$DDT_AUDIT_GENERATED_(96)
  6
Continuous
 62
     7
100
AcDbCircle
 10
31.349999863
 20
454.6120305049
 30
0.0
 40
22.59999999999999
100
AcDbArc
 50
24.7438595643
 51
27.6599393756
  0
ARC
  5
99
330
75
100
AcDbEntity
  8
$DDT_AUDIT_GENERATED_(96)
  6
Continuous
 62
     7
100
AcDbCircle
 10
11.0974066442
 20
463.9459722186
 30
0.0
 40
0.3000000000000034
100
AcDbArc
 50
155.2561404357
 51
270.0
  0
ARC
  5
9A
330
75
100
AcDbEntity
  8
$DDT_AUDIT_GENERATED_(96)
  6
Continuous
 62
     7
100
AcDbCircle
 10
51.6025930818
 20
463.9459722186
 30
0.0
 40
0.2999999999999947
100
AcDbArc
 50
270.0
 51
24.7438595643
  0
ELLIPSE
  5
9C
330
75
100
AcDbEntity
  8
$DDT_AUDIT_GENERATED_(9B)
  6
Continuous
 62
     7
100
AcDbEllipse
 10
31.35
 20
414.3240708289
 30
0.0
 11
6.224999999999929
 21
0.0
 31
0.0
210
0.0
220
0.0
230
1.0
 40
0.5735764364
 41
4.376105393112004
 42
5.048672567657372
  0
ELLIPSE
  5
9D
330
75
100
AcDbEntity
  8
$DDT_AUDIT_GENERATED_(9B)
  6
Continuous
 62
     7
100
AcDbEllipse
 10
31.35
 20
414.111248885
 30
0.0
 11
6.07499999999992
 21
0.0
 31
0.0
210
0.0
220
0.0
230
1.0
 40
0.5735764364
 41
4.106238186636647
 42
5.318539774132731
  0
ELLIPSE
  5
9E
330
75
100
AcDbEntity
  8
$DDT_AUDIT_GENERATED_(9B)
  6
Continuous
 62
     7
100
AcDbEllipse
 10
31.35
 20
413.9474184761
 30
0.0
 11
6.07499999999992
 21
0.0
 31
0.0
210
0.0
220
0.0
230
1.0
 40
0.5735764364
 41
3.913015150207236
 42
5.511762810562143
  0
SPLINE
  5
9F
330
75
100
AcDbEntity
  8
$DDT_AUDIT_GENERATED_(9B)
  6
Continuous
 62
     7
100
AcDbSpline
210
0.0
220
0.0
230
1.0
 70
     8
 71
     3
 72
    35
 73
    31
 74
     0
 42
0.0000000005321945
 43
0.0000000001
 40
0.1819252407899545
 40
0.1819252407899545
 40
0.1819252407899545
 40
0.1819252407899545
 40
0.1859180819472613
 40
0.209586332029119
 40
0.2333158113195795
 40
0.2570760455412391
 40
0.280843317277497
 40
0.3046019288545034
 40
0.3283453669965304
 40
0.3520709278889082
 40
0.3757784198126924
 40
0.3994692319240386
 40
0.4231457075000165
 40
0.4468107427003903
 40
0.4704675416668285
 40
0.4941194750691429
 40
0.5177700040163491
 40
0.5414223508843553
 40
0.565079180511556
 40
0.5887440612770283
 40
0.6124205565542722
 40
0.6361121699781703
 40
0.6598222392699918
 40
0.6835537446112073
 40
0.7073089837543386
 40
0.7310890478232728
 40
0.7548930133301076
 40
0.7787167592955886
 40
0.8025506940566165
 40
0.8196669782048013
 40
0.8196669782048013
 40
0.8196669782048013
 40
0.8196669782048013
 10
25.76874482063123
 20
412.0090693596716
 30
0.0
 10
25.78403314836764
 20
411.9952723169151
 30
0.0
 10
25.89092663895909
 20
411.9001270671756
 30
0.0
 10
26.1020349187395
 20
411.7290410205841
 30
0.0
 10
26.42240846280462
 20
411.5065423794765
 30
0.0
 10
26.76966128493946
 20
411.2990706567986
 30
0.0
 10
27.14168695725435
 20
411.107738881828
 30
0.0
 10
27.53629575463261
 20
410.9335087743374
 30
0.0
 10
27.95124618373258
 20
410.7772088780679
 30
0.0
 10
28.38425293977432
 20
410.6395555559004
 30
0.0
 10
28.83296947096474
 20
410.5211713926199
 30
0.0
 10
29.29499064199464
 20
410.4225889176341
 30
0.0
 10
29.76785744981909
 20
410.3442512057288
 30
0.0
 10
30.24906409548213
 20
410.2865107529132
 30
0.0
 10
30.73606717149024
 20
410.2496276846625
 30
0.0
 10
31.22629652449842
 20
410.233768015622
 30
0.0
 10
31.71716529966239
 20
410.2390023979811
 30
0.0
 10
32.20607871450343
 20
410.2653049837449
 30
0.0
 10
32.6904536889538
 20
410.3125530872644
 30
0.0
 10
33.16773443706
 20
410.3805291761346
 30
0.0
 10
33.63540902421202
 20
410.4689249546244
 30
0.0
 10
34.09101500413689
 20
410.577344576864
 30
0.0
 10
34.53214973104489
 20
410.7053089324856
 30
0.0
 10
34.95647869254423
 20
410.8522602871018
 30
0.0
 10
35.36174120931518
 20
411.0175665825672
 30
0.0
 10
35.74575287168057
 20
411.2005242050237
 30
0.0
 10
36.10640434639226
 20
411.4003574437488
 30
0.0
 10
36.44165378394459
 20
411.6162097428919
 30
0.0
 10
36.72061804250834
 20
411.8254476963765
 30
0.0
 10
36.88261263508935
 20
411.9646569905267
 30
0.0
 10
36.94771257924591
 20
412.0239955098355
 30
0.0
  0
ENDBLK
  5
A1
330
75
100
AcDbEntity
  8
0
100
AcDbBlockEnd
  0
BLOCK
  5
F0
330
A2
100
AcDbEntity
  8
0
100
AcDbBlockBegin
  2
SE1
 70
     0
 10
0.0
 20
0.0
 30
0.0
  3
SE1
  1

  0
LINE
  5
A4
330
A2
100
AcDbEntity
  8
$DDT_AUDIT_GENERATED_(77)
  6
Continuous
 62
     7
100
AcDbLine
 10
185.2180065905
 20
461.9052739359
 30
0.0
 11
142.2176667217
 21
461.9052739359
 31
0.0
  0
LINE
  5
A5
330
A2
100
AcDbEntity
  8
$DDT_AUDIT_GENERATED_(77)
  6
Continuous
 62
     7
100
AcDbLine
 10
142.9751037549
 20
463.6459722186
 30
0.0
 11
184.4605695573
 21
463.6459722186
 31
0.0
  0
LINE
  5
A6
330
A2
100
AcDbEntity
  8
$DDT_AUDIT_GENERATED_(77)
  6
Continuous
 62
     7
100
AcDbLine
 10
266.2178366561
 20
436.7963593211
 30
0.0
 11
266.2178366561
 21
411.7963593211
 31
0.0
  0
ARC
  5
A7
330
A2
100
AcDbEntity
  8
$DDT_AUDIT_GENERATED_(77)
  6
Continuous
 62
     7
100
AcDbCircle
 10
247.8173673053
 20
398.0975497786
 30
0.0
 40
16.16081617466973
100
AcDbArc
 50
121.7926666367
 51
128.207333358
  0
LINE
  5
A8
330
A2
100
AcDbEntity
  8
$DDT_AUDIT_GENERATED_(77)
  6
Continuous
 62
     7
100
AcDbLine
 10
239.3030895877
 20
411.8335992244
 30
0.0
 11
243.1532934114
 21
414.5295409654
 31
0.0
  0
ARC
  5
A9
330
A2
100
AcDbEntity
  8
$DDT_AUDIT_GENERATED_(77)
  6
Continuous
 62
     7
100
AcDbCircle
 10
245.3215692594
 20
411.5714555294
 30
0.0
 40
3.667654509395156
100
AcDbArc
 50
94.7048641379
 51
126.2414063738
  0
ARC
  5
AA
330
A2
100
AcDbEntity
  8
$DDT_AUDIT_GENERATED_(77)
  6
Continuous
 62
     7
100
AcDbCircle
 10
240.3511017843
 20
370.9062886691
 30
0.0
 40
44.56578201291002
100
AcDbArc
 50
63.5190850582
 51
83.9854665731
  0
ARC
  5
AB
330
A2
100
AcDbEntity
  8
$DDT_AUDIT_GENERATED_(77)
  6
Continuous
 62
     7
100
AcDbCircle
 10
-75.5141170737
 20
382.6619376466
 30
0.0
 40
217.9339357186019
100
AcDbArc
 50
357.5319854596
 51
2.4680143516
  0
LINE
  5
AC
330
A2
100
AcDbEntity
  8
$DDT_AUDIT_GENERATED_(77)
  6
Continuous
 62
     7
100
AcDbLine
 10
142.2176667217
 20
324.7963593211
 30
0.0
 11
185.2180065905
 21
324.7963593211
 31
0.0
  0
LINE
  5
AD
330
A2
100
AcDbEntity
  8
$DDT_AUDIT_GENERATED_(77)
  6
Continuous
 62
     7
100
AcDbLine
 10
184.9455643923
 20
462.9130159869
 30
0.0
 11
184.5469474474
 21
463.5963593211
 31
0.0
  0
LINE
  5
AE
330
A2
100
AcDbEntity
  8
$DDT_AUDIT_GENERATED_(77)
  6
Continuous
 62
     7
100
AcDbLine
 10
142.8887258648
 20
463.5963593211
 30
0.0
 11
142.4901089199
 21
462.9130159869
 31
0.0
  0
ARC
  5
AF
330
A2
100
AcDbEntity
  8
$DDT_AUDIT_GENERATED_(77)
  6
Continuous
 62
     7
100
AcDbCircle
 10
144.2176667217
 20
461.9052739359
 30
0.0
 40
2.000000000000006
100
AcDbArc
 50
149.7435628365
 51
180.0
  0
ARC
  5
B0
330
A2
100
AcDbEntity
  8
$DDT_AUDIT_GENERATED_(77)
  6
Continuous
 62
     7
100
AcDbCircle
 10
183.2180065905
 20
461.9052739359
 30
0.0
 40
2.000000000000002
100
AcDbArc
 50
0.0
 51
30.2564371635
  0
ARC
  5
B1
330
A2
100
AcDbEntity
  8
$DDT_AUDIT_GENERATED_(77)
  6
Continuous
 62
     7
100
AcDbCircle
 10
142.9751037549
 20
463.5459722186
 30
0.0
 40
0.099999999999989
100
AcDbArc
 50
90.0
 51
149.7435628365
  0
ARC
  5
B2
330
A2
100
AcDbEntity
  8
$DDT_AUDIT_GENERATED_(77)
  6
Continuous
 62
     7
100
AcDbCircle
 10
184.4605695573
 20
463.5459722186
 30
0.0
 40
0.1000000000000004
100
AcDbArc
 50
30.2564371635
 51
90.0
  0
ARC
  5
B3
330
A2
100
AcDbEntity
  8
$DDT_AUDIT_GENERATED_(77)
  6
Continuous
 62
     7
100
AcDbCircle
 10
265.2178366561
 20
436.7963593211
 30
0.0
 40
1.000000000000001
100
AcDbArc
 50
0.0
 51
90.0
  0
ARC
  5
B4
330
A2
100
AcDbEntity
  8
$DDT_AUDIT_GENERATED_(77)
  6
Continuous
 62
     7
100
AcDbCircle
 10
265.2178366561
 20
411.7963593211
 30
0.0
 40
1.000000000000001
100
AcDbArc
 50
270.0
 51
0.0
  0
LINE
  5
B5
330
A2
100
AcDbEntity
  8
$DDT_AUDIT_GENERATED_(77)
  6
Continuous
 62
     7
100
AcDbLine
 10
260.2061918761
 20
410.7963593211
 30
0.0
 11
265.2178366561
 21
410.7963593211
 31
0.0
  0
LINE
  5
B6
330
A2
100
AcDbEntity
  8
$DDT_AUDIT_GENERATED_(77)
  6
Continuous
 62
     7
100
AcDbLine
 10
189.2180599888
 20
410.7963593211
 30
0.0
 11
237.8221858214
 21
410.7963593211
 31
0.0
  0
LINE
  5
B7
330
A2
100
AcDbEntity
  8
$DDT_AUDIT_GENERATED_(77)
  6
Continuous
 62
     7
100
AcDbLine
 10
265.2178366561
 20
437.7963593211
 30
0.0
 11
189.2181405388
 21
437.7963593211
 31
0.0
  0
ARC
  5
B8
330
A2
100
AcDbEntity
  8
$DDT_AUDIT_GENERATED_(77)
  6
Continuous
 62
     7
100
AcDbCircle
 10
189.218090915
 20
406.7962749967
 30
0.0
 40
4.000084324565326
100
AcDbArc
 50
90.0004611182
 51
180.0004322323
  0
ARC
  5
B9
330
A2
100
AcDbEntity
  8
$DDT_AUDIT_GENERATED_(77)
  6
Continuous
 62
     7
100
AcDbCircle
 10
189.2183101106
 20
441.7966633734
 30
0.0
 40
4.000303313448792
100
AcDbArc
 50
179.99790566
 51
269.9980632184
  0
LINE
  5
BA
330
A2
100
AcDbEntity
  8
$DDT_AUDIT_GENERATED_(77)
  6
Continuous
 62
     7
100
AcDbLine
 10
142.2176667217
 20
373.2773405287
 30
0.0
 11
142.2176667217
 21
324.7963593211
 31
0.0
  0
LINE
  5
BB
330
A2
100
AcDbEntity
  8
$DDT_AUDIT_GENERATED_(77)
  6
Continuous
 62
     7
100
AcDbLine
 10
142.2176667217
 20
461.9052739359
 30
0.0
 11
142.2176667217
 21
392.0425601408
 31
0.0
  0
LINE
  5
BC
330
A2
100
AcDbEntity
  8
$DDT_AUDIT_GENERATED_(77)
  6
Continuous
 62
     7
100
AcDbLine
 10
185.2180065905
 20
441.7967686993
 30
0.0
 11
185.2180065905
 21
461.9052739359
 31
0.0
  0
LINE
  5
BD
330
A2
100
AcDbEntity
  8
$DDT_AUDIT_GENERATED_(77)
  6
Continuous
 62
     7
100
AcDbLine
 10
185.2180065905
 20
324.7963593211
 30
0.0
 11
185.2180065905
 21
406.7962454941
 31
0.0
  0
ARC
  5
BE
330
A2
100
AcDbEntity
  8
$DDT_AUDIT_GENERATED_(86)
  6
Continuous
 62
     7
100
AcDbCircle
 10
163.7104846552
 20
-8436.0084370928
 30
0.0
 40
8928.758730032368
100
AcDbArc
 50
89.8587111212
 51
90.1412888388
  0
LINE
  5
BF
330
A2
100
AcDbEntity
  8
$DDT_AUDIT_GENERATED_(86)
  6
Continuous
 62
     7
100
AcDbLine
 10
185.9301213818
 20
465.1034674565
 30
0.0
 11
141.4908438229
 21
465.1034674565
 31
0.0
  0
ARC
  5
C0
330
A2
100
AcDbEntity
  8
$DDT_AUDIT_GENERATED_(86)
  6
Continuous
 62
     7
100
AcDbCircle
 10
208.8532251429
 20
483.7547655849
 30
0.0
 40
23.60283415266306
100
AcDbArc
 50
167.6476006428
 51
194.3523983926
  0
ARC
  5
C1
330
A2
100
AcDbEntity
  8
$DDT_AUDIT_GENERATED_(86)
  6
Continuous
 62
     7
100
AcDbCircle
 10
120.3311989558
 20
486.5600597165
 30
0.0
 40
21.54534354058263
100
AcDbArc
 50
349.5160382898
 51
8.4842208599
  0
SPLINE
  5
C2
330
A2
100
AcDbEntity
  8
$DDT_AUDIT_GENERATED_(86)
  6
Continuous
 62
     7
100
AcDbSpline
210
0.0
220
0.0
230
1.0
 70
    11
 71
     3
 72
    22
 73
    18
 74
     0
 42
0.0000000006079566
 43
0.0000000001
 40
0.0
 40
0.0
 40
0.0
 40
0.0
 40
0.2500000000000027
 40
0.2500000000000027
 40
0.375000000000004
 40
0.375000000000004
 40
0.4375000000000038
 40
0.4375000000000038
 40
0.5000000000000036
 40
0.5000000000000036
 40
0.5625000000000033
 40
0.5625000000000033
 40
0.6250000000000031
 40
0.6250000000000031
 40
0.7500000000000028
 40
0.7500000000000028
 40
1.0
 40
1.0
 40
1.0
 40
1.0
 10
236.4206979124564
 20
481.0997828124615
 30
0.0
 10
237.9277727359186
 20
480.6271879558798
 30
0.0
 10
239.4232353287904
 20
480.1580217356334
 30
0.0
 10
241.5848095730068
 20
479.4798786916905
 30
0.0
 10
242.2957725304396
 20
479.2568308042672
 30
0.0
 10
243.2541458740267
 20
478.9561637610074
 30
0.0
 10
243.5592585495173
 20
478.8604418568291
 30
0.0
 10
244.0693849585248
 20
478.7004017558473
 30
0.0
 10
244.2679161437432
 20
478.6381173083218
 30
0.0
 10
244.2614530576016
 20
478.6401450511686
 30
0.0
 10
244.057379404083
 20
478.704168413878
 30
0.0
 10
243.5473998212393
 20
478.864162603378
 30
0.0
 10
243.2357363101798
 20
478.9619397394906
 30
0.0
 10
242.2713785327251
 20
479.2644844181801
 30
0.0
 10
241.5593418335635
 20
479.4878692449371
 30
0.0
 10
239.4077254264148
 20
480.1628884453121
 30
0.0
 10
237.9238722390567
 20
480.6284125634039
 30
0.0
 10
236.4206979124564
 20
481.0997837858587
 30
0.0
  0
ARC
  5
C3
330
A2
100
AcDbEntity
  8
$DDT_AUDIT_GENERATED_(86)
  6
Continuous
 62
     7
100
AcDbCircle
 10
235.5219209485
 20
478.3944476078
 30
0.0
 40
2.850726901583436
100
AcDbArc
 50
71.6222865629
 51
136.916972137
  0
LINE
  5
C4
330
A2
100
AcDbEntity
  8
$DDT_AUDIT_GENERATED_(86)
  6
Continuous
 62
     7
100
AcDbLine
 10
233.4398508107
 20
480.3416578708
 30
0.0
 11
231.9746320176
 21
478.774696109
 31
0.0
  0
LINE
  5
C5
330
A2
100
AcDbEntity
  8
$DDT_AUDIT_GENERATED_(86)
  6
Continuous
 62
     7
100
AcDbLine
 10
233.4767586512
 20
480.3811285393
 30
0.0
 11
233.439850792
 21
480.3416578508
 31
0.0
  0
SPLINE
  5
C6
330
A2
100
AcDbEntity
  8
$DDT_AUDIT_GENERATED_(86)
  6
Continuous
 62
     7
100
AcDbSpline
210
0.0
220
0.0
230
1.0
 70
     8
 71
     3
 72
    10
 73
     6
 74
     0
 42
0.0000000314057682
 43
0.0000000001
 40
0.0
 40
0.0
 40
0.0
 40
0.0
 40
0.5
 40
0.5
 40
1.0
 40
1.0
 40
1.0
 40
1.0
 10
236.5703546029406
 20
481.3666947423524
 30
0.0
 10
236.538896405688
 20
481.2841105859379
 30
0.0
 10
236.5074180172207
 20
481.213566219559
 30
0.0
 10
236.4546268156713
 20
481.1194289789985
 30
0.0
 10
236.433411349913
 20
481.0960096945094
 30
0.0
 10
236.4206979124564
 20
481.0997837858587
 30
0.0
  0
LINE
  5
C7
330
A2
100
AcDbEntity
  8
$DDT_AUDIT_GENERATED_(86)
  6
Continuous
 62
     7
100
AcDbLine
 10
249.4930431487
 20
479.1172580531
 30
0.0
 11
249.4930431487
 21
487.5815658991
 31
0.0
  0
ARC
  5
C8
330
A2
100
AcDbEntity
  8
$DDT_AUDIT_GENERATED_(86)
  6
Continuous
 62
     7
100
AcDbCircle
 10
163.7127625542
 20
134.6161871714
 30
0.0
 40
359.629336594479
100
AcDbArc
 50
86.6282458241
 51
93.3724797248
  0
LINE
  5
C9
330
A2
100
AcDbEntity
  8
$DDT_AUDIT_GENERATED_(86)
  6
Continuous
 62
     7
100
AcDbLine
 10
185.7967507264
 20
488.8061507533
 30
0.0
 11
185.7277579289
 21
492.7587454765
 31
0.0
  0
LINE
  5
CA
330
A2
100
AcDbEntity
  8
$DDT_AUDIT_GENERATED_(86)
  6
Continuous
 62
     7
100
AcDbLine
 10
186.2055896244
 20
465.3837859767
 30
0.0
 11
185.9862429945
 21
477.9501459857
 31
0.0
  0
LINE
  5
CB
330
A2
100
AcDbEntity
  8
$DDT_AUDIT_GENERATED_(86)
  6
Continuous
 62
     7
100
AcDbLine
 10
141.5173555075
 20
482.6842044168
 30
0.0
 11
141.2153755803
 21
465.3837859767
 31
0.0
  0
LINE
  5
CC
330
A2
100
AcDbEntity
  8
$DDT_AUDIT_GENERATED_(86)
  6
Continuous
 62
     7
100
AcDbLine
 10
141.6932072758
 20
492.7587454765
 30
0.0
 11
141.639732635
 21
489.695185357
 31
0.0
  0
SPLINE
  5
CD
330
A2
100
AcDbEntity
  8
$DDT_AUDIT_GENERATED_(86)
  6
Continuous
 62
     7
100
AcDbSpline
210
0.0
220
0.0
230
1.0
 70
     8
 71
     3
 72
    13
 73
     9
 74
     0
 42
0.0000000070335348
 43
0.0000000001
 40
0.0
 40
0.0
 40
0.0
 40
0.0
 40
0.2398314347356154
 40
0.3702034159045245
 40
0.4999999879297272
 40
0.6298262120296192
 40
0.7602574277313371
 40
1.0
 40
1.0
 40
1.0
 40
1.0
 10
142.5568148158898
 20
493.6238960871519
 30
0.0
 10
142.4334920809829
 20
493.6137339839472
 30
0.0
 10
142.271603032077
 20
493.5962248951143
 30
0.0
 10
142.0545485100101
 20
493.4940404887453
 30
0.0
 10
141.9100779844819
 20
493.3794215423673
 30
0.0
 10
141.8015238806161
 20
493.2303051839508
 30
0.0
 10
141.7084256242042
 20
493.0091977400078
 30
0.0
 10
141.6976333939138
 20
492.8467371825613
 30
0.0
 10
141.6925858732281
 20
492.7231453472892
 30
0.0
  0
SPLINE
  5
CE
330
A2
100
AcDbEntity
  8
$DDT_AUDIT_GENERATED_(86)
  6
Continuous
 62
     7
100
AcDbSpline
210
0.0
220
0.0
230
1.0
 70
     8
 71
     3
 72
    13
 73
     9
 74
     0
 42
0.000000007033535
 43
0.0000000001
 40
0.0
 40
0.0
 40
0.0
 40
0.0
 40
0.23974257885244
 40
0.3701737969919661
 40
0.500000021969806
 40
0.6297965929731674
 40
0.7601685716348315
 40
1.0
 40
1.0
 40
1.0
 40
1.0
 10
185.7283793315464
 20
492.723145342832
 30
0.0
 10
185.72333181115
 20
492.8467371786263
 30
0.0
 10
185.7125395813979
 20
493.0091977359284
 30
0.0
 10
185.6194413300683
 20
493.2303051808389
 30
0.0
 10
185.5108872322618
 20
493.3794215396496
 30
0.0
 10
185.3664167142133
 20
493.4940404865752
 30
0.0
 10
185.14936220338
 20
493.5962248930408
 30
0.0
 10
184.9874731618536
 20
493.6137339815699
 30
0.0
 10
184.8641504331233
 20
493.6238960845416
 30
0.0
  0
ARC
  5
CF
330
A2
100
AcDbEntity
  8
$DDT_AUDIT_GENERATED_(86)
  6
Continuous
 62
     7
100
AcDbCircle
 10
185.9301213818
 20
465.3789776606
 30
0.0
 40
0.2755102040815083
100
AcDbArc
 50
270.0
 51
1.0
  0
ARC
  5
D0
330
A2
100
AcDbEntity
  8
$DDT_AUDIT_GENERATED_(86)
  6
Continuous
 62
     7
100
AcDbCircle
 10
141.4908438229
 20
465.3789776606
 30
0.0
 40
0.2755102040816143
100
AcDbArc
 50
179.0
 51
270.0
  0
LINE
  5
D1
330
A2
100
AcDbEntity
  8
$DDT_AUDIT_GENERATED_(86)
  6
Continuous
 62
     7
100
AcDbLine
 10
248.9930431487
 20
488.1161913193
 30
0.0
 11
186.4966802261
 21
488.1161913193
 31
0.0
  0
LINE
  5
D2
330
A2
100
AcDbEntity
  8
$DDT_AUDIT_GENERATED_(86)
  6
Continuous
 62
     7
100
AcDbLine
 10
244.4090072098
 20
478.6161913509
 30
0.0
 11
248.9930431487
 21
478.6161913509
 31
0.0
  0
LINE
  5
D3
330
A2
100
AcDbEntity
  8
$DDT_AUDIT_GENERATED_(86)
  6
Continuous
 62
     7
100
AcDbLine
 10
186.6755769399
 20
478.6161913509
 30
0.0
 11
231.6145113332
 21
478.6161913509
 31
0.0
  0
SPLINE
  5
D4
330
A2
100
AcDbEntity
  8
$DDT_AUDIT_GENERATED_(86)
  6
Continuous
 62
     7
100
AcDbSpline
210
0.0
220
0.0
230
1.0
 70
     8
 71
     3
 72
    14
 73
    10
 74
     0
 42
0.0000000088060483
 43
0.0000000001
 40
0.0
 40
0.0
 40
0.0
 40
0.0
 40
0.1011647539952284
 40
0.3441072164251431
 40
0.5321358705709945
 40
0.6878375837685958
 40
0.8193793381519903
 40
0.9275126530178291
 40
1.0
 40
1.0
 40
1.0
 40
1.0
 10
186.4965954206351
 20
488.1273764395723
 30
0.0
 10
186.4551811453343
 20
488.1243869714082
 30
0.0
 10
186.33388034837
 20
488.1171301442099
 30
0.0
 10
186.1375695542235
 20
488.2007566683337
 30
0.0
 10
185.9698162965321
 20
488.341552267053
 30
0.0
 10
185.8696331419048
 20
488.4913419587808
 30
0.0
 10
185.8177188663171
 20
488.6293177037747
 30
0.0
 10
185.796957239409
 20
488.7473672520829
 30
0.0
 10
185.7973366128501
 20
488.8102930083555
 30
0.0
 10
185.7978023114595
 20
488.840032246383
 30
0.0
  0
ARC
  5
D5
330
A2
100
AcDbEntity
  8
$DDT_AUDIT_GENERATED_(86)
  6
Continuous
 62
     7
100
AcDbCircle
 10
186.6674781797
 20
477.9269000642
 30
0.0
 40
0.6798671369829605
100
AcDbArc
 50
88.8556945698
 51
178.2252067193
  0
ARC
  5
D6
330
A2
100
AcDbEntity
  8
$DDT_AUDIT_GENERATED_(86)
  6
Continuous
 62
     7
100
AcDbCircle
 10
231.609418394
 20
479.1161913587
 30
0.0
 40
0.4999999968351782
100
AcDbArc
 50
270.4626749304
 51
316.9222181454
  0
ARC
  5
D7
330
A2
100
AcDbEntity
  8
$DDT_AUDIT_GENERATED_(86)
  6
Continuous
 62
     7
100
AcDbCircle
 10
244.4143955165
 20
479.1161910507
 30
0.0
 40
0.4999994775373895
100
AcDbArc
 50
252.5833990303
 51
269.3370451008
  0
ARC
  5
D8
330
A2
100
AcDbEntity
  8
$DDT_AUDIT_GENERATED_(86)
  6
Continuous
 62
     7
100
AcDbCircle
 10
248.9930431488
 20
479.1161915665
 30
0.0
 40
0.499999999931287
100
AcDbArc
 50
270.0739036636
 51
0.0
  0
ARC
  5
D9
330
A2
100
AcDbEntity
  8
$DDT_AUDIT_GENERATED_(86)
  6
Continuous
 62
     7
100
AcDbCircle
 10
248.9930431573
 20
487.6161872896
 30
0.0
 40
0.499999991365168
100
AcDbArc
 50
359.999076114
 51
89.5036645451
  0
ARC
  5
DA
330
A2
100
AcDbEntity
  8
$DDT_AUDIT_GENERATED_(96)
  6
Continuous
 62
     7
100
AcDbCircle
 10
163.8386112949
 20
454.6120305049
 30
0.0
 40
22.59999999999999
100
AcDbArc
 50
152.3400606244
 51
155.2561404357
  0
ARC
  5
DB
330
A2
100
AcDbEntity
  8
$DDT_AUDIT_GENERATED_(96)
  6
Continuous
 62
     7
100
AcDbCircle
 10
163.8386112949
 20
454.6120305049
 30
0.0
 40
22.59999999999999
100
AcDbArc
 50
24.7438595643
 51
27.6599393756
  0
ARC
  5
DC
330
A2
100
AcDbEntity
  8
$DDT_AUDIT_GENERATED_(96)
  6
Continuous
 62
     7
100
AcDbCircle
 10
143.5860180761
 20
463.9459722186
 30
0.0
 40
0.3000000000000034
100
AcDbArc
 50
155.2561404357
 51
270.0
  0
ARC
  5
DD
330
A2
100
AcDbEntity
  8
$DDT_AUDIT_GENERATED_(96)
  6
Continuous
 62
     7
100
AcDbCircle
 10
184.0912045137
 20
463.9459722186
 30
0.0
 40
0.2999999999999947
100
AcDbArc
 50
270.0
 51
24.7438595643
  0
LINE
  5
DE
330
A2
100
AcDbEntity
  8
$DDT_AUDIT_GENERATED_(9B)
  6
Continuous
 62
     7
100
AcDbLine
 10
239.3030895877
 20
411.8335992244
 30
0.0
 11
239.2600459802
 21
411.803459766
 31
0.0
  0
LINE
  5
DF
330
A2
100
AcDbEntity
  8
$DDT_AUDIT_GENERATED_(9B)
  6
Continuous
 62
     7
100
AcDbLine
 10
238.0675031006
 20
410.9684322521
 30
0.0
 11
238.16768342
 21
411.0385792669
 31
0.0
  0
ELLIPSE
  5
E0
330
A2
100
AcDbEntity
  8
$DDT_AUDIT_GENERATED_(9B)
  6
Continuous
 62
     7
100
AcDbEllipse
 10
238.0816469545
 20
411.1614520736
 30
0.0
 11
-0.0860364654527712
 21
0.122872806643276
 31
0.0
210
0.0
220
0.0
230
1.0
 40
0.984807753
 41
2.707713890131736
 42
3.141592653589793
  0
LINE
  5
E1
330
A2
100
AcDbEntity
  8
$DDT_AUDIT_GENERATED_(9B)
  6
Continuous
 62
     7
100
AcDbLine
 10
247.3545587538
 20
415.0297494507
 30
0.0
 11
240.5867356474
 21
410.2908686944
 31
0.0
  0
LINE
  5
E2
330
A2
100
AcDbEntity
  8
$DDT_AUDIT_GENERATED_(9B)
  6
Continuous
 62
     7
100
AcDbLine
 10
239.191334903
 20
411.7606734474
 30
0.0
 11
240.1689171033
 21
410.3645413768
 31
0.0
  0
ARC
  5
E3
330
A2
100
AcDbEntity
  8
$DDT_AUDIT_GENERATED_(9B)
  6
Continuous
 62
     7
100
AcDbCircle
 10
240.4146627165
 20
410.5366143077
 30
0.0
 40
0.3000000000000063
100
AcDbArc
 50
215.0
 51
305.0
  0
LINE
  5
E5
330
A2
100
AcDbEntity
  8
$DDT_AUDIT_GENERATED_(E4)
  6
Continuous
 62
     7
100
AcDbLine
 10
119.049975
 20
408.7850186233
 30
0.0
 11
119.049975
 21
404.7850186233
 31
0.0
  0
LINE
  5
E6
330
A2
100
AcDbEntity
  8
$DDT_AUDIT_GENERATED_(E4)
  6
Continuous
 62
     7
100
AcDbLine
 10
132.499975
 20
408.7850186233
 30
0.0
 11
119.049975
 21
408.7850186233
 31
0.0
  0
LINE
  5
E7
330
A2
100
AcDbEntity
  8
$DDT_AUDIT_GENERATED_(E4)
  6
Continuous
 62
     7
100
AcDbLine
 10
119.049975
 20
404.7850186233
 30
0.0
 11
132.499975
 21
404.7850186233
 31
0.0
  0
ARC
  5
E8
330
A2
100
AcDbEntity
  8
$DDT_AUDIT_GENERATED_(E4)
  6
Continuous
 62
     7
100
AcDbCircle
 10
132.499975
 20
403.7850186233
 30
0.0
 40
1.000000000000001
100
AcDbArc
 50
18.0
 51
90.0
  0
ARC
  5
E9
330
A2
100
AcDbEntity
  8
$DDT_AUDIT_GENERATED_(E4)
  6
Continuous
 62
     7
100
AcDbCircle
 10
132.499975
 20
403.7850186233
 30
0.0
 40
5.000000000000004
100
AcDbArc
 50
18.0
 51
90.0
  0
LINE
  5
EA
330
A2
100
AcDbEntity
  8
$DDT_AUDIT_GENERATED_(E4)
  6
Continuous
 62
     7
100
AcDbLine
 10
142.2940443174
 20
389.8223126108
 30
0.0
 11
137.2552575815
 21
405.3301035952
 31
0.0
  0
LINE
  5
EB
330
A2
100
AcDbEntity
  8
$DDT_AUDIT_GENERATED_(E4)
  6
Continuous
 62
     7
100
AcDbLine
 10
133.4510315163
 20
404.0940356177
 30
0.0
 11
142.3477393083
 21
376.7127845111
 31
0.0
  0
LINE
  5
ED
330
A2
100
AcDbEntity
  8
$DDT_AUDIT_GENERATED_(EC)
  6
Continuous
 62
     7
100
AcDbLine
 10
141.6351732021
 20
483.3125980771
 30
0.0
 11
141.6351732021
 21
489.5339756237
 31
0.0
  0
ARC
  5
EF
330
A2
100
AcDbEntity
  8
DV2_Standard
  6
Continuous
 62
     7
100
AcDbCircle
 10
203.0669321824
 20
424.2964691851
 30
0.0
 40
22.31683512323229
100
AcDbArc
 50
143.8458389185
 51
216.5549218015
  0
ENDBLK
  5
F1
330
A2
100
AcDbEntity
  8
0
100
AcDbBlockEnd
  0
BLOCK
  5
110
330
F2
100
AcDbEntity
  8
0
100
AcDbBlockBegin
  2
SE2
 70
     0
 10
0.0
 20
0.0
 30
0.0
  3
SE2
  1

  0
LINE
  5
F4
330
F2
100
AcDbEntity
  8
$DDT_AUDIT_GENERATED_(77)
  6
Continuous
 62
     7
100
AcDbLine
 10
18.85
 20
106.35
 30
0.0
 11
43.85
 21
106.35
 31
0.0
  0
ARC
  5
F5
330
F2
100
AcDbEntity
  8
$DDT_AUDIT_GENERATED_(77)
  6
Continuous
 62
     7
100
AcDbCircle
 10
43.85
 20
107.35
 30
0.0
 40
1.000000000000001
100
AcDbArc
 50
270.0
 51
0.0
  0
ARC
  5
F6
330
F2
100
AcDbEntity
  8
$DDT_AUDIT_GENERATED_(77)
  6
Continuous
 62
     7
100
AcDbCircle
 10
18.85
 20
107.35
 30
0.0
 40
1.000000000000001
100
AcDbArc
 50
180.0
 51
270.0
  0
LINE
  5
F7
330
F2
100
AcDbEntity
  8
$DDT_AUDIT_GENERATED_(77)
  6
Continuous
 62
     7
100
AcDbLine
 10
17.85
 20
188.12710456
 30
0.0
 11
17.85
 21
107.35
 31
0.0
  0
LINE
  5
F8
330
F2
100
AcDbEntity
  8
$DDT_AUDIT_GENERATED_(77)
  6
Continuous
 62
     7
100
AcDbLine
 10
44.85
 20
107.35
 30
0.0
 11
44.85
 21
188.12710456
 31
0.0
  0
ARC
  5
F9
330
F2
100
AcDbEntity
  8
$DDT_AUDIT_GENERATED_(77)
  6
Continuous
 62
     7
100
AcDbCircle
 10
7.2105931816
 20
187.6259042312
 30
0.0
 40
10.65073090737556
100
AcDbArc
 50
2.6423451534
 51
20.9344454089
  0
ARC
  5
FA
330
F2
100
AcDbEntity
  8
$DDT_AUDIT_GENERATED_(77)
  6
Continuous
 62
     7
100
AcDbCircle
 10
55.5101138617
 20
187.617178659
 30
0.0
 40
10.67182177793132
100
AcDbArc
 50
159.1959526746
 51
177.315895951
  0
ARC
  5
FB
330
F2
100
AcDbEntity
  8
$DDT_AUDIT_GENERATED_(86)
  6
Continuous
 62
     7
100
AcDbCircle
 10
31.3499080054
 20
208.0500854391
 30
0.0
 40
21.3977602949276
100
AcDbArc
 50
256.1155304115
 51
283.3622839129
  0
ARC
  5
FC
330
F2
100
AcDbEntity
  8
$DDT_AUDIT_GENERATED_(86)
  6
Continuous
 62
     7
100
AcDbCircle
 10
31.351317097
 20
212.6910893647
 30
0.0
 40
18.35973067590858
100
AcDbArc
 50
78.8224601501
 51
101.2367127467
  0
LINE
  5
FD
330
F2
100
AcDbEntity
  8
$DDT_AUDIT_GENERATED_(86)
  6
Continuous
 62
     7
100
AcDbLine
 10
27.098911503
 20
123.0747935074
 30
0.0
 11
35.5962991813
 21
123.0747935074
 31
0.0
  0
ARC
  5
FE
330
F2
100
AcDbEntity
  8
$DDT_AUDIT_GENERATED_(86)
  6
Continuous
 62
     7
100
AcDbCircle
 10
31.35
 20
208.8573540538
 30
0.0
 40
22.49514898356903
100
AcDbArc
 50
0.0
 51
257.651272479
  0
ARC
  5
FF
330
F2
100
AcDbEntity
  8
$DDT_AUDIT_GENERATED_(86)
  6
Continuous
 62
     7
100
AcDbCircle
 10
31.35
 20
208.8573540538
 30
0.0
 40
22.49514898356903
100
AcDbArc
 50
282.3374781626
 51
0.0
  0
LINE
  5
100
330
F2
100
AcDbEntity
  8
$DDT_AUDIT_GENERATED_(86)
  6
Continuous
 62
     7
100
AcDbLine
 10
36.0974085797
 20
123.5747935074
 30
0.0
 11
36.0974085797
 21
186.6290013775
 31
0.0
  0
LINE
  5
101
330
F2
100
AcDbEntity
  8
$DDT_AUDIT_GENERATED_(86)
  6
Continuous
 62
     7
100
AcDbLine
 10
26.5974086113
 20
186.6301725442
 30
0.0
 11
26.5974086113
 21
123.5747935074
 31
0.0
  0
SPLINE
  5
102
330
F2
100
AcDbEntity
  8
$DDT_AUDIT_GENERATED_(86)
  6
Continuous
 62
     7
100
AcDbSpline
210
0.0
220
0.0
230
1.0
 70
     8
 71
     3
 72
    17
 73
    13
 74
     0
 42
0.0000000069783715
 43
0.0000000001
 40
0.4467718429649025
 40
0.4467718429649025
 40
0.4467718429649025
 40
0.4467718429649025
 40
0.5084172535402453
 40
0.5717330035100926
 40
0.622651616119474
 40
0.6686866920602157
 40
0.7140934840143514
 40
0.7650894205709627
 40
0.8237330195760193
 40
0.8870953345829067
 40
0.9538826992794255
 40
1.0
 40
1.0
 40
1.0
 40
1.0
 10
26.19951594173226
 20
187.2620490049527
 30
0.0
 10
26.19950026003954
 20
187.2620596039089
 30
0.0
 10
26.20253412684801
 20
187.260853838632
 30
0.0
 10
26.21911857785827
 20
187.2535080391147
 30
0.0
 10
26.25159340915521
 20
187.2368126240243
 30
0.0
 10
26.29956497930198
 20
187.2074654276461
 30
0.0
 10
26.36297252363751
 20
187.1591090671089
 30
0.0
 10
26.43504035125375
 20
187.0872305791023
 30
0.0
 10
26.5056940354092
 20
186.9891072002818
 30
0.0
 10
26.56198431314314
 20
186.8679311572233
 30
0.0
 10
26.59471013844353
 20
186.741803746141
 30
0.0
 10
26.594422737403
 20
186.6659727927015
 30
0.0
 10
26.59390062032669
 20
186.6295639807579
 30
0.0
  0
SPLINE
  5
103
330
F2
100
AcDbEntity
  8
$DDT_AUDIT_GENERATED_(86)
  6
Continuous
 62
     7
100
AcDbSpline
210
0.0
220
0.0
230
1.0
 70
     8
 71
     3
 72
    18
 73
    14
 74
     0
 42
0.0000000072248958
 43
0.0000000001
 40
0.0
 40
0.0
 40
0.0
 40
0.0
 40
0.0597951737831383
 40
0.1234994218631027
 40
0.1819491142696973
 40
0.23640167997058
 40
0.2855047106004999
 40
0.329286180490976
 40
0.3709470025018565
 40
0.4160407654447452
 40
0.469353261139368
 40
0.5380299717292845
 40
0.5735718021479144
 40
0.5735718021479144
 40
0.5735718021479144
 40
0.5735718021479144
 10
36.09923492774067
 20
186.62770413364
 30
0.0
 10
36.10005075639026
 20
186.6731752768459
 30
0.0
 10
36.10247237227225
 20
186.7527767358738
 30
0.0
 10
36.13719625056174
 20
186.8768973638619
 30
0.0
 10
36.18883674451817
 20
186.9856474400431
 30
0.0
 10
36.25141520863857
 20
187.0751483550973
 30
0.0
 10
36.31655317180755
 20
187.1438173068822
 30
0.0
 10
36.37626082241909
 20
187.1926696090676
 30
0.0
 10
36.42493756827637
 20
187.224953264586
 30
0.0
 10
36.46101760505009
 20
187.2450643183894
 30
0.0
 10
36.4855648238615
 20
187.2568868210039
 30
0.0
 10
36.49479305354619
 20
187.2607495666362
 30
0.0
 10
36.49619653650097
 20
187.2613126983092
 30
0.0
 10
36.49620523604047
 20
187.2613170715326
 30
0.0
  0
ARC
  5
104
330
F2
100
AcDbEntity
  8
$DDT_AUDIT_GENERATED_(86)
  6
Continuous
 62
     7
100
AcDbCircle
 10
27.8098540436
 20
230.4102987829
 30
0.0
 40
0.2873816845211771
100
AcDbArc
 50
87.2394929621
 51
87.4428899442
  0
ARC
  5
105
330
F2
100
AcDbEntity
  8
$DDT_AUDIT_GENERATED_(86)
  6
Continuous
 62
     7
100
AcDbCircle
 10
34.8896702261
 20
230.407944716
 30
0.0
 40
0.2885931502419308
100
AcDbArc
 50
93.1832032064
 51
93.9315209611
  0
ARC
  5
106
330
F2
100
AcDbEntity
  8
$DDT_AUDIT_GENERATED_(86)
  6
Continuous
 62
     7
100
AcDbCircle
 10
35.5974015975
 20
123.5747935134
 30
0.0
 40
0.4999991358192863
100
AcDbArc
 50
269.9983990984
 51
0.2003010325
  0
ARC
  5
107
330
F2
100
AcDbEntity
  8
$DDT_AUDIT_GENERATED_(86)
  6
Continuous
 62
     7
100
AcDbCircle
 10
27.0974103185
 20
123.5747935098
 30
0.0
 40
0.4999997887806251
100
AcDbArc
 50
179.6694687633
 51
270.0003913579
  0
LINE
  5
108
330
F2
100
AcDbEntity
  8
$DDT_AUDIT_GENERATED_(E4)
  6
Continuous
 62
     7
100
AcDbLine
 10
29.35
 20
253.5178616561
 30
0.0
 11
33.35
 21
253.5178616561
 31
0.0
  0
LINE
  5
109
330
F2
100
AcDbEntity
  8
$DDT_AUDIT_GENERATED_(E4)
  6
Continuous
 62
     7
100
AcDbLine
 10
33.35
 20
240.0678616561
 30
0.0
 11
33.35
 21
253.5178616561
 31
0.0
  0
LINE
  5
10A
330
F2
100
AcDbEntity
  8
$DDT_AUDIT_GENERATED_(E4)
  6
Continuous
 62
     7
100
AcDbLine
 10
29.35
 20
253.5178616561
 30
0.0
 11
29.35
 21
240.0678616561
 31
0.0
  0
LINE
  5
10B
330
F2
100
AcDbEntity
  8
$DDT_AUDIT_GENERATED_(E4)
  6
Continuous
 62
     7
100
AcDbLine
 10
29.35
 20
240.0678616561
 30
0.0
 11
29.35
 21
237.2146921072
 31
0.0
  0
LINE
  5
10C
330
F2
100
AcDbEntity
  8
$DDT_AUDIT_GENERATED_(E4)
  6
Continuous
 62
     7
100
AcDbLine
 10
33.35
 20
237.2146921072
 30
0.0
 11
33.35
 21
240.0678616561
 31
0.0
  0
LINE
  5
10D
330
F2
100
AcDbEntity
  8
$DDT_AUDIT_GENERATED_(E4)
  6
Continuous
 62
     7
100
AcDbLine
 10
33.35
 20
231.2634185853
 30
0.0
 11
33.35
 21
237.2146921072
 31
0.0
  0
LINE
  5
10E
330
F2
100
AcDbEntity
  8
$DDT_AUDIT_GENERATED_(E4)
  6
Continuous
 62
     7
100
AcDbLine
 10
29.35
 20
237.2146921072
 30
0.0
 11
29.35
 21
231.2634185853
 31
0.0
  0
LINE
  5
10F
330
F2
100
AcDbEntity
  8
$DDT_AUDIT_GENERATED_(EC)
  6
Continuous
 62
     7
100
AcDbLine
 10
34.7
 20
230.932663454
 30
0.0
 11
28.0
 21
230.932663454
 31
0.0
  0
ENDBLK
  5
111
330
F2
100
AcDbEntity
  8
0
100
AcDbBlockEnd
  0
ENDSEC
  0
SECTION
  2
ENTITIES
  0
INSERT
  5
5F
330
1F
100
AcDbEntity
  8
Default
100
AcDbBlockReference
  2
SEANNOT_GROUP
 10
0.0
 20
0.0
 30
0.0
  0
INSERT
  5
66
330
1F
100
AcDbEntity
  8
Default
100
AcDbBlockReference
  2
SEANNOT_GROUP1
 10
0.0
 20
0.0
 30
0.0
  0
INSERT
  5
6C
330
1F
100
AcDbEntity
  8
Default
100
AcDbBlockReference
  2
SEANNOT_GROUP2
 10
0.0
 20
0.0
 30
0.0
  0
INSERT
  5
76
330
1F
100
AcDbEntity
  8
Default
100
AcDbBlockReference
  2
SE
 10
0.0
 20
0.0
 30
0.0
  0
INSERT
  5
A3
330
1F
100
AcDbEntity
  8
Default
100
AcDbBlockReference
  2
SE1
 10
0.0
 20
0.0
 30
0.0
  0
INSERT
  5
F3
330
1F
100
AcDbEntity
  8
Default
100
AcDbBlockReference
  2
SE2
 10
0.0
 20
0.0
 30
0.0
  0
TEXT
  5
113
330
1F
100
AcDbEntity
  8
Default
  6
Continuous
 62
     7
100
AcDbText
 10
5.9362635081
 20
53.4225120485
 30
0.0
 40
10.0
  1
Grohe AG^J
  7
SEACAD_seiso_ttf
 11
5.9362635081
 21
63.4225120485
 31
0.0
100
AcDbText
 73
     3
  0
TEXT
  5
114
330
1F
100
AcDbEntity
  8
Default
  6
Continuous
 62
     7
100
AcDbText
 10
5.9362635081
 20
37.0588756849
 30
0.0
 40
10.0
  1
 
  7
SEACAD_seiso_ttf
 11
5.9362635081
 21
47.0588756849
 31
0.0
100
AcDbText
 73
     3
  0
TEXT
  5
115
330
1F
100
AcDbEntity
  8
Default
  6
Continuous
 62
     7
100
AcDbText
 10
5.9362635081
 20
20.6952393213
 30
0.0
 40
10.0
  1
ecn: 
  7
SEACAD_seiso_ttf
 11
5.9362635081
 21
30.6952393213
 31
0.0
100
AcDbText
 73
     3
  0
TEXT
  5
116
330
1F
100
AcDbEntity
  8
Default
  6
Continuous
 62
     7
100
AcDbText
 10
5.9362635081
 20
4.3316029576
 30
0.0
 40
10.0
  1
unit: mm
  7
SEACAD_seiso_ttf
 11
5.9362635081
 21
14.3316029576
 31
0.0
100
AcDbText
 73
     3
  0
LINE
  5
117
330
1F
100
AcDbEntity
  8
Default
  6
Continuous
 62
     7
100
AcDbLine
 10
0.0
 20
0.0
 30
0.0
 11
100.0
 21
0.0
 31
0.0
  0
LINE
  5
118
330
1F
100
AcDbEntity
  8
Default
  6
Continuous
 62
     7
100
AcDbLine
 10
0.0
 20
0.0
 30
0.0
 11
0.0
 21
100.0
 31
0.0
  0
TEXT
  5
119
330
1F
100
AcDbEntity
  8
Default
  6
Continuous
 62
     7
100
AcDbText
 10
24.3923665681
 20
-18.2375342018
 30
0.0
 40
10.0
  1
100 mm
  7
SEACAD_seiso_ttf
 11
24.3923665681
 21
-8.2375342018
 31
0.0
100
AcDbText
 73
     3
  0
TEXT
  5
11A
330
1F
100
AcDbEntity
  8
Default
  6
Continuous
 62
     7
100
AcDbText
 10
-7.6150308803
 20
24.6231930421
 30
0.0
 40
10.0
  1
100 mm
 50
90.0
  7
SEACAD_seiso_ttf
 11
-17.6150308803
 21
24.6231930421
 31
0.0
100
AcDbText
 73
     3
  0
TEXT
  5
11B
330
1F
100
AcDbEntity
  8
Default
  6
Continuous
 62
     7
100
AcDbText
 10
28.4878128572
 20
20.0907663715
 30
0.0
 40
10.0
  1
219181
  7
SEACAD_seiso_ttf
 11
28.4878128572
 21
30.0907663715
 31
0.0
100
AcDbText
 73
     3
  0
TEXT
  5
11C
330
1F
100
AcDbEntity
  8
Default
  6
Continuous
 62
     7
100
AcDbText
 10
5.9012241913
 20
36.7242780188
 30
0.0
 40
10.0
  1
3289800E
  7
SEACAD_seiso_ttf
 11
5.9012241913
 21
46.7242780188
 31
0.0
100
AcDbText
 73
     3
  0
ENDSEC
  0
SECTION
  2
OBJECTS
  0
DICTIONARY
  5
C
330
0
100
AcDbDictionary
281
     1
  3
ACAD_GROUP
350
D
  3
ACAD_LAYOUT
350
1A
  3
ACAD_MLEADERSTYLE
350
120
  3
ACAD_MLINESTYLE
350
17
  3
ACAD_PLOTSETTINGS
350
19
  3
ACAD_PLOTSTYLENAME
350
E
  3
ACAD_SCALELIST
350
3B
  3
ACAD_TABLESTYLE
350
11F
  3
ACAD_VISUALSTYLE
350
2A
  3
AcDbVariableDictionary
350
11D
  0
DICTIONARY
  5
D
102
{ACAD_REACTORS
330
C
102
}
330
C
100
AcDbDictionary
281
     1
  0
DICTIONARY
  5
1A
102
{ACAD_REACTORS
330
C
102
}
330
C
100
AcDbDictionary
281
     1
  3
Layout1
350
1E
  3
Model
350
22
  0
DICTIONARY
  5
120
102
{ACAD_REACTORS
330
C
102
}
330
C
100
AcDbDictionary
281
     1
  0
DICTIONARY
  5
17
102
{ACAD_REACTORS
330
C
102
}
330
C
100
AcDbDictionary
281
     1
  3
Standard
350
18
  0
DICTIONARY
  5
19
102
{ACAD_REACTORS
330
C
102
}
330
C
100
AcDbDictionary
281
     1
  0
ACDBDICTIONARYWDFLT
  5
E
102
{ACAD_REACTORS
330
C
102
}
330
C
100
AcDbDictionary
281
     1
  3
Normal
350
F
100
AcDbDictionaryWithDefault
340
F
  0
DICTIONARY
  5
3B
102
{ACAD_REACTORS
330
C
102
}
330
C
100
AcDbDictionary
281
     1
  3
A0
350
3C
  3
A1
350
3D
  3
A2
350
3E
  3
A3
350
3F
  3
A4
350
40
  3
A5
350
41
  3
A6
350
42
  3
A7
350
43
  3
A8
350
44
  3
A9
350
45
  3
B0
350
46
  3
B1
350
47
  3
B2
350
48
  3
B3
350
49
  3
B4
350
4A
  3
B5
350
4B
  3
B6
350
4C
  3
B7
350
4D
  3
B8
350
4E
  3
B9
350
4F
  3
C0
350
50
  3
C1
350
51
  3
C2
350
52
  3
C3
350
53
  3
C4
350
54
  3
C5
350
55
  3
C6
350
56
  3
C7
350
57
  3
C8
350
58
  3
C9
350
59
  3
D0
350
5A
  3
D1
350
5B
  3
D2
350
5C
  0
DICTIONARY
  5
11F
102
{ACAD_REACTORS
330
C
102
}
330
C
100
AcDbDictionary
281
     1
  0
DICTIONARY
  5
2A
102
{ACAD_REACTORS
330
C
102
}
330
C
100
AcDbDictionary
281
     1
  3
2dWireframe
350
2F
  3
3D Hidden
350
31
  3
3dWireframe
350
30
  3
Basic
350
32
  3
Brighten
350
36
  3
ColorChange
350
3A
  3
Conceptual
350
34
  3
Dim
350
35
  3
Facepattern
350
39
  3
Flat
350
2B
  3
FlatWithEdges
350
2C
  3
Gouraud
350
2D
  3
GouraudWithEdges
350
2E
  3
Linepattern
350
38
  3
Realistic
350
33
  3
Thicken
350
37
  0
DICTIONARY
  5
11D
102
{ACAD_REACTORS
330
C
102
}
330
C
100
AcDbDictionary
281
     1
  3
CANNOSCALE
350
11E
  3
PSOLHEIGHT
350
122
  3
PSOLWIDTH
350
121
  0
LAYOUT
  5
1E
102
{ACAD_REACTORS
330
1A
102
}
330
1A
100
AcDbPlotSettings
  1

  2
none_device
  4

  6

 40
0.0
 41
0.0
 42
0.0
 43
0.0
 44
0.0
 45
0.0
 46
0.0
 47
0.0
 48
0.0
 49
0.0
140
0.0
141
0.0
142
1.0
143
1.0
 70
   688
 72
     0
 73
     0
 74
     5
  7

 75
    16
147
1.0
148
0.0
149
0.0
100
AcDbLayout
  1
Layout1
 70
     1
 71
     1
 10
0.0
 20
0.0
 11
1682.0
 21
2378.0
 12
0.0
 22
0.0
 32
0.0
 14
0.0
 24
0.0
 34
0.0
 15
1682.0
 25
2378.0
 35
0.0
146
0.0
 13
0.0
 23
0.0
 33
0.0
 16
1.0
 26
0.0
 36
0.0
 17
0.0
 27
1.0
 37
0.0
 76
     0
330
1B
  0
LAYOUT
  5
22
102
{ACAD_REACTORS
330
1A
102
}
330
1A
100
AcDbPlotSettings
  1

  2
none_device
  4

  6

 40
0.0
 41
0.0
 42
0.0
 43
0.0
 44
0.0
 45
0.0
 46
0.0
 47
0.0
 48
0.0
 49
0.0
140
0.0
141
0.0
142
1.0
143
1.0
 70
  1712
 72
     0
 73
     0
 74
     0
  7

 75
     0
147
1.0
148
0.0
149
0.0
100
AcDbLayout
  1
Model
 70
     1
 71
     0
 10
0.0
 20
0.0
 11
1682.0
 21
2378.0
 12
0.0
 22
0.0
 32
0.0
 14
0.0
 24
0.0
 34
0.0
 15
1682.0
 25
2378.0
 35
0.0
146
0.0
 13
0.0
 23
0.0
 33
0.0
 16
1.0
 26
0.0
 36
0.0
 17
0.0
 27
1.0
 37
0.0
 76
     0
330
1F
331
29
  0
MLINESTYLE
  5
18
102
{ACAD_REACTORS
330
17
102
}
330
17
100
AcDbMlineStyle
  2
Standard
 70
     0
  3

 62
   256
 51
90.0
 52
90.0
 71
     2
 49
0.5
 62
   256
  6
BYLAYER
 49
-0.5
 62
   256
  6
BYLAYER
  0
ACDBPLACEHOLDER
  5
F
102
{ACAD_REACTORS
330
E
102
}
330
E
  0
SCALE
  5
3C
102
{ACAD_REACTORS
330
3B
102
}
330
3B
100
AcDbScale
 70
     0
300
1:1
140
1.0
141
1.0
290
     1
  0
SCALE
  5
3D
102
{ACAD_REACTORS
330
3B
102
}
330
3B
100
AcDbScale
 70
     0
300
1:2
140
1.0
141
2.0
290
     0
  0
SCALE
  5
3E
102
{ACAD_REACTORS
330
3B
102
}
330
3B
100
AcDbScale
 70
     0
300
1:4
140
1.0
141
4.0
290
     0
  0
SCALE
  5
3F
102
{ACAD_REACTORS
330
3B
102
}
330
3B
100
AcDbScale
 70
     0
300
1:5
140
1.0
141
5.0
290
     0
  0
SCALE
  5
40
102
{ACAD_REACTORS
330
3B
102
}
330
3B
100
AcDbScale
 70
     0
300
1:8
140
1.0
141
8.0
290
     0
  0
SCALE
  5
41
102
{ACAD_REACTORS
330
3B
102
}
330
3B
100
AcDbScale
 70
     0
300
1:10
140
1.0
141
10.0
290
     0
  0
SCALE
  5
42
102
{ACAD_REACTORS
330
3B
102
}
330
3B
100
AcDbScale
 70
     0
300
1:16
140
1.0
141
16.0
290
     0
  0
SCALE
  5
43
102
{ACAD_REACTORS
330
3B
102
}
330
3B
100
AcDbScale
 70
     0
300
1:20
140
1.0
141
20.0
290
     0
  0
SCALE
  5
44
102
{ACAD_REACTORS
330
3B
102
}
330
3B
100
AcDbScale
 70
     0
300
1:30
140
1.0
141
30.0
290
     0
  0
SCALE
  5
45
102
{ACAD_REACTORS
330
3B
102
}
330
3B
100
AcDbScale
 70
     0
300
1:40
140
1.0
141
40.0
290
     0
  0
SCALE
  5
46
102
{ACAD_REACTORS
330
3B
102
}
330
3B
100
AcDbScale
 70
     0
300
1:50
140
1.0
141
50.0
290
     0
  0
SCALE
  5
47
102
{ACAD_REACTORS
330
3B
102
}
330
3B
100
AcDbScale
 70
     0
300
1:100
140
1.0
141
100.0
290
     0
  0
SCALE
  5
48
102
{ACAD_REACTORS
330
3B
102
}
330
3B
100
AcDbScale
 70
     0
300
2:1
140
2.0
141
1.0
290
     0
  0
SCALE
  5
49
102
{ACAD_REACTORS
330
3B
102
}
330
3B
100
AcDbScale
 70
     0
300
4:1
140
4.0
141
1.0
290
     0
  0
SCALE
  5
4A
102
{ACAD_REACTORS
330
3B
102
}
330
3B
100
AcDbScale
 70
     0
300
8:1
140
8.0
141
1.0
290
     0
  0
SCALE
  5
4B
102
{ACAD_REACTORS
330
3B
102
}
330
3B
100
AcDbScale
 70
     0
300
10:1
140
10.0
141
1.0
290
     0
  0
SCALE
  5
4C
102
{ACAD_REACTORS
330
3B
102
}
330
3B
100
AcDbScale
 70
     0
300
100:1
140
100.0
141
1.0
290
     0
  0
SCALE
  5
4D
102
{ACAD_REACTORS
330
3B
102
}
330
3B
100
AcDbScale
 70
     0
300
1/128" = 1'-0"
140
0.0078125
141
12.0
290
     0
  0
SCALE
  5
4E
102
{ACAD_REACTORS
330
3B
102
}
330
3B
100
AcDbScale
 70
     0
300
1/64" = 1'-0"
140
0.015625
141
12.0
290
     0
  0
SCALE
  5
4F
102
{ACAD_REACTORS
330
3B
102
}
330
3B
100
AcDbScale
 70
     0
300
1/32" = 1'-0"
140
0.03125
141
12.0
290
     0
  0
SCALE
  5
50
102
{ACAD_REACTORS
330
3B
102
}
330
3B
100
AcDbScale
 70
     0
300
1/16" = 1'-0"
140
0.0625
141
12.0
290
     0
  0
SCALE
  5
51
102
{ACAD_REACTORS
330
3B
102
}
330
3B
100
AcDbScale
 70
     0
300
3/32" = 1'-0"
140
0.09375
141
12.0
290
     0
  0
SCALE
  5
52
102
{ACAD_REACTORS
330
3B
102
}
330
3B
100
AcDbScale
 70
     0
300
1/8" = 1'-0"
140
0.125
141
12.0
290
     0
  0
SCALE
  5
53
102
{ACAD_REACTORS
330
3B
102
}
330
3B
100
AcDbScale
 70
     0
300
3/16" = 1'-0"
140
0.1875
141
12.0
290
     0
  0
SCALE
  5
54
102
{ACAD_REACTORS
330
3B
102
}
330
3B
100
AcDbScale
 70
     0
300
1/4" = 1'-0"
140
0.25
141
12.0
290
     0
  0
SCALE
  5
55
102
{ACAD_REACTORS
330
3B
102
}
330
3B
100
AcDbScale
 70
     0
300
3/8" = 1'-0"
140
0.375
141
12.0
290
     0
  0
SCALE
  5
56
102
{ACAD_REACTORS
330
3B
102
}
330
3B
100
AcDbScale
 70
     0
300
1/2" = 1'-0"
140
0.5
141
12.0
290
     0
  0
SCALE
  5
57
102
{ACAD_REACTORS
330
3B
102
}
330
3B
100
AcDbScale
 70
     0
300
3/4" = 1'-0"
140
0.75
141
12.0
290
     0
  0
SCALE
  5
58
102
{ACAD_REACTORS
330
3B
102
}
330
3B
100
AcDbScale
 70
     0
300
1" = 1'-0"
140
1.0
141
12.0
290
     0
  0
SCALE
  5
59
102
{ACAD_REACTORS
330
3B
102
}
330
3B
100
AcDbScale
 70
     0
300
1-1/2" = 1'-0"
140
1.5
141
12.0
290
     0
  0
SCALE
  5
5A
102
{ACAD_REACTORS
330
3B
102
}
330
3B
100
AcDbScale
 70
     0
300
3" = 1'-0"
140
3.0
141
12.0
290
     0
  0
SCALE
  5
5B
102
{ACAD_REACTORS
330
3B
102
}
330
3B
100
AcDbScale
 70
     0
300
6" = 1'-0"
140
6.0
141
12.0
290
     0
  0
SCALE
  5
5C
102
{ACAD_REACTORS
330
3B
102
}
330
3B
100
AcDbScale
 70
     0
300
1'-0" = 1'-0"
140
12.0
141
12.0
290
     0
  0
VISUALSTYLE
  5
2F
102
{ACAD_REACTORS
330
2A
102
}
330
2A
100
AcDbVisualStyle
  2
2dWireframe
 70
     4
 71
     0
 72
     2
 73
     0
 90
        0
 40
-0.6
 41
-30.0
 62
     5
 63
     7
 74
     1
 91
        4
 64
     7
 65
   257
 75
     1
175
     1
 42
1.0
 92
        0
 66
   257
 43
1.0
 76
     1
 77
     6
 78
     2
 67
     7
 79
     5
170
     0
171
     0
290
     0
174
     0
 93
        1
 44
0.0
173
     0
291
     0
 45
0.0
1001
ACAD
1000
AcDbSavedByObjectVersion
1070
     0
  0
VISUALSTYLE
  5
31
102
{ACAD_REACTORS
330
2A
102
}
330
2A
100
AcDbVisualStyle
  2
3D Hidden
 70
     6
 71
     1
 72
     2
 73
     2
 90
        0
 40
-0.6
 41
-30.0
 62
     5
 63
     7
 74
     2
 91
        2
 64
     7
 65
   257
 75
     2
175
     1
 42
40.0
 92
        0
 66
   257
 43
1.0
 76
     1
 77
     6
 78
     2
 67
     7
 79
     3
170
     0
171
     0
290
     0
174
     0
 93
        1
 44
0.0
173
     0
291
     0
 45
0.0
1001
ACAD
1000
AcDbSavedByObjectVersion
1070
     0
  0
VISUALSTYLE
  5
30
102
{ACAD_REACTORS
330
2A
102
}
330
2A
100
AcDbVisualStyle
  2
3dWireframe
 70
     5
 71
     0
 72
     2
 73
     0
 90
        0
 40
-0.6
 41
-30.0
 62
     5
 63
     7
 74
     1
 91
        4
 64
     7
 65
   257
 75
     1
175
     1
 42
1.0
 92
        0
 66
   257
 43
1.0
 76
     1
 77
     6
 78
     2
 67
     7
 79
     5
170
     0
171
     0
290
     0
174
     0
 93
        1
 44
0.0
173
     0
291
     0
 45
0.0
1001
ACAD
1000
AcDbSavedByObjectVersion
1070
     0
  0
VISUALSTYLE
  5
32
102
{ACAD_REACTORS
330
2A
102
}
330
2A
100
AcDbVisualStyle
  2
Basic
 70
     7
 71
     1
 72
     0
 73
     1
 90
        0
 40
-0.6
 41
-30.0
 62
     5
 63
     7
 74
     0
 91
        4
 64
     7
 65
   257
 75
     1
175
     1
 42
1.0
 92
        8
 66
     7
 43
1.0
 76
     1
 77
     6
 78
     2
 67
     7
 79
     5
170
     0
171
     0
290
     0
174
     0
 93
        1
 44
0.0
173
     0
291
     1
 45
0.0
1001
ACAD
1000
AcDbSavedByObjectVersion
1070
     0
  0
VISUALSTYLE
  5
36
102
{ACAD_REACTORS
330
2A
102
}
330
2A
100
AcDbVisualStyle
  2
Brighten
 70
    12
 71
     2
 72
     2
 73
     0
 90
        0
 40
-0.6
 41
-30.0
 62
     5
 63
     7
 74
     1
 91
        4
 64
     7
 65
   257
 75
     1
175
     1
 42
1.0
 92
        8
 66
     7
 43
1.0
 76
     1
 77
     6
 78
     2
 67
     7
 79
     5
170
     0
171
     0
290
     0
174
     0
 93
        1
 44
50.0
173
     0
291
     1
 45
0.0
1001
ACAD
1000
AcDbSavedByObjectVersion
1070
     0
  0
VISUALSTYLE
  5
3A
102
{ACAD_REACTORS
330
2A
102
}
330
2A
100
AcDbVisualStyle
  2
ColorChange
 70
    16
 71
     2
 72
     2
 73
     3
 90
        0
 40
-0.6
 41
-30.0
 62
     5
 63
     8
 74
     1
 91
        4
 64
     7
 65
   257
 75
     1
175
     1
 42
1.0
 92
        8
 66
     8
 43
1.0
 76
     1
 77
     6
 78
     2
 67
     7
 79
     5
170
     0
171
     0
290
     0
174
     0
 93
        1
 44
0.0
173
     0
291
     1
 45
0.0
1001
ACAD
1000
AcDbSavedByObjectVersion
1070
     0
  0
VISUALSTYLE
  5
34
102
{ACAD_REACTORS
330
2A
102
}
330
2A
100
AcDbVisualStyle
  2
Conceptual
 70
     9
 71
     3
 72
     2
 73
     0
 90
        0
 40
-0.6
 41
-30.0
 62
     5
 63
     7
 74
     2
 91
        2
 64
     7
 65
   257
 75
     1
175
     1
 42
40.0
 92
        8
 66
     7
 43
1.0
 76
     1
 77
     6
 78
     2
 67
     7
 79
     3
170
     0
171
     0
290
     0
174
     0
 93
        1
 44
0.0
173
     0
291
     0
 45
0.0
1001
ACAD
1000
AcDbSavedByObjectVersion
1070
     0
  0
VISUALSTYLE
  5
35
102
{ACAD_REACTORS
330
2A
102
}
330
2A
100
AcDbVisualStyle
  2
Dim
 70
    11
 71
     2
 72
     2
 73
     0
 90
        0
 40
-0.6
 41
-30.0
 62
     5
 63
     7
 74
     1
 91
        4
 64
     7
 65
   257
 75
     1
175
     1
 42
1.0
 92
        8
 66
     7
 43
1.0
 76
     1
 77
     6
 78
     2
 67
     7
 79
     5
170
     0
171
     0
290
     0
174
     0
 93
        1
 44
-50.0
173
     0
291
     1
 45
0.0
1001
ACAD
1000
AcDbSavedByObjectVersion
1070
     0
  0
VISUALSTYLE
  5
39
102
{ACAD_REACTORS
330
2A
102
}
330
2A
100
AcDbVisualStyle
  2
Facepattern
 70
    15
 71
     2
 72
     2
 73
     0
 90
        0
 40
-0.6
 41
-30.0
 62
     5
 63
     7
 74
     1
 91
        4
 64
     7
 65
   257
 75
     1
175
     1
 42
1.0
 92
        8
 66
     7
 43
1.0
 76
     1
 77
     6
 78
     2
 67
     7
 79
     5
170
     0
171
     0
290
     0
174
     0
 93
        1
 44
0.0
173
     0
291
     1
 45
0.0
1001
ACAD
1000
AcDbSavedByObjectVersion
1070
     0
  0
VISUALSTYLE
  5
2B
102
{ACAD_REACTORS
330
2A
102
}
330
2A
100
AcDbVisualStyle
  2
Flat
 70
     0
 71
     2
 72
     1
 73
     1
 90
        2
 40
-0.6
 41
30.0
 62
     5
 63
     7
 74
     0
 91
        4
 64
     7
 65
   257
 75
     1
175
     1
 42
1.0
 92
        8
 66
     7
 43
1.0
 76
     1
 77
     6
 78
     2
 67
     7
 79
     5
170
     0
171
     0
290
     0
174
     0
 93
       13
 44
0.0
173
     0
291
     1
 45
0.0
1001
ACAD
1000
AcDbSavedByObjectVersion
1070
     0
  0
VISUALSTYLE
  5
2C
102
{ACAD_REACTORS
330
2A
102
}
330
2A
100
AcDbVisualStyle
  2
FlatWithEdges
 70
     1
 71
     2
 72
     1
 73
     1
 90
        2
 40
-0.6
 41
30.0
 62
     5
 63
     7
 74
     1
 91
        4
 64
     7
 65
   257
 75
     1
175
     1
 42
1.0
 92
        0
 66
   257
 43
1.0
 76
     1
 77
     6
 78
     2
 67
     7
 79
     5
170
     0
171
     0
290
     0
174
     0
 93
       13
 44
0.0
173
     0
291
     1
 45
0.0
1001
ACAD
1000
AcDbSavedByObjectVersion
1070
     0
  0
VISUALSTYLE
  5
2D
102
{ACAD_REACTORS
330
2A
102
}
330
2A
100
AcDbVisualStyle
  2
Gouraud
 70
     2
 71
     2
 72
     2
 73
     1
 90
        2
 40
-0.6
 41
30.0
 62
     5
 63
     7
 74
     0
 91
        4
 64
     7
 65
   257
 75
     1
175
     1
 42
1.0
 92
        0
 66
     7
 43
1.0
 76
     1
 77
     6
 78
     2
 67
     7
 79
     5
170
     0
171
     0
290
     0
174
     0
 93
       13
 44
0.0
173
     0
291
     1
 45
0.0
1001
ACAD
1000
AcDbSavedByObjectVersion
1070
     0
  0
VISUALSTYLE
  5
2E
102
{ACAD_REACTORS
330
2A
102
}
330
2A
100
AcDbVisualStyle
  2
GouraudWithEdges
 70
     3
 71
     2
 72
     2
 73
     1
 90
        2
 40
-0.6
 41
30.0
 62
     5
 63
     7
 74
     1
 91
        4
 64
     7
 65
   257
 75
     1
175
     1
 42
1.0
 92
        0
 66
   257
 43
1.0
 76
     1
 77
     6
 78
     2
 67
     7
 79
     5
170
     0
171
     0
290
     0
174
     0
 93
       13
 44
0.0
173
     0
291
     1
 45
0.0
1001
ACAD
1000
AcDbSavedByObjectVersion
1070
     0
  0
VISUALSTYLE
  5
38
102
{ACAD_REACTORS
330
2A
102
}
330
2A
100
AcDbVisualStyle
  2
Linepattern
 70
    14
 71
     2
 72
     2
 73
     0
 90
        0
 40
-0.6
 41
-30.0
 62
     5
 63
     7
 74
     1
 91
        4
 64
     7
 65
   257
 75
     7
175
     7
 42
1.0
 92
        8
 66
     7
 43
1.0
 76
     1
 77
     6
 78
     2
 67
     7
 79
     5
170
     0
171
     0
290
     0
174
     0
 93
        1
 44
0.0
173
     0
291
     1
 45
0.0
1001
ACAD
1000
AcDbSavedByObjectVersion
1070
     0
  0
VISUALSTYLE
  5
33
102
{ACAD_REACTORS
330
2A
102
}
330
2A
100
AcDbVisualStyle
  2
Realistic
 70
     8
 71
     2
 72
     2
 73
     0
 90
        0
 40
-0.6
 41
-30.0
 62
     5
 63
     7
 74
     1
 91
        0
 64
     7
 65
   257
 75
     1
175
     1
 42
1.0
 92
        8
 66
     8
 43
1.0
 76
     1
 77
     6
 78
     2
 67
     7
 79
     5
170
     0
171
     0
290
     0
174
     0
 93
       13
 44
0.0
173
     0
291
     0
 45
0.0
1001
ACAD
1000
AcDbSavedByObjectVersion
1070
     0
  0
VISUALSTYLE
  5
37
102
{ACAD_REACTORS
330
2A
102
}
330
2A
100
AcDbVisualStyle
  2
Thicken
 70
    13
 71
     2
 72
     2
 73
     0
 90
        0
 40
-0.6
 41
-30.0
 62
     5
 63
     7
 74
     1
 91
        4
 64
     7
 65
   257
 75
     1
175
     1
 42
1.0
 92
       12
 66
     7
 43
1.0
 76
     1
 77
     6
 78
     2
 67
     7
 79
     5
170
     0
171
     0
290
     0
174
     0
 93
        1
 44
0.0
173
     0
291
     1
 45
0.0
1001
ACAD
1000
AcDbSavedByObjectVersion
1070
     0
  0
DICTIONARYVAR
  5
11E
102
{ACAD_REACTORS
330
11D
102
}
330
11D
100
DictionaryVariables
280
     0
  1
1:1
  0
DICTIONARYVAR
  5
122
102
{ACAD_REACTORS
330
11D
102
}
330
11D
100
DictionaryVariables
280
     0
  1
80.000000
  0
DICTIONARYVAR
  5
121
102
{ACAD_REACTORS
330
11D
102
}
330
11D
100
DictionaryVariables
280
     0
  1
5.000000
  0
ENDSEC
  0
EOF
