999
Converted by 3D Exploration 
999
XDimension Software, LLC
999
http://www.xdsoft.com/explorer/
0
SECTION
2
HEADER
9
$ACADVER
1
AC1008
9
$UCSORG
10
0.0
20
0.0
30
0.0
9
$UCSXDIR
10
1.0
20
0.0
30
0.0
9
$TILEMODE
70
1
9
$UCSYDIR
10
0.0
20
1.0
30
0.0
9
$EXTMIN
10
-35.000000
20
-263.572998
30
-263.572998
9
$EXTMAX
10
167.470993
20
63.573002
30
293.399994
0
ENDSEC
0
SECTION
2
TABLES
0
TABLE
2
LTYPE
70
1
0
LTYPE
2
CONTINUOUS
70
64
3
Solid line
72
65
73
0
40
0.0
0
ENDTAB
0
TABLE
2
LAYER
70
174
0
LAYER
2
OBJECT__0
70
0
62
253
6
CONTINUOUS
0
LAYER
2
OBJECT__1
70
0
62
253
6
CONTINUOUS
0
LAYER
2
OBJECT__3
70
0
62
253
6
CONTINUOUS
0
LAYER
2
OBJECT__4
70
0
62
253
6
CONTINUOUS
0
LAYER
2
OBJECT__6
70
0
62
253
6
CONTINUOUS
0
LAYER
2
OBJECT__7
70
0
62
253
6
CONTINUOUS
0
LAYER
2
OBJECT__9
70
0
62
253
6
CONTINUOUS
0
LAYER
2
OBJECT__10
70
0
62
253
6
CONTINUOUS
0
LAYER
2
OBJECT__11
70
0
62
253
6
CONTINUOUS
0
LAYER
2
OBJECT__12
70
0
62
253
6
CONTINUOUS
0
LAYER
2
OBJECT__13
70
0
62
253
6
CONTINUOUS
0
LAYER
2
OBJECT__14
70
0
62
253
6
CONTINUOUS
0
LAYER
2
OBJECT__15
70
0
62
253
6
CONTINUOUS
0
LAYER
2
OBJECT__16
70
0
62
253
6
CONTINUOUS
0
LAYER
2
OBJECT__17
70
0
62
253
6
CONTINUOUS
0
LAYER
2
OBJECT__18
70
0
62
253
6
CONTINUOUS
0
LAYER
2
OBJECT__19
70
0
62
253
6
CONTINUOUS
0
LAYER
2
OBJECT__20
70
0
62
253
6
CONTINUOUS
0
LAYER
2
OBJECT__21
70
0
62
253
6
CONTINUOUS
0
LAYER
2
OBJECT__22
70
0
62
253
6
CONTINUOUS
0
LAYER
2
OBJECT__23
70
0
62
253
6
CONTINUOUS
0
LAYER
2
OBJECT__24
70
0
62
253
6
CONTINUOUS
0
LAYER
2
OBJECT__25
70
0
62
253
6
CONTINUOUS
0
LAYER
2
OBJECT__26
70
0
62
253
6
CONTINUOUS
0
LAYER
2
OBJECT__27
70
0
62
253
6
CONTINUOUS
0
LAYER
2
OBJECT__28
70
0
62
253
6
CONTINUOUS
0
LAYER
2
OBJECT__29
70
0
62
253
6
CONTINUOUS
0
LAYER
2
OBJECT__30
70
0
62
253
6
CONTINUOUS
0
LAYER
2
OBJECT__31
70
0
62
253
6
CONTINUOUS
0
LAYER
2
OBJECT__32
70
0
62
253
6
CONTINUOUS
0
LAYER
2
OBJECT__33
70
0
62
253
6
CONTINUOUS
0
LAYER
2
OBJECT__34
70
0
62
253
6
CONTINUOUS
0
LAYER
2
OBJECT__35
70
0
62
253
6
CONTINUOUS
0
LAYER
2
OBJECT__36
70
0
62
253
6
CONTINUOUS
0
LAYER
2
OBJECT__37
70
0
62
253
6
CONTINUOUS
0
LAYER
2
OBJECT__39
70
0
62
253
6
CONTINUOUS
0
LAYER
2
OBJECT__40
70
0
62
253
6
CONTINUOUS
0
LAYER
2
OBJECT__42
70
0
62
253
6
CONTINUOUS
0
LAYER
2
OBJECT__43
70
0
62
253
6
CONTINUOUS
0
LAYER
2
OBJECT__44
70
0
62
253
6
CONTINUOUS
0
LAYER
2
OBJECT__45
70
0
62
253
6
CONTINUOUS
0
LAYER
2
OBJECT__46
70
0
62
253
6
CONTINUOUS
0
LAYER
2
OBJECT__47
70
0
62
253
6
CONTINUOUS
0
LAYER
2
OBJECT__48
70
0
62
253
6
CONTINUOUS
0
LAYER
2
OBJECT__49
70
0
62
253
6
CONTINUOUS
0
LAYER
2
OBJECT__50
70
0
62
253
6
CONTINUOUS
0
LAYER
2
OBJECT__51
70
0
62
253
6
CONTINUOUS
0
LAYER
2
OBJECT__53
70
0
62
253
6
CONTINUOUS
0
LAYER
2
OBJECT__54
70
0
62
253
6
CONTINUOUS
0
LAYER
2
OBJECT__55
70
0
62
253
6
CONTINUOUS
0
LAYER
2
OBJECT__56
70
0
62
253
6
CONTINUOUS
0
LAYER
2
OBJECT__57
70
0
62
253
6
CONTINUOUS
0
LAYER
2
OBJECT__58
70
0
62
253
6
CONTINUOUS
0
LAYER
2
OBJECT__60
70
0
62
253
6
CONTINUOUS
0
LAYER
2
OBJECT__61
70
0
62
253
6
CONTINUOUS
0
LAYER
2
OBJECT__63
70
0
62
253
6
CONTINUOUS
0
LAYER
2
OBJECT__64
70
0
62
253
6
CONTINUOUS
0
LAYER
2
OBJECT__66
70
0
62
253
6
CONTINUOUS
0
LAYER
2
OBJECT__67
70
0
62
253
6
CONTINUOUS
0
LAYER
2
OBJECT__68
70
0
62
253
6
CONTINUOUS
0
LAYER
2
OBJECT__69
70
0
62
253
6
CONTINUOUS
0
LAYER
2
OBJECT__70
70
0
62
253
6
CONTINUOUS
0
LAYER
2
OBJECT__71
70
0
62
253
6
CONTINUOUS
0
LAYER
2
OBJECT__73
70
0
62
253
6
CONTINUOUS
0
LAYER
2
OBJECT__74
70
0
62
253
6
CONTINUOUS
0
LAYER
2
OBJECT__75
70
0
62
253
6
CONTINUOUS
0
LAYER
2
OBJECT__76
70
0
62
253
6
CONTINUOUS
0
LAYER
2
OBJECT__77
70
0
62
253
6
CONTINUOUS
0
LAYER
2
OBJECT__78
70
0
62
253
6
CONTINUOUS
0
LAYER
2
OBJECT__80
70
0
62
253
6
CONTINUOUS
0
LAYER
2
OBJECT__81
70
0
62
253
6
CONTINUOUS
0
LAYER
2
OBJECT__82
70
0
62
253
6
CONTINUOUS
0
LAYER
2
OBJECT__83
70
0
62
253
6
CONTINUOUS
0
LAYER
2
OBJECT__84
70
0
62
253
6
CONTINUOUS
0
LAYER
2
OBJECT__85
70
0
62
253
6
CONTINUOUS
0
LAYER
2
OBJECT__86
70
0
62
253
6
CONTINUOUS
0
LAYER
2
OBJECT__87
70
0
62
253
6
CONTINUOUS
0
LAYER
2
OBJECT__88
70
0
62
253
6
CONTINUOUS
0
LAYER
2
OBJECT__89
70
0
62
253
6
CONTINUOUS
0
LAYER
2
OBJECT__90
70
0
62
253
6
CONTINUOUS
0
LAYER
2
OBJECT__91
70
0
62
253
6
CONTINUOUS
0
LAYER
2
OBJECT__92
70
0
62
253
6
CONTINUOUS
0
LAYER
2
OBJECT__93
70
0
62
253
6
CONTINUOUS
0
LAYER
2
OBJECT__94
70
0
62
253
6
CONTINUOUS
0
LAYER
2
OBJECT__95
70
0
62
253
6
CONTINUOUS
0
LAYER
2
OBJECT__96
70
0
62
253
6
CONTINUOUS
0
LAYER
2
OBJECT__97
70
0
62
253
6
CONTINUOUS
0
LAYER
2
OBJECT__98
70
0
62
253
6
CONTINUOUS
0
LAYER
2
OBJECT__99
70
0
62
253
6
CONTINUOUS
0
LAYER
2
OBJECT__100
70
0
62
253
6
CONTINUOUS
0
LAYER
2
OBJECT__101
70
0
62
253
6
CONTINUOUS
0
LAYER
2
OBJECT__102
70
0
62
253
6
CONTINUOUS
0
LAYER
2
OBJECT__103
70
0
62
253
6
CONTINUOUS
0
LAYER
2
OBJECT__104
70
0
62
253
6
CONTINUOUS
0
LAYER
2
OBJECT__105
70
0
62
253
6
CONTINUOUS
0
LAYER
2
OBJECT__106
70
0
62
253
6
CONTINUOUS
0
LAYER
2
OBJECT__107
70
0
62
253
6
CONTINUOUS
0
LAYER
2
OBJECT__108
70
0
62
253
6
CONTINUOUS
0
LAYER
2
OBJECT__110
70
0
62
253
6
CONTINUOUS
0
LAYER
2
OBJECT__111
70
0
62
253
6
CONTINUOUS
0
LAYER
2
OBJECT__112
70
0
62
253
6
CONTINUOUS
0
LAYER
2
OBJECT__113
70
0
62
253
6
CONTINUOUS
0
LAYER
2
OBJECT__114
70
0
62
253
6
CONTINUOUS
0
LAYER
2
OBJECT__115
70
0
62
253
6
CONTINUOUS
0
LAYER
2
OBJECT__116
70
0
62
253
6
CONTINUOUS
0
LAYER
2
OBJECT__117
70
0
62
253
6
CONTINUOUS
0
LAYER
2
OBJECT__118
70
0
62
253
6
CONTINUOUS
0
LAYER
2
OBJECT__119
70
0
62
253
6
CONTINUOUS
0
LAYER
2
OBJECT__120
70
0
62
253
6
CONTINUOUS
0
LAYER
2
OBJECT__121
70
0
62
253
6
CONTINUOUS
0
LAYER
2
OBJECT__122
70
0
62
253
6
CONTINUOUS
0
LAYER
2
OBJECT__123
70
0
62
253
6
CONTINUOUS
0
LAYER
2
OBJECT__124
70
0
62
253
6
CONTINUOUS
0
LAYER
2
OBJECT__125
70
0
62
253
6
CONTINUOUS
0
LAYER
2
OBJECT__126
70
0
62
253
6
CONTINUOUS
0
LAYER
2
OBJECT__127
70
0
62
253
6
CONTINUOUS
0
LAYER
2
OBJECT__128
70
0
62
253
6
CONTINUOUS
0
LAYER
2
OBJECT__129
70
0
62
253
6
CONTINUOUS
0
LAYER
2
OBJECT__130
70
0
62
253
6
CONTINUOUS
0
LAYER
2
OBJECT__131
70
0
62
253
6
CONTINUOUS
0
LAYER
2
OBJECT__132
70
0
62
253
6
CONTINUOUS
0
LAYER
2
OBJECT__133
70
0
62
253
6
CONTINUOUS
0
LAYER
2
OBJECT__134
70
0
62
253
6
CONTINUOUS
0
LAYER
2
OBJECT__135
70
0
62
253
6
CONTINUOUS
0
LAYER
2
OBJECT__136
70
0
62
253
6
CONTINUOUS
0
LAYER
2
OBJECT__137
70
0
62
253
6
CONTINUOUS
0
LAYER
2
OBJECT__138
70
0
62
253
6
CONTINUOUS
0
LAYER
2
OBJECT__139
70
0
62
253
6
CONTINUOUS
0
LAYER
2
OBJECT__140
70
0
62
253
6
CONTINUOUS
0
LAYER
2
OBJECT__141
70
0
62
253
6
CONTINUOUS
0
LAYER
2
OBJECT__142
70
0
62
253
6
CONTINUOUS
0
LAYER
2
OBJECT__143
70
0
62
253
6
CONTINUOUS
0
LAYER
2
OBJECT__144
70
0
62
253
6
CONTINUOUS
0
LAYER
2
OBJECT__145
70
0
62
253
6
CONTINUOUS
0
LAYER
2
OBJECT__146
70
0
62
253
6
CONTINUOUS
0
LAYER
2
OBJECT__147
70
0
62
253
6
CONTINUOUS
0
LAYER
2
OBJECT__148
70
0
62
253
6
CONTINUOUS
0
LAYER
2
OBJECT__149
70
0
62
253
6
CONTINUOUS
0
LAYER
2
OBJECT__150
70
0
62
253
6
CONTINUOUS
0
LAYER
2
OBJECT__151
70
0
62
253
6
CONTINUOUS
0
LAYER
2
OBJECT__152
70
0
62
253
6
CONTINUOUS
0
LAYER
2
OBJECT__153
70
0
62
253
6
CONTINUOUS
0
LAYER
2
OBJECT__154
70
0
62
253
6
CONTINUOUS
0
LAYER
2
OBJECT__155
70
0
62
253
6
CONTINUOUS
0
LAYER
2
OBJECT__156
70
0
62
253
6
CONTINUOUS
0
LAYER
2
OBJECT__157
70
0
62
253
6
CONTINUOUS
0
LAYER
2
OBJECT__158
70
0
62
253
6
CONTINUOUS
0
LAYER
2
OBJECT__159
70
0
62
253
6
CONTINUOUS
0
LAYER
2
OBJECT__160
70
0
62
253
6
CONTINUOUS
0
LAYER
2
OBJECT__161
70
0
62
253
6
CONTINUOUS
0
LAYER
2
OBJECT__162
70
0
62
253
6
CONTINUOUS
0
LAYER
2
OBJECT__163
70
0
62
253
6
CONTINUOUS
0
LAYER
2
OBJECT__164
70
0
62
253
6
CONTINUOUS
0
LAYER
2
OBJECT__165
70
0
62
253
6
CONTINUOUS
0
LAYER
2
OBJECT__166
70
0
62
253
6
CONTINUOUS
0
LAYER
2
OBJECT__167
70
0
62
253
6
CONTINUOUS
0
LAYER
2
OBJECT__168
70
0
62
253
6
CONTINUOUS
0
LAYER
2
OBJECT__169
70
0
62
253
6
CONTINUOUS
0
LAYER
2
OBJECT__170
70
0
62
253
6
CONTINUOUS
0
LAYER
2
OBJECT__171
70
0
62
253
6
CONTINUOUS
0
LAYER
2
OBJECT__172
70
0
62
253
6
CONTINUOUS
0
LAYER
2
OBJECT__173
70
0
62
253
6
CONTINUOUS
0
ENDTAB
0
TABLE
2
STYLE
70
1
0
STYLE
2
STANDARD
70
0
40
0.0
41
1.0
50
0.0
71
0
42
0.2
3
txt
4
1
0
ENDTAB
0
TABLE
2
UCS
70
0
0
ENDTAB
0
ENDSEC
0
SECTION
2
ENTITIES
0
POLYLINE
8
OBJECT__0
66
1
70
64
71
31
72
31
62
253
0
VERTEX
8
OBJECT__0
10
24.205999
20
-210.026001
30
71.800003
70
192
0
VERTEX
8
OBJECT__0
10
14.361000
20
-204.666000
30
71.800003
70
192
0
VERTEX
8
OBJECT__0
10
11.221000
20
-210.104004
30
71.800003
70
192
0
VERTEX
8
OBJECT__0
10
26.200001
20
-200.000000
30
71.800003
70
192
0
VERTEX
8
OBJECT__0
10
15.017000
20
-198.421997
30
71.800003
70
192
0
VERTEX
8
OBJECT__0
10
24.205999
20
-189.973999
30
71.800003
70
192
0
VERTEX
8
OBJECT__0
10
13.077000
20
-192.449997
30
71.800003
70
192
0
VERTEX
8
OBJECT__0
10
18.525999
20
-181.473999
30
71.800003
70
192
0
VERTEX
8
OBJECT__0
10
8.876000
20
-187.783997
30
71.800003
70
192
0
VERTEX
8
OBJECT__0
10
10.026000
20
-175.794006
30
71.800003
70
192
0
VERTEX
8
OBJECT__0
10
3.139000
20
-185.229996
30
71.800003
70
192
0
VERTEX
8
OBJECT__0
10
-10.026000
20
-175.794006
30
71.800003
70
192
0
VERTEX
8
OBJECT__0
10
-18.525999
20
-181.473999
30
71.800003
70
192
0
VERTEX
8
OBJECT__0
10
-8.876000
20
-187.783997
30
71.800003
70
192
0
VERTEX
8
OBJECT__0
10
-24.205999
20
-189.973999
30
71.800003
70
192
0
VERTEX
8
OBJECT__0
10
-13.077000
20
-192.449997
30
71.800003
70
192
0
VERTEX
8
OBJECT__0
10
0.000000
20
-173.800003
30
71.800003
70
192
0
VERTEX
8
OBJECT__0
10
-3.139000
20
-185.229996
30
71.800003
70
192
0
VERTEX
8
OBJECT__0
10
-26.200001
20
-200.000000
30
71.800003
70
192
0
VERTEX
8
OBJECT__0
10
-15.017000
20
-198.421997
30
71.800003
70
192
0
VERTEX
8
OBJECT__0
10
-24.205999
20
-210.026001
30
71.800003
70
192
0
VERTEX
8
OBJECT__0
10
-14.361000
20
-204.666000
30
71.800003
70
192
0
VERTEX
8
OBJECT__0
10
-18.525999
20
-218.526001
30
71.800003
70
192
0
VERTEX
8
OBJECT__0
10
-11.221000
20
-210.104004
30
71.800003
70
192
0
VERTEX
8
OBJECT__0
10
-10.026000
20
-224.205994
30
71.800003
70
192
0
VERTEX
8
OBJECT__0
10
-6.142000
20
-213.794998
30
71.800003
70
192
0
VERTEX
8
OBJECT__0
10
0.000000
20
-226.199997
30
71.800003
70
192
0
VERTEX
8
OBJECT__0
10
0.000000
20
-215.100006
30
71.800003
70
192
0
VERTEX
8
OBJECT__0
10
18.525999
20
-218.526001
30
71.800003
70
192
0
VERTEX
8
OBJECT__0
10
6.142000
20
-213.794998
30
71.800003
70
192
0
VERTEX
8
OBJECT__0
10
10.026000
20
-224.205994
30
71.800003
70
192
0
VERTEX
8
OBJECT__0
10
0
20
0
30
0
70
128
71
1
72
2
73
3
0
VERTEX
8
OBJECT__0
10
0
20
0
30
0
70
128
71
4
72
5
73
2
0
VERTEX
8
OBJECT__0
10
0
20
0
30
0
70
128
71
2
72
1
73
4
0
VERTEX
8
OBJECT__0
10
0
20
0
30
0
70
128
71
6
72
7
73
5
0
VERTEX
8
OBJECT__0
10
0
20
0
30
0
70
128
71
8
72
9
73
7
0
VERTEX
8
OBJECT__0
10
0
20
0
30
0
70
128
71
10
72
11
73
9
0
VERTEX
8
OBJECT__0
10
0
20
0
30
0
70
128
71
12
72
13
73
14
0
VERTEX
8
OBJECT__0
10
0
20
0
30
0
70
128
71
13
72
15
73
16
0
VERTEX
8
OBJECT__0
10
0
20
0
30
0
70
128
71
5
72
4
73
6
0
VERTEX
8
OBJECT__0
10
0
20
0
30
0
70
128
71
9
72
8
73
10
0
VERTEX
8
OBJECT__0
10
0
20
0
30
0
70
128
71
17
72
12
73
18
0
VERTEX
8
OBJECT__0
10
0
20
0
30
0
70
128
71
16
72
14
73
13
0
VERTEX
8
OBJECT__0
10
0
20
0
30
0
70
128
71
15
72
19
73
20
0
VERTEX
8
OBJECT__0
10
0
20
0
30
0
70
128
71
7
72
6
73
8
0
VERTEX
8
OBJECT__0
10
0
20
0
30
0
70
128
71
11
72
10
73
17
0
VERTEX
8
OBJECT__0
10
0
20
0
30
0
70
128
71
20
72
16
73
15
0
VERTEX
8
OBJECT__0
10
0
20
0
30
0
70
128
71
19
72
21
73
22
0
VERTEX
8
OBJECT__0
10
0
20
0
30
0
70
128
71
21
72
23
73
24
0
VERTEX
8
OBJECT__0
10
0
20
0
30
0
70
128
71
23
72
25
73
26
0
VERTEX
8
OBJECT__0
10
0
20
0
30
0
70
128
71
18
72
11
73
17
0
VERTEX
8
OBJECT__0
10
0
20
0
30
0
70
128
71
22
72
20
73
19
0
VERTEX
8
OBJECT__0
10
0
20
0
30
0
70
128
71
26
72
24
73
23
0
VERTEX
8
OBJECT__0
10
0
20
0
30
0
70
128
71
25
72
27
73
28
0
VERTEX
8
OBJECT__0
10
0
20
0
30
0
70
128
71
29
72
3
73
30
0
VERTEX
8
OBJECT__0
10
0
20
0
30
0
70
128
71
14
72
18
73
12
0
VERTEX
8
OBJECT__0
10
0
20
0
30
0
70
128
71
28
72
26
73
25
0
VERTEX
8
OBJECT__0
10
0
20
0
30
0
70
128
71
30
72
31
73
29
0
VERTEX
8
OBJECT__0
10
0
20
0
30
0
70
128
71
24
72
22
73
21
0
VERTEX
8
OBJECT__0
10
0
20
0
30
0
70
128
71
3
72
29
73
1
0
VERTEX
8
OBJECT__0
10
0
20
0
30
0
70
128
71
30
72
28
73
31
0
VERTEX
8
OBJECT__0
10
0
20
0
30
0
70
128
71
28
72
27
73
31
0
SEQEND
8
OBJECT__0
0
POLYLINE
8
OBJECT__1
66
1
70
64
71
32
72
32
62
253
0
VERTEX
8
OBJECT__1
10
10.026000
20
-224.205994
30
70.800003
70
192
0
VERTEX
8
OBJECT__1
10
10.026000
20
-224.205994
30
71.800003
70
192
0
VERTEX
8
OBJECT__1
10
0.000000
20
-226.199997
30
71.800003
70
192
0
VERTEX
8
OBJECT__1
10
18.525999
20
-218.526001
30
70.800003
70
192
0
VERTEX
8
OBJECT__1
10
18.525999
20
-218.526001
30
71.800003
70
192
0
VERTEX
8
OBJECT__1
10
24.205999
20
-210.026001
30
70.800003
70
192
0
VERTEX
8
OBJECT__1
10
24.205999
20
-210.026001
30
71.800003
70
192
0
VERTEX
8
OBJECT__1
10
26.200001
20
-200.000000
30
70.800003
70
192
0
VERTEX
8
OBJECT__1
10
26.200001
20
-200.000000
30
71.800003
70
192
0
VERTEX
8
OBJECT__1
10
24.205999
20
-189.973999
30
70.800003
70
192
0
VERTEX
8
OBJECT__1
10
24.205999
20
-189.973999
30
71.800003
70
192
0
VERTEX
8
OBJECT__1
10
18.525999
20
-181.473999
30
70.800003
70
192
0
VERTEX
8
OBJECT__1
10
18.525999
20
-181.473999
30
71.800003
70
192
0
VERTEX
8
OBJECT__1
10
10.026000
20
-175.794006
30
70.800003
70
192
0
VERTEX
8
OBJECT__1
10
10.026000
20
-175.794006
30
71.800003
70
192
0
VERTEX
8
OBJECT__1
10
0.000000
20
-173.800003
30
70.800003
70
192
0
VERTEX
8
OBJECT__1
10
0.000000
20
-173.800003
30
71.800003
70
192
0
VERTEX
8
OBJECT__1
10
-10.026000
20
-175.794006
30
70.800003
70
192
0
VERTEX
8
OBJECT__1
10
-10.026000
20
-175.794006
30
71.800003
70
192
0
VERTEX
8
OBJECT__1
10
-18.525999
20
-181.473999
30
71.800003
70
192
0
VERTEX
8
OBJECT__1
10
-24.205999
20
-189.973999
30
71.800003
70
192
0
VERTEX
8
OBJECT__1
10
-18.525999
20
-181.473999
30
70.800003
70
192
0
VERTEX
8
OBJECT__1
10
-26.200001
20
-200.000000
30
71.800003
70
192
0
VERTEX
8
OBJECT__1
10
-24.205999
20
-189.973999
30
70.800003
70
192
0
VERTEX
8
OBJECT__1
10
-24.205999
20
-210.026001
30
71.800003
70
192
0
VERTEX
8
OBJECT__1
10
-26.200001
20
-200.000000
30
70.800003
70
192
0
VERTEX
8
OBJECT__1
10
-18.525999
20
-218.526001
30
71.800003
70
192
0
VERTEX
8
OBJECT__1
10
-24.205999
20
-210.026001
30
70.800003
70
192
0
VERTEX
8
OBJECT__1
10
-10.026000
20
-224.205994
30
71.800003
70
192
0
VERTEX
8
OBJECT__1
10
-18.525999
20
-218.526001
30
70.800003
70
192
0
VERTEX
8
OBJECT__1
10
0.000000
20
-226.199997
30
70.800003
70
192
0
VERTEX
8
OBJECT__1
10
-10.026000
20
-224.205994
30
70.800003
70
192
0
VERTEX
8
OBJECT__1
10
0
20
0
30
0
70
128
71
1
72
2
73
3
0
VERTEX
8
OBJECT__1
10
0
20
0
30
0
70
128
71
4
72
5
73
2
0
VERTEX
8
OBJECT__1
10
0
20
0
30
0
70
128
71
6
72
7
73
5
0
VERTEX
8
OBJECT__1
10
0
20
0
30
0
70
128
71
8
72
9
73
7
0
VERTEX
8
OBJECT__1
10
0
20
0
30
0
70
128
71
10
72
11
73
9
0
VERTEX
8
OBJECT__1
10
0
20
0
30
0
70
128
71
12
72
13
73
11
0
VERTEX
8
OBJECT__1
10
0
20
0
30
0
70
128
71
14
72
15
73
13
0
VERTEX
8
OBJECT__1
10
0
20
0
30
0
70
128
71
16
72
17
73
15
0
VERTEX
8
OBJECT__1
10
0
20
0
30
0
70
128
71
18
72
19
73
17
0
VERTEX
8
OBJECT__1
10
0
20
0
30
0
70
128
71
20
72
19
73
18
0
VERTEX
8
OBJECT__1
10
0
20
0
30
0
70
128
71
21
72
20
73
22
0
VERTEX
8
OBJECT__1
10
0
20
0
30
0
70
128
71
23
72
21
73
24
0
VERTEX
8
OBJECT__1
10
0
20
0
30
0
70
128
71
25
72
23
73
26
0
VERTEX
8
OBJECT__1
10
0
20
0
30
0
70
128
71
27
72
25
73
28
0
VERTEX
8
OBJECT__1
10
0
20
0
30
0
70
128
71
29
72
27
73
30
0
VERTEX
8
OBJECT__1
10
0
20
0
30
0
70
128
71
31
72
3
73
29
0
VERTEX
8
OBJECT__1
10
0
20
0
30
0
70
128
71
29
72
32
73
31
0
VERTEX
8
OBJECT__1
10
0
20
0
30
0
70
128
71
30
72
32
73
29
0
VERTEX
8
OBJECT__1
10
0
20
0
30
0
70
128
71
28
72
30
73
27
0
VERTEX
8
OBJECT__1
10
0
20
0
30
0
70
128
71
26
72
28
73
25
0
VERTEX
8
OBJECT__1
10
0
20
0
30
0
70
128
71
24
72
26
73
23
0
VERTEX
8
OBJECT__1
10
0
20
0
30
0
70
128
71
22
72
24
73
21
0
VERTEX
8
OBJECT__1
10
0
20
0
30
0
70
128
71
18
72
22
73
20
0
VERTEX
8
OBJECT__1
10
0
20
0
30
0
70
128
71
17
72
16
73
18
0
VERTEX
8
OBJECT__1
10
0
20
0
30
0
70
128
71
15
72
14
73
16
0
VERTEX
8
OBJECT__1
10
0
20
0
30
0
70
128
71
13
72
12
73
14
0
VERTEX
8
OBJECT__1
10
0
20
0
30
0
70
128
71
11
72
10
73
12
0
VERTEX
8
OBJECT__1
10
0
20
0
30
0
70
128
71
9
72
8
73
10
0
VERTEX
8
OBJECT__1
10
0
20
0
30
0
70
128
71
7
72
6
73
8
0
VERTEX
8
OBJECT__1
10
0
20
0
30
0
70
128
71
5
72
4
73
6
0
VERTEX
8
OBJECT__1
10
0
20
0
30
0
70
128
71
2
72
1
73
4
0
VERTEX
8
OBJECT__1
10
0
20
0
30
0
70
128
71
3
72
31
73
1
0
SEQEND
8
OBJECT__1
0
POLYLINE
8
OBJECT__3
66
1
70
64
71
10
72
8
62
253
0
VERTEX
8
OBJECT__3
10
4.172000
20
-109.722000
30
61.500000
70
192
0
VERTEX
8
OBJECT__3
10
0.000000
20
-111.449997
30
61.500000
70
192
0
VERTEX
8
OBJECT__3
10
-4.172000
20
-109.722000
30
61.500000
70
192
0
VERTEX
8
OBJECT__3
10
4.172000
20
-90.278000
30
61.500000
70
192
0
VERTEX
8
OBJECT__3
10
-5.900000
20
-94.449997
30
61.500000
70
192
0
VERTEX
8
OBJECT__3
10
-4.172000
20
-90.278000
30
61.500000
70
192
0
VERTEX
8
OBJECT__3
10
5.900000
20
-94.449997
30
61.500000
70
192
0
VERTEX
8
OBJECT__3
10
5.900000
20
-105.550003
30
61.500000
70
192
0
VERTEX
8
OBJECT__3
10
-5.900000
20
-105.550003
30
61.500000
70
192
0
VERTEX
8
OBJECT__3
10
0.000000
20
-88.550003
30
61.500000
70
192
0
VERTEX
8
OBJECT__3
10
0
20
0
30
0
70
128
71
1
72
2
73
3
0
VERTEX
8
OBJECT__3
10
0
20
0
30
0
70
128
71
4
72
5
73
6
0
VERTEX
8
OBJECT__3
10
0
20
0
30
0
70
128
71
7
72
8
73
9
0
VERTEX
8
OBJECT__3
10
0
20
0
30
0
70
128
71
9
72
8
73
1
0
VERTEX
8
OBJECT__3
10
0
20
0
30
0
70
128
71
6
72
10
73
4
0
VERTEX
8
OBJECT__3
10
0
20
0
30
0
70
128
71
3
72
9
73
1
0
VERTEX
8
OBJECT__3
10
0
20
0
30
0
70
128
71
9
72
5
73
7
0
VERTEX
8
OBJECT__3
10
0
20
0
30
0
70
128
71
4
72
7
73
5
0
SEQEND
8
OBJECT__3
0
POLYLINE
8
OBJECT__4
66
1
70
64
71
10
72
8
62
253
0
VERTEX
8
OBJECT__4
10
4.172000
20
-109.722000
30
61.500000
70
192
0
VERTEX
8
OBJECT__4
10
-5.900000
20
-105.550003
30
61.500000
70
192
0
VERTEX
8
OBJECT__4
10
-4.172000
20
-109.722000
30
61.500000
70
192
0
VERTEX
8
OBJECT__4
10
0.000000
20
-111.449997
30
61.500000
70
192
0
VERTEX
8
OBJECT__4
10
-5.900000
20
-94.449997
30
61.500000
70
192
0
VERTEX
8
OBJECT__4
10
5.900000
20
-105.550003
30
61.500000
70
192
0
VERTEX
8
OBJECT__4
10
4.172000
20
-90.278000
30
61.500000
70
192
0
VERTEX
8
OBJECT__4
10
0.000000
20
-88.550003
30
61.500000
70
192
0
VERTEX
8
OBJECT__4
10
-4.172000
20
-90.278000
30
61.500000
70
192
0
VERTEX
8
OBJECT__4
10
5.900000
20
-94.449997
30
61.500000
70
192
0
VERTEX
8
OBJECT__4
10
0
20
0
30
0
70
128
71
1
72
2
73
3
0
VERTEX
8
OBJECT__4
10
0
20
0
30
0
70
128
71
3
72
4
73
1
0
VERTEX
8
OBJECT__4
10
0
20
0
30
0
70
128
71
5
72
2
73
6
0
VERTEX
8
OBJECT__4
10
0
20
0
30
0
70
128
71
7
72
8
73
9
0
VERTEX
8
OBJECT__4
10
0
20
0
30
0
70
128
71
6
72
10
73
5
0
VERTEX
8
OBJECT__4
10
0
20
0
30
0
70
128
71
5
72
10
73
7
0
VERTEX
8
OBJECT__4
10
0
20
0
30
0
70
128
71
9
72
5
73
7
0
VERTEX
8
OBJECT__4
10
0
20
0
30
0
70
128
71
1
72
6
73
2
0
SEQEND
8
OBJECT__4
0
POLYLINE
8
OBJECT__6
66
1
70
64
71
36
72
36
62
253
0
VERTEX
8
OBJECT__6
10
18.010000
20
-200.000000
30
72.949997
70
192
0
VERTEX
8
OBJECT__6
10
17.709999
20
-200.000000
30
72.650002
70
192
0
VERTEX
8
OBJECT__6
10
15.956000
20
-192.315994
30
72.650002
70
192
0
VERTEX
8
OBJECT__6
10
11.042000
20
-186.154007
30
72.650002
70
192
0
VERTEX
8
OBJECT__6
10
11.229000
20
-185.919006
30
72.949997
70
192
0
VERTEX
8
OBJECT__6
10
14.232000
20
-189.684006
30
72.949997
70
192
0
VERTEX
8
OBJECT__6
10
3.941000
20
-182.733994
30
72.650002
70
192
0
VERTEX
8
OBJECT__6
10
5.440000
20
-183.130997
30
72.949997
70
192
0
VERTEX
8
OBJECT__6
10
4.008000
20
-182.442001
30
72.949997
70
192
0
VERTEX
8
OBJECT__6
10
-4.008000
20
-182.442001
30
72.949997
70
192
0
VERTEX
8
OBJECT__6
10
-11.042000
20
-186.154007
30
72.650002
70
192
0
VERTEX
8
OBJECT__6
10
-11.229000
20
-185.919006
30
72.949997
70
192
0
VERTEX
8
OBJECT__6
10
-5.440000
20
-183.130997
30
72.949997
70
192
0
VERTEX
8
OBJECT__6
10
-3.941000
20
-182.733994
30
72.650002
70
192
0
VERTEX
8
OBJECT__6
10
-15.956000
20
-192.315994
30
72.650002
70
192
0
VERTEX
8
OBJECT__6
10
-14.232000
20
-189.684006
30
72.949997
70
192
0
VERTEX
8
OBJECT__6
10
-16.226000
20
-192.186005
30
72.949997
70
192
0
VERTEX
8
OBJECT__6
10
-18.010000
20
-200.000000
30
72.949997
70
192
0
VERTEX
8
OBJECT__6
10
-17.709999
20
-200.000000
30
72.650002
70
192
0
VERTEX
8
OBJECT__6
10
-15.956000
20
-207.684006
30
72.650002
70
192
0
VERTEX
8
OBJECT__6
10
-11.042000
20
-213.845993
30
72.650002
70
192
0
VERTEX
8
OBJECT__6
10
-11.229000
20
-214.080994
30
72.949997
70
192
0
VERTEX
8
OBJECT__6
10
-14.232000
20
-210.315994
30
72.949997
70
192
0
VERTEX
8
OBJECT__6
10
-3.941000
20
-217.266006
30
72.650002
70
192
0
VERTEX
8
OBJECT__6
10
-5.440000
20
-216.869003
30
72.949997
70
192
0
VERTEX
8
OBJECT__6
10
-4.008000
20
-217.557999
30
72.949997
70
192
0
VERTEX
8
OBJECT__6
10
4.008000
20
-217.557999
30
72.949997
70
192
0
VERTEX
8
OBJECT__6
10
11.042000
20
-213.845993
30
72.650002
70
192
0
VERTEX
8
OBJECT__6
10
11.229000
20
-214.080994
30
72.949997
70
192
0
VERTEX
8
OBJECT__6
10
5.440000
20
-216.869003
30
72.949997
70
192
0
VERTEX
8
OBJECT__6
10
3.941000
20
-217.266006
30
72.650002
70
192
0
VERTEX
8
OBJECT__6
10
15.956000
20
-207.684006
30
72.650002
70
192
0
VERTEX
8
OBJECT__6
10
14.232000
20
-210.315994
30
72.949997
70
192
0
VERTEX
8
OBJECT__6
10
16.226000
20
-207.813995
30
72.949997
70
192
0
VERTEX
8
OBJECT__6
10
-16.226000
20
-207.813995
30
72.949997
70
192
0
VERTEX
8
OBJECT__6
10
16.226000
20
-192.186005
30
72.949997
70
192
0
VERTEX
8
OBJECT__6
10
0
20
0
30
0
70
128
71
1
72
2
73
3
0
VERTEX
8
OBJECT__6
10
0
20
0
30
0
70
128
71
4
72
5
73
6
0
VERTEX
8
OBJECT__6
10
0
20
0
30
0
70
128
71
6
72
3
73
4
0
VERTEX
8
OBJECT__6
10
0
20
0
30
0
70
128
71
4
72
7
73
8
0
VERTEX
8
OBJECT__6
10
0
20
0
30
0
70
128
71
7
72
9
73
8
0
VERTEX
8
OBJECT__6
10
0
20
0
30
0
70
128
71
10
72
9
73
7
0
VERTEX
8
OBJECT__6
10
0
20
0
30
0
70
128
71
11
72
12
73
13
0
VERTEX
8
OBJECT__6
10
0
20
0
30
0
70
128
71
13
72
14
73
11
0
VERTEX
8
OBJECT__6
10
0
20
0
30
0
70
128
71
11
72
15
73
16
0
VERTEX
8
OBJECT__6
10
0
20
0
30
0
70
128
71
15
72
17
73
16
0
VERTEX
8
OBJECT__6
10
0
20
0
30
0
70
128
71
18
72
17
73
15
0
VERTEX
8
OBJECT__6
10
0
20
0
30
0
70
128
71
18
72
19
73
20
0
VERTEX
8
OBJECT__6
10
0
20
0
30
0
70
128
71
21
72
22
73
23
0
VERTEX
8
OBJECT__6
10
0
20
0
30
0
70
128
71
23
72
20
73
21
0
VERTEX
8
OBJECT__6
10
0
20
0
30
0
70
128
71
21
72
24
73
25
0
VERTEX
8
OBJECT__6
10
0
20
0
30
0
70
128
71
24
72
26
73
25
0
VERTEX
8
OBJECT__6
10
0
20
0
30
0
70
128
71
27
72
26
73
24
0
VERTEX
8
OBJECT__6
10
0
20
0
30
0
70
128
71
28
72
29
73
30
0
VERTEX
8
OBJECT__6
10
0
20
0
30
0
70
128
71
30
72
31
73
28
0
VERTEX
8
OBJECT__6
10
0
20
0
30
0
70
128
71
28
72
32
73
33
0
VERTEX
8
OBJECT__6
10
0
20
0
30
0
70
128
71
32
72
34
73
33
0
VERTEX
8
OBJECT__6
10
0
20
0
30
0
70
128
71
34
72
32
73
2
0
VERTEX
8
OBJECT__6
10
0
20
0
30
0
70
128
71
2
72
1
73
34
0
VERTEX
8
OBJECT__6
10
0
20
0
30
0
70
128
71
33
72
29
73
28
0
VERTEX
8
OBJECT__6
10
0
20
0
30
0
70
128
71
30
72
27
73
31
0
VERTEX
8
OBJECT__6
10
0
20
0
30
0
70
128
71
24
72
31
73
27
0
VERTEX
8
OBJECT__6
10
0
20
0
30
0
70
128
71
25
72
22
73
21
0
VERTEX
8
OBJECT__6
10
0
20
0
30
0
70
128
71
23
72
35
73
20
0
VERTEX
8
OBJECT__6
10
0
20
0
30
0
70
128
71
20
72
35
73
18
0
VERTEX
8
OBJECT__6
10
0
20
0
30
0
70
128
71
15
72
19
73
18
0
VERTEX
8
OBJECT__6
10
0
20
0
30
0
70
128
71
16
72
12
73
11
0
VERTEX
8
OBJECT__6
10
0
20
0
30
0
70
128
71
13
72
10
73
14
0
VERTEX
8
OBJECT__6
10
0
20
0
30
0
70
128
71
7
72
14
73
10
0
VERTEX
8
OBJECT__6
10
0
20
0
30
0
70
128
71
8
72
5
73
4
0
VERTEX
8
OBJECT__6
10
0
20
0
30
0
70
128
71
6
72
36
73
3
0
VERTEX
8
OBJECT__6
10
0
20
0
30
0
70
128
71
3
72
36
73
1
0
SEQEND
8
OBJECT__6
0
POLYLINE
8
OBJECT__7
66
1
70
64
71
74
72
76
62
253
0
VERTEX
8
OBJECT__7
10
-14.232000
20
-189.684006
30
72.949997
70
192
0
VERTEX
8
OBJECT__7
10
-16.226000
20
-192.186005
30
72.949997
70
192
0
VERTEX
8
OBJECT__7
10
-16.226000
20
-192.186005
30
97.963997
70
192
0
VERTEX
8
OBJECT__7
10
-18.010000
20
-200.000000
30
97.963997
70
192
0
VERTEX
8
OBJECT__7
10
-18.010000
20
-200.000000
30
72.949997
70
192
0
VERTEX
8
OBJECT__7
10
-11.229000
20
-185.919006
30
72.949997
70
192
0
VERTEX
8
OBJECT__7
10
-11.229000
20
-185.919006
30
97.963997
70
192
0
VERTEX
8
OBJECT__7
10
-5.440000
20
-183.130997
30
97.963997
70
192
0
VERTEX
8
OBJECT__7
10
-14.232000
20
-189.684006
30
97.963997
70
192
0
VERTEX
8
OBJECT__7
10
4.008000
20
-182.442001
30
72.949997
70
192
0
VERTEX
8
OBJECT__7
10
4.008000
20
-182.442001
30
97.963997
70
192
0
VERTEX
8
OBJECT__7
10
5.440000
20
-183.130997
30
97.963997
70
192
0
VERTEX
8
OBJECT__7
10
-4.008000
20
-182.442001
30
72.949997
70
192
0
VERTEX
8
OBJECT__7
10
-4.008000
20
-182.442001
30
97.963997
70
192
0
VERTEX
8
OBJECT__7
10
-5.440000
20
-183.130997
30
72.949997
70
192
0
VERTEX
8
OBJECT__7
10
11.229000
20
-185.919006
30
72.949997
70
192
0
VERTEX
8
OBJECT__7
10
11.229000
20
-185.919006
30
97.963997
70
192
0
VERTEX
8
OBJECT__7
10
14.232000
20
-189.684006
30
97.963997
70
192
0
VERTEX
8
OBJECT__7
10
5.440000
20
-183.130997
30
72.949997
70
192
0
VERTEX
8
OBJECT__7
10
18.010000
20
-200.000000
30
72.949997
70
192
0
VERTEX
8
OBJECT__7
10
16.226000
20
-192.186005
30
72.949997
70
192
0
VERTEX
8
OBJECT__7
10
16.226000
20
-192.186005
30
97.963997
70
192
0
VERTEX
8
OBJECT__7
10
14.232000
20
-189.684006
30
72.949997
70
192
0
VERTEX
8
OBJECT__7
10
14.232000
20
-210.315994
30
72.949997
70
192
0
VERTEX
8
OBJECT__7
10
16.226000
20
-207.813995
30
72.949997
70
192
0
VERTEX
8
OBJECT__7
10
16.226000
20
-207.813995
30
97.963997
70
192
0
VERTEX
8
OBJECT__7
10
18.010000
20
-200.000000
30
97.963997
70
192
0
VERTEX
8
OBJECT__7
10
-16.226000
20
-207.813995
30
72.949997
70
192
0
VERTEX
8
OBJECT__7
10
-16.226000
20
-207.813995
30
97.963997
70
192
0
VERTEX
8
OBJECT__7
10
-14.232000
20
-210.315994
30
97.963997
70
192
0
VERTEX
8
OBJECT__7
10
-14.232000
20
-210.315994
30
72.949997
70
192
0
VERTEX
8
OBJECT__7
10
-4.008000
20
-217.557999
30
72.949997
70
192
0
VERTEX
8
OBJECT__7
10
4.008000
20
-217.557999
30
72.949997
70
192
0
VERTEX
8
OBJECT__7
10
0.000000
20
-218.009995
30
88.959999
70
192
0
VERTEX
8
OBJECT__7
10
5.530000
20
-216.944000
30
88.959999
70
192
0
VERTEX
8
OBJECT__7
10
-5.530000
20
-216.944000
30
88.959999
70
192
0
VERTEX
8
OBJECT__7
10
-5.440000
20
-216.869003
30
72.949997
70
192
0
VERTEX
8
OBJECT__7
10
-5.440000
20
-216.869003
30
97.963997
70
192
0
VERTEX
8
OBJECT__7
10
-11.229000
20
-214.080994
30
97.963997
70
192
0
VERTEX
8
OBJECT__7
10
-7.105000
20
-216.548996
30
95.695999
70
192
0
VERTEX
8
OBJECT__7
10
-6.694000
20
-216.720001
30
95.762001
70
192
0
VERTEX
8
OBJECT__7
10
-7.503000
20
-216.373001
30
95.482002
70
192
0
VERTEX
8
OBJECT__7
10
-7.977000
20
-216.147003
30
94.792000
70
192
0
VERTEX
8
OBJECT__7
10
-7.794000
20
-216.235992
30
95.170998
70
192
0
VERTEX
8
OBJECT__7
10
-8.031000
20
-216.121002
30
90.181999
70
192
0
VERTEX
8
OBJECT__7
10
-8.041000
20
-216.115005
30
90.360001
70
192
0
VERTEX
8
OBJECT__7
10
-8.041000
20
-216.115005
30
94.362000
70
192
0
VERTEX
8
OBJECT__7
10
-7.894000
20
-216.188004
30
89.722000
70
192
0
VERTEX
8
OBJECT__7
10
-7.593000
20
-216.330994
30
89.317001
70
192
0
VERTEX
8
OBJECT__7
10
-11.229000
20
-214.080994
30
72.949997
70
192
0
VERTEX
8
OBJECT__7
10
-6.694000
20
-216.720001
30
88.959999
70
192
0
VERTEX
8
OBJECT__7
10
-7.173000
20
-216.520004
30
89.051003
70
192
0
VERTEX
8
OBJECT__7
10
-4.008000
20
-217.557999
30
97.963997
70
192
0
VERTEX
8
OBJECT__7
10
-5.530000
20
-216.944000
30
95.762001
70
192
0
VERTEX
8
OBJECT__7
10
0.000000
20
-218.009995
30
95.762001
70
192
0
VERTEX
8
OBJECT__7
10
4.008000
20
-217.557999
30
97.963997
70
192
0
VERTEX
8
OBJECT__7
10
5.530000
20
-216.944000
30
95.762001
70
192
0
VERTEX
8
OBJECT__7
10
5.440000
20
-216.869003
30
97.963997
70
192
0
VERTEX
8
OBJECT__7
10
11.229000
20
-214.080994
30
72.949997
70
192
0
VERTEX
8
OBJECT__7
10
7.105000
20
-216.548996
30
89.027000
70
192
0
VERTEX
8
OBJECT__7
10
6.694000
20
-216.720001
30
88.959999
70
192
0
VERTEX
8
OBJECT__7
10
5.440000
20
-216.869003
30
72.949997
70
192
0
VERTEX
8
OBJECT__7
10
7.503000
20
-216.373001
30
89.239998
70
192
0
VERTEX
8
OBJECT__7
10
7.977000
20
-216.147003
30
89.931000
70
192
0
VERTEX
8
OBJECT__7
10
7.794000
20
-216.235992
30
89.551003
70
192
0
VERTEX
8
OBJECT__7
10
14.232000
20
-210.315994
30
97.963997
70
192
0
VERTEX
8
OBJECT__7
10
8.041000
20
-216.115005
30
90.360001
70
192
0
VERTEX
8
OBJECT__7
10
8.031000
20
-216.121002
30
94.540001
70
192
0
VERTEX
8
OBJECT__7
10
8.041000
20
-216.115005
30
94.362000
70
192
0
VERTEX
8
OBJECT__7
10
11.229000
20
-214.080994
30
97.963997
70
192
0
VERTEX
8
OBJECT__7
10
7.894000
20
-216.188004
30
95.000000
70
192
0
VERTEX
8
OBJECT__7
10
6.694000
20
-216.720001
30
95.762001
70
192
0
VERTEX
8
OBJECT__7
10
7.173000
20
-216.520004
30
95.670998
70
192
0
VERTEX
8
OBJECT__7
10
7.593000
20
-216.330994
30
95.405998
70
192
0
VERTEX
8
OBJECT__7
10
0
20
0
30
0
70
128
71
1
72
2
73
3
0
VERTEX
8
OBJECT__7
10
0
20
0
30
0
70
128
71
4
72
3
73
2
0
VERTEX
8
OBJECT__7
10
0
20
0
30
0
70
128
71
2
72
5
73
4
0
VERTEX
8
OBJECT__7
10
0
20
0
30
0
70
128
71
6
72
7
73
8
0
VERTEX
8
OBJECT__7
10
0
20
0
30
0
70
128
71
9
72
7
73
6
0
VERTEX
8
OBJECT__7
10
0
20
0
30
0
70
128
71
6
72
1
73
9
0
VERTEX
8
OBJECT__7
10
0
20
0
30
0
70
128
71
10
72
11
73
12
0
VERTEX
8
OBJECT__7
10
0
20
0
30
0
70
128
71
11
72
10
73
13
0
VERTEX
8
OBJECT__7
10
0
20
0
30
0
70
128
71
13
72
14
73
11
0
VERTEX
8
OBJECT__7
10
0
20
0
30
0
70
128
71
14
72
13
73
15
0
VERTEX
8
OBJECT__7
10
0
20
0
30
0
70
128
71
15
72
8
73
14
0
VERTEX
8
OBJECT__7
10
0
20
0
30
0
70
128
71
16
72
17
73
18
0
VERTEX
8
OBJECT__7
10
0
20
0
30
0
70
128
71
17
72
16
73
19
0
VERTEX
8
OBJECT__7
10
0
20
0
30
0
70
128
71
19
72
12
73
17
0
VERTEX
8
OBJECT__7
10
0
20
0
30
0
70
128
71
20
72
21
73
22
0
VERTEX
8
OBJECT__7
10
0
20
0
30
0
70
128
71
23
72
18
73
22
0
VERTEX
8
OBJECT__7
10
0
20
0
30
0
70
128
71
22
72
21
73
23
0
VERTEX
8
OBJECT__7
10
0
20
0
30
0
70
128
71
24
72
25
73
26
0
VERTEX
8
OBJECT__7
10
0
20
0
30
0
70
128
71
27
72
26
73
25
0
VERTEX
8
OBJECT__7
10
0
20
0
30
0
70
128
71
25
72
20
73
27
0
VERTEX
8
OBJECT__7
10
0
20
0
30
0
70
128
71
5
72
28
73
29
0
VERTEX
8
OBJECT__7
10
0
20
0
30
0
70
128
71
30
72
29
73
28
0
VERTEX
8
OBJECT__7
10
0
20
0
30
0
70
128
71
28
72
31
73
30
0
VERTEX
8
OBJECT__7
10
0
20
0
30
0
70
128
71
32
72
33
73
34
0
VERTEX
8
OBJECT__7
10
0
20
0
30
0
70
128
71
33
72
35
73
34
0
VERTEX
8
OBJECT__7
10
0
20
0
30
0
70
128
71
34
72
36
73
32
0
VERTEX
8
OBJECT__7
10
0
20
0
30
0
70
128
71
36
72
37
73
32
0
VERTEX
8
OBJECT__7
10
0
20
0
30
0
70
128
71
38
72
39
73
40
0
VERTEX
8
OBJECT__7
10
0
20
0
30
0
70
128
71
40
72
41
73
38
0
VERTEX
8
OBJECT__7
10
0
20
0
30
0
70
128
71
39
72
42
73
40
0
VERTEX
8
OBJECT__7
10
0
20
0
30
0
70
128
71
43
72
44
73
39
0
VERTEX
8
OBJECT__7
10
0
20
0
30
0
70
128
71
39
72
30
73
43
0
VERTEX
8
OBJECT__7
10
0
20
0
30
0
70
128
71
44
72
42
73
39
0
VERTEX
8
OBJECT__7
10
0
20
0
30
0
70
128
71
30
72
31
73
45
0
VERTEX
8
OBJECT__7
10
0
20
0
30
0
70
128
71
45
72
46
73
30
0
VERTEX
8
OBJECT__7
10
0
20
0
30
0
70
128
71
46
72
47
73
30
0
VERTEX
8
OBJECT__7
10
0
20
0
30
0
70
128
71
31
72
48
73
45
0
VERTEX
8
OBJECT__7
10
0
20
0
30
0
70
128
71
47
72
43
73
30
0
VERTEX
8
OBJECT__7
10
0
20
0
30
0
70
128
71
49
72
31
73
50
0
VERTEX
8
OBJECT__7
10
0
20
0
30
0
70
128
71
50
72
37
73
51
0
VERTEX
8
OBJECT__7
10
0
20
0
30
0
70
128
71
37
72
36
73
51
0
VERTEX
8
OBJECT__7
10
0
20
0
30
0
70
128
71
51
72
52
73
50
0
VERTEX
8
OBJECT__7
10
0
20
0
30
0
70
128
71
50
72
52
73
49
0
VERTEX
8
OBJECT__7
10
0
20
0
30
0
70
128
71
49
72
48
73
31
0
VERTEX
8
OBJECT__7
10
0
20
0
30
0
70
128
71
53
72
54
73
55
0
VERTEX
8
OBJECT__7
10
0
20
0
30
0
70
128
71
55
72
56
73
53
0
VERTEX
8
OBJECT__7
10
0
20
0
30
0
70
128
71
55
72
57
73
56
0
VERTEX
8
OBJECT__7
10
0
20
0
30
0
70
128
71
57
72
58
73
56
0
VERTEX
8
OBJECT__7
10
0
20
0
30
0
70
128
71
59
72
60
73
61
0
VERTEX
8
OBJECT__7
10
0
20
0
30
0
70
128
71
61
72
62
73
59
0
VERTEX
8
OBJECT__7
10
0
20
0
30
0
70
128
71
63
72
60
73
59
0
VERTEX
8
OBJECT__7
10
0
20
0
30
0
70
128
71
59
72
24
73
63
0
VERTEX
8
OBJECT__7
10
0
20
0
30
0
70
128
71
24
72
64
73
65
0
VERTEX
8
OBJECT__7
10
0
20
0
30
0
70
128
71
65
72
63
73
24
0
VERTEX
8
OBJECT__7
10
0
20
0
30
0
70
128
71
66
72
67
73
64
0
VERTEX
8
OBJECT__7
10
0
20
0
30
0
70
128
71
66
72
68
73
69
0
VERTEX
8
OBJECT__7
10
0
20
0
30
0
70
128
71
69
72
67
73
66
0
VERTEX
8
OBJECT__7
10
0
20
0
30
0
70
128
71
68
72
66
73
70
0
VERTEX
8
OBJECT__7
10
0
20
0
30
0
70
128
71
70
72
71
73
68
0
VERTEX
8
OBJECT__7
10
0
20
0
30
0
70
128
71
64
72
24
73
66
0
VERTEX
8
OBJECT__7
10
0
20
0
30
0
70
128
71
58
72
72
73
73
0
VERTEX
8
OBJECT__7
10
0
20
0
30
0
70
128
71
58
72
57
73
72
0
VERTEX
8
OBJECT__7
10
0
20
0
30
0
70
128
71
73
72
70
73
58
0
VERTEX
8
OBJECT__7
10
0
20
0
30
0
70
128
71
73
72
74
73
70
0
VERTEX
8
OBJECT__7
10
0
20
0
30
0
70
128
71
74
72
71
73
70
0
VERTEX
8
OBJECT__7
10
0
20
0
30
0
70
128
71
61
72
35
73
62
0
VERTEX
8
OBJECT__7
10
0
20
0
30
0
70
128
71
53
72
38
73
54
0
VERTEX
8
OBJECT__7
10
0
20
0
30
0
70
128
71
41
72
54
73
38
0
VERTEX
8
OBJECT__7
10
0
20
0
30
0
70
128
71
33
72
62
73
35
0
VERTEX
8
OBJECT__7
10
0
20
0
30
0
70
128
71
29
72
4
73
5
0
VERTEX
8
OBJECT__7
10
0
20
0
30
0
70
128
71
26
72
66
73
24
0
VERTEX
8
OBJECT__7
10
0
20
0
30
0
70
128
71
22
72
27
73
20
0
VERTEX
8
OBJECT__7
10
0
20
0
30
0
70
128
71
18
72
23
73
16
0
VERTEX
8
OBJECT__7
10
0
20
0
30
0
70
128
71
12
72
19
73
10
0
VERTEX
8
OBJECT__7
10
0
20
0
30
0
70
128
71
8
72
15
73
6
0
VERTEX
8
OBJECT__7
10
0
20
0
30
0
70
128
71
3
72
9
73
1
0
SEQEND
8
OBJECT__7
0
POLYLINE
8
OBJECT__9
66
1
70
64
71
11
72
10
62
253
0
VERTEX
8
OBJECT__9
10
6.954000
20
-217.369995
30
89.660004
70
192
0
VERTEX
8
OBJECT__9
10
0.000000
20
-218.710007
30
89.660004
70
192
0
VERTEX
8
OBJECT__9
10
0.000000
20
-218.214996
30
89.455002
70
192
0
VERTEX
8
OBJECT__9
10
-6.954000
20
-217.369995
30
89.660004
70
192
0
VERTEX
8
OBJECT__9
10
-6.824000
20
-217.044998
30
89.309998
70
192
0
VERTEX
8
OBJECT__9
10
0.000000
20
-218.009995
30
88.959999
70
192
0
VERTEX
8
OBJECT__9
10
5.530000
20
-216.944000
30
88.959999
70
192
0
VERTEX
8
OBJECT__9
10
6.824000
20
-217.044998
30
89.309998
70
192
0
VERTEX
8
OBJECT__9
10
-5.530000
20
-216.944000
30
88.959999
70
192
0
VERTEX
8
OBJECT__9
10
-6.694000
20
-216.720001
30
88.959999
70
192
0
VERTEX
8
OBJECT__9
10
6.694000
20
-216.720001
30
88.959999
70
192
0
VERTEX
8
OBJECT__9
10
0
20
0
30
0
70
128
71
1
72
2
73
3
0
VERTEX
8
OBJECT__9
10
0
20
0
30
0
70
128
71
4
72
5
73
3
0
VERTEX
8
OBJECT__9
10
0
20
0
30
0
70
128
71
3
72
6
73
7
0
VERTEX
8
OBJECT__9
10
0
20
0
30
0
70
128
71
7
72
8
73
3
0
VERTEX
8
OBJECT__9
10
0
20
0
30
0
70
128
71
3
72
5
73
9
0
VERTEX
8
OBJECT__9
10
0
20
0
30
0
70
128
71
5
72
10
73
9
0
VERTEX
8
OBJECT__9
10
0
20
0
30
0
70
128
71
9
72
6
73
3
0
VERTEX
8
OBJECT__9
10
0
20
0
30
0
70
128
71
7
72
11
73
8
0
VERTEX
8
OBJECT__9
10
0
20
0
30
0
70
128
71
3
72
2
73
4
0
VERTEX
8
OBJECT__9
10
0
20
0
30
0
70
128
71
3
72
8
73
1
0
SEQEND
8
OBJECT__9
0
POLYLINE
8
OBJECT__10
66
1
70
64
71
13
72
11
62
253
0
VERTEX
8
OBJECT__10
10
7.977000
20
-216.147003
30
89.931000
70
192
0
VERTEX
8
OBJECT__10
10
8.041000
20
-216.115005
30
90.360001
70
192
0
VERTEX
8
OBJECT__10
10
7.654000
20
-216.740997
30
90.360001
70
192
0
VERTEX
8
OBJECT__10
10
7.794000
20
-216.235992
30
89.551003
70
192
0
VERTEX
8
OBJECT__10
10
7.620000
20
-216.774994
30
90.144997
70
192
0
VERTEX
8
OBJECT__10
10
7.503000
20
-216.373001
30
89.239998
70
192
0
VERTEX
8
OBJECT__10
10
7.525000
20
-216.867004
30
89.955002
70
192
0
VERTEX
8
OBJECT__10
10
7.105000
20
-216.548996
30
89.027000
70
192
0
VERTEX
8
OBJECT__10
10
7.374000
20
-217.009003
30
89.800003
70
192
0
VERTEX
8
OBJECT__10
10
7.168000
20
-217.192001
30
89.693001
70
192
0
VERTEX
8
OBJECT__10
10
6.954000
20
-217.369995
30
89.660004
70
192
0
VERTEX
8
OBJECT__10
10
6.824000
20
-217.044998
30
89.309998
70
192
0
VERTEX
8
OBJECT__10
10
6.694000
20
-216.720001
30
88.959999
70
192
0
VERTEX
8
OBJECT__10
10
0
20
0
30
0
70
128
71
1
72
2
73
3
0
VERTEX
8
OBJECT__10
10
0
20
0
30
0
70
128
71
4
72
1
73
5
0
VERTEX
8
OBJECT__10
10
0
20
0
30
0
70
128
71
6
72
4
73
7
0
VERTEX
8
OBJECT__10
10
0
20
0
30
0
70
128
71
8
72
6
73
9
0
VERTEX
8
OBJECT__10
10
0
20
0
30
0
70
128
71
10
72
11
73
12
0
VERTEX
8
OBJECT__10
10
0
20
0
30
0
70
128
71
12
72
8
73
10
0
VERTEX
8
OBJECT__10
10
0
20
0
30
0
70
128
71
12
72
13
73
8
0
VERTEX
8
OBJECT__10
10
0
20
0
30
0
70
128
71
9
72
10
73
8
0
VERTEX
8
OBJECT__10
10
0
20
0
30
0
70
128
71
7
72
9
73
6
0
VERTEX
8
OBJECT__10
10
0
20
0
30
0
70
128
71
5
72
7
73
4
0
VERTEX
8
OBJECT__10
10
0
20
0
30
0
70
128
71
3
72
5
73
1
0
SEQEND
8
OBJECT__10
0
POLYLINE
8
OBJECT__11
66
1
70
64
71
13
72
11
62
253
0
VERTEX
8
OBJECT__11
10
-7.203000
20
-217.162003
30
89.705002
70
192
0
VERTEX
8
OBJECT__11
10
-7.173000
20
-216.520004
30
89.051003
70
192
0
VERTEX
8
OBJECT__11
10
-6.824000
20
-217.044998
30
89.309998
70
192
0
VERTEX
8
OBJECT__11
10
-6.694000
20
-216.720001
30
88.959999
70
192
0
VERTEX
8
OBJECT__11
10
-7.421000
20
-216.966003
30
89.837997
70
192
0
VERTEX
8
OBJECT__11
10
-7.593000
20
-216.330994
30
89.317001
70
192
0
VERTEX
8
OBJECT__11
10
-7.577000
20
-216.817001
30
90.041000
70
192
0
VERTEX
8
OBJECT__11
10
-7.894000
20
-216.188004
30
89.722000
70
192
0
VERTEX
8
OBJECT__11
10
-7.648000
20
-216.746994
30
90.271004
70
192
0
VERTEX
8
OBJECT__11
10
-8.031000
20
-216.121002
30
90.181999
70
192
0
VERTEX
8
OBJECT__11
10
-7.654000
20
-216.740997
30
90.360001
70
192
0
VERTEX
8
OBJECT__11
10
-8.041000
20
-216.115005
30
90.360001
70
192
0
VERTEX
8
OBJECT__11
10
-6.954000
20
-217.369995
30
89.660004
70
192
0
VERTEX
8
OBJECT__11
10
0
20
0
30
0
70
128
71
1
72
2
73
3
0
VERTEX
8
OBJECT__11
10
0
20
0
30
0
70
128
71
2
72
4
73
3
0
VERTEX
8
OBJECT__11
10
0
20
0
30
0
70
128
71
2
72
1
73
5
0
VERTEX
8
OBJECT__11
10
0
20
0
30
0
70
128
71
6
72
5
73
7
0
VERTEX
8
OBJECT__11
10
0
20
0
30
0
70
128
71
8
72
7
73
9
0
VERTEX
8
OBJECT__11
10
0
20
0
30
0
70
128
71
10
72
9
73
11
0
VERTEX
8
OBJECT__11
10
0
20
0
30
0
70
128
71
11
72
12
73
10
0
VERTEX
8
OBJECT__11
10
0
20
0
30
0
70
128
71
9
72
10
73
8
0
VERTEX
8
OBJECT__11
10
0
20
0
30
0
70
128
71
7
72
8
73
6
0
VERTEX
8
OBJECT__11
10
0
20
0
30
0
70
128
71
5
72
6
73
2
0
VERTEX
8
OBJECT__11
10
0
20
0
30
0
70
128
71
3
72
13
73
1
0
SEQEND
8
OBJECT__11
0
POLYLINE
8
OBJECT__12
66
1
70
64
71
4
72
2
62
253
0
VERTEX
8
OBJECT__12
10
7.654000
20
-216.740997
30
94.362000
70
192
0
VERTEX
8
OBJECT__12
10
7.654000
20
-216.740997
30
90.360001
70
192
0
VERTEX
8
OBJECT__12
10
8.041000
20
-216.115005
30
90.360001
70
192
0
VERTEX
8
OBJECT__12
10
8.041000
20
-216.115005
30
94.362000
70
192
0
VERTEX
8
OBJECT__12
10
0
20
0
30
0
70
128
71
1
72
2
73
3
0
VERTEX
8
OBJECT__12
10
0
20
0
30
0
70
128
71
3
72
4
73
1
0
SEQEND
8
OBJECT__12
0
POLYLINE
8
OBJECT__13
66
1
70
64
71
8
72
6
62
253
0
VERTEX
8
OBJECT__13
10
7.654000
20
-262.872986
30
90.360001
70
192
0
VERTEX
8
OBJECT__13
10
7.525000
20
-216.867004
30
89.955002
70
192
0
VERTEX
8
OBJECT__13
10
7.620000
20
-216.774994
30
90.144997
70
192
0
VERTEX
8
OBJECT__13
10
7.374000
20
-217.009003
30
89.800003
70
192
0
VERTEX
8
OBJECT__13
10
7.168000
20
-217.192001
30
89.693001
70
192
0
VERTEX
8
OBJECT__13
10
6.954000
20
-262.872986
30
89.660004
70
192
0
VERTEX
8
OBJECT__13
10
6.954000
20
-217.369995
30
89.660004
70
192
0
VERTEX
8
OBJECT__13
10
7.654000
20
-216.740997
30
90.360001
70
192
0
VERTEX
8
OBJECT__13
10
0
20
0
30
0
70
128
71
1
72
2
73
3
0
VERTEX
8
OBJECT__13
10
0
20
0
30
0
70
128
71
1
72
4
73
2
0
VERTEX
8
OBJECT__13
10
0
20
0
30
0
70
128
71
1
72
5
73
4
0
VERTEX
8
OBJECT__13
10
0
20
0
30
0
70
128
71
1
72
6
73
7
0
VERTEX
8
OBJECT__13
10
0
20
0
30
0
70
128
71
7
72
5
73
1
0
VERTEX
8
OBJECT__13
10
0
20
0
30
0
70
128
71
3
72
8
73
1
0
SEQEND
8
OBJECT__13
0
POLYLINE
8
OBJECT__14
66
1
70
64
71
4
72
2
62
253
0
VERTEX
8
OBJECT__14
10
-8.041000
20
-216.115005
30
94.362000
70
192
0
VERTEX
8
OBJECT__14
10
-8.041000
20
-216.115005
30
90.360001
70
192
0
VERTEX
8
OBJECT__14
10
-7.654000
20
-216.740997
30
90.360001
70
192
0
VERTEX
8
OBJECT__14
10
-7.654000
20
-216.740997
30
94.362000
70
192
0
VERTEX
8
OBJECT__14
10
0
20
0
30
0
70
128
71
1
72
2
73
3
0
VERTEX
8
OBJECT__14
10
0
20
0
30
0
70
128
71
3
72
4
73
1
0
SEQEND
8
OBJECT__14
0
POLYLINE
8
OBJECT__15
66
1
70
64
71
8
72
6
62
253
0
VERTEX
8
OBJECT__15
10
-7.654000
20
-262.872986
30
90.360001
70
192
0
VERTEX
8
OBJECT__15
10
-7.203000
20
-217.162003
30
89.705002
70
192
0
VERTEX
8
OBJECT__15
10
-6.954000
20
-217.369995
30
89.660004
70
192
0
VERTEX
8
OBJECT__15
10
-7.648000
20
-216.746994
30
90.271004
70
192
0
VERTEX
8
OBJECT__15
10
-7.577000
20
-216.817001
30
90.041000
70
192
0
VERTEX
8
OBJECT__15
10
-7.654000
20
-216.740997
30
90.360001
70
192
0
VERTEX
8
OBJECT__15
10
-7.421000
20
-216.966003
30
89.837997
70
192
0
VERTEX
8
OBJECT__15
10
-6.954000
20
-262.872986
30
89.660004
70
192
0
VERTEX
8
OBJECT__15
10
0
20
0
30
0
70
128
71
1
72
2
73
3
0
VERTEX
8
OBJECT__15
10
0
20
0
30
0
70
128
71
1
72
4
73
5
0
VERTEX
8
OBJECT__15
10
0
20
0
30
0
70
128
71
1
72
6
73
4
0
VERTEX
8
OBJECT__15
10
0
20
0
30
0
70
128
71
5
72
7
73
1
0
VERTEX
8
OBJECT__15
10
0
20
0
30
0
70
128
71
7
72
2
73
1
0
VERTEX
8
OBJECT__15
10
0
20
0
30
0
70
128
71
3
72
8
73
1
0
SEQEND
8
OBJECT__15
0
POLYLINE
8
OBJECT__16
66
1
70
64
71
13
72
11
62
253
0
VERTEX
8
OBJECT__16
10
7.203000
20
-217.162003
30
95.016998
70
192
0
VERTEX
8
OBJECT__16
10
7.173000
20
-216.520004
30
95.670998
70
192
0
VERTEX
8
OBJECT__16
10
6.824000
20
-217.044998
30
95.412003
70
192
0
VERTEX
8
OBJECT__16
10
6.694000
20
-216.720001
30
95.762001
70
192
0
VERTEX
8
OBJECT__16
10
7.421000
20
-216.966003
30
94.884003
70
192
0
VERTEX
8
OBJECT__16
10
7.593000
20
-216.330994
30
95.405998
70
192
0
VERTEX
8
OBJECT__16
10
7.577000
20
-216.817001
30
94.681000
70
192
0
VERTEX
8
OBJECT__16
10
7.894000
20
-216.188004
30
95.000000
70
192
0
VERTEX
8
OBJECT__16
10
7.648000
20
-216.746994
30
94.450996
70
192
0
VERTEX
8
OBJECT__16
10
8.031000
20
-216.121002
30
94.540001
70
192
0
VERTEX
8
OBJECT__16
10
7.654000
20
-216.740997
30
94.362000
70
192
0
VERTEX
8
OBJECT__16
10
8.041000
20
-216.115005
30
94.362000
70
192
0
VERTEX
8
OBJECT__16
10
6.954000
20
-217.369995
30
95.061996
70
192
0
VERTEX
8
OBJECT__16
10
0
20
0
30
0
70
128
71
1
72
2
73
3
0
VERTEX
8
OBJECT__16
10
0
20
0
30
0
70
128
71
2
72
4
73
3
0
VERTEX
8
OBJECT__16
10
0
20
0
30
0
70
128
71
2
72
1
73
5
0
VERTEX
8
OBJECT__16
10
0
20
0
30
0
70
128
71
6
72
5
73
7
0
VERTEX
8
OBJECT__16
10
0
20
0
30
0
70
128
71
8
72
7
73
9
0
VERTEX
8
OBJECT__16
10
0
20
0
30
0
70
128
71
10
72
9
73
11
0
VERTEX
8
OBJECT__16
10
0
20
0
30
0
70
128
71
11
72
12
73
10
0
VERTEX
8
OBJECT__16
10
0
20
0
30
0
70
128
71
9
72
10
73
8
0
VERTEX
8
OBJECT__16
10
0
20
0
30
0
70
128
71
7
72
8
73
6
0
VERTEX
8
OBJECT__16
10
0
20
0
30
0
70
128
71
5
72
6
73
2
0
VERTEX
8
OBJECT__16
10
0
20
0
30
0
70
128
71
3
72
13
73
1
0
SEQEND
8
OBJECT__16
0
POLYLINE
8
OBJECT__17
66
1
70
64
71
13
72
11
62
253
0
VERTEX
8
OBJECT__17
10
-7.977000
20
-216.147003
30
94.792000
70
192
0
VERTEX
8
OBJECT__17
10
-8.041000
20
-216.115005
30
94.362000
70
192
0
VERTEX
8
OBJECT__17
10
-7.654000
20
-216.740997
30
94.362000
70
192
0
VERTEX
8
OBJECT__17
10
-7.794000
20
-216.235992
30
95.170998
70
192
0
VERTEX
8
OBJECT__17
10
-7.620000
20
-216.774994
30
94.577003
70
192
0
VERTEX
8
OBJECT__17
10
-7.503000
20
-216.373001
30
95.482002
70
192
0
VERTEX
8
OBJECT__17
10
-7.525000
20
-216.867004
30
94.766998
70
192
0
VERTEX
8
OBJECT__17
10
-7.105000
20
-216.548996
30
95.695999
70
192
0
VERTEX
8
OBJECT__17
10
-7.374000
20
-217.009003
30
94.921997
70
192
0
VERTEX
8
OBJECT__17
10
-7.168000
20
-217.192001
30
95.028999
70
192
0
VERTEX
8
OBJECT__17
10
-6.954000
20
-217.369995
30
95.061996
70
192
0
VERTEX
8
OBJECT__17
10
-6.824000
20
-217.044998
30
95.412003
70
192
0
VERTEX
8
OBJECT__17
10
-6.694000
20
-216.720001
30
95.762001
70
192
0
VERTEX
8
OBJECT__17
10
0
20
0
30
0
70
128
71
1
72
2
73
3
0
VERTEX
8
OBJECT__17
10
0
20
0
30
0
70
128
71
4
72
1
73
5
0
VERTEX
8
OBJECT__17
10
0
20
0
30
0
70
128
71
6
72
4
73
7
0
VERTEX
8
OBJECT__17
10
0
20
0
30
0
70
128
71
8
72
6
73
9
0
VERTEX
8
OBJECT__17
10
0
20
0
30
0
70
128
71
10
72
11
73
12
0
VERTEX
8
OBJECT__17
10
0
20
0
30
0
70
128
71
12
72
8
73
10
0
VERTEX
8
OBJECT__17
10
0
20
0
30
0
70
128
71
12
72
13
73
8
0
VERTEX
8
OBJECT__17
10
0
20
0
30
0
70
128
71
9
72
10
73
8
0
VERTEX
8
OBJECT__17
10
0
20
0
30
0
70
128
71
7
72
9
73
6
0
VERTEX
8
OBJECT__17
10
0
20
0
30
0
70
128
71
5
72
7
73
4
0
VERTEX
8
OBJECT__17
10
0
20
0
30
0
70
128
71
3
72
5
73
1
0
SEQEND
8
OBJECT__17
0
POLYLINE
8
OBJECT__18
66
1
70
64
71
11
72
10
62
253
0
VERTEX
8
OBJECT__18
10
-6.954000
20
-217.369995
30
95.061996
70
192
0
VERTEX
8
OBJECT__18
10
0.000000
20
-218.710007
30
95.061996
70
192
0
VERTEX
8
OBJECT__18
10
0.000000
20
-218.214996
30
95.267998
70
192
0
VERTEX
8
OBJECT__18
10
6.954000
20
-217.369995
30
95.061996
70
192
0
VERTEX
8
OBJECT__18
10
6.824000
20
-217.044998
30
95.412003
70
192
0
VERTEX
8
OBJECT__18
10
0.000000
20
-218.009995
30
95.762001
70
192
0
VERTEX
8
OBJECT__18
10
-5.530000
20
-216.944000
30
95.762001
70
192
0
VERTEX
8
OBJECT__18
10
-6.824000
20
-217.044998
30
95.412003
70
192
0
VERTEX
8
OBJECT__18
10
5.530000
20
-216.944000
30
95.762001
70
192
0
VERTEX
8
OBJECT__18
10
6.694000
20
-216.720001
30
95.762001
70
192
0
VERTEX
8
OBJECT__18
10
-6.694000
20
-216.720001
30
95.762001
70
192
0
VERTEX
8
OBJECT__18
10
0
20
0
30
0
70
128
71
1
72
2
73
3
0
VERTEX
8
OBJECT__18
10
0
20
0
30
0
70
128
71
4
72
5
73
3
0
VERTEX
8
OBJECT__18
10
0
20
0
30
0
70
128
71
3
72
6
73
7
0
VERTEX
8
OBJECT__18
10
0
20
0
30
0
70
128
71
7
72
8
73
3
0
VERTEX
8
OBJECT__18
10
0
20
0
30
0
70
128
71
3
72
5
73
9
0
VERTEX
8
OBJECT__18
10
0
20
0
30
0
70
128
71
5
72
10
73
9
0
VERTEX
8
OBJECT__18
10
0
20
0
30
0
70
128
71
9
72
6
73
3
0
VERTEX
8
OBJECT__18
10
0
20
0
30
0
70
128
71
7
72
11
73
8
0
VERTEX
8
OBJECT__18
10
0
20
0
30
0
70
128
71
3
72
2
73
4
0
VERTEX
8
OBJECT__18
10
0
20
0
30
0
70
128
71
3
72
8
73
1
0
SEQEND
8
OBJECT__18
0
POLYLINE
8
OBJECT__19
66
1
70
64
71
8
72
6
62
253
0
VERTEX
8
OBJECT__19
10
7.654000
20
-262.872986
30
94.362000
70
192
0
VERTEX
8
OBJECT__19
10
7.203000
20
-217.162003
30
95.016998
70
192
0
VERTEX
8
OBJECT__19
10
6.954000
20
-217.369995
30
95.061996
70
192
0
VERTEX
8
OBJECT__19
10
7.648000
20
-216.746994
30
94.450996
70
192
0
VERTEX
8
OBJECT__19
10
7.577000
20
-216.817001
30
94.681000
70
192
0
VERTEX
8
OBJECT__19
10
7.654000
20
-216.740997
30
94.362000
70
192
0
VERTEX
8
OBJECT__19
10
7.421000
20
-216.966003
30
94.884003
70
192
0
VERTEX
8
OBJECT__19
10
6.954000
20
-262.872986
30
95.061996
70
192
0
VERTEX
8
OBJECT__19
10
0
20
0
30
0
70
128
71
1
72
2
73
3
0
VERTEX
8
OBJECT__19
10
0
20
0
30
0
70
128
71
1
72
4
73
5
0
VERTEX
8
OBJECT__19
10
0
20
0
30
0
70
128
71
1
72
6
73
4
0
VERTEX
8
OBJECT__19
10
0
20
0
30
0
70
128
71
5
72
7
73
1
0
VERTEX
8
OBJECT__19
10
0
20
0
30
0
70
128
71
7
72
2
73
1
0
VERTEX
8
OBJECT__19
10
0
20
0
30
0
70
128
71
3
72
8
73
1
0
SEQEND
8
OBJECT__19
0
POLYLINE
8
OBJECT__20
66
1
70
64
71
8
72
6
62
253
0
VERTEX
8
OBJECT__20
10
-7.654000
20
-262.872986
30
94.362000
70
192
0
VERTEX
8
OBJECT__20
10
-7.525000
20
-216.867004
30
94.766998
70
192
0
VERTEX
8
OBJECT__20
10
-7.620000
20
-216.774994
30
94.577003
70
192
0
VERTEX
8
OBJECT__20
10
-7.374000
20
-217.009003
30
94.921997
70
192
0
VERTEX
8
OBJECT__20
10
-7.168000
20
-217.192001
30
95.028999
70
192
0
VERTEX
8
OBJECT__20
10
-6.954000
20
-262.872986
30
95.061996
70
192
0
VERTEX
8
OBJECT__20
10
-6.954000
20
-217.369995
30
95.061996
70
192
0
VERTEX
8
OBJECT__20
10
-7.654000
20
-216.740997
30
94.362000
70
192
0
VERTEX
8
OBJECT__20
10
0
20
0
30
0
70
128
71
1
72
2
73
3
0
VERTEX
8
OBJECT__20
10
0
20
0
30
0
70
128
71
1
72
4
73
2
0
VERTEX
8
OBJECT__20
10
0
20
0
30
0
70
128
71
1
72
5
73
4
0
VERTEX
8
OBJECT__20
10
0
20
0
30
0
70
128
71
1
72
6
73
7
0
VERTEX
8
OBJECT__20
10
0
20
0
30
0
70
128
71
7
72
5
73
1
0
VERTEX
8
OBJECT__20
10
0
20
0
30
0
70
128
71
3
72
8
73
1
0
SEQEND
8
OBJECT__20
0
POLYLINE
8
OBJECT__21
66
1
70
64
71
5
72
3
62
253
0
VERTEX
8
OBJECT__21
10
6.954000
20
-262.872986
30
89.660004
70
192
0
VERTEX
8
OBJECT__21
10
-6.954000
20
-262.872986
30
89.660004
70
192
0
VERTEX
8
OBJECT__21
10
0.000000
20
-218.710007
30
89.660004
70
192
0
VERTEX
8
OBJECT__21
10
-6.954000
20
-217.369995
30
89.660004
70
192
0
VERTEX
8
OBJECT__21
10
6.954000
20
-217.369995
30
89.660004
70
192
0
VERTEX
8
OBJECT__21
10
0
20
0
30
0
70
128
71
1
72
2
73
3
0
VERTEX
8
OBJECT__21
10
0
20
0
30
0
70
128
71
2
72
4
73
3
0
VERTEX
8
OBJECT__21
10
0
20
0
30
0
70
128
71
3
72
5
73
1
0
SEQEND
8
OBJECT__21
0
POLYLINE
8
OBJECT__22
66
1
70
64
71
4
72
2
62
253
0
VERTEX
8
OBJECT__22
10
6.954000
20
-263.572998
30
90.360001
70
192
0
VERTEX
8
OBJECT__22
10
-6.954000
20
-263.572998
30
90.360001
70
192
0
VERTEX
8
OBJECT__22
10
-6.954000
20
-262.872986
30
89.660004
70
192
0
VERTEX
8
OBJECT__22
10
6.954000
20
-262.872986
30
89.660004
70
192
0
VERTEX
8
OBJECT__22
10
0
20
0
30
0
70
128
71
1
72
2
73
3
0
VERTEX
8
OBJECT__22
10
0
20
0
30
0
70
128
71
3
72
4
73
1
0
SEQEND
8
OBJECT__22
0
POLYLINE
8
OBJECT__23
66
1
70
64
71
4
72
2
62
253
0
VERTEX
8
OBJECT__23
10
7.654000
20
-262.872986
30
94.362000
70
192
0
VERTEX
8
OBJECT__23
10
7.654000
20
-262.872986
30
90.360001
70
192
0
VERTEX
8
OBJECT__23
10
7.654000
20
-216.740997
30
90.360001
70
192
0
VERTEX
8
OBJECT__23
10
7.654000
20
-216.740997
30
94.362000
70
192
0
VERTEX
8
OBJECT__23
10
0
20
0
30
0
70
128
71
1
72
2
73
3
0
VERTEX
8
OBJECT__23
10
0
20
0
30
0
70
128
71
3
72
4
73
1
0
SEQEND
8
OBJECT__23
0
POLYLINE
8
OBJECT__24
66
1
70
64
71
4
72
2
62
253
0
VERTEX
8
OBJECT__24
10
6.954000
20
-263.572998
30
94.362000
70
192
0
VERTEX
8
OBJECT__24
10
6.954000
20
-263.572998
30
90.360001
70
192
0
VERTEX
8
OBJECT__24
10
7.654000
20
-262.872986
30
90.360001
70
192
0
VERTEX
8
OBJECT__24
10
7.654000
20
-262.872986
30
94.362000
70
192
0
VERTEX
8
OBJECT__24
10
0
20
0
30
0
70
128
71
1
72
2
73
3
0
VERTEX
8
OBJECT__24
10
0
20
0
30
0
70
128
71
3
72
4
73
1
0
SEQEND
8
OBJECT__24
0
POLYLINE
8
OBJECT__25
66
1
70
64
71
3
72
1
62
253
0
VERTEX
8
OBJECT__25
10
7.654000
20
-262.872986
30
90.360001
70
192
0
VERTEX
8
OBJECT__25
10
6.954000
20
-263.572998
30
90.360001
70
192
0
VERTEX
8
OBJECT__25
10
6.954000
20
-262.872986
30
89.660004
70
192
0
VERTEX
8
OBJECT__25
10
0
20
0
30
0
70
128
71
1
72
2
73
3
0
SEQEND
8
OBJECT__25
0
POLYLINE
8
OBJECT__26
66
1
70
64
71
5
72
3
62
253
0
VERTEX
8
OBJECT__26
10
-6.954000
20
-262.872986
30
95.061996
70
192
0
VERTEX
8
OBJECT__26
10
6.954000
20
-262.872986
30
95.061996
70
192
0
VERTEX
8
OBJECT__26
10
0.000000
20
-218.710007
30
95.061996
70
192
0
VERTEX
8
OBJECT__26
10
6.954000
20
-217.369995
30
95.061996
70
192
0
VERTEX
8
OBJECT__26
10
-6.954000
20
-217.369995
30
95.061996
70
192
0
VERTEX
8
OBJECT__26
10
0
20
0
30
0
70
128
71
1
72
2
73
3
0
VERTEX
8
OBJECT__26
10
0
20
0
30
0
70
128
71
2
72
4
73
3
0
VERTEX
8
OBJECT__26
10
0
20
0
30
0
70
128
71
3
72
5
73
1
0
SEQEND
8
OBJECT__26
0
POLYLINE
8
OBJECT__27
66
1
70
64
71
4
72
2
62
253
0
VERTEX
8
OBJECT__27
10
-6.954000
20
-263.572998
30
94.362000
70
192
0
VERTEX
8
OBJECT__27
10
6.954000
20
-263.572998
30
94.362000
70
192
0
VERTEX
8
OBJECT__27
10
6.954000
20
-262.872986
30
95.061996
70
192
0
VERTEX
8
OBJECT__27
10
-6.954000
20
-262.872986
30
95.061996
70
192
0
VERTEX
8
OBJECT__27
10
0
20
0
30
0
70
128
71
1
72
2
73
3
0
VERTEX
8
OBJECT__27
10
0
20
0
30
0
70
128
71
3
72
4
73
1
0
SEQEND
8
OBJECT__27
0
POLYLINE
8
OBJECT__28
66
1
70
64
71
3
72
1
62
253
0
VERTEX
8
OBJECT__28
10
6.954000
20
-262.872986
30
95.061996
70
192
0
VERTEX
8
OBJECT__28
10
6.954000
20
-263.572998
30
94.362000
70
192
0
VERTEX
8
OBJECT__28
10
7.654000
20
-262.872986
30
94.362000
70
192
0
VERTEX
8
OBJECT__28
10
0
20
0
30
0
70
128
71
1
72
2
73
3
0
SEQEND
8
OBJECT__28
0
POLYLINE
8
OBJECT__29
66
1
70
64
71
4
72
2
62
253
0
VERTEX
8
OBJECT__29
10
-6.954000
20
-263.572998
30
90.360001
70
192
0
VERTEX
8
OBJECT__29
10
6.954000
20
-263.572998
30
90.360001
70
192
0
VERTEX
8
OBJECT__29
10
6.954000
20
-263.572998
30
94.362000
70
192
0
VERTEX
8
OBJECT__29
10
-6.954000
20
-263.572998
30
94.362000
70
192
0
VERTEX
8
OBJECT__29
10
0
20
0
30
0
70
128
71
1
72
2
73
3
0
VERTEX
8
OBJECT__29
10
0
20
0
30
0
70
128
71
3
72
4
73
1
0
SEQEND
8
OBJECT__29
0
POLYLINE
8
OBJECT__30
66
1
70
64
71
4
72
2
62
253
0
VERTEX
8
OBJECT__30
10
-6.954000
20
-263.572998
30
90.360001
70
192
0
VERTEX
8
OBJECT__30
10
-6.954000
20
-263.572998
30
94.362000
70
192
0
VERTEX
8
OBJECT__30
10
-7.654000
20
-262.872986
30
94.362000
70
192
0
VERTEX
8
OBJECT__30
10
-7.654000
20
-262.872986
30
90.360001
70
192
0
VERTEX
8
OBJECT__30
10
0
20
0
30
0
70
128
71
1
72
2
73
3
0
VERTEX
8
OBJECT__30
10
0
20
0
30
0
70
128
71
3
72
4
73
1
0
SEQEND
8
OBJECT__30
0
POLYLINE
8
OBJECT__31
66
1
70
64
71
4
72
2
62
253
0
VERTEX
8
OBJECT__31
10
-7.654000
20
-262.872986
30
90.360001
70
192
0
VERTEX
8
OBJECT__31
10
-7.654000
20
-262.872986
30
94.362000
70
192
0
VERTEX
8
OBJECT__31
10
-7.654000
20
-216.740997
30
94.362000
70
192
0
VERTEX
8
OBJECT__31
10
-7.654000
20
-216.740997
30
90.360001
70
192
0
VERTEX
8
OBJECT__31
10
0
20
0
30
0
70
128
71
1
72
2
73
3
0
VERTEX
8
OBJECT__31
10
0
20
0
30
0
70
128
71
3
72
4
73
1
0
SEQEND
8
OBJECT__31
0
POLYLINE
8
OBJECT__32
66
1
70
64
71
3
72
1
62
253
0
VERTEX
8
OBJECT__32
10
-6.954000
20
-263.572998
30
90.360001
70
192
0
VERTEX
8
OBJECT__32
10
-7.654000
20
-262.872986
30
90.360001
70
192
0
VERTEX
8
OBJECT__32
10
-6.954000
20
-262.872986
30
89.660004
70
192
0
VERTEX
8
OBJECT__32
10
0
20
0
30
0
70
128
71
1
72
2
73
3
0
SEQEND
8
OBJECT__32
0
POLYLINE
8
OBJECT__33
66
1
70
64
71
3
72
1
62
253
0
VERTEX
8
OBJECT__33
10
-6.954000
20
-262.872986
30
95.061996
70
192
0
VERTEX
8
OBJECT__33
10
-7.654000
20
-262.872986
30
94.362000
70
192
0
VERTEX
8
OBJECT__33
10
-6.954000
20
-263.572998
30
94.362000
70
192
0
VERTEX
8
OBJECT__33
10
0
20
0
30
0
70
128
71
1
72
2
73
3
0
SEQEND
8
OBJECT__33
0
POLYLINE
8
OBJECT__34
66
1
70
64
71
36
72
36
62
253
0
VERTEX
8
OBJECT__34
10
-18.010000
20
-200.000000
30
97.963997
70
192
0
VERTEX
8
OBJECT__34
10
-17.309999
20
-200.000000
30
98.664001
70
192
0
VERTEX
8
OBJECT__34
10
-15.596000
20
-192.488998
30
98.664001
70
192
0
VERTEX
8
OBJECT__34
10
-10.793000
20
-186.466003
30
98.664001
70
192
0
VERTEX
8
OBJECT__34
10
-11.229000
20
-185.919006
30
97.963997
70
192
0
VERTEX
8
OBJECT__34
10
-14.232000
20
-189.684006
30
97.963997
70
192
0
VERTEX
8
OBJECT__34
10
-3.852000
20
-183.123993
30
98.664001
70
192
0
VERTEX
8
OBJECT__34
10
-5.440000
20
-183.130997
30
97.963997
70
192
0
VERTEX
8
OBJECT__34
10
-4.008000
20
-182.442001
30
97.963997
70
192
0
VERTEX
8
OBJECT__34
10
4.008000
20
-182.442001
30
97.963997
70
192
0
VERTEX
8
OBJECT__34
10
10.793000
20
-186.466003
30
98.664001
70
192
0
VERTEX
8
OBJECT__34
10
11.229000
20
-185.919006
30
97.963997
70
192
0
VERTEX
8
OBJECT__34
10
5.440000
20
-183.130997
30
97.963997
70
192
0
VERTEX
8
OBJECT__34
10
3.852000
20
-183.123993
30
98.664001
70
192
0
VERTEX
8
OBJECT__34
10
15.596000
20
-192.488998
30
98.664001
70
192
0
VERTEX
8
OBJECT__34
10
14.232000
20
-189.684006
30
97.963997
70
192
0
VERTEX
8
OBJECT__34
10
16.226000
20
-192.186005
30
97.963997
70
192
0
VERTEX
8
OBJECT__34
10
18.010000
20
-200.000000
30
97.963997
70
192
0
VERTEX
8
OBJECT__34
10
17.309999
20
-200.000000
30
98.664001
70
192
0
VERTEX
8
OBJECT__34
10
15.596000
20
-207.511002
30
98.664001
70
192
0
VERTEX
8
OBJECT__34
10
10.793000
20
-213.533997
30
98.664001
70
192
0
VERTEX
8
OBJECT__34
10
11.229000
20
-214.080994
30
97.963997
70
192
0
VERTEX
8
OBJECT__34
10
14.232000
20
-210.315994
30
97.963997
70
192
0
VERTEX
8
OBJECT__34
10
3.852000
20
-216.876007
30
98.664001
70
192
0
VERTEX
8
OBJECT__34
10
5.440000
20
-216.869003
30
97.963997
70
192
0
VERTEX
8
OBJECT__34
10
4.008000
20
-217.557999
30
97.963997
70
192
0
VERTEX
8
OBJECT__34
10
-4.008000
20
-217.557999
30
97.963997
70
192
0
VERTEX
8
OBJECT__34
10
-10.793000
20
-213.533997
30
98.664001
70
192
0
VERTEX
8
OBJECT__34
10
-11.229000
20
-214.080994
30
97.963997
70
192
0
VERTEX
8
OBJECT__34
10
-5.440000
20
-216.869003
30
97.963997
70
192
0
VERTEX
8
OBJECT__34
10
-3.852000
20
-216.876007
30
98.664001
70
192
0
VERTEX
8
OBJECT__34
10
-15.596000
20
-207.511002
30
98.664001
70
192
0
VERTEX
8
OBJECT__34
10
-14.232000
20
-210.315994
30
97.963997
70
192
0
VERTEX
8
OBJECT__34
10
-16.226000
20
-207.813995
30
97.963997
70
192
0
VERTEX
8
OBJECT__34
10
16.226000
20
-207.813995
30
97.963997
70
192
0
VERTEX
8
OBJECT__34
10
-16.226000
20
-192.186005
30
97.963997
70
192
0
VERTEX
8
OBJECT__34
10
0
20
0
30
0
70
128
71
1
72
2
73
3
0
VERTEX
8
OBJECT__34
10
0
20
0
30
0
70
128
71
4
72
5
73
6
0
VERTEX
8
OBJECT__34
10
0
20
0
30
0
70
128
71
6
72
3
73
4
0
VERTEX
8
OBJECT__34
10
0
20
0
30
0
70
128
71
4
72
7
73
8
0
VERTEX
8
OBJECT__34
10
0
20
0
30
0
70
128
71
7
72
9
73
8
0
VERTEX
8
OBJECT__34
10
0
20
0
30
0
70
128
71
10
72
9
73
7
0
VERTEX
8
OBJECT__34
10
0
20
0
30
0
70
128
71
11
72
12
73
13
0
VERTEX
8
OBJECT__34
10
0
20
0
30
0
70
128
71
13
72
14
73
11
0
VERTEX
8
OBJECT__34
10
0
20
0
30
0
70
128
71
11
72
15
73
16
0
VERTEX
8
OBJECT__34
10
0
20
0
30
0
70
128
71
15
72
17
73
16
0
VERTEX
8
OBJECT__34
10
0
20
0
30
0
70
128
71
18
72
17
73
15
0
VERTEX
8
OBJECT__34
10
0
20
0
30
0
70
128
71
18
72
19
73
20
0
VERTEX
8
OBJECT__34
10
0
20
0
30
0
70
128
71
21
72
22
73
23
0
VERTEX
8
OBJECT__34
10
0
20
0
30
0
70
128
71
23
72
20
73
21
0
VERTEX
8
OBJECT__34
10
0
20
0
30
0
70
128
71
21
72
24
73
25
0
VERTEX
8
OBJECT__34
10
0
20
0
30
0
70
128
71
24
72
26
73
25
0
VERTEX
8
OBJECT__34
10
0
20
0
30
0
70
128
71
27
72
26
73
24
0
VERTEX
8
OBJECT__34
10
0
20
0
30
0
70
128
71
28
72
29
73
30
0
VERTEX
8
OBJECT__34
10
0
20
0
30
0
70
128
71
30
72
31
73
28
0
VERTEX
8
OBJECT__34
10
0
20
0
30
0
70
128
71
28
72
32
73
33
0
VERTEX
8
OBJECT__34
10
0
20
0
30
0
70
128
71
32
72
34
73
33
0
VERTEX
8
OBJECT__34
10
0
20
0
30
0
70
128
71
1
72
34
73
32
0
VERTEX
8
OBJECT__34
10
0
20
0
30
0
70
128
71
32
72
2
73
1
0
VERTEX
8
OBJECT__34
10
0
20
0
30
0
70
128
71
33
72
29
73
28
0
VERTEX
8
OBJECT__34
10
0
20
0
30
0
70
128
71
30
72
27
73
31
0
VERTEX
8
OBJECT__34
10
0
20
0
30
0
70
128
71
24
72
31
73
27
0
VERTEX
8
OBJECT__34
10
0
20
0
30
0
70
128
71
25
72
22
73
21
0
VERTEX
8
OBJECT__34
10
0
20
0
30
0
70
128
71
23
72
35
73
20
0
VERTEX
8
OBJECT__34
10
0
20
0
30
0
70
128
71
20
72
35
73
18
0
VERTEX
8
OBJECT__34
10
0
20
0
30
0
70
128
71
15
72
19
73
18
0
VERTEX
8
OBJECT__34
10
0
20
0
30
0
70
128
71
16
72
12
73
11
0
VERTEX
8
OBJECT__34
10
0
20
0
30
0
70
128
71
13
72
10
73
14
0
VERTEX
8
OBJECT__34
10
0
20
0
30
0
70
128
71
7
72
14
73
10
0
VERTEX
8
OBJECT__34
10
0
20
0
30
0
70
128
71
8
72
5
73
4
0
VERTEX
8
OBJECT__34
10
0
20
0
30
0
70
128
71
6
72
36
73
3
0
VERTEX
8
OBJECT__34
10
0
20
0
30
0
70
128
71
3
72
36
73
1
0
SEQEND
8
OBJECT__34
0
POLYLINE
8
OBJECT__35
66
1
70
64
71
14
72
12
62
253
0
VERTEX
8
OBJECT__35
10
10.793000
20
-213.533997
30
98.664001
70
192
0
VERTEX
8
OBJECT__35
10
17.309999
20
-200.000000
30
98.664001
70
192
0
VERTEX
8
OBJECT__35
10
15.596000
20
-192.488998
30
98.664001
70
192
0
VERTEX
8
OBJECT__35
10
10.793000
20
-186.466003
30
98.664001
70
192
0
VERTEX
8
OBJECT__35
10
-3.852000
20
-216.876007
30
98.664001
70
192
0
VERTEX
8
OBJECT__35
10
3.852000
20
-216.876007
30
98.664001
70
192
0
VERTEX
8
OBJECT__35
10
-15.596000
20
-207.511002
30
98.664001
70
192
0
VERTEX
8
OBJECT__35
10
-10.793000
20
-186.466003
30
98.664001
70
192
0
VERTEX
8
OBJECT__35
10
-15.596000
20
-192.488998
30
98.664001
70
192
0
VERTEX
8
OBJECT__35
10
-10.793000
20
-213.533997
30
98.664001
70
192
0
VERTEX
8
OBJECT__35
10
3.852000
20
-183.123993
30
98.664001
70
192
0
VERTEX
8
OBJECT__35
10
-3.852000
20
-183.123993
30
98.664001
70
192
0
VERTEX
8
OBJECT__35
10
15.596000
20
-207.511002
30
98.664001
70
192
0
VERTEX
8
OBJECT__35
10
-17.309999
20
-200.000000
30
98.664001
70
192
0
VERTEX
8
OBJECT__35
10
0
20
0
30
0
70
128
71
1
72
2
73
3
0
VERTEX
8
OBJECT__35
10
0
20
0
30
0
70
128
71
4
72
5
73
6
0
VERTEX
8
OBJECT__35
10
0
20
0
30
0
70
128
71
7
72
8
73
9
0
VERTEX
8
OBJECT__35
10
0
20
0
30
0
70
128
71
10
72
11
73
12
0
VERTEX
8
OBJECT__35
10
0
20
0
30
0
70
128
71
1
72
13
73
2
0
VERTEX
8
OBJECT__35
10
0
20
0
30
0
70
128
71
4
72
10
73
5
0
VERTEX
8
OBJECT__35
10
0
20
0
30
0
70
128
71
9
72
14
73
7
0
VERTEX
8
OBJECT__35
10
0
20
0
30
0
70
128
71
10
72
4
73
11
0
VERTEX
8
OBJECT__35
10
0
20
0
30
0
70
128
71
6
72
1
73
4
0
VERTEX
8
OBJECT__35
10
0
20
0
30
0
70
128
71
12
72
8
73
10
0
VERTEX
8
OBJECT__35
10
0
20
0
30
0
70
128
71
7
72
10
73
8
0
VERTEX
8
OBJECT__35
10
0
20
0
30
0
70
128
71
3
72
4
73
1
0
SEQEND
8
OBJECT__35
0
POLYLINE
8
OBJECT__36
66
1
70
64
71
28
72
28
62
253
0
VERTEX
8
OBJECT__36
10
-21.070000
20
-83.196999
30
61.500000
70
192
0
VERTEX
8
OBJECT__36
10
-18.919001
20
-84.913002
30
61.500000
70
192
0
VERTEX
8
OBJECT__36
10
-23.591000
20
-94.614998
30
61.500000
70
192
0
VERTEX
8
OBJECT__36
10
-11.693000
20
-75.719002
30
61.500000
70
192
0
VERTEX
8
OBJECT__36
10
-10.499000
20
-78.198997
30
61.500000
70
192
0
VERTEX
8
OBJECT__36
10
0.000000
20
-73.050003
30
61.500000
70
192
0
VERTEX
8
OBJECT__36
10
0.000000
20
-75.802002
30
61.500000
70
192
0
VERTEX
8
OBJECT__36
10
11.693000
20
-75.719002
30
61.500000
70
192
0
VERTEX
8
OBJECT__36
10
10.499000
20
-78.198997
30
61.500000
70
192
0
VERTEX
8
OBJECT__36
10
21.070000
20
-83.196999
30
61.500000
70
192
0
VERTEX
8
OBJECT__36
10
18.919001
20
-84.913002
30
61.500000
70
192
0
VERTEX
8
OBJECT__36
10
26.274000
20
-94.002998
30
61.500000
70
192
0
VERTEX
8
OBJECT__36
10
23.591000
20
-94.614998
30
61.500000
70
192
0
VERTEX
8
OBJECT__36
10
26.274000
20
-105.997002
30
61.500000
70
192
0
VERTEX
8
OBJECT__36
10
23.591000
20
-105.385002
30
61.500000
70
192
0
VERTEX
8
OBJECT__36
10
21.070000
20
-116.803001
30
61.500000
70
192
0
VERTEX
8
OBJECT__36
10
18.919001
20
-115.086998
30
61.500000
70
192
0
VERTEX
8
OBJECT__36
10
11.693000
20
-124.280998
30
61.500000
70
192
0
VERTEX
8
OBJECT__36
10
10.499000
20
-121.801003
30
61.500000
70
192
0
VERTEX
8
OBJECT__36
10
-21.070000
20
-116.803001
30
61.500000
70
192
0
VERTEX
8
OBJECT__36
10
-18.919001
20
-115.086998
30
61.500000
70
192
0
VERTEX
8
OBJECT__36
10
-10.499000
20
-121.801003
30
61.500000
70
192
0
VERTEX
8
OBJECT__36
10
-26.274000
20
-105.997002
30
61.500000
70
192
0
VERTEX
8
OBJECT__36
10
-23.591000
20
-105.385002
30
61.500000
70
192
0
VERTEX
8
OBJECT__36
10
0.000000
20
-126.949997
30
61.500000
70
192
0
VERTEX
8
OBJECT__36
10
0.000000
20
-124.197998
30
61.500000
70
192
0
VERTEX
8
OBJECT__36
10
-11.693000
20
-124.280998
30
61.500000
70
192
0
VERTEX
8
OBJECT__36
10
-26.274000
20
-94.002998
30
61.500000
70
192
0
VERTEX
8
OBJECT__36
10
0
20
0
30
0
70
128
71
1
72
2
73
3
0
VERTEX
8
OBJECT__36
10
0
20
0
30
0
70
128
71
4
72
5
73
2
0
VERTEX
8
OBJECT__36
10
0
20
0
30
0
70
128
71
2
72
1
73
4
0
VERTEX
8
OBJECT__36
10
0
20
0
30
0
70
128
71
4
72
6
73
7
0
VERTEX
8
OBJECT__36
10
0
20
0
30
0
70
128
71
6
72
8
73
9
0
VERTEX
8
OBJECT__36
10
0
20
0
30
0
70
128
71
8
72
10
73
11
0
VERTEX
8
OBJECT__36
10
0
20
0
30
0
70
128
71
10
72
12
73
13
0
VERTEX
8
OBJECT__36
10
0
20
0
30
0
70
128
71
12
72
14
73
15
0
VERTEX
8
OBJECT__36
10
0
20
0
30
0
70
128
71
14
72
16
73
17
0
VERTEX
8
OBJECT__36
10
0
20
0
30
0
70
128
71
16
72
18
73
19
0
VERTEX
8
OBJECT__36
10
0
20
0
30
0
70
128
71
20
72
21
73
22
0
VERTEX
8
OBJECT__36
10
0
20
0
30
0
70
128
71
23
72
24
73
21
0
VERTEX
8
OBJECT__36
10
0
20
0
30
0
70
128
71
7
72
5
73
4
0
VERTEX
8
OBJECT__36
10
0
20
0
30
0
70
128
71
11
72
9
73
8
0
VERTEX
8
OBJECT__36
10
0
20
0
30
0
70
128
71
15
72
13
73
12
0
VERTEX
8
OBJECT__36
10
0
20
0
30
0
70
128
71
19
72
17
73
16
0
VERTEX
8
OBJECT__36
10
0
20
0
30
0
70
128
71
25
72
26
73
19
0
VERTEX
8
OBJECT__36
10
0
20
0
30
0
70
128
71
27
72
22
73
26
0
VERTEX
8
OBJECT__36
10
0
20
0
30
0
70
128
71
21
72
20
73
23
0
VERTEX
8
OBJECT__36
10
0
20
0
30
0
70
128
71
28
72
3
73
24
0
VERTEX
8
OBJECT__36
10
0
20
0
30
0
70
128
71
9
72
7
73
6
0
VERTEX
8
OBJECT__36
10
0
20
0
30
0
70
128
71
17
72
15
73
14
0
VERTEX
8
OBJECT__36
10
0
20
0
30
0
70
128
71
26
72
25
73
27
0
VERTEX
8
OBJECT__36
10
0
20
0
30
0
70
128
71
24
72
23
73
28
0
VERTEX
8
OBJECT__36
10
0
20
0
30
0
70
128
71
13
72
11
73
10
0
VERTEX
8
OBJECT__36
10
0
20
0
30
0
70
128
71
22
72
27
73
20
0
VERTEX
8
OBJECT__36
10
0
20
0
30
0
70
128
71
19
72
18
73
25
0
VERTEX
8
OBJECT__36
10
0
20
0
30
0
70
128
71
3
72
28
73
1
0
SEQEND
8
OBJECT__36
0
POLYLINE
8
OBJECT__37
66
1
70
64
71
28
72
28
62
253
0
VERTEX
8
OBJECT__37
10
-11.693000
20
-75.719002
30
61.500000
70
192
0
VERTEX
8
OBJECT__37
10
-21.070000
20
-83.196999
30
61.500000
70
192
0
VERTEX
8
OBJECT__37
10
-18.919001
20
-84.913002
30
61.500000
70
192
0
VERTEX
8
OBJECT__37
10
-26.274000
20
-94.002998
30
61.500000
70
192
0
VERTEX
8
OBJECT__37
10
-23.591000
20
-94.614998
30
61.500000
70
192
0
VERTEX
8
OBJECT__37
10
-26.274000
20
-105.997002
30
61.500000
70
192
0
VERTEX
8
OBJECT__37
10
-23.591000
20
-105.385002
30
61.500000
70
192
0
VERTEX
8
OBJECT__37
10
-10.499000
20
-78.198997
30
61.500000
70
192
0
VERTEX
8
OBJECT__37
10
0.000000
20
-75.802002
30
61.500000
70
192
0
VERTEX
8
OBJECT__37
10
26.274000
20
-94.002998
30
61.500000
70
192
0
VERTEX
8
OBJECT__37
10
23.591000
20
-94.614998
30
61.500000
70
192
0
VERTEX
8
OBJECT__37
10
23.591000
20
-105.385002
30
61.500000
70
192
0
VERTEX
8
OBJECT__37
10
21.070000
20
-83.196999
30
61.500000
70
192
0
VERTEX
8
OBJECT__37
10
18.919001
20
-84.913002
30
61.500000
70
192
0
VERTEX
8
OBJECT__37
10
11.693000
20
-75.719002
30
61.500000
70
192
0
VERTEX
8
OBJECT__37
10
10.499000
20
-78.198997
30
61.500000
70
192
0
VERTEX
8
OBJECT__37
10
0.000000
20
-73.050003
30
61.500000
70
192
0
VERTEX
8
OBJECT__37
10
-21.070000
20
-116.803001
30
61.500000
70
192
0
VERTEX
8
OBJECT__37
10
-18.919001
20
-115.086998
30
61.500000
70
192
0
VERTEX
8
OBJECT__37
10
-11.693000
20
-124.280998
30
61.500000
70
192
0
VERTEX
8
OBJECT__37
10
-10.499000
20
-121.801003
30
61.500000
70
192
0
VERTEX
8
OBJECT__37
10
0.000000
20
-126.949997
30
61.500000
70
192
0
VERTEX
8
OBJECT__37
10
0.000000
20
-124.197998
30
61.500000
70
192
0
VERTEX
8
OBJECT__37
10
11.693000
20
-124.280998
30
61.500000
70
192
0
VERTEX
8
OBJECT__37
10
10.499000
20
-121.801003
30
61.500000
70
192
0
VERTEX
8
OBJECT__37
10
21.070000
20
-116.803001
30
61.500000
70
192
0
VERTEX
8
OBJECT__37
10
18.919001
20
-115.086998
30
61.500000
70
192
0
VERTEX
8
OBJECT__37
10
26.274000
20
-105.997002
30
61.500000
70
192
0
VERTEX
8
OBJECT__37
10
0
20
0
30
0
70
128
71
1
72
2
73
3
0
VERTEX
8
OBJECT__37
10
0
20
0
30
0
70
128
71
2
72
4
73
5
0
VERTEX
8
OBJECT__37
10
0
20
0
30
0
70
128
71
5
72
3
73
2
0
VERTEX
8
OBJECT__37
10
0
20
0
30
0
70
128
71
4
72
6
73
7
0
VERTEX
8
OBJECT__37
10
0
20
0
30
0
70
128
71
1
72
8
73
9
0
VERTEX
8
OBJECT__37
10
0
20
0
30
0
70
128
71
7
72
5
73
4
0
VERTEX
8
OBJECT__37
10
0
20
0
30
0
70
128
71
10
72
11
73
12
0
VERTEX
8
OBJECT__37
10
0
20
0
30
0
70
128
71
13
72
14
73
11
0
VERTEX
8
OBJECT__37
10
0
20
0
30
0
70
128
71
15
72
16
73
14
0
VERTEX
8
OBJECT__37
10
0
20
0
30
0
70
128
71
17
72
9
73
16
0
VERTEX
8
OBJECT__37
10
0
20
0
30
0
70
128
71
3
72
8
73
1
0
VERTEX
8
OBJECT__37
10
0
20
0
30
0
70
128
71
6
72
18
73
19
0
VERTEX
8
OBJECT__37
10
0
20
0
30
0
70
128
71
11
72
10
73
13
0
VERTEX
8
OBJECT__37
10
0
20
0
30
0
70
128
71
16
72
15
73
17
0
VERTEX
8
OBJECT__37
10
0
20
0
30
0
70
128
71
19
72
7
73
6
0
VERTEX
8
OBJECT__37
10
0
20
0
30
0
70
128
71
18
72
20
73
21
0
VERTEX
8
OBJECT__37
10
0
20
0
30
0
70
128
71
14
72
13
73
15
0
VERTEX
8
OBJECT__37
10
0
20
0
30
0
70
128
71
21
72
19
73
18
0
VERTEX
8
OBJECT__37
10
0
20
0
30
0
70
128
71
20
72
22
73
23
0
VERTEX
8
OBJECT__37
10
0
20
0
30
0
70
128
71
22
72
24
73
25
0
VERTEX
8
OBJECT__37
10
0
20
0
30
0
70
128
71
9
72
17
73
1
0
VERTEX
8
OBJECT__37
10
0
20
0
30
0
70
128
71
25
72
23
73
22
0
VERTEX
8
OBJECT__37
10
0
20
0
30
0
70
128
71
26
72
27
73
25
0
VERTEX
8
OBJECT__37
10
0
20
0
30
0
70
128
71
28
72
12
73
27
0
VERTEX
8
OBJECT__37
10
0
20
0
30
0
70
128
71
23
72
21
73
20
0
VERTEX
8
OBJECT__37
10
0
20
0
30
0
70
128
71
27
72
26
73
28
0
VERTEX
8
OBJECT__37
10
0
20
0
30
0
70
128
71
25
72
24
73
26
0
VERTEX
8
OBJECT__37
10
0
20
0
30
0
70
128
71
12
72
28
73
10
0
SEQEND
8
OBJECT__37
0
POLYLINE
8
OBJECT__39
66
1
70
64
71
4
72
2
62
253
0
VERTEX
8
OBJECT__39
10
-26.000000
20
-100.000000
30
89.900002
70
192
0
VERTEX
8
OBJECT__39
10
-26.000000
20
-102.000000
30
91.900002
70
192
0
VERTEX
8
OBJECT__39
10
-26.000000
20
-100.000000
30
93.900002
70
192
0
VERTEX
8
OBJECT__39
10
-26.000000
20
-98.000000
30
91.900002
70
192
0
VERTEX
8
OBJECT__39
10
0
20
0
30
0
70
128
71
1
72
2
73
3
0
VERTEX
8
OBJECT__39
10
0
20
0
30
0
70
128
71
3
72
4
73
1
0
SEQEND
8
OBJECT__39
0
POLYLINE
8
OBJECT__40
66
1
70
64
71
12
72
12
62
253
0
VERTEX
8
OBJECT__40
10
-26.000000
20
-98.000000
30
91.900002
70
192
0
VERTEX
8
OBJECT__40
10
-26.000000
20
-100.000000
30
93.900002
70
192
0
VERTEX
8
OBJECT__40
10
-14.000000
20
-98.823997
30
93.517998
70
192
0
VERTEX
8
OBJECT__40
10
-14.000000
20
-100.000000
30
93.900002
70
192
0
VERTEX
8
OBJECT__40
10
-26.000000
20
-100.000000
30
89.900002
70
192
0
VERTEX
8
OBJECT__40
10
-14.000000
20
-98.098000
30
91.281998
70
192
0
VERTEX
8
OBJECT__40
10
-14.000000
20
-98.269997
30
91.811996
70
192
0
VERTEX
8
OBJECT__40
10
-14.000000
20
-100.000000
30
89.900002
70
192
0
VERTEX
8
OBJECT__40
10
-14.000000
20
-101.902000
30
91.281998
70
192
0
VERTEX
8
OBJECT__40
10
-26.000000
20
-102.000000
30
91.900002
70
192
0
VERTEX
8
OBJECT__40
10
-14.000000
20
-101.730003
30
91.811996
70
192
0
VERTEX
8
OBJECT__40
10
-14.000000
20
-101.176003
30
93.517998
70
192
0
VERTEX
8
OBJECT__40
10
0
20
0
30
0
70
128
71
1
72
2
73
3
0
VERTEX
8
OBJECT__40
10
0
20
0
30
0
70
128
71
2
72
4
73
3
0
VERTEX
8
OBJECT__40
10
0
20
0
30
0
70
128
71
5
72
1
73
6
0
VERTEX
8
OBJECT__40
10
0
20
0
30
0
70
128
71
1
72
7
73
6
0
VERTEX
8
OBJECT__40
10
0
20
0
30
0
70
128
71
5
72
8
73
9
0
VERTEX
8
OBJECT__40
10
0
20
0
30
0
70
128
71
9
72
10
73
5
0
VERTEX
8
OBJECT__40
10
0
20
0
30
0
70
128
71
10
72
11
73
12
0
VERTEX
8
OBJECT__40
10
0
20
0
30
0
70
128
71
12
72
2
73
10
0
VERTEX
8
OBJECT__40
10
0
20
0
30
0
70
128
71
12
72
4
73
2
0
VERTEX
8
OBJECT__40
10
0
20
0
30
0
70
128
71
9
72
11
73
10
0
VERTEX
8
OBJECT__40
10
0
20
0
30
0
70
128
71
6
72
8
73
5
0
VERTEX
8
OBJECT__40
10
0
20
0
30
0
70
128
71
3
72
7
73
1
0
SEQEND
8
OBJECT__40
0
POLYLINE
8
OBJECT__42
66
1
70
64
71
21
72
26
62
253
0
VERTEX
8
OBJECT__42
10
-11.609000
20
-98.098000
30
90.292000
70
192
0
VERTEX
8
OBJECT__42
10
-10.618000
20
-98.098000
30
87.900002
70
192
0
VERTEX
8
OBJECT__42
10
-12.000000
20
-100.000000
30
87.900002
70
192
0
VERTEX
8
OBJECT__42
10
-12.586000
20
-100.000000
30
89.314003
70
192
0
VERTEX
8
OBJECT__42
10
-14.000000
20
-100.000000
30
89.900002
70
192
0
VERTEX
8
OBJECT__42
10
-10.088000
20
-98.269997
30
87.900002
70
192
0
VERTEX
8
OBJECT__42
10
-10.027000
20
-98.823997
30
91.873001
70
192
0
VERTEX
8
OBJECT__42
10
-8.382000
20
-98.823997
30
87.900002
70
192
0
VERTEX
8
OBJECT__42
10
-14.000000
20
-98.269997
30
91.811996
70
192
0
VERTEX
8
OBJECT__42
10
-14.000000
20
-98.098000
30
91.281998
70
192
0
VERTEX
8
OBJECT__42
10
-10.027000
20
-101.176003
30
91.873001
70
192
0
VERTEX
8
OBJECT__42
10
-8.000000
20
-100.000000
30
87.900002
70
192
0
VERTEX
8
OBJECT__42
10
-8.382000
20
-101.176003
30
87.900002
70
192
0
VERTEX
8
OBJECT__42
10
-14.000000
20
-100.000000
30
93.900002
70
192
0
VERTEX
8
OBJECT__42
10
-14.000000
20
-98.823997
30
93.517998
70
192
0
VERTEX
8
OBJECT__42
10
-10.088000
20
-101.730003
30
87.900002
70
192
0
VERTEX
8
OBJECT__42
10
-11.609000
20
-101.902000
30
90.292000
70
192
0
VERTEX
8
OBJECT__42
10
-10.618000
20
-101.902000
30
87.900002
70
192
0
VERTEX
8
OBJECT__42
10
-14.000000
20
-101.730003
30
91.811996
70
192
0
VERTEX
8
OBJECT__42
10
-14.000000
20
-101.902000
30
91.281998
70
192
0
VERTEX
8
OBJECT__42
10
-14.000000
20
-101.176003
30
93.517998
70
192
0
VERTEX
8
OBJECT__42
10
0
20
0
30
0
70
128
71
1
72
2
73
3
0
VERTEX
8
OBJECT__42
10
0
20
0
30
0
70
128
71
1
72
4
73
5
0
VERTEX
8
OBJECT__42
10
0
20
0
30
0
70
128
71
6
72
2
73
1
0
VERTEX
8
OBJECT__42
10
0
20
0
30
0
70
128
71
7
72
8
73
6
0
VERTEX
8
OBJECT__42
10
0
20
0
30
0
70
128
71
9
72
7
73
1
0
VERTEX
8
OBJECT__42
10
0
20
0
30
0
70
128
71
1
72
10
73
9
0
VERTEX
8
OBJECT__42
10
0
20
0
30
0
70
128
71
7
72
11
73
12
0
VERTEX
8
OBJECT__42
10
0
20
0
30
0
70
128
71
11
72
13
73
12
0
VERTEX
8
OBJECT__42
10
0
20
0
30
0
70
128
71
11
72
7
73
14
0
VERTEX
8
OBJECT__42
10
0
20
0
30
0
70
128
71
7
72
15
73
14
0
VERTEX
8
OBJECT__42
10
0
20
0
30
0
70
128
71
16
72
11
73
17
0
VERTEX
8
OBJECT__42
10
0
20
0
30
0
70
128
71
17
72
18
73
16
0
VERTEX
8
OBJECT__42
10
0
20
0
30
0
70
128
71
19
72
20
73
17
0
VERTEX
8
OBJECT__42
10
0
20
0
30
0
70
128
71
11
72
21
73
19
0
VERTEX
8
OBJECT__42
10
0
20
0
30
0
70
128
71
17
72
4
73
3
0
VERTEX
8
OBJECT__42
10
0
20
0
30
0
70
128
71
17
72
20
73
5
0
VERTEX
8
OBJECT__42
10
0
20
0
30
0
70
128
71
5
72
4
73
17
0
VERTEX
8
OBJECT__42
10
0
20
0
30
0
70
128
71
3
72
18
73
17
0
VERTEX
8
OBJECT__42
10
0
20
0
30
0
70
128
71
17
72
11
73
19
0
VERTEX
8
OBJECT__42
10
0
20
0
30
0
70
128
71
16
72
13
73
11
0
VERTEX
8
OBJECT__42
10
0
20
0
30
0
70
128
71
14
72
21
73
11
0
VERTEX
8
OBJECT__42
10
0
20
0
30
0
70
128
71
12
72
8
73
7
0
VERTEX
8
OBJECT__42
10
0
20
0
30
0
70
128
71
9
72
15
73
7
0
VERTEX
8
OBJECT__42
10
0
20
0
30
0
70
128
71
1
72
7
73
6
0
VERTEX
8
OBJECT__42
10
0
20
0
30
0
70
128
71
5
72
10
73
1
0
VERTEX
8
OBJECT__42
10
0
20
0
30
0
70
128
71
3
72
4
73
1
0
SEQEND
8
OBJECT__42
0
POLYLINE
8
OBJECT__43
66
1
70
64
71
12
72
12
62
253
0
VERTEX
8
OBJECT__43
10
-10.000000
20
-98.000000
30
71.500000
70
192
0
VERTEX
8
OBJECT__43
10
-10.088000
20
-98.269997
30
87.900002
70
192
0
VERTEX
8
OBJECT__43
10
-8.382000
20
-98.823997
30
87.900002
70
192
0
VERTEX
8
OBJECT__43
10
-8.000000
20
-100.000000
30
71.500000
70
192
0
VERTEX
8
OBJECT__43
10
-12.000000
20
-100.000000
30
71.500000
70
192
0
VERTEX
8
OBJECT__43
10
-12.000000
20
-100.000000
30
87.900002
70
192
0
VERTEX
8
OBJECT__43
10
-10.618000
20
-98.098000
30
87.900002
70
192
0
VERTEX
8
OBJECT__43
10
-10.000000
20
-102.000000
30
71.500000
70
192
0
VERTEX
8
OBJECT__43
10
-10.618000
20
-101.902000
30
87.900002
70
192
0
VERTEX
8
OBJECT__43
10
-10.088000
20
-101.730003
30
87.900002
70
192
0
VERTEX
8
OBJECT__43
10
-8.382000
20
-101.176003
30
87.900002
70
192
0
VERTEX
8
OBJECT__43
10
-8.000000
20
-100.000000
30
87.900002
70
192
0
VERTEX
8
OBJECT__43
10
0
20
0
30
0
70
128
71
1
72
2
73
3
0
VERTEX
8
OBJECT__43
10
0
20
0
30
0
70
128
71
3
72
4
73
1
0
VERTEX
8
OBJECT__43
10
0
20
0
30
0
70
128
71
5
72
6
73
7
0
VERTEX
8
OBJECT__43
10
0
20
0
30
0
70
128
71
7
72
1
73
5
0
VERTEX
8
OBJECT__43
10
0
20
0
30
0
70
128
71
5
72
8
73
9
0
VERTEX
8
OBJECT__43
10
0
20
0
30
0
70
128
71
8
72
10
73
9
0
VERTEX
8
OBJECT__43
10
0
20
0
30
0
70
128
71
8
72
4
73
11
0
VERTEX
8
OBJECT__43
10
0
20
0
30
0
70
128
71
4
72
12
73
11
0
VERTEX
8
OBJECT__43
10
0
20
0
30
0
70
128
71
11
72
10
73
8
0
VERTEX
8
OBJECT__43
10
0
20
0
30
0
70
128
71
9
72
6
73
5
0
VERTEX
8
OBJECT__43
10
0
20
0
30
0
70
128
71
7
72
2
73
1
0
VERTEX
8
OBJECT__43
10
0
20
0
30
0
70
128
71
3
72
12
73
4
0
SEQEND
8
OBJECT__43
0
POLYLINE
8
OBJECT__44
66
1
70
64
71
8
72
8
62
253
0
VERTEX
8
OBJECT__44
10
-35.000000
20
-65.000000
30
71.500000
70
192
0
VERTEX
8
OBJECT__44
10
-35.000000
20
-135.000000
30
71.500000
70
192
0
VERTEX
8
OBJECT__44
10
-12.000000
20
-100.000000
30
71.500000
70
192
0
VERTEX
8
OBJECT__44
10
-10.000000
20
-98.000000
30
71.500000
70
192
0
VERTEX
8
OBJECT__44
10
35.000000
20
-135.000000
30
71.500000
70
192
0
VERTEX
8
OBJECT__44
10
-8.000000
20
-100.000000
30
71.500000
70
192
0
VERTEX
8
OBJECT__44
10
-10.000000
20
-102.000000
30
71.500000
70
192
0
VERTEX
8
OBJECT__44
10
35.000000
20
-65.000000
30
71.500000
70
192
0
VERTEX
8
OBJECT__44
10
0
20
0
30
0
70
128
71
1
72
2
73
3
0
VERTEX
8
OBJECT__44
10
0
20
0
30
0
70
128
71
3
72
4
73
1
0
VERTEX
8
OBJECT__44
10
0
20
0
30
0
70
128
71
5
72
6
73
7
0
VERTEX
8
OBJECT__44
10
0
20
0
30
0
70
128
71
2
72
7
73
3
0
VERTEX
8
OBJECT__44
10
0
20
0
30
0
70
128
71
5
72
8
73
6
0
VERTEX
8
OBJECT__44
10
0
20
0
30
0
70
128
71
7
72
2
73
5
0
VERTEX
8
OBJECT__44
10
0
20
0
30
0
70
128
71
4
72
6
73
1
0
VERTEX
8
OBJECT__44
10
0
20
0
30
0
70
128
71
6
72
8
73
1
0
SEQEND
8
OBJECT__44
0
POLYLINE
8
OBJECT__45
66
1
70
64
71
4
72
2
62
253
0
VERTEX
8
OBJECT__45
10
-35.000000
20
-65.000000
30
71.500000
70
192
0
VERTEX
8
OBJECT__45
10
-35.000000
20
-65.000000
30
61.500000
70
192
0
VERTEX
8
OBJECT__45
10
-35.000000
20
-135.000000
30
61.500000
70
192
0
VERTEX
8
OBJECT__45
10
-35.000000
20
-135.000000
30
71.500000
70
192
0
VERTEX
8
OBJECT__45
10
0
20
0
30
0
70
128
71
1
72
2
73
3
0
VERTEX
8
OBJECT__45
10
0
20
0
30
0
70
128
71
3
72
4
73
1
0
SEQEND
8
OBJECT__45
0
POLYLINE
8
OBJECT__46
66
1
70
64
71
4
72
2
62
253
0
VERTEX
8
OBJECT__46
10
35.000000
20
-135.000000
30
71.500000
70
192
0
VERTEX
8
OBJECT__46
10
-35.000000
20
-135.000000
30
71.500000
70
192
0
VERTEX
8
OBJECT__46
10
-35.000000
20
-135.000000
30
61.500000
70
192
0
VERTEX
8
OBJECT__46
10
35.000000
20
-135.000000
30
61.500000
70
192
0
VERTEX
8
OBJECT__46
10
0
20
0
30
0
70
128
71
1
72
2
73
3
0
VERTEX
8
OBJECT__46
10
0
20
0
30
0
70
128
71
3
72
4
73
1
0
SEQEND
8
OBJECT__46
0
POLYLINE
8
OBJECT__47
66
1
70
64
71
4
72
2
62
253
0
VERTEX
8
OBJECT__47
10
35.000000
20
-65.000000
30
61.500000
70
192
0
VERTEX
8
OBJECT__47
10
35.000000
20
-65.000000
30
71.500000
70
192
0
VERTEX
8
OBJECT__47
10
35.000000
20
-135.000000
30
71.500000
70
192
0
VERTEX
8
OBJECT__47
10
35.000000
20
-135.000000
30
61.500000
70
192
0
VERTEX
8
OBJECT__47
10
0
20
0
30
0
70
128
71
1
72
2
73
3
0
VERTEX
8
OBJECT__47
10
0
20
0
30
0
70
128
71
3
72
4
73
1
0
SEQEND
8
OBJECT__47
0
POLYLINE
8
OBJECT__48
66
1
70
64
71
4
72
2
62
253
0
VERTEX
8
OBJECT__48
10
-35.000000
20
-65.000000
30
71.500000
70
192
0
VERTEX
8
OBJECT__48
10
35.000000
20
-65.000000
30
71.500000
70
192
0
VERTEX
8
OBJECT__48
10
35.000000
20
-65.000000
30
61.500000
70
192
0
VERTEX
8
OBJECT__48
10
-35.000000
20
-65.000000
30
61.500000
70
192
0
VERTEX
8
OBJECT__48
10
0
20
0
30
0
70
128
71
1
72
2
73
3
0
VERTEX
8
OBJECT__48
10
0
20
0
30
0
70
128
71
3
72
4
73
1
0
SEQEND
8
OBJECT__48
0
POLYLINE
8
OBJECT__49
66
1
70
64
71
4
72
2
62
253
0
VERTEX
8
OBJECT__49
10
35.000000
20
-135.000000
30
61.500000
70
192
0
VERTEX
8
OBJECT__49
10
-35.000000
20
-135.000000
30
61.500000
70
192
0
VERTEX
8
OBJECT__49
10
-35.000000
20
-65.000000
30
61.500000
70
192
0
VERTEX
8
OBJECT__49
10
35.000000
20
-65.000000
30
61.500000
70
192
0
VERTEX
8
OBJECT__49
10
0
20
0
30
0
70
128
71
1
72
2
73
3
0
VERTEX
8
OBJECT__49
10
0
20
0
30
0
70
128
71
3
72
4
73
1
0
SEQEND
8
OBJECT__49
0
POLYLINE
8
OBJECT__50
66
1
70
64
71
40
72
40
62
253
0
VERTEX
8
OBJECT__50
10
0.000000
20
-126.199997
30
71.599998
70
192
0
VERTEX
8
OBJECT__50
10
-10.026000
20
-124.206001
30
71.599998
70
192
0
VERTEX
8
OBJECT__50
10
-9.912000
20
-123.928001
30
71.900002
70
192
0
VERTEX
8
OBJECT__50
10
-18.313999
20
-118.314003
30
71.900002
70
192
0
VERTEX
8
OBJECT__50
10
-12.851000
20
-122.318001
30
71.599998
70
192
0
VERTEX
8
OBJECT__50
10
-18.525999
20
-118.526001
30
71.599998
70
192
0
VERTEX
8
OBJECT__50
10
-22.318001
20
-112.850998
30
71.599998
70
192
0
VERTEX
8
OBJECT__50
10
-23.927999
20
-109.912003
30
71.900002
70
192
0
VERTEX
8
OBJECT__50
10
-26.200001
20
-100.000000
30
71.599998
70
192
0
VERTEX
8
OBJECT__50
10
-25.900000
20
-100.000000
30
71.900002
70
192
0
VERTEX
8
OBJECT__50
10
-24.205999
20
-89.973999
30
71.599998
70
192
0
VERTEX
8
OBJECT__50
10
-23.927999
20
-90.087997
30
71.900002
70
192
0
VERTEX
8
OBJECT__50
10
-18.313999
20
-81.685997
30
71.900002
70
192
0
VERTEX
8
OBJECT__50
10
-22.318001
20
-87.149002
30
71.599998
70
192
0
VERTEX
8
OBJECT__50
10
-18.525999
20
-81.473999
30
71.599998
70
192
0
VERTEX
8
OBJECT__50
10
-12.851000
20
-77.681999
30
71.599998
70
192
0
VERTEX
8
OBJECT__50
10
-9.912000
20
-76.071999
30
71.900002
70
192
0
VERTEX
8
OBJECT__50
10
0.000000
20
-73.800003
30
71.599998
70
192
0
VERTEX
8
OBJECT__50
10
0.000000
20
-74.099998
30
71.900002
70
192
0
VERTEX
8
OBJECT__50
10
10.026000
20
-75.793999
30
71.599998
70
192
0
VERTEX
8
OBJECT__50
10
9.912000
20
-76.071999
30
71.900002
70
192
0
VERTEX
8
OBJECT__50
10
18.313999
20
-81.685997
30
71.900002
70
192
0
VERTEX
8
OBJECT__50
10
12.851000
20
-77.681999
30
71.599998
70
192
0
VERTEX
8
OBJECT__50
10
18.525999
20
-81.473999
30
71.599998
70
192
0
VERTEX
8
OBJECT__50
10
22.318001
20
-87.149002
30
71.599998
70
192
0
VERTEX
8
OBJECT__50
10
23.927999
20
-90.087997
30
71.900002
70
192
0
VERTEX
8
OBJECT__50
10
24.205999
20
-89.973999
30
71.599998
70
192
0
VERTEX
8
OBJECT__50
10
26.200001
20
-100.000000
30
71.599998
70
192
0
VERTEX
8
OBJECT__50
10
25.900000
20
-100.000000
30
71.900002
70
192
0
VERTEX
8
OBJECT__50
10
24.205999
20
-110.026001
30
71.599998
70
192
0
VERTEX
8
OBJECT__50
10
23.927999
20
-109.912003
30
71.900002
70
192
0
VERTEX
8
OBJECT__50
10
18.313999
20
-118.314003
30
71.900002
70
192
0
VERTEX
8
OBJECT__50
10
22.318001
20
-112.850998
30
71.599998
70
192
0
VERTEX
8
OBJECT__50
10
18.525999
20
-118.526001
30
71.599998
70
192
0
VERTEX
8
OBJECT__50
10
12.851000
20
-122.318001
30
71.599998
70
192
0
VERTEX
8
OBJECT__50
10
9.912000
20
-123.928001
30
71.900002
70
192
0
VERTEX
8
OBJECT__50
10
0.000000
20
-125.900002
30
71.900002
70
192
0
VERTEX
8
OBJECT__50
10
10.026000
20
-124.206001
30
71.599998
70
192
0
VERTEX
8
OBJECT__50
10
-10.026000
20
-75.793999
30
71.599998
70
192
0
VERTEX
8
OBJECT__50
10
-24.205999
20
-110.026001
30
71.599998
70
192
0
VERTEX
8
OBJECT__50
10
0
20
0
30
0
70
128
71
1
72
2
73
3
0
VERTEX
8
OBJECT__50
10
0
20
0
30
0
70
128
71
4
72
3
73
5
0
VERTEX
8
OBJECT__50
10
0
20
0
30
0
70
128
71
3
72
2
73
5
0
VERTEX
8
OBJECT__50
10
0
20
0
30
0
70
128
71
4
72
6
73
7
0
VERTEX
8
OBJECT__50
10
0
20
0
30
0
70
128
71
7
72
8
73
4
0
VERTEX
8
OBJECT__50
10
0
20
0
30
0
70
128
71
9
72
10
73
8
0
VERTEX
8
OBJECT__50
10
0
20
0
30
0
70
128
71
11
72
12
73
10
0
VERTEX
8
OBJECT__50
10
0
20
0
30
0
70
128
71
13
72
12
73
14
0
VERTEX
8
OBJECT__50
10
0
20
0
30
0
70
128
71
12
72
11
73
14
0
VERTEX
8
OBJECT__50
10
0
20
0
30
0
70
128
71
13
72
15
73
16
0
VERTEX
8
OBJECT__50
10
0
20
0
30
0
70
128
71
16
72
17
73
13
0
VERTEX
8
OBJECT__50
10
0
20
0
30
0
70
128
71
18
72
19
73
17
0
VERTEX
8
OBJECT__50
10
0
20
0
30
0
70
128
71
18
72
20
73
21
0
VERTEX
8
OBJECT__50
10
0
20
0
30
0
70
128
71
22
72
21
73
23
0
VERTEX
8
OBJECT__50
10
0
20
0
30
0
70
128
71
21
72
20
73
23
0
VERTEX
8
OBJECT__50
10
0
20
0
30
0
70
128
71
22
72
24
73
25
0
VERTEX
8
OBJECT__50
10
0
20
0
30
0
70
128
71
25
72
26
73
22
0
VERTEX
8
OBJECT__50
10
0
20
0
30
0
70
128
71
27
72
28
73
29
0
VERTEX
8
OBJECT__50
10
0
20
0
30
0
70
128
71
30
72
31
73
29
0
VERTEX
8
OBJECT__50
10
0
20
0
30
0
70
128
71
32
72
31
73
33
0
VERTEX
8
OBJECT__50
10
0
20
0
30
0
70
128
71
31
72
30
73
33
0
VERTEX
8
OBJECT__50
10
0
20
0
30
0
70
128
71
32
72
34
73
35
0
VERTEX
8
OBJECT__50
10
0
20
0
30
0
70
128
71
35
72
36
73
32
0
VERTEX
8
OBJECT__50
10
0
20
0
30
0
70
128
71
1
72
37
73
36
0
VERTEX
8
OBJECT__50
10
0
20
0
30
0
70
128
71
36
72
38
73
1
0
VERTEX
8
OBJECT__50
10
0
20
0
30
0
70
128
71
35
72
38
73
36
0
VERTEX
8
OBJECT__50
10
0
20
0
30
0
70
128
71
33
72
34
73
32
0
VERTEX
8
OBJECT__50
10
0
20
0
30
0
70
128
71
29
72
28
73
30
0
VERTEX
8
OBJECT__50
10
0
20
0
30
0
70
128
71
29
72
26
73
27
0
VERTEX
8
OBJECT__50
10
0
20
0
30
0
70
128
71
25
72
27
73
26
0
VERTEX
8
OBJECT__50
10
0
20
0
30
0
70
128
71
23
72
24
73
22
0
VERTEX
8
OBJECT__50
10
0
20
0
30
0
70
128
71
21
72
19
73
18
0
VERTEX
8
OBJECT__50
10
0
20
0
30
0
70
128
71
17
72
39
73
18
0
VERTEX
8
OBJECT__50
10
0
20
0
30
0
70
128
71
16
72
39
73
17
0
VERTEX
8
OBJECT__50
10
0
20
0
30
0
70
128
71
14
72
15
73
13
0
VERTEX
8
OBJECT__50
10
0
20
0
30
0
70
128
71
10
72
9
73
11
0
VERTEX
8
OBJECT__50
10
0
20
0
30
0
70
128
71
8
72
40
73
9
0
VERTEX
8
OBJECT__50
10
0
20
0
30
0
70
128
71
7
72
40
73
8
0
VERTEX
8
OBJECT__50
10
0
20
0
30
0
70
128
71
5
72
6
73
4
0
VERTEX
8
OBJECT__50
10
0
20
0
30
0
70
128
71
3
72
37
73
1
0
SEQEND
8
OBJECT__50
0
POLYLINE
8
OBJECT__51
66
1
70
64
71
40
72
40
62
253
0
VERTEX
8
OBJECT__51
10
0.000000
20
-73.800003
30
69.000000
70
192
0
VERTEX
8
OBJECT__51
10
13.100000
20
-77.309998
30
69.000000
70
192
0
VERTEX
8
OBJECT__51
10
10.026000
20
-75.793999
30
71.599998
70
192
0
VERTEX
8
OBJECT__51
10
12.851000
20
-77.681999
30
71.599998
70
192
0
VERTEX
8
OBJECT__51
10
22.690001
20
-86.900002
30
69.000000
70
192
0
VERTEX
8
OBJECT__51
10
22.318001
20
-87.149002
30
71.599998
70
192
0
VERTEX
8
OBJECT__51
10
18.525999
20
-81.473999
30
71.599998
70
192
0
VERTEX
8
OBJECT__51
10
26.200001
20
-100.000000
30
69.000000
70
192
0
VERTEX
8
OBJECT__51
10
26.200001
20
-100.000000
30
71.599998
70
192
0
VERTEX
8
OBJECT__51
10
24.205999
20
-89.973999
30
71.599998
70
192
0
VERTEX
8
OBJECT__51
10
22.690001
20
-113.099998
30
69.000000
70
192
0
VERTEX
8
OBJECT__51
10
24.205999
20
-110.026001
30
71.599998
70
192
0
VERTEX
8
OBJECT__51
10
22.318001
20
-112.850998
30
71.599998
70
192
0
VERTEX
8
OBJECT__51
10
13.100000
20
-122.690002
30
69.000000
70
192
0
VERTEX
8
OBJECT__51
10
18.525999
20
-118.526001
30
71.599998
70
192
0
VERTEX
8
OBJECT__51
10
12.851000
20
-122.318001
30
71.599998
70
192
0
VERTEX
8
OBJECT__51
10
0.000000
20
-126.199997
30
69.000000
70
192
0
VERTEX
8
OBJECT__51
10
0.000000
20
-126.199997
30
71.599998
70
192
0
VERTEX
8
OBJECT__51
10
10.026000
20
-124.206001
30
71.599998
70
192
0
VERTEX
8
OBJECT__51
10
-13.100000
20
-122.690002
30
69.000000
70
192
0
VERTEX
8
OBJECT__51
10
-10.026000
20
-124.206001
30
71.599998
70
192
0
VERTEX
8
OBJECT__51
10
-12.851000
20
-122.318001
30
71.599998
70
192
0
VERTEX
8
OBJECT__51
10
-22.690001
20
-113.099998
30
69.000000
70
192
0
VERTEX
8
OBJECT__51
10
-22.318001
20
-112.850998
30
71.599998
70
192
0
VERTEX
8
OBJECT__51
10
-18.525999
20
-118.526001
30
71.599998
70
192
0
VERTEX
8
OBJECT__51
10
-26.200001
20
-100.000000
30
69.000000
70
192
0
VERTEX
8
OBJECT__51
10
-26.200001
20
-100.000000
30
71.599998
70
192
0
VERTEX
8
OBJECT__51
10
-24.205999
20
-110.026001
30
71.599998
70
192
0
VERTEX
8
OBJECT__51
10
-22.690001
20
-86.900002
30
69.000000
70
192
0
VERTEX
8
OBJECT__51
10
-24.205999
20
-89.973999
30
71.599998
70
192
0
VERTEX
8
OBJECT__51
10
-22.318001
20
-87.149002
30
71.599998
70
192
0
VERTEX
8
OBJECT__51
10
0.000000
20
-73.800003
30
71.599998
70
192
0
VERTEX
8
OBJECT__51
10
-10.026000
20
-75.793999
30
71.599998
70
192
0
VERTEX
8
OBJECT__51
10
-13.100000
20
-77.309998
30
69.000000
70
192
0
VERTEX
8
OBJECT__51
10
-12.851000
20
-77.681999
30
71.599998
70
192
0
VERTEX
8
OBJECT__51
10
-17.777000
20
-80.753998
30
69.250000
70
192
0
VERTEX
8
OBJECT__51
10
-17.612000
20
-80.602997
30
69.000000
70
192
0
VERTEX
8
OBJECT__51
10
-18.525999
20
-81.473999
30
71.599998
70
192
0
VERTEX
8
OBJECT__51
10
-18.097000
20
-81.054001
30
69.528999
70
192
0
VERTEX
8
OBJECT__51
10
-19.396999
20
-82.388000
30
69.000000
70
192
0
VERTEX
8
OBJECT__51
10
0
20
0
30
0
70
128
71
1
72
2
73
3
0
VERTEX
8
OBJECT__51
10
0
20
0
30
0
70
128
71
2
72
4
73
3
0
VERTEX
8
OBJECT__51
10
0
20
0
30
0
70
128
71
5
72
6
73
7
0
VERTEX
8
OBJECT__51
10
0
20
0
30
0
70
128
71
7
72
2
73
5
0
VERTEX
8
OBJECT__51
10
0
20
0
30
0
70
128
71
8
72
9
73
10
0
VERTEX
8
OBJECT__51
10
0
20
0
30
0
70
128
71
10
72
5
73
8
0
VERTEX
8
OBJECT__51
10
0
20
0
30
0
70
128
71
8
72
11
73
12
0
VERTEX
8
OBJECT__51
10
0
20
0
30
0
70
128
71
11
72
13
73
12
0
VERTEX
8
OBJECT__51
10
0
20
0
30
0
70
128
71
11
72
14
73
15
0
VERTEX
8
OBJECT__51
10
0
20
0
30
0
70
128
71
14
72
16
73
15
0
VERTEX
8
OBJECT__51
10
0
20
0
30
0
70
128
71
17
72
18
73
19
0
VERTEX
8
OBJECT__51
10
0
20
0
30
0
70
128
71
19
72
14
73
17
0
VERTEX
8
OBJECT__51
10
0
20
0
30
0
70
128
71
17
72
20
73
21
0
VERTEX
8
OBJECT__51
10
0
20
0
30
0
70
128
71
20
72
22
73
21
0
VERTEX
8
OBJECT__51
10
0
20
0
30
0
70
128
71
23
72
24
73
25
0
VERTEX
8
OBJECT__51
10
0
20
0
30
0
70
128
71
25
72
20
73
23
0
VERTEX
8
OBJECT__51
10
0
20
0
30
0
70
128
71
26
72
27
73
28
0
VERTEX
8
OBJECT__51
10
0
20
0
30
0
70
128
71
28
72
23
73
26
0
VERTEX
8
OBJECT__51
10
0
20
0
30
0
70
128
71
26
72
29
73
30
0
VERTEX
8
OBJECT__51
10
0
20
0
30
0
70
128
71
29
72
31
73
30
0
VERTEX
8
OBJECT__51
10
0
20
0
30
0
70
128
71
1
72
32
73
33
0
VERTEX
8
OBJECT__51
10
0
20
0
30
0
70
128
71
33
72
34
73
1
0
VERTEX
8
OBJECT__51
10
0
20
0
30
0
70
128
71
35
72
36
73
37
0
VERTEX
8
OBJECT__51
10
0
20
0
30
0
70
128
71
35
72
38
73
39
0
VERTEX
8
OBJECT__51
10
0
20
0
30
0
70
128
71
39
72
36
73
35
0
VERTEX
8
OBJECT__51
10
0
20
0
30
0
70
128
71
31
72
29
73
40
0
VERTEX
8
OBJECT__51
10
0
20
0
30
0
70
128
71
40
72
38
73
31
0
VERTEX
8
OBJECT__51
10
0
20
0
30
0
70
128
71
40
72
39
73
38
0
VERTEX
8
OBJECT__51
10
0
20
0
30
0
70
128
71
37
72
34
73
35
0
VERTEX
8
OBJECT__51
10
0
20
0
30
0
70
128
71
33
72
35
73
34
0
VERTEX
8
OBJECT__51
10
0
20
0
30
0
70
128
71
30
72
27
73
26
0
VERTEX
8
OBJECT__51
10
0
20
0
30
0
70
128
71
28
72
24
73
23
0
VERTEX
8
OBJECT__51
10
0
20
0
30
0
70
128
71
25
72
22
73
20
0
VERTEX
8
OBJECT__51
10
0
20
0
30
0
70
128
71
21
72
18
73
17
0
VERTEX
8
OBJECT__51
10
0
20
0
30
0
70
128
71
19
72
16
73
14
0
VERTEX
8
OBJECT__51
10
0
20
0
30
0
70
128
71
15
72
13
73
11
0
VERTEX
8
OBJECT__51
10
0
20
0
30
0
70
128
71
12
72
9
73
8
0
VERTEX
8
OBJECT__51
10
0
20
0
30
0
70
128
71
10
72
6
73
5
0
VERTEX
8
OBJECT__51
10
0
20
0
30
0
70
128
71
7
72
4
73
2
0
VERTEX
8
OBJECT__51
10
0
20
0
30
0
70
128
71
3
72
32
73
1
0
SEQEND
8
OBJECT__51
0
POLYLINE
8
OBJECT__53
66
1
70
64
71
30
72
32
62
253
0
VERTEX
8
OBJECT__53
10
25.900000
20
-100.000000
30
71.900002
70
192
0
VERTEX
8
OBJECT__53
10
23.927999
20
-109.912003
30
71.900002
70
192
0
VERTEX
8
OBJECT__53
10
6.218000
20
-105.550003
30
71.900002
70
192
0
VERTEX
8
OBJECT__53
10
18.313999
20
-81.685997
30
71.900002
70
192
0
VERTEX
8
OBJECT__53
10
23.927999
20
-90.087997
30
71.900002
70
192
0
VERTEX
8
OBJECT__53
10
6.218000
20
-94.449997
30
71.900002
70
192
0
VERTEX
8
OBJECT__53
10
9.912000
20
-76.071999
30
71.900002
70
192
0
VERTEX
8
OBJECT__53
10
4.397000
20
-90.053001
30
71.900002
70
192
0
VERTEX
8
OBJECT__53
10
0.000000
20
-88.232002
30
71.900002
70
192
0
VERTEX
8
OBJECT__53
10
18.313999
20
-118.314003
30
71.900002
70
192
0
VERTEX
8
OBJECT__53
10
4.397000
20
-109.946999
30
71.900002
70
192
0
VERTEX
8
OBJECT__53
10
-9.912000
20
-76.071999
30
71.900002
70
192
0
VERTEX
8
OBJECT__53
10
0.000000
20
-74.099998
30
71.900002
70
192
0
VERTEX
8
OBJECT__53
10
9.912000
20
-123.928001
30
71.900002
70
192
0
VERTEX
8
OBJECT__53
10
0.000000
20
-125.900002
30
71.900002
70
192
0
VERTEX
8
OBJECT__53
10
0.000000
20
-111.767998
30
71.900002
70
192
0
VERTEX
8
OBJECT__53
10
-18.313999
20
-81.685997
30
71.900002
70
192
0
VERTEX
8
OBJECT__53
10
-4.397000
20
-90.053001
30
71.900002
70
192
0
VERTEX
8
OBJECT__53
10
-6.218000
20
-94.449997
30
71.900002
70
192
0
VERTEX
8
OBJECT__53
10
-10.000000
20
-102.250000
30
71.900002
70
192
0
VERTEX
8
OBJECT__53
10
-7.750000
20
-100.000000
30
71.900002
70
192
0
VERTEX
8
OBJECT__53
10
-6.218000
20
-105.550003
30
71.900002
70
192
0
VERTEX
8
OBJECT__53
10
-9.912000
20
-123.928001
30
71.900002
70
192
0
VERTEX
8
OBJECT__53
10
-4.397000
20
-109.946999
30
71.900002
70
192
0
VERTEX
8
OBJECT__53
10
-23.927999
20
-109.912003
30
71.900002
70
192
0
VERTEX
8
OBJECT__53
10
-25.900000
20
-100.000000
30
71.900002
70
192
0
VERTEX
8
OBJECT__53
10
-12.250000
20
-100.000000
30
71.900002
70
192
0
VERTEX
8
OBJECT__53
10
-18.313999
20
-118.314003
30
71.900002
70
192
0
VERTEX
8
OBJECT__53
10
-23.927999
20
-90.087997
30
71.900002
70
192
0
VERTEX
8
OBJECT__53
10
-10.000000
20
-97.750000
30
71.900002
70
192
0
VERTEX
8
OBJECT__53
10
0
20
0
30
0
70
128
71
1
72
2
73
3
0
VERTEX
8
OBJECT__53
10
0
20
0
30
0
70
128
71
4
72
5
73
6
0
VERTEX
8
OBJECT__53
10
0
20
0
30
0
70
128
71
6
72
5
73
1
0
VERTEX
8
OBJECT__53
10
0
20
0
30
0
70
128
71
7
72
8
73
9
0
VERTEX
8
OBJECT__53
10
0
20
0
30
0
70
128
71
3
72
6
73
1
0
VERTEX
8
OBJECT__53
10
0
20
0
30
0
70
128
71
10
72
11
73
3
0
VERTEX
8
OBJECT__53
10
0
20
0
30
0
70
128
71
12
72
13
73
9
0
VERTEX
8
OBJECT__53
10
0
20
0
30
0
70
128
71
9
72
13
73
7
0
VERTEX
8
OBJECT__53
10
0
20
0
30
0
70
128
71
3
72
2
73
10
0
VERTEX
8
OBJECT__53
10
0
20
0
30
0
70
128
71
14
72
15
73
16
0
VERTEX
8
OBJECT__53
10
0
20
0
30
0
70
128
71
17
72
18
73
19
0
VERTEX
8
OBJECT__53
10
0
20
0
30
0
70
128
71
18
72
17
73
12
0
VERTEX
8
OBJECT__53
10
0
20
0
30
0
70
128
71
6
72
8
73
4
0
VERTEX
8
OBJECT__53
10
0
20
0
30
0
70
128
71
11
72
10
73
14
0
VERTEX
8
OBJECT__53
10
0
20
0
30
0
70
128
71
20
72
21
73
22
0
VERTEX
8
OBJECT__53
10
0
20
0
30
0
70
128
71
9
72
18
73
12
0
VERTEX
8
OBJECT__53
10
0
20
0
30
0
70
128
71
16
72
11
73
14
0
VERTEX
8
OBJECT__53
10
0
20
0
30
0
70
128
71
23
72
24
73
16
0
VERTEX
8
OBJECT__53
10
0
20
0
30
0
70
128
71
22
72
23
73
20
0
VERTEX
8
OBJECT__53
10
0
20
0
30
0
70
128
71
7
72
4
73
8
0
VERTEX
8
OBJECT__53
10
0
20
0
30
0
70
128
71
22
72
24
73
23
0
VERTEX
8
OBJECT__53
10
0
20
0
30
0
70
128
71
25
72
26
73
27
0
VERTEX
8
OBJECT__53
10
0
20
0
30
0
70
128
71
19
72
22
73
21
0
VERTEX
8
OBJECT__53
10
0
20
0
30
0
70
128
71
16
72
15
73
23
0
VERTEX
8
OBJECT__53
10
0
20
0
30
0
70
128
71
20
72
28
73
25
0
VERTEX
8
OBJECT__53
10
0
20
0
30
0
70
128
71
29
72
30
73
27
0
VERTEX
8
OBJECT__53
10
0
20
0
30
0
70
128
71
19
72
29
73
17
0
VERTEX
8
OBJECT__53
10
0
20
0
30
0
70
128
71
20
72
23
73
28
0
VERTEX
8
OBJECT__53
10
0
20
0
30
0
70
128
71
29
72
19
73
30
0
VERTEX
8
OBJECT__53
10
0
20
0
30
0
70
128
71
27
72
20
73
25
0
VERTEX
8
OBJECT__53
10
0
20
0
30
0
70
128
71
21
72
30
73
19
0
VERTEX
8
OBJECT__53
10
0
20
0
30
0
70
128
71
27
72
26
73
29
0
SEQEND
8
OBJECT__53
0
POLYLINE
8
OBJECT__54
66
1
70
64
71
40
72
40
62
253
0
VERTEX
8
OBJECT__54
10
0.000000
20
-73.800003
30
69.000000
70
192
0
VERTEX
8
OBJECT__54
10
-13.100000
20
-77.309998
30
69.000000
70
192
0
VERTEX
8
OBJECT__54
10
-10.026000
20
-75.793999
30
71.599998
70
192
0
VERTEX
8
OBJECT__54
10
-12.851000
20
-77.681999
30
71.599998
70
192
0
VERTEX
8
OBJECT__54
10
-26.200001
20
-100.000000
30
69.000000
70
192
0
VERTEX
8
OBJECT__54
10
-26.200001
20
-100.000000
30
71.599998
70
192
0
VERTEX
8
OBJECT__54
10
-24.205999
20
-89.973999
30
71.599998
70
192
0
VERTEX
8
OBJECT__54
10
-22.690001
20
-86.900002
30
69.000000
70
192
0
VERTEX
8
OBJECT__54
10
-22.690001
20
-113.099998
30
69.000000
70
192
0
VERTEX
8
OBJECT__54
10
-24.205999
20
-110.026001
30
71.599998
70
192
0
VERTEX
8
OBJECT__54
10
-22.318001
20
-112.850998
30
71.599998
70
192
0
VERTEX
8
OBJECT__54
10
-13.100000
20
-122.690002
30
69.000000
70
192
0
VERTEX
8
OBJECT__54
10
-18.525999
20
-118.526001
30
71.599998
70
192
0
VERTEX
8
OBJECT__54
10
-12.851000
20
-122.318001
30
71.599998
70
192
0
VERTEX
8
OBJECT__54
10
0.000000
20
-126.199997
30
69.000000
70
192
0
VERTEX
8
OBJECT__54
10
0.000000
20
-126.199997
30
71.599998
70
192
0
VERTEX
8
OBJECT__54
10
-10.026000
20
-124.206001
30
71.599998
70
192
0
VERTEX
8
OBJECT__54
10
13.100000
20
-122.690002
30
69.000000
70
192
0
VERTEX
8
OBJECT__54
10
10.026000
20
-124.206001
30
71.599998
70
192
0
VERTEX
8
OBJECT__54
10
12.851000
20
-122.318001
30
71.599998
70
192
0
VERTEX
8
OBJECT__54
10
22.690001
20
-113.099998
30
69.000000
70
192
0
VERTEX
8
OBJECT__54
10
22.318001
20
-112.850998
30
71.599998
70
192
0
VERTEX
8
OBJECT__54
10
18.525999
20
-118.526001
30
71.599998
70
192
0
VERTEX
8
OBJECT__54
10
26.200001
20
-100.000000
30
69.000000
70
192
0
VERTEX
8
OBJECT__54
10
26.200001
20
-100.000000
30
71.599998
70
192
0
VERTEX
8
OBJECT__54
10
24.205999
20
-110.026001
30
71.599998
70
192
0
VERTEX
8
OBJECT__54
10
22.690001
20
-86.900002
30
69.000000
70
192
0
VERTEX
8
OBJECT__54
10
24.205999
20
-89.973999
30
71.599998
70
192
0
VERTEX
8
OBJECT__54
10
22.318001
20
-87.149002
30
71.599998
70
192
0
VERTEX
8
OBJECT__54
10
13.100000
20
-77.309998
30
69.000000
70
192
0
VERTEX
8
OBJECT__54
10
18.525999
20
-81.473999
30
71.599998
70
192
0
VERTEX
8
OBJECT__54
10
12.851000
20
-77.681999
30
71.599998
70
192
0
VERTEX
8
OBJECT__54
10
0.000000
20
-73.800003
30
71.599998
70
192
0
VERTEX
8
OBJECT__54
10
10.026000
20
-75.793999
30
71.599998
70
192
0
VERTEX
8
OBJECT__54
10
-22.318001
20
-87.149002
30
71.599998
70
192
0
VERTEX
8
OBJECT__54
10
-18.525999
20
-81.473999
30
71.599998
70
192
0
VERTEX
8
OBJECT__54
10
-19.396999
20
-82.388000
30
69.000000
70
192
0
VERTEX
8
OBJECT__54
10
-18.097000
20
-81.054001
30
69.528999
70
192
0
VERTEX
8
OBJECT__54
10
-17.777000
20
-80.753998
30
69.250000
70
192
0
VERTEX
8
OBJECT__54
10
-17.612000
20
-80.602997
30
69.000000
70
192
0
VERTEX
8
OBJECT__54
10
0
20
0
30
0
70
128
71
1
72
2
73
3
0
VERTEX
8
OBJECT__54
10
0
20
0
30
0
70
128
71
2
72
4
73
3
0
VERTEX
8
OBJECT__54
10
0
20
0
30
0
70
128
71
5
72
6
73
7
0
VERTEX
8
OBJECT__54
10
0
20
0
30
0
70
128
71
7
72
8
73
5
0
VERTEX
8
OBJECT__54
10
0
20
0
30
0
70
128
71
5
72
9
73
10
0
VERTEX
8
OBJECT__54
10
0
20
0
30
0
70
128
71
9
72
11
73
10
0
VERTEX
8
OBJECT__54
10
0
20
0
30
0
70
128
71
9
72
12
73
13
0
VERTEX
8
OBJECT__54
10
0
20
0
30
0
70
128
71
12
72
14
73
13
0
VERTEX
8
OBJECT__54
10
0
20
0
30
0
70
128
71
15
72
16
73
17
0
VERTEX
8
OBJECT__54
10
0
20
0
30
0
70
128
71
17
72
12
73
15
0
VERTEX
8
OBJECT__54
10
0
20
0
30
0
70
128
71
15
72
18
73
19
0
VERTEX
8
OBJECT__54
10
0
20
0
30
0
70
128
71
18
72
20
73
19
0
VERTEX
8
OBJECT__54
10
0
20
0
30
0
70
128
71
21
72
22
73
23
0
VERTEX
8
OBJECT__54
10
0
20
0
30
0
70
128
71
23
72
18
73
21
0
VERTEX
8
OBJECT__54
10
0
20
0
30
0
70
128
71
24
72
25
73
26
0
VERTEX
8
OBJECT__54
10
0
20
0
30
0
70
128
71
26
72
21
73
24
0
VERTEX
8
OBJECT__54
10
0
20
0
30
0
70
128
71
24
72
27
73
28
0
VERTEX
8
OBJECT__54
10
0
20
0
30
0
70
128
71
27
72
29
73
28
0
VERTEX
8
OBJECT__54
10
0
20
0
30
0
70
128
71
27
72
30
73
31
0
VERTEX
8
OBJECT__54
10
0
20
0
30
0
70
128
71
30
72
32
73
31
0
VERTEX
8
OBJECT__54
10
0
20
0
30
0
70
128
71
1
72
33
73
34
0
VERTEX
8
OBJECT__54
10
0
20
0
30
0
70
128
71
34
72
30
73
1
0
VERTEX
8
OBJECT__54
10
0
20
0
30
0
70
128
71
35
72
36
73
37
0
VERTEX
8
OBJECT__54
10
0
20
0
30
0
70
128
71
36
72
38
73
37
0
VERTEX
8
OBJECT__54
10
0
20
0
30
0
70
128
71
4
72
39
73
38
0
VERTEX
8
OBJECT__54
10
0
20
0
30
0
70
128
71
4
72
2
73
40
0
VERTEX
8
OBJECT__54
10
0
20
0
30
0
70
128
71
40
72
39
73
4
0
VERTEX
8
OBJECT__54
10
0
20
0
30
0
70
128
71
38
72
36
73
4
0
VERTEX
8
OBJECT__54
10
0
20
0
30
0
70
128
71
37
72
8
73
35
0
VERTEX
8
OBJECT__54
10
0
20
0
30
0
70
128
71
34
72
32
73
30
0
VERTEX
8
OBJECT__54
10
0
20
0
30
0
70
128
71
31
72
29
73
27
0
VERTEX
8
OBJECT__54
10
0
20
0
30
0
70
128
71
28
72
25
73
24
0
VERTEX
8
OBJECT__54
10
0
20
0
30
0
70
128
71
26
72
22
73
21
0
VERTEX
8
OBJECT__54
10
0
20
0
30
0
70
128
71
23
72
20
73
18
0
VERTEX
8
OBJECT__54
10
0
20
0
30
0
70
128
71
19
72
16
73
15
0
VERTEX
8
OBJECT__54
10
0
20
0
30
0
70
128
71
17
72
14
73
12
0
VERTEX
8
OBJECT__54
10
0
20
0
30
0
70
128
71
13
72
11
73
9
0
VERTEX
8
OBJECT__54
10
0
20
0
30
0
70
128
71
10
72
6
73
5
0
VERTEX
8
OBJECT__54
10
0
20
0
30
0
70
128
71
7
72
35
73
8
0
VERTEX
8
OBJECT__54
10
0
20
0
30
0
70
128
71
3
72
33
73
1
0
SEQEND
8
OBJECT__54
0
POLYLINE
8
OBJECT__55
66
1
70
64
71
40
72
40
62
253
0
VERTEX
8
OBJECT__55
10
0.000000
20
-126.199997
30
71.599998
70
192
0
VERTEX
8
OBJECT__55
10
0.000000
20
-125.900002
30
71.900002
70
192
0
VERTEX
8
OBJECT__55
10
-9.912000
20
-123.928001
30
71.900002
70
192
0
VERTEX
8
OBJECT__55
10
-18.313999
20
-118.314003
30
71.900002
70
192
0
VERTEX
8
OBJECT__55
10
-18.525999
20
-118.526001
30
71.599998
70
192
0
VERTEX
8
OBJECT__55
10
-12.851000
20
-122.318001
30
71.599998
70
192
0
VERTEX
8
OBJECT__55
10
-23.927999
20
-109.912003
30
71.900002
70
192
0
VERTEX
8
OBJECT__55
10
-22.318001
20
-112.850998
30
71.599998
70
192
0
VERTEX
8
OBJECT__55
10
-24.205999
20
-110.026001
30
71.599998
70
192
0
VERTEX
8
OBJECT__55
10
-26.200001
20
-100.000000
30
71.599998
70
192
0
VERTEX
8
OBJECT__55
10
-24.205999
20
-89.973999
30
71.599998
70
192
0
VERTEX
8
OBJECT__55
10
-25.900000
20
-100.000000
30
71.900002
70
192
0
VERTEX
8
OBJECT__55
10
-18.313999
20
-81.685997
30
71.900002
70
192
0
VERTEX
8
OBJECT__55
10
-18.525999
20
-81.473999
30
71.599998
70
192
0
VERTEX
8
OBJECT__55
10
-22.318001
20
-87.149002
30
71.599998
70
192
0
VERTEX
8
OBJECT__55
10
-23.927999
20
-90.087997
30
71.900002
70
192
0
VERTEX
8
OBJECT__55
10
-9.912000
20
-76.071999
30
71.900002
70
192
0
VERTEX
8
OBJECT__55
10
-12.851000
20
-77.681999
30
71.599998
70
192
0
VERTEX
8
OBJECT__55
10
-10.026000
20
-75.793999
30
71.599998
70
192
0
VERTEX
8
OBJECT__55
10
0.000000
20
-73.800003
30
71.599998
70
192
0
VERTEX
8
OBJECT__55
10
0.000000
20
-74.099998
30
71.900002
70
192
0
VERTEX
8
OBJECT__55
10
9.912000
20
-76.071999
30
71.900002
70
192
0
VERTEX
8
OBJECT__55
10
18.313999
20
-81.685997
30
71.900002
70
192
0
VERTEX
8
OBJECT__55
10
18.525999
20
-81.473999
30
71.599998
70
192
0
VERTEX
8
OBJECT__55
10
12.851000
20
-77.681999
30
71.599998
70
192
0
VERTEX
8
OBJECT__55
10
23.927999
20
-90.087997
30
71.900002
70
192
0
VERTEX
8
OBJECT__55
10
22.318001
20
-87.149002
30
71.599998
70
192
0
VERTEX
8
OBJECT__55
10
24.205999
20
-89.973999
30
71.599998
70
192
0
VERTEX
8
OBJECT__55
10
25.900000
20
-100.000000
30
71.900002
70
192
0
VERTEX
8
OBJECT__55
10
24.205999
20
-110.026001
30
71.599998
70
192
0
VERTEX
8
OBJECT__55
10
26.200001
20
-100.000000
30
71.599998
70
192
0
VERTEX
8
OBJECT__55
10
18.313999
20
-118.314003
30
71.900002
70
192
0
VERTEX
8
OBJECT__55
10
18.525999
20
-118.526001
30
71.599998
70
192
0
VERTEX
8
OBJECT__55
10
22.318001
20
-112.850998
30
71.599998
70
192
0
VERTEX
8
OBJECT__55
10
23.927999
20
-109.912003
30
71.900002
70
192
0
VERTEX
8
OBJECT__55
10
9.912000
20
-123.928001
30
71.900002
70
192
0
VERTEX
8
OBJECT__55
10
12.851000
20
-122.318001
30
71.599998
70
192
0
VERTEX
8
OBJECT__55
10
10.026000
20
-124.206001
30
71.599998
70
192
0
VERTEX
8
OBJECT__55
10
10.026000
20
-75.793999
30
71.599998
70
192
0
VERTEX
8
OBJECT__55
10
-10.026000
20
-124.206001
30
71.599998
70
192
0
VERTEX
8
OBJECT__55
10
0
20
0
30
0
70
128
71
1
72
2
73
3
0
VERTEX
8
OBJECT__55
10
0
20
0
30
0
70
128
71
4
72
5
73
6
0
VERTEX
8
OBJECT__55
10
0
20
0
30
0
70
128
71
6
72
3
73
4
0
VERTEX
8
OBJECT__55
10
0
20
0
30
0
70
128
71
4
72
7
73
8
0
VERTEX
8
OBJECT__55
10
0
20
0
30
0
70
128
71
7
72
9
73
8
0
VERTEX
8
OBJECT__55
10
0
20
0
30
0
70
128
71
10
72
9
73
7
0
VERTEX
8
OBJECT__55
10
0
20
0
30
0
70
128
71
11
72
10
73
12
0
VERTEX
8
OBJECT__55
10
0
20
0
30
0
70
128
71
13
72
14
73
15
0
VERTEX
8
OBJECT__55
10
0
20
0
30
0
70
128
71
15
72
16
73
13
0
VERTEX
8
OBJECT__55
10
0
20
0
30
0
70
128
71
13
72
17
73
18
0
VERTEX
8
OBJECT__55
10
0
20
0
30
0
70
128
71
17
72
19
73
18
0
VERTEX
8
OBJECT__55
10
0
20
0
30
0
70
128
71
20
72
19
73
17
0
VERTEX
8
OBJECT__55
10
0
20
0
30
0
70
128
71
20
72
21
73
22
0
VERTEX
8
OBJECT__55
10
0
20
0
30
0
70
128
71
23
72
24
73
25
0
VERTEX
8
OBJECT__55
10
0
20
0
30
0
70
128
71
25
72
22
73
23
0
VERTEX
8
OBJECT__55
10
0
20
0
30
0
70
128
71
23
72
26
73
27
0
VERTEX
8
OBJECT__55
10
0
20
0
30
0
70
128
71
26
72
28
73
27
0
VERTEX
8
OBJECT__55
10
0
20
0
30
0
70
128
71
28
72
26
73
29
0
VERTEX
8
OBJECT__55
10
0
20
0
30
0
70
128
71
30
72
31
73
29
0
VERTEX
8
OBJECT__55
10
0
20
0
30
0
70
128
71
32
72
33
73
34
0
VERTEX
8
OBJECT__55
10
0
20
0
30
0
70
128
71
34
72
35
73
32
0
VERTEX
8
OBJECT__55
10
0
20
0
30
0
70
128
71
32
72
36
73
37
0
VERTEX
8
OBJECT__55
10
0
20
0
30
0
70
128
71
36
72
38
73
37
0
VERTEX
8
OBJECT__55
10
0
20
0
30
0
70
128
71
1
72
38
73
36
0
VERTEX
8
OBJECT__55
10
0
20
0
30
0
70
128
71
36
72
2
73
1
0
VERTEX
8
OBJECT__55
10
0
20
0
30
0
70
128
71
37
72
33
73
32
0
VERTEX
8
OBJECT__55
10
0
20
0
30
0
70
128
71
34
72
30
73
35
0
VERTEX
8
OBJECT__55
10
0
20
0
30
0
70
128
71
29
72
35
73
30
0
VERTEX
8
OBJECT__55
10
0
20
0
30
0
70
128
71
29
72
31
73
28
0
VERTEX
8
OBJECT__55
10
0
20
0
30
0
70
128
71
27
72
24
73
23
0
VERTEX
8
OBJECT__55
10
0
20
0
30
0
70
128
71
25
72
39
73
22
0
VERTEX
8
OBJECT__55
10
0
20
0
30
0
70
128
71
22
72
39
73
20
0
VERTEX
8
OBJECT__55
10
0
20
0
30
0
70
128
71
17
72
21
73
20
0
VERTEX
8
OBJECT__55
10
0
20
0
30
0
70
128
71
18
72
14
73
13
0
VERTEX
8
OBJECT__55
10
0
20
0
30
0
70
128
71
15
72
11
73
16
0
VERTEX
8
OBJECT__55
10
0
20
0
30
0
70
128
71
12
72
16
73
11
0
VERTEX
8
OBJECT__55
10
0
20
0
30
0
70
128
71
7
72
12
73
10
0
VERTEX
8
OBJECT__55
10
0
20
0
30
0
70
128
71
8
72
5
73
4
0
VERTEX
8
OBJECT__55
10
0
20
0
30
0
70
128
71
6
72
40
73
3
0
VERTEX
8
OBJECT__55
10
0
20
0
30
0
70
128
71
3
72
40
73
1
0
SEQEND
8
OBJECT__55
0
POLYLINE
8
OBJECT__56
66
1
70
64
71
30
72
32
62
253
0
VERTEX
8
OBJECT__56
10
25.900000
20
-100.000000
30
71.900002
70
192
0
VERTEX
8
OBJECT__56
10
6.218000
20
-94.449997
30
71.900002
70
192
0
VERTEX
8
OBJECT__56
10
6.218000
20
-105.550003
30
71.900002
70
192
0
VERTEX
8
OBJECT__56
10
-6.218000
20
-94.449997
30
71.900002
70
192
0
VERTEX
8
OBJECT__56
10
-9.912000
20
-76.071999
30
71.900002
70
192
0
VERTEX
8
OBJECT__56
10
-7.750000
20
-100.000000
30
71.900002
70
192
0
VERTEX
8
OBJECT__56
10
23.927999
20
-109.912003
30
71.900002
70
192
0
VERTEX
8
OBJECT__56
10
18.313999
20
-81.685997
30
71.900002
70
192
0
VERTEX
8
OBJECT__56
10
4.397000
20
-90.053001
30
71.900002
70
192
0
VERTEX
8
OBJECT__56
10
9.912000
20
-76.071999
30
71.900002
70
192
0
VERTEX
8
OBJECT__56
10
0.000000
20
-74.099998
30
71.900002
70
192
0
VERTEX
8
OBJECT__56
10
0.000000
20
-88.232002
30
71.900002
70
192
0
VERTEX
8
OBJECT__56
10
-6.218000
20
-105.550003
30
71.900002
70
192
0
VERTEX
8
OBJECT__56
10
-23.927999
20
-109.912003
30
71.900002
70
192
0
VERTEX
8
OBJECT__56
10
-10.000000
20
-102.250000
30
71.900002
70
192
0
VERTEX
8
OBJECT__56
10
-12.250000
20
-100.000000
30
71.900002
70
192
0
VERTEX
8
OBJECT__56
10
23.927999
20
-90.087997
30
71.900002
70
192
0
VERTEX
8
OBJECT__56
10
-4.397000
20
-90.053001
30
71.900002
70
192
0
VERTEX
8
OBJECT__56
10
-10.000000
20
-97.750000
30
71.900002
70
192
0
VERTEX
8
OBJECT__56
10
-23.927999
20
-90.087997
30
71.900002
70
192
0
VERTEX
8
OBJECT__56
10
-25.900000
20
-100.000000
30
71.900002
70
192
0
VERTEX
8
OBJECT__56
10
-18.313999
20
-81.685997
30
71.900002
70
192
0
VERTEX
8
OBJECT__56
10
-9.912000
20
-123.928001
30
71.900002
70
192
0
VERTEX
8
OBJECT__56
10
9.912000
20
-123.928001
30
71.900002
70
192
0
VERTEX
8
OBJECT__56
10
4.397000
20
-109.946999
30
71.900002
70
192
0
VERTEX
8
OBJECT__56
10
0.000000
20
-111.767998
30
71.900002
70
192
0
VERTEX
8
OBJECT__56
10
-18.313999
20
-118.314003
30
71.900002
70
192
0
VERTEX
8
OBJECT__56
10
-4.397000
20
-109.946999
30
71.900002
70
192
0
VERTEX
8
OBJECT__56
10
0.000000
20
-125.900002
30
71.900002
70
192
0
VERTEX
8
OBJECT__56
10
18.313999
20
-118.314003
30
71.900002
70
192
0
VERTEX
8
OBJECT__56
10
0
20
0
30
0
70
128
71
1
72
2
73
3
0
VERTEX
8
OBJECT__56
10
0
20
0
30
0
70
128
71
4
72
5
73
6
0
VERTEX
8
OBJECT__56
10
0
20
0
30
0
70
128
71
3
72
7
73
1
0
VERTEX
8
OBJECT__56
10
0
20
0
30
0
70
128
71
8
72
9
73
2
0
VERTEX
8
OBJECT__56
10
0
20
0
30
0
70
128
71
10
72
11
73
12
0
VERTEX
8
OBJECT__56
10
0
20
0
30
0
70
128
71
6
72
13
73
4
0
VERTEX
8
OBJECT__56
10
0
20
0
30
0
70
128
71
14
72
15
73
16
0
VERTEX
8
OBJECT__56
10
0
20
0
30
0
70
128
71
2
72
17
73
8
0
VERTEX
8
OBJECT__56
10
0
20
0
30
0
70
128
71
9
72
8
73
10
0
VERTEX
8
OBJECT__56
10
0
20
0
30
0
70
128
71
5
72
18
73
12
0
VERTEX
8
OBJECT__56
10
0
20
0
30
0
70
128
71
5
72
19
73
6
0
VERTEX
8
OBJECT__56
10
0
20
0
30
0
70
128
71
20
72
21
73
16
0
VERTEX
8
OBJECT__56
10
0
20
0
30
0
70
128
71
19
72
5
73
22
0
VERTEX
8
OBJECT__56
10
0
20
0
30
0
70
128
71
16
72
21
73
14
0
VERTEX
8
OBJECT__56
10
0
20
0
30
0
70
128
71
15
72
23
73
13
0
VERTEX
8
OBJECT__56
10
0
20
0
30
0
70
128
71
24
72
25
73
26
0
VERTEX
8
OBJECT__56
10
0
20
0
30
0
70
128
71
12
72
9
73
10
0
VERTEX
8
OBJECT__56
10
0
20
0
30
0
70
128
71
4
72
18
73
5
0
VERTEX
8
OBJECT__56
10
0
20
0
30
0
70
128
71
22
72
20
73
19
0
VERTEX
8
OBJECT__56
10
0
20
0
30
0
70
128
71
14
72
27
73
15
0
VERTEX
8
OBJECT__56
10
0
20
0
30
0
70
128
71
23
72
28
73
13
0
VERTEX
8
OBJECT__56
10
0
20
0
30
0
70
128
71
23
72
29
73
26
0
VERTEX
8
OBJECT__56
10
0
20
0
30
0
70
128
71
26
72
29
73
24
0
VERTEX
8
OBJECT__56
10
0
20
0
30
0
70
128
71
30
72
7
73
3
0
VERTEX
8
OBJECT__56
10
0
20
0
30
0
70
128
71
12
72
11
73
5
0
VERTEX
8
OBJECT__56
10
0
20
0
30
0
70
128
71
27
72
23
73
15
0
VERTEX
8
OBJECT__56
10
0
20
0
30
0
70
128
71
26
72
28
73
23
0
VERTEX
8
OBJECT__56
10
0
20
0
30
0
70
128
71
3
72
25
73
30
0
VERTEX
8
OBJECT__56
10
0
20
0
30
0
70
128
71
16
72
19
73
20
0
VERTEX
8
OBJECT__56
10
0
20
0
30
0
70
128
71
24
72
30
73
25
0
VERTEX
8
OBJECT__56
10
0
20
0
30
0
70
128
71
13
72
6
73
15
0
VERTEX
8
OBJECT__56
10
0
20
0
30
0
70
128
71
1
72
17
73
2
0
SEQEND
8
OBJECT__56
0
POLYLINE
8
OBJECT__57
66
1
70
64
71
26
72
28
62
253
0
VERTEX
8
OBJECT__57
10
19.802000
20
-100.000000
30
61.500000
70
192
0
VERTEX
8
OBJECT__57
10
5.950000
20
-105.550003
30
61.500000
70
192
0
VERTEX
8
OBJECT__57
10
5.950000
20
-94.449997
30
61.500000
70
192
0
VERTEX
8
OBJECT__57
10
17.149000
20
-90.098999
30
61.500000
70
192
0
VERTEX
8
OBJECT__57
10
4.207000
20
-90.242996
30
61.500000
70
192
0
VERTEX
8
OBJECT__57
10
-9.901000
20
-82.850998
30
61.500000
70
192
0
VERTEX
8
OBJECT__57
10
0.000000
20
-80.197998
30
61.500000
70
192
0
VERTEX
8
OBJECT__57
10
0.000000
20
-88.500000
30
61.500000
70
192
0
VERTEX
8
OBJECT__57
10
9.901000
20
-82.850998
30
61.500000
70
192
0
VERTEX
8
OBJECT__57
10
17.149000
20
-109.901001
30
61.500000
70
192
0
VERTEX
8
OBJECT__57
10
9.901000
20
-117.149002
30
61.500000
70
192
0
VERTEX
8
OBJECT__57
10
4.207000
20
-109.757004
30
61.500000
70
192
0
VERTEX
8
OBJECT__57
10
0.000000
20
-119.802002
30
61.500000
70
192
0
VERTEX
8
OBJECT__57
10
0.000000
20
-111.500000
30
61.500000
70
192
0
VERTEX
8
OBJECT__57
10
-9.901000
20
-117.149002
30
61.500000
70
192
0
VERTEX
8
OBJECT__57
10
-4.207000
20
-109.757004
30
61.500000
70
192
0
VERTEX
8
OBJECT__57
10
-17.149000
20
-90.098999
30
61.500000
70
192
0
VERTEX
8
OBJECT__57
10
-4.207000
20
-90.242996
30
61.500000
70
192
0
VERTEX
8
OBJECT__57
10
-10.000000
20
-102.250000
30
61.500000
70
192
0
VERTEX
8
OBJECT__57
10
-7.750000
20
-100.000000
30
61.500000
70
192
0
VERTEX
8
OBJECT__57
10
-5.950000
20
-105.550003
30
61.500000
70
192
0
VERTEX
8
OBJECT__57
10
-10.000000
20
-97.750000
30
61.500000
70
192
0
VERTEX
8
OBJECT__57
10
-12.250000
20
-100.000000
30
61.500000
70
192
0
VERTEX
8
OBJECT__57
10
-5.950000
20
-94.449997
30
61.500000
70
192
0
VERTEX
8
OBJECT__57
10
-17.149000
20
-109.901001
30
61.500000
70
192
0
VERTEX
8
OBJECT__57
10
-19.802000
20
-100.000000
30
61.500000
70
192
0
VERTEX
8
OBJECT__57
10
0
20
0
30
0
70
128
71
1
72
2
73
3
0
VERTEX
8
OBJECT__57
10
0
20
0
30
0
70
128
71
4
72
3
73
5
0
VERTEX
8
OBJECT__57
10
0
20
0
30
0
70
128
71
3
72
4
73
1
0
VERTEX
8
OBJECT__57
10
0
20
0
30
0
70
128
71
6
72
7
73
8
0
VERTEX
8
OBJECT__57
10
0
20
0
30
0
70
128
71
9
72
5
73
8
0
VERTEX
8
OBJECT__57
10
0
20
0
30
0
70
128
71
1
72
10
73
2
0
VERTEX
8
OBJECT__57
10
0
20
0
30
0
70
128
71
10
72
11
73
12
0
VERTEX
8
OBJECT__57
10
0
20
0
30
0
70
128
71
8
72
7
73
9
0
VERTEX
8
OBJECT__57
10
0
20
0
30
0
70
128
71
12
72
2
73
10
0
VERTEX
8
OBJECT__57
10
0
20
0
30
0
70
128
71
11
72
13
73
14
0
VERTEX
8
OBJECT__57
10
0
20
0
30
0
70
128
71
15
72
16
73
14
0
VERTEX
8
OBJECT__57
10
0
20
0
30
0
70
128
71
5
72
9
73
4
0
VERTEX
8
OBJECT__57
10
0
20
0
30
0
70
128
71
14
72
13
73
15
0
VERTEX
8
OBJECT__57
10
0
20
0
30
0
70
128
71
17
72
6
73
18
0
VERTEX
8
OBJECT__57
10
0
20
0
30
0
70
128
71
14
72
12
73
11
0
VERTEX
8
OBJECT__57
10
0
20
0
30
0
70
128
71
19
72
20
73
21
0
VERTEX
8
OBJECT__57
10
0
20
0
30
0
70
128
71
8
72
18
73
6
0
VERTEX
8
OBJECT__57
10
0
20
0
30
0
70
128
71
21
72
15
73
19
0
VERTEX
8
OBJECT__57
10
0
20
0
30
0
70
128
71
17
72
22
73
23
0
VERTEX
8
OBJECT__57
10
0
20
0
30
0
70
128
71
24
72
21
73
20
0
VERTEX
8
OBJECT__57
10
0
20
0
30
0
70
128
71
21
72
16
73
15
0
VERTEX
8
OBJECT__57
10
0
20
0
30
0
70
128
71
17
72
24
73
22
0
VERTEX
8
OBJECT__57
10
0
20
0
30
0
70
128
71
18
72
24
73
17
0
VERTEX
8
OBJECT__57
10
0
20
0
30
0
70
128
71
25
72
26
73
23
0
VERTEX
8
OBJECT__57
10
0
20
0
30
0
70
128
71
20
72
22
73
24
0
VERTEX
8
OBJECT__57
10
0
20
0
30
0
70
128
71
19
72
15
73
25
0
VERTEX
8
OBJECT__57
10
0
20
0
30
0
70
128
71
23
72
19
73
25
0
VERTEX
8
OBJECT__57
10
0
20
0
30
0
70
128
71
23
72
26
73
17
0
SEQEND
8
OBJECT__57
0
POLYLINE
8
OBJECT__58
66
1
70
64
71
26
72
28
62
253
0
VERTEX
8
OBJECT__58
10
19.802000
20
-100.000000
30
61.500000
70
192
0
VERTEX
8
OBJECT__58
10
5.950000
20
-94.449997
30
61.500000
70
192
0
VERTEX
8
OBJECT__58
10
5.950000
20
-105.550003
30
61.500000
70
192
0
VERTEX
8
OBJECT__58
10
-10.000000
20
-102.250000
30
61.500000
70
192
0
VERTEX
8
OBJECT__58
10
-9.901000
20
-117.149002
30
61.500000
70
192
0
VERTEX
8
OBJECT__58
10
-5.950000
20
-105.550003
30
61.500000
70
192
0
VERTEX
8
OBJECT__58
10
0.000000
20
-119.802002
30
61.500000
70
192
0
VERTEX
8
OBJECT__58
10
0.000000
20
-111.500000
30
61.500000
70
192
0
VERTEX
8
OBJECT__58
10
9.901000
20
-117.149002
30
61.500000
70
192
0
VERTEX
8
OBJECT__58
10
4.207000
20
-109.757004
30
61.500000
70
192
0
VERTEX
8
OBJECT__58
10
17.149000
20
-109.901001
30
61.500000
70
192
0
VERTEX
8
OBJECT__58
10
17.149000
20
-90.098999
30
61.500000
70
192
0
VERTEX
8
OBJECT__58
10
9.901000
20
-82.850998
30
61.500000
70
192
0
VERTEX
8
OBJECT__58
10
4.207000
20
-90.242996
30
61.500000
70
192
0
VERTEX
8
OBJECT__58
10
0.000000
20
-80.197998
30
61.500000
70
192
0
VERTEX
8
OBJECT__58
10
0.000000
20
-88.500000
30
61.500000
70
192
0
VERTEX
8
OBJECT__58
10
-9.901000
20
-82.850998
30
61.500000
70
192
0
VERTEX
8
OBJECT__58
10
-4.207000
20
-90.242996
30
61.500000
70
192
0
VERTEX
8
OBJECT__58
10
-17.149000
20
-90.098999
30
61.500000
70
192
0
VERTEX
8
OBJECT__58
10
-19.802000
20
-100.000000
30
61.500000
70
192
0
VERTEX
8
OBJECT__58
10
-12.250000
20
-100.000000
30
61.500000
70
192
0
VERTEX
8
OBJECT__58
10
-17.149000
20
-109.901001
30
61.500000
70
192
0
VERTEX
8
OBJECT__58
10
-4.207000
20
-109.757004
30
61.500000
70
192
0
VERTEX
8
OBJECT__58
10
-10.000000
20
-97.750000
30
61.500000
70
192
0
VERTEX
8
OBJECT__58
10
-7.750000
20
-100.000000
30
61.500000
70
192
0
VERTEX
8
OBJECT__58
10
-5.950000
20
-94.449997
30
61.500000
70
192
0
VERTEX
8
OBJECT__58
10
0
20
0
30
0
70
128
71
1
72
2
73
3
0
VERTEX
8
OBJECT__58
10
0
20
0
30
0
70
128
71
4
72
5
73
6
0
VERTEX
8
OBJECT__58
10
0
20
0
30
0
70
128
71
5
72
7
73
8
0
VERTEX
8
OBJECT__58
10
0
20
0
30
0
70
128
71
9
72
10
73
8
0
VERTEX
8
OBJECT__58
10
0
20
0
30
0
70
128
71
3
72
11
73
1
0
VERTEX
8
OBJECT__58
10
0
20
0
30
0
70
128
71
12
72
13
73
14
0
VERTEX
8
OBJECT__58
10
0
20
0
30
0
70
128
71
13
72
15
73
16
0
VERTEX
8
OBJECT__58
10
0
20
0
30
0
70
128
71
17
72
18
73
16
0
VERTEX
8
OBJECT__58
10
0
20
0
30
0
70
128
71
19
72
20
73
21
0
VERTEX
8
OBJECT__58
10
0
20
0
30
0
70
128
71
22
72
4
73
21
0
VERTEX
8
OBJECT__58
10
0
20
0
30
0
70
128
71
5
72
23
73
6
0
VERTEX
8
OBJECT__58
10
0
20
0
30
0
70
128
71
8
72
7
73
9
0
VERTEX
8
OBJECT__58
10
0
20
0
30
0
70
128
71
11
72
3
73
10
0
VERTEX
8
OBJECT__58
10
0
20
0
30
0
70
128
71
14
72
2
73
12
0
VERTEX
8
OBJECT__58
10
0
20
0
30
0
70
128
71
16
72
15
73
17
0
VERTEX
8
OBJECT__58
10
0
20
0
30
0
70
128
71
24
72
25
73
26
0
VERTEX
8
OBJECT__58
10
0
20
0
30
0
70
128
71
24
72
17
73
19
0
VERTEX
8
OBJECT__58
10
0
20
0
30
0
70
128
71
21
72
20
73
22
0
VERTEX
8
OBJECT__58
10
0
20
0
30
0
70
128
71
6
72
26
73
25
0
VERTEX
8
OBJECT__58
10
0
20
0
30
0
70
128
71
10
72
9
73
11
0
VERTEX
8
OBJECT__58
10
0
20
0
30
0
70
128
71
16
72
14
73
13
0
VERTEX
8
OBJECT__58
10
0
20
0
30
0
70
128
71
26
72
17
73
24
0
VERTEX
8
OBJECT__58
10
0
20
0
30
0
70
128
71
22
72
5
73
4
0
VERTEX
8
OBJECT__58
10
0
20
0
30
0
70
128
71
8
72
23
73
5
0
VERTEX
8
OBJECT__58
10
0
20
0
30
0
70
128
71
26
72
18
73
17
0
VERTEX
8
OBJECT__58
10
0
20
0
30
0
70
128
71
6
72
25
73
4
0
VERTEX
8
OBJECT__58
10
0
20
0
30
0
70
128
71
21
72
24
73
19
0
VERTEX
8
OBJECT__58
10
0
20
0
30
0
70
128
71
1
72
12
73
2
0
SEQEND
8
OBJECT__58
0
POLYLINE
8
OBJECT__60
66
1
70
64
71
23
72
23
62
253
0
VERTEX
8
OBJECT__60
10
13.100000
20
-22.690001
30
71.800003
70
192
0
VERTEX
8
OBJECT__60
10
9.888000
20
-11.412000
30
71.800003
70
192
0
VERTEX
8
OBJECT__60
10
2.149000
20
-14.946000
30
71.800003
70
192
0
VERTEX
8
OBJECT__60
10
22.690001
20
-13.100000
30
71.800003
70
192
0
VERTEX
8
OBJECT__60
10
14.488000
20
-4.254000
30
71.800003
70
192
0
VERTEX
8
OBJECT__60
10
26.200001
20
0.000000
30
71.800003
70
192
0
VERTEX
8
OBJECT__60
10
22.690001
20
13.100000
30
71.800003
70
192
0
VERTEX
8
OBJECT__60
10
14.488000
20
4.254000
30
71.800003
70
192
0
VERTEX
8
OBJECT__60
10
13.100000
20
22.690001
30
71.800003
70
192
0
VERTEX
8
OBJECT__60
10
9.888000
20
11.412000
30
71.800003
70
192
0
VERTEX
8
OBJECT__60
10
0.000000
20
26.200001
30
71.800003
70
192
0
VERTEX
8
OBJECT__60
10
2.149000
20
14.946000
30
71.800003
70
192
0
VERTEX
8
OBJECT__60
10
-13.100000
20
22.690001
30
71.800003
70
192
0
VERTEX
8
OBJECT__60
10
-22.690001
20
13.100000
30
71.800003
70
192
0
VERTEX
8
OBJECT__60
10
-12.703000
20
8.164000
30
71.800003
70
192
0
VERTEX
8
OBJECT__60
10
-26.200001
20
0.000000
30
71.800003
70
192
0
VERTEX
8
OBJECT__60
10
-15.100000
20
0.000000
30
71.800003
70
192
0
VERTEX
8
OBJECT__60
10
-6.273000
20
13.735000
30
71.800003
70
192
0
VERTEX
8
OBJECT__60
10
-22.690001
20
-13.100000
30
71.800003
70
192
0
VERTEX
8
OBJECT__60
10
-12.703000
20
-8.164000
30
71.800003
70
192
0
VERTEX
8
OBJECT__60
10
-13.100000
20
-22.690001
30
71.800003
70
192
0
VERTEX
8
OBJECT__60
10
-6.273000
20
-13.735000
30
71.800003
70
192
0
VERTEX
8
OBJECT__60
10
0.000000
20
-26.200001
30
71.800003
70
192
0
VERTEX
8
OBJECT__60
10
0
20
0
30
0
70
128
71
1
72
2
73
3
0
VERTEX
8
OBJECT__60
10
0
20
0
30
0
70
128
71
4
72
5
73
2
0
VERTEX
8
OBJECT__60
10
0
20
0
30
0
70
128
71
6
72
7
73
8
0
VERTEX
8
OBJECT__60
10
0
20
0
30
0
70
128
71
2
72
1
73
4
0
VERTEX
8
OBJECT__60
10
0
20
0
30
0
70
128
71
5
72
4
73
6
0
VERTEX
8
OBJECT__60
10
0
20
0
30
0
70
128
71
7
72
9
73
10
0
VERTEX
8
OBJECT__60
10
0
20
0
30
0
70
128
71
9
72
11
73
12
0
VERTEX
8
OBJECT__60
10
0
20
0
30
0
70
128
71
13
72
14
73
15
0
VERTEX
8
OBJECT__60
10
0
20
0
30
0
70
128
71
14
72
16
73
17
0
VERTEX
8
OBJECT__60
10
0
20
0
30
0
70
128
71
8
72
5
73
6
0
VERTEX
8
OBJECT__60
10
0
20
0
30
0
70
128
71
12
72
10
73
9
0
VERTEX
8
OBJECT__60
10
0
20
0
30
0
70
128
71
11
72
13
73
18
0
VERTEX
8
OBJECT__60
10
0
20
0
30
0
70
128
71
17
72
15
73
14
0
VERTEX
8
OBJECT__60
10
0
20
0
30
0
70
128
71
19
72
20
73
17
0
VERTEX
8
OBJECT__60
10
0
20
0
30
0
70
128
71
21
72
22
73
20
0
VERTEX
8
OBJECT__60
10
0
20
0
30
0
70
128
71
10
72
8
73
7
0
VERTEX
8
OBJECT__60
10
0
20
0
30
0
70
128
71
15
72
18
73
13
0
VERTEX
8
OBJECT__60
10
0
20
0
30
0
70
128
71
20
72
19
73
21
0
VERTEX
8
OBJECT__60
10
0
20
0
30
0
70
128
71
23
72
3
73
22
0
VERTEX
8
OBJECT__60
10
0
20
0
30
0
70
128
71
18
72
12
73
11
0
VERTEX
8
OBJECT__60
10
0
20
0
30
0
70
128
71
22
72
21
73
23
0
VERTEX
8
OBJECT__60
10
0
20
0
30
0
70
128
71
17
72
16
73
19
0
VERTEX
8
OBJECT__60
10
0
20
0
30
0
70
128
71
3
72
23
73
1
0
SEQEND
8
OBJECT__60
0
POLYLINE
8
OBJECT__61
66
1
70
64
71
24
72
24
62
253
0
VERTEX
8
OBJECT__61
10
-22.690001
20
-13.100000
30
70.800003
70
192
0
VERTEX
8
OBJECT__61
10
-22.690001
20
-13.100000
30
71.800003
70
192
0
VERTEX
8
OBJECT__61
10
-26.200001
20
0.000000
30
71.800003
70
192
0
VERTEX
8
OBJECT__61
10
-13.100000
20
-22.690001
30
70.800003
70
192
0
VERTEX
8
OBJECT__61
10
-13.100000
20
-22.690001
30
71.800003
70
192
0
VERTEX
8
OBJECT__61
10
0.000000
20
-26.200001
30
70.800003
70
192
0
VERTEX
8
OBJECT__61
10
0.000000
20
-26.200001
30
71.800003
70
192
0
VERTEX
8
OBJECT__61
10
13.100000
20
-22.690001
30
70.800003
70
192
0
VERTEX
8
OBJECT__61
10
13.100000
20
-22.690001
30
71.800003
70
192
0
VERTEX
8
OBJECT__61
10
22.690001
20
-13.100000
30
70.800003
70
192
0
VERTEX
8
OBJECT__61
10
22.690001
20
-13.100000
30
71.800003
70
192
0
VERTEX
8
OBJECT__61
10
26.200001
20
0.000000
30
70.800003
70
192
0
VERTEX
8
OBJECT__61
10
26.200001
20
0.000000
30
71.800003
70
192
0
VERTEX
8
OBJECT__61
10
22.690001
20
13.100000
30
71.800003
70
192
0
VERTEX
8
OBJECT__61
10
13.100000
20
22.690001
30
70.800003
70
192
0
VERTEX
8
OBJECT__61
10
13.100000
20
22.690001
30
71.800003
70
192
0
VERTEX
8
OBJECT__61
10
0.000000
20
26.200001
30
70.800003
70
192
0
VERTEX
8
OBJECT__61
10
0.000000
20
26.200001
30
71.800003
70
192
0
VERTEX
8
OBJECT__61
10
-13.100000
20
22.690001
30
70.800003
70
192
0
VERTEX
8
OBJECT__61
10
-13.100000
20
22.690001
30
71.800003
70
192
0
VERTEX
8
OBJECT__61
10
-22.690001
20
13.100000
30
70.800003
70
192
0
VERTEX
8
OBJECT__61
10
-22.690001
20
13.100000
30
71.800003
70
192
0
VERTEX
8
OBJECT__61
10
-26.200001
20
0.000000
30
70.800003
70
192
0
VERTEX
8
OBJECT__61
10
22.690001
20
13.100000
30
70.800003
70
192
0
VERTEX
8
OBJECT__61
10
0
20
0
30
0
70
128
71
1
72
2
73
3
0
VERTEX
8
OBJECT__61
10
0
20
0
30
0
70
128
71
4
72
5
73
2
0
VERTEX
8
OBJECT__61
10
0
20
0
30
0
70
128
71
6
72
7
73
5
0
VERTEX
8
OBJECT__61
10
0
20
0
30
0
70
128
71
8
72
9
73
7
0
VERTEX
8
OBJECT__61
10
0
20
0
30
0
70
128
71
10
72
11
73
9
0
VERTEX
8
OBJECT__61
10
0
20
0
30
0
70
128
71
10
72
12
73
13
0
VERTEX
8
OBJECT__61
10
0
20
0
30
0
70
128
71
14
72
13
73
12
0
VERTEX
8
OBJECT__61
10
0
20
0
30
0
70
128
71
15
72
16
73
14
0
VERTEX
8
OBJECT__61
10
0
20
0
30
0
70
128
71
17
72
18
73
16
0
VERTEX
8
OBJECT__61
10
0
20
0
30
0
70
128
71
19
72
20
73
18
0
VERTEX
8
OBJECT__61
10
0
20
0
30
0
70
128
71
21
72
22
73
20
0
VERTEX
8
OBJECT__61
10
0
20
0
30
0
70
128
71
22
72
21
73
23
0
VERTEX
8
OBJECT__61
10
0
20
0
30
0
70
128
71
23
72
3
73
22
0
VERTEX
8
OBJECT__61
10
0
20
0
30
0
70
128
71
20
72
19
73
21
0
VERTEX
8
OBJECT__61
10
0
20
0
30
0
70
128
71
18
72
17
73
19
0
VERTEX
8
OBJECT__61
10
0
20
0
30
0
70
128
71
16
72
15
73
17
0
VERTEX
8
OBJECT__61
10
0
20
0
30
0
70
128
71
14
72
24
73
15
0
VERTEX
8
OBJECT__61
10
0
20
0
30
0
70
128
71
12
72
24
73
14
0
VERTEX
8
OBJECT__61
10
0
20
0
30
0
70
128
71
13
72
11
73
10
0
VERTEX
8
OBJECT__61
10
0
20
0
30
0
70
128
71
9
72
8
73
10
0
VERTEX
8
OBJECT__61
10
0
20
0
30
0
70
128
71
7
72
6
73
8
0
VERTEX
8
OBJECT__61
10
0
20
0
30
0
70
128
71
5
72
4
73
6
0
VERTEX
8
OBJECT__61
10
0
20
0
30
0
70
128
71
2
72
1
73
4
0
VERTEX
8
OBJECT__61
10
0
20
0
30
0
70
128
71
3
72
23
73
1
0
SEQEND
8
OBJECT__61
0
POLYLINE
8
OBJECT__63
66
1
70
64
71
4
72
2
62
253
0
VERTEX
8
OBJECT__63
10
35.000000
20
-165.000000
30
61.500000
70
192
0
VERTEX
8
OBJECT__63
10
35.000000
20
-165.000000
30
71.500000
70
192
0
VERTEX
8
OBJECT__63
10
35.000000
20
-235.000000
30
71.500000
70
192
0
VERTEX
8
OBJECT__63
10
35.000000
20
-235.000000
30
61.500000
70
192
0
VERTEX
8
OBJECT__63
10
0
20
0
30
0
70
128
71
1
72
2
73
3
0
VERTEX
8
OBJECT__63
10
0
20
0
30
0
70
128
71
3
72
4
73
1
0
SEQEND
8
OBJECT__63
0
POLYLINE
8
OBJECT__64
66
1
70
64
71
4
72
2
62
253
0
VERTEX
8
OBJECT__64
10
35.000000
20
-165.000000
30
61.500000
70
192
0
VERTEX
8
OBJECT__64
10
-35.000000
20
-165.000000
30
61.500000
70
192
0
VERTEX
8
OBJECT__64
10
-35.000000
20
-165.000000
30
71.500000
70
192
0
VERTEX
8
OBJECT__64
10
35.000000
20
-165.000000
30
71.500000
70
192
0
VERTEX
8
OBJECT__64
10
0
20
0
30
0
70
128
71
1
72
2
73
3
0
VERTEX
8
OBJECT__64
10
0
20
0
30
0
70
128
71
3
72
4
73
1
0
SEQEND
8
OBJECT__64
0
POLYLINE
8
OBJECT__66
66
1
70
64
71
4
72
2
62
253
0
VERTEX
8
OBJECT__66
10
-35.000000
20
-165.000000
30
61.500000
70
192
0
VERTEX
8
OBJECT__66
10
-35.000000
20
-235.000000
30
61.500000
70
192
0
VERTEX
8
OBJECT__66
10
-35.000000
20
-235.000000
30
71.500000
70
192
0
VERTEX
8
OBJECT__66
10
-35.000000
20
-165.000000
30
71.500000
70
192
0
VERTEX
8
OBJECT__66
10
0
20
0
30
0
70
128
71
1
72
2
73
3
0
VERTEX
8
OBJECT__66
10
0
20
0
30
0
70
128
71
3
72
4
73
1
0
SEQEND
8
OBJECT__66
0
POLYLINE
8
OBJECT__67
66
1
70
64
71
4
72
2
62
253
0
VERTEX
8
OBJECT__67
10
35.000000
20
-235.000000
30
61.500000
70
192
0
VERTEX
8
OBJECT__67
10
35.000000
20
-235.000000
30
71.500000
70
192
0
VERTEX
8
OBJECT__67
10
-35.000000
20
-235.000000
30
71.500000
70
192
0
VERTEX
8
OBJECT__67
10
-35.000000
20
-235.000000
30
61.500000
70
192
0
VERTEX
8
OBJECT__67
10
0
20
0
30
0
70
128
71
1
72
2
73
3
0
VERTEX
8
OBJECT__67
10
0
20
0
30
0
70
128
71
3
72
4
73
1
0
SEQEND
8
OBJECT__67
0
POLYLINE
8
OBJECT__68
66
1
70
64
71
4
72
2
62
253
0
VERTEX
8
OBJECT__68
10
35.000000
20
-235.000000
30
71.500000
70
192
0
VERTEX
8
OBJECT__68
10
35.000000
20
-165.000000
30
71.500000
70
192
0
VERTEX
8
OBJECT__68
10
-35.000000
20
-165.000000
30
71.500000
70
192
0
VERTEX
8
OBJECT__68
10
-35.000000
20
-235.000000
30
71.500000
70
192
0
VERTEX
8
OBJECT__68
10
0
20
0
30
0
70
128
71
1
72
2
73
3
0
VERTEX
8
OBJECT__68
10
0
20
0
30
0
70
128
71
3
72
4
73
1
0
SEQEND
8
OBJECT__68
0
POLYLINE
8
OBJECT__69
66
1
70
64
71
4
72
2
62
253
0
VERTEX
8
OBJECT__69
10
-35.000000
20
-235.000000
30
61.500000
70
192
0
VERTEX
8
OBJECT__69
10
-35.000000
20
-165.000000
30
61.500000
70
192
0
VERTEX
8
OBJECT__69
10
35.000000
20
-165.000000
30
61.500000
70
192
0
VERTEX
8
OBJECT__69
10
35.000000
20
-235.000000
30
61.500000
70
192
0
VERTEX
8
OBJECT__69
10
0
20
0
30
0
70
128
71
1
72
2
73
3
0
VERTEX
8
OBJECT__69
10
0
20
0
30
0
70
128
71
3
72
4
73
1
0
SEQEND
8
OBJECT__69
0
POLYLINE
8
OBJECT__70
66
1
70
64
71
4
72
2
62
253
0
VERTEX
8
OBJECT__70
10
35.000000
20
35.000000
30
61.500000
70
192
0
VERTEX
8
OBJECT__70
10
35.000000
20
35.000000
30
71.500000
70
192
0
VERTEX
8
OBJECT__70
10
35.000000
20
-35.000000
30
71.500000
70
192
0
VERTEX
8
OBJECT__70
10
35.000000
20
-35.000000
30
61.500000
70
192
0
VERTEX
8
OBJECT__70
10
0
20
0
30
0
70
128
71
1
72
2
73
3
0
VERTEX
8
OBJECT__70
10
0
20
0
30
0
70
128
71
3
72
4
73
1
0
SEQEND
8
OBJECT__70
0
POLYLINE
8
OBJECT__71
66
1
70
64
71
4
72
2
62
253
0
VERTEX
8
OBJECT__71
10
-35.000000
20
35.000000
30
61.500000
70
192
0
VERTEX
8
OBJECT__71
10
-35.000000
20
35.000000
30
71.500000
70
192
0
VERTEX
8
OBJECT__71
10
35.000000
20
35.000000
30
71.500000
70
192
0
VERTEX
8
OBJECT__71
10
35.000000
20
35.000000
30
61.500000
70
192
0
VERTEX
8
OBJECT__71
10
0
20
0
30
0
70
128
71
1
72
2
73
3
0
VERTEX
8
OBJECT__71
10
0
20
0
30
0
70
128
71
3
72
4
73
1
0
SEQEND
8
OBJECT__71
0
POLYLINE
8
OBJECT__73
66
1
70
64
71
4
72
2
62
253
0
VERTEX
8
OBJECT__73
10
-35.000000
20
35.000000
30
61.500000
70
192
0
VERTEX
8
OBJECT__73
10
-35.000000
20
-35.000000
30
61.500000
70
192
0
VERTEX
8
OBJECT__73
10
-35.000000
20
-35.000000
30
71.500000
70
192
0
VERTEX
8
OBJECT__73
10
-35.000000
20
35.000000
30
71.500000
70
192
0
VERTEX
8
OBJECT__73
10
0
20
0
30
0
70
128
71
1
72
2
73
3
0
VERTEX
8
OBJECT__73
10
0
20
0
30
0
70
128
71
3
72
4
73
1
0
SEQEND
8
OBJECT__73
0
POLYLINE
8
OBJECT__74
66
1
70
64
71
4
72
2
62
253
0
VERTEX
8
OBJECT__74
10
-35.000000
20
-35.000000
30
61.500000
70
192
0
VERTEX
8
OBJECT__74
10
35.000000
20
-35.000000
30
61.500000
70
192
0
VERTEX
8
OBJECT__74
10
35.000000
20
-35.000000
30
71.500000
70
192
0
VERTEX
8
OBJECT__74
10
-35.000000
20
-35.000000
30
71.500000
70
192
0
VERTEX
8
OBJECT__74
10
0
20
0
30
0
70
128
71
1
72
2
73
3
0
VERTEX
8
OBJECT__74
10
0
20
0
30
0
70
128
71
3
72
4
73
1
0
SEQEND
8
OBJECT__74
0
POLYLINE
8
OBJECT__75
66
1
70
64
71
4
72
2
62
253
0
VERTEX
8
OBJECT__75
10
35.000000
20
-35.000000
30
71.500000
70
192
0
VERTEX
8
OBJECT__75
10
35.000000
20
35.000000
30
71.500000
70
192
0
VERTEX
8
OBJECT__75
10
-35.000000
20
35.000000
30
71.500000
70
192
0
VERTEX
8
OBJECT__75
10
-35.000000
20
-35.000000
30
71.500000
70
192
0
VERTEX
8
OBJECT__75
10
0
20
0
30
0
70
128
71
1
72
2
73
3
0
VERTEX
8
OBJECT__75
10
0
20
0
30
0
70
128
71
3
72
4
73
1
0
SEQEND
8
OBJECT__75
0
POLYLINE
8
OBJECT__76
66
1
70
64
71
4
72
2
62
253
0
VERTEX
8
OBJECT__76
10
-35.000000
20
-35.000000
30
61.500000
70
192
0
VERTEX
8
OBJECT__76
10
-35.000000
20
35.000000
30
61.500000
70
192
0
VERTEX
8
OBJECT__76
10
35.000000
20
35.000000
30
61.500000
70
192
0
VERTEX
8
OBJECT__76
10
35.000000
20
-35.000000
30
61.500000
70
192
0
VERTEX
8
OBJECT__76
10
0
20
0
30
0
70
128
71
1
72
2
73
3
0
VERTEX
8
OBJECT__76
10
0
20
0
30
0
70
128
71
3
72
4
73
1
0
SEQEND
8
OBJECT__76
0
POLYLINE
8
OBJECT__77
66
1
70
64
71
36
72
36
62
253
0
VERTEX
8
OBJECT__77
10
-18.010000
20
0.000000
30
72.949997
70
192
0
VERTEX
8
OBJECT__77
10
-17.709999
20
0.000000
30
72.650002
70
192
0
VERTEX
8
OBJECT__77
10
-15.956000
20
-7.684000
30
72.650002
70
192
0
VERTEX
8
OBJECT__77
10
-11.042000
20
-13.846000
30
72.650002
70
192
0
VERTEX
8
OBJECT__77
10
-11.229000
20
-14.081000
30
72.949997
70
192
0
VERTEX
8
OBJECT__77
10
-14.232000
20
-10.316000
30
72.949997
70
192
0
VERTEX
8
OBJECT__77
10
-3.941000
20
-17.266001
30
72.650002
70
192
0
VERTEX
8
OBJECT__77
10
-5.440000
20
-16.868999
30
72.949997
70
192
0
VERTEX
8
OBJECT__77
10
-4.008000
20
-17.558001
30
72.949997
70
192
0
VERTEX
8
OBJECT__77
10
3.941000
20
-17.266001
30
72.650002
70
192
0
VERTEX
8
OBJECT__77
10
11.042000
20
-13.846000
30
72.650002
70
192
0
VERTEX
8
OBJECT__77
10
11.229000
20
-14.081000
30
72.949997
70
192
0
VERTEX
8
OBJECT__77
10
5.440000
20
-16.868999
30
72.949997
70
192
0
VERTEX
8
OBJECT__77
10
15.956000
20
-7.684000
30
72.650002
70
192
0
VERTEX
8
OBJECT__77
10
14.232000
20
-10.316000
30
72.949997
70
192
0
VERTEX
8
OBJECT__77
10
16.226000
20
-7.814000
30
72.949997
70
192
0
VERTEX
8
OBJECT__77
10
18.010000
20
0.000000
30
72.949997
70
192
0
VERTEX
8
OBJECT__77
10
16.226000
20
7.814000
30
72.949997
70
192
0
VERTEX
8
OBJECT__77
10
17.709999
20
0.000000
30
72.650002
70
192
0
VERTEX
8
OBJECT__77
10
11.042000
20
13.846000
30
72.650002
70
192
0
VERTEX
8
OBJECT__77
10
11.229000
20
14.081000
30
72.949997
70
192
0
VERTEX
8
OBJECT__77
10
14.232000
20
10.316000
30
72.949997
70
192
0
VERTEX
8
OBJECT__77
10
15.956000
20
7.684000
30
72.650002
70
192
0
VERTEX
8
OBJECT__77
10
3.941000
20
17.266001
30
72.650002
70
192
0
VERTEX
8
OBJECT__77
10
5.440000
20
16.868999
30
72.949997
70
192
0
VERTEX
8
OBJECT__77
10
4.008000
20
17.558001
30
72.949997
70
192
0
VERTEX
8
OBJECT__77
10
-3.941000
20
17.266001
30
72.650002
70
192
0
VERTEX
8
OBJECT__77
10
-11.042000
20
13.846000
30
72.650002
70
192
0
VERTEX
8
OBJECT__77
10
-11.229000
20
14.081000
30
72.949997
70
192
0
VERTEX
8
OBJECT__77
10
-5.440000
20
16.868999
30
72.949997
70
192
0
VERTEX
8
OBJECT__77
10
-15.956000
20
7.684000
30
72.650002
70
192
0
VERTEX
8
OBJECT__77
10
-14.232000
20
10.316000
30
72.949997
70
192
0
VERTEX
8
OBJECT__77
10
-16.226000
20
7.814000
30
72.949997
70
192
0
VERTEX
8
OBJECT__77
10
-4.008000
20
17.558001
30
72.949997
70
192
0
VERTEX
8
OBJECT__77
10
4.008000
20
-17.558001
30
72.949997
70
192
0
VERTEX
8
OBJECT__77
10
-16.226000
20
-7.814000
30
72.949997
70
192
0
VERTEX
8
OBJECT__77
10
0
20
0
30
0
70
128
71
1
72
2
73
3
0
VERTEX
8
OBJECT__77
10
0
20
0
30
0
70
128
71
4
72
5
73
6
0
VERTEX
8
OBJECT__77
10
0
20
0
30
0
70
128
71
6
72
3
73
4
0
VERTEX
8
OBJECT__77
10
0
20
0
30
0
70
128
71
4
72
7
73
8
0
VERTEX
8
OBJECT__77
10
0
20
0
30
0
70
128
71
7
72
9
73
8
0
VERTEX
8
OBJECT__77
10
0
20
0
30
0
70
128
71
9
72
7
73
10
0
VERTEX
8
OBJECT__77
10
0
20
0
30
0
70
128
71
11
72
12
73
13
0
VERTEX
8
OBJECT__77
10
0
20
0
30
0
70
128
71
13
72
10
73
11
0
VERTEX
8
OBJECT__77
10
0
20
0
30
0
70
128
71
11
72
14
73
15
0
VERTEX
8
OBJECT__77
10
0
20
0
30
0
70
128
71
14
72
16
73
15
0
VERTEX
8
OBJECT__77
10
0
20
0
30
0
70
128
71
17
72
16
73
14
0
VERTEX
8
OBJECT__77
10
0
20
0
30
0
70
128
71
18
72
17
73
19
0
VERTEX
8
OBJECT__77
10
0
20
0
30
0
70
128
71
20
72
21
73
22
0
VERTEX
8
OBJECT__77
10
0
20
0
30
0
70
128
71
22
72
23
73
20
0
VERTEX
8
OBJECT__77
10
0
20
0
30
0
70
128
71
20
72
24
73
25
0
VERTEX
8
OBJECT__77
10
0
20
0
30
0
70
128
71
24
72
26
73
25
0
VERTEX
8
OBJECT__77
10
0
20
0
30
0
70
128
71
26
72
24
73
27
0
VERTEX
8
OBJECT__77
10
0
20
0
30
0
70
128
71
28
72
29
73
30
0
VERTEX
8
OBJECT__77
10
0
20
0
30
0
70
128
71
30
72
27
73
28
0
VERTEX
8
OBJECT__77
10
0
20
0
30
0
70
128
71
28
72
31
73
32
0
VERTEX
8
OBJECT__77
10
0
20
0
30
0
70
128
71
31
72
33
73
32
0
VERTEX
8
OBJECT__77
10
0
20
0
30
0
70
128
71
1
72
33
73
31
0
VERTEX
8
OBJECT__77
10
0
20
0
30
0
70
128
71
31
72
2
73
1
0
VERTEX
8
OBJECT__77
10
0
20
0
30
0
70
128
71
32
72
29
73
28
0
VERTEX
8
OBJECT__77
10
0
20
0
30
0
70
128
71
30
72
34
73
27
0
VERTEX
8
OBJECT__77
10
0
20
0
30
0
70
128
71
27
72
34
73
26
0
VERTEX
8
OBJECT__77
10
0
20
0
30
0
70
128
71
25
72
21
73
20
0
VERTEX
8
OBJECT__77
10
0
20
0
30
0
70
128
71
22
72
18
73
23
0
VERTEX
8
OBJECT__77
10
0
20
0
30
0
70
128
71
19
72
23
73
18
0
VERTEX
8
OBJECT__77
10
0
20
0
30
0
70
128
71
14
72
19
73
17
0
VERTEX
8
OBJECT__77
10
0
20
0
30
0
70
128
71
15
72
12
73
11
0
VERTEX
8
OBJECT__77
10
0
20
0
30
0
70
128
71
13
72
35
73
10
0
VERTEX
8
OBJECT__77
10
0
20
0
30
0
70
128
71
10
72
35
73
9
0
VERTEX
8
OBJECT__77
10
0
20
0
30
0
70
128
71
8
72
5
73
4
0
VERTEX
8
OBJECT__77
10
0
20
0
30
0
70
128
71
6
72
36
73
3
0
VERTEX
8
OBJECT__77
10
0
20
0
30
0
70
128
71
3
72
36
73
1
0
SEQEND
8
OBJECT__77
0
POLYLINE
8
OBJECT__78
66
1
70
64
71
74
72
76
62
253
0
VERTEX
8
OBJECT__78
10
16.226000
20
-7.814000
30
72.949997
70
192
0
VERTEX
8
OBJECT__78
10
18.010000
20
0.000000
30
72.949997
70
192
0
VERTEX
8
OBJECT__78
10
18.010000
20
0.000000
30
97.963997
70
192
0
VERTEX
8
OBJECT__78
10
16.226000
20
-7.814000
30
97.963997
70
192
0
VERTEX
8
OBJECT__78
10
14.232000
20
-10.316000
30
97.963997
70
192
0
VERTEX
8
OBJECT__78
10
14.232000
20
-10.316000
30
72.949997
70
192
0
VERTEX
8
OBJECT__78
10
11.229000
20
-14.081000
30
97.963997
70
192
0
VERTEX
8
OBJECT__78
10
11.229000
20
-14.081000
30
72.949997
70
192
0
VERTEX
8
OBJECT__78
10
5.440000
20
-16.868999
30
97.963997
70
192
0
VERTEX
8
OBJECT__78
10
5.440000
20
-16.868999
30
72.949997
70
192
0
VERTEX
8
OBJECT__78
10
4.008000
20
-17.558001
30
97.963997
70
192
0
VERTEX
8
OBJECT__78
10
-4.008000
20
-17.558001
30
97.963997
70
192
0
VERTEX
8
OBJECT__78
10
-4.008000
20
-17.558001
30
72.949997
70
192
0
VERTEX
8
OBJECT__78
10
4.008000
20
-17.558001
30
72.949997
70
192
0
VERTEX
8
OBJECT__78
10
-5.440000
20
-16.868999
30
72.949997
70
192
0
VERTEX
8
OBJECT__78
10
-5.440000
20
-16.868999
30
97.963997
70
192
0
VERTEX
8
OBJECT__78
10
-14.232000
20
-10.316000
30
72.949997
70
192
0
VERTEX
8
OBJECT__78
10
-11.229000
20
-14.081000
30
72.949997
70
192
0
VERTEX
8
OBJECT__78
10
-11.229000
20
-14.081000
30
97.963997
70
192
0
VERTEX
8
OBJECT__78
10
-14.232000
20
-10.316000
30
97.963997
70
192
0
VERTEX
8
OBJECT__78
10
-16.226000
20
-7.814000
30
97.963997
70
192
0
VERTEX
8
OBJECT__78
10
-16.226000
20
-7.814000
30
72.949997
70
192
0
VERTEX
8
OBJECT__78
10
-18.010000
20
0.000000
30
97.963997
70
192
0
VERTEX
8
OBJECT__78
10
-18.010000
20
0.000000
30
72.949997
70
192
0
VERTEX
8
OBJECT__78
10
-16.226000
20
7.814000
30
97.963997
70
192
0
VERTEX
8
OBJECT__78
10
-14.232000
20
10.316000
30
97.963997
70
192
0
VERTEX
8
OBJECT__78
10
-14.232000
20
10.316000
30
72.949997
70
192
0
VERTEX
8
OBJECT__78
10
-16.226000
20
7.814000
30
72.949997
70
192
0
VERTEX
8
OBJECT__78
10
16.226000
20
7.814000
30
97.963997
70
192
0
VERTEX
8
OBJECT__78
10
16.226000
20
7.814000
30
72.949997
70
192
0
VERTEX
8
OBJECT__78
10
14.232000
20
10.316000
30
72.949997
70
192
0
VERTEX
8
OBJECT__78
10
14.232000
20
10.316000
30
97.963997
70
192
0
VERTEX
8
OBJECT__78
10
4.008000
20
17.558001
30
72.949997
70
192
0
VERTEX
8
OBJECT__78
10
-4.008000
20
17.558001
30
72.949997
70
192
0
VERTEX
8
OBJECT__78
10
0.000000
20
18.010000
30
88.959999
70
192
0
VERTEX
8
OBJECT__78
10
-5.530000
20
16.944000
30
88.959999
70
192
0
VERTEX
8
OBJECT__78
10
5.530000
20
16.944000
30
88.959999
70
192
0
VERTEX
8
OBJECT__78
10
5.440000
20
16.868999
30
72.949997
70
192
0
VERTEX
8
OBJECT__78
10
5.440000
20
16.868999
30
97.963997
70
192
0
VERTEX
8
OBJECT__78
10
11.229000
20
14.081000
30
97.963997
70
192
0
VERTEX
8
OBJECT__78
10
7.105000
20
16.549000
30
95.695999
70
192
0
VERTEX
8
OBJECT__78
10
6.694000
20
16.719999
30
95.762001
70
192
0
VERTEX
8
OBJECT__78
10
7.503000
20
16.372999
30
95.482002
70
192
0
VERTEX
8
OBJECT__78
10
7.977000
20
16.146999
30
94.792000
70
192
0
VERTEX
8
OBJECT__78
10
7.794000
20
16.236000
30
95.170998
70
192
0
VERTEX
8
OBJECT__78
10
8.031000
20
16.121000
30
90.181999
70
192
0
VERTEX
8
OBJECT__78
10
8.041000
20
16.115000
30
90.360001
70
192
0
VERTEX
8
OBJECT__78
10
8.041000
20
16.115000
30
94.362000
70
192
0
VERTEX
8
OBJECT__78
10
7.894000
20
16.188000
30
89.722000
70
192
0
VERTEX
8
OBJECT__78
10
7.593000
20
16.330999
30
89.317001
70
192
0
VERTEX
8
OBJECT__78
10
11.229000
20
14.081000
30
72.949997
70
192
0
VERTEX
8
OBJECT__78
10
6.694000
20
16.719999
30
88.959999
70
192
0
VERTEX
8
OBJECT__78
10
7.173000
20
16.520000
30
89.051003
70
192
0
VERTEX
8
OBJECT__78
10
-5.530000
20
16.944000
30
95.762001
70
192
0
VERTEX
8
OBJECT__78
10
-5.440000
20
16.868999
30
97.963997
70
192
0
VERTEX
8
OBJECT__78
10
-4.008000
20
17.558001
30
97.963997
70
192
0
VERTEX
8
OBJECT__78
10
4.008000
20
17.558001
30
97.963997
70
192
0
VERTEX
8
OBJECT__78
10
5.530000
20
16.944000
30
95.762001
70
192
0
VERTEX
8
OBJECT__78
10
0.000000
20
18.010000
30
95.762001
70
192
0
VERTEX
8
OBJECT__78
10
-11.229000
20
14.081000
30
72.949997
70
192
0
VERTEX
8
OBJECT__78
10
-7.105000
20
16.549000
30
89.027000
70
192
0
VERTEX
8
OBJECT__78
10
-6.694000
20
16.719999
30
88.959999
70
192
0
VERTEX
8
OBJECT__78
10
-5.440000
20
16.868999
30
72.949997
70
192
0
VERTEX
8
OBJECT__78
10
-7.503000
20
16.372999
30
89.239998
70
192
0
VERTEX
8
OBJECT__78
10
-7.977000
20
16.146999
30
89.931000
70
192
0
VERTEX
8
OBJECT__78
10
-7.794000
20
16.236000
30
89.551003
70
192
0
VERTEX
8
OBJECT__78
10
-8.041000
20
16.115000
30
90.360001
70
192
0
VERTEX
8
OBJECT__78
10
-8.031000
20
16.121000
30
94.540001
70
192
0
VERTEX
8
OBJECT__78
10
-8.041000
20
16.115000
30
94.362000
70
192
0
VERTEX
8
OBJECT__78
10
-11.229000
20
14.081000
30
97.963997
70
192
0
VERTEX
8
OBJECT__78
10
-7.894000
20
16.188000
30
95.000000
70
192
0
VERTEX
8
OBJECT__78
10
-6.694000
20
16.719999
30
95.762001
70
192
0
VERTEX
8
OBJECT__78
10
-7.173000
20
16.520000
30
95.670998
70
192
0
VERTEX
8
OBJECT__78
10
-7.593000
20
16.330999
30
95.405998
70
192
0
VERTEX
8
OBJECT__78
10
0
20
0
30
0
70
128
71
1
72
2
73
3
0
VERTEX
8
OBJECT__78
10
0
20
0
30
0
70
128
71
1
72
4
73
5
0
VERTEX
8
OBJECT__78
10
0
20
0
30
0
70
128
71
5
72
6
73
1
0
VERTEX
8
OBJECT__78
10
0
20
0
30
0
70
128
71
7
72
8
73
6
0
VERTEX
8
OBJECT__78
10
0
20
0
30
0
70
128
71
9
72
10
73
8
0
VERTEX
8
OBJECT__78
10
0
20
0
30
0
70
128
71
8
72
7
73
9
0
VERTEX
8
OBJECT__78
10
0
20
0
30
0
70
128
71
11
72
12
73
13
0
VERTEX
8
OBJECT__78
10
0
20
0
30
0
70
128
71
9
72
11
73
14
0
VERTEX
8
OBJECT__78
10
0
20
0
30
0
70
128
71
14
72
10
73
9
0
VERTEX
8
OBJECT__78
10
0
20
0
30
0
70
128
71
15
72
13
73
12
0
VERTEX
8
OBJECT__78
10
0
20
0
30
0
70
128
71
12
72
16
73
15
0
VERTEX
8
OBJECT__78
10
0
20
0
30
0
70
128
71
17
72
18
73
19
0
VERTEX
8
OBJECT__78
10
0
20
0
30
0
70
128
71
16
72
19
73
18
0
VERTEX
8
OBJECT__78
10
0
20
0
30
0
70
128
71
18
72
15
73
16
0
VERTEX
8
OBJECT__78
10
0
20
0
30
0
70
128
71
20
72
21
73
22
0
VERTEX
8
OBJECT__78
10
0
20
0
30
0
70
128
71
22
72
21
73
23
0
VERTEX
8
OBJECT__78
10
0
20
0
30
0
70
128
71
23
72
24
73
22
0
VERTEX
8
OBJECT__78
10
0
20
0
30
0
70
128
71
25
72
26
73
27
0
VERTEX
8
OBJECT__78
10
0
20
0
30
0
70
128
71
25
72
28
73
24
0
VERTEX
8
OBJECT__78
10
0
20
0
30
0
70
128
71
24
72
23
73
25
0
VERTEX
8
OBJECT__78
10
0
20
0
30
0
70
128
71
29
72
3
73
2
0
VERTEX
8
OBJECT__78
10
0
20
0
30
0
70
128
71
29
72
30
73
31
0
VERTEX
8
OBJECT__78
10
0
20
0
30
0
70
128
71
31
72
32
73
29
0
VERTEX
8
OBJECT__78
10
0
20
0
30
0
70
128
71
33
72
34
73
35
0
VERTEX
8
OBJECT__78
10
0
20
0
30
0
70
128
71
34
72
36
73
35
0
VERTEX
8
OBJECT__78
10
0
20
0
30
0
70
128
71
37
72
38
73
33
0
VERTEX
8
OBJECT__78
10
0
20
0
30
0
70
128
71
35
72
37
73
33
0
VERTEX
8
OBJECT__78
10
0
20
0
30
0
70
128
71
39
72
40
73
41
0
VERTEX
8
OBJECT__78
10
0
20
0
30
0
70
128
71
41
72
42
73
39
0
VERTEX
8
OBJECT__78
10
0
20
0
30
0
70
128
71
40
72
43
73
41
0
VERTEX
8
OBJECT__78
10
0
20
0
30
0
70
128
71
44
72
45
73
40
0
VERTEX
8
OBJECT__78
10
0
20
0
30
0
70
128
71
40
72
32
73
44
0
VERTEX
8
OBJECT__78
10
0
20
0
30
0
70
128
71
45
72
43
73
40
0
VERTEX
8
OBJECT__78
10
0
20
0
30
0
70
128
71
32
72
31
73
46
0
VERTEX
8
OBJECT__78
10
0
20
0
30
0
70
128
71
46
72
47
73
32
0
VERTEX
8
OBJECT__78
10
0
20
0
30
0
70
128
71
47
72
48
73
32
0
VERTEX
8
OBJECT__78
10
0
20
0
30
0
70
128
71
31
72
49
73
46
0
VERTEX
8
OBJECT__78
10
0
20
0
30
0
70
128
71
48
72
44
73
32
0
VERTEX
8
OBJECT__78
10
0
20
0
30
0
70
128
71
50
72
31
73
51
0
VERTEX
8
OBJECT__78
10
0
20
0
30
0
70
128
71
51
72
38
73
52
0
VERTEX
8
OBJECT__78
10
0
20
0
30
0
70
128
71
38
72
37
73
52
0
VERTEX
8
OBJECT__78
10
0
20
0
30
0
70
128
71
52
72
53
73
51
0
VERTEX
8
OBJECT__78
10
0
20
0
30
0
70
128
71
51
72
53
73
50
0
VERTEX
8
OBJECT__78
10
0
20
0
30
0
70
128
71
50
72
49
73
31
0
VERTEX
8
OBJECT__78
10
0
20
0
30
0
70
128
71
54
72
55
73
56
0
VERTEX
8
OBJECT__78
10
0
20
0
30
0
70
128
71
57
72
58
73
59
0
VERTEX
8
OBJECT__78
10
0
20
0
30
0
70
128
71
59
72
56
73
57
0
VERTEX
8
OBJECT__78
10
0
20
0
30
0
70
128
71
57
72
39
73
58
0
VERTEX
8
OBJECT__78
10
0
20
0
30
0
70
128
71
60
72
61
73
62
0
VERTEX
8
OBJECT__78
10
0
20
0
30
0
70
128
71
62
72
63
73
60
0
VERTEX
8
OBJECT__78
10
0
20
0
30
0
70
128
71
64
72
61
73
60
0
VERTEX
8
OBJECT__78
10
0
20
0
30
0
70
128
71
60
72
27
73
64
0
VERTEX
8
OBJECT__78
10
0
20
0
30
0
70
128
71
27
72
65
73
66
0
VERTEX
8
OBJECT__78
10
0
20
0
30
0
70
128
71
66
72
64
73
27
0
VERTEX
8
OBJECT__78
10
0
20
0
30
0
70
128
71
26
72
67
73
65
0
VERTEX
8
OBJECT__78
10
0
20
0
30
0
70
128
71
26
72
68
73
69
0
VERTEX
8
OBJECT__78
10
0
20
0
30
0
70
128
71
69
72
67
73
26
0
VERTEX
8
OBJECT__78
10
0
20
0
30
0
70
128
71
68
72
26
73
70
0
VERTEX
8
OBJECT__78
10
0
20
0
30
0
70
128
71
70
72
71
73
68
0
VERTEX
8
OBJECT__78
10
0
20
0
30
0
70
128
71
65
72
27
73
26
0
VERTEX
8
OBJECT__78
10
0
20
0
30
0
70
128
71
55
72
72
73
73
0
VERTEX
8
OBJECT__78
10
0
20
0
30
0
70
128
71
55
72
54
73
72
0
VERTEX
8
OBJECT__78
10
0
20
0
30
0
70
128
71
73
72
70
73
55
0
VERTEX
8
OBJECT__78
10
0
20
0
30
0
70
128
71
73
72
74
73
70
0
VERTEX
8
OBJECT__78
10
0
20
0
30
0
70
128
71
74
72
71
73
70
0
VERTEX
8
OBJECT__78
10
0
20
0
30
0
70
128
71
62
72
36
73
63
0
VERTEX
8
OBJECT__78
10
0
20
0
30
0
70
128
71
56
72
59
73
54
0
VERTEX
8
OBJECT__78
10
0
20
0
30
0
70
128
71
42
72
58
73
39
0
VERTEX
8
OBJECT__78
10
0
20
0
30
0
70
128
71
34
72
63
73
36
0
VERTEX
8
OBJECT__78
10
0
20
0
30
0
70
128
71
2
72
30
73
29
0
VERTEX
8
OBJECT__78
10
0
20
0
30
0
70
128
71
27
72
28
73
25
0
VERTEX
8
OBJECT__78
10
0
20
0
30
0
70
128
71
22
72
17
73
20
0
VERTEX
8
OBJECT__78
10
0
20
0
30
0
70
128
71
19
72
20
73
17
0
VERTEX
8
OBJECT__78
10
0
20
0
30
0
70
128
71
13
72
14
73
11
0
VERTEX
8
OBJECT__78
10
0
20
0
30
0
70
128
71
6
72
5
73
7
0
VERTEX
8
OBJECT__78
10
0
20
0
30
0
70
128
71
3
72
4
73
1
0
SEQEND
8
OBJECT__78
0
POLYLINE
8
OBJECT__80
66
1
70
64
71
8
72
6
62
253
0
VERTEX
8
OBJECT__80
10
0.000000
20
18.709999
30
89.660004
70
192
0
VERTEX
8
OBJECT__80
10
0.000000
20
18.010000
30
88.959999
70
192
0
VERTEX
8
OBJECT__80
10
-5.530000
20
16.944000
30
88.959999
70
192
0
VERTEX
8
OBJECT__80
10
-6.954000
20
17.370001
30
89.660004
70
192
0
VERTEX
8
OBJECT__80
10
6.954000
20
17.370001
30
89.660004
70
192
0
VERTEX
8
OBJECT__80
10
5.530000
20
16.944000
30
88.959999
70
192
0
VERTEX
8
OBJECT__80
10
6.694000
20
16.719999
30
88.959999
70
192
0
VERTEX
8
OBJECT__80
10
-6.694000
20
16.719999
30
88.959999
70
192
0
VERTEX
8
OBJECT__80
10
0
20
0
30
0
70
128
71
1
72
2
73
3
0
VERTEX
8
OBJECT__80
10
0
20
0
30
0
70
128
71
3
72
4
73
1
0
VERTEX
8
OBJECT__80
10
0
20
0
30
0
70
128
71
1
72
5
73
6
0
VERTEX
8
OBJECT__80
10
0
20
0
30
0
70
128
71
5
72
7
73
6
0
VERTEX
8
OBJECT__80
10
0
20
0
30
0
70
128
71
6
72
2
73
1
0
VERTEX
8
OBJECT__80
10
0
20
0
30
0
70
128
71
3
72
8
73
4
0
SEQEND
8
OBJECT__80
0
POLYLINE
8
OBJECT__81
66
1
70
64
71
12
72
10
62
253
0
VERTEX
8
OBJECT__81
10
-7.977000
20
16.146999
30
89.931000
70
192
0
VERTEX
8
OBJECT__81
10
-8.041000
20
16.115000
30
90.360001
70
192
0
VERTEX
8
OBJECT__81
10
-7.654000
20
16.740999
30
90.360001
70
192
0
VERTEX
8
OBJECT__81
10
-7.794000
20
16.236000
30
89.551003
70
192
0
VERTEX
8
OBJECT__81
10
-7.620000
20
16.775000
30
90.144997
70
192
0
VERTEX
8
OBJECT__81
10
-7.503000
20
16.372999
30
89.239998
70
192
0
VERTEX
8
OBJECT__81
10
-7.525000
20
16.867001
30
89.955002
70
192
0
VERTEX
8
OBJECT__81
10
-7.105000
20
16.549000
30
89.027000
70
192
0
VERTEX
8
OBJECT__81
10
-7.374000
20
17.009001
30
89.800003
70
192
0
VERTEX
8
OBJECT__81
10
-6.694000
20
16.719999
30
88.959999
70
192
0
VERTEX
8
OBJECT__81
10
-7.168000
20
17.191999
30
89.693001
70
192
0
VERTEX
8
OBJECT__81
10
-6.954000
20
17.370001
30
89.660004
70
192
0
VERTEX
8
OBJECT__81
10
0
20
0
30
0
70
128
71
1
72
2
73
3
0
VERTEX
8
OBJECT__81
10
0
20
0
30
0
70
128
71
4
72
1
73
5
0
VERTEX
8
OBJECT__81
10
0
20
0
30
0
70
128
71
6
72
4
73
7
0
VERTEX
8
OBJECT__81
10
0
20
0
30
0
70
128
71
8
72
6
73
9
0
VERTEX
8
OBJECT__81
10
0
20
0
30
0
70
128
71
10
72
8
73
11
0
VERTEX
8
OBJECT__81
10
0
20
0
30
0
70
128
71
11
72
12
73
10
0
VERTEX
8
OBJECT__81
10
0
20
0
30
0
70
128
71
9
72
11
73
8
0
VERTEX
8
OBJECT__81
10
0
20
0
30
0
70
128
71
7
72
9
73
6
0
VERTEX
8
OBJECT__81
10
0
20
0
30
0
70
128
71
5
72
7
73
4
0
VERTEX
8
OBJECT__81
10
0
20
0
30
0
70
128
71
3
72
5
73
1
0
SEQEND
8
OBJECT__81
0
POLYLINE
8
OBJECT__82
66
1
70
64
71
12
72
10
62
253
0
VERTEX
8
OBJECT__82
10
6.694000
20
16.719999
30
88.959999
70
192
0
VERTEX
8
OBJECT__82
10
6.954000
20
17.370001
30
89.660004
70
192
0
VERTEX
8
OBJECT__82
10
7.203000
20
17.162001
30
89.705002
70
192
0
VERTEX
8
OBJECT__82
10
7.173000
20
16.520000
30
89.051003
70
192
0
VERTEX
8
OBJECT__82
10
7.421000
20
16.966000
30
89.837997
70
192
0
VERTEX
8
OBJECT__82
10
7.593000
20
16.330999
30
89.317001
70
192
0
VERTEX
8
OBJECT__82
10
7.577000
20
16.816999
30
90.041000
70
192
0
VERTEX
8
OBJECT__82
10
7.894000
20
16.188000
30
89.722000
70
192
0
VERTEX
8
OBJECT__82
10
7.648000
20
16.747000
30
90.271004
70
192
0
VERTEX
8
OBJECT__82
10
8.031000
20
16.121000
30
90.181999
70
192
0
VERTEX
8
OBJECT__82
10
7.654000
20
16.740999
30
90.360001
70
192
0
VERTEX
8
OBJECT__82
10
8.041000
20
16.115000
30
90.360001
70
192
0
VERTEX
8
OBJECT__82
10
0
20
0
30
0
70
128
71
1
72
2
73
3
0
VERTEX
8
OBJECT__82
10
0
20
0
30
0
70
128
71
4
72
3
73
5
0
VERTEX
8
OBJECT__82
10
0
20
0
30
0
70
128
71
6
72
5
73
7
0
VERTEX
8
OBJECT__82
10
0
20
0
30
0
70
128
71
8
72
7
73
9
0
VERTEX
8
OBJECT__82
10
0
20
0
30
0
70
128
71
10
72
9
73
11
0
VERTEX
8
OBJECT__82
10
0
20
0
30
0
70
128
71
11
72
12
73
10
0
VERTEX
8
OBJECT__82
10
0
20
0
30
0
70
128
71
9
72
10
73
8
0
VERTEX
8
OBJECT__82
10
0
20
0
30
0
70
128
71
7
72
8
73
6
0
VERTEX
8
OBJECT__82
10
0
20
0
30
0
70
128
71
5
72
6
73
4
0
VERTEX
8
OBJECT__82
10
0
20
0
30
0
70
128
71
3
72
4
73
1
0
SEQEND
8
OBJECT__82
0
POLYLINE
8
OBJECT__83
66
1
70
64
71
4
72
2
62
253
0
VERTEX
8
OBJECT__83
10
-7.654000
20
16.740999
30
90.360001
70
192
0
VERTEX
8
OBJECT__83
10
-8.041000
20
16.115000
30
90.360001
70
192
0
VERTEX
8
OBJECT__83
10
-8.041000
20
16.115000
30
94.362000
70
192
0
VERTEX
8
OBJECT__83
10
-7.654000
20
16.740999
30
94.362000
70
192
0
VERTEX
8
OBJECT__83
10
0
20
0
30
0
70
128
71
1
72
2
73
3
0
VERTEX
8
OBJECT__83
10
0
20
0
30
0
70
128
71
3
72
4
73
1
0
SEQEND
8
OBJECT__83
0
POLYLINE
8
OBJECT__84
66
1
70
64
71
8
72
6
62
253
0
VERTEX
8
OBJECT__84
10
-7.654000
20
62.873001
30
90.360001
70
192
0
VERTEX
8
OBJECT__84
10
-7.525000
20
16.867001
30
89.955002
70
192
0
VERTEX
8
OBJECT__84
10
-7.620000
20
16.775000
30
90.144997
70
192
0
VERTEX
8
OBJECT__84
10
-7.374000
20
17.009001
30
89.800003
70
192
0
VERTEX
8
OBJECT__84
10
-7.168000
20
17.191999
30
89.693001
70
192
0
VERTEX
8
OBJECT__84
10
-6.954000
20
62.873001
30
89.660004
70
192
0
VERTEX
8
OBJECT__84
10
-6.954000
20
17.370001
30
89.660004
70
192
0
VERTEX
8
OBJECT__84
10
-7.654000
20
16.740999
30
90.360001
70
192
0
VERTEX
8
OBJECT__84
10
0
20
0
30
0
70
128
71
1
72
2
73
3
0
VERTEX
8
OBJECT__84
10
0
20
0
30
0
70
128
71
1
72
4
73
2
0
VERTEX
8
OBJECT__84
10
0
20
0
30
0
70
128
71
1
72
5
73
4
0
VERTEX
8
OBJECT__84
10
0
20
0
30
0
70
128
71
1
72
6
73
7
0
VERTEX
8
OBJECT__84
10
0
20
0
30
0
70
128
71
7
72
5
73
1
0
VERTEX
8
OBJECT__84
10
0
20
0
30
0
70
128
71
3
72
8
73
1
0
SEQEND
8
OBJECT__84
0
POLYLINE
8
OBJECT__85
66
1
70
64
71
4
72
2
62
253
0
VERTEX
8
OBJECT__85
10
8.041000
20
16.115000
30
94.362000
70
192
0
VERTEX
8
OBJECT__85
10
8.041000
20
16.115000
30
90.360001
70
192
0
VERTEX
8
OBJECT__85
10
7.654000
20
16.740999
30
90.360001
70
192
0
VERTEX
8
OBJECT__85
10
7.654000
20
16.740999
30
94.362000
70
192
0
VERTEX
8
OBJECT__85
10
0
20
0
30
0
70
128
71
1
72
2
73
3
0
VERTEX
8
OBJECT__85
10
0
20
0
30
0
70
128
71
3
72
4
73
1
0
SEQEND
8
OBJECT__85
0
POLYLINE
8
OBJECT__86
66
1
70
64
71
8
72
6
62
253
0
VERTEX
8
OBJECT__86
10
7.654000
20
62.873001
30
90.360001
70
192
0
VERTEX
8
OBJECT__86
10
7.203000
20
17.162001
30
89.705002
70
192
0
VERTEX
8
OBJECT__86
10
6.954000
20
17.370001
30
89.660004
70
192
0
VERTEX
8
OBJECT__86
10
7.648000
20
16.747000
30
90.271004
70
192
0
VERTEX
8
OBJECT__86
10
7.577000
20
16.816999
30
90.041000
70
192
0
VERTEX
8
OBJECT__86
10
7.654000
20
16.740999
30
90.360001
70
192
0
VERTEX
8
OBJECT__86
10
7.421000
20
16.966000
30
89.837997
70
192
0
VERTEX
8
OBJECT__86
10
6.954000
20
62.873001
30
89.660004
70
192
0
VERTEX
8
OBJECT__86
10
0
20
0
30
0
70
128
71
1
72
2
73
3
0
VERTEX
8
OBJECT__86
10
0
20
0
30
0
70
128
71
1
72
4
73
5
0
VERTEX
8
OBJECT__86
10
0
20
0
30
0
70
128
71
1
72
6
73
4
0
VERTEX
8
OBJECT__86
10
0
20
0
30
0
70
128
71
5
72
7
73
1
0
VERTEX
8
OBJECT__86
10
0
20
0
30
0
70
128
71
7
72
2
73
1
0
VERTEX
8
OBJECT__86
10
0
20
0
30
0
70
128
71
3
72
8
73
1
0
SEQEND
8
OBJECT__86
0
POLYLINE
8
OBJECT__87
66
1
70
64
71
13
72
11
62
253
0
VERTEX
8
OBJECT__87
10
-6.694000
20
16.719999
30
95.762001
70
192
0
VERTEX
8
OBJECT__87
10
-6.954000
20
17.370001
30
95.061996
70
192
0
VERTEX
8
OBJECT__87
10
-7.203000
20
17.162001
30
95.016998
70
192
0
VERTEX
8
OBJECT__87
10
-7.173000
20
16.520000
30
95.670998
70
192
0
VERTEX
8
OBJECT__87
10
-7.421000
20
16.966000
30
94.884003
70
192
0
VERTEX
8
OBJECT__87
10
-7.593000
20
16.330999
30
95.405998
70
192
0
VERTEX
8
OBJECT__87
10
-7.444000
20
16.944000
30
94.853996
70
192
0
VERTEX
8
OBJECT__87
10
-7.577000
20
16.816999
30
94.681000
70
192
0
VERTEX
8
OBJECT__87
10
-7.894000
20
16.188000
30
95.000000
70
192
0
VERTEX
8
OBJECT__87
10
-7.648000
20
16.747000
30
94.450996
70
192
0
VERTEX
8
OBJECT__87
10
-8.031000
20
16.121000
30
94.540001
70
192
0
VERTEX
8
OBJECT__87
10
-7.654000
20
16.740999
30
94.362000
70
192
0
VERTEX
8
OBJECT__87
10
-8.041000
20
16.115000
30
94.362000
70
192
0
VERTEX
8
OBJECT__87
10
0
20
0
30
0
70
128
71
1
72
2
73
3
0
VERTEX
8
OBJECT__87
10
0
20
0
30
0
70
128
71
4
72
3
73
5
0
VERTEX
8
OBJECT__87
10
0
20
0
30
0
70
128
71
6
72
7
73
8
0
VERTEX
8
OBJECT__87
10
0
20
0
30
0
70
128
71
6
72
5
73
7
0
VERTEX
8
OBJECT__87
10
0
20
0
30
0
70
128
71
9
72
8
73
10
0
VERTEX
8
OBJECT__87
10
0
20
0
30
0
70
128
71
11
72
10
73
12
0
VERTEX
8
OBJECT__87
10
0
20
0
30
0
70
128
71
12
72
13
73
11
0
VERTEX
8
OBJECT__87
10
0
20
0
30
0
70
128
71
10
72
11
73
9
0
VERTEX
8
OBJECT__87
10
0
20
0
30
0
70
128
71
8
72
9
73
6
0
VERTEX
8
OBJECT__87
10
0
20
0
30
0
70
128
71
5
72
6
73
4
0
VERTEX
8
OBJECT__87
10
0
20
0
30
0
70
128
71
3
72
4
73
1
0
SEQEND
8
OBJECT__87
0
POLYLINE
8
OBJECT__88
66
1
70
64
71
13
72
11
62
253
0
VERTEX
8
OBJECT__88
10
7.977000
20
16.146999
30
94.792000
70
192
0
VERTEX
8
OBJECT__88
10
8.041000
20
16.115000
30
94.362000
70
192
0
VERTEX
8
OBJECT__88
10
7.654000
20
16.740999
30
94.362000
70
192
0
VERTEX
8
OBJECT__88
10
7.794000
20
16.236000
30
95.170998
70
192
0
VERTEX
8
OBJECT__88
10
7.620000
20
16.775000
30
94.577003
70
192
0
VERTEX
8
OBJECT__88
10
7.503000
20
16.372999
30
95.482002
70
192
0
VERTEX
8
OBJECT__88
10
7.525000
20
16.867001
30
94.766998
70
192
0
VERTEX
8
OBJECT__88
10
7.443000
20
16.945000
30
94.851997
70
192
0
VERTEX
8
OBJECT__88
10
7.105000
20
16.549000
30
95.695999
70
192
0
VERTEX
8
OBJECT__88
10
7.374000
20
17.009001
30
94.921997
70
192
0
VERTEX
8
OBJECT__88
10
6.694000
20
16.719999
30
95.762001
70
192
0
VERTEX
8
OBJECT__88
10
7.168000
20
17.191999
30
95.028999
70
192
0
VERTEX
8
OBJECT__88
10
6.954000
20
17.370001
30
95.061996
70
192
0
VERTEX
8
OBJECT__88
10
0
20
0
30
0
70
128
71
1
72
2
73
3
0
VERTEX
8
OBJECT__88
10
0
20
0
30
0
70
128
71
4
72
1
73
5
0
VERTEX
8
OBJECT__88
10
0
20
0
30
0
70
128
71
6
72
4
73
7
0
VERTEX
8
OBJECT__88
10
0
20
0
30
0
70
128
71
7
72
8
73
6
0
VERTEX
8
OBJECT__88
10
0
20
0
30
0
70
128
71
9
72
6
73
10
0
VERTEX
8
OBJECT__88
10
0
20
0
30
0
70
128
71
11
72
9
73
12
0
VERTEX
8
OBJECT__88
10
0
20
0
30
0
70
128
71
12
72
13
73
11
0
VERTEX
8
OBJECT__88
10
0
20
0
30
0
70
128
71
10
72
12
73
9
0
VERTEX
8
OBJECT__88
10
0
20
0
30
0
70
128
71
8
72
10
73
6
0
VERTEX
8
OBJECT__88
10
0
20
0
30
0
70
128
71
5
72
7
73
4
0
VERTEX
8
OBJECT__88
10
0
20
0
30
0
70
128
71
3
72
5
73
1
0
SEQEND
8
OBJECT__88
0
POLYLINE
8
OBJECT__89
66
1
70
64
71
8
72
6
62
253
0
VERTEX
8
OBJECT__89
10
0.000000
20
18.709999
30
95.061996
70
192
0
VERTEX
8
OBJECT__89
10
0.000000
20
18.010000
30
95.762001
70
192
0
VERTEX
8
OBJECT__89
10
5.530000
20
16.944000
30
95.762001
70
192
0
VERTEX
8
OBJECT__89
10
6.954000
20
17.370001
30
95.061996
70
192
0
VERTEX
8
OBJECT__89
10
-6.954000
20
17.370001
30
95.061996
70
192
0
VERTEX
8
OBJECT__89
10
-5.530000
20
16.944000
30
95.762001
70
192
0
VERTEX
8
OBJECT__89
10
-6.694000
20
16.719999
30
95.762001
70
192
0
VERTEX
8
OBJECT__89
10
6.694000
20
16.719999
30
95.762001
70
192
0
VERTEX
8
OBJECT__89
10
0
20
0
30
0
70
128
71
1
72
2
73
3
0
VERTEX
8
OBJECT__89
10
0
20
0
30
0
70
128
71
3
72
4
73
1
0
VERTEX
8
OBJECT__89
10
0
20
0
30
0
70
128
71
1
72
5
73
6
0
VERTEX
8
OBJECT__89
10
0
20
0
30
0
70
128
71
5
72
7
73
6
0
VERTEX
8
OBJECT__89
10
0
20
0
30
0
70
128
71
6
72
2
73
1
0
VERTEX
8
OBJECT__89
10
0
20
0
30
0
70
128
71
3
72
8
73
4
0
SEQEND
8
OBJECT__89
0
POLYLINE
8
OBJECT__90
66
1
70
64
71
10
72
8
62
253
0
VERTEX
8
OBJECT__90
10
-7.654000
20
62.873001
30
94.362000
70
192
0
VERTEX
8
OBJECT__90
10
-7.577000
20
16.816999
30
94.681000
70
192
0
VERTEX
8
OBJECT__90
10
-7.444000
20
16.944000
30
94.853996
70
192
0
VERTEX
8
OBJECT__90
10
-7.648000
20
16.747000
30
94.450996
70
192
0
VERTEX
8
OBJECT__90
10
-7.654000
20
16.740999
30
94.362000
70
192
0
VERTEX
8
OBJECT__90
10
-7.304000
20
62.873001
30
94.711998
70
192
0
VERTEX
8
OBJECT__90
10
-7.203000
20
17.162001
30
95.016998
70
192
0
VERTEX
8
OBJECT__90
10
-6.954000
20
17.370001
30
95.061996
70
192
0
VERTEX
8
OBJECT__90
10
-7.421000
20
16.966000
30
94.884003
70
192
0
VERTEX
8
OBJECT__90
10
-6.954000
20
62.873001
30
95.061996
70
192
0
VERTEX
8
OBJECT__90
10
0
20
0
30
0
70
128
71
1
72
2
73
3
0
VERTEX
8
OBJECT__90
10
0
20
0
30
0
70
128
71
1
72
4
73
2
0
VERTEX
8
OBJECT__90
10
0
20
0
30
0
70
128
71
1
72
5
73
4
0
VERTEX
8
OBJECT__90
10
0
20
0
30
0
70
128
71
6
72
7
73
8
0
VERTEX
8
OBJECT__90
10
0
20
0
30
0
70
128
71
6
72
3
73
9
0
VERTEX
8
OBJECT__90
10
0
20
0
30
0
70
128
71
9
72
7
73
6
0
VERTEX
8
OBJECT__90
10
0
20
0
30
0
70
128
71
8
72
10
73
6
0
VERTEX
8
OBJECT__90
10
0
20
0
30
0
70
128
71
3
72
6
73
1
0
SEQEND
8
OBJECT__90
0
POLYLINE
8
OBJECT__91
66
1
70
64
71
10
72
8
62
253
0
VERTEX
8
OBJECT__91
10
7.304000
20
62.873001
30
94.711998
70
192
0
VERTEX
8
OBJECT__91
10
7.168000
20
17.191999
30
95.028999
70
192
0
VERTEX
8
OBJECT__91
10
7.374000
20
17.009001
30
94.921997
70
192
0
VERTEX
8
OBJECT__91
10
6.954000
20
62.873001
30
95.061996
70
192
0
VERTEX
8
OBJECT__91
10
6.954000
20
17.370001
30
95.061996
70
192
0
VERTEX
8
OBJECT__91
10
7.654000
20
62.873001
30
94.362000
70
192
0
VERTEX
8
OBJECT__91
10
7.525000
20
16.867001
30
94.766998
70
192
0
VERTEX
8
OBJECT__91
10
7.620000
20
16.775000
30
94.577003
70
192
0
VERTEX
8
OBJECT__91
10
7.443000
20
16.945000
30
94.851997
70
192
0
VERTEX
8
OBJECT__91
10
7.654000
20
16.740999
30
94.362000
70
192
0
VERTEX
8
OBJECT__91
10
0
20
0
30
0
70
128
71
1
72
2
73
3
0
VERTEX
8
OBJECT__91
10
0
20
0
30
0
70
128
71
1
72
4
73
5
0
VERTEX
8
OBJECT__91
10
0
20
0
30
0
70
128
71
5
72
2
73
1
0
VERTEX
8
OBJECT__91
10
0
20
0
30
0
70
128
71
6
72
7
73
8
0
VERTEX
8
OBJECT__91
10
0
20
0
30
0
70
128
71
6
72
1
73
9
0
VERTEX
8
OBJECT__91
10
0
20
0
30
0
70
128
71
9
72
7
73
6
0
VERTEX
8
OBJECT__91
10
0
20
0
30
0
70
128
71
8
72
10
73
6
0
VERTEX
8
OBJECT__91
10
0
20
0
30
0
70
128
71
3
72
9
73
1
0
SEQEND
8
OBJECT__91
0
POLYLINE
8
OBJECT__92
66
1
70
64
71
5
72
3
62
253
0
VERTEX
8
OBJECT__92
10
-6.954000
20
62.873001
30
89.660004
70
192
0
VERTEX
8
OBJECT__92
10
6.954000
20
62.873001
30
89.660004
70
192
0
VERTEX
8
OBJECT__92
10
0.000000
20
18.709999
30
89.660004
70
192
0
VERTEX
8
OBJECT__92
10
6.954000
20
17.370001
30
89.660004
70
192
0
VERTEX
8
OBJECT__92
10
-6.954000
20
17.370001
30
89.660004
70
192
0
VERTEX
8
OBJECT__92
10
0
20
0
30
0
70
128
71
1
72
2
73
3
0
VERTEX
8
OBJECT__92
10
0
20
0
30
0
70
128
71
2
72
4
73
3
0
VERTEX
8
OBJECT__92
10
0
20
0
30
0
70
128
71
3
72
5
73
1
0
SEQEND
8
OBJECT__92
0
POLYLINE
8
OBJECT__93
66
1
70
64
71
4
72
2
62
253
0
VERTEX
8
OBJECT__93
10
-6.954000
20
63.573002
30
90.360001
70
192
0
VERTEX
8
OBJECT__93
10
6.954000
20
63.573002
30
90.360001
70
192
0
VERTEX
8
OBJECT__93
10
6.954000
20
62.873001
30
89.660004
70
192
0
VERTEX
8
OBJECT__93
10
-6.954000
20
62.873001
30
89.660004
70
192
0
VERTEX
8
OBJECT__93
10
0
20
0
30
0
70
128
71
1
72
2
73
3
0
VERTEX
8
OBJECT__93
10
0
20
0
30
0
70
128
71
3
72
4
73
1
0
SEQEND
8
OBJECT__93
0
POLYLINE
8
OBJECT__94
66
1
70
64
71
4
72
2
62
253
0
VERTEX
8
OBJECT__94
10
-7.654000
20
62.873001
30
94.362000
70
192
0
VERTEX
8
OBJECT__94
10
-7.654000
20
62.873001
30
90.360001
70
192
0
VERTEX
8
OBJECT__94
10
-7.654000
20
16.740999
30
90.360001
70
192
0
VERTEX
8
OBJECT__94
10
-7.654000
20
16.740999
30
94.362000
70
192
0
VERTEX
8
OBJECT__94
10
0
20
0
30
0
70
128
71
1
72
2
73
3
0
VERTEX
8
OBJECT__94
10
0
20
0
30
0
70
128
71
3
72
4
73
1
0
SEQEND
8
OBJECT__94
0
POLYLINE
8
OBJECT__95
66
1
70
64
71
6
72
4
62
253
0
VERTEX
8
OBJECT__95
10
-7.654000
20
62.873001
30
94.362000
70
192
0
VERTEX
8
OBJECT__95
10
-7.304000
20
63.223000
30
94.362000
70
192
0
VERTEX
8
OBJECT__95
10
-7.304000
20
63.223000
30
90.360001
70
192
0
VERTEX
8
OBJECT__95
10
-6.954000
20
63.573002
30
90.360001
70
192
0
VERTEX
8
OBJECT__95
10
-6.954000
20
63.573002
30
94.362000
70
192
0
VERTEX
8
OBJECT__95
10
-7.654000
20
62.873001
30
90.360001
70
192
0
VERTEX
8
OBJECT__95
10
0
20
0
30
0
70
128
71
1
72
2
73
3
0
VERTEX
8
OBJECT__95
10
0
20
0
30
0
70
128
71
4
72
3
73
2
0
VERTEX
8
OBJECT__95
10
0
20
0
30
0
70
128
71
2
72
5
73
4
0
VERTEX
8
OBJECT__95
10
0
20
0
30
0
70
128
71
3
72
6
73
1
0
SEQEND
8
OBJECT__95
0
POLYLINE
8
OBJECT__96
66
1
70
64
71
4
72
2
62
253
0
VERTEX
8
OBJECT__96
10
-6.954000
20
62.873001
30
89.660004
70
192
0
VERTEX
8
OBJECT__96
10
-7.654000
20
62.873001
30
90.360001
70
192
0
VERTEX
8
OBJECT__96
10
-7.304000
20
63.223000
30
90.360001
70
192
0
VERTEX
8
OBJECT__96
10
-6.954000
20
63.573002
30
90.360001
70
192
0
VERTEX
8
OBJECT__96
10
0
20
0
30
0
70
128
71
1
72
2
73
3
0
VERTEX
8
OBJECT__96
10
0
20
0
30
0
70
128
71
3
72
4
73
1
0
SEQEND
8
OBJECT__96
0
POLYLINE
8
OBJECT__97
66
1
70
64
71
5
72
3
62
253
0
VERTEX
8
OBJECT__97
10
6.954000
20
62.873001
30
95.061996
70
192
0
VERTEX
8
OBJECT__97
10
-6.954000
20
62.873001
30
95.061996
70
192
0
VERTEX
8
OBJECT__97
10
0.000000
20
18.709999
30
95.061996
70
192
0
VERTEX
8
OBJECT__97
10
-6.954000
20
17.370001
30
95.061996
70
192
0
VERTEX
8
OBJECT__97
10
6.954000
20
17.370001
30
95.061996
70
192
0
VERTEX
8
OBJECT__97
10
0
20
0
30
0
70
128
71
1
72
2
73
3
0
VERTEX
8
OBJECT__97
10
0
20
0
30
0
70
128
71
2
72
4
73
3
0
VERTEX
8
OBJECT__97
10
0
20
0
30
0
70
128
71
3
72
5
73
1
0
SEQEND
8
OBJECT__97
0
POLYLINE
8
OBJECT__98
66
1
70
64
71
4
72
2
62
253
0
VERTEX
8
OBJECT__98
10
6.954000
20
63.573002
30
94.362000
70
192
0
VERTEX
8
OBJECT__98
10
-6.954000
20
63.573002
30
94.362000
70
192
0
VERTEX
8
OBJECT__98
10
-6.954000
20
62.873001
30
95.061996
70
192
0
VERTEX
8
OBJECT__98
10
6.954000
20
62.873001
30
95.061996
70
192
0
VERTEX
8
OBJECT__98
10
0
20
0
30
0
70
128
71
1
72
2
73
3
0
VERTEX
8
OBJECT__98
10
0
20
0
30
0
70
128
71
3
72
4
73
1
0
SEQEND
8
OBJECT__98
0
POLYLINE
8
OBJECT__99
66
1
70
64
71
5
72
3
62
253
0
VERTEX
8
OBJECT__99
10
-7.304000
20
62.873001
30
94.711998
70
192
0
VERTEX
8
OBJECT__99
10
-6.954000
20
63.573002
30
94.362000
70
192
0
VERTEX
8
OBJECT__99
10
-7.304000
20
63.223000
30
94.362000
70
192
0
VERTEX
8
OBJECT__99
10
-7.654000
20
62.873001
30
94.362000
70
192
0
VERTEX
8
OBJECT__99
10
-6.954000
20
62.873001
30
95.061996
70
192
0
VERTEX
8
OBJECT__99
10
0
20
0
30
0
70
128
71
1
72
2
73
3
0
VERTEX
8
OBJECT__99
10
0
20
0
30
0
70
128
71
3
72
4
73
1
0
VERTEX
8
OBJECT__99
10
0
20
0
30
0
70
128
71
1
72
5
73
2
0
SEQEND
8
OBJECT__99
0
POLYLINE
8
OBJECT__100
66
1
70
64
71
4
72
2
62
253
0
VERTEX
8
OBJECT__100
10
6.954000
20
63.573002
30
90.360001
70
192
0
VERTEX
8
OBJECT__100
10
-6.954000
20
63.573002
30
90.360001
70
192
0
VERTEX
8
OBJECT__100
10
-6.954000
20
63.573002
30
94.362000
70
192
0
VERTEX
8
OBJECT__100
10
6.954000
20
63.573002
30
94.362000
70
192
0
VERTEX
8
OBJECT__100
10
0
20
0
30
0
70
128
71
1
72
2
73
3
0
VERTEX
8
OBJECT__100
10
0
20
0
30
0
70
128
71
3
72
4
73
1
0
SEQEND
8
OBJECT__100
0
POLYLINE
8
OBJECT__101
66
1
70
64
71
4
72
2
62
253
0
VERTEX
8
OBJECT__101
10
6.954000
20
63.573002
30
90.360001
70
192
0
VERTEX
8
OBJECT__101
10
6.954000
20
63.573002
30
94.362000
70
192
0
VERTEX
8
OBJECT__101
10
7.654000
20
62.873001
30
94.362000
70
192
0
VERTEX
8
OBJECT__101
10
7.654000
20
62.873001
30
90.360001
70
192
0
VERTEX
8
OBJECT__101
10
0
20
0
30
0
70
128
71
1
72
2
73
3
0
VERTEX
8
OBJECT__101
10
0
20
0
30
0
70
128
71
3
72
4
73
1
0
SEQEND
8
OBJECT__101
0
POLYLINE
8
OBJECT__102
66
1
70
64
71
4
72
2
62
253
0
VERTEX
8
OBJECT__102
10
7.654000
20
62.873001
30
94.362000
70
192
0
VERTEX
8
OBJECT__102
10
7.654000
20
16.740999
30
94.362000
70
192
0
VERTEX
8
OBJECT__102
10
7.654000
20
16.740999
30
90.360001
70
192
0
VERTEX
8
OBJECT__102
10
7.654000
20
62.873001
30
90.360001
70
192
0
VERTEX
8
OBJECT__102
10
0
20
0
30
0
70
128
71
1
72
2
73
3
0
VERTEX
8
OBJECT__102
10
0
20
0
30
0
70
128
71
3
72
4
73
1
0
SEQEND
8
OBJECT__102
0
POLYLINE
8
OBJECT__103
66
1
70
64
71
3
72
1
62
253
0
VERTEX
8
OBJECT__103
10
6.954000
20
63.573002
30
90.360001
70
192
0
VERTEX
8
OBJECT__103
10
7.654000
20
62.873001
30
90.360001
70
192
0
VERTEX
8
OBJECT__103
10
6.954000
20
62.873001
30
89.660004
70
192
0
VERTEX
8
OBJECT__103
10
0
20
0
30
0
70
128
71
1
72
2
73
3
0
SEQEND
8
OBJECT__103
0
POLYLINE
8
OBJECT__104
66
1
70
64
71
4
72
2
62
253
0
VERTEX
8
OBJECT__104
10
6.954000
20
63.573002
30
94.362000
70
192
0
VERTEX
8
OBJECT__104
10
6.954000
20
62.873001
30
95.061996
70
192
0
VERTEX
8
OBJECT__104
10
7.304000
20
62.873001
30
94.711998
70
192
0
VERTEX
8
OBJECT__104
10
7.654000
20
62.873001
30
94.362000
70
192
0
VERTEX
8
OBJECT__104
10
0
20
0
30
0
70
128
71
1
72
2
73
3
0
VERTEX
8
OBJECT__104
10
0
20
0
30
0
70
128
71
3
72
4
73
1
0
SEQEND
8
OBJECT__104
0
POLYLINE
8
OBJECT__105
66
1
70
64
71
36
72
36
62
253
0
VERTEX
8
OBJECT__105
10
18.010000
20
0.000000
30
97.963997
70
192
0
VERTEX
8
OBJECT__105
10
17.309999
20
0.000000
30
98.664001
70
192
0
VERTEX
8
OBJECT__105
10
15.596000
20
-7.511000
30
98.664001
70
192
0
VERTEX
8
OBJECT__105
10
10.793000
20
-13.534000
30
98.664001
70
192
0
VERTEX
8
OBJECT__105
10
11.229000
20
-14.081000
30
97.963997
70
192
0
VERTEX
8
OBJECT__105
10
14.232000
20
-10.316000
30
97.963997
70
192
0
VERTEX
8
OBJECT__105
10
3.852000
20
-16.875999
30
98.664001
70
192
0
VERTEX
8
OBJECT__105
10
5.440000
20
-16.868999
30
97.963997
70
192
0
VERTEX
8
OBJECT__105
10
4.008000
20
-17.558001
30
97.963997
70
192
0
VERTEX
8
OBJECT__105
10
-3.852000
20
-16.875999
30
98.664001
70
192
0
VERTEX
8
OBJECT__105
10
-10.793000
20
-13.534000
30
98.664001
70
192
0
VERTEX
8
OBJECT__105
10
-11.229000
20
-14.081000
30
97.963997
70
192
0
VERTEX
8
OBJECT__105
10
-5.440000
20
-16.868999
30
97.963997
70
192
0
VERTEX
8
OBJECT__105
10
-15.596000
20
-7.511000
30
98.664001
70
192
0
VERTEX
8
OBJECT__105
10
-14.232000
20
-10.316000
30
97.963997
70
192
0
VERTEX
8
OBJECT__105
10
-16.226000
20
-7.814000
30
97.963997
70
192
0
VERTEX
8
OBJECT__105
10
-18.010000
20
0.000000
30
97.963997
70
192
0
VERTEX
8
OBJECT__105
10
-16.226000
20
7.814000
30
97.963997
70
192
0
VERTEX
8
OBJECT__105
10
-17.309999
20
0.000000
30
98.664001
70
192
0
VERTEX
8
OBJECT__105
10
-10.793000
20
13.534000
30
98.664001
70
192
0
VERTEX
8
OBJECT__105
10
-11.229000
20
14.081000
30
97.963997
70
192
0
VERTEX
8
OBJECT__105
10
-14.232000
20
10.316000
30
97.963997
70
192
0
VERTEX
8
OBJECT__105
10
-15.596000
20
7.511000
30
98.664001
70
192
0
VERTEX
8
OBJECT__105
10
-3.852000
20
16.875999
30
98.664001
70
192
0
VERTEX
8
OBJECT__105
10
-5.440000
20
16.868999
30
97.963997
70
192
0
VERTEX
8
OBJECT__105
10
-4.008000
20
17.558001
30
97.963997
70
192
0
VERTEX
8
OBJECT__105
10
3.852000
20
16.875999
30
98.664001
70
192
0
VERTEX
8
OBJECT__105
10
10.793000
20
13.534000
30
98.664001
70
192
0
VERTEX
8
OBJECT__105
10
11.229000
20
14.081000
30
97.963997
70
192
0
VERTEX
8
OBJECT__105
10
5.440000
20
16.868999
30
97.963997
70
192
0
VERTEX
8
OBJECT__105
10
15.596000
20
7.511000
30
98.664001
70
192
0
VERTEX
8
OBJECT__105
10
14.232000
20
10.316000
30
97.963997
70
192
0
VERTEX
8
OBJECT__105
10
16.226000
20
7.814000
30
97.963997
70
192
0
VERTEX
8
OBJECT__105
10
4.008000
20
17.558001
30
97.963997
70
192
0
VERTEX
8
OBJECT__105
10
-4.008000
20
-17.558001
30
97.963997
70
192
0
VERTEX
8
OBJECT__105
10
16.226000
20
-7.814000
30
97.963997
70
192
0
VERTEX
8
OBJECT__105
10
0
20
0
30
0
70
128
71
1
72
2
73
3
0
VERTEX
8
OBJECT__105
10
0
20
0
30
0
70
128
71
4
72
5
73
6
0
VERTEX
8
OBJECT__105
10
0
20
0
30
0
70
128
71
6
72
3
73
4
0
VERTEX
8
OBJECT__105
10
0
20
0
30
0
70
128
71
4
72
7
73
8
0
VERTEX
8
OBJECT__105
10
0
20
0
30
0
70
128
71
7
72
9
73
8
0
VERTEX
8
OBJECT__105
10
0
20
0
30
0
70
128
71
9
72
7
73
10
0
VERTEX
8
OBJECT__105
10
0
20
0
30
0
70
128
71
11
72
12
73
13
0
VERTEX
8
OBJECT__105
10
0
20
0
30
0
70
128
71
13
72
10
73
11
0
VERTEX
8
OBJECT__105
10
0
20
0
30
0
70
128
71
11
72
14
73
15
0
VERTEX
8
OBJECT__105
10
0
20
0
30
0
70
128
71
14
72
16
73
15
0
VERTEX
8
OBJECT__105
10
0
20
0
30
0
70
128
71
17
72
16
73
14
0
VERTEX
8
OBJECT__105
10
0
20
0
30
0
70
128
71
18
72
17
73
19
0
VERTEX
8
OBJECT__105
10
0
20
0
30
0
70
128
71
20
72
21
73
22
0
VERTEX
8
OBJECT__105
10
0
20
0
30
0
70
128
71
22
72
23
73
20
0
VERTEX
8
OBJECT__105
10
0
20
0
30
0
70
128
71
20
72
24
73
25
0
VERTEX
8
OBJECT__105
10
0
20
0
30
0
70
128
71
24
72
26
73
25
0
VERTEX
8
OBJECT__105
10
0
20
0
30
0
70
128
71
26
72
24
73
27
0
VERTEX
8
OBJECT__105
10
0
20
0
30
0
70
128
71
28
72
29
73
30
0
VERTEX
8
OBJECT__105
10
0
20
0
30
0
70
128
71
30
72
27
73
28
0
VERTEX
8
OBJECT__105
10
0
20
0
30
0
70
128
71
28
72
31
73
32
0
VERTEX
8
OBJECT__105
10
0
20
0
30
0
70
128
71
31
72
33
73
32
0
VERTEX
8
OBJECT__105
10
0
20
0
30
0
70
128
71
1
72
33
73
31
0
VERTEX
8
OBJECT__105
10
0
20
0
30
0
70
128
71
31
72
2
73
1
0
VERTEX
8
OBJECT__105
10
0
20
0
30
0
70
128
71
32
72
29
73
28
0
VERTEX
8
OBJECT__105
10
0
20
0
30
0
70
128
71
30
72
34
73
27
0
VERTEX
8
OBJECT__105
10
0
20
0
30
0
70
128
71
27
72
34
73
26
0
VERTEX
8
OBJECT__105
10
0
20
0
30
0
70
128
71
25
72
21
73
20
0
VERTEX
8
OBJECT__105
10
0
20
0
30
0
70
128
71
22
72
18
73
23
0
VERTEX
8
OBJECT__105
10
0
20
0
30
0
70
128
71
19
72
23
73
18
0
VERTEX
8
OBJECT__105
10
0
20
0
30
0
70
128
71
14
72
19
73
17
0
VERTEX
8
OBJECT__105
10
0
20
0
30
0
70
128
71
15
72
12
73
11
0
VERTEX
8
OBJECT__105
10
0
20
0
30
0
70
128
71
13
72
35
73
10
0
VERTEX
8
OBJECT__105
10
0
20
0
30
0
70
128
71
10
72
35
73
9
0
VERTEX
8
OBJECT__105
10
0
20
0
30
0
70
128
71
8
72
5
73
4
0
VERTEX
8
OBJECT__105
10
0
20
0
30
0
70
128
71
6
72
36
73
3
0
VERTEX
8
OBJECT__105
10
0
20
0
30
0
70
128
71
3
72
36
73
1
0
SEQEND
8
OBJECT__105
0
POLYLINE
8
OBJECT__106
66
1
70
64
71
14
72
12
62
253
0
VERTEX
8
OBJECT__106
10
10.793000
20
-13.534000
30
98.664001
70
192
0
VERTEX
8
OBJECT__106
10
-15.596000
20
-7.511000
30
98.664001
70
192
0
VERTEX
8
OBJECT__106
10
-10.793000
20
-13.534000
30
98.664001
70
192
0
VERTEX
8
OBJECT__106
10
-10.793000
20
13.534000
30
98.664001
70
192
0
VERTEX
8
OBJECT__106
10
-15.596000
20
7.511000
30
98.664001
70
192
0
VERTEX
8
OBJECT__106
10
15.596000
20
7.511000
30
98.664001
70
192
0
VERTEX
8
OBJECT__106
10
10.793000
20
13.534000
30
98.664001
70
192
0
VERTEX
8
OBJECT__106
10
15.596000
20
-7.511000
30
98.664001
70
192
0
VERTEX
8
OBJECT__106
10
-3.852000
20
-16.875999
30
98.664001
70
192
0
VERTEX
8
OBJECT__106
10
-17.309999
20
0.000000
30
98.664001
70
192
0
VERTEX
8
OBJECT__106
10
3.852000
20
16.875999
30
98.664001
70
192
0
VERTEX
8
OBJECT__106
10
17.309999
20
0.000000
30
98.664001
70
192
0
VERTEX
8
OBJECT__106
10
-3.852000
20
16.875999
30
98.664001
70
192
0
VERTEX
8
OBJECT__106
10
3.852000
20
-16.875999
30
98.664001
70
192
0
VERTEX
8
OBJECT__106
10
0
20
0
30
0
70
128
71
1
72
2
73
3
0
VERTEX
8
OBJECT__106
10
0
20
0
30
0
70
128
71
1
72
4
73
5
0
VERTEX
8
OBJECT__106
10
0
20
0
30
0
70
128
71
4
72
6
73
7
0
VERTEX
8
OBJECT__106
10
0
20
0
30
0
70
128
71
4
72
1
73
8
0
VERTEX
8
OBJECT__106
10
0
20
0
30
0
70
128
71
3
72
9
73
1
0
VERTEX
8
OBJECT__106
10
0
20
0
30
0
70
128
71
5
72
10
73
1
0
VERTEX
8
OBJECT__106
10
0
20
0
30
0
70
128
71
7
72
11
73
4
0
VERTEX
8
OBJECT__106
10
0
20
0
30
0
70
128
71
8
72
12
73
4
0
VERTEX
8
OBJECT__106
10
0
20
0
30
0
70
128
71
10
72
2
73
1
0
VERTEX
8
OBJECT__106
10
0
20
0
30
0
70
128
71
12
72
6
73
4
0
VERTEX
8
OBJECT__106
10
0
20
0
30
0
70
128
71
11
72
13
73
4
0
VERTEX
8
OBJECT__106
10
0
20
0
30
0
70
128
71
9
72
14
73
1
0
SEQEND
8
OBJECT__106
0
POLYLINE
8
OBJECT__107
66
1
70
64
71
4
72
2
62
253
0
VERTEX
8
OBJECT__107
10
7.500000
20
-85.500000
30
253.899994
70
192
0
VERTEX
8
OBJECT__107
10
7.500000
20
-114.500000
30
253.899994
70
192
0
VERTEX
8
OBJECT__107
10
7.500000
20
-114.500000
30
71.900002
70
192
0
VERTEX
8
OBJECT__107
10
7.500000
20
-85.500000
30
71.900002
70
192
0
VERTEX
8
OBJECT__107
10
0
20
0
30
0
70
128
71
1
72
2
73
3
0
VERTEX
8
OBJECT__107
10
0
20
0
30
0
70
128
71
3
72
4
73
1
0
SEQEND
8
OBJECT__107
0
POLYLINE
8
OBJECT__108
66
1
70
64
71
5
72
3
62
253
0
VERTEX
8
OBJECT__108
10
7.500000
20
-114.500000
30
71.900002
70
192
0
VERTEX
8
OBJECT__108
10
7.500000
20
-114.500000
30
253.899994
70
192
0
VERTEX
8
OBJECT__108
10
7.354000
20
-114.853996
30
253.899994
70
192
0
VERTEX
8
OBJECT__108
10
7.000000
20
-115.000000
30
71.900002
70
192
0
VERTEX
8
OBJECT__108
10
7.000000
20
-115.000000
30
253.899994
70
192
0
VERTEX
8
OBJECT__108
10
0
20
0
30
0
70
128
71
1
72
2
73
3
0
VERTEX
8
OBJECT__108
10
0
20
0
30
0
70
128
71
3
72
4
73
1
0
VERTEX
8
OBJECT__108
10
0
20
0
30
0
70
128
71
3
72
5
73
4
0
SEQEND
8
OBJECT__108
0
POLYLINE
8
OBJECT__110
66
1
70
64
71
17
72
18
62
253
0
VERTEX
8
OBJECT__110
10
9.230000
20
-114.853996
30
263.332001
70
192
0
VERTEX
8
OBJECT__110
10
7.354000
20
-114.853996
30
253.899994
70
192
0
VERTEX
8
OBJECT__110
10
7.500000
20
-114.500000
30
253.899994
70
192
0
VERTEX
8
OBJECT__110
10
14.572000
20
-114.853996
30
271.328003
70
192
0
VERTEX
8
OBJECT__110
10
11.130000
20
-114.500000
30
265.917999
70
192
0
VERTEX
8
OBJECT__110
10
9.365000
20
-114.500000
30
263.276001
70
192
0
VERTEX
8
OBJECT__110
10
14.676000
20
-114.500000
30
271.223999
70
192
0
VERTEX
8
OBJECT__110
10
19.982000
20
-114.500000
30
274.769989
70
192
0
VERTEX
8
OBJECT__110
10
22.568001
20
-114.853996
30
276.670990
70
192
0
VERTEX
8
OBJECT__110
10
22.624001
20
-114.500000
30
276.535004
70
192
0
VERTEX
8
OBJECT__110
10
32.000000
20
-114.500000
30
278.399994
70
192
0
VERTEX
8
OBJECT__110
10
7.000000
20
-115.000000
30
253.899994
70
192
0
VERTEX
8
OBJECT__110
10
8.903000
20
-115.000000
30
263.467010
70
192
0
VERTEX
8
OBJECT__110
10
14.322000
20
-115.000000
30
271.578003
70
192
0
VERTEX
8
OBJECT__110
10
32.000000
20
-115.000000
30
278.899994
70
192
0
VERTEX
8
OBJECT__110
10
22.433001
20
-115.000000
30
276.997009
70
192
0
VERTEX
8
OBJECT__110
10
32.000000
20
-114.853996
30
278.546997
70
192
0
VERTEX
8
OBJECT__110
10
0
20
0
30
0
70
128
71
1
72
2
73
3
0
VERTEX
8
OBJECT__110
10
0
20
0
30
0
70
128
71
4
72
1
73
5
0
VERTEX
8
OBJECT__110
10
0
20
0
30
0
70
128
71
1
72
6
73
5
0
VERTEX
8
OBJECT__110
10
0
20
0
30
0
70
128
71
4
72
7
73
8
0
VERTEX
8
OBJECT__110
10
0
20
0
30
0
70
128
71
8
72
9
73
4
0
VERTEX
8
OBJECT__110
10
0
20
0
30
0
70
128
71
9
72
10
73
11
0
VERTEX
8
OBJECT__110
10
0
20
0
30
0
70
128
71
12
72
2
73
1
0
VERTEX
8
OBJECT__110
10
0
20
0
30
0
70
128
71
13
72
1
73
4
0
VERTEX
8
OBJECT__110
10
0
20
0
30
0
70
128
71
14
72
4
73
9
0
VERTEX
8
OBJECT__110
10
0
20
0
30
0
70
128
71
15
72
16
73
9
0
VERTEX
8
OBJECT__110
10
0
20
0
30
0
70
128
71
9
72
17
73
15
0
VERTEX
8
OBJECT__110
10
0
20
0
30
0
70
128
71
9
72
16
73
14
0
VERTEX
8
OBJECT__110
10
0
20
0
30
0
70
128
71
4
72
14
73
13
0
VERTEX
8
OBJECT__110
10
0
20
0
30
0
70
128
71
1
72
13
73
12
0
VERTEX
8
OBJECT__110
10
0
20
0
30
0
70
128
71
11
72
17
73
9
0
VERTEX
8
OBJECT__110
10
0
20
0
30
0
70
128
71
8
72
10
73
9
0
VERTEX
8
OBJECT__110
10
0
20
0
30
0
70
128
71
5
72
7
73
4
0
VERTEX
8
OBJECT__110
10
0
20
0
30
0
70
128
71
3
72
6
73
1
0
SEQEND
8
OBJECT__110
0
POLYLINE
8
OBJECT__111
66
1
70
64
71
14
72
12
62
253
0
VERTEX
8
OBJECT__111
10
19.982000
20
-85.500000
30
274.769989
70
192
0
VERTEX
8
OBJECT__111
10
22.624001
20
-85.500000
30
276.535004
70
192
0
VERTEX
8
OBJECT__111
10
22.624001
20
-114.500000
30
276.535004
70
192
0
VERTEX
8
OBJECT__111
10
32.000000
20
-114.500000
30
278.399994
70
192
0
VERTEX
8
OBJECT__111
10
32.000000
20
-85.500000
30
278.399994
70
192
0
VERTEX
8
OBJECT__111
10
14.676000
20
-114.500000
30
271.223999
70
192
0
VERTEX
8
OBJECT__111
10
11.130000
20
-114.500000
30
265.917999
70
192
0
VERTEX
8
OBJECT__111
10
11.130000
20
-85.500000
30
265.917999
70
192
0
VERTEX
8
OBJECT__111
10
19.982000
20
-114.500000
30
274.769989
70
192
0
VERTEX
8
OBJECT__111
10
14.676000
20
-85.500000
30
271.223999
70
192
0
VERTEX
8
OBJECT__111
10
7.500000
20
-85.500000
30
253.899994
70
192
0
VERTEX
8
OBJECT__111
10
9.365000
20
-85.500000
30
263.276001
70
192
0
VERTEX
8
OBJECT__111
10
9.365000
20
-114.500000
30
263.276001
70
192
0
VERTEX
8
OBJECT__111
10
7.500000
20
-114.500000
30
253.899994
70
192
0
VERTEX
8
OBJECT__111
10
0
20
0
30
0
70
128
71
1
72
2
73
3
0
VERTEX
8
OBJECT__111
10
0
20
0
30
0
70
128
71
4
72
3
73
2
0
VERTEX
8
OBJECT__111
10
0
20
0
30
0
70
128
71
2
72
5
73
4
0
VERTEX
8
OBJECT__111
10
0
20
0
30
0
70
128
71
6
72
7
73
8
0
VERTEX
8
OBJECT__111
10
0
20
0
30
0
70
128
71
1
72
9
73
6
0
VERTEX
8
OBJECT__111
10
0
20
0
30
0
70
128
71
6
72
10
73
1
0
VERTEX
8
OBJECT__111
10
0
20
0
30
0
70
128
71
11
72
12
73
13
0
VERTEX
8
OBJECT__111
10
0
20
0
30
0
70
128
71
7
72
13
73
12
0
VERTEX
8
OBJECT__111
10
0
20
0
30
0
70
128
71
12
72
8
73
7
0
VERTEX
8
OBJECT__111
10
0
20
0
30
0
70
128
71
13
72
14
73
11
0
VERTEX
8
OBJECT__111
10
0
20
0
30
0
70
128
71
8
72
10
73
6
0
VERTEX
8
OBJECT__111
10
0
20
0
30
0
70
128
71
3
72
9
73
1
0
SEQEND
8
OBJECT__111
0
POLYLINE
8
OBJECT__112
66
1
70
64
71
5
72
3
62
253
0
VERTEX
8
OBJECT__112
10
127.651001
20
-115.000000
30
278.899994
70
192
0
VERTEX
8
OBJECT__112
10
32.000000
20
-115.000000
30
278.899994
70
192
0
VERTEX
8
OBJECT__112
10
32.000000
20
-114.853996
30
278.546997
70
192
0
VERTEX
8
OBJECT__112
10
127.651001
20
-114.500000
30
278.399994
70
192
0
VERTEX
8
OBJECT__112
10
32.000000
20
-114.500000
30
278.399994
70
192
0
VERTEX
8
OBJECT__112
10
0
20
0
30
0
70
128
71
1
72
2
73
3
0
VERTEX
8
OBJECT__112
10
0
20
0
30
0
70
128
71
3
72
4
73
1
0
VERTEX
8
OBJECT__112
10
0
20
0
30
0
70
128
71
3
72
5
73
4
0
SEQEND
8
OBJECT__112
0
POLYLINE
8
OBJECT__113
66
1
70
64
71
5
72
3
62
253
0
VERTEX
8
OBJECT__113
10
7.000000
20
-85.000000
30
71.900002
70
192
0
VERTEX
8
OBJECT__113
10
7.000000
20
-85.000000
30
253.899994
70
192
0
VERTEX
8
OBJECT__113
10
7.354000
20
-85.146004
30
253.899994
70
192
0
VERTEX
8
OBJECT__113
10
7.500000
20
-85.500000
30
71.900002
70
192
0
VERTEX
8
OBJECT__113
10
7.500000
20
-85.500000
30
253.899994
70
192
0
VERTEX
8
OBJECT__113
10
0
20
0
30
0
70
128
71
1
72
2
73
3
0
VERTEX
8
OBJECT__113
10
0
20
0
30
0
70
128
71
3
72
4
73
1
0
VERTEX
8
OBJECT__113
10
0
20
0
30
0
70
128
71
3
72
5
73
4
0
SEQEND
8
OBJECT__113
0
POLYLINE
8
OBJECT__114
66
1
70
64
71
17
72
18
62
253
0
VERTEX
8
OBJECT__114
10
7.000000
20
-85.000000
30
253.899994
70
192
0
VERTEX
8
OBJECT__114
10
8.903000
20
-85.000000
30
263.467010
70
192
0
VERTEX
8
OBJECT__114
10
9.230000
20
-85.146004
30
263.332001
70
192
0
VERTEX
8
OBJECT__114
10
14.322000
20
-85.000000
30
271.578003
70
192
0
VERTEX
8
OBJECT__114
10
14.572000
20
-85.146004
30
271.328003
70
192
0
VERTEX
8
OBJECT__114
10
22.433001
20
-85.000000
30
276.997009
70
192
0
VERTEX
8
OBJECT__114
10
22.568001
20
-85.146004
30
276.670990
70
192
0
VERTEX
8
OBJECT__114
10
32.000000
20
-85.000000
30
278.899994
70
192
0
VERTEX
8
OBJECT__114
10
32.000000
20
-85.146004
30
278.546997
70
192
0
VERTEX
8
OBJECT__114
10
9.365000
20
-85.500000
30
263.276001
70
192
0
VERTEX
8
OBJECT__114
10
7.500000
20
-85.500000
30
253.899994
70
192
0
VERTEX
8
OBJECT__114
10
14.676000
20
-85.500000
30
271.223999
70
192
0
VERTEX
8
OBJECT__114
10
11.130000
20
-85.500000
30
265.917999
70
192
0
VERTEX
8
OBJECT__114
10
19.982000
20
-85.500000
30
274.769989
70
192
0
VERTEX
8
OBJECT__114
10
22.624001
20
-85.500000
30
276.535004
70
192
0
VERTEX
8
OBJECT__114
10
32.000000
20
-85.500000
30
278.399994
70
192
0
VERTEX
8
OBJECT__114
10
7.354000
20
-85.146004
30
253.899994
70
192
0
VERTEX
8
OBJECT__114
10
0
20
0
30
0
70
128
71
1
72
2
73
3
0
VERTEX
8
OBJECT__114
10
0
20
0
30
0
70
128
71
2
72
4
73
5
0
VERTEX
8
OBJECT__114
10
0
20
0
30
0
70
128
71
4
72
6
73
7
0
VERTEX
8
OBJECT__114
10
0
20
0
30
0
70
128
71
8
72
9
73
7
0
VERTEX
8
OBJECT__114
10
0
20
0
30
0
70
128
71
3
72
10
73
11
0
VERTEX
8
OBJECT__114
10
0
20
0
30
0
70
128
71
5
72
12
73
13
0
VERTEX
8
OBJECT__114
10
0
20
0
30
0
70
128
71
13
72
3
73
5
0
VERTEX
8
OBJECT__114
10
0
20
0
30
0
70
128
71
5
72
7
73
14
0
VERTEX
8
OBJECT__114
10
0
20
0
30
0
70
128
71
7
72
15
73
14
0
VERTEX
8
OBJECT__114
10
0
20
0
30
0
70
128
71
7
72
9
73
16
0
VERTEX
8
OBJECT__114
10
0
20
0
30
0
70
128
71
16
72
15
73
7
0
VERTEX
8
OBJECT__114
10
0
20
0
30
0
70
128
71
14
72
12
73
5
0
VERTEX
8
OBJECT__114
10
0
20
0
30
0
70
128
71
13
72
10
73
3
0
VERTEX
8
OBJECT__114
10
0
20
0
30
0
70
128
71
11
72
17
73
3
0
VERTEX
8
OBJECT__114
10
0
20
0
30
0
70
128
71
7
72
6
73
8
0
VERTEX
8
OBJECT__114
10
0
20
0
30
0
70
128
71
7
72
5
73
4
0
VERTEX
8
OBJECT__114
10
0
20
0
30
0
70
128
71
5
72
3
73
2
0
VERTEX
8
OBJECT__114
10
0
20
0
30
0
70
128
71
3
72
17
73
1
0
SEQEND
8
OBJECT__114
0
POLYLINE
8
OBJECT__115
66
1
70
64
71
4
72
2
62
253
0
VERTEX
8
OBJECT__115
10
32.000000
20
-114.500000
30
278.399994
70
192
0
VERTEX
8
OBJECT__115
10
32.000000
20
-85.500000
30
278.399994
70
192
0
VERTEX
8
OBJECT__115
10
127.651001
20
-85.500000
30
278.399994
70
192
0
VERTEX
8
OBJECT__115
10
127.651001
20
-114.500000
30
278.399994
70
192
0
VERTEX
8
OBJECT__115
10
0
20
0
30
0
70
128
71
1
72
2
73
3
0
VERTEX
8
OBJECT__115
10
0
20
0
30
0
70
128
71
3
72
4
73
1
0
SEQEND
8
OBJECT__115
0
POLYLINE
8
OBJECT__116
66
1
70
64
71
5
72
3
62
253
0
VERTEX
8
OBJECT__116
10
127.651001
20
-85.500000
30
278.399994
70
192
0
VERTEX
8
OBJECT__116
10
32.000000
20
-85.500000
30
278.399994
70
192
0
VERTEX
8
OBJECT__116
10
32.000000
20
-85.146004
30
278.546997
70
192
0
VERTEX
8
OBJECT__116
10
127.651001
20
-85.000000
30
278.899994
70
192
0
VERTEX
8
OBJECT__116
10
32.000000
20
-85.000000
30
278.899994
70
192
0
VERTEX
8
OBJECT__116
10
0
20
0
30
0
70
128
71
1
72
2
73
3
0
VERTEX
8
OBJECT__116
10
0
20
0
30
0
70
128
71
3
72
4
73
1
0
VERTEX
8
OBJECT__116
10
0
20
0
30
0
70
128
71
3
72
5
73
4
0
SEQEND
8
OBJECT__116
0
POLYLINE
8
OBJECT__117
66
1
70
64
71
14
72
12
62
253
0
VERTEX
8
OBJECT__117
10
147.822006
20
-85.500000
30
267.139008
70
192
0
VERTEX
8
OBJECT__117
10
149.625000
20
-85.500000
30
264.735992
70
192
0
VERTEX
8
OBJECT__117
10
149.625000
20
-114.500000
30
264.735992
70
192
0
VERTEX
8
OBJECT__117
10
152.057999
20
-114.500000
30
256.036011
70
192
0
VERTEX
8
OBJECT__117
10
152.057999
20
-85.500000
30
256.036011
70
192
0
VERTEX
8
OBJECT__117
10
139.082001
20
-85.500000
30
275.148010
70
192
0
VERTEX
8
OBJECT__117
10
144.203003
20
-85.500000
30
271.963989
70
192
0
VERTEX
8
OBJECT__117
10
144.203003
20
-114.500000
30
271.963989
70
192
0
VERTEX
8
OBJECT__117
10
147.822006
20
-114.500000
30
267.139008
70
192
0
VERTEX
8
OBJECT__117
10
127.651001
20
-85.500000
30
278.399994
70
192
0
VERTEX
8
OBJECT__117
10
136.531006
20
-85.500000
30
276.734009
70
192
0
VERTEX
8
OBJECT__117
10
136.531006
20
-114.500000
30
276.734009
70
192
0
VERTEX
8
OBJECT__117
10
139.082001
20
-114.500000
30
275.148010
70
192
0
VERTEX
8
OBJECT__117
10
127.651001
20
-114.500000
30
278.399994
70
192
0
VERTEX
8
OBJECT__117
10
0
20
0
30
0
70
128
71
1
72
2
73
3
0
VERTEX
8
OBJECT__117
10
0
20
0
30
0
70
128
71
4
72
3
73
2
0
VERTEX
8
OBJECT__117
10
0
20
0
30
0
70
128
71
2
72
5
73
4
0
VERTEX
8
OBJECT__117
10
0
20
0
30
0
70
128
71
6
72
7
73
8
0
VERTEX
8
OBJECT__117
10
0
20
0
30
0
70
128
71
9
72
8
73
7
0
VERTEX
8
OBJECT__117
10
0
20
0
30
0
70
128
71
7
72
1
73
9
0
VERTEX
8
OBJECT__117
10
0
20
0
30
0
70
128
71
10
72
11
73
12
0
VERTEX
8
OBJECT__117
10
0
20
0
30
0
70
128
71
13
72
12
73
11
0
VERTEX
8
OBJECT__117
10
0
20
0
30
0
70
128
71
11
72
6
73
13
0
VERTEX
8
OBJECT__117
10
0
20
0
30
0
70
128
71
12
72
14
73
10
0
VERTEX
8
OBJECT__117
10
0
20
0
30
0
70
128
71
8
72
13
73
6
0
VERTEX
8
OBJECT__117
10
0
20
0
30
0
70
128
71
3
72
9
73
1
0
SEQEND
8
OBJECT__117
0
POLYLINE
8
OBJECT__118
66
1
70
64
71
13
72
11
62
253
0
VERTEX
8
OBJECT__118
10
136.712006
20
-115.000000
30
277.200012
70
192
0
VERTEX
8
OBJECT__118
10
127.651001
20
-115.000000
30
278.899994
70
192
0
VERTEX
8
OBJECT__118
10
127.651001
20
-114.500000
30
278.399994
70
192
0
VERTEX
8
OBJECT__118
10
144.541000
20
-115.000000
30
272.332001
70
192
0
VERTEX
8
OBJECT__118
10
139.082001
20
-114.500000
30
275.148010
70
192
0
VERTEX
8
OBJECT__118
10
136.531006
20
-114.500000
30
276.734009
70
192
0
VERTEX
8
OBJECT__118
10
144.203003
20
-114.500000
30
271.963989
70
192
0
VERTEX
8
OBJECT__118
10
147.822006
20
-114.500000
30
267.139008
70
192
0
VERTEX
8
OBJECT__118
10
150.072998
20
-115.000000
30
264.957001
70
192
0
VERTEX
8
OBJECT__118
10
152.307007
20
-114.750000
30
256.057007
70
192
0
VERTEX
8
OBJECT__118
10
149.625000
20
-114.500000
30
264.735992
70
192
0
VERTEX
8
OBJECT__118
10
152.057999
20
-114.500000
30
256.036011
70
192
0
VERTEX
8
OBJECT__118
10
152.556000
20
-115.000000
30
256.079010
70
192
0
VERTEX
8
OBJECT__118
10
0
20
0
30
0
70
128
71
1
72
2
73
3
0
VERTEX
8
OBJECT__118
10
0
20
0
30
0
70
128
71
4
72
1
73
5
0
VERTEX
8
OBJECT__118
10
0
20
0
30
0
70
128
71
1
72
6
73
5
0
VERTEX
8
OBJECT__118
10
0
20
0
30
0
70
128
71
4
72
7
73
8
0
VERTEX
8
OBJECT__118
10
0
20
0
30
0
70
128
71
8
72
9
73
4
0
VERTEX
8
OBJECT__118
10
0
20
0
30
0
70
128
71
10
72
9
73
11
0
VERTEX
8
OBJECT__118
10
0
20
0
30
0
70
128
71
11
72
12
73
10
0
VERTEX
8
OBJECT__118
10
0
20
0
30
0
70
128
71
10
72
13
73
9
0
VERTEX
8
OBJECT__118
10
0
20
0
30
0
70
128
71
8
72
11
73
9
0
VERTEX
8
OBJECT__118
10
0
20
0
30
0
70
128
71
5
72
7
73
4
0
VERTEX
8
OBJECT__118
10
0
20
0
30
0
70
128
71
3
72
6
73
1
0
SEQEND
8
OBJECT__118
0
POLYLINE
8
OBJECT__119
66
1
70
64
71
13
72
11
62
253
0
VERTEX
8
OBJECT__119
10
136.712006
20
-85.000000
30
277.200012
70
192
0
VERTEX
8
OBJECT__119
10
136.531006
20
-85.500000
30
276.734009
70
192
0
VERTEX
8
OBJECT__119
10
127.651001
20
-85.500000
30
278.399994
70
192
0
VERTEX
8
OBJECT__119
10
144.541000
20
-85.000000
30
272.332001
70
192
0
VERTEX
8
OBJECT__119
10
144.203003
20
-85.500000
30
271.963989
70
192
0
VERTEX
8
OBJECT__119
10
139.082001
20
-85.500000
30
275.148010
70
192
0
VERTEX
8
OBJECT__119
10
150.072998
20
-85.000000
30
264.957001
70
192
0
VERTEX
8
OBJECT__119
10
147.822006
20
-85.500000
30
267.139008
70
192
0
VERTEX
8
OBJECT__119
10
149.625000
20
-85.500000
30
264.735992
70
192
0
VERTEX
8
OBJECT__119
10
152.307007
20
-85.250000
30
256.057007
70
192
0
VERTEX
8
OBJECT__119
10
152.057999
20
-85.500000
30
256.036011
70
192
0
VERTEX
8
OBJECT__119
10
152.556000
20
-85.000000
30
256.079010
70
192
0
VERTEX
8
OBJECT__119
10
127.651001
20
-85.000000
30
278.899994
70
192
0
VERTEX
8
OBJECT__119
10
0
20
0
30
0
70
128
71
1
72
2
73
3
0
VERTEX
8
OBJECT__119
10
0
20
0
30
0
70
128
71
4
72
5
73
6
0
VERTEX
8
OBJECT__119
10
0
20
0
30
0
70
128
71
6
72
1
73
4
0
VERTEX
8
OBJECT__119
10
0
20
0
30
0
70
128
71
4
72
7
73
8
0
VERTEX
8
OBJECT__119
10
0
20
0
30
0
70
128
71
7
72
9
73
8
0
VERTEX
8
OBJECT__119
10
0
20
0
30
0
70
128
71
7
72
10
73
11
0
VERTEX
8
OBJECT__119
10
0
20
0
30
0
70
128
71
7
72
12
73
10
0
VERTEX
8
OBJECT__119
10
0
20
0
30
0
70
128
71
11
72
9
73
7
0
VERTEX
8
OBJECT__119
10
0
20
0
30
0
70
128
71
8
72
5
73
4
0
VERTEX
8
OBJECT__119
10
0
20
0
30
0
70
128
71
6
72
2
73
1
0
VERTEX
8
OBJECT__119
10
0
20
0
30
0
70
128
71
3
72
13
73
1
0
SEQEND
8
OBJECT__119
0
POLYLINE
8
OBJECT__120
66
1
70
64
71
4
72
2
62
253
0
VERTEX
8
OBJECT__120
10
152.057999
20
-85.500000
30
256.036011
70
192
0
VERTEX
8
OBJECT__120
10
152.529007
20
-85.500000
30
250.656006
70
192
0
VERTEX
8
OBJECT__120
10
152.529007
20
-114.500000
30
250.656006
70
192
0
VERTEX
8
OBJECT__120
10
152.057999
20
-114.500000
30
256.036011
70
192
0
VERTEX
8
OBJECT__120
10
0
20
0
30
0
70
128
71
1
72
2
73
3
0
VERTEX
8
OBJECT__120
10
0
20
0
30
0
70
128
71
3
72
4
73
1
0
SEQEND
8
OBJECT__120
0
POLYLINE
8
OBJECT__121
66
1
70
64
71
6
72
4
62
253
0
VERTEX
8
OBJECT__121
10
153.026993
20
-115.000000
30
250.699997
70
192
0
VERTEX
8
OBJECT__121
10
152.556000
20
-115.000000
30
256.079010
70
192
0
VERTEX
8
OBJECT__121
10
152.307007
20
-114.750000
30
256.057007
70
192
0
VERTEX
8
OBJECT__121
10
152.529007
20
-114.500000
30
250.656006
70
192
0
VERTEX
8
OBJECT__121
10
152.673996
20
-114.853996
30
250.669006
70
192
0
VERTEX
8
OBJECT__121
10
152.057999
20
-114.500000
30
256.036011
70
192
0
VERTEX
8
OBJECT__121
10
0
20
0
30
0
70
128
71
1
72
2
73
3
0
VERTEX
8
OBJECT__121
10
0
20
0
30
0
70
128
71
4
72
5
73
3
0
VERTEX
8
OBJECT__121
10
0
20
0
30
0
70
128
71
3
72
6
73
4
0
VERTEX
8
OBJECT__121
10
0
20
0
30
0
70
128
71
3
72
5
73
1
0
SEQEND
8
OBJECT__121
0
POLYLINE
8
OBJECT__122
66
1
70
64
71
6
72
4
62
253
0
VERTEX
8
OBJECT__122
10
152.529007
20
-85.500000
30
250.656006
70
192
0
VERTEX
8
OBJECT__122
10
152.057999
20
-85.500000
30
256.036011
70
192
0
VERTEX
8
OBJECT__122
10
152.307007
20
-85.250000
30
256.057007
70
192
0
VERTEX
8
OBJECT__122
10
153.026993
20
-85.000000
30
250.699997
70
192
0
VERTEX
8
OBJECT__122
10
152.673996
20
-85.146004
30
250.669006
70
192
0
VERTEX
8
OBJECT__122
10
152.556000
20
-85.000000
30
256.079010
70
192
0
VERTEX
8
OBJECT__122
10
0
20
0
30
0
70
128
71
1
72
2
73
3
0
VERTEX
8
OBJECT__122
10
0
20
0
30
0
70
128
71
4
72
5
73
3
0
VERTEX
8
OBJECT__122
10
0
20
0
30
0
70
128
71
3
72
6
73
4
0
VERTEX
8
OBJECT__122
10
0
20
0
30
0
70
128
71
3
72
5
73
1
0
SEQEND
8
OBJECT__122
0
POLYLINE
8
OBJECT__123
66
1
70
64
71
4
72
2
62
253
0
VERTEX
8
OBJECT__123
10
7.500000
20
-85.500000
30
71.900002
70
192
0
VERTEX
8
OBJECT__123
10
7.500000
20
-114.500000
30
71.900002
70
192
0
VERTEX
8
OBJECT__123
10
7.500000
20
-114.500000
30
253.899994
70
192
0
VERTEX
8
OBJECT__123
10
7.500000
20
-85.500000
30
253.899994
70
192
0
VERTEX
8
OBJECT__123
10
0
20
0
30
0
70
128
71
1
72
2
73
3
0
VERTEX
8
OBJECT__123
10
0
20
0
30
0
70
128
71
3
72
4
73
1
0
SEQEND
8
OBJECT__123
0
POLYLINE
8
OBJECT__124
66
1
70
64
71
5
72
3
62
253
0
VERTEX
8
OBJECT__124
10
7.000000
20
-115.000000
30
71.900002
70
192
0
VERTEX
8
OBJECT__124
10
7.000000
20
-115.000000
30
253.899994
70
192
0
VERTEX
8
OBJECT__124
10
7.354000
20
-114.853996
30
253.899994
70
192
0
VERTEX
8
OBJECT__124
10
7.500000
20
-114.500000
30
71.900002
70
192
0
VERTEX
8
OBJECT__124
10
7.500000
20
-114.500000
30
253.899994
70
192
0
VERTEX
8
OBJECT__124
10
0
20
0
30
0
70
128
71
1
72
2
73
3
0
VERTEX
8
OBJECT__124
10
0
20
0
30
0
70
128
71
3
72
4
73
1
0
VERTEX
8
OBJECT__124
10
0
20
0
30
0
70
128
71
3
72
5
73
4
0
SEQEND
8
OBJECT__124
0
POLYLINE
8
OBJECT__125
66
1
70
64
71
17
72
18
62
253
0
VERTEX
8
OBJECT__125
10
7.000000
20
-115.000000
30
253.899994
70
192
0
VERTEX
8
OBJECT__125
10
8.903000
20
-115.000000
30
263.467010
70
192
0
VERTEX
8
OBJECT__125
10
9.230000
20
-114.853996
30
263.332001
70
192
0
VERTEX
8
OBJECT__125
10
14.322000
20
-115.000000
30
271.578003
70
192
0
VERTEX
8
OBJECT__125
10
14.572000
20
-114.853996
30
271.328003
70
192
0
VERTEX
8
OBJECT__125
10
22.433001
20
-115.000000
30
276.997009
70
192
0
VERTEX
8
OBJECT__125
10
22.568001
20
-114.853996
30
276.670990
70
192
0
VERTEX
8
OBJECT__125
10
32.000000
20
-115.000000
30
278.899994
70
192
0
VERTEX
8
OBJECT__125
10
32.000000
20
-114.853996
30
278.546997
70
192
0
VERTEX
8
OBJECT__125
10
9.365000
20
-114.500000
30
263.276001
70
192
0
VERTEX
8
OBJECT__125
10
7.500000
20
-114.500000
30
253.899994
70
192
0
VERTEX
8
OBJECT__125
10
14.676000
20
-114.500000
30
271.223999
70
192
0
VERTEX
8
OBJECT__125
10
11.130000
20
-114.500000
30
265.917999
70
192
0
VERTEX
8
OBJECT__125
10
19.982000
20
-114.500000
30
274.769989
70
192
0
VERTEX
8
OBJECT__125
10
22.624001
20
-114.500000
30
276.535004
70
192
0
VERTEX
8
OBJECT__125
10
32.000000
20
-114.500000
30
278.399994
70
192
0
VERTEX
8
OBJECT__125
10
7.354000
20
-114.853996
30
253.899994
70
192
0
VERTEX
8
OBJECT__125
10
0
20
0
30
0
70
128
71
1
72
2
73
3
0
VERTEX
8
OBJECT__125
10
0
20
0
30
0
70
128
71
2
72
4
73
5
0
VERTEX
8
OBJECT__125
10
0
20
0
30
0
70
128
71
4
72
6
73
7
0
VERTEX
8
OBJECT__125
10
0
20
0
30
0
70
128
71
8
72
9
73
7
0
VERTEX
8
OBJECT__125
10
0
20
0
30
0
70
128
71
3
72
10
73
11
0
VERTEX
8
OBJECT__125
10
0
20
0
30
0
70
128
71
5
72
12
73
13
0
VERTEX
8
OBJECT__125
10
0
20
0
30
0
70
128
71
13
72
3
73
5
0
VERTEX
8
OBJECT__125
10
0
20
0
30
0
70
128
71
5
72
7
73
14
0
VERTEX
8
OBJECT__125
10
0
20
0
30
0
70
128
71
7
72
15
73
14
0
VERTEX
8
OBJECT__125
10
0
20
0
30
0
70
128
71
7
72
9
73
16
0
VERTEX
8
OBJECT__125
10
0
20
0
30
0
70
128
71
16
72
15
73
7
0
VERTEX
8
OBJECT__125
10
0
20
0
30
0
70
128
71
14
72
12
73
5
0
VERTEX
8
OBJECT__125
10
0
20
0
30
0
70
128
71
13
72
10
73
3
0
VERTEX
8
OBJECT__125
10
0
20
0
30
0
70
128
71
11
72
17
73
3
0
VERTEX
8
OBJECT__125
10
0
20
0
30
0
70
128
71
7
72
6
73
8
0
VERTEX
8
OBJECT__125
10
0
20
0
30
0
70
128
71
7
72
5
73
4
0
VERTEX
8
OBJECT__125
10
0
20
0
30
0
70
128
71
5
72
3
73
2
0
VERTEX
8
OBJECT__125
10
0
20
0
30
0
70
128
71
3
72
17
73
1
0
SEQEND
8
OBJECT__125
0
POLYLINE
8
OBJECT__126
66
1
70
64
71
5
72
3
62
253
0
VERTEX
8
OBJECT__126
10
7.500000
20
-85.500000
30
71.900002
70
192
0
VERTEX
8
OBJECT__126
10
7.500000
20
-85.500000
30
253.899994
70
192
0
VERTEX
8
OBJECT__126
10
7.354000
20
-85.146004
30
253.899994
70
192
0
VERTEX
8
OBJECT__126
10
7.000000
20
-85.000000
30
71.900002
70
192
0
VERTEX
8
OBJECT__126
10
7.000000
20
-85.000000
30
253.899994
70
192
0
VERTEX
8
OBJECT__126
10
0
20
0
30
0
70
128
71
1
72
2
73
3
0
VERTEX
8
OBJECT__126
10
0
20
0
30
0
70
128
71
3
72
4
73
1
0
VERTEX
8
OBJECT__126
10
0
20
0
30
0
70
128
71
3
72
5
73
4
0
SEQEND
8
OBJECT__126
0
POLYLINE
8
OBJECT__127
66
1
70
64
71
14
72
12
62
253
0
VERTEX
8
OBJECT__127
10
11.130000
20
-85.500000
30
265.917999
70
192
0
VERTEX
8
OBJECT__127
10
9.365000
20
-85.500000
30
263.276001
70
192
0
VERTEX
8
OBJECT__127
10
9.365000
20
-114.500000
30
263.276001
70
192
0
VERTEX
8
OBJECT__127
10
7.500000
20
-114.500000
30
253.899994
70
192
0
VERTEX
8
OBJECT__127
10
7.500000
20
-85.500000
30
253.899994
70
192
0
VERTEX
8
OBJECT__127
10
19.982000
20
-85.500000
30
274.769989
70
192
0
VERTEX
8
OBJECT__127
10
14.676000
20
-85.500000
30
271.223999
70
192
0
VERTEX
8
OBJECT__127
10
14.676000
20
-114.500000
30
271.223999
70
192
0
VERTEX
8
OBJECT__127
10
11.130000
20
-114.500000
30
265.917999
70
192
0
VERTEX
8
OBJECT__127
10
32.000000
20
-114.500000
30
278.399994
70
192
0
VERTEX
8
OBJECT__127
10
32.000000
20
-85.500000
30
278.399994
70
192
0
VERTEX
8
OBJECT__127
10
22.624001
20
-85.500000
30
276.535004
70
192
0
VERTEX
8
OBJECT__127
10
19.982000
20
-114.500000
30
274.769989
70
192
0
VERTEX
8
OBJECT__127
10
22.624001
20
-114.500000
30
276.535004
70
192
0
VERTEX
8
OBJECT__127
10
0
20
0
30
0
70
128
71
1
72
2
73
3
0
VERTEX
8
OBJECT__127
10
0
20
0
30
0
70
128
71
4
72
3
73
2
0
VERTEX
8
OBJECT__127
10
0
20
0
30
0
70
128
71
2
72
5
73
4
0
VERTEX
8
OBJECT__127
10
0
20
0
30
0
70
128
71
6
72
7
73
8
0
VERTEX
8
OBJECT__127
10
0
20
0
30
0
70
128
71
9
72
8
73
7
0
VERTEX
8
OBJECT__127
10
0
20
0
30
0
70
128
71
7
72
1
73
9
0
VERTEX
8
OBJECT__127
10
0
20
0
30
0
70
128
71
10
72
11
73
12
0
VERTEX
8
OBJECT__127
10
0
20
0
30
0
70
128
71
6
72
13
73
14
0
VERTEX
8
OBJECT__127
10
0
20
0
30
0
70
128
71
14
72
12
73
6
0
VERTEX
8
OBJECT__127
10
0
20
0
30
0
70
128
71
12
72
14
73
10
0
VERTEX
8
OBJECT__127
10
0
20
0
30
0
70
128
71
8
72
13
73
6
0
VERTEX
8
OBJECT__127
10
0
20
0
30
0
70
128
71
3
72
9
73
1
0
SEQEND
8
OBJECT__127
0
POLYLINE
8
OBJECT__128
66
1
70
64
71
17
72
18
62
253
0
VERTEX
8
OBJECT__128
10
9.230000
20
-85.146004
30
263.332001
70
192
0
VERTEX
8
OBJECT__128
10
7.354000
20
-85.146004
30
253.899994
70
192
0
VERTEX
8
OBJECT__128
10
7.500000
20
-85.500000
30
253.899994
70
192
0
VERTEX
8
OBJECT__128
10
14.572000
20
-85.146004
30
271.328003
70
192
0
VERTEX
8
OBJECT__128
10
11.130000
20
-85.500000
30
265.917999
70
192
0
VERTEX
8
OBJECT__128
10
9.365000
20
-85.500000
30
263.276001
70
192
0
VERTEX
8
OBJECT__128
10
14.676000
20
-85.500000
30
271.223999
70
192
0
VERTEX
8
OBJECT__128
10
19.982000
20
-85.500000
30
274.769989
70
192
0
VERTEX
8
OBJECT__128
10
22.568001
20
-85.146004
30
276.670990
70
192
0
VERTEX
8
OBJECT__128
10
22.624001
20
-85.500000
30
276.535004
70
192
0
VERTEX
8
OBJECT__128
10
32.000000
20
-85.500000
30
278.399994
70
192
0
VERTEX
8
OBJECT__128
10
7.000000
20
-85.000000
30
253.899994
70
192
0
VERTEX
8
OBJECT__128
10
8.903000
20
-85.000000
30
263.467010
70
192
0
VERTEX
8
OBJECT__128
10
14.322000
20
-85.000000
30
271.578003
70
192
0
VERTEX
8
OBJECT__128
10
32.000000
20
-85.000000
30
278.899994
70
192
0
VERTEX
8
OBJECT__128
10
22.433001
20
-85.000000
30
276.997009
70
192
0
VERTEX
8
OBJECT__128
10
32.000000
20
-85.146004
30
278.546997
70
192
0
VERTEX
8
OBJECT__128
10
0
20
0
30
0
70
128
71
1
72
2
73
3
0
VERTEX
8
OBJECT__128
10
0
20
0
30
0
70
128
71
4
72
1
73
5
0
VERTEX
8
OBJECT__128
10
0
20
0
30
0
70
128
71
1
72
6
73
5
0
VERTEX
8
OBJECT__128
10
0
20
0
30
0
70
128
71
4
72
7
73
8
0
VERTEX
8
OBJECT__128
10
0
20
0
30
0
70
128
71
8
72
9
73
4
0
VERTEX
8
OBJECT__128
10
0
20
0
30
0
70
128
71
9
72
10
73
11
0
VERTEX
8
OBJECT__128
10
0
20
0
30
0
70
128
71
12
72
2
73
1
0
VERTEX
8
OBJECT__128
10
0
20
0
30
0
70
128
71
13
72
1
73
4
0
VERTEX
8
OBJECT__128
10
0
20
0
30
0
70
128
71
14
72
4
73
9
0
VERTEX
8
OBJECT__128
10
0
20
0
30
0
70
128
71
15
72
16
73
9
0
VERTEX
8
OBJECT__128
10
0
20
0
30
0
70
128
71
9
72
17
73
15
0
VERTEX
8
OBJECT__128
10
0
20
0
30
0
70
128
71
9
72
16
73
14
0
VERTEX
8
OBJECT__128
10
0
20
0
30
0
70
128
71
4
72
14
73
13
0
VERTEX
8
OBJECT__128
10
0
20
0
30
0
70
128
71
1
72
13
73
12
0
VERTEX
8
OBJECT__128
10
0
20
0
30
0
70
128
71
11
72
17
73
9
0
VERTEX
8
OBJECT__128
10
0
20
0
30
0
70
128
71
8
72
10
73
9
0
VERTEX
8
OBJECT__128
10
0
20
0
30
0
70
128
71
5
72
7
73
4
0
VERTEX
8
OBJECT__128
10
0
20
0
30
0
70
128
71
3
72
6
73
1
0
SEQEND
8
OBJECT__128
0
POLYLINE
8
OBJECT__129
66
1
70
64
71
4
72
2
62
253
0
VERTEX
8
OBJECT__129
10
127.651001
20
-114.500000
30
278.399994
70
192
0
VERTEX
8
OBJECT__129
10
127.651001
20
-85.500000
30
278.399994
70
192
0
VERTEX
8
OBJECT__129
10
32.000000
20
-85.500000
30
278.399994
70
192
0
VERTEX
8
OBJECT__129
10
32.000000
20
-114.500000
30
278.399994
70
192
0
VERTEX
8
OBJECT__129
10
0
20
0
30
0
70
128
71
1
72
2
73
3
0
VERTEX
8
OBJECT__129
10
0
20
0
30
0
70
128
71
3
72
4
73
1
0
SEQEND
8
OBJECT__129
0
POLYLINE
8
OBJECT__130
66
1
70
64
71
5
72
3
62
253
0
VERTEX
8
OBJECT__130
10
127.651001
20
-114.500000
30
278.399994
70
192
0
VERTEX
8
OBJECT__130
10
32.000000
20
-114.500000
30
278.399994
70
192
0
VERTEX
8
OBJECT__130
10
32.000000
20
-114.853996
30
278.546997
70
192
0
VERTEX
8
OBJECT__130
10
127.651001
20
-115.000000
30
278.899994
70
192
0
VERTEX
8
OBJECT__130
10
32.000000
20
-115.000000
30
278.899994
70
192
0
VERTEX
8
OBJECT__130
10
0
20
0
30
0
70
128
71
1
72
2
73
3
0
VERTEX
8
OBJECT__130
10
0
20
0
30
0
70
128
71
3
72
4
73
1
0
VERTEX
8
OBJECT__130
10
0
20
0
30
0
70
128
71
3
72
5
73
4
0
SEQEND
8
OBJECT__130
0
POLYLINE
8
OBJECT__131
66
1
70
64
71
5
72
3
62
253
0
VERTEX
8
OBJECT__131
10
127.651001
20
-85.000000
30
278.899994
70
192
0
VERTEX
8
OBJECT__131
10
32.000000
20
-85.000000
30
278.899994
70
192
0
VERTEX
8
OBJECT__131
10
32.000000
20
-85.146004
30
278.546997
70
192
0
VERTEX
8
OBJECT__131
10
127.651001
20
-85.500000
30
278.399994
70
192
0
VERTEX
8
OBJECT__131
10
32.000000
20
-85.500000
30
278.399994
70
192
0
VERTEX
8
OBJECT__131
10
0
20
0
30
0
70
128
71
1
72
2
73
3
0
VERTEX
8
OBJECT__131
10
0
20
0
30
0
70
128
71
3
72
4
73
1
0
VERTEX
8
OBJECT__131
10
0
20
0
30
0
70
128
71
3
72
5
73
4
0
SEQEND
8
OBJECT__131
0
POLYLINE
8
OBJECT__132
66
1
70
64
71
14
72
12
62
253
0
VERTEX
8
OBJECT__132
10
139.082001
20
-85.500000
30
275.148010
70
192
0
VERTEX
8
OBJECT__132
10
136.531006
20
-85.500000
30
276.734009
70
192
0
VERTEX
8
OBJECT__132
10
136.531006
20
-114.500000
30
276.734009
70
192
0
VERTEX
8
OBJECT__132
10
127.651001
20
-114.500000
30
278.399994
70
192
0
VERTEX
8
OBJECT__132
10
127.651001
20
-85.500000
30
278.399994
70
192
0
VERTEX
8
OBJECT__132
10
147.822006
20
-85.500000
30
267.139008
70
192
0
VERTEX
8
OBJECT__132
10
144.203003
20
-85.500000
30
271.963989
70
192
0
VERTEX
8
OBJECT__132
10
144.203003
20
-114.500000
30
271.963989
70
192
0
VERTEX
8
OBJECT__132
10
139.082001
20
-114.500000
30
275.148010
70
192
0
VERTEX
8
OBJECT__132
10
152.057999
20
-85.500000
30
256.036011
70
192
0
VERTEX
8
OBJECT__132
10
149.625000
20
-85.500000
30
264.735992
70
192
0
VERTEX
8
OBJECT__132
10
149.625000
20
-114.500000
30
264.735992
70
192
0
VERTEX
8
OBJECT__132
10
147.822006
20
-114.500000
30
267.139008
70
192
0
VERTEX
8
OBJECT__132
10
152.057999
20
-114.500000
30
256.036011
70
192
0
VERTEX
8
OBJECT__132
10
0
20
0
30
0
70
128
71
1
72
2
73
3
0
VERTEX
8
OBJECT__132
10
0
20
0
30
0
70
128
71
4
72
3
73
2
0
VERTEX
8
OBJECT__132
10
0
20
0
30
0
70
128
71
2
72
5
73
4
0
VERTEX
8
OBJECT__132
10
0
20
0
30
0
70
128
71
6
72
7
73
8
0
VERTEX
8
OBJECT__132
10
0
20
0
30
0
70
128
71
9
72
8
73
7
0
VERTEX
8
OBJECT__132
10
0
20
0
30
0
70
128
71
7
72
1
73
9
0
VERTEX
8
OBJECT__132
10
0
20
0
30
0
70
128
71
10
72
11
73
12
0
VERTEX
8
OBJECT__132
10
0
20
0
30
0
70
128
71
13
72
12
73
11
0
VERTEX
8
OBJECT__132
10
0
20
0
30
0
70
128
71
11
72
6
73
13
0
VERTEX
8
OBJECT__132
10
0
20
0
30
0
70
128
71
12
72
14
73
10
0
VERTEX
8
OBJECT__132
10
0
20
0
30
0
70
128
71
8
72
13
73
6
0
VERTEX
8
OBJECT__132
10
0
20
0
30
0
70
128
71
3
72
9
73
1
0
SEQEND
8
OBJECT__132
0
POLYLINE
8
OBJECT__133
66
1
70
64
71
13
72
11
62
253
0
VERTEX
8
OBJECT__133
10
136.712006
20
-115.000000
30
277.200012
70
192
0
VERTEX
8
OBJECT__133
10
136.531006
20
-114.500000
30
276.734009
70
192
0
VERTEX
8
OBJECT__133
10
127.651001
20
-114.500000
30
278.399994
70
192
0
VERTEX
8
OBJECT__133
10
144.541000
20
-115.000000
30
272.332001
70
192
0
VERTEX
8
OBJECT__133
10
144.203003
20
-114.500000
30
271.963989
70
192
0
VERTEX
8
OBJECT__133
10
139.082001
20
-114.500000
30
275.148010
70
192
0
VERTEX
8
OBJECT__133
10
150.072998
20
-115.000000
30
264.957001
70
192
0
VERTEX
8
OBJECT__133
10
147.822006
20
-114.500000
30
267.139008
70
192
0
VERTEX
8
OBJECT__133
10
149.625000
20
-114.500000
30
264.735992
70
192
0
VERTEX
8
OBJECT__133
10
152.307007
20
-114.750000
30
256.057007
70
192
0
VERTEX
8
OBJECT__133
10
152.057999
20
-114.500000
30
256.036011
70
192
0
VERTEX
8
OBJECT__133
10
152.556000
20
-115.000000
30
256.079010
70
192
0
VERTEX
8
OBJECT__133
10
127.651001
20
-115.000000
30
278.899994
70
192
0
VERTEX
8
OBJECT__133
10
0
20
0
30
0
70
128
71
1
72
2
73
3
0
VERTEX
8
OBJECT__133
10
0
20
0
30
0
70
128
71
4
72
5
73
6
0
VERTEX
8
OBJECT__133
10
0
20
0
30
0
70
128
71
6
72
1
73
4
0
VERTEX
8
OBJECT__133
10
0
20
0
30
0
70
128
71
4
72
7
73
8
0
VERTEX
8
OBJECT__133
10
0
20
0
30
0
70
128
71
7
72
9
73
8
0
VERTEX
8
OBJECT__133
10
0
20
0
30
0
70
128
71
7
72
10
73
11
0
VERTEX
8
OBJECT__133
10
0
20
0
30
0
70
128
71
7
72
12
73
10
0
VERTEX
8
OBJECT__133
10
0
20
0
30
0
70
128
71
11
72
9
73
7
0
VERTEX
8
OBJECT__133
10
0
20
0
30
0
70
128
71
8
72
5
73
4
0
VERTEX
8
OBJECT__133
10
0
20
0
30
0
70
128
71
6
72
2
73
1
0
VERTEX
8
OBJECT__133
10
0
20
0
30
0
70
128
71
3
72
13
73
1
0
SEQEND
8
OBJECT__133
0
POLYLINE
8
OBJECT__134
66
1
70
64
71
13
72
11
62
253
0
VERTEX
8
OBJECT__134
10
136.712006
20
-85.000000
30
277.200012
70
192
0
VERTEX
8
OBJECT__134
10
127.651001
20
-85.000000
30
278.899994
70
192
0
VERTEX
8
OBJECT__134
10
127.651001
20
-85.500000
30
278.399994
70
192
0
VERTEX
8
OBJECT__134
10
144.541000
20
-85.000000
30
272.332001
70
192
0
VERTEX
8
OBJECT__134
10
139.082001
20
-85.500000
30
275.148010
70
192
0
VERTEX
8
OBJECT__134
10
136.531006
20
-85.500000
30
276.734009
70
192
0
VERTEX
8
OBJECT__134
10
144.203003
20
-85.500000
30
271.963989
70
192
0
VERTEX
8
OBJECT__134
10
147.822006
20
-85.500000
30
267.139008
70
192
0
VERTEX
8
OBJECT__134
10
150.072998
20
-85.000000
30
264.957001
70
192
0
VERTEX
8
OBJECT__134
10
152.307007
20
-85.250000
30
256.057007
70
192
0
VERTEX
8
OBJECT__134
10
149.625000
20
-85.500000
30
264.735992
70
192
0
VERTEX
8
OBJECT__134
10
152.057999
20
-85.500000
30
256.036011
70
192
0
VERTEX
8
OBJECT__134
10
152.556000
20
-85.000000
30
256.079010
70
192
0
VERTEX
8
OBJECT__134
10
0
20
0
30
0
70
128
71
1
72
2
73
3
0
VERTEX
8
OBJECT__134
10
0
20
0
30
0
70
128
71
4
72
1
73
5
0
VERTEX
8
OBJECT__134
10
0
20
0
30
0
70
128
71
1
72
6
73
5
0
VERTEX
8
OBJECT__134
10
0
20
0
30
0
70
128
71
4
72
7
73
8
0
VERTEX
8
OBJECT__134
10
0
20
0
30
0
70
128
71
8
72
9
73
4
0
VERTEX
8
OBJECT__134
10
0
20
0
30
0
70
128
71
10
72
9
73
11
0
VERTEX
8
OBJECT__134
10
0
20
0
30
0
70
128
71
11
72
12
73
10
0
VERTEX
8
OBJECT__134
10
0
20
0
30
0
70
128
71
10
72
13
73
9
0
VERTEX
8
OBJECT__134
10
0
20
0
30
0
70
128
71
8
72
11
73
9
0
VERTEX
8
OBJECT__134
10
0
20
0
30
0
70
128
71
5
72
7
73
4
0
VERTEX
8
OBJECT__134
10
0
20
0
30
0
70
128
71
3
72
6
73
1
0
SEQEND
8
OBJECT__134
0
POLYLINE
8
OBJECT__135
66
1
70
64
71
4
72
2
62
253
0
VERTEX
8
OBJECT__135
10
152.057999
20
-114.500000
30
256.036011
70
192
0
VERTEX
8
OBJECT__135
10
152.529007
20
-114.500000
30
250.656006
70
192
0
VERTEX
8
OBJECT__135
10
152.529007
20
-85.500000
30
250.656006
70
192
0
VERTEX
8
OBJECT__135
10
152.057999
20
-85.500000
30
256.036011
70
192
0
VERTEX
8
OBJECT__135
10
0
20
0
30
0
70
128
71
1
72
2
73
3
0
VERTEX
8
OBJECT__135
10
0
20
0
30
0
70
128
71
3
72
4
73
1
0
SEQEND
8
OBJECT__135
0
POLYLINE
8
OBJECT__136
66
1
70
64
71
6
72
4
62
253
0
VERTEX
8
OBJECT__136
10
152.529007
20
-114.500000
30
250.656006
70
192
0
VERTEX
8
OBJECT__136
10
152.057999
20
-114.500000
30
256.036011
70
192
0
VERTEX
8
OBJECT__136
10
152.307007
20
-114.750000
30
256.057007
70
192
0
VERTEX
8
OBJECT__136
10
153.026993
20
-115.000000
30
250.699997
70
192
0
VERTEX
8
OBJECT__136
10
152.673996
20
-114.853996
30
250.669006
70
192
0
VERTEX
8
OBJECT__136
10
152.556000
20
-115.000000
30
256.079010
70
192
0
VERTEX
8
OBJECT__136
10
0
20
0
30
0
70
128
71
1
72
2
73
3
0
VERTEX
8
OBJECT__136
10
0
20
0
30
0
70
128
71
4
72
5
73
3
0
VERTEX
8
OBJECT__136
10
0
20
0
30
0
70
128
71
3
72
6
73
4
0
VERTEX
8
OBJECT__136
10
0
20
0
30
0
70
128
71
3
72
5
73
1
0
SEQEND
8
OBJECT__136
0
POLYLINE
8
OBJECT__137
66
1
70
64
71
6
72
4
62
253
0
VERTEX
8
OBJECT__137
10
153.026993
20
-85.000000
30
250.699997
70
192
0
VERTEX
8
OBJECT__137
10
152.556000
20
-85.000000
30
256.079010
70
192
0
VERTEX
8
OBJECT__137
10
152.307007
20
-85.250000
30
256.057007
70
192
0
VERTEX
8
OBJECT__137
10
152.529007
20
-85.500000
30
250.656006
70
192
0
VERTEX
8
OBJECT__137
10
152.673996
20
-85.146004
30
250.669006
70
192
0
VERTEX
8
OBJECT__137
10
152.057999
20
-85.500000
30
256.036011
70
192
0
VERTEX
8
OBJECT__137
10
0
20
0
30
0
70
128
71
1
72
2
73
3
0
VERTEX
8
OBJECT__137
10
0
20
0
30
0
70
128
71
4
72
5
73
3
0
VERTEX
8
OBJECT__137
10
0
20
0
30
0
70
128
71
3
72
6
73
4
0
VERTEX
8
OBJECT__137
10
0
20
0
30
0
70
128
71
3
72
5
73
1
0
SEQEND
8
OBJECT__137
0
POLYLINE
8
OBJECT__138
66
1
70
64
71
10
72
8
62
253
0
VERTEX
8
OBJECT__138
10
166.973007
20
-115.000000
30
251.919998
70
192
0
VERTEX
8
OBJECT__138
10
166.973007
20
-85.000000
30
251.919998
70
192
0
VERTEX
8
OBJECT__138
10
167.470993
20
-85.500000
30
251.962997
70
192
0
VERTEX
8
OBJECT__138
10
153.026993
20
-85.000000
30
250.699997
70
192
0
VERTEX
8
OBJECT__138
10
153.026993
20
-115.000000
30
250.699997
70
192
0
VERTEX
8
OBJECT__138
10
152.529007
20
-114.500000
30
250.656006
70
192
0
VERTEX
8
OBJECT__138
10
167.470993
20
-114.500000
30
251.962997
70
192
0
VERTEX
8
OBJECT__138
10
152.529007
20
-85.500000
30
250.656006
70
192
0
VERTEX
8
OBJECT__138
10
152.673996
20
-114.853996
30
250.669006
70
192
0
VERTEX
8
OBJECT__138
10
152.673996
20
-85.146004
30
250.669006
70
192
0
VERTEX
8
OBJECT__138
10
0
20
0
30
0
70
128
71
1
72
2
73
3
0
VERTEX
8
OBJECT__138
10
0
20
0
30
0
70
128
71
4
72
5
73
6
0
VERTEX
8
OBJECT__138
10
0
20
0
30
0
70
128
71
3
72
7
73
1
0
VERTEX
8
OBJECT__138
10
0
20
0
30
0
70
128
71
6
72
8
73
4
0
VERTEX
8
OBJECT__138
10
0
20
0
30
0
70
128
71
5
72
4
73
2
0
VERTEX
8
OBJECT__138
10
0
20
0
30
0
70
128
71
5
72
9
73
6
0
VERTEX
8
OBJECT__138
10
0
20
0
30
0
70
128
71
8
72
10
73
4
0
VERTEX
8
OBJECT__138
10
0
20
0
30
0
70
128
71
1
72
5
73
2
0
SEQEND
8
OBJECT__138
0
POLYLINE
8
OBJECT__139
66
1
70
64
71
4
72
2
62
253
0
VERTEX
8
OBJECT__139
10
166.973007
20
-115.000000
30
251.919998
70
192
0
VERTEX
8
OBJECT__139
10
167.470993
20
-114.500000
30
251.962997
70
192
0
VERTEX
8
OBJECT__139
10
167.001007
20
-114.500000
30
257.342987
70
192
0
VERTEX
8
OBJECT__139
10
166.503006
20
-115.000000
30
257.299011
70
192
0
VERTEX
8
OBJECT__139
10
0
20
0
30
0
70
128
71
1
72
2
73
3
0
VERTEX
8
OBJECT__139
10
0
20
0
30
0
70
128
71
3
72
4
73
1
0
SEQEND
8
OBJECT__139
0
POLYLINE
8
OBJECT__140
66
1
70
64
71
4
72
2
62
253
0
VERTEX
8
OBJECT__140
10
167.470993
20
-85.500000
30
251.962997
70
192
0
VERTEX
8
OBJECT__140
10
167.001007
20
-85.500000
30
257.342987
70
192
0
VERTEX
8
OBJECT__140
10
167.001007
20
-114.500000
30
257.342987
70
192
0
VERTEX
8
OBJECT__140
10
167.470993
20
-114.500000
30
251.962997
70
192
0
VERTEX
8
OBJECT__140
10
0
20
0
30
0
70
128
71
1
72
2
73
3
0
VERTEX
8
OBJECT__140
10
0
20
0
30
0
70
128
71
3
72
4
73
1
0
SEQEND
8
OBJECT__140
0
POLYLINE
8
OBJECT__141
66
1
70
64
71
15
72
13
62
253
0
VERTEX
8
OBJECT__141
10
139.199997
20
-114.500000
30
291.674011
70
192
0
VERTEX
8
OBJECT__141
10
127.651001
20
-114.500000
30
293.399994
70
192
0
VERTEX
8
OBJECT__141
10
127.651001
20
-115.000000
30
292.899994
70
192
0
VERTEX
8
OBJECT__141
10
149.460007
20
-115.000000
30
286.233002
70
192
0
VERTEX
8
OBJECT__141
10
149.738998
20
-114.500000
30
286.647003
70
192
0
VERTEX
8
OBJECT__141
10
141.826996
20
-114.500000
30
290.420990
70
192
0
VERTEX
8
OBJECT__141
10
139.054001
20
-115.000000
30
291.196014
70
192
0
VERTEX
8
OBJECT__141
10
157.960007
20
-115.000000
30
278.444000
70
192
0
VERTEX
8
OBJECT__141
10
154.044006
20
-114.500000
30
282.703003
70
192
0
VERTEX
8
OBJECT__141
10
158.348007
20
-114.500000
30
278.757996
70
192
0
VERTEX
8
OBJECT__141
10
163.811005
20
-115.000000
30
268.510010
70
192
0
VERTEX
8
OBJECT__141
10
162.796997
20
-114.500000
30
271.205994
70
192
0
VERTEX
8
OBJECT__141
10
164.274994
20
-114.500000
30
268.696991
70
192
0
VERTEX
8
OBJECT__141
10
166.503006
20
-115.000000
30
257.299011
70
192
0
VERTEX
8
OBJECT__141
10
167.001007
20
-114.500000
30
257.342987
70
192
0
VERTEX
8
OBJECT__141
10
0
20
0
30
0
70
128
71
1
72
2
73
3
0
VERTEX
8
OBJECT__141
10
0
20
0
30
0
70
128
71
4
72
5
73
6
0
VERTEX
8
OBJECT__141
10
0
20
0
30
0
70
128
71
6
72
7
73
4
0
VERTEX
8
OBJECT__141
10
0
20
0
30
0
70
128
71
4
72
8
73
9
0
VERTEX
8
OBJECT__141
10
0
20
0
30
0
70
128
71
8
72
10
73
9
0
VERTEX
8
OBJECT__141
10
0
20
0
30
0
70
128
71
8
72
11
73
12
0
VERTEX
8
OBJECT__141
10
0
20
0
30
0
70
128
71
11
72
13
73
12
0
VERTEX
8
OBJECT__141
10
0
20
0
30
0
70
128
71
13
72
11
73
14
0
VERTEX
8
OBJECT__141
10
0
20
0
30
0
70
128
71
14
72
15
73
13
0
VERTEX
8
OBJECT__141
10
0
20
0
30
0
70
128
71
12
72
10
73
8
0
VERTEX
8
OBJECT__141
10
0
20
0
30
0
70
128
71
9
72
5
73
4
0
VERTEX
8
OBJECT__141
10
0
20
0
30
0
70
128
71
6
72
1
73
7
0
VERTEX
8
OBJECT__141
10
0
20
0
30
0
70
128
71
3
72
7
73
1
0
SEQEND
8
OBJECT__141
0
POLYLINE
8
OBJECT__142
66
1
70
64
71
4
72
2
62
253
0
VERTEX
8
OBJECT__142
10
166.973007
20
-85.000000
30
251.919998
70
192
0
VERTEX
8
OBJECT__142
10
166.503006
20
-85.000000
30
257.299011
70
192
0
VERTEX
8
OBJECT__142
10
167.001007
20
-85.500000
30
257.342987
70
192
0
VERTEX
8
OBJECT__142
10
167.470993
20
-85.500000
30
251.962997
70
192
0
VERTEX
8
OBJECT__142
10
0
20
0
30
0
70
128
71
1
72
2
73
3
0
VERTEX
8
OBJECT__142
10
0
20
0
30
0
70
128
71
3
72
4
73
1
0
SEQEND
8
OBJECT__142
0
POLYLINE
8
OBJECT__143
66
1
70
64
71
18
72
16
62
253
0
VERTEX
8
OBJECT__143
10
141.826996
20
-85.500000
30
290.420990
70
192
0
VERTEX
8
OBJECT__143
10
139.199997
20
-85.500000
30
291.674011
70
192
0
VERTEX
8
OBJECT__143
10
139.199997
20
-114.500000
30
291.674011
70
192
0
VERTEX
8
OBJECT__143
10
127.651001
20
-114.500000
30
293.399994
70
192
0
VERTEX
8
OBJECT__143
10
127.651001
20
-85.500000
30
293.399994
70
192
0
VERTEX
8
OBJECT__143
10
154.044006
20
-85.500000
30
282.703003
70
192
0
VERTEX
8
OBJECT__143
10
149.738998
20
-85.500000
30
286.647003
70
192
0
VERTEX
8
OBJECT__143
10
149.738998
20
-114.500000
30
286.647003
70
192
0
VERTEX
8
OBJECT__143
10
141.826996
20
-114.500000
30
290.420990
70
192
0
VERTEX
8
OBJECT__143
10
162.796997
20
-85.500000
30
271.205994
70
192
0
VERTEX
8
OBJECT__143
10
158.348007
20
-85.500000
30
278.757996
70
192
0
VERTEX
8
OBJECT__143
10
158.348007
20
-114.500000
30
278.757996
70
192
0
VERTEX
8
OBJECT__143
10
154.044006
20
-114.500000
30
282.703003
70
192
0
VERTEX
8
OBJECT__143
10
167.001007
20
-85.500000
30
257.342987
70
192
0
VERTEX
8
OBJECT__143
10
164.274994
20
-85.500000
30
268.696991
70
192
0
VERTEX
8
OBJECT__143
10
164.274994
20
-114.500000
30
268.696991
70
192
0
VERTEX
8
OBJECT__143
10
162.796997
20
-114.500000
30
271.205994
70
192
0
VERTEX
8
OBJECT__143
10
167.001007
20
-114.500000
30
257.342987
70
192
0
VERTEX
8
OBJECT__143
10
0
20
0
30
0
70
128
71
1
72
2
73
3
0
VERTEX
8
OBJECT__143
10
0
20
0
30
0
70
128
71
4
72
3
73
2
0
VERTEX
8
OBJECT__143
10
0
20
0
30
0
70
128
71
2
72
5
73
4
0
VERTEX
8
OBJECT__143
10
0
20
0
30
0
70
128
71
6
72
7
73
8
0
VERTEX
8
OBJECT__143
10
0
20
0
30
0
70
128
71
9
72
8
73
7
0
VERTEX
8
OBJECT__143
10
0
20
0
30
0
70
128
71
7
72
1
73
9
0
VERTEX
8
OBJECT__143
10
0
20
0
30
0
70
128
71
10
72
11
73
12
0
VERTEX
8
OBJECT__143
10
0
20
0
30
0
70
128
71
13
72
12
73
11
0
VERTEX
8
OBJECT__143
10
0
20
0
30
0
70
128
71
11
72
6
73
13
0
VERTEX
8
OBJECT__143
10
0
20
0
30
0
70
128
71
14
72
15
73
16
0
VERTEX
8
OBJECT__143
10
0
20
0
30
0
70
128
71
17
72
16
73
15
0
VERTEX
8
OBJECT__143
10
0
20
0
30
0
70
128
71
15
72
10
73
17
0
VERTEX
8
OBJECT__143
10
0
20
0
30
0
70
128
71
16
72
18
73
14
0
VERTEX
8
OBJECT__143
10
0
20
0
30
0
70
128
71
12
72
17
73
10
0
VERTEX
8
OBJECT__143
10
0
20
0
30
0
70
128
71
8
72
13
73
6
0
VERTEX
8
OBJECT__143
10
0
20
0
30
0
70
128
71
3
72
9
73
1
0
SEQEND
8
OBJECT__143
0
POLYLINE
8
OBJECT__144
66
1
70
64
71
4
72
2
62
253
0
VERTEX
8
OBJECT__144
10
32.000000
20
-115.000000
30
292.899994
70
192
0
VERTEX
8
OBJECT__144
10
127.651001
20
-115.000000
30
292.899994
70
192
0
VERTEX
8
OBJECT__144
10
127.651001
20
-114.500000
30
293.399994
70
192
0
VERTEX
8
OBJECT__144
10
32.000000
20
-114.500000
30
293.399994
70
192
0
VERTEX
8
OBJECT__144
10
0
20
0
30
0
70
128
71
1
72
2
73
3
0
VERTEX
8
OBJECT__144
10
0
20
0
30
0
70
128
71
3
72
4
73
1
0
SEQEND
8
OBJECT__144
0
POLYLINE
8
OBJECT__145
66
1
70
64
71
26
72
24
62
253
0
VERTEX
8
OBJECT__145
10
139.054001
20
-115.000000
30
291.196014
70
192
0
VERTEX
8
OBJECT__145
10
127.651001
20
-115.000000
30
292.899994
70
192
0
VERTEX
8
OBJECT__145
10
127.651001
20
-115.000000
30
278.899994
70
192
0
VERTEX
8
OBJECT__145
10
32.000000
20
-115.000000
30
278.899994
70
192
0
VERTEX
8
OBJECT__145
10
149.460007
20
-115.000000
30
286.233002
70
192
0
VERTEX
8
OBJECT__145
10
136.712006
20
-115.000000
30
277.200012
70
192
0
VERTEX
8
OBJECT__145
10
32.000000
20
-115.000000
30
292.899994
70
192
0
VERTEX
8
OBJECT__145
10
19.948000
20
-115.000000
30
290.990997
70
192
0
VERTEX
8
OBJECT__145
10
22.433001
20
-115.000000
30
276.997009
70
192
0
VERTEX
8
OBJECT__145
10
144.541000
20
-115.000000
30
272.332001
70
192
0
VERTEX
8
OBJECT__145
10
157.960007
20
-115.000000
30
278.444000
70
192
0
VERTEX
8
OBJECT__145
10
153.026993
20
-115.000000
30
250.699997
70
192
0
VERTEX
8
OBJECT__145
10
166.973007
20
-115.000000
30
251.919998
70
192
0
VERTEX
8
OBJECT__145
10
166.503006
20
-115.000000
30
257.299011
70
192
0
VERTEX
8
OBJECT__145
10
163.811005
20
-115.000000
30
268.510010
70
192
0
VERTEX
8
OBJECT__145
10
150.072998
20
-115.000000
30
264.957001
70
192
0
VERTEX
8
OBJECT__145
10
152.556000
20
-115.000000
30
256.079010
70
192
0
VERTEX
8
OBJECT__145
10
0.448000
20
-115.000000
30
276.824005
70
192
0
VERTEX
8
OBJECT__145
10
-5.091000
20
-115.000000
30
265.951996
70
192
0
VERTEX
8
OBJECT__145
10
8.903000
20
-115.000000
30
263.467010
70
192
0
VERTEX
8
OBJECT__145
10
9.076000
20
-115.000000
30
285.451996
70
192
0
VERTEX
8
OBJECT__145
10
14.322000
20
-115.000000
30
271.578003
70
192
0
VERTEX
8
OBJECT__145
10
-7.000000
20
-115.000000
30
253.899994
70
192
0
VERTEX
8
OBJECT__145
10
7.000000
20
-115.000000
30
253.899994
70
192
0
VERTEX
8
OBJECT__145
10
7.000000
20
-115.000000
30
71.900002
70
192
0
VERTEX
8
OBJECT__145
10
-7.000000
20
-115.000000
30
71.900002
70
192
0
VERTEX
8
OBJECT__145
10
0
20
0
30
0
70
128
71
1
72
2
73
3
0
VERTEX
8
OBJECT__145
10
0
20
0
30
0
70
128
71
4
72
3
73
2
0
VERTEX
8
OBJECT__145
10
0
20
0
30
0
70
128
71
5
72
1
73
6
0
VERTEX
8
OBJECT__145
10
0
20
0
30
0
70
128
71
2
72
7
73
4
0
VERTEX
8
OBJECT__145
10
0
20
0
30
0
70
128
71
8
72
9
73
4
0
VERTEX
8
OBJECT__145
10
0
20
0
30
0
70
128
71
10
72
11
73
5
0
VERTEX
8
OBJECT__145
10
0
20
0
30
0
70
128
71
4
72
7
73
8
0
VERTEX
8
OBJECT__145
10
0
20
0
30
0
70
128
71
12
72
13
73
14
0
VERTEX
8
OBJECT__145
10
0
20
0
30
0
70
128
71
15
72
16
73
17
0
VERTEX
8
OBJECT__145
10
0
20
0
30
0
70
128
71
11
72
10
73
16
0
VERTEX
8
OBJECT__145
10
0
20
0
30
0
70
128
71
3
72
6
73
1
0
VERTEX
8
OBJECT__145
10
0
20
0
30
0
70
128
71
18
72
19
73
20
0
VERTEX
8
OBJECT__145
10
0
20
0
30
0
70
128
71
17
72
14
73
15
0
VERTEX
8
OBJECT__145
10
0
20
0
30
0
70
128
71
6
72
10
73
5
0
VERTEX
8
OBJECT__145
10
0
20
0
30
0
70
128
71
21
72
22
73
9
0
VERTEX
8
OBJECT__145
10
0
20
0
30
0
70
128
71
22
72
21
73
18
0
VERTEX
8
OBJECT__145
10
0
20
0
30
0
70
128
71
16
72
15
73
11
0
VERTEX
8
OBJECT__145
10
0
20
0
30
0
70
128
71
20
72
22
73
18
0
VERTEX
8
OBJECT__145
10
0
20
0
30
0
70
128
71
19
72
23
73
24
0
VERTEX
8
OBJECT__145
10
0
20
0
30
0
70
128
71
25
72
24
73
23
0
VERTEX
8
OBJECT__145
10
0
20
0
30
0
70
128
71
9
72
8
73
21
0
VERTEX
8
OBJECT__145
10
0
20
0
30
0
70
128
71
23
72
26
73
25
0
VERTEX
8
OBJECT__145
10
0
20
0
30
0
70
128
71
24
72
20
73
19
0
VERTEX
8
OBJECT__145
10
0
20
0
30
0
70
128
71
14
72
17
73
12
0
SEQEND
8
OBJECT__145
0
POLYLINE
8
OBJECT__146
66
1
70
64
71
15
72
13
62
253
0
VERTEX
8
OBJECT__146
10
-7.500000
20
-114.500000
30
253.899994
70
192
0
VERTEX
8
OBJECT__146
10
-7.000000
20
-115.000000
30
253.899994
70
192
0
VERTEX
8
OBJECT__146
10
-5.091000
20
-115.000000
30
265.951996
70
192
0
VERTEX
8
OBJECT__146
10
0.448000
20
-115.000000
30
276.824005
70
192
0
VERTEX
8
OBJECT__146
10
0.044000
20
-114.500000
30
277.118011
70
192
0
VERTEX
8
OBJECT__146
10
-4.168000
20
-114.500000
30
268.851013
70
192
0
VERTEX
8
OBJECT__146
10
9.076000
20
-115.000000
30
285.451996
70
192
0
VERTEX
8
OBJECT__146
10
4.413000
20
-114.500000
30
281.487000
70
192
0
VERTEX
8
OBJECT__146
10
8.782000
20
-114.500000
30
285.855988
70
192
0
VERTEX
8
OBJECT__146
10
19.948000
20
-115.000000
30
290.990997
70
192
0
VERTEX
8
OBJECT__146
10
17.049999
20
-114.500000
30
290.069000
70
192
0
VERTEX
8
OBJECT__146
10
19.794001
20
-114.500000
30
291.467010
70
192
0
VERTEX
8
OBJECT__146
10
32.000000
20
-114.500000
30
293.399994
70
192
0
VERTEX
8
OBJECT__146
10
32.000000
20
-115.000000
30
292.899994
70
192
0
VERTEX
8
OBJECT__146
10
-5.567000
20
-114.500000
30
266.105988
70
192
0
VERTEX
8
OBJECT__146
10
0
20
0
30
0
70
128
71
1
72
2
73
3
0
VERTEX
8
OBJECT__146
10
0
20
0
30
0
70
128
71
4
72
5
73
6
0
VERTEX
8
OBJECT__146
10
0
20
0
30
0
70
128
71
6
72
3
73
4
0
VERTEX
8
OBJECT__146
10
0
20
0
30
0
70
128
71
4
72
7
73
8
0
VERTEX
8
OBJECT__146
10
0
20
0
30
0
70
128
71
7
72
9
73
8
0
VERTEX
8
OBJECT__146
10
0
20
0
30
0
70
128
71
7
72
10
73
11
0
VERTEX
8
OBJECT__146
10
0
20
0
30
0
70
128
71
10
72
12
73
11
0
VERTEX
8
OBJECT__146
10
0
20
0
30
0
70
128
71
13
72
12
73
10
0
VERTEX
8
OBJECT__146
10
0
20
0
30
0
70
128
71
10
72
14
73
13
0
VERTEX
8
OBJECT__146
10
0
20
0
30
0
70
128
71
11
72
9
73
7
0
VERTEX
8
OBJECT__146
10
0
20
0
30
0
70
128
71
8
72
5
73
4
0
VERTEX
8
OBJECT__146
10
0
20
0
30
0
70
128
71
6
72
15
73
3
0
VERTEX
8
OBJECT__146
10
0
20
0
30
0
70
128
71
3
72
15
73
1
0
SEQEND
8
OBJECT__146
0
POLYLINE
8
OBJECT__147
66
1
70
64
71
4
72
2
62
253
0
VERTEX
8
OBJECT__147
10
32.000000
20
-85.500000
30
293.399994
70
192
0
VERTEX
8
OBJECT__147
10
32.000000
20
-114.500000
30
293.399994
70
192
0
VERTEX
8
OBJECT__147
10
127.651001
20
-114.500000
30
293.399994
70
192
0
VERTEX
8
OBJECT__147
10
127.651001
20
-85.500000
30
293.399994
70
192
0
VERTEX
8
OBJECT__147
10
0
20
0
30
0
70
128
71
1
72
2
73
3
0
VERTEX
8
OBJECT__147
10
0
20
0
30
0
70
128
71
3
72
4
73
1
0
SEQEND
8
OBJECT__147
0
POLYLINE
8
OBJECT__148
66
1
70
64
71
15
72
13
62
253
0
VERTEX
8
OBJECT__148
10
139.199997
20
-85.500000
30
291.674011
70
192
0
VERTEX
8
OBJECT__148
10
139.054001
20
-85.000000
30
291.196014
70
192
0
VERTEX
8
OBJECT__148
10
127.651001
20
-85.000000
30
292.899994
70
192
0
VERTEX
8
OBJECT__148
10
149.460007
20
-85.000000
30
286.233002
70
192
0
VERTEX
8
OBJECT__148
10
141.826996
20
-85.500000
30
290.420990
70
192
0
VERTEX
8
OBJECT__148
10
149.738998
20
-85.500000
30
286.647003
70
192
0
VERTEX
8
OBJECT__148
10
154.044006
20
-85.500000
30
282.703003
70
192
0
VERTEX
8
OBJECT__148
10
157.960007
20
-85.000000
30
278.444000
70
192
0
VERTEX
8
OBJECT__148
10
158.348007
20
-85.500000
30
278.757996
70
192
0
VERTEX
8
OBJECT__148
10
162.796997
20
-85.500000
30
271.205994
70
192
0
VERTEX
8
OBJECT__148
10
163.811005
20
-85.000000
30
268.510010
70
192
0
VERTEX
8
OBJECT__148
10
164.274994
20
-85.500000
30
268.696991
70
192
0
VERTEX
8
OBJECT__148
10
167.001007
20
-85.500000
30
257.342987
70
192
0
VERTEX
8
OBJECT__148
10
166.503006
20
-85.000000
30
257.299011
70
192
0
VERTEX
8
OBJECT__148
10
127.651001
20
-85.500000
30
293.399994
70
192
0
VERTEX
8
OBJECT__148
10
0
20
0
30
0
70
128
71
1
72
2
73
3
0
VERTEX
8
OBJECT__148
10
0
20
0
30
0
70
128
71
4
72
2
73
5
0
VERTEX
8
OBJECT__148
10
0
20
0
30
0
70
128
71
2
72
1
73
5
0
VERTEX
8
OBJECT__148
10
0
20
0
30
0
70
128
71
4
72
6
73
7
0
VERTEX
8
OBJECT__148
10
0
20
0
30
0
70
128
71
7
72
8
73
4
0
VERTEX
8
OBJECT__148
10
0
20
0
30
0
70
128
71
8
72
9
73
10
0
VERTEX
8
OBJECT__148
10
0
20
0
30
0
70
128
71
10
72
11
73
8
0
VERTEX
8
OBJECT__148
10
0
20
0
30
0
70
128
71
12
72
13
73
14
0
VERTEX
8
OBJECT__148
10
0
20
0
30
0
70
128
71
14
72
11
73
12
0
VERTEX
8
OBJECT__148
10
0
20
0
30
0
70
128
71
10
72
12
73
11
0
VERTEX
8
OBJECT__148
10
0
20
0
30
0
70
128
71
7
72
9
73
8
0
VERTEX
8
OBJECT__148
10
0
20
0
30
0
70
128
71
5
72
6
73
4
0
VERTEX
8
OBJECT__148
10
0
20
0
30
0
70
128
71
3
72
15
73
1
0
SEQEND
8
OBJECT__148
0
POLYLINE
8
OBJECT__149
66
1
70
64
71
4
72
2
62
253
0
VERTEX
8
OBJECT__149
10
32.000000
20
-85.500000
30
293.399994
70
192
0
VERTEX
8
OBJECT__149
10
127.651001
20
-85.500000
30
293.399994
70
192
0
VERTEX
8
OBJECT__149
10
127.651001
20
-85.000000
30
292.899994
70
192
0
VERTEX
8
OBJECT__149
10
32.000000
20
-85.000000
30
292.899994
70
192
0
VERTEX
8
OBJECT__149
10
0
20
0
30
0
70
128
71
1
72
2
73
3
0
VERTEX
8
OBJECT__149
10
0
20
0
30
0
70
128
71
3
72
4
73
1
0
SEQEND
8
OBJECT__149
0
POLYLINE
8
OBJECT__150
66
1
70
64
71
26
72
24
62
253
0
VERTEX
8
OBJECT__150
10
32.000000
20
-85.000000
30
292.899994
70
192
0
VERTEX
8
OBJECT__150
10
127.651001
20
-85.000000
30
292.899994
70
192
0
VERTEX
8
OBJECT__150
10
127.651001
20
-85.000000
30
278.899994
70
192
0
VERTEX
8
OBJECT__150
10
139.054001
20
-85.000000
30
291.196014
70
192
0
VERTEX
8
OBJECT__150
10
136.712006
20
-85.000000
30
277.200012
70
192
0
VERTEX
8
OBJECT__150
10
19.948000
20
-85.000000
30
290.990997
70
192
0
VERTEX
8
OBJECT__150
10
32.000000
20
-85.000000
30
278.899994
70
192
0
VERTEX
8
OBJECT__150
10
149.460007
20
-85.000000
30
286.233002
70
192
0
VERTEX
8
OBJECT__150
10
144.541000
20
-85.000000
30
272.332001
70
192
0
VERTEX
8
OBJECT__150
10
157.960007
20
-85.000000
30
278.444000
70
192
0
VERTEX
8
OBJECT__150
10
163.811005
20
-85.000000
30
268.510010
70
192
0
VERTEX
8
OBJECT__150
10
150.072998
20
-85.000000
30
264.957001
70
192
0
VERTEX
8
OBJECT__150
10
166.503006
20
-85.000000
30
257.299011
70
192
0
VERTEX
8
OBJECT__150
10
152.556000
20
-85.000000
30
256.079010
70
192
0
VERTEX
8
OBJECT__150
10
153.026993
20
-85.000000
30
250.699997
70
192
0
VERTEX
8
OBJECT__150
10
166.973007
20
-85.000000
30
251.919998
70
192
0
VERTEX
8
OBJECT__150
10
0.448000
20
-85.000000
30
276.824005
70
192
0
VERTEX
8
OBJECT__150
10
14.322000
20
-85.000000
30
271.578003
70
192
0
VERTEX
8
OBJECT__150
10
8.903000
20
-85.000000
30
263.467010
70
192
0
VERTEX
8
OBJECT__150
10
9.076000
20
-85.000000
30
285.451996
70
192
0
VERTEX
8
OBJECT__150
10
22.433001
20
-85.000000
30
276.997009
70
192
0
VERTEX
8
OBJECT__150
10
-7.000000
20
-85.000000
30
253.899994
70
192
0
VERTEX
8
OBJECT__150
10
7.000000
20
-85.000000
30
253.899994
70
192
0
VERTEX
8
OBJECT__150
10
7.000000
20
-85.000000
30
71.900002
70
192
0
VERTEX
8
OBJECT__150
10
-5.091000
20
-85.000000
30
265.951996
70
192
0
VERTEX
8
OBJECT__150
10
-7.000000
20
-85.000000
30
71.900002
70
192
0
VERTEX
8
OBJECT__150
10
0
20
0
30
0
70
128
71
1
72
2
73
3
0
VERTEX
8
OBJECT__150
10
0
20
0
30
0
70
128
71
4
72
5
73
3
0
VERTEX
8
OBJECT__150
10
0
20
0
30
0
70
128
71
6
72
1
73
7
0
VERTEX
8
OBJECT__150
10
0
20
0
30
0
70
128
71
3
72
2
73
4
0
VERTEX
8
OBJECT__150
10
0
20
0
30
0
70
128
71
8
72
9
73
5
0
VERTEX
8
OBJECT__150
10
0
20
0
30
0
70
128
71
3
72
7
73
1
0
VERTEX
8
OBJECT__150
10
0
20
0
30
0
70
128
71
5
72
4
73
8
0
VERTEX
8
OBJECT__150
10
0
20
0
30
0
70
128
71
8
72
10
73
9
0
VERTEX
8
OBJECT__150
10
0
20
0
30
0
70
128
71
10
72
11
73
12
0
VERTEX
8
OBJECT__150
10
0
20
0
30
0
70
128
71
11
72
13
73
14
0
VERTEX
8
OBJECT__150
10
0
20
0
30
0
70
128
71
15
72
14
73
13
0
VERTEX
8
OBJECT__150
10
0
20
0
30
0
70
128
71
12
72
9
73
10
0
VERTEX
8
OBJECT__150
10
0
20
0
30
0
70
128
71
13
72
16
73
15
0
VERTEX
8
OBJECT__150
10
0
20
0
30
0
70
128
71
17
72
18
73
19
0
VERTEX
8
OBJECT__150
10
0
20
0
30
0
70
128
71
20
72
6
73
21
0
VERTEX
8
OBJECT__150
10
0
20
0
30
0
70
128
71
14
72
12
73
11
0
VERTEX
8
OBJECT__150
10
0
20
0
30
0
70
128
71
22
72
23
73
24
0
VERTEX
8
OBJECT__150
10
0
20
0
30
0
70
128
71
25
72
19
73
23
0
VERTEX
8
OBJECT__150
10
0
20
0
30
0
70
128
71
19
72
25
73
17
0
VERTEX
8
OBJECT__150
10
0
20
0
30
0
70
128
71
7
72
21
73
6
0
VERTEX
8
OBJECT__150
10
0
20
0
30
0
70
128
71
23
72
22
73
25
0
VERTEX
8
OBJECT__150
10
0
20
0
30
0
70
128
71
21
72
18
73
20
0
VERTEX
8
OBJECT__150
10
0
20
0
30
0
70
128
71
17
72
20
73
18
0
VERTEX
8
OBJECT__150
10
0
20
0
30
0
70
128
71
24
72
26
73
22
0
SEQEND
8
OBJECT__150
0
POLYLINE
8
OBJECT__151
66
1
70
64
71
15
72
13
62
253
0
VERTEX
8
OBJECT__151
10
-7.500000
20
-85.500000
30
253.899994
70
192
0
VERTEX
8
OBJECT__151
10
-5.567000
20
-85.500000
30
266.105988
70
192
0
VERTEX
8
OBJECT__151
10
-5.091000
20
-85.000000
30
265.951996
70
192
0
VERTEX
8
OBJECT__151
10
0.448000
20
-85.000000
30
276.824005
70
192
0
VERTEX
8
OBJECT__151
10
-4.168000
20
-85.500000
30
268.851013
70
192
0
VERTEX
8
OBJECT__151
10
0.044000
20
-85.500000
30
277.118011
70
192
0
VERTEX
8
OBJECT__151
10
4.413000
20
-85.500000
30
281.487000
70
192
0
VERTEX
8
OBJECT__151
10
9.076000
20
-85.000000
30
285.451996
70
192
0
VERTEX
8
OBJECT__151
10
8.782000
20
-85.500000
30
285.855988
70
192
0
VERTEX
8
OBJECT__151
10
17.049999
20
-85.500000
30
290.069000
70
192
0
VERTEX
8
OBJECT__151
10
19.948000
20
-85.000000
30
290.990997
70
192
0
VERTEX
8
OBJECT__151
10
32.000000
20
-85.500000
30
293.399994
70
192
0
VERTEX
8
OBJECT__151
10
32.000000
20
-85.000000
30
292.899994
70
192
0
VERTEX
8
OBJECT__151
10
19.794001
20
-85.500000
30
291.467010
70
192
0
VERTEX
8
OBJECT__151
10
-7.000000
20
-85.000000
30
253.899994
70
192
0
VERTEX
8
OBJECT__151
10
0
20
0
30
0
70
128
71
1
72
2
73
3
0
VERTEX
8
OBJECT__151
10
0
20
0
30
0
70
128
71
4
72
3
73
5
0
VERTEX
8
OBJECT__151
10
0
20
0
30
0
70
128
71
3
72
2
73
5
0
VERTEX
8
OBJECT__151
10
0
20
0
30
0
70
128
71
4
72
6
73
7
0
VERTEX
8
OBJECT__151
10
0
20
0
30
0
70
128
71
7
72
8
73
4
0
VERTEX
8
OBJECT__151
10
0
20
0
30
0
70
128
71
8
72
9
73
10
0
VERTEX
8
OBJECT__151
10
0
20
0
30
0
70
128
71
10
72
11
73
8
0
VERTEX
8
OBJECT__151
10
0
20
0
30
0
70
128
71
12
72
13
73
11
0
VERTEX
8
OBJECT__151
10
0
20
0
30
0
70
128
71
11
72
14
73
12
0
VERTEX
8
OBJECT__151
10
0
20
0
30
0
70
128
71
10
72
14
73
11
0
VERTEX
8
OBJECT__151
10
0
20
0
30
0
70
128
71
7
72
9
73
8
0
VERTEX
8
OBJECT__151
10
0
20
0
30
0
70
128
71
5
72
6
73
4
0
VERTEX
8
OBJECT__151
10
0
20
0
30
0
70
128
71
3
72
15
73
1
0
SEQEND
8
OBJECT__151
0
POLYLINE
8
OBJECT__152
66
1
70
64
71
18
72
16
62
253
0
VERTEX
8
OBJECT__152
10
-4.168000
20
-85.500000
30
268.851013
70
192
0
VERTEX
8
OBJECT__152
10
-5.567000
20
-85.500000
30
266.105988
70
192
0
VERTEX
8
OBJECT__152
10
-5.567000
20
-114.500000
30
266.105988
70
192
0
VERTEX
8
OBJECT__152
10
-7.500000
20
-85.500000
30
253.899994
70
192
0
VERTEX
8
OBJECT__152
10
-7.500000
20
-114.500000
30
253.899994
70
192
0
VERTEX
8
OBJECT__152
10
4.413000
20
-85.500000
30
281.487000
70
192
0
VERTEX
8
OBJECT__152
10
0.044000
20
-85.500000
30
277.118011
70
192
0
VERTEX
8
OBJECT__152
10
0.044000
20
-114.500000
30
277.118011
70
192
0
VERTEX
8
OBJECT__152
10
-4.168000
20
-114.500000
30
268.851013
70
192
0
VERTEX
8
OBJECT__152
10
17.049999
20
-85.500000
30
290.069000
70
192
0
VERTEX
8
OBJECT__152
10
8.782000
20
-85.500000
30
285.855988
70
192
0
VERTEX
8
OBJECT__152
10
8.782000
20
-114.500000
30
285.855988
70
192
0
VERTEX
8
OBJECT__152
10
4.413000
20
-114.500000
30
281.487000
70
192
0
VERTEX
8
OBJECT__152
10
32.000000
20
-85.500000
30
293.399994
70
192
0
VERTEX
8
OBJECT__152
10
19.794001
20
-85.500000
30
291.467010
70
192
0
VERTEX
8
OBJECT__152
10
19.794001
20
-114.500000
30
291.467010
70
192
0
VERTEX
8
OBJECT__152
10
17.049999
20
-114.500000
30
290.069000
70
192
0
VERTEX
8
OBJECT__152
10
32.000000
20
-114.500000
30
293.399994
70
192
0
VERTEX
8
OBJECT__152
10
0
20
0
30
0
70
128
71
1
72
2
73
3
0
VERTEX
8
OBJECT__152
10
0
20
0
30
0
70
128
71
2
72
4
73
5
0
VERTEX
8
OBJECT__152
10
0
20
0
30
0
70
128
71
5
72
3
73
2
0
VERTEX
8
OBJECT__152
10
0
20
0
30
0
70
128
71
6
72
7
73
8
0
VERTEX
8
OBJECT__152
10
0
20
0
30
0
70
128
71
9
72
8
73
7
0
VERTEX
8
OBJECT__152
10
0
20
0
30
0
70
128
71
7
72
1
73
9
0
VERTEX
8
OBJECT__152
10
0
20
0
30
0
70
128
71
10
72
11
73
12
0
VERTEX
8
OBJECT__152
10
0
20
0
30
0
70
128
71
13
72
12
73
11
0
VERTEX
8
OBJECT__152
10
0
20
0
30
0
70
128
71
11
72
6
73
13
0
VERTEX
8
OBJECT__152
10
0
20
0
30
0
70
128
71
14
72
15
73
16
0
VERTEX
8
OBJECT__152
10
0
20
0
30
0
70
128
71
17
72
16
73
15
0
VERTEX
8
OBJECT__152
10
0
20
0
30
0
70
128
71
15
72
10
73
17
0
VERTEX
8
OBJECT__152
10
0
20
0
30
0
70
128
71
16
72
18
73
14
0
VERTEX
8
OBJECT__152
10
0
20
0
30
0
70
128
71
12
72
17
73
10
0
VERTEX
8
OBJECT__152
10
0
20
0
30
0
70
128
71
8
72
13
73
6
0
VERTEX
8
OBJECT__152
10
0
20
0
30
0
70
128
71
3
72
9
73
1
0
SEQEND
8
OBJECT__152
0
POLYLINE
8
OBJECT__153
66
1
70
64
71
4
72
2
62
253
0
VERTEX
8
OBJECT__153
10
-7.000000
20
-115.000000
30
71.900002
70
192
0
VERTEX
8
OBJECT__153
10
-7.000000
20
-115.000000
30
253.899994
70
192
0
VERTEX
8
OBJECT__153
10
-7.500000
20
-114.500000
30
253.899994
70
192
0
VERTEX
8
OBJECT__153
10
-7.500000
20
-114.500000
30
71.900002
70
192
0
VERTEX
8
OBJECT__153
10
0
20
0
30
0
70
128
71
1
72
2
73
3
0
VERTEX
8
OBJECT__153
10
0
20
0
30
0
70
128
71
3
72
4
73
1
0
SEQEND
8
OBJECT__153
0
POLYLINE
8
OBJECT__154
66
1
70
64
71
4
72
2
62
253
0
VERTEX
8
OBJECT__154
10
-7.500000
20
-114.500000
30
253.899994
70
192
0
VERTEX
8
OBJECT__154
10
-7.500000
20
-85.500000
30
253.899994
70
192
0
VERTEX
8
OBJECT__154
10
-7.500000
20
-85.500000
30
71.900002
70
192
0
VERTEX
8
OBJECT__154
10
-7.500000
20
-114.500000
30
71.900002
70
192
0
VERTEX
8
OBJECT__154
10
0
20
0
30
0
70
128
71
1
72
2
73
3
0
VERTEX
8
OBJECT__154
10
0
20
0
30
0
70
128
71
3
72
4
73
1
0
SEQEND
8
OBJECT__154
0
POLYLINE
8
OBJECT__155
66
1
70
64
71
4
72
2
62
253
0
VERTEX
8
OBJECT__155
10
-7.500000
20
-85.500000
30
253.899994
70
192
0
VERTEX
8
OBJECT__155
10
-7.000000
20
-85.000000
30
253.899994
70
192
0
VERTEX
8
OBJECT__155
10
-7.000000
20
-85.000000
30
71.900002
70
192
0
VERTEX
8
OBJECT__155
10
-7.500000
20
-85.500000
30
71.900002
70
192
0
VERTEX
8
OBJECT__155
10
0
20
0
30
0
70
128
71
1
72
2
73
3
0
VERTEX
8
OBJECT__155
10
0
20
0
30
0
70
128
71
3
72
4
73
1
0
SEQEND
8
OBJECT__155
0
POLYLINE
8
OBJECT__156
66
1
70
64
71
4
72
2
62
253
0
VERTEX
8
OBJECT__156
10
-7.500000
20
-114.500000
30
253.899994
70
192
0
VERTEX
8
OBJECT__156
10
-7.000000
20
-115.000000
30
253.899994
70
192
0
VERTEX
8
OBJECT__156
10
-7.000000
20
-115.000000
30
71.900002
70
192
0
VERTEX
8
OBJECT__156
10
-7.500000
20
-114.500000
30
71.900002
70
192
0
VERTEX
8
OBJECT__156
10
0
20
0
30
0
70
128
71
1
72
2
73
3
0
VERTEX
8
OBJECT__156
10
0
20
0
30
0
70
128
71
3
72
4
73
1
0
SEQEND
8
OBJECT__156
0
POLYLINE
8
OBJECT__157
66
1
70
64
71
4
72
2
62
253
0
VERTEX
8
OBJECT__157
10
-7.500000
20
-114.500000
30
71.900002
70
192
0
VERTEX
8
OBJECT__157
10
-7.500000
20
-85.500000
30
71.900002
70
192
0
VERTEX
8
OBJECT__157
10
-7.500000
20
-85.500000
30
253.899994
70
192
0
VERTEX
8
OBJECT__157
10
-7.500000
20
-114.500000
30
253.899994
70
192
0
VERTEX
8
OBJECT__157
10
0
20
0
30
0
70
128
71
1
72
2
73
3
0
VERTEX
8
OBJECT__157
10
0
20
0
30
0
70
128
71
3
72
4
73
1
0
SEQEND
8
OBJECT__157
0
POLYLINE
8
OBJECT__158
66
1
70
64
71
4
72
2
62
253
0
VERTEX
8
OBJECT__158
10
-7.000000
20
-85.000000
30
71.900002
70
192
0
VERTEX
8
OBJECT__158
10
-7.000000
20
-85.000000
30
253.899994
70
192
0
VERTEX
8
OBJECT__158
10
-7.500000
20
-85.500000
30
253.899994
70
192
0
VERTEX
8
OBJECT__158
10
-7.500000
20
-85.500000
30
71.900002
70
192
0
VERTEX
8
OBJECT__158
10
0
20
0
30
0
70
128
71
1
72
2
73
3
0
VERTEX
8
OBJECT__158
10
0
20
0
30
0
70
128
71
3
72
4
73
1
0
SEQEND
8
OBJECT__158
0
POLYLINE
8
OBJECT__159
66
1
70
64
71
15
72
13
62
253
0
VERTEX
8
OBJECT__159
10
-7.500000
20
-114.500000
30
253.899994
70
192
0
VERTEX
8
OBJECT__159
10
-5.567000
20
-114.500000
30
266.105988
70
192
0
VERTEX
8
OBJECT__159
10
-5.091000
20
-115.000000
30
265.951996
70
192
0
VERTEX
8
OBJECT__159
10
0.448000
20
-115.000000
30
276.824005
70
192
0
VERTEX
8
OBJECT__159
10
-4.168000
20
-114.500000
30
268.851013
70
192
0
VERTEX
8
OBJECT__159
10
0.044000
20
-114.500000
30
277.118011
70
192
0
VERTEX
8
OBJECT__159
10
4.413000
20
-114.500000
30
281.487000
70
192
0
VERTEX
8
OBJECT__159
10
9.076000
20
-115.000000
30
285.451996
70
192
0
VERTEX
8
OBJECT__159
10
8.782000
20
-114.500000
30
285.855988
70
192
0
VERTEX
8
OBJECT__159
10
17.049999
20
-114.500000
30
290.069000
70
192
0
VERTEX
8
OBJECT__159
10
19.948000
20
-115.000000
30
290.990997
70
192
0
VERTEX
8
OBJECT__159
10
32.000000
20
-114.500000
30
293.399994
70
192
0
VERTEX
8
OBJECT__159
10
32.000000
20
-115.000000
30
292.899994
70
192
0
VERTEX
8
OBJECT__159
10
19.794001
20
-114.500000
30
291.467010
70
192
0
VERTEX
8
OBJECT__159
10
-7.000000
20
-115.000000
30
253.899994
70
192
0
VERTEX
8
OBJECT__159
10
0
20
0
30
0
70
128
71
1
72
2
73
3
0
VERTEX
8
OBJECT__159
10
0
20
0
30
0
70
128
71
4
72
3
73
5
0
VERTEX
8
OBJECT__159
10
0
20
0
30
0
70
128
71
3
72
2
73
5
0
VERTEX
8
OBJECT__159
10
0
20
0
30
0
70
128
71
4
72
6
73
7
0
VERTEX
8
OBJECT__159
10
0
20
0
30
0
70
128
71
7
72
8
73
4
0
VERTEX
8
OBJECT__159
10
0
20
0
30
0
70
128
71
8
72
9
73
10
0
VERTEX
8
OBJECT__159
10
0
20
0
30
0
70
128
71
10
72
11
73
8
0
VERTEX
8
OBJECT__159
10
0
20
0
30
0
70
128
71
12
72
13
73
11
0
VERTEX
8
OBJECT__159
10
0
20
0
30
0
70
128
71
11
72
14
73
12
0
VERTEX
8
OBJECT__159
10
0
20
0
30
0
70
128
71
10
72
14
73
11
0
VERTEX
8
OBJECT__159
10
0
20
0
30
0
70
128
71
7
72
9
73
8
0
VERTEX
8
OBJECT__159
10
0
20
0
30
0
70
128
71
5
72
6
73
4
0
VERTEX
8
OBJECT__159
10
0
20
0
30
0
70
128
71
3
72
15
73
1
0
SEQEND
8
OBJECT__159
0
POLYLINE
8
OBJECT__160
66
1
70
64
71
18
72
16
62
253
0
VERTEX
8
OBJECT__160
10
17.049999
20
-85.500000
30
290.069000
70
192
0
VERTEX
8
OBJECT__160
10
19.794001
20
-85.500000
30
291.467010
70
192
0
VERTEX
8
OBJECT__160
10
19.794001
20
-114.500000
30
291.467010
70
192
0
VERTEX
8
OBJECT__160
10
32.000000
20
-114.500000
30
293.399994
70
192
0
VERTEX
8
OBJECT__160
10
32.000000
20
-85.500000
30
293.399994
70
192
0
VERTEX
8
OBJECT__160
10
8.782000
20
-114.500000
30
285.855988
70
192
0
VERTEX
8
OBJECT__160
10
4.413000
20
-114.500000
30
281.487000
70
192
0
VERTEX
8
OBJECT__160
10
4.413000
20
-85.500000
30
281.487000
70
192
0
VERTEX
8
OBJECT__160
10
17.049999
20
-114.500000
30
290.069000
70
192
0
VERTEX
8
OBJECT__160
10
8.782000
20
-85.500000
30
285.855988
70
192
0
VERTEX
8
OBJECT__160
10
-4.168000
20
-85.500000
30
268.851013
70
192
0
VERTEX
8
OBJECT__160
10
0.044000
20
-85.500000
30
277.118011
70
192
0
VERTEX
8
OBJECT__160
10
0.044000
20
-114.500000
30
277.118011
70
192
0
VERTEX
8
OBJECT__160
10
-5.567000
20
-85.500000
30
266.105988
70
192
0
VERTEX
8
OBJECT__160
10
-5.567000
20
-114.500000
30
266.105988
70
192
0
VERTEX
8
OBJECT__160
10
-7.500000
20
-114.500000
30
253.899994
70
192
0
VERTEX
8
OBJECT__160
10
-4.168000
20
-114.500000
30
268.851013
70
192
0
VERTEX
8
OBJECT__160
10
-7.500000
20
-85.500000
30
253.899994
70
192
0
VERTEX
8
OBJECT__160
10
0
20
0
30
0
70
128
71
1
72
2
73
3
0
VERTEX
8
OBJECT__160
10
0
20
0
30
0
70
128
71
4
72
3
73
2
0
VERTEX
8
OBJECT__160
10
0
20
0
30
0
70
128
71
2
72
5
73
4
0
VERTEX
8
OBJECT__160
10
0
20
0
30
0
70
128
71
6
72
7
73
8
0
VERTEX
8
OBJECT__160
10
0
20
0
30
0
70
128
71
1
72
9
73
6
0
VERTEX
8
OBJECT__160
10
0
20
0
30
0
70
128
71
6
72
10
73
1
0
VERTEX
8
OBJECT__160
10
0
20
0
30
0
70
128
71
11
72
12
73
13
0
VERTEX
8
OBJECT__160
10
0
20
0
30
0
70
128
71
7
72
13
73
12
0
VERTEX
8
OBJECT__160
10
0
20
0
30
0
70
128
71
12
72
8
73
7
0
VERTEX
8
OBJECT__160
10
0
20
0
30
0
70
128
71
14
72
15
73
16
0
VERTEX
8
OBJECT__160
10
0
20
0
30
0
70
128
71
17
72
15
73
14
0
VERTEX
8
OBJECT__160
10
0
20
0
30
0
70
128
71
14
72
11
73
17
0
VERTEX
8
OBJECT__160
10
0
20
0
30
0
70
128
71
16
72
18
73
14
0
VERTEX
8
OBJECT__160
10
0
20
0
30
0
70
128
71
13
72
17
73
11
0
VERTEX
8
OBJECT__160
10
0
20
0
30
0
70
128
71
8
72
10
73
6
0
VERTEX
8
OBJECT__160
10
0
20
0
30
0
70
128
71
3
72
9
73
1
0
SEQEND
8
OBJECT__160
0
POLYLINE
8
OBJECT__161
66
1
70
64
71
15
72
13
62
253
0
VERTEX
8
OBJECT__161
10
-7.500000
20
-85.500000
30
253.899994
70
192
0
VERTEX
8
OBJECT__161
10
-7.000000
20
-85.000000
30
253.899994
70
192
0
VERTEX
8
OBJECT__161
10
-5.091000
20
-85.000000
30
265.951996
70
192
0
VERTEX
8
OBJECT__161
10
0.448000
20
-85.000000
30
276.824005
70
192
0
VERTEX
8
OBJECT__161
10
0.044000
20
-85.500000
30
277.118011
70
192
0
VERTEX
8
OBJECT__161
10
-4.168000
20
-85.500000
30
268.851013
70
192
0
VERTEX
8
OBJECT__161
10
9.076000
20
-85.000000
30
285.451996
70
192
0
VERTEX
8
OBJECT__161
10
4.413000
20
-85.500000
30
281.487000
70
192
0
VERTEX
8
OBJECT__161
10
8.782000
20
-85.500000
30
285.855988
70
192
0
VERTEX
8
OBJECT__161
10
19.948000
20
-85.000000
30
290.990997
70
192
0
VERTEX
8
OBJECT__161
10
17.049999
20
-85.500000
30
290.069000
70
192
0
VERTEX
8
OBJECT__161
10
19.794001
20
-85.500000
30
291.467010
70
192
0
VERTEX
8
OBJECT__161
10
32.000000
20
-85.500000
30
293.399994
70
192
0
VERTEX
8
OBJECT__161
10
32.000000
20
-85.000000
30
292.899994
70
192
0
VERTEX
8
OBJECT__161
10
-5.567000
20
-85.500000
30
266.105988
70
192
0
VERTEX
8
OBJECT__161
10
0
20
0
30
0
70
128
71
1
72
2
73
3
0
VERTEX
8
OBJECT__161
10
0
20
0
30
0
70
128
71
4
72
5
73
6
0
VERTEX
8
OBJECT__161
10
0
20
0
30
0
70
128
71
6
72
3
73
4
0
VERTEX
8
OBJECT__161
10
0
20
0
30
0
70
128
71
4
72
7
73
8
0
VERTEX
8
OBJECT__161
10
0
20
0
30
0
70
128
71
7
72
9
73
8
0
VERTEX
8
OBJECT__161
10
0
20
0
30
0
70
128
71
7
72
10
73
11
0
VERTEX
8
OBJECT__161
10
0
20
0
30
0
70
128
71
10
72
12
73
11
0
VERTEX
8
OBJECT__161
10
0
20
0
30
0
70
128
71
13
72
12
73
10
0
VERTEX
8
OBJECT__161
10
0
20
0
30
0
70
128
71
10
72
14
73
13
0
VERTEX
8
OBJECT__161
10
0
20
0
30
0
70
128
71
11
72
9
73
7
0
VERTEX
8
OBJECT__161
10
0
20
0
30
0
70
128
71
8
72
5
73
4
0
VERTEX
8
OBJECT__161
10
0
20
0
30
0
70
128
71
6
72
15
73
3
0
VERTEX
8
OBJECT__161
10
0
20
0
30
0
70
128
71
3
72
15
73
1
0
SEQEND
8
OBJECT__161
0
POLYLINE
8
OBJECT__162
66
1
70
64
71
4
72
2
62
253
0
VERTEX
8
OBJECT__162
10
32.000000
20
-114.500000
30
293.399994
70
192
0
VERTEX
8
OBJECT__162
10
127.651001
20
-114.500000
30
293.399994
70
192
0
VERTEX
8
OBJECT__162
10
127.651001
20
-115.000000
30
292.899994
70
192
0
VERTEX
8
OBJECT__162
10
32.000000
20
-115.000000
30
292.899994
70
192
0
VERTEX
8
OBJECT__162
10
0
20
0
30
0
70
128
71
1
72
2
73
3
0
VERTEX
8
OBJECT__162
10
0
20
0
30
0
70
128
71
3
72
4
73
1
0
SEQEND
8
OBJECT__162
0
POLYLINE
8
OBJECT__163
66
1
70
64
71
26
72
24
62
253
0
VERTEX
8
OBJECT__163
10
32.000000
20
-115.000000
30
292.899994
70
192
0
VERTEX
8
OBJECT__163
10
127.651001
20
-115.000000
30
292.899994
70
192
0
VERTEX
8
OBJECT__163
10
127.651001
20
-115.000000
30
278.899994
70
192
0
VERTEX
8
OBJECT__163
10
139.054001
20
-115.000000
30
291.196014
70
192
0
VERTEX
8
OBJECT__163
10
136.712006
20
-115.000000
30
277.200012
70
192
0
VERTEX
8
OBJECT__163
10
19.948000
20
-115.000000
30
290.990997
70
192
0
VERTEX
8
OBJECT__163
10
32.000000
20
-115.000000
30
278.899994
70
192
0
VERTEX
8
OBJECT__163
10
149.460007
20
-115.000000
30
286.233002
70
192
0
VERTEX
8
OBJECT__163
10
144.541000
20
-115.000000
30
272.332001
70
192
0
VERTEX
8
OBJECT__163
10
0.448000
20
-115.000000
30
276.824005
70
192
0
VERTEX
8
OBJECT__163
10
14.322000
20
-115.000000
30
271.578003
70
192
0
VERTEX
8
OBJECT__163
10
8.903000
20
-115.000000
30
263.467010
70
192
0
VERTEX
8
OBJECT__163
10
157.960007
20
-115.000000
30
278.444000
70
192
0
VERTEX
8
OBJECT__163
10
163.811005
20
-115.000000
30
268.510010
70
192
0
VERTEX
8
OBJECT__163
10
150.072998
20
-115.000000
30
264.957001
70
192
0
VERTEX
8
OBJECT__163
10
166.503006
20
-115.000000
30
257.299011
70
192
0
VERTEX
8
OBJECT__163
10
152.556000
20
-115.000000
30
256.079010
70
192
0
VERTEX
8
OBJECT__163
10
153.026993
20
-115.000000
30
250.699997
70
192
0
VERTEX
8
OBJECT__163
10
-5.091000
20
-115.000000
30
265.951996
70
192
0
VERTEX
8
OBJECT__163
10
9.076000
20
-115.000000
30
285.451996
70
192
0
VERTEX
8
OBJECT__163
10
22.433001
20
-115.000000
30
276.997009
70
192
0
VERTEX
8
OBJECT__163
10
166.973007
20
-115.000000
30
251.919998
70
192
0
VERTEX
8
OBJECT__163
10
-7.000000
20
-115.000000
30
253.899994
70
192
0
VERTEX
8
OBJECT__163
10
7.000000
20
-115.000000
30
253.899994
70
192
0
VERTEX
8
OBJECT__163
10
7.000000
20
-115.000000
30
71.900002
70
192
0
VERTEX
8
OBJECT__163
10
-7.000000
20
-115.000000
30
71.900002
70
192
0
VERTEX
8
OBJECT__163
10
0
20
0
30
0
70
128
71
1
72
2
73
3
0
VERTEX
8
OBJECT__163
10
0
20
0
30
0
70
128
71
4
72
5
73
3
0
VERTEX
8
OBJECT__163
10
0
20
0
30
0
70
128
71
6
72
1
73
7
0
VERTEX
8
OBJECT__163
10
0
20
0
30
0
70
128
71
3
72
2
73
4
0
VERTEX
8
OBJECT__163
10
0
20
0
30
0
70
128
71
8
72
9
73
5
0
VERTEX
8
OBJECT__163
10
0
20
0
30
0
70
128
71
3
72
7
73
1
0
VERTEX
8
OBJECT__163
10
0
20
0
30
0
70
128
71
5
72
4
73
8
0
VERTEX
8
OBJECT__163
10
0
20
0
30
0
70
128
71
10
72
11
73
12
0
VERTEX
8
OBJECT__163
10
0
20
0
30
0
70
128
71
8
72
13
73
9
0
VERTEX
8
OBJECT__163
10
0
20
0
30
0
70
128
71
13
72
14
73
15
0
VERTEX
8
OBJECT__163
10
0
20
0
30
0
70
128
71
14
72
16
73
17
0
VERTEX
8
OBJECT__163
10
0
20
0
30
0
70
128
71
18
72
17
73
16
0
VERTEX
8
OBJECT__163
10
0
20
0
30
0
70
128
71
12
72
19
73
10
0
VERTEX
8
OBJECT__163
10
0
20
0
30
0
70
128
71
20
72
6
73
21
0
VERTEX
8
OBJECT__163
10
0
20
0
30
0
70
128
71
15
72
9
73
13
0
VERTEX
8
OBJECT__163
10
0
20
0
30
0
70
128
71
16
72
22
73
18
0
VERTEX
8
OBJECT__163
10
0
20
0
30
0
70
128
71
23
72
24
73
25
0
VERTEX
8
OBJECT__163
10
0
20
0
30
0
70
128
71
19
72
12
73
24
0
VERTEX
8
OBJECT__163
10
0
20
0
30
0
70
128
71
21
72
11
73
20
0
VERTEX
8
OBJECT__163
10
0
20
0
30
0
70
128
71
17
72
15
73
14
0
VERTEX
8
OBJECT__163
10
0
20
0
30
0
70
128
71
24
72
23
73
19
0
VERTEX
8
OBJECT__163
10
0
20
0
30
0
70
128
71
7
72
21
73
6
0
VERTEX
8
OBJECT__163
10
0
20
0
30
0
70
128
71
10
72
20
73
11
0
VERTEX
8
OBJECT__163
10
0
20
0
30
0
70
128
71
25
72
26
73
23
0
SEQEND
8
OBJECT__163
0
POLYLINE
8
OBJECT__164
66
1
70
64
71
4
72
2
62
253
0
VERTEX
8
OBJECT__164
10
127.651001
20
-85.500000
30
293.399994
70
192
0
VERTEX
8
OBJECT__164
10
127.651001
20
-114.500000
30
293.399994
70
192
0
VERTEX
8
OBJECT__164
10
32.000000
20
-114.500000
30
293.399994
70
192
0
VERTEX
8
OBJECT__164
10
32.000000
20
-85.500000
30
293.399994
70
192
0
VERTEX
8
OBJECT__164
10
0
20
0
30
0
70
128
71
1
72
2
73
3
0
VERTEX
8
OBJECT__164
10
0
20
0
30
0
70
128
71
3
72
4
73
1
0
SEQEND
8
OBJECT__164
0
POLYLINE
8
OBJECT__165
66
1
70
64
71
15
72
13
62
253
0
VERTEX
8
OBJECT__165
10
139.199997
20
-114.500000
30
291.674011
70
192
0
VERTEX
8
OBJECT__165
10
139.054001
20
-115.000000
30
291.196014
70
192
0
VERTEX
8
OBJECT__165
10
127.651001
20
-115.000000
30
292.899994
70
192
0
VERTEX
8
OBJECT__165
10
149.460007
20
-115.000000
30
286.233002
70
192
0
VERTEX
8
OBJECT__165
10
141.826996
20
-114.500000
30
290.420990
70
192
0
VERTEX
8
OBJECT__165
10
149.738998
20
-114.500000
30
286.647003
70
192
0
VERTEX
8
OBJECT__165
10
154.044006
20
-114.500000
30
282.703003
70
192
0
VERTEX
8
OBJECT__165
10
157.960007
20
-115.000000
30
278.444000
70
192
0
VERTEX
8
OBJECT__165
10
158.348007
20
-114.500000
30
278.757996
70
192
0
VERTEX
8
OBJECT__165
10
162.796997
20
-114.500000
30
271.205994
70
192
0
VERTEX
8
OBJECT__165
10
163.811005
20
-115.000000
30
268.510010
70
192
0
VERTEX
8
OBJECT__165
10
164.274994
20
-114.500000
30
268.696991
70
192
0
VERTEX
8
OBJECT__165
10
167.001007
20
-114.500000
30
257.342987
70
192
0
VERTEX
8
OBJECT__165
10
166.503006
20
-115.000000
30
257.299011
70
192
0
VERTEX
8
OBJECT__165
10
127.651001
20
-114.500000
30
293.399994
70
192
0
VERTEX
8
OBJECT__165
10
0
20
0
30
0
70
128
71
1
72
2
73
3
0
VERTEX
8
OBJECT__165
10
0
20
0
30
0
70
128
71
4
72
2
73
5
0
VERTEX
8
OBJECT__165
10
0
20
0
30
0
70
128
71
2
72
1
73
5
0
VERTEX
8
OBJECT__165
10
0
20
0
30
0
70
128
71
4
72
6
73
7
0
VERTEX
8
OBJECT__165
10
0
20
0
30
0
70
128
71
7
72
8
73
4
0
VERTEX
8
OBJECT__165
10
0
20
0
30
0
70
128
71
8
72
9
73
10
0
VERTEX
8
OBJECT__165
10
0
20
0
30
0
70
128
71
10
72
11
73
8
0
VERTEX
8
OBJECT__165
10
0
20
0
30
0
70
128
71
12
72
13
73
14
0
VERTEX
8
OBJECT__165
10
0
20
0
30
0
70
128
71
14
72
11
73
12
0
VERTEX
8
OBJECT__165
10
0
20
0
30
0
70
128
71
10
72
12
73
11
0
VERTEX
8
OBJECT__165
10
0
20
0
30
0
70
128
71
7
72
9
73
8
0
VERTEX
8
OBJECT__165
10
0
20
0
30
0
70
128
71
5
72
6
73
4
0
VERTEX
8
OBJECT__165
10
0
20
0
30
0
70
128
71
3
72
15
73
1
0
SEQEND
8
OBJECT__165
0
POLYLINE
8
OBJECT__166
66
1
70
64
71
4
72
2
62
253
0
VERTEX
8
OBJECT__166
10
32.000000
20
-85.000000
30
292.899994
70
192
0
VERTEX
8
OBJECT__166
10
127.651001
20
-85.000000
30
292.899994
70
192
0
VERTEX
8
OBJECT__166
10
127.651001
20
-85.500000
30
293.399994
70
192
0
VERTEX
8
OBJECT__166
10
32.000000
20
-85.500000
30
293.399994
70
192
0
VERTEX
8
OBJECT__166
10
0
20
0
30
0
70
128
71
1
72
2
73
3
0
VERTEX
8
OBJECT__166
10
0
20
0
30
0
70
128
71
3
72
4
73
1
0
SEQEND
8
OBJECT__166
0
POLYLINE
8
OBJECT__167
66
1
70
64
71
26
72
24
62
253
0
VERTEX
8
OBJECT__167
10
139.054001
20
-85.000000
30
291.196014
70
192
0
VERTEX
8
OBJECT__167
10
127.651001
20
-85.000000
30
292.899994
70
192
0
VERTEX
8
OBJECT__167
10
127.651001
20
-85.000000
30
278.899994
70
192
0
VERTEX
8
OBJECT__167
10
32.000000
20
-85.000000
30
278.899994
70
192
0
VERTEX
8
OBJECT__167
10
149.460007
20
-85.000000
30
286.233002
70
192
0
VERTEX
8
OBJECT__167
10
136.712006
20
-85.000000
30
277.200012
70
192
0
VERTEX
8
OBJECT__167
10
32.000000
20
-85.000000
30
292.899994
70
192
0
VERTEX
8
OBJECT__167
10
19.948000
20
-85.000000
30
290.990997
70
192
0
VERTEX
8
OBJECT__167
10
22.433001
20
-85.000000
30
276.997009
70
192
0
VERTEX
8
OBJECT__167
10
144.541000
20
-85.000000
30
272.332001
70
192
0
VERTEX
8
OBJECT__167
10
157.960007
20
-85.000000
30
278.444000
70
192
0
VERTEX
8
OBJECT__167
10
153.026993
20
-85.000000
30
250.699997
70
192
0
VERTEX
8
OBJECT__167
10
166.973007
20
-85.000000
30
251.919998
70
192
0
VERTEX
8
OBJECT__167
10
166.503006
20
-85.000000
30
257.299011
70
192
0
VERTEX
8
OBJECT__167
10
163.811005
20
-85.000000
30
268.510010
70
192
0
VERTEX
8
OBJECT__167
10
150.072998
20
-85.000000
30
264.957001
70
192
0
VERTEX
8
OBJECT__167
10
152.556000
20
-85.000000
30
256.079010
70
192
0
VERTEX
8
OBJECT__167
10
9.076000
20
-85.000000
30
285.451996
70
192
0
VERTEX
8
OBJECT__167
10
14.322000
20
-85.000000
30
271.578003
70
192
0
VERTEX
8
OBJECT__167
10
0.448000
20
-85.000000
30
276.824005
70
192
0
VERTEX
8
OBJECT__167
10
-5.091000
20
-85.000000
30
265.951996
70
192
0
VERTEX
8
OBJECT__167
10
8.903000
20
-85.000000
30
263.467010
70
192
0
VERTEX
8
OBJECT__167
10
-7.000000
20
-85.000000
30
253.899994
70
192
0
VERTEX
8
OBJECT__167
10
7.000000
20
-85.000000
30
253.899994
70
192
0
VERTEX
8
OBJECT__167
10
-7.000000
20
-85.000000
30
71.900002
70
192
0
VERTEX
8
OBJECT__167
10
7.000000
20
-85.000000
30
71.900002
70
192
0
VERTEX
8
OBJECT__167
10
0
20
0
30
0
70
128
71
1
72
2
73
3
0
VERTEX
8
OBJECT__167
10
0
20
0
30
0
70
128
71
4
72
3
73
2
0
VERTEX
8
OBJECT__167
10
0
20
0
30
0
70
128
71
5
72
1
73
6
0
VERTEX
8
OBJECT__167
10
0
20
0
30
0
70
128
71
2
72
7
73
4
0
VERTEX
8
OBJECT__167
10
0
20
0
30
0
70
128
71
8
72
9
73
4
0
VERTEX
8
OBJECT__167
10
0
20
0
30
0
70
128
71
10
72
11
73
5
0
VERTEX
8
OBJECT__167
10
0
20
0
30
0
70
128
71
4
72
7
73
8
0
VERTEX
8
OBJECT__167
10
0
20
0
30
0
70
128
71
12
72
13
73
14
0
VERTEX
8
OBJECT__167
10
0
20
0
30
0
70
128
71
15
72
16
73
17
0
VERTEX
8
OBJECT__167
10
0
20
0
30
0
70
128
71
11
72
10
73
16
0
VERTEX
8
OBJECT__167
10
0
20
0
30
0
70
128
71
3
72
6
73
1
0
VERTEX
8
OBJECT__167
10
0
20
0
30
0
70
128
71
17
72
14
73
15
0
VERTEX
8
OBJECT__167
10
0
20
0
30
0
70
128
71
6
72
10
73
5
0
VERTEX
8
OBJECT__167
10
0
20
0
30
0
70
128
71
16
72
15
73
11
0
VERTEX
8
OBJECT__167
10
0
20
0
30
0
70
128
71
18
72
19
73
9
0
VERTEX
8
OBJECT__167
10
0
20
0
30
0
70
128
71
20
72
21
73
22
0
VERTEX
8
OBJECT__167
10
0
20
0
30
0
70
128
71
9
72
8
73
18
0
VERTEX
8
OBJECT__167
10
0
20
0
30
0
70
128
71
19
72
18
73
20
0
VERTEX
8
OBJECT__167
10
0
20
0
30
0
70
128
71
21
72
23
73
24
0
VERTEX
8
OBJECT__167
10
0
20
0
30
0
70
128
71
23
72
25
73
26
0
VERTEX
8
OBJECT__167
10
0
20
0
30
0
70
128
71
22
72
19
73
20
0
VERTEX
8
OBJECT__167
10
0
20
0
30
0
70
128
71
26
72
24
73
23
0
VERTEX
8
OBJECT__167
10
0
20
0
30
0
70
128
71
24
72
22
73
21
0
VERTEX
8
OBJECT__167
10
0
20
0
30
0
70
128
71
14
72
17
73
12
0
SEQEND
8
OBJECT__167
0
POLYLINE
8
OBJECT__168
66
1
70
64
71
15
72
13
62
253
0
VERTEX
8
OBJECT__168
10
139.199997
20
-85.500000
30
291.674011
70
192
0
VERTEX
8
OBJECT__168
10
127.651001
20
-85.500000
30
293.399994
70
192
0
VERTEX
8
OBJECT__168
10
127.651001
20
-85.000000
30
292.899994
70
192
0
VERTEX
8
OBJECT__168
10
149.460007
20
-85.000000
30
286.233002
70
192
0
VERTEX
8
OBJECT__168
10
149.738998
20
-85.500000
30
286.647003
70
192
0
VERTEX
8
OBJECT__168
10
141.826996
20
-85.500000
30
290.420990
70
192
0
VERTEX
8
OBJECT__168
10
139.054001
20
-85.000000
30
291.196014
70
192
0
VERTEX
8
OBJECT__168
10
157.960007
20
-85.000000
30
278.444000
70
192
0
VERTEX
8
OBJECT__168
10
154.044006
20
-85.500000
30
282.703003
70
192
0
VERTEX
8
OBJECT__168
10
158.348007
20
-85.500000
30
278.757996
70
192
0
VERTEX
8
OBJECT__168
10
163.811005
20
-85.000000
30
268.510010
70
192
0
VERTEX
8
OBJECT__168
10
162.796997
20
-85.500000
30
271.205994
70
192
0
VERTEX
8
OBJECT__168
10
164.274994
20
-85.500000
30
268.696991
70
192
0
VERTEX
8
OBJECT__168
10
166.503006
20
-85.000000
30
257.299011
70
192
0
VERTEX
8
OBJECT__168
10
167.001007
20
-85.500000
30
257.342987
70
192
0
VERTEX
8
OBJECT__168
10
0
20
0
30
0
70
128
71
1
72
2
73
3
0
VERTEX
8
OBJECT__168
10
0
20
0
30
0
70
128
71
4
72
5
73
6
0
VERTEX
8
OBJECT__168
10
0
20
0
30
0
70
128
71
6
72
7
73
4
0
VERTEX
8
OBJECT__168
10
0
20
0
30
0
70
128
71
4
72
8
73
9
0
VERTEX
8
OBJECT__168
10
0
20
0
30
0
70
128
71
8
72
10
73
9
0
VERTEX
8
OBJECT__168
10
0
20
0
30
0
70
128
71
8
72
11
73
12
0
VERTEX
8
OBJECT__168
10
0
20
0
30
0
70
128
71
11
72
13
73
12
0
VERTEX
8
OBJECT__168
10
0
20
0
30
0
70
128
71
13
72
11
73
14
0
VERTEX
8
OBJECT__168
10
0
20
0
30
0
70
128
71
14
72
15
73
13
0
VERTEX
8
OBJECT__168
10
0
20
0
30
0
70
128
71
12
72
10
73
8
0
VERTEX
8
OBJECT__168
10
0
20
0
30
0
70
128
71
9
72
5
73
4
0
VERTEX
8
OBJECT__168
10
0
20
0
30
0
70
128
71
6
72
1
73
7
0
VERTEX
8
OBJECT__168
10
0
20
0
30
0
70
128
71
3
72
7
73
1
0
SEQEND
8
OBJECT__168
0
POLYLINE
8
OBJECT__169
66
1
70
64
71
10
72
8
62
253
0
VERTEX
8
OBJECT__169
10
166.973007
20
-85.000000
30
251.919998
70
192
0
VERTEX
8
OBJECT__169
10
166.973007
20
-115.000000
30
251.919998
70
192
0
VERTEX
8
OBJECT__169
10
167.470993
20
-114.500000
30
251.962997
70
192
0
VERTEX
8
OBJECT__169
10
153.026993
20
-115.000000
30
250.699997
70
192
0
VERTEX
8
OBJECT__169
10
153.026993
20
-85.000000
30
250.699997
70
192
0
VERTEX
8
OBJECT__169
10
152.529007
20
-85.500000
30
250.656006
70
192
0
VERTEX
8
OBJECT__169
10
167.470993
20
-85.500000
30
251.962997
70
192
0
VERTEX
8
OBJECT__169
10
152.529007
20
-114.500000
30
250.656006
70
192
0
VERTEX
8
OBJECT__169
10
152.673996
20
-85.146004
30
250.669006
70
192
0
VERTEX
8
OBJECT__169
10
152.673996
20
-114.853996
30
250.669006
70
192
0
VERTEX
8
OBJECT__169
10
0
20
0
30
0
70
128
71
1
72
2
73
3
0
VERTEX
8
OBJECT__169
10
0
20
0
30
0
70
128
71
4
72
5
73
6
0
VERTEX
8
OBJECT__169
10
0
20
0
30
0
70
128
71
3
72
7
73
1
0
VERTEX
8
OBJECT__169
10
0
20
0
30
0
70
128
71
6
72
8
73
4
0
VERTEX
8
OBJECT__169
10
0
20
0
30
0
70
128
71
5
72
4
73
2
0
VERTEX
8
OBJECT__169
10
0
20
0
30
0
70
128
71
5
72
9
73
6
0
VERTEX
8
OBJECT__169
10
0
20
0
30
0
70
128
71
8
72
10
73
4
0
VERTEX
8
OBJECT__169
10
0
20
0
30
0
70
128
71
1
72
5
73
2
0
SEQEND
8
OBJECT__169
0
POLYLINE
8
OBJECT__170
66
1
70
64
71
18
72
16
62
253
0
VERTEX
8
OBJECT__170
10
162.796997
20
-85.500000
30
271.205994
70
192
0
VERTEX
8
OBJECT__170
10
164.274994
20
-85.500000
30
268.696991
70
192
0
VERTEX
8
OBJECT__170
10
164.274994
20
-114.500000
30
268.696991
70
192
0
VERTEX
8
OBJECT__170
10
167.001007
20
-114.500000
30
257.342987
70
192
0
VERTEX
8
OBJECT__170
10
167.001007
20
-85.500000
30
257.342987
70
192
0
VERTEX
8
OBJECT__170
10
154.044006
20
-85.500000
30
282.703003
70
192
0
VERTEX
8
OBJECT__170
10
158.348007
20
-85.500000
30
278.757996
70
192
0
VERTEX
8
OBJECT__170
10
158.348007
20
-114.500000
30
278.757996
70
192
0
VERTEX
8
OBJECT__170
10
162.796997
20
-114.500000
30
271.205994
70
192
0
VERTEX
8
OBJECT__170
10
141.826996
20
-85.500000
30
290.420990
70
192
0
VERTEX
8
OBJECT__170
10
149.738998
20
-85.500000
30
286.647003
70
192
0
VERTEX
8
OBJECT__170
10
149.738998
20
-114.500000
30
286.647003
70
192
0
VERTEX
8
OBJECT__170
10
154.044006
20
-114.500000
30
282.703003
70
192
0
VERTEX
8
OBJECT__170
10
127.651001
20
-85.500000
30
293.399994
70
192
0
VERTEX
8
OBJECT__170
10
139.199997
20
-85.500000
30
291.674011
70
192
0
VERTEX
8
OBJECT__170
10
139.199997
20
-114.500000
30
291.674011
70
192
0
VERTEX
8
OBJECT__170
10
141.826996
20
-114.500000
30
290.420990
70
192
0
VERTEX
8
OBJECT__170
10
127.651001
20
-114.500000
30
293.399994
70
192
0
VERTEX
8
OBJECT__170
10
0
20
0
30
0
70
128
71
1
72
2
73
3
0
VERTEX
8
OBJECT__170
10
0
20
0
30
0
70
128
71
4
72
3
73
2
0
VERTEX
8
OBJECT__170
10
0
20
0
30
0
70
128
71
2
72
5
73
4
0
VERTEX
8
OBJECT__170
10
0
20
0
30
0
70
128
71
6
72
7
73
8
0
VERTEX
8
OBJECT__170
10
0
20
0
30
0
70
128
71
9
72
8
73
7
0
VERTEX
8
OBJECT__170
10
0
20
0
30
0
70
128
71
7
72
1
73
9
0
VERTEX
8
OBJECT__170
10
0
20
0
30
0
70
128
71
10
72
11
73
12
0
VERTEX
8
OBJECT__170
10
0
20
0
30
0
70
128
71
13
72
12
73
11
0
VERTEX
8
OBJECT__170
10
0
20
0
30
0
70
128
71
11
72
6
73
13
0
VERTEX
8
OBJECT__170
10
0
20
0
30
0
70
128
71
14
72
15
73
16
0
VERTEX
8
OBJECT__170
10
0
20
0
30
0
70
128
71
17
72
16
73
15
0
VERTEX
8
OBJECT__170
10
0
20
0
30
0
70
128
71
15
72
10
73
17
0
VERTEX
8
OBJECT__170
10
0
20
0
30
0
70
128
71
16
72
18
73
14
0
VERTEX
8
OBJECT__170
10
0
20
0
30
0
70
128
71
12
72
17
73
10
0
VERTEX
8
OBJECT__170
10
0
20
0
30
0
70
128
71
8
72
13
73
6
0
VERTEX
8
OBJECT__170
10
0
20
0
30
0
70
128
71
3
72
9
73
1
0
SEQEND
8
OBJECT__170
0
POLYLINE
8
OBJECT__171
66
1
70
64
71
4
72
2
62
253
0
VERTEX
8
OBJECT__171
10
166.973007
20
-115.000000
30
251.919998
70
192
0
VERTEX
8
OBJECT__171
10
166.503006
20
-115.000000
30
257.299011
70
192
0
VERTEX
8
OBJECT__171
10
167.001007
20
-114.500000
30
257.342987
70
192
0
VERTEX
8
OBJECT__171
10
167.470993
20
-114.500000
30
251.962997
70
192
0
VERTEX
8
OBJECT__171
10
0
20
0
30
0
70
128
71
1
72
2
73
3
0
VERTEX
8
OBJECT__171
10
0
20
0
30
0
70
128
71
3
72
4
73
1
0
SEQEND
8
OBJECT__171
0
POLYLINE
8
OBJECT__172
66
1
70
64
71
4
72
2
62
253
0
VERTEX
8
OBJECT__172
10
167.470993
20
-114.500000
30
251.962997
70
192
0
VERTEX
8
OBJECT__172
10
167.001007
20
-114.500000
30
257.342987
70
192
0
VERTEX
8
OBJECT__172
10
167.001007
20
-85.500000
30
257.342987
70
192
0
VERTEX
8
OBJECT__172
10
167.470993
20
-85.500000
30
251.962997
70
192
0
VERTEX
8
OBJECT__172
10
0
20
0
30
0
70
128
71
1
72
2
73
3
0
VERTEX
8
OBJECT__172
10
0
20
0
30
0
70
128
71
3
72
4
73
1
0
SEQEND
8
OBJECT__172
0
POLYLINE
8
OBJECT__173
66
1
70
64
71
4
72
2
62
253
0
VERTEX
8
OBJECT__173
10
166.973007
20
-85.000000
30
251.919998
70
192
0
VERTEX
8
OBJECT__173
10
167.470993
20
-85.500000
30
251.962997
70
192
0
VERTEX
8
OBJECT__173
10
167.001007
20
-85.500000
30
257.342987
70
192
0
VERTEX
8
OBJECT__173
10
166.503006
20
-85.000000
30
257.299011
70
192
0
VERTEX
8
OBJECT__173
10
0
20
0
30
0
70
128
71
1
72
2
73
3
0
VERTEX
8
OBJECT__173
10
0
20
0
30
0
70
128
71
3
72
4
73
1
0
SEQEND
8
OBJECT__173
0
ENDSEC
0
EOF
