999
Converted by 3D Exploration 
999
XDimension Software, LLC
999
http://www.xdsoft.com/explorer/
0
SECTION
2
HEADER
9
$ACADVER
1
AC1008
9
$UCSORG
10
0.0
20
0.0
30
0.0
9
$UCSXDIR
10
1.0
20
0.0
30
0.0
9
$TILEMODE
70
1
9
$UCSYDIR
10
0.0
20
1.0
30
0.0
9
$EXTMIN
10
53.000000
20
-145.000000
30
-145.000000
9
$EXTMAX
10
279.674988
20
35.000000
30
35.000000
0
ENDSEC
0
SECTION
2
TABLES
0
TABLE
2
LTYPE
70
1
0
LTYPE
2
CONTINUOUS
70
64
3
Solid line
72
65
73
0
40
0.0
0
ENDTAB
0
TABLE
2
LAYER
70
43
0
LAYER
2
OBJECT__0
70
0
62
253
6
CONTINUOUS
0
LAYER
2
OBJECT__1
70
0
62
253
6
CONTINUOUS
0
LAYER
2
OBJECT__3
70
0
62
253
6
CONTINUOUS
0
LAYER
2
OBJECT__4
70
0
62
253
6
CONTINUOUS
0
LAYER
2
OBJECT__6
70
0
62
253
6
CONTINUOUS
0
LAYER
2
OBJECT__7
70
0
62
253
6
CONTINUOUS
0
LAYER
2
OBJECT__8
70
0
62
253
6
CONTINUOUS
0
LAYER
2
OBJECT__9
70
0
62
253
6
CONTINUOUS
0
LAYER
2
OBJECT__10
70
0
62
253
6
CONTINUOUS
0
LAYER
2
OBJECT__11
70
0
62
253
6
CONTINUOUS
0
LAYER
2
OBJECT__13
70
0
62
253
6
CONTINUOUS
0
LAYER
2
OBJECT__14
70
0
62
253
6
CONTINUOUS
0
LAYER
2
OBJECT__15
70
0
62
253
6
CONTINUOUS
0
LAYER
2
OBJECT__16
70
0
62
253
6
CONTINUOUS
0
LAYER
2
OBJECT__17
70
0
62
253
6
CONTINUOUS
0
LAYER
2
OBJECT__18
70
0
62
253
6
CONTINUOUS
0
LAYER
2
OBJECT__20
70
0
62
253
6
CONTINUOUS
0
LAYER
2
OBJECT__21
70
0
62
253
6
CONTINUOUS
0
LAYER
2
OBJECT__23
70
0
62
253
6
CONTINUOUS
0
LAYER
2
OBJECT__24
70
0
62
253
6
CONTINUOUS
0
LAYER
2
OBJECT__26
70
0
62
253
6
CONTINUOUS
0
LAYER
2
OBJECT__27
70
0
62
253
6
CONTINUOUS
0
LAYER
2
OBJECT__28
70
0
62
253
6
CONTINUOUS
0
LAYER
2
OBJECT__29
70
0
62
253
6
CONTINUOUS
0
LAYER
2
OBJECT__30
70
0
62
253
6
CONTINUOUS
0
LAYER
2
OBJECT__31
70
0
62
253
6
CONTINUOUS
0
LAYER
2
OBJECT__32
70
0
62
253
6
CONTINUOUS
0
LAYER
2
OBJECT__33
70
0
62
253
6
CONTINUOUS
0
LAYER
2
OBJECT__34
70
0
62
253
6
CONTINUOUS
0
LAYER
2
OBJECT__36
70
0
62
253
6
CONTINUOUS
0
LAYER
2
OBJECT__37
70
0
62
253
6
CONTINUOUS
0
LAYER
2
OBJECT__38
70
0
62
253
6
CONTINUOUS
0
LAYER
2
OBJECT__39
70
0
62
253
6
CONTINUOUS
0
LAYER
2
OBJECT__40
70
0
62
253
6
CONTINUOUS
0
LAYER
2
OBJECT__41
70
0
62
253
6
CONTINUOUS
0
LAYER
2
OBJECT__42
70
0
62
253
6
CONTINUOUS
0
ENDTAB
0
TABLE
2
STYLE
70
1
0
STYLE
2
STANDARD
70
0
40
0.0
41
1.0
50
0.0
71
0
42
0.2
3
txt
4
1
0
ENDTAB
0
TABLE
2
UCS
70
0
0
ENDTAB
0
ENDSEC
0
SECTION
2
ENTITIES
0
POLYLINE
8
OBJECT__0
66
1
70
64
71
8
72
6
62
253
0
VERTEX
8
OBJECT__0
10
67.400002
20
-120.330002
30
2.500000
70
192
0
VERTEX
8
OBJECT__0
10
53.000000
20
-120.330002
30
2.500000
70
192
0
VERTEX
8
OBJECT__0
10
53.000000
20
-116.000000
30
5.000000
70
192
0
VERTEX
8
OBJECT__0
10
67.400002
20
-120.330002
30
-2.500000
70
192
0
VERTEX
8
OBJECT__0
10
53.000000
20
-120.330002
30
-2.500000
70
192
0
VERTEX
8
OBJECT__0
10
67.400002
20
-116.000000
30
-5.000000
70
192
0
VERTEX
8
OBJECT__0
10
53.000000
20
-116.000000
30
-5.000000
70
192
0
VERTEX
8
OBJECT__0
10
67.400002
20
-116.000000
30
5.000000
70
192
0
VERTEX
8
OBJECT__0
10
0
20
0
30
0
70
128
71
1
72
2
73
3
0
VERTEX
8
OBJECT__0
10
0
20
0
30
0
70
128
71
4
72
5
73
2
0
VERTEX
8
OBJECT__0
10
0
20
0
30
0
70
128
71
6
72
7
73
5
0
VERTEX
8
OBJECT__0
10
0
20
0
30
0
70
128
71
5
72
4
73
6
0
VERTEX
8
OBJECT__0
10
0
20
0
30
0
70
128
71
2
72
1
73
4
0
VERTEX
8
OBJECT__0
10
0
20
0
30
0
70
128
71
3
72
8
73
1
0
SEQEND
8
OBJECT__0
0
POLYLINE
8
OBJECT__1
66
1
70
64
71
18
72
18
62
253
0
VERTEX
8
OBJECT__1
10
53.000000
20
-98.916000
30
-8.053000
70
192
0
VERTEX
8
OBJECT__1
10
53.000000
20
-105.765999
30
-13.029000
70
192
0
VERTEX
8
OBJECT__1
10
53.000000
20
-104.000000
30
-5.000000
70
192
0
VERTEX
8
OBJECT__1
10
53.000000
20
-114.234001
30
-13.029000
70
192
0
VERTEX
8
OBJECT__1
10
53.000000
20
-116.000000
30
-5.000000
70
192
0
VERTEX
8
OBJECT__1
10
53.000000
20
-121.084000
30
-8.053000
70
192
0
VERTEX
8
OBJECT__1
10
53.000000
20
-120.330002
30
-2.500000
70
192
0
VERTEX
8
OBJECT__1
10
53.000000
20
-123.699997
30
0.000000
70
192
0
VERTEX
8
OBJECT__1
10
53.000000
20
-120.330002
30
2.500000
70
192
0
VERTEX
8
OBJECT__1
10
53.000000
20
-116.000000
30
5.000000
70
192
0
VERTEX
8
OBJECT__1
10
53.000000
20
-114.234001
30
13.029000
70
192
0
VERTEX
8
OBJECT__1
10
53.000000
20
-105.765999
30
13.029000
70
192
0
VERTEX
8
OBJECT__1
10
53.000000
20
-98.916000
30
8.053000
70
192
0
VERTEX
8
OBJECT__1
10
53.000000
20
-99.669998
30
2.500000
70
192
0
VERTEX
8
OBJECT__1
10
53.000000
20
-104.000000
30
5.000000
70
192
0
VERTEX
8
OBJECT__1
10
53.000000
20
-96.300003
30
0.000000
70
192
0
VERTEX
8
OBJECT__1
10
53.000000
20
-99.669998
30
-2.500000
70
192
0
VERTEX
8
OBJECT__1
10
53.000000
20
-121.084000
30
8.053000
70
192
0
VERTEX
8
OBJECT__1
10
0
20
0
30
0
70
128
71
1
72
2
73
3
0
VERTEX
8
OBJECT__1
10
0
20
0
30
0
70
128
71
3
72
2
73
4
0
VERTEX
8
OBJECT__1
10
0
20
0
30
0
70
128
71
4
72
5
73
3
0
VERTEX
8
OBJECT__1
10
0
20
0
30
0
70
128
71
6
72
7
73
5
0
VERTEX
8
OBJECT__1
10
0
20
0
30
0
70
128
71
8
72
9
73
7
0
VERTEX
8
OBJECT__1
10
0
20
0
30
0
70
128
71
10
72
11
73
12
0
VERTEX
8
OBJECT__1
10
0
20
0
30
0
70
128
71
13
72
14
73
15
0
VERTEX
8
OBJECT__1
10
0
20
0
30
0
70
128
71
16
72
17
73
14
0
VERTEX
8
OBJECT__1
10
0
20
0
30
0
70
128
71
5
72
4
73
6
0
VERTEX
8
OBJECT__1
10
0
20
0
30
0
70
128
71
8
72
18
73
9
0
VERTEX
8
OBJECT__1
10
0
20
0
30
0
70
128
71
15
72
12
73
13
0
VERTEX
8
OBJECT__1
10
0
20
0
30
0
70
128
71
16
72
1
73
17
0
VERTEX
8
OBJECT__1
10
0
20
0
30
0
70
128
71
7
72
6
73
8
0
VERTEX
8
OBJECT__1
10
0
20
0
30
0
70
128
71
18
72
11
73
10
0
VERTEX
8
OBJECT__1
10
0
20
0
30
0
70
128
71
14
72
13
73
16
0
VERTEX
8
OBJECT__1
10
0
20
0
30
0
70
128
71
10
72
9
73
18
0
VERTEX
8
OBJECT__1
10
0
20
0
30
0
70
128
71
3
72
17
73
1
0
VERTEX
8
OBJECT__1
10
0
20
0
30
0
70
128
71
12
72
15
73
10
0
SEQEND
8
OBJECT__1
0
POLYLINE
8
OBJECT__3
66
1
70
64
71
76
72
114
62
253
0
VERTEX
8
OBJECT__3
10
99.978996
20
-18.100000
30
6.214000
70
192
0
VERTEX
8
OBJECT__3
10
99.978996
20
-19.136999
30
0.000000
70
192
0
VERTEX
8
OBJECT__3
10
103.892998
20
-15.000000
30
0.000000
70
192
0
VERTEX
8
OBJECT__3
10
99.978996
20
-15.102000
30
11.754000
70
192
0
VERTEX
8
OBJECT__3
10
103.892998
20
-14.187000
30
4.870000
70
192
0
VERTEX
8
OBJECT__3
10
99.978996
20
-10.467000
30
16.021000
70
192
0
VERTEX
8
OBJECT__3
10
103.892998
20
-11.837000
30
9.213000
70
192
0
VERTEX
8
OBJECT__3
10
99.978996
20
-4.698000
30
18.552000
70
192
0
VERTEX
8
OBJECT__3
10
103.892998
20
-8.204000
30
12.557000
70
192
0
VERTEX
8
OBJECT__3
10
99.978996
20
1.580000
30
19.072001
70
192
0
VERTEX
8
OBJECT__3
10
103.892998
20
-3.682000
30
14.541000
70
192
0
VERTEX
8
OBJECT__3
10
99.978996
20
7.687000
30
17.525999
70
192
0
VERTEX
8
OBJECT__3
10
103.892998
20
1.239000
30
14.949000
70
192
0
VERTEX
8
OBJECT__3
10
103.892998
20
6.025000
30
13.737000
70
192
0
VERTEX
8
OBJECT__3
10
103.892998
20
10.159000
30
11.036000
70
192
0
VERTEX
8
OBJECT__3
10
99.978996
20
16.830999
30
9.108000
70
192
0
VERTEX
8
OBJECT__3
10
99.978996
20
12.961000
30
14.080000
70
192
0
VERTEX
8
OBJECT__3
10
99.978996
20
18.875999
30
3.150000
70
192
0
VERTEX
8
OBJECT__3
10
103.892998
20
13.192000
30
7.139000
70
192
0
VERTEX
8
OBJECT__3
10
99.978996
20
18.875999
30
-3.150000
70
192
0
VERTEX
8
OBJECT__3
10
103.892998
20
14.795000
30
2.469000
70
192
0
VERTEX
8
OBJECT__3
10
99.978996
20
16.830999
30
-9.108000
70
192
0
VERTEX
8
OBJECT__3
10
103.892998
20
14.795000
30
-2.469000
70
192
0
VERTEX
8
OBJECT__3
10
103.892998
20
13.192000
30
-7.139000
70
192
0
VERTEX
8
OBJECT__3
10
103.892998
20
10.159000
30
-11.036000
70
192
0
VERTEX
8
OBJECT__3
10
99.978996
20
7.687000
30
-17.525999
70
192
0
VERTEX
8
OBJECT__3
10
99.978996
20
12.961000
30
-14.080000
70
192
0
VERTEX
8
OBJECT__3
10
99.978996
20
1.580000
30
-19.072001
70
192
0
VERTEX
8
OBJECT__3
10
103.892998
20
6.025000
30
-13.737000
70
192
0
VERTEX
8
OBJECT__3
10
99.978996
20
-4.698000
30
-18.552000
70
192
0
VERTEX
8
OBJECT__3
10
103.892998
20
1.239000
30
-14.949000
70
192
0
VERTEX
8
OBJECT__3
10
99.978996
20
-10.467000
30
-16.021000
70
192
0
VERTEX
8
OBJECT__3
10
103.892998
20
-3.682000
30
-14.541000
70
192
0
VERTEX
8
OBJECT__3
10
99.978996
20
-15.102000
30
-11.754000
70
192
0
VERTEX
8
OBJECT__3
10
103.892998
20
-8.204000
30
-12.557000
70
192
0
VERTEX
8
OBJECT__3
10
99.978996
20
-18.100000
30
-6.214000
70
192
0
VERTEX
8
OBJECT__3
10
103.892998
20
-11.837000
30
-9.213000
70
192
0
VERTEX
8
OBJECT__3
10
103.892998
20
-14.187000
30
-4.870000
70
192
0
VERTEX
8
OBJECT__3
10
95.230003
20
-21.073999
30
7.235000
70
192
0
VERTEX
8
OBJECT__3
10
95.230003
20
-17.583000
30
13.686000
70
192
0
VERTEX
8
OBJECT__3
10
95.230003
20
-12.187000
30
18.653000
70
192
0
VERTEX
8
OBJECT__3
10
95.230003
20
-5.470000
30
21.600000
70
192
0
VERTEX
8
OBJECT__3
10
95.230003
20
1.840000
30
22.205000
70
192
0
VERTEX
8
OBJECT__3
10
95.230003
20
8.950000
30
20.405001
70
192
0
VERTEX
8
OBJECT__3
10
95.230003
20
15.091000
30
16.393000
70
192
0
VERTEX
8
OBJECT__3
10
95.230003
20
19.596001
30
10.605000
70
192
0
VERTEX
8
OBJECT__3
10
95.230003
20
21.978001
30
3.667000
70
192
0
VERTEX
8
OBJECT__3
10
95.230003
20
21.978001
30
-3.667000
70
192
0
VERTEX
8
OBJECT__3
10
95.230003
20
19.596001
30
-10.605000
70
192
0
VERTEX
8
OBJECT__3
10
95.230003
20
15.091000
30
-16.393000
70
192
0
VERTEX
8
OBJECT__3
10
95.230003
20
8.950000
30
-20.405001
70
192
0
VERTEX
8
OBJECT__3
10
95.230003
20
1.840000
30
-22.205000
70
192
0
VERTEX
8
OBJECT__3
10
95.230003
20
-5.470000
30
-21.600000
70
192
0
VERTEX
8
OBJECT__3
10
95.230003
20
-12.187000
30
-18.653000
70
192
0
VERTEX
8
OBJECT__3
10
95.230003
20
-17.583000
30
-13.686000
70
192
0
VERTEX
8
OBJECT__3
10
95.230003
20
-21.073999
30
-7.235000
70
192
0
VERTEX
8
OBJECT__3
10
95.230003
20
-22.282000
30
0.000000
70
192
0
VERTEX
8
OBJECT__3
10
89.892998
20
-22.954000
30
7.880000
70
192
0
VERTEX
8
OBJECT__3
10
89.892998
20
-24.268999
30
0.000000
70
192
0
VERTEX
8
OBJECT__3
10
89.892998
20
-19.152000
30
14.907000
70
192
0
VERTEX
8
OBJECT__3
10
89.892998
20
-5.958000
30
23.527000
70
192
0
VERTEX
8
OBJECT__3
10
89.892998
20
-13.274000
30
20.316999
70
192
0
VERTEX
8
OBJECT__3
10
89.892998
20
9.749000
30
22.225000
70
192
0
VERTEX
8
OBJECT__3
10
89.892998
20
2.004000
30
24.186001
70
192
0
VERTEX
8
OBJECT__3
10
89.892998
20
16.437000
30
17.856001
70
192
0
VERTEX
8
OBJECT__3
10
89.892998
20
21.344000
30
11.551000
70
192
0
VERTEX
8
OBJECT__3
10
89.892998
20
23.938000
30
3.995000
70
192
0
VERTEX
8
OBJECT__3
10
89.892998
20
23.938000
30
-3.995000
70
192
0
VERTEX
8
OBJECT__3
10
89.892998
20
21.344000
30
-11.551000
70
192
0
VERTEX
8
OBJECT__3
10
89.892998
20
16.437000
30
-17.856001
70
192
0
VERTEX
8
OBJECT__3
10
89.892998
20
9.749000
30
-22.225000
70
192
0
VERTEX
8
OBJECT__3
10
89.892998
20
2.004000
30
-24.186001
70
192
0
VERTEX
8
OBJECT__3
10
89.892998
20
-5.958000
30
-23.527000
70
192
0
VERTEX
8
OBJECT__3
10
89.892998
20
-13.274000
30
-20.316999
70
192
0
VERTEX
8
OBJECT__3
10
89.892998
20
-19.152000
30
-14.907000
70
192
0
VERTEX
8
OBJECT__3
10
89.892998
20
-22.954000
30
-7.880000
70
192
0
VERTEX
8
OBJECT__3
10
0
20
0
30
0
70
128
71
1
72
2
73
3
0
VERTEX
8
OBJECT__3
10
0
20
0
30
0
70
128
71
4
72
1
73
5
0
VERTEX
8
OBJECT__3
10
0
20
0
30
0
70
128
71
6
72
4
73
7
0
VERTEX
8
OBJECT__3
10
0
20
0
30
0
70
128
71
8
72
6
73
9
0
VERTEX
8
OBJECT__3
10
0
20
0
30
0
70
128
71
10
72
8
73
11
0
VERTEX
8
OBJECT__3
10
0
20
0
30
0
70
128
71
12
72
10
73
13
0
VERTEX
8
OBJECT__3
10
0
20
0
30
0
70
128
71
12
72
14
73
15
0
VERTEX
8
OBJECT__3
10
0
20
0
30
0
70
128
71
16
72
17
73
15
0
VERTEX
8
OBJECT__3
10
0
20
0
30
0
70
128
71
18
72
16
73
19
0
VERTEX
8
OBJECT__3
10
0
20
0
30
0
70
128
71
20
72
18
73
21
0
VERTEX
8
OBJECT__3
10
0
20
0
30
0
70
128
71
22
72
20
73
23
0
VERTEX
8
OBJECT__3
10
0
20
0
30
0
70
128
71
22
72
24
73
25
0
VERTEX
8
OBJECT__3
10
0
20
0
30
0
70
128
71
26
72
27
73
25
0
VERTEX
8
OBJECT__3
10
0
20
0
30
0
70
128
71
28
72
26
73
29
0
VERTEX
8
OBJECT__3
10
0
20
0
30
0
70
128
71
30
72
28
73
31
0
VERTEX
8
OBJECT__3
10
0
20
0
30
0
70
128
71
32
72
30
73
33
0
VERTEX
8
OBJECT__3
10
0
20
0
30
0
70
128
71
34
72
32
73
35
0
VERTEX
8
OBJECT__3
10
0
20
0
30
0
70
128
71
36
72
34
73
37
0
VERTEX
8
OBJECT__3
10
0
20
0
30
0
70
128
71
36
72
38
73
3
0
VERTEX
8
OBJECT__3
10
0
20
0
30
0
70
128
71
2
72
1
73
39
0
VERTEX
8
OBJECT__3
10
0
20
0
30
0
70
128
71
1
72
4
73
40
0
VERTEX
8
OBJECT__3
10
0
20
0
30
0
70
128
71
4
72
6
73
41
0
VERTEX
8
OBJECT__3
10
0
20
0
30
0
70
128
71
6
72
8
73
42
0
VERTEX
8
OBJECT__3
10
0
20
0
30
0
70
128
71
8
72
10
73
43
0
VERTEX
8
OBJECT__3
10
0
20
0
30
0
70
128
71
10
72
12
73
44
0
VERTEX
8
OBJECT__3
10
0
20
0
30
0
70
128
71
12
72
17
73
45
0
VERTEX
8
OBJECT__3
10
0
20
0
30
0
70
128
71
17
72
16
73
46
0
VERTEX
8
OBJECT__3
10
0
20
0
30
0
70
128
71
16
72
18
73
47
0
VERTEX
8
OBJECT__3
10
0
20
0
30
0
70
128
71
18
72
20
73
48
0
VERTEX
8
OBJECT__3
10
0
20
0
30
0
70
128
71
20
72
22
73
49
0
VERTEX
8
OBJECT__3
10
0
20
0
30
0
70
128
71
22
72
27
73
50
0
VERTEX
8
OBJECT__3
10
0
20
0
30
0
70
128
71
27
72
26
73
51
0
VERTEX
8
OBJECT__3
10
0
20
0
30
0
70
128
71
26
72
28
73
52
0
VERTEX
8
OBJECT__3
10
0
20
0
30
0
70
128
71
28
72
30
73
53
0
VERTEX
8
OBJECT__3
10
0
20
0
30
0
70
128
71
30
72
32
73
54
0
VERTEX
8
OBJECT__3
10
0
20
0
30
0
70
128
71
32
72
34
73
55
0
VERTEX
8
OBJECT__3
10
0
20
0
30
0
70
128
71
34
72
36
73
56
0
VERTEX
8
OBJECT__3
10
0
20
0
30
0
70
128
71
36
72
2
73
57
0
VERTEX
8
OBJECT__3
10
0
20
0
30
0
70
128
71
58
72
59
73
57
0
VERTEX
8
OBJECT__3
10
0
20
0
30
0
70
128
71
58
72
39
73
40
0
VERTEX
8
OBJECT__3
10
0
20
0
30
0
70
128
71
60
72
40
73
41
0
VERTEX
8
OBJECT__3
10
0
20
0
30
0
70
128
71
61
72
62
73
41
0
VERTEX
8
OBJECT__3
10
0
20
0
30
0
70
128
71
61
72
42
73
43
0
VERTEX
8
OBJECT__3
10
0
20
0
30
0
70
128
71
63
72
64
73
43
0
VERTEX
8
OBJECT__3
10
0
20
0
30
0
70
128
71
65
72
63
73
44
0
VERTEX
8
OBJECT__3
10
0
20
0
30
0
70
128
71
66
72
65
73
45
0
VERTEX
8
OBJECT__3
10
0
20
0
30
0
70
128
71
67
72
66
73
46
0
VERTEX
8
OBJECT__3
10
0
20
0
30
0
70
128
71
68
72
67
73
47
0
VERTEX
8
OBJECT__3
10
0
20
0
30
0
70
128
71
69
72
68
73
48
0
VERTEX
8
OBJECT__3
10
0
20
0
30
0
70
128
71
70
72
69
73
49
0
VERTEX
8
OBJECT__3
10
0
20
0
30
0
70
128
71
71
72
70
73
50
0
VERTEX
8
OBJECT__3
10
0
20
0
30
0
70
128
71
72
72
71
73
51
0
VERTEX
8
OBJECT__3
10
0
20
0
30
0
70
128
71
73
72
72
73
52
0
VERTEX
8
OBJECT__3
10
0
20
0
30
0
70
128
71
74
72
73
73
53
0
VERTEX
8
OBJECT__3
10
0
20
0
30
0
70
128
71
75
72
74
73
54
0
VERTEX
8
OBJECT__3
10
0
20
0
30
0
70
128
71
76
72
75
73
55
0
VERTEX
8
OBJECT__3
10
0
20
0
30
0
70
128
71
76
72
56
73
57
0
VERTEX
8
OBJECT__3
10
0
20
0
30
0
70
128
71
57
72
59
73
76
0
VERTEX
8
OBJECT__3
10
0
20
0
30
0
70
128
71
55
72
56
73
76
0
VERTEX
8
OBJECT__3
10
0
20
0
30
0
70
128
71
54
72
55
73
75
0
VERTEX
8
OBJECT__3
10
0
20
0
30
0
70
128
71
53
72
54
73
74
0
VERTEX
8
OBJECT__3
10
0
20
0
30
0
70
128
71
52
72
53
73
73
0
VERTEX
8
OBJECT__3
10
0
20
0
30
0
70
128
71
51
72
52
73
72
0
VERTEX
8
OBJECT__3
10
0
20
0
30
0
70
128
71
50
72
51
73
71
0
VERTEX
8
OBJECT__3
10
0
20
0
30
0
70
128
71
49
72
50
73
70
0
VERTEX
8
OBJECT__3
10
0
20
0
30
0
70
128
71
48
72
49
73
69
0
VERTEX
8
OBJECT__3
10
0
20
0
30
0
70
128
71
47
72
48
73
68
0
VERTEX
8
OBJECT__3
10
0
20
0
30
0
70
128
71
46
72
47
73
67
0
VERTEX
8
OBJECT__3
10
0
20
0
30
0
70
128
71
45
72
46
73
66
0
VERTEX
8
OBJECT__3
10
0
20
0
30
0
70
128
71
44
72
45
73
65
0
VERTEX
8
OBJECT__3
10
0
20
0
30
0
70
128
71
43
72
44
73
63
0
VERTEX
8
OBJECT__3
10
0
20
0
30
0
70
128
71
43
72
64
73
61
0
VERTEX
8
OBJECT__3
10
0
20
0
30
0
70
128
71
41
72
42
73
61
0
VERTEX
8
OBJECT__3
10
0
20
0
30
0
70
128
71
41
72
62
73
60
0
VERTEX
8
OBJECT__3
10
0
20
0
30
0
70
128
71
40
72
60
73
58
0
VERTEX
8
OBJECT__3
10
0
20
0
30
0
70
128
71
57
72
39
73
58
0
VERTEX
8
OBJECT__3
10
0
20
0
30
0
70
128
71
57
72
56
73
36
0
VERTEX
8
OBJECT__3
10
0
20
0
30
0
70
128
71
56
72
55
73
34
0
VERTEX
8
OBJECT__3
10
0
20
0
30
0
70
128
71
55
72
54
73
32
0
VERTEX
8
OBJECT__3
10
0
20
0
30
0
70
128
71
54
72
53
73
30
0
VERTEX
8
OBJECT__3
10
0
20
0
30
0
70
128
71
53
72
52
73
28
0
VERTEX
8
OBJECT__3
10
0
20
0
30
0
70
128
71
52
72
51
73
26
0
VERTEX
8
OBJECT__3
10
0
20
0
30
0
70
128
71
51
72
50
73
27
0
VERTEX
8
OBJECT__3
10
0
20
0
30
0
70
128
71
50
72
49
73
22
0
VERTEX
8
OBJECT__3
10
0
20
0
30
0
70
128
71
49
72
48
73
20
0
VERTEX
8
OBJECT__3
10
0
20
0
30
0
70
128
71
48
72
47
73
18
0
VERTEX
8
OBJECT__3
10
0
20
0
30
0
70
128
71
47
72
46
73
16
0
VERTEX
8
OBJECT__3
10
0
20
0
30
0
70
128
71
46
72
45
73
17
0
VERTEX
8
OBJECT__3
10
0
20
0
30
0
70
128
71
45
72
44
73
12
0
VERTEX
8
OBJECT__3
10
0
20
0
30
0
70
128
71
44
72
43
73
10
0
VERTEX
8
OBJECT__3
10
0
20
0
30
0
70
128
71
43
72
42
73
8
0
VERTEX
8
OBJECT__3
10
0
20
0
30
0
70
128
71
42
72
41
73
6
0
VERTEX
8
OBJECT__3
10
0
20
0
30
0
70
128
71
41
72
40
73
4
0
VERTEX
8
OBJECT__3
10
0
20
0
30
0
70
128
71
40
72
39
73
1
0
VERTEX
8
OBJECT__3
10
0
20
0
30
0
70
128
71
39
72
57
73
2
0
VERTEX
8
OBJECT__3
10
0
20
0
30
0
70
128
71
3
72
2
73
36
0
VERTEX
8
OBJECT__3
10
0
20
0
30
0
70
128
71
37
72
38
73
36
0
VERTEX
8
OBJECT__3
10
0
20
0
30
0
70
128
71
35
72
37
73
34
0
VERTEX
8
OBJECT__3
10
0
20
0
30
0
70
128
71
33
72
35
73
32
0
VERTEX
8
OBJECT__3
10
0
20
0
30
0
70
128
71
31
72
33
73
30
0
VERTEX
8
OBJECT__3
10
0
20
0
30
0
70
128
71
29
72
31
73
28
0
VERTEX
8
OBJECT__3
10
0
20
0
30
0
70
128
71
25
72
29
73
26
0
VERTEX
8
OBJECT__3
10
0
20
0
30
0
70
128
71
25
72
27
73
22
0
VERTEX
8
OBJECT__3
10
0
20
0
30
0
70
128
71
23
72
24
73
22
0
VERTEX
8
OBJECT__3
10
0
20
0
30
0
70
128
71
21
72
23
73
20
0
VERTEX
8
OBJECT__3
10
0
20
0
30
0
70
128
71
19
72
21
73
18
0
VERTEX
8
OBJECT__3
10
0
20
0
30
0
70
128
71
15
72
19
73
16
0
VERTEX
8
OBJECT__3
10
0
20
0
30
0
70
128
71
15
72
17
73
12
0
VERTEX
8
OBJECT__3
10
0
20
0
30
0
70
128
71
13
72
14
73
12
0
VERTEX
8
OBJECT__3
10
0
20
0
30
0
70
128
71
11
72
13
73
10
0
VERTEX
8
OBJECT__3
10
0
20
0
30
0
70
128
71
9
72
11
73
8
0
VERTEX
8
OBJECT__3
10
0
20
0
30
0
70
128
71
7
72
9
73
6
0
VERTEX
8
OBJECT__3
10
0
20
0
30
0
70
128
71
5
72
7
73
4
0
VERTEX
8
OBJECT__3
10
0
20
0
30
0
70
128
71
3
72
5
73
1
0
SEQEND
8
OBJECT__3
0
POLYLINE
8
OBJECT__4
66
1
70
64
71
33
72
33
62
253
0
VERTEX
8
OBJECT__4
10
89.892998
20
23.371000
30
11.255000
70
192
0
VERTEX
8
OBJECT__4
10
89.892998
20
16.173000
30
20.281000
70
192
0
VERTEX
8
OBJECT__4
10
89.892998
20
16.437000
30
17.856001
70
192
0
VERTEX
8
OBJECT__4
10
89.892998
20
5.772000
30
25.289000
70
192
0
VERTEX
8
OBJECT__4
10
89.892998
20
9.749000
30
22.225000
70
192
0
VERTEX
8
OBJECT__4
10
89.892998
20
-5.772000
30
25.289000
70
192
0
VERTEX
8
OBJECT__4
10
89.892998
20
-5.958000
30
23.527000
70
192
0
VERTEX
8
OBJECT__4
10
89.892998
20
2.004000
30
24.186001
70
192
0
VERTEX
8
OBJECT__4
10
89.892998
20
-16.173000
30
20.281000
70
192
0
VERTEX
8
OBJECT__4
10
89.892998
20
-13.274000
30
20.316999
70
192
0
VERTEX
8
OBJECT__4
10
89.892998
20
-25.940001
30
0.000000
70
192
0
VERTEX
8
OBJECT__4
10
89.892998
20
-24.268999
30
0.000000
70
192
0
VERTEX
8
OBJECT__4
10
89.892998
20
-22.954000
30
7.880000
70
192
0
VERTEX
8
OBJECT__4
10
89.892998
20
-23.371000
30
11.255000
70
192
0
VERTEX
8
OBJECT__4
10
89.892998
20
-19.152000
30
14.907000
70
192
0
VERTEX
8
OBJECT__4
10
89.892998
20
-23.371000
30
-11.255000
70
192
0
VERTEX
8
OBJECT__4
10
89.892998
20
-22.954000
30
-7.880000
70
192
0
VERTEX
8
OBJECT__4
10
89.892998
20
-16.173000
30
-20.281000
70
192
0
VERTEX
8
OBJECT__4
10
89.892998
20
-13.274000
30
-20.316999
70
192
0
VERTEX
8
OBJECT__4
10
89.892998
20
-19.152000
30
-14.907000
70
192
0
VERTEX
8
OBJECT__4
10
89.892998
20
-5.772000
30
-25.289000
70
192
0
VERTEX
8
OBJECT__4
10
89.892998
20
-5.958000
30
-23.527000
70
192
0
VERTEX
8
OBJECT__4
10
89.892998
20
5.772000
30
-25.289000
70
192
0
VERTEX
8
OBJECT__4
10
89.892998
20
2.004000
30
-24.186001
70
192
0
VERTEX
8
OBJECT__4
10
89.892998
20
9.749000
30
-22.225000
70
192
0
VERTEX
8
OBJECT__4
10
89.892998
20
16.173000
30
-20.281000
70
192
0
VERTEX
8
OBJECT__4
10
89.892998
20
16.437000
30
-17.856001
70
192
0
VERTEX
8
OBJECT__4
10
89.892998
20
23.371000
30
-11.255000
70
192
0
VERTEX
8
OBJECT__4
10
89.892998
20
21.344000
30
-11.551000
70
192
0
VERTEX
8
OBJECT__4
10
89.892998
20
21.344000
30
11.551000
70
192
0
VERTEX
8
OBJECT__4
10
89.892998
20
23.938000
30
3.995000
70
192
0
VERTEX
8
OBJECT__4
10
89.892998
20
25.940001
30
0.000000
70
192
0
VERTEX
8
OBJECT__4
10
89.892998
20
23.938000
30
-3.995000
70
192
0
VERTEX
8
OBJECT__4
10
0
20
0
30
0
70
128
71
1
72
2
73
3
0
VERTEX
8
OBJECT__4
10
0
20
0
30
0
70
128
71
2
72
4
73
5
0
VERTEX
8
OBJECT__4
10
0
20
0
30
0
70
128
71
5
72
3
73
2
0
VERTEX
8
OBJECT__4
10
0
20
0
30
0
70
128
71
6
72
7
73
8
0
VERTEX
8
OBJECT__4
10
0
20
0
30
0
70
128
71
6
72
9
73
10
0
VERTEX
8
OBJECT__4
10
0
20
0
30
0
70
128
71
4
72
8
73
5
0
VERTEX
8
OBJECT__4
10
0
20
0
30
0
70
128
71
10
72
7
73
6
0
VERTEX
8
OBJECT__4
10
0
20
0
30
0
70
128
71
11
72
12
73
13
0
VERTEX
8
OBJECT__4
10
0
20
0
30
0
70
128
71
8
72
4
73
6
0
VERTEX
8
OBJECT__4
10
0
20
0
30
0
70
128
71
9
72
14
73
15
0
VERTEX
8
OBJECT__4
10
0
20
0
30
0
70
128
71
13
72
14
73
11
0
VERTEX
8
OBJECT__4
10
0
20
0
30
0
70
128
71
11
72
16
73
17
0
VERTEX
8
OBJECT__4
10
0
20
0
30
0
70
128
71
18
72
19
73
20
0
VERTEX
8
OBJECT__4
10
0
20
0
30
0
70
128
71
15
72
10
73
9
0
VERTEX
8
OBJECT__4
10
0
20
0
30
0
70
128
71
17
72
12
73
11
0
VERTEX
8
OBJECT__4
10
0
20
0
30
0
70
128
71
20
72
16
73
18
0
VERTEX
8
OBJECT__4
10
0
20
0
30
0
70
128
71
21
72
22
73
19
0
VERTEX
8
OBJECT__4
10
0
20
0
30
0
70
128
71
13
72
15
73
14
0
VERTEX
8
OBJECT__4
10
0
20
0
30
0
70
128
71
19
72
18
73
21
0
VERTEX
8
OBJECT__4
10
0
20
0
30
0
70
128
71
21
72
23
73
24
0
VERTEX
8
OBJECT__4
10
0
20
0
30
0
70
128
71
20
72
17
73
16
0
VERTEX
8
OBJECT__4
10
0
20
0
30
0
70
128
71
23
72
25
73
24
0
VERTEX
8
OBJECT__4
10
0
20
0
30
0
70
128
71
26
72
27
73
25
0
VERTEX
8
OBJECT__4
10
0
20
0
30
0
70
128
71
28
72
29
73
27
0
VERTEX
8
OBJECT__4
10
0
20
0
30
0
70
128
71
24
72
22
73
21
0
VERTEX
8
OBJECT__4
10
0
20
0
30
0
70
128
71
27
72
26
73
28
0
VERTEX
8
OBJECT__4
10
0
20
0
30
0
70
128
71
1
72
30
73
31
0
VERTEX
8
OBJECT__4
10
0
20
0
30
0
70
128
71
25
72
23
73
26
0
VERTEX
8
OBJECT__4
10
0
20
0
30
0
70
128
71
28
72
32
73
33
0
VERTEX
8
OBJECT__4
10
0
20
0
30
0
70
128
71
31
72
32
73
1
0
VERTEX
8
OBJECT__4
10
0
20
0
30
0
70
128
71
33
72
29
73
28
0
VERTEX
8
OBJECT__4
10
0
20
0
30
0
70
128
71
3
72
30
73
1
0
VERTEX
8
OBJECT__4
10
0
20
0
30
0
70
128
71
31
72
33
73
32
0
SEQEND
8
OBJECT__4
0
POLYLINE
8
OBJECT__6
66
1
70
64
71
28
72
28
62
253
0
VERTEX
8
OBJECT__6
10
59.200001
20
-23.612000
30
11.371000
70
192
0
VERTEX
8
OBJECT__6
10
59.200001
20
-26.208000
30
0.000000
70
192
0
VERTEX
8
OBJECT__6
10
89.892998
20
-25.940001
30
0.000000
70
192
0
VERTEX
8
OBJECT__6
10
59.200001
20
-16.340000
30
20.490000
70
192
0
VERTEX
8
OBJECT__6
10
89.892998
20
-23.371000
30
11.255000
70
192
0
VERTEX
8
OBJECT__6
10
89.892998
20
-16.173000
30
20.281000
70
192
0
VERTEX
8
OBJECT__6
10
89.892998
20
-5.772000
30
25.289000
70
192
0
VERTEX
8
OBJECT__6
10
59.200001
20
-5.832000
30
25.551001
70
192
0
VERTEX
8
OBJECT__6
10
89.892998
20
5.772000
30
25.289000
70
192
0
VERTEX
8
OBJECT__6
10
59.200001
20
5.832000
30
25.551001
70
192
0
VERTEX
8
OBJECT__6
10
89.892998
20
16.173000
30
20.281000
70
192
0
VERTEX
8
OBJECT__6
10
59.200001
20
23.612000
30
11.371000
70
192
0
VERTEX
8
OBJECT__6
10
59.200001
20
16.340000
30
20.490000
70
192
0
VERTEX
8
OBJECT__6
10
59.200001
20
26.208000
30
0.000000
70
192
0
VERTEX
8
OBJECT__6
10
89.892998
20
23.371000
30
11.255000
70
192
0
VERTEX
8
OBJECT__6
10
59.200001
20
23.612000
30
-11.371000
70
192
0
VERTEX
8
OBJECT__6
10
89.892998
20
25.940001
30
0.000000
70
192
0
VERTEX
8
OBJECT__6
10
59.200001
20
16.340000
30
-20.490000
70
192
0
VERTEX
8
OBJECT__6
10
89.892998
20
23.371000
30
-11.255000
70
192
0
VERTEX
8
OBJECT__6
10
59.200001
20
5.832000
30
-25.551001
70
192
0
VERTEX
8
OBJECT__6
10
89.892998
20
16.173000
30
-20.281000
70
192
0
VERTEX
8
OBJECT__6
10
59.200001
20
-5.832000
30
-25.551001
70
192
0
VERTEX
8
OBJECT__6
10
89.892998
20
5.772000
30
-25.289000
70
192
0
VERTEX
8
OBJECT__6
10
59.200001
20
-16.340000
30
-20.490000
70
192
0
VERTEX
8
OBJECT__6
10
89.892998
20
-5.772000
30
-25.289000
70
192
0
VERTEX
8
OBJECT__6
10
59.200001
20
-23.612000
30
-11.371000
70
192
0
VERTEX
8
OBJECT__6
10
89.892998
20
-16.173000
30
-20.281000
70
192
0
VERTEX
8
OBJECT__6
10
89.892998
20
-23.371000
30
-11.255000
70
192
0
VERTEX
8
OBJECT__6
10
0
20
0
30
0
70
128
71
1
72
2
73
3
0
VERTEX
8
OBJECT__6
10
0
20
0
30
0
70
128
71
4
72
1
73
5
0
VERTEX
8
OBJECT__6
10
0
20
0
30
0
70
128
71
4
72
6
73
7
0
VERTEX
8
OBJECT__6
10
0
20
0
30
0
70
128
71
8
72
7
73
9
0
VERTEX
8
OBJECT__6
10
0
20
0
30
0
70
128
71
10
72
9
73
11
0
VERTEX
8
OBJECT__6
10
0
20
0
30
0
70
128
71
12
72
13
73
11
0
VERTEX
8
OBJECT__6
10
0
20
0
30
0
70
128
71
14
72
12
73
15
0
VERTEX
8
OBJECT__6
10
0
20
0
30
0
70
128
71
16
72
14
73
17
0
VERTEX
8
OBJECT__6
10
0
20
0
30
0
70
128
71
18
72
16
73
19
0
VERTEX
8
OBJECT__6
10
0
20
0
30
0
70
128
71
20
72
18
73
21
0
VERTEX
8
OBJECT__6
10
0
20
0
30
0
70
128
71
22
72
20
73
23
0
VERTEX
8
OBJECT__6
10
0
20
0
30
0
70
128
71
24
72
22
73
25
0
VERTEX
8
OBJECT__6
10
0
20
0
30
0
70
128
71
26
72
24
73
27
0
VERTEX
8
OBJECT__6
10
0
20
0
30
0
70
128
71
2
72
26
73
28
0
VERTEX
8
OBJECT__6
10
0
20
0
30
0
70
128
71
28
72
3
73
2
0
VERTEX
8
OBJECT__6
10
0
20
0
30
0
70
128
71
27
72
28
73
26
0
VERTEX
8
OBJECT__6
10
0
20
0
30
0
70
128
71
25
72
27
73
24
0
VERTEX
8
OBJECT__6
10
0
20
0
30
0
70
128
71
23
72
25
73
22
0
VERTEX
8
OBJECT__6
10
0
20
0
30
0
70
128
71
21
72
23
73
20
0
VERTEX
8
OBJECT__6
10
0
20
0
30
0
70
128
71
19
72
21
73
18
0
VERTEX
8
OBJECT__6
10
0
20
0
30
0
70
128
71
17
72
19
73
16
0
VERTEX
8
OBJECT__6
10
0
20
0
30
0
70
128
71
15
72
17
73
14
0
VERTEX
8
OBJECT__6
10
0
20
0
30
0
70
128
71
11
72
15
73
12
0
VERTEX
8
OBJECT__6
10
0
20
0
30
0
70
128
71
11
72
13
73
10
0
VERTEX
8
OBJECT__6
10
0
20
0
30
0
70
128
71
9
72
10
73
8
0
VERTEX
8
OBJECT__6
10
0
20
0
30
0
70
128
71
7
72
8
73
4
0
VERTEX
8
OBJECT__6
10
0
20
0
30
0
70
128
71
5
72
6
73
4
0
VERTEX
8
OBJECT__6
10
0
20
0
30
0
70
128
71
3
72
5
73
1
0
SEQEND
8
OBJECT__6
0
POLYLINE
8
OBJECT__7
66
1
70
64
71
76
72
114
62
253
0
VERTEX
8
OBJECT__7
10
89.892998
20
-22.954000
30
7.880000
70
192
0
VERTEX
8
OBJECT__7
10
95.230003
20
-21.073999
30
7.235000
70
192
0
VERTEX
8
OBJECT__7
10
95.230003
20
-22.282000
30
0.000000
70
192
0
VERTEX
8
OBJECT__7
10
89.892998
20
-19.152000
30
14.907000
70
192
0
VERTEX
8
OBJECT__7
10
95.230003
20
-17.583000
30
13.686000
70
192
0
VERTEX
8
OBJECT__7
10
89.892998
20
-13.274000
30
20.316999
70
192
0
VERTEX
8
OBJECT__7
10
95.230003
20
-12.187000
30
18.653000
70
192
0
VERTEX
8
OBJECT__7
10
89.892998
20
-5.958000
30
23.527000
70
192
0
VERTEX
8
OBJECT__7
10
95.230003
20
-5.470000
30
21.600000
70
192
0
VERTEX
8
OBJECT__7
10
89.892998
20
2.004000
30
24.186001
70
192
0
VERTEX
8
OBJECT__7
10
95.230003
20
1.840000
30
22.205000
70
192
0
VERTEX
8
OBJECT__7
10
89.892998
20
9.749000
30
22.225000
70
192
0
VERTEX
8
OBJECT__7
10
95.230003
20
8.950000
30
20.405001
70
192
0
VERTEX
8
OBJECT__7
10
89.892998
20
16.437000
30
17.856001
70
192
0
VERTEX
8
OBJECT__7
10
95.230003
20
15.091000
30
16.393000
70
192
0
VERTEX
8
OBJECT__7
10
89.892998
20
21.344000
30
11.551000
70
192
0
VERTEX
8
OBJECT__7
10
95.230003
20
19.596001
30
10.605000
70
192
0
VERTEX
8
OBJECT__7
10
89.892998
20
23.938000
30
3.995000
70
192
0
VERTEX
8
OBJECT__7
10
95.230003
20
21.978001
30
3.667000
70
192
0
VERTEX
8
OBJECT__7
10
89.892998
20
23.938000
30
-3.995000
70
192
0
VERTEX
8
OBJECT__7
10
95.230003
20
21.978001
30
-3.667000
70
192
0
VERTEX
8
OBJECT__7
10
89.892998
20
21.344000
30
-11.551000
70
192
0
VERTEX
8
OBJECT__7
10
95.230003
20
19.596001
30
-10.605000
70
192
0
VERTEX
8
OBJECT__7
10
89.892998
20
16.437000
30
-17.856001
70
192
0
VERTEX
8
OBJECT__7
10
95.230003
20
15.091000
30
-16.393000
70
192
0
VERTEX
8
OBJECT__7
10
89.892998
20
9.749000
30
-22.225000
70
192
0
VERTEX
8
OBJECT__7
10
95.230003
20
8.950000
30
-20.405001
70
192
0
VERTEX
8
OBJECT__7
10
89.892998
20
2.004000
30
-24.186001
70
192
0
VERTEX
8
OBJECT__7
10
95.230003
20
1.840000
30
-22.205000
70
192
0
VERTEX
8
OBJECT__7
10
89.892998
20
-5.958000
30
-23.527000
70
192
0
VERTEX
8
OBJECT__7
10
95.230003
20
-5.470000
30
-21.600000
70
192
0
VERTEX
8
OBJECT__7
10
89.892998
20
-13.274000
30
-20.316999
70
192
0
VERTEX
8
OBJECT__7
10
95.230003
20
-12.187000
30
-18.653000
70
192
0
VERTEX
8
OBJECT__7
10
89.892998
20
-19.152000
30
-14.907000
70
192
0
VERTEX
8
OBJECT__7
10
95.230003
20
-17.583000
30
-13.686000
70
192
0
VERTEX
8
OBJECT__7
10
89.892998
20
-22.954000
30
-7.880000
70
192
0
VERTEX
8
OBJECT__7
10
95.230003
20
-21.073999
30
-7.235000
70
192
0
VERTEX
8
OBJECT__7
10
89.892998
20
-24.268999
30
0.000000
70
192
0
VERTEX
8
OBJECT__7
10
99.978996
20
-18.100000
30
6.214000
70
192
0
VERTEX
8
OBJECT__7
10
99.978996
20
-15.102000
30
11.754000
70
192
0
VERTEX
8
OBJECT__7
10
99.978996
20
-10.467000
30
16.021000
70
192
0
VERTEX
8
OBJECT__7
10
99.978996
20
-4.698000
30
18.552000
70
192
0
VERTEX
8
OBJECT__7
10
99.978996
20
1.580000
30
19.072001
70
192
0
VERTEX
8
OBJECT__7
10
99.978996
20
7.687000
30
17.525999
70
192
0
VERTEX
8
OBJECT__7
10
99.978996
20
12.961000
30
14.080000
70
192
0
VERTEX
8
OBJECT__7
10
99.978996
20
16.830999
30
9.108000
70
192
0
VERTEX
8
OBJECT__7
10
99.978996
20
18.875999
30
3.150000
70
192
0
VERTEX
8
OBJECT__7
10
99.978996
20
18.875999
30
-3.150000
70
192
0
VERTEX
8
OBJECT__7
10
99.978996
20
16.830999
30
-9.108000
70
192
0
VERTEX
8
OBJECT__7
10
99.978996
20
12.961000
30
-14.080000
70
192
0
VERTEX
8
OBJECT__7
10
99.978996
20
7.687000
30
-17.525999
70
192
0
VERTEX
8
OBJECT__7
10
99.978996
20
1.580000
30
-19.072001
70
192
0
VERTEX
8
OBJECT__7
10
99.978996
20
-4.698000
30
-18.552000
70
192
0
VERTEX
8
OBJECT__7
10
99.978996
20
-10.467000
30
-16.021000
70
192
0
VERTEX
8
OBJECT__7
10
99.978996
20
-15.102000
30
-11.754000
70
192
0
VERTEX
8
OBJECT__7
10
99.978996
20
-18.100000
30
-6.214000
70
192
0
VERTEX
8
OBJECT__7
10
99.978996
20
-19.136999
30
0.000000
70
192
0
VERTEX
8
OBJECT__7
10
103.892998
20
-14.187000
30
4.870000
70
192
0
VERTEX
8
OBJECT__7
10
103.892998
20
-15.000000
30
0.000000
70
192
0
VERTEX
8
OBJECT__7
10
103.892998
20
-11.837000
30
9.213000
70
192
0
VERTEX
8
OBJECT__7
10
103.892998
20
-8.204000
30
12.557000
70
192
0
VERTEX
8
OBJECT__7
10
103.892998
20
-3.682000
30
14.541000
70
192
0
VERTEX
8
OBJECT__7
10
103.892998
20
1.239000
30
14.949000
70
192
0
VERTEX
8
OBJECT__7
10
103.892998
20
6.025000
30
13.737000
70
192
0
VERTEX
8
OBJECT__7
10
103.892998
20
10.159000
30
11.036000
70
192
0
VERTEX
8
OBJECT__7
10
103.892998
20
13.192000
30
7.139000
70
192
0
VERTEX
8
OBJECT__7
10
103.892998
20
14.795000
30
2.469000
70
192
0
VERTEX
8
OBJECT__7
10
103.892998
20
14.795000
30
-2.469000
70
192
0
VERTEX
8
OBJECT__7
10
103.892998
20
13.192000
30
-7.139000
70
192
0
VERTEX
8
OBJECT__7
10
103.892998
20
10.159000
30
-11.036000
70
192
0
VERTEX
8
OBJECT__7
10
103.892998
20
6.025000
30
-13.737000
70
192
0
VERTEX
8
OBJECT__7
10
103.892998
20
1.239000
30
-14.949000
70
192
0
VERTEX
8
OBJECT__7
10
103.892998
20
-3.682000
30
-14.541000
70
192
0
VERTEX
8
OBJECT__7
10
103.892998
20
-8.204000
30
-12.557000
70
192
0
VERTEX
8
OBJECT__7
10
103.892998
20
-11.837000
30
-9.213000
70
192
0
VERTEX
8
OBJECT__7
10
103.892998
20
-14.187000
30
-4.870000
70
192
0
VERTEX
8
OBJECT__7
10
0
20
0
30
0
70
128
71
1
72
2
73
3
0
VERTEX
8
OBJECT__7
10
0
20
0
30
0
70
128
71
1
72
4
73
5
0
VERTEX
8
OBJECT__7
10
0
20
0
30
0
70
128
71
4
72
6
73
7
0
VERTEX
8
OBJECT__7
10
0
20
0
30
0
70
128
71
6
72
8
73
9
0
VERTEX
8
OBJECT__7
10
0
20
0
30
0
70
128
71
8
72
10
73
11
0
VERTEX
8
OBJECT__7
10
0
20
0
30
0
70
128
71
12
72
13
73
11
0
VERTEX
8
OBJECT__7
10
0
20
0
30
0
70
128
71
14
72
15
73
13
0
VERTEX
8
OBJECT__7
10
0
20
0
30
0
70
128
71
14
72
16
73
17
0
VERTEX
8
OBJECT__7
10
0
20
0
30
0
70
128
71
16
72
18
73
19
0
VERTEX
8
OBJECT__7
10
0
20
0
30
0
70
128
71
18
72
20
73
21
0
VERTEX
8
OBJECT__7
10
0
20
0
30
0
70
128
71
20
72
22
73
23
0
VERTEX
8
OBJECT__7
10
0
20
0
30
0
70
128
71
24
72
25
73
23
0
VERTEX
8
OBJECT__7
10
0
20
0
30
0
70
128
71
26
72
27
73
25
0
VERTEX
8
OBJECT__7
10
0
20
0
30
0
70
128
71
28
72
29
73
27
0
VERTEX
8
OBJECT__7
10
0
20
0
30
0
70
128
71
30
72
31
73
29
0
VERTEX
8
OBJECT__7
10
0
20
0
30
0
70
128
71
32
72
33
73
31
0
VERTEX
8
OBJECT__7
10
0
20
0
30
0
70
128
71
32
72
34
73
35
0
VERTEX
8
OBJECT__7
10
0
20
0
30
0
70
128
71
34
72
36
73
37
0
VERTEX
8
OBJECT__7
10
0
20
0
30
0
70
128
71
36
72
38
73
3
0
VERTEX
8
OBJECT__7
10
0
20
0
30
0
70
128
71
3
72
2
73
39
0
VERTEX
8
OBJECT__7
10
0
20
0
30
0
70
128
71
2
72
5
73
40
0
VERTEX
8
OBJECT__7
10
0
20
0
30
0
70
128
71
5
72
7
73
41
0
VERTEX
8
OBJECT__7
10
0
20
0
30
0
70
128
71
7
72
9
73
42
0
VERTEX
8
OBJECT__7
10
0
20
0
30
0
70
128
71
9
72
11
73
43
0
VERTEX
8
OBJECT__7
10
0
20
0
30
0
70
128
71
11
72
13
73
44
0
VERTEX
8
OBJECT__7
10
0
20
0
30
0
70
128
71
13
72
15
73
45
0
VERTEX
8
OBJECT__7
10
0
20
0
30
0
70
128
71
15
72
17
73
46
0
VERTEX
8
OBJECT__7
10
0
20
0
30
0
70
128
71
17
72
19
73
47
0
VERTEX
8
OBJECT__7
10
0
20
0
30
0
70
128
71
19
72
21
73
48
0
VERTEX
8
OBJECT__7
10
0
20
0
30
0
70
128
71
21
72
23
73
49
0
VERTEX
8
OBJECT__7
10
0
20
0
30
0
70
128
71
23
72
25
73
50
0
VERTEX
8
OBJECT__7
10
0
20
0
30
0
70
128
71
25
72
27
73
51
0
VERTEX
8
OBJECT__7
10
0
20
0
30
0
70
128
71
27
72
29
73
52
0
VERTEX
8
OBJECT__7
10
0
20
0
30
0
70
128
71
29
72
31
73
53
0
VERTEX
8
OBJECT__7
10
0
20
0
30
0
70
128
71
31
72
33
73
54
0
VERTEX
8
OBJECT__7
10
0
20
0
30
0
70
128
71
33
72
35
73
55
0
VERTEX
8
OBJECT__7
10
0
20
0
30
0
70
128
71
35
72
37
73
56
0
VERTEX
8
OBJECT__7
10
0
20
0
30
0
70
128
71
37
72
3
73
57
0
VERTEX
8
OBJECT__7
10
0
20
0
30
0
70
128
71
39
72
58
73
59
0
VERTEX
8
OBJECT__7
10
0
20
0
30
0
70
128
71
40
72
60
73
58
0
VERTEX
8
OBJECT__7
10
0
20
0
30
0
70
128
71
41
72
61
73
60
0
VERTEX
8
OBJECT__7
10
0
20
0
30
0
70
128
71
42
72
62
73
61
0
VERTEX
8
OBJECT__7
10
0
20
0
30
0
70
128
71
42
72
43
73
63
0
VERTEX
8
OBJECT__7
10
0
20
0
30
0
70
128
71
43
72
44
73
64
0
VERTEX
8
OBJECT__7
10
0
20
0
30
0
70
128
71
44
72
45
73
65
0
VERTEX
8
OBJECT__7
10
0
20
0
30
0
70
128
71
46
72
66
73
65
0
VERTEX
8
OBJECT__7
10
0
20
0
30
0
70
128
71
46
72
47
73
67
0
VERTEX
8
OBJECT__7
10
0
20
0
30
0
70
128
71
48
72
68
73
67
0
VERTEX
8
OBJECT__7
10
0
20
0
30
0
70
128
71
49
72
69
73
68
0
VERTEX
8
OBJECT__7
10
0
20
0
30
0
70
128
71
49
72
50
73
70
0
VERTEX
8
OBJECT__7
10
0
20
0
30
0
70
128
71
51
72
71
73
70
0
VERTEX
8
OBJECT__7
10
0
20
0
30
0
70
128
71
52
72
72
73
71
0
VERTEX
8
OBJECT__7
10
0
20
0
30
0
70
128
71
52
72
53
73
73
0
VERTEX
8
OBJECT__7
10
0
20
0
30
0
70
128
71
54
72
74
73
73
0
VERTEX
8
OBJECT__7
10
0
20
0
30
0
70
128
71
55
72
75
73
74
0
VERTEX
8
OBJECT__7
10
0
20
0
30
0
70
128
71
55
72
56
73
76
0
VERTEX
8
OBJECT__7
10
0
20
0
30
0
70
128
71
56
72
57
73
59
0
VERTEX
8
OBJECT__7
10
0
20
0
30
0
70
128
71
59
72
76
73
56
0
VERTEX
8
OBJECT__7
10
0
20
0
30
0
70
128
71
76
72
75
73
55
0
VERTEX
8
OBJECT__7
10
0
20
0
30
0
70
128
71
74
72
54
73
55
0
VERTEX
8
OBJECT__7
10
0
20
0
30
0
70
128
71
73
72
53
73
54
0
VERTEX
8
OBJECT__7
10
0
20
0
30
0
70
128
71
73
72
72
73
52
0
VERTEX
8
OBJECT__7
10
0
20
0
30
0
70
128
71
71
72
51
73
52
0
VERTEX
8
OBJECT__7
10
0
20
0
30
0
70
128
71
70
72
50
73
51
0
VERTEX
8
OBJECT__7
10
0
20
0
30
0
70
128
71
70
72
69
73
49
0
VERTEX
8
OBJECT__7
10
0
20
0
30
0
70
128
71
68
72
48
73
49
0
VERTEX
8
OBJECT__7
10
0
20
0
30
0
70
128
71
67
72
47
73
48
0
VERTEX
8
OBJECT__7
10
0
20
0
30
0
70
128
71
67
72
66
73
46
0
VERTEX
8
OBJECT__7
10
0
20
0
30
0
70
128
71
65
72
45
73
46
0
VERTEX
8
OBJECT__7
10
0
20
0
30
0
70
128
71
65
72
64
73
44
0
VERTEX
8
OBJECT__7
10
0
20
0
30
0
70
128
71
64
72
63
73
43
0
VERTEX
8
OBJECT__7
10
0
20
0
30
0
70
128
71
63
72
62
73
42
0
VERTEX
8
OBJECT__7
10
0
20
0
30
0
70
128
71
61
72
41
73
42
0
VERTEX
8
OBJECT__7
10
0
20
0
30
0
70
128
71
60
72
40
73
41
0
VERTEX
8
OBJECT__7
10
0
20
0
30
0
70
128
71
58
72
39
73
40
0
VERTEX
8
OBJECT__7
10
0
20
0
30
0
70
128
71
59
72
57
73
39
0
VERTEX
8
OBJECT__7
10
0
20
0
30
0
70
128
71
57
72
56
73
37
0
VERTEX
8
OBJECT__7
10
0
20
0
30
0
70
128
71
56
72
55
73
35
0
VERTEX
8
OBJECT__7
10
0
20
0
30
0
70
128
71
55
72
54
73
33
0
VERTEX
8
OBJECT__7
10
0
20
0
30
0
70
128
71
54
72
53
73
31
0
VERTEX
8
OBJECT__7
10
0
20
0
30
0
70
128
71
53
72
52
73
29
0
VERTEX
8
OBJECT__7
10
0
20
0
30
0
70
128
71
52
72
51
73
27
0
VERTEX
8
OBJECT__7
10
0
20
0
30
0
70
128
71
51
72
50
73
25
0
VERTEX
8
OBJECT__7
10
0
20
0
30
0
70
128
71
50
72
49
73
23
0
VERTEX
8
OBJECT__7
10
0
20
0
30
0
70
128
71
49
72
48
73
21
0
VERTEX
8
OBJECT__7
10
0
20
0
30
0
70
128
71
48
72
47
73
19
0
VERTEX
8
OBJECT__7
10
0
20
0
30
0
70
128
71
47
72
46
73
17
0
VERTEX
8
OBJECT__7
10
0
20
0
30
0
70
128
71
46
72
45
73
15
0
VERTEX
8
OBJECT__7
10
0
20
0
30
0
70
128
71
45
72
44
73
13
0
VERTEX
8
OBJECT__7
10
0
20
0
30
0
70
128
71
44
72
43
73
11
0
VERTEX
8
OBJECT__7
10
0
20
0
30
0
70
128
71
43
72
42
73
9
0
VERTEX
8
OBJECT__7
10
0
20
0
30
0
70
128
71
42
72
41
73
7
0
VERTEX
8
OBJECT__7
10
0
20
0
30
0
70
128
71
41
72
40
73
5
0
VERTEX
8
OBJECT__7
10
0
20
0
30
0
70
128
71
40
72
39
73
2
0
VERTEX
8
OBJECT__7
10
0
20
0
30
0
70
128
71
39
72
57
73
3
0
VERTEX
8
OBJECT__7
10
0
20
0
30
0
70
128
71
3
72
37
73
36
0
VERTEX
8
OBJECT__7
10
0
20
0
30
0
70
128
71
37
72
35
73
34
0
VERTEX
8
OBJECT__7
10
0
20
0
30
0
70
128
71
35
72
33
73
32
0
VERTEX
8
OBJECT__7
10
0
20
0
30
0
70
128
71
31
72
30
73
32
0
VERTEX
8
OBJECT__7
10
0
20
0
30
0
70
128
71
29
72
28
73
30
0
VERTEX
8
OBJECT__7
10
0
20
0
30
0
70
128
71
27
72
26
73
28
0
VERTEX
8
OBJECT__7
10
0
20
0
30
0
70
128
71
25
72
24
73
26
0
VERTEX
8
OBJECT__7
10
0
20
0
30
0
70
128
71
23
72
22
73
24
0
VERTEX
8
OBJECT__7
10
0
20
0
30
0
70
128
71
23
72
21
73
20
0
VERTEX
8
OBJECT__7
10
0
20
0
30
0
70
128
71
21
72
19
73
18
0
VERTEX
8
OBJECT__7
10
0
20
0
30
0
70
128
71
19
72
17
73
16
0
VERTEX
8
OBJECT__7
10
0
20
0
30
0
70
128
71
17
72
15
73
14
0
VERTEX
8
OBJECT__7
10
0
20
0
30
0
70
128
71
13
72
12
73
14
0
VERTEX
8
OBJECT__7
10
0
20
0
30
0
70
128
71
11
72
10
73
12
0
VERTEX
8
OBJECT__7
10
0
20
0
30
0
70
128
71
11
72
9
73
8
0
VERTEX
8
OBJECT__7
10
0
20
0
30
0
70
128
71
9
72
7
73
6
0
VERTEX
8
OBJECT__7
10
0
20
0
30
0
70
128
71
7
72
5
73
4
0
VERTEX
8
OBJECT__7
10
0
20
0
30
0
70
128
71
5
72
2
73
1
0
VERTEX
8
OBJECT__7
10
0
20
0
30
0
70
128
71
3
72
38
73
1
0
SEQEND
8
OBJECT__7
0
POLYLINE
8
OBJECT__8
66
1
70
64
71
33
72
33
62
253
0
VERTEX
8
OBJECT__8
10
89.892998
20
23.371000
30
-11.255000
70
192
0
VERTEX
8
OBJECT__8
10
89.892998
20
16.173000
30
-20.281000
70
192
0
VERTEX
8
OBJECT__8
10
89.892998
20
16.437000
30
-17.856001
70
192
0
VERTEX
8
OBJECT__8
10
89.892998
20
5.772000
30
-25.289000
70
192
0
VERTEX
8
OBJECT__8
10
89.892998
20
9.749000
30
-22.225000
70
192
0
VERTEX
8
OBJECT__8
10
89.892998
20
21.344000
30
-11.551000
70
192
0
VERTEX
8
OBJECT__8
10
89.892998
20
23.938000
30
-3.995000
70
192
0
VERTEX
8
OBJECT__8
10
89.892998
20
-5.772000
30
-25.289000
70
192
0
VERTEX
8
OBJECT__8
10
89.892998
20
-5.958000
30
-23.527000
70
192
0
VERTEX
8
OBJECT__8
10
89.892998
20
2.004000
30
-24.186001
70
192
0
VERTEX
8
OBJECT__8
10
89.892998
20
-16.173000
30
-20.281000
70
192
0
VERTEX
8
OBJECT__8
10
89.892998
20
-13.274000
30
-20.316999
70
192
0
VERTEX
8
OBJECT__8
10
89.892998
20
-23.371000
30
-11.255000
70
192
0
VERTEX
8
OBJECT__8
10
89.892998
20
-19.152000
30
-14.907000
70
192
0
VERTEX
8
OBJECT__8
10
89.892998
20
-5.772000
30
25.289000
70
192
0
VERTEX
8
OBJECT__8
10
89.892998
20
-5.958000
30
23.527000
70
192
0
VERTEX
8
OBJECT__8
10
89.892998
20
-13.274000
30
20.316999
70
192
0
VERTEX
8
OBJECT__8
10
89.892998
20
5.772000
30
25.289000
70
192
0
VERTEX
8
OBJECT__8
10
89.892998
20
2.004000
30
24.186001
70
192
0
VERTEX
8
OBJECT__8
10
89.892998
20
16.173000
30
20.281000
70
192
0
VERTEX
8
OBJECT__8
10
89.892998
20
16.437000
30
17.856001
70
192
0
VERTEX
8
OBJECT__8
10
89.892998
20
9.749000
30
22.225000
70
192
0
VERTEX
8
OBJECT__8
10
89.892998
20
-16.173000
30
20.281000
70
192
0
VERTEX
8
OBJECT__8
10
89.892998
20
-19.152000
30
14.907000
70
192
0
VERTEX
8
OBJECT__8
10
89.892998
20
23.371000
30
11.255000
70
192
0
VERTEX
8
OBJECT__8
10
89.892998
20
21.344000
30
11.551000
70
192
0
VERTEX
8
OBJECT__8
10
89.892998
20
-22.954000
30
-7.880000
70
192
0
VERTEX
8
OBJECT__8
10
89.892998
20
-25.940001
30
0.000000
70
192
0
VERTEX
8
OBJECT__8
10
89.892998
20
-23.371000
30
11.255000
70
192
0
VERTEX
8
OBJECT__8
10
89.892998
20
-22.954000
30
7.880000
70
192
0
VERTEX
8
OBJECT__8
10
89.892998
20
25.940001
30
0.000000
70
192
0
VERTEX
8
OBJECT__8
10
89.892998
20
23.938000
30
3.995000
70
192
0
VERTEX
8
OBJECT__8
10
89.892998
20
-24.268999
30
0.000000
70
192
0
VERTEX
8
OBJECT__8
10
0
20
0
30
0
70
128
71
1
72
2
73
3
0
VERTEX
8
OBJECT__8
10
0
20
0
30
0
70
128
71
2
72
4
73
5
0
VERTEX
8
OBJECT__8
10
0
20
0
30
0
70
128
71
1
72
6
73
7
0
VERTEX
8
OBJECT__8
10
0
20
0
30
0
70
128
71
5
72
3
73
2
0
VERTEX
8
OBJECT__8
10
0
20
0
30
0
70
128
71
8
72
9
73
10
0
VERTEX
8
OBJECT__8
10
0
20
0
30
0
70
128
71
8
72
11
73
12
0
VERTEX
8
OBJECT__8
10
0
20
0
30
0
70
128
71
11
72
13
73
14
0
VERTEX
8
OBJECT__8
10
0
20
0
30
0
70
128
71
15
72
16
73
17
0
VERTEX
8
OBJECT__8
10
0
20
0
30
0
70
128
71
15
72
18
73
19
0
VERTEX
8
OBJECT__8
10
0
20
0
30
0
70
128
71
20
72
21
73
22
0
VERTEX
8
OBJECT__8
10
0
20
0
30
0
70
128
71
3
72
6
73
1
0
VERTEX
8
OBJECT__8
10
0
20
0
30
0
70
128
71
10
72
4
73
8
0
VERTEX
8
OBJECT__8
10
0
20
0
30
0
70
128
71
14
72
12
73
11
0
VERTEX
8
OBJECT__8
10
0
20
0
30
0
70
128
71
23
72
17
73
24
0
VERTEX
8
OBJECT__8
10
0
20
0
30
0
70
128
71
19
72
16
73
15
0
VERTEX
8
OBJECT__8
10
0
20
0
30
0
70
128
71
22
72
18
73
20
0
VERTEX
8
OBJECT__8
10
0
20
0
30
0
70
128
71
25
72
26
73
21
0
VERTEX
8
OBJECT__8
10
0
20
0
30
0
70
128
71
10
72
5
73
4
0
VERTEX
8
OBJECT__8
10
0
20
0
30
0
70
128
71
13
72
27
73
14
0
VERTEX
8
OBJECT__8
10
0
20
0
30
0
70
128
71
28
72
29
73
30
0
VERTEX
8
OBJECT__8
10
0
20
0
30
0
70
128
71
17
72
23
73
15
0
VERTEX
8
OBJECT__8
10
0
20
0
30
0
70
128
71
21
72
20
73
25
0
VERTEX
8
OBJECT__8
10
0
20
0
30
0
70
128
71
25
72
31
73
32
0
VERTEX
8
OBJECT__8
10
0
20
0
30
0
70
128
71
12
72
9
73
8
0
VERTEX
8
OBJECT__8
10
0
20
0
30
0
70
128
71
28
72
33
73
27
0
VERTEX
8
OBJECT__8
10
0
20
0
30
0
70
128
71
29
72
24
73
30
0
VERTEX
8
OBJECT__8
10
0
20
0
30
0
70
128
71
22
72
19
73
18
0
VERTEX
8
OBJECT__8
10
0
20
0
30
0
70
128
71
31
72
7
73
32
0
VERTEX
8
OBJECT__8
10
0
20
0
30
0
70
128
71
27
72
13
73
28
0
VERTEX
8
OBJECT__8
10
0
20
0
30
0
70
128
71
24
72
29
73
23
0
VERTEX
8
OBJECT__8
10
0
20
0
30
0
70
128
71
7
72
31
73
1
0
VERTEX
8
OBJECT__8
10
0
20
0
30
0
70
128
71
32
72
26
73
25
0
VERTEX
8
OBJECT__8
10
0
20
0
30
0
70
128
71
30
72
33
73
28
0
SEQEND
8
OBJECT__8
0
POLYLINE
8
OBJECT__9
66
1
70
64
71
28
72
28
62
253
0
VERTEX
8
OBJECT__9
10
59.200001
20
-26.208000
30
0.000000
70
192
0
VERTEX
8
OBJECT__9
10
59.200001
20
-23.612000
30
11.371000
70
192
0
VERTEX
8
OBJECT__9
10
89.892998
20
-23.371000
30
11.255000
70
192
0
VERTEX
8
OBJECT__9
10
59.200001
20
-16.340000
30
20.490000
70
192
0
VERTEX
8
OBJECT__9
10
89.892998
20
-16.173000
30
20.281000
70
192
0
VERTEX
8
OBJECT__9
10
59.200001
20
-5.832000
30
25.551001
70
192
0
VERTEX
8
OBJECT__9
10
89.892998
20
-5.772000
30
25.289000
70
192
0
VERTEX
8
OBJECT__9
10
59.200001
20
5.832000
30
25.551001
70
192
0
VERTEX
8
OBJECT__9
10
89.892998
20
5.772000
30
25.289000
70
192
0
VERTEX
8
OBJECT__9
10
59.200001
20
16.340000
30
20.490000
70
192
0
VERTEX
8
OBJECT__9
10
89.892998
20
16.173000
30
20.281000
70
192
0
VERTEX
8
OBJECT__9
10
59.200001
20
23.612000
30
11.371000
70
192
0
VERTEX
8
OBJECT__9
10
89.892998
20
23.371000
30
11.255000
70
192
0
VERTEX
8
OBJECT__9
10
59.200001
20
26.208000
30
0.000000
70
192
0
VERTEX
8
OBJECT__9
10
89.892998
20
25.940001
30
0.000000
70
192
0
VERTEX
8
OBJECT__9
10
59.200001
20
23.612000
30
-11.371000
70
192
0
VERTEX
8
OBJECT__9
10
89.892998
20
23.371000
30
-11.255000
70
192
0
VERTEX
8
OBJECT__9
10
59.200001
20
16.340000
30
-20.490000
70
192
0
VERTEX
8
OBJECT__9
10
89.892998
20
16.173000
30
-20.281000
70
192
0
VERTEX
8
OBJECT__9
10
59.200001
20
5.832000
30
-25.551001
70
192
0
VERTEX
8
OBJECT__9
10
89.892998
20
5.772000
30
-25.289000
70
192
0
VERTEX
8
OBJECT__9
10
59.200001
20
-5.832000
30
-25.551001
70
192
0
VERTEX
8
OBJECT__9
10
89.892998
20
-5.772000
30
-25.289000
70
192
0
VERTEX
8
OBJECT__9
10
59.200001
20
-16.340000
30
-20.490000
70
192
0
VERTEX
8
OBJECT__9
10
89.892998
20
-16.173000
30
-20.281000
70
192
0
VERTEX
8
OBJECT__9
10
59.200001
20
-23.612000
30
-11.371000
70
192
0
VERTEX
8
OBJECT__9
10
89.892998
20
-23.371000
30
-11.255000
70
192
0
VERTEX
8
OBJECT__9
10
89.892998
20
-25.940001
30
0.000000
70
192
0
VERTEX
8
OBJECT__9
10
0
20
0
30
0
70
128
71
1
72
2
73
3
0
VERTEX
8
OBJECT__9
10
0
20
0
30
0
70
128
71
2
72
4
73
5
0
VERTEX
8
OBJECT__9
10
0
20
0
30
0
70
128
71
4
72
6
73
7
0
VERTEX
8
OBJECT__9
10
0
20
0
30
0
70
128
71
6
72
8
73
9
0
VERTEX
8
OBJECT__9
10
0
20
0
30
0
70
128
71
8
72
10
73
11
0
VERTEX
8
OBJECT__9
10
0
20
0
30
0
70
128
71
10
72
12
73
13
0
VERTEX
8
OBJECT__9
10
0
20
0
30
0
70
128
71
12
72
14
73
15
0
VERTEX
8
OBJECT__9
10
0
20
0
30
0
70
128
71
14
72
16
73
17
0
VERTEX
8
OBJECT__9
10
0
20
0
30
0
70
128
71
16
72
18
73
19
0
VERTEX
8
OBJECT__9
10
0
20
0
30
0
70
128
71
20
72
21
73
19
0
VERTEX
8
OBJECT__9
10
0
20
0
30
0
70
128
71
22
72
23
73
21
0
VERTEX
8
OBJECT__9
10
0
20
0
30
0
70
128
71
24
72
25
73
23
0
VERTEX
8
OBJECT__9
10
0
20
0
30
0
70
128
71
24
72
26
73
27
0
VERTEX
8
OBJECT__9
10
0
20
0
30
0
70
128
71
26
72
1
73
28
0
VERTEX
8
OBJECT__9
10
0
20
0
30
0
70
128
71
28
72
27
73
26
0
VERTEX
8
OBJECT__9
10
0
20
0
30
0
70
128
71
27
72
25
73
24
0
VERTEX
8
OBJECT__9
10
0
20
0
30
0
70
128
71
23
72
22
73
24
0
VERTEX
8
OBJECT__9
10
0
20
0
30
0
70
128
71
21
72
20
73
22
0
VERTEX
8
OBJECT__9
10
0
20
0
30
0
70
128
71
19
72
18
73
20
0
VERTEX
8
OBJECT__9
10
0
20
0
30
0
70
128
71
19
72
17
73
16
0
VERTEX
8
OBJECT__9
10
0
20
0
30
0
70
128
71
17
72
15
73
14
0
VERTEX
8
OBJECT__9
10
0
20
0
30
0
70
128
71
15
72
13
73
12
0
VERTEX
8
OBJECT__9
10
0
20
0
30
0
70
128
71
13
72
11
73
10
0
VERTEX
8
OBJECT__9
10
0
20
0
30
0
70
128
71
11
72
9
73
8
0
VERTEX
8
OBJECT__9
10
0
20
0
30
0
70
128
71
9
72
7
73
6
0
VERTEX
8
OBJECT__9
10
0
20
0
30
0
70
128
71
7
72
5
73
4
0
VERTEX
8
OBJECT__9
10
0
20
0
30
0
70
128
71
5
72
3
73
2
0
VERTEX
8
OBJECT__9
10
0
20
0
30
0
70
128
71
3
72
28
73
1
0
SEQEND
8
OBJECT__9
0
POLYLINE
8
OBJECT__10
66
1
70
64
71
4
72
2
62
253
0
VERTEX
8
OBJECT__10
10
53.000000
20
35.000000
30
-35.000000
70
192
0
VERTEX
8
OBJECT__10
10
53.000000
20
35.000000
30
35.000000
70
192
0
VERTEX
8
OBJECT__10
10
68.000000
20
34.737999
30
34.737999
70
192
0
VERTEX
8
OBJECT__10
10
68.000000
20
34.737999
30
-34.737999
70
192
0
VERTEX
8
OBJECT__10
10
0
20
0
30
0
70
128
71
1
72
2
73
3
0
VERTEX
8
OBJECT__10
10
0
20
0
30
0
70
128
71
3
72
4
73
1
0
SEQEND
8
OBJECT__10
0
POLYLINE
8
OBJECT__11
66
1
70
64
71
4
72
2
62
253
0
VERTEX
8
OBJECT__11
10
68.000000
20
-144.738007
30
-34.737999
70
192
0
VERTEX
8
OBJECT__11
10
68.000000
20
34.737999
30
-34.737999
70
192
0
VERTEX
8
OBJECT__11
10
68.000000
20
34.737999
30
34.737999
70
192
0
VERTEX
8
OBJECT__11
10
68.000000
20
-144.738007
30
34.737999
70
192
0
VERTEX
8
OBJECT__11
10
0
20
0
30
0
70
128
71
1
72
2
73
3
0
VERTEX
8
OBJECT__11
10
0
20
0
30
0
70
128
71
3
72
4
73
1
0
SEQEND
8
OBJECT__11
0
POLYLINE
8
OBJECT__13
66
1
70
64
71
4
72
2
62
253
0
VERTEX
8
OBJECT__13
10
53.000000
20
-145.000000
30
-35.000000
70
192
0
VERTEX
8
OBJECT__13
10
68.000000
20
-144.738007
30
-34.737999
70
192
0
VERTEX
8
OBJECT__13
10
68.000000
20
-144.738007
30
34.737999
70
192
0
VERTEX
8
OBJECT__13
10
53.000000
20
-145.000000
30
35.000000
70
192
0
VERTEX
8
OBJECT__13
10
0
20
0
30
0
70
128
71
1
72
2
73
3
0
VERTEX
8
OBJECT__13
10
0
20
0
30
0
70
128
71
3
72
4
73
1
0
SEQEND
8
OBJECT__13
0
POLYLINE
8
OBJECT__14
66
1
70
64
71
4
72
2
62
253
0
VERTEX
8
OBJECT__14
10
53.000000
20
35.000000
30
-35.000000
70
192
0
VERTEX
8
OBJECT__14
10
53.000000
20
-145.000000
30
-35.000000
70
192
0
VERTEX
8
OBJECT__14
10
53.000000
20
-145.000000
30
35.000000
70
192
0
VERTEX
8
OBJECT__14
10
53.000000
20
35.000000
30
35.000000
70
192
0
VERTEX
8
OBJECT__14
10
0
20
0
30
0
70
128
71
1
72
2
73
3
0
VERTEX
8
OBJECT__14
10
0
20
0
30
0
70
128
71
3
72
4
73
1
0
SEQEND
8
OBJECT__14
0
POLYLINE
8
OBJECT__15
66
1
70
64
71
4
72
2
62
253
0
VERTEX
8
OBJECT__15
10
53.000000
20
35.000000
30
35.000000
70
192
0
VERTEX
8
OBJECT__15
10
53.000000
20
-145.000000
30
35.000000
70
192
0
VERTEX
8
OBJECT__15
10
68.000000
20
-144.738007
30
34.737999
70
192
0
VERTEX
8
OBJECT__15
10
68.000000
20
34.737999
30
34.737999
70
192
0
VERTEX
8
OBJECT__15
10
0
20
0
30
0
70
128
71
1
72
2
73
3
0
VERTEX
8
OBJECT__15
10
0
20
0
30
0
70
128
71
3
72
4
73
1
0
SEQEND
8
OBJECT__15
0
POLYLINE
8
OBJECT__16
66
1
70
64
71
4
72
2
62
253
0
VERTEX
8
OBJECT__16
10
53.000000
20
35.000000
30
-35.000000
70
192
0
VERTEX
8
OBJECT__16
10
68.000000
20
34.737999
30
-34.737999
70
192
0
VERTEX
8
OBJECT__16
10
68.000000
20
-144.738007
30
-34.737999
70
192
0
VERTEX
8
OBJECT__16
10
53.000000
20
-145.000000
30
-35.000000
70
192
0
VERTEX
8
OBJECT__16
10
0
20
0
30
0
70
128
71
1
72
2
73
3
0
VERTEX
8
OBJECT__16
10
0
20
0
30
0
70
128
71
3
72
4
73
1
0
SEQEND
8
OBJECT__16
0
POLYLINE
8
OBJECT__17
66
1
70
64
71
46
72
46
62
253
0
VERTEX
8
OBJECT__17
10
65.500000
20
-83.800003
30
0.000000
70
192
0
VERTEX
8
OBJECT__17
10
68.099998
20
-83.800003
30
0.000000
70
192
0
VERTEX
8
OBJECT__17
10
68.099998
20
-85.082001
30
-8.096000
70
192
0
VERTEX
8
OBJECT__17
10
65.500000
20
-86.394997
30
-11.368000
70
192
0
VERTEX
8
OBJECT__17
10
65.500000
20
-93.665001
30
-20.483999
70
192
0
VERTEX
8
OBJECT__17
10
68.099998
20
-88.804001
30
-15.400000
70
192
0
VERTEX
8
OBJECT__17
10
68.099998
20
-86.676003
30
-11.224000
70
192
0
VERTEX
8
OBJECT__17
10
68.099998
20
-94.599998
30
-21.195999
70
192
0
VERTEX
8
OBJECT__17
10
68.099998
20
-101.903999
30
-24.917999
70
192
0
VERTEX
8
OBJECT__17
10
65.500000
20
-104.169998
30
-25.542999
70
192
0
VERTEX
8
OBJECT__17
10
68.099998
20
-93.776001
30
-20.372000
70
192
0
VERTEX
8
OBJECT__17
10
68.099998
20
-104.210999
30
-25.283001
70
192
0
VERTEX
8
OBJECT__17
10
68.099998
20
-110.000000
30
-26.200001
70
192
0
VERTEX
8
OBJECT__17
10
65.500000
20
-115.830002
30
-25.542999
70
192
0
VERTEX
8
OBJECT__17
10
65.500000
20
-126.334999
30
-20.483999
70
192
0
VERTEX
8
OBJECT__17
10
68.099998
20
-118.096001
30
-24.917999
70
192
0
VERTEX
8
OBJECT__17
10
68.099998
20
-115.789001
30
-25.283001
70
192
0
VERTEX
8
OBJECT__17
10
68.099998
20
-125.400002
30
-21.195999
70
192
0
VERTEX
8
OBJECT__17
10
68.099998
20
-126.223999
30
-20.372000
70
192
0
VERTEX
8
OBJECT__17
10
68.099998
20
-131.195999
30
-15.400000
70
192
0
VERTEX
8
OBJECT__17
10
65.500000
20
-133.604996
30
-11.368000
70
192
0
VERTEX
8
OBJECT__17
10
65.500000
20
-136.199997
30
0.000000
70
192
0
VERTEX
8
OBJECT__17
10
68.099998
20
-134.917999
30
-8.096000
70
192
0
VERTEX
8
OBJECT__17
10
68.099998
20
-133.324005
30
-11.224000
70
192
0
VERTEX
8
OBJECT__17
10
68.099998
20
-136.199997
30
0.000000
70
192
0
VERTEX
8
OBJECT__17
10
68.099998
20
-134.917999
30
8.096000
70
192
0
VERTEX
8
OBJECT__17
10
65.500000
20
-133.604996
30
11.368000
70
192
0
VERTEX
8
OBJECT__17
10
65.500000
20
-126.334999
30
20.483999
70
192
0
VERTEX
8
OBJECT__17
10
68.099998
20
-131.195999
30
15.400000
70
192
0
VERTEX
8
OBJECT__17
10
68.099998
20
-133.324005
30
11.224000
70
192
0
VERTEX
8
OBJECT__17
10
68.099998
20
-125.400002
30
21.195999
70
192
0
VERTEX
8
OBJECT__17
10
68.099998
20
-118.096001
30
24.917999
70
192
0
VERTEX
8
OBJECT__17
10
68.099998
20
-126.223999
30
20.372000
70
192
0
VERTEX
8
OBJECT__17
10
65.500000
20
-115.830002
30
25.542999
70
192
0
VERTEX
8
OBJECT__17
10
68.099998
20
-115.789001
30
25.283001
70
192
0
VERTEX
8
OBJECT__17
10
68.099998
20
-110.000000
30
26.200001
70
192
0
VERTEX
8
OBJECT__17
10
65.500000
20
-104.169998
30
25.542999
70
192
0
VERTEX
8
OBJECT__17
10
65.500000
20
-93.665001
30
20.483999
70
192
0
VERTEX
8
OBJECT__17
10
68.099998
20
-101.903999
30
24.917999
70
192
0
VERTEX
8
OBJECT__17
10
68.099998
20
-94.599998
30
21.195999
70
192
0
VERTEX
8
OBJECT__17
10
68.099998
20
-104.210999
30
25.283001
70
192
0
VERTEX
8
OBJECT__17
10
68.099998
20
-93.776001
30
20.372000
70
192
0
VERTEX
8
OBJECT__17
10
68.099998
20
-88.804001
30
15.400000
70
192
0
VERTEX
8
OBJECT__17
10
65.500000
20
-86.394997
30
11.368000
70
192
0
VERTEX
8
OBJECT__17
10
68.099998
20
-85.082001
30
8.096000
70
192
0
VERTEX
8
OBJECT__17
10
68.099998
20
-86.676003
30
11.224000
70
192
0
VERTEX
8
OBJECT__17
10
0
20
0
30
0
70
128
71
1
72
2
73
3
0
VERTEX
8
OBJECT__17
10
0
20
0
30
0
70
128
71
3
72
4
73
1
0
VERTEX
8
OBJECT__17
10
0
20
0
30
0
70
128
71
5
72
4
73
6
0
VERTEX
8
OBJECT__17
10
0
20
0
30
0
70
128
71
4
72
7
73
6
0
VERTEX
8
OBJECT__17
10
0
20
0
30
0
70
128
71
5
72
8
73
9
0
VERTEX
8
OBJECT__17
10
0
20
0
30
0
70
128
71
9
72
10
73
5
0
VERTEX
8
OBJECT__17
10
0
20
0
30
0
70
128
71
5
72
11
73
8
0
VERTEX
8
OBJECT__17
10
0
20
0
30
0
70
128
71
10
72
12
73
13
0
VERTEX
8
OBJECT__17
10
0
20
0
30
0
70
128
71
13
72
14
73
10
0
VERTEX
8
OBJECT__17
10
0
20
0
30
0
70
128
71
15
72
14
73
16
0
VERTEX
8
OBJECT__17
10
0
20
0
30
0
70
128
71
14
72
17
73
16
0
VERTEX
8
OBJECT__17
10
0
20
0
30
0
70
128
71
16
72
18
73
15
0
VERTEX
8
OBJECT__17
10
0
20
0
30
0
70
128
71
15
72
19
73
20
0
VERTEX
8
OBJECT__17
10
0
20
0
30
0
70
128
71
20
72
21
73
15
0
VERTEX
8
OBJECT__17
10
0
20
0
30
0
70
128
71
22
72
21
73
23
0
VERTEX
8
OBJECT__17
10
0
20
0
30
0
70
128
71
21
72
24
73
23
0
VERTEX
8
OBJECT__17
10
0
20
0
30
0
70
128
71
22
72
25
73
26
0
VERTEX
8
OBJECT__17
10
0
20
0
30
0
70
128
71
26
72
27
73
22
0
VERTEX
8
OBJECT__17
10
0
20
0
30
0
70
128
71
28
72
27
73
29
0
VERTEX
8
OBJECT__17
10
0
20
0
30
0
70
128
71
27
72
30
73
29
0
VERTEX
8
OBJECT__17
10
0
20
0
30
0
70
128
71
28
72
31
73
32
0
VERTEX
8
OBJECT__17
10
0
20
0
30
0
70
128
71
28
72
33
73
31
0
VERTEX
8
OBJECT__17
10
0
20
0
30
0
70
128
71
32
72
34
73
28
0
VERTEX
8
OBJECT__17
10
0
20
0
30
0
70
128
71
34
72
35
73
36
0
VERTEX
8
OBJECT__17
10
0
20
0
30
0
70
128
71
36
72
37
73
34
0
VERTEX
8
OBJECT__17
10
0
20
0
30
0
70
128
71
38
72
37
73
39
0
VERTEX
8
OBJECT__17
10
0
20
0
30
0
70
128
71
39
72
40
73
38
0
VERTEX
8
OBJECT__17
10
0
20
0
30
0
70
128
71
37
72
41
73
39
0
VERTEX
8
OBJECT__17
10
0
20
0
30
0
70
128
71
38
72
42
73
43
0
VERTEX
8
OBJECT__17
10
0
20
0
30
0
70
128
71
43
72
44
73
38
0
VERTEX
8
OBJECT__17
10
0
20
0
30
0
70
128
71
1
72
44
73
45
0
VERTEX
8
OBJECT__17
10
0
20
0
30
0
70
128
71
44
72
46
73
45
0
VERTEX
8
OBJECT__17
10
0
20
0
30
0
70
128
71
45
72
2
73
1
0
VERTEX
8
OBJECT__17
10
0
20
0
30
0
70
128
71
43
72
46
73
44
0
VERTEX
8
OBJECT__17
10
0
20
0
30
0
70
128
71
40
72
42
73
38
0
VERTEX
8
OBJECT__17
10
0
20
0
30
0
70
128
71
36
72
41
73
37
0
VERTEX
8
OBJECT__17
10
0
20
0
30
0
70
128
71
32
72
35
73
34
0
VERTEX
8
OBJECT__17
10
0
20
0
30
0
70
128
71
29
72
33
73
28
0
VERTEX
8
OBJECT__17
10
0
20
0
30
0
70
128
71
26
72
30
73
27
0
VERTEX
8
OBJECT__17
10
0
20
0
30
0
70
128
71
23
72
25
73
22
0
VERTEX
8
OBJECT__17
10
0
20
0
30
0
70
128
71
20
72
24
73
21
0
VERTEX
8
OBJECT__17
10
0
20
0
30
0
70
128
71
18
72
19
73
15
0
VERTEX
8
OBJECT__17
10
0
20
0
30
0
70
128
71
13
72
17
73
14
0
VERTEX
8
OBJECT__17
10
0
20
0
30
0
70
128
71
9
72
12
73
10
0
VERTEX
8
OBJECT__17
10
0
20
0
30
0
70
128
71
6
72
11
73
5
0
VERTEX
8
OBJECT__17
10
0
20
0
30
0
70
128
71
3
72
7
73
4
0
SEQEND
8
OBJECT__17
0
POLYLINE
8
OBJECT__18
66
1
70
64
71
52
72
52
62
253
0
VERTEX
8
OBJECT__18
10
68.099998
20
-83.800003
30
0.000000
70
192
0
VERTEX
8
OBJECT__18
10
68.400002
20
-84.099998
30
0.000000
70
192
0
VERTEX
8
OBJECT__18
10
68.400002
20
-85.367996
30
-8.004000
70
192
0
VERTEX
8
OBJECT__18
10
68.400002
20
-89.045998
30
-15.224000
70
192
0
VERTEX
8
OBJECT__18
10
68.099998
20
-88.804001
30
-15.400000
70
192
0
VERTEX
8
OBJECT__18
10
68.099998
20
-86.676003
30
-11.224000
70
192
0
VERTEX
8
OBJECT__18
10
68.400002
20
-94.776001
30
-20.954000
70
192
0
VERTEX
8
OBJECT__18
10
68.099998
20
-93.776001
30
-20.372000
70
192
0
VERTEX
8
OBJECT__18
10
68.099998
20
-94.599998
30
-21.195999
70
192
0
VERTEX
8
OBJECT__18
10
68.099998
20
-101.903999
30
-24.917999
70
192
0
VERTEX
8
OBJECT__18
10
68.400002
20
-110.000000
30
-25.900000
70
192
0
VERTEX
8
OBJECT__18
10
68.099998
20
-110.000000
30
-26.200001
70
192
0
VERTEX
8
OBJECT__18
10
68.099998
20
-104.210999
30
-25.283001
70
192
0
VERTEX
8
OBJECT__18
10
68.400002
20
-101.996002
30
-24.632000
70
192
0
VERTEX
8
OBJECT__18
10
68.400002
20
-118.003998
30
-24.632000
70
192
0
VERTEX
8
OBJECT__18
10
68.099998
20
-115.789001
30
-25.283001
70
192
0
VERTEX
8
OBJECT__18
10
68.099998
20
-118.096001
30
-24.917999
70
192
0
VERTEX
8
OBJECT__18
10
68.099998
20
-125.400002
30
-21.195999
70
192
0
VERTEX
8
OBJECT__18
10
68.400002
20
-130.953995
30
-15.224000
70
192
0
VERTEX
8
OBJECT__18
10
68.099998
20
-131.195999
30
-15.400000
70
192
0
VERTEX
8
OBJECT__18
10
68.099998
20
-126.223999
30
-20.372000
70
192
0
VERTEX
8
OBJECT__18
10
68.400002
20
-125.223999
30
-20.954000
70
192
0
VERTEX
8
OBJECT__18
10
68.400002
20
-134.632004
30
-8.004000
70
192
0
VERTEX
8
OBJECT__18
10
68.099998
20
-133.324005
30
-11.224000
70
192
0
VERTEX
8
OBJECT__18
10
68.099998
20
-134.917999
30
-8.096000
70
192
0
VERTEX
8
OBJECT__18
10
68.099998
20
-136.199997
30
0.000000
70
192
0
VERTEX
8
OBJECT__18
10
68.400002
20
-135.899994
30
0.000000
70
192
0
VERTEX
8
OBJECT__18
10
68.400002
20
-134.632004
30
8.004000
70
192
0
VERTEX
8
OBJECT__18
10
68.400002
20
-130.953995
30
15.224000
70
192
0
VERTEX
8
OBJECT__18
10
68.099998
20
-131.195999
30
15.400000
70
192
0
VERTEX
8
OBJECT__18
10
68.099998
20
-133.324005
30
11.224000
70
192
0
VERTEX
8
OBJECT__18
10
68.400002
20
-125.223999
30
20.954000
70
192
0
VERTEX
8
OBJECT__18
10
68.099998
20
-126.223999
30
20.372000
70
192
0
VERTEX
8
OBJECT__18
10
68.099998
20
-125.400002
30
21.195999
70
192
0
VERTEX
8
OBJECT__18
10
68.099998
20
-118.096001
30
24.917999
70
192
0
VERTEX
8
OBJECT__18
10
68.400002
20
-110.000000
30
25.900000
70
192
0
VERTEX
8
OBJECT__18
10
68.099998
20
-110.000000
30
26.200001
70
192
0
VERTEX
8
OBJECT__18
10
68.099998
20
-115.789001
30
25.283001
70
192
0
VERTEX
8
OBJECT__18
10
68.400002
20
-118.003998
30
24.632000
70
192
0
VERTEX
8
OBJECT__18
10
68.400002
20
-101.996002
30
24.632000
70
192
0
VERTEX
8
OBJECT__18
10
68.099998
20
-104.210999
30
25.283001
70
192
0
VERTEX
8
OBJECT__18
10
68.099998
20
-101.903999
30
24.917999
70
192
0
VERTEX
8
OBJECT__18
10
68.400002
20
-94.776001
30
20.954000
70
192
0
VERTEX
8
OBJECT__18
10
68.400002
20
-89.045998
30
15.224000
70
192
0
VERTEX
8
OBJECT__18
10
68.099998
20
-88.804001
30
15.400000
70
192
0
VERTEX
8
OBJECT__18
10
68.099998
20
-93.776001
30
20.372000
70
192
0
VERTEX
8
OBJECT__18
10
68.400002
20
-85.367996
30
8.004000
70
192
0
VERTEX
8
OBJECT__18
10
68.099998
20
-86.676003
30
11.224000
70
192
0
VERTEX
8
OBJECT__18
10
68.099998
20
-85.082001
30
8.096000
70
192
0
VERTEX
8
OBJECT__18
10
68.099998
20
-94.599998
30
21.195999
70
192
0
VERTEX
8
OBJECT__18
10
68.099998
20
-134.917999
30
8.096000
70
192
0
VERTEX
8
OBJECT__18
10
68.099998
20
-85.082001
30
-8.096000
70
192
0
VERTEX
8
OBJECT__18
10
0
20
0
30
0
70
128
71
1
72
2
73
3
0
VERTEX
8
OBJECT__18
10
0
20
0
30
0
70
128
71
4
72
5
73
6
0
VERTEX
8
OBJECT__18
10
0
20
0
30
0
70
128
71
6
72
3
73
4
0
VERTEX
8
OBJECT__18
10
0
20
0
30
0
70
128
71
4
72
7
73
8
0
VERTEX
8
OBJECT__18
10
0
20
0
30
0
70
128
71
7
72
9
73
8
0
VERTEX
8
OBJECT__18
10
0
20
0
30
0
70
128
71
10
72
9
73
7
0
VERTEX
8
OBJECT__18
10
0
20
0
30
0
70
128
71
11
72
12
73
13
0
VERTEX
8
OBJECT__18
10
0
20
0
30
0
70
128
71
13
72
14
73
11
0
VERTEX
8
OBJECT__18
10
0
20
0
30
0
70
128
71
11
72
15
73
16
0
VERTEX
8
OBJECT__18
10
0
20
0
30
0
70
128
71
15
72
17
73
16
0
VERTEX
8
OBJECT__18
10
0
20
0
30
0
70
128
71
18
72
17
73
15
0
VERTEX
8
OBJECT__18
10
0
20
0
30
0
70
128
71
19
72
20
73
21
0
VERTEX
8
OBJECT__18
10
0
20
0
30
0
70
128
71
21
72
22
73
19
0
VERTEX
8
OBJECT__18
10
0
20
0
30
0
70
128
71
19
72
23
73
24
0
VERTEX
8
OBJECT__18
10
0
20
0
30
0
70
128
71
23
72
25
73
24
0
VERTEX
8
OBJECT__18
10
0
20
0
30
0
70
128
71
26
72
25
73
23
0
VERTEX
8
OBJECT__18
10
0
20
0
30
0
70
128
71
26
72
27
73
28
0
VERTEX
8
OBJECT__18
10
0
20
0
30
0
70
128
71
29
72
30
73
31
0
VERTEX
8
OBJECT__18
10
0
20
0
30
0
70
128
71
31
72
28
73
29
0
VERTEX
8
OBJECT__18
10
0
20
0
30
0
70
128
71
29
72
32
73
33
0
VERTEX
8
OBJECT__18
10
0
20
0
30
0
70
128
71
32
72
34
73
33
0
VERTEX
8
OBJECT__18
10
0
20
0
30
0
70
128
71
35
72
34
73
32
0
VERTEX
8
OBJECT__18
10
0
20
0
30
0
70
128
71
36
72
37
73
38
0
VERTEX
8
OBJECT__18
10
0
20
0
30
0
70
128
71
38
72
39
73
36
0
VERTEX
8
OBJECT__18
10
0
20
0
30
0
70
128
71
36
72
40
73
41
0
VERTEX
8
OBJECT__18
10
0
20
0
30
0
70
128
71
40
72
42
73
41
0
VERTEX
8
OBJECT__18
10
0
20
0
30
0
70
128
71
42
72
40
73
43
0
VERTEX
8
OBJECT__18
10
0
20
0
30
0
70
128
71
44
72
45
73
46
0
VERTEX
8
OBJECT__18
10
0
20
0
30
0
70
128
71
46
72
43
73
44
0
VERTEX
8
OBJECT__18
10
0
20
0
30
0
70
128
71
44
72
47
73
48
0
VERTEX
8
OBJECT__18
10
0
20
0
30
0
70
128
71
47
72
49
73
48
0
VERTEX
8
OBJECT__18
10
0
20
0
30
0
70
128
71
49
72
47
73
2
0
VERTEX
8
OBJECT__18
10
0
20
0
30
0
70
128
71
2
72
1
73
49
0
VERTEX
8
OBJECT__18
10
0
20
0
30
0
70
128
71
48
72
45
73
44
0
VERTEX
8
OBJECT__18
10
0
20
0
30
0
70
128
71
46
72
50
73
43
0
VERTEX
8
OBJECT__18
10
0
20
0
30
0
70
128
71
43
72
50
73
42
0
VERTEX
8
OBJECT__18
10
0
20
0
30
0
70
128
71
41
72
37
73
36
0
VERTEX
8
OBJECT__18
10
0
20
0
30
0
70
128
71
38
72
35
73
39
0
VERTEX
8
OBJECT__18
10
0
20
0
30
0
70
128
71
32
72
39
73
35
0
VERTEX
8
OBJECT__18
10
0
20
0
30
0
70
128
71
33
72
30
73
29
0
VERTEX
8
OBJECT__18
10
0
20
0
30
0
70
128
71
31
72
51
73
28
0
VERTEX
8
OBJECT__18
10
0
20
0
30
0
70
128
71
28
72
51
73
26
0
VERTEX
8
OBJECT__18
10
0
20
0
30
0
70
128
71
23
72
27
73
26
0
VERTEX
8
OBJECT__18
10
0
20
0
30
0
70
128
71
24
72
20
73
19
0
VERTEX
8
OBJECT__18
10
0
20
0
30
0
70
128
71
21
72
18
73
22
0
VERTEX
8
OBJECT__18
10
0
20
0
30
0
70
128
71
15
72
22
73
18
0
VERTEX
8
OBJECT__18
10
0
20
0
30
0
70
128
71
16
72
12
73
11
0
VERTEX
8
OBJECT__18
10
0
20
0
30
0
70
128
71
13
72
10
73
14
0
VERTEX
8
OBJECT__18
10
0
20
0
30
0
70
128
71
7
72
14
73
10
0
VERTEX
8
OBJECT__18
10
0
20
0
30
0
70
128
71
8
72
5
73
4
0
VERTEX
8
OBJECT__18
10
0
20
0
30
0
70
128
71
6
72
52
73
3
0
VERTEX
8
OBJECT__18
10
0
20
0
30
0
70
128
71
3
72
52
73
1
0
SEQEND
8
OBJECT__18
0
POLYLINE
8
OBJECT__20
66
1
70
64
71
30
72
30
62
253
0
VERTEX
8
OBJECT__20
10
68.400002
20
-116.000000
30
-5.268000
70
192
0
VERTEX
8
OBJECT__20
10
68.400002
20
-118.003998
30
-24.632000
70
192
0
VERTEX
8
OBJECT__20
10
68.400002
20
-110.000000
30
-25.900000
70
192
0
VERTEX
8
OBJECT__20
10
68.400002
20
-94.776001
30
-20.954000
70
192
0
VERTEX
8
OBJECT__20
10
68.400002
20
-89.045998
30
-15.224000
70
192
0
VERTEX
8
OBJECT__20
10
68.400002
20
-100.275002
30
-3.725000
70
192
0
VERTEX
8
OBJECT__20
10
68.400002
20
-104.000000
30
5.268000
70
192
0
VERTEX
8
OBJECT__20
10
68.400002
20
-101.996002
30
24.632000
70
192
0
VERTEX
8
OBJECT__20
10
68.400002
20
-110.000000
30
25.900000
70
192
0
VERTEX
8
OBJECT__20
10
68.400002
20
-125.223999
30
20.954000
70
192
0
VERTEX
8
OBJECT__20
10
68.400002
20
-130.953995
30
15.224000
70
192
0
VERTEX
8
OBJECT__20
10
68.400002
20
-119.724998
30
3.725000
70
192
0
VERTEX
8
OBJECT__20
10
68.400002
20
-104.000000
30
-5.268000
70
192
0
VERTEX
8
OBJECT__20
10
68.400002
20
-101.996002
30
-24.632000
70
192
0
VERTEX
8
OBJECT__20
10
68.400002
20
-85.367996
30
-8.004000
70
192
0
VERTEX
8
OBJECT__20
10
68.400002
20
-84.099998
30
0.000000
70
192
0
VERTEX
8
OBJECT__20
10
68.400002
20
-98.732002
30
0.000000
70
192
0
VERTEX
8
OBJECT__20
10
68.400002
20
-94.776001
30
20.954000
70
192
0
VERTEX
8
OBJECT__20
10
68.400002
20
-100.275002
30
3.725000
70
192
0
VERTEX
8
OBJECT__20
10
68.400002
20
-116.000000
30
5.268000
70
192
0
VERTEX
8
OBJECT__20
10
68.400002
20
-118.003998
30
24.632000
70
192
0
VERTEX
8
OBJECT__20
10
68.400002
20
-85.367996
30
8.004000
70
192
0
VERTEX
8
OBJECT__20
10
68.400002
20
-89.045998
30
15.224000
70
192
0
VERTEX
8
OBJECT__20
10
68.400002
20
-134.632004
30
8.004000
70
192
0
VERTEX
8
OBJECT__20
10
68.400002
20
-135.899994
30
0.000000
70
192
0
VERTEX
8
OBJECT__20
10
68.400002
20
-121.267998
30
0.000000
70
192
0
VERTEX
8
OBJECT__20
10
68.400002
20
-134.632004
30
-8.004000
70
192
0
VERTEX
8
OBJECT__20
10
68.400002
20
-119.724998
30
-3.725000
70
192
0
VERTEX
8
OBJECT__20
10
68.400002
20
-125.223999
30
-20.954000
70
192
0
VERTEX
8
OBJECT__20
10
68.400002
20
-130.953995
30
-15.224000
70
192
0
VERTEX
8
OBJECT__20
10
0
20
0
30
0
70
128
71
1
72
2
73
3
0
VERTEX
8
OBJECT__20
10
0
20
0
30
0
70
128
71
4
72
5
73
6
0
VERTEX
8
OBJECT__20
10
0
20
0
30
0
70
128
71
7
72
8
73
9
0
VERTEX
8
OBJECT__20
10
0
20
0
30
0
70
128
71
10
72
11
73
12
0
VERTEX
8
OBJECT__20
10
0
20
0
30
0
70
128
71
3
72
13
73
1
0
VERTEX
8
OBJECT__20
10
0
20
0
30
0
70
128
71
13
72
14
73
4
0
VERTEX
8
OBJECT__20
10
0
20
0
30
0
70
128
71
15
72
16
73
17
0
VERTEX
8
OBJECT__20
10
0
20
0
30
0
70
128
71
18
72
7
73
19
0
VERTEX
8
OBJECT__20
10
0
20
0
30
0
70
128
71
9
72
20
73
7
0
VERTEX
8
OBJECT__20
10
0
20
0
30
0
70
128
71
20
72
21
73
10
0
VERTEX
8
OBJECT__20
10
0
20
0
30
0
70
128
71
6
72
13
73
4
0
VERTEX
8
OBJECT__20
10
0
20
0
30
0
70
128
71
6
72
5
73
15
0
VERTEX
8
OBJECT__20
10
0
20
0
30
0
70
128
71
22
72
19
73
17
0
VERTEX
8
OBJECT__20
10
0
20
0
30
0
70
128
71
19
72
23
73
18
0
VERTEX
8
OBJECT__20
10
0
20
0
30
0
70
128
71
12
72
20
73
10
0
VERTEX
8
OBJECT__20
10
0
20
0
30
0
70
128
71
24
72
25
73
26
0
VERTEX
8
OBJECT__20
10
0
20
0
30
0
70
128
71
17
72
6
73
15
0
VERTEX
8
OBJECT__20
10
0
20
0
30
0
70
128
71
17
72
16
73
22
0
VERTEX
8
OBJECT__20
10
0
20
0
30
0
70
128
71
9
72
21
73
20
0
VERTEX
8
OBJECT__20
10
0
20
0
30
0
70
128
71
12
72
11
73
24
0
VERTEX
8
OBJECT__20
10
0
20
0
30
0
70
128
71
27
72
28
73
26
0
VERTEX
8
OBJECT__20
10
0
20
0
30
0
70
128
71
29
72
1
73
28
0
VERTEX
8
OBJECT__20
10
0
20
0
30
0
70
128
71
22
72
23
73
19
0
VERTEX
8
OBJECT__20
10
0
20
0
30
0
70
128
71
26
72
12
73
24
0
VERTEX
8
OBJECT__20
10
0
20
0
30
0
70
128
71
26
72
25
73
27
0
VERTEX
8
OBJECT__20
10
0
20
0
30
0
70
128
71
28
72
30
73
29
0
VERTEX
8
OBJECT__20
10
0
20
0
30
0
70
128
71
18
72
8
73
7
0
VERTEX
8
OBJECT__20
10
0
20
0
30
0
70
128
71
29
72
2
73
1
0
VERTEX
8
OBJECT__20
10
0
20
0
30
0
70
128
71
27
72
30
73
28
0
VERTEX
8
OBJECT__20
10
0
20
0
30
0
70
128
71
3
72
14
73
13
0
SEQEND
8
OBJECT__20
0
POLYLINE
8
OBJECT__21
66
1
70
64
71
35
72
35
62
253
0
VERTEX
8
OBJECT__21
10
53.000000
20
-95.099998
30
25.808001
70
192
0
VERTEX
8
OBJECT__21
10
53.000000
20
-93.728996
30
21.546000
70
192
0
VERTEX
8
OBJECT__21
10
53.000000
20
-102.611000
30
25.969000
70
192
0
VERTEX
8
OBJECT__21
10
53.000000
20
-87.171997
30
19.155001
70
192
0
VERTEX
8
OBJECT__21
10
53.000000
20
-87.043999
30
14.214000
70
192
0
VERTEX
8
OBJECT__21
10
53.000000
20
-80.199997
30
0.000000
70
192
0
VERTEX
8
OBJECT__21
10
53.000000
20
-81.997002
30
-10.192000
70
192
0
VERTEX
8
OBJECT__21
10
53.000000
20
-83.459999
30
-4.961000
70
192
0
VERTEX
8
OBJECT__21
10
53.000000
20
-87.171997
30
-19.155001
70
192
0
VERTEX
8
OBJECT__21
10
53.000000
20
-87.043999
30
-14.214000
70
192
0
VERTEX
8
OBJECT__21
10
53.000000
20
-95.099998
30
-25.808001
70
192
0
VERTEX
8
OBJECT__21
10
53.000000
20
-93.728996
30
-21.546000
70
192
0
VERTEX
8
OBJECT__21
10
53.000000
20
-81.997002
30
10.192000
70
192
0
VERTEX
8
OBJECT__21
10
53.000000
20
-83.459999
30
4.961000
70
192
0
VERTEX
8
OBJECT__21
10
53.000000
20
-104.824997
30
-29.347000
70
192
0
VERTEX
8
OBJECT__21
10
53.000000
20
-115.175003
30
-29.347000
70
192
0
VERTEX
8
OBJECT__21
10
53.000000
20
-112.490997
30
-26.885000
70
192
0
VERTEX
8
OBJECT__21
10
53.000000
20
-124.900002
30
-25.808001
70
192
0
VERTEX
8
OBJECT__21
10
53.000000
20
-122.035004
30
-24.169001
70
192
0
VERTEX
8
OBJECT__21
10
53.000000
20
-102.611000
30
-25.969000
70
192
0
VERTEX
8
OBJECT__21
10
53.000000
20
-104.824997
30
29.347000
70
192
0
VERTEX
8
OBJECT__21
10
53.000000
20
-112.490997
30
26.885000
70
192
0
VERTEX
8
OBJECT__21
10
53.000000
20
-132.828003
30
-19.155001
70
192
0
VERTEX
8
OBJECT__21
10
53.000000
20
-129.953003
30
-18.190001
70
192
0
VERTEX
8
OBJECT__21
10
53.000000
20
-138.003006
30
-10.192000
70
192
0
VERTEX
8
OBJECT__21
10
53.000000
20
-135.177002
30
-9.754000
70
192
0
VERTEX
8
OBJECT__21
10
53.000000
20
-138.003006
30
10.192000
70
192
0
VERTEX
8
OBJECT__21
10
53.000000
20
-135.177002
30
9.754000
70
192
0
VERTEX
8
OBJECT__21
10
53.000000
20
-137.000000
30
0.000000
70
192
0
VERTEX
8
OBJECT__21
10
53.000000
20
-132.828003
30
19.155001
70
192
0
VERTEX
8
OBJECT__21
10
53.000000
20
-129.953003
30
18.190001
70
192
0
VERTEX
8
OBJECT__21
10
53.000000
20
-124.900002
30
25.808001
70
192
0
VERTEX
8
OBJECT__21
10
53.000000
20
-122.035004
30
24.169001
70
192
0
VERTEX
8
OBJECT__21
10
53.000000
20
-115.175003
30
29.347000
70
192
0
VERTEX
8
OBJECT__21
10
53.000000
20
-139.800003
30
0.000000
70
192
0
VERTEX
8
OBJECT__21
10
0
20
0
30
0
70
128
71
1
72
2
73
3
0
VERTEX
8
OBJECT__21
10
0
20
0
30
0
70
128
71
4
72
5
73
2
0
VERTEX
8
OBJECT__21
10
0
20
0
30
0
70
128
71
6
72
7
73
8
0
VERTEX
8
OBJECT__21
10
0
20
0
30
0
70
128
71
7
72
9
73
10
0
VERTEX
8
OBJECT__21
10
0
20
0
30
0
70
128
71
9
72
11
73
12
0
VERTEX
8
OBJECT__21
10
0
20
0
30
0
70
128
71
2
72
1
73
4
0
VERTEX
8
OBJECT__21
10
0
20
0
30
0
70
128
71
13
72
14
73
5
0
VERTEX
8
OBJECT__21
10
0
20
0
30
0
70
128
71
8
72
14
73
6
0
VERTEX
8
OBJECT__21
10
0
20
0
30
0
70
128
71
12
72
10
73
9
0
VERTEX
8
OBJECT__21
10
0
20
0
30
0
70
128
71
15
72
16
73
17
0
VERTEX
8
OBJECT__21
10
0
20
0
30
0
70
128
71
16
72
18
73
19
0
VERTEX
8
OBJECT__21
10
0
20
0
30
0
70
128
71
5
72
4
73
13
0
VERTEX
8
OBJECT__21
10
0
20
0
30
0
70
128
71
10
72
8
73
7
0
VERTEX
8
OBJECT__21
10
0
20
0
30
0
70
128
71
11
72
15
73
20
0
VERTEX
8
OBJECT__21
10
0
20
0
30
0
70
128
71
19
72
17
73
16
0
VERTEX
8
OBJECT__21
10
0
20
0
30
0
70
128
71
14
72
13
73
6
0
VERTEX
8
OBJECT__21
10
0
20
0
30
0
70
128
71
17
72
20
73
15
0
VERTEX
8
OBJECT__21
10
0
20
0
30
0
70
128
71
21
72
3
73
22
0
VERTEX
8
OBJECT__21
10
0
20
0
30
0
70
128
71
20
72
12
73
11
0
VERTEX
8
OBJECT__21
10
0
20
0
30
0
70
128
71
18
72
23
73
24
0
VERTEX
8
OBJECT__21
10
0
20
0
30
0
70
128
71
23
72
25
73
26
0
VERTEX
8
OBJECT__21
10
0
20
0
30
0
70
128
71
3
72
21
73
1
0
VERTEX
8
OBJECT__21
10
0
20
0
30
0
70
128
71
26
72
24
73
23
0
VERTEX
8
OBJECT__21
10
0
20
0
30
0
70
128
71
27
72
28
73
29
0
VERTEX
8
OBJECT__21
10
0
20
0
30
0
70
128
71
30
72
31
73
28
0
VERTEX
8
OBJECT__21
10
0
20
0
30
0
70
128
71
32
72
33
73
31
0
VERTEX
8
OBJECT__21
10
0
20
0
30
0
70
128
71
34
72
22
73
33
0
VERTEX
8
OBJECT__21
10
0
20
0
30
0
70
128
71
24
72
19
73
18
0
VERTEX
8
OBJECT__21
10
0
20
0
30
0
70
128
71
25
72
35
73
29
0
VERTEX
8
OBJECT__21
10
0
20
0
30
0
70
128
71
28
72
27
73
30
0
VERTEX
8
OBJECT__21
10
0
20
0
30
0
70
128
71
33
72
32
73
34
0
VERTEX
8
OBJECT__21
10
0
20
0
30
0
70
128
71
29
72
26
73
25
0
VERTEX
8
OBJECT__21
10
0
20
0
30
0
70
128
71
31
72
30
73
32
0
VERTEX
8
OBJECT__21
10
0
20
0
30
0
70
128
71
29
72
35
73
27
0
VERTEX
8
OBJECT__21
10
0
20
0
30
0
70
128
71
22
72
34
73
21
0
SEQEND
8
OBJECT__21
0
POLYLINE
8
OBJECT__23
66
1
70
64
71
33
72
32
62
253
0
VERTEX
8
OBJECT__23
10
127.578003
20
0.000000
30
1.103000
70
192
0
VERTEX
8
OBJECT__23
10
127.628998
20
-15.282000
30
-19.937000
70
192
0
VERTEX
8
OBJECT__23
10
127.683998
20
-11.139000
30
-22.048000
70
192
0
VERTEX
8
OBJECT__23
10
127.478996
20
-21.034000
30
-14.187000
70
192
0
VERTEX
8
OBJECT__23
10
127.500000
20
-20.216999
30
-15.004000
70
192
0
VERTEX
8
OBJECT__23
10
127.079002
20
-26.000000
30
1.090000
70
192
0
VERTEX
8
OBJECT__23
10
127.228996
20
-25.090000
30
-4.653000
70
192
0
VERTEX
8
OBJECT__23
10
126.867996
20
-24.726999
30
9.122000
70
192
0
VERTEX
8
OBJECT__23
10
126.928001
20
-25.090000
30
6.833000
70
192
0
VERTEX
8
OBJECT__23
10
126.528000
20
-15.282000
30
22.117001
70
192
0
VERTEX
8
OBJECT__23
10
126.656998
20
-20.216999
30
17.184999
70
192
0
VERTEX
8
OBJECT__23
10
126.431000
20
-8.034000
30
25.809000
70
192
0
VERTEX
8
OBJECT__23
10
126.473000
20
-11.139000
30
24.228001
70
192
0
VERTEX
8
OBJECT__23
10
126.528000
20
15.282000
30
22.117001
70
192
0
VERTEX
8
OBJECT__23
10
126.473000
20
11.139000
30
24.228001
70
192
0
VERTEX
8
OBJECT__23
10
126.678001
20
21.034000
30
16.367001
70
192
0
VERTEX
8
OBJECT__23
10
126.656998
20
20.216999
30
17.184999
70
192
0
VERTEX
8
OBJECT__23
10
127.079002
20
26.000000
30
1.090000
70
192
0
VERTEX
8
OBJECT__23
10
126.928001
20
25.090000
30
6.833000
70
192
0
VERTEX
8
OBJECT__23
10
127.289001
20
24.726999
30
-6.942000
70
192
0
VERTEX
8
OBJECT__23
10
127.228996
20
25.090000
30
-4.653000
70
192
0
VERTEX
8
OBJECT__23
10
127.628998
20
15.282000
30
-19.937000
70
192
0
VERTEX
8
OBJECT__23
10
127.500000
20
20.216999
30
-15.004000
70
192
0
VERTEX
8
OBJECT__23
10
127.725998
20
8.034000
30
-23.629000
70
192
0
VERTEX
8
OBJECT__23
10
127.683998
20
11.139000
30
-22.048000
70
192
0
VERTEX
8
OBJECT__23
10
127.759003
20
0.000000
30
-24.900999
70
192
0
VERTEX
8
OBJECT__23
10
127.478996
20
21.034000
30
-14.187000
70
192
0
VERTEX
8
OBJECT__23
10
126.867996
20
24.726999
30
9.122000
70
192
0
VERTEX
8
OBJECT__23
10
126.431000
20
8.034000
30
25.809000
70
192
0
VERTEX
8
OBJECT__23
10
126.398003
20
0.000000
30
27.080999
70
192
0
VERTEX
8
OBJECT__23
10
126.678001
20
-21.034000
30
16.367001
70
192
0
VERTEX
8
OBJECT__23
10
127.289001
20
-24.726999
30
-6.942000
70
192
0
VERTEX
8
OBJECT__23
10
127.725998
20
-8.034000
30
-23.629000
70
192
0
VERTEX
8
OBJECT__23
10
0
20
0
30
0
70
128
71
1
72
2
73
3
0
VERTEX
8
OBJECT__23
10
0
20
0
30
0
70
128
71
1
72
4
73
5
0
VERTEX
8
OBJECT__23
10
0
20
0
30
0
70
128
71
1
72
6
73
7
0
VERTEX
8
OBJECT__23
10
0
20
0
30
0
70
128
71
1
72
8
73
9
0
VERTEX
8
OBJECT__23
10
0
20
0
30
0
70
128
71
1
72
10
73
11
0
VERTEX
8
OBJECT__23
10
0
20
0
30
0
70
128
71
1
72
12
73
13
0
VERTEX
8
OBJECT__23
10
0
20
0
30
0
70
128
71
1
72
14
73
15
0
VERTEX
8
OBJECT__23
10
0
20
0
30
0
70
128
71
1
72
16
73
17
0
VERTEX
8
OBJECT__23
10
0
20
0
30
0
70
128
71
1
72
18
73
19
0
VERTEX
8
OBJECT__23
10
0
20
0
30
0
70
128
71
1
72
20
73
21
0
VERTEX
8
OBJECT__23
10
0
20
0
30
0
70
128
71
1
72
22
73
23
0
VERTEX
8
OBJECT__23
10
0
20
0
30
0
70
128
71
1
72
24
73
25
0
VERTEX
8
OBJECT__23
10
0
20
0
30
0
70
128
71
26
72
24
73
1
0
VERTEX
8
OBJECT__23
10
0
20
0
30
0
70
128
71
25
72
22
73
1
0
VERTEX
8
OBJECT__23
10
0
20
0
30
0
70
128
71
23
72
27
73
1
0
VERTEX
8
OBJECT__23
10
0
20
0
30
0
70
128
71
27
72
20
73
1
0
VERTEX
8
OBJECT__23
10
0
20
0
30
0
70
128
71
21
72
18
73
1
0
VERTEX
8
OBJECT__23
10
0
20
0
30
0
70
128
71
19
72
28
73
1
0
VERTEX
8
OBJECT__23
10
0
20
0
30
0
70
128
71
28
72
16
73
1
0
VERTEX
8
OBJECT__23
10
0
20
0
30
0
70
128
71
17
72
14
73
1
0
VERTEX
8
OBJECT__23
10
0
20
0
30
0
70
128
71
15
72
29
73
1
0
VERTEX
8
OBJECT__23
10
0
20
0
30
0
70
128
71
29
72
30
73
1
0
VERTEX
8
OBJECT__23
10
0
20
0
30
0
70
128
71
30
72
12
73
1
0
VERTEX
8
OBJECT__23
10
0
20
0
30
0
70
128
71
13
72
10
73
1
0
VERTEX
8
OBJECT__23
10
0
20
0
30
0
70
128
71
11
72
31
73
1
0
VERTEX
8
OBJECT__23
10
0
20
0
30
0
70
128
71
31
72
8
73
1
0
VERTEX
8
OBJECT__23
10
0
20
0
30
0
70
128
71
9
72
6
73
1
0
VERTEX
8
OBJECT__23
10
0
20
0
30
0
70
128
71
7
72
32
73
1
0
VERTEX
8
OBJECT__23
10
0
20
0
30
0
70
128
71
32
72
4
73
1
0
VERTEX
8
OBJECT__23
10
0
20
0
30
0
70
128
71
5
72
2
73
1
0
VERTEX
8
OBJECT__23
10
0
20
0
30
0
70
128
71
3
72
33
73
1
0
VERTEX
8
OBJECT__23
10
0
20
0
30
0
70
128
71
33
72
26
73
1
0
SEQEND
8
OBJECT__23
0
POLYLINE
8
OBJECT__24
66
1
70
64
71
62
72
64
62
253
0
VERTEX
8
OBJECT__24
10
93.014999
20
20.327999
30
-16.018000
70
192
0
VERTEX
8
OBJECT__24
10
92.741997
20
25.348000
30
-5.597000
70
192
0
VERTEX
8
OBJECT__24
10
127.289001
20
24.726999
30
-6.942000
70
192
0
VERTEX
8
OBJECT__24
10
127.228996
20
25.090000
30
-4.653000
70
192
0
VERTEX
8
OBJECT__24
10
127.478996
20
21.034000
30
-14.187000
70
192
0
VERTEX
8
OBJECT__24
10
127.500000
20
20.216999
30
-15.004000
70
192
0
VERTEX
8
OBJECT__24
10
127.628998
20
15.282000
30
-19.937000
70
192
0
VERTEX
8
OBJECT__24
10
93.204002
20
11.281000
30
-23.230000
70
192
0
VERTEX
8
OBJECT__24
10
93.014999
20
-20.327999
30
-16.018000
70
192
0
VERTEX
8
OBJECT__24
10
93.204002
20
-11.281000
30
-23.230000
70
192
0
VERTEX
8
OBJECT__24
10
127.628998
20
-15.282000
30
-19.937000
70
192
0
VERTEX
8
OBJECT__24
10
127.683998
20
-11.139000
30
-22.048000
70
192
0
VERTEX
8
OBJECT__24
10
127.478996
20
-21.034000
30
-14.187000
70
192
0
VERTEX
8
OBJECT__24
10
127.289001
20
-24.726999
30
-6.942000
70
192
0
VERTEX
8
OBJECT__24
10
127.500000
20
-20.216999
30
-15.004000
70
192
0
VERTEX
8
OBJECT__24
10
92.741997
20
-25.348000
30
-5.597000
70
192
0
VERTEX
8
OBJECT__24
10
93.271004
20
0.000000
30
-25.804001
70
192
0
VERTEX
8
OBJECT__24
10
115.712997
20
9.800000
30
-23.298000
70
192
0
VERTEX
8
OBJECT__24
10
127.683998
20
11.139000
30
-22.048000
70
192
0
VERTEX
8
OBJECT__24
10
123.209999
20
9.800000
30
-23.101999
70
192
0
VERTEX
8
OBJECT__24
10
123.261002
20
0.000000
30
-25.018999
70
192
0
VERTEX
8
OBJECT__24
10
127.725998
20
8.034000
30
-23.629000
70
192
0
VERTEX
8
OBJECT__24
10
127.759003
20
0.000000
30
-24.900999
70
192
0
VERTEX
8
OBJECT__24
10
127.725998
20
-8.034000
30
-23.629000
70
192
0
VERTEX
8
OBJECT__24
10
123.209999
20
-9.800000
30
-23.101999
70
192
0
VERTEX
8
OBJECT__24
10
115.712997
20
-9.800000
30
-23.298000
70
192
0
VERTEX
8
OBJECT__24
10
115.763000
20
0.000000
30
-25.215000
70
192
0
VERTEX
8
OBJECT__24
10
92.589996
20
26.000000
30
0.187000
70
192
0
VERTEX
8
OBJECT__24
10
127.079002
20
26.000000
30
1.090000
70
192
0
VERTEX
8
OBJECT__24
10
96.014000
20
24.987000
30
5.998000
70
192
0
VERTEX
8
OBJECT__24
10
126.928001
20
25.090000
30
6.833000
70
192
0
VERTEX
8
OBJECT__24
10
126.867996
20
24.726999
30
9.122000
70
192
0
VERTEX
8
OBJECT__24
10
97.935997
20
24.417000
30
9.262000
70
192
0
VERTEX
8
OBJECT__24
10
102.255997
20
20.226000
30
16.596001
70
192
0
VERTEX
8
OBJECT__24
10
126.656998
20
20.216999
30
17.184999
70
192
0
VERTEX
8
OBJECT__24
10
126.678001
20
21.034000
30
16.367001
70
192
0
VERTEX
8
OBJECT__24
10
126.528000
20
15.282000
30
22.117001
70
192
0
VERTEX
8
OBJECT__24
10
106.103996
20
12.890000
30
23.129000
70
192
0
VERTEX
8
OBJECT__24
10
106.467003
20
11.195000
30
23.743999
70
192
0
VERTEX
8
OBJECT__24
10
126.473000
20
11.139000
30
24.228001
70
192
0
VERTEX
8
OBJECT__24
10
102.630997
20
19.863001
30
17.233000
70
192
0
VERTEX
8
OBJECT__24
10
126.398003
20
0.000000
30
27.080999
70
192
0
VERTEX
8
OBJECT__24
10
126.431000
20
8.034000
30
25.809000
70
192
0
VERTEX
8
OBJECT__24
10
107.931999
20
4.348000
30
26.231001
70
192
0
VERTEX
8
OBJECT__24
10
106.445999
20
-11.178000
30
23.709999
70
192
0
VERTEX
8
OBJECT__24
10
126.473000
20
-11.139000
30
24.228001
70
192
0
VERTEX
8
OBJECT__24
10
126.431000
20
-8.034000
30
25.809000
70
192
0
VERTEX
8
OBJECT__24
10
107.913002
20
0.003000
30
26.198999
70
192
0
VERTEX
8
OBJECT__24
10
107.891998
20
-4.724000
30
26.164000
70
192
0
VERTEX
8
OBJECT__24
10
126.656998
20
-20.216999
30
17.184999
70
192
0
VERTEX
8
OBJECT__24
10
105.988998
20
-13.220000
30
22.934000
70
192
0
VERTEX
8
OBJECT__24
10
102.456001
20
-20.107000
30
16.934999
70
192
0
VERTEX
8
OBJECT__24
10
126.528000
20
-15.282000
30
22.117001
70
192
0
VERTEX
8
OBJECT__24
10
126.867996
20
-24.726999
30
9.122000
70
192
0
VERTEX
8
OBJECT__24
10
126.678001
20
-21.034000
30
16.367001
70
192
0
VERTEX
8
OBJECT__24
10
102.274002
20
-20.277000
30
16.627001
70
192
0
VERTEX
8
OBJECT__24
10
97.721001
20
-24.546000
30
8.897000
70
192
0
VERTEX
8
OBJECT__24
10
126.928001
20
-25.090000
30
6.833000
70
192
0
VERTEX
8
OBJECT__24
10
127.079002
20
-26.000000
30
1.090000
70
192
0
VERTEX
8
OBJECT__24
10
96.018997
20
-25.028000
30
6.008000
70
192
0
VERTEX
8
OBJECT__24
10
92.589996
20
-26.000000
30
0.187000
70
192
0
VERTEX
8
OBJECT__24
10
127.228996
20
-25.090000
30
-4.653000
70
192
0
VERTEX
8
OBJECT__24
10
0
20
0
30
0
70
128
71
1
72
2
73
3
0
VERTEX
8
OBJECT__24
10
0
20
0
30
0
70
128
71
2
72
4
73
3
0
VERTEX
8
OBJECT__24
10
0
20
0
30
0
70
128
71
3
72
5
73
1
0
VERTEX
8
OBJECT__24
10
0
20
0
30
0
70
128
71
1
72
6
73
7
0
VERTEX
8
OBJECT__24
10
0
20
0
30
0
70
128
71
7
72
8
73
1
0
VERTEX
8
OBJECT__24
10
0
20
0
30
0
70
128
71
9
72
10
73
11
0
VERTEX
8
OBJECT__24
10
0
20
0
30
0
70
128
71
10
72
12
73
11
0
VERTEX
8
OBJECT__24
10
0
20
0
30
0
70
128
71
9
72
13
73
14
0
VERTEX
8
OBJECT__24
10
0
20
0
30
0
70
128
71
9
72
15
73
13
0
VERTEX
8
OBJECT__24
10
0
20
0
30
0
70
128
71
14
72
16
73
9
0
VERTEX
8
OBJECT__24
10
0
20
0
30
0
70
128
71
17
72
8
73
18
0
VERTEX
8
OBJECT__24
10
0
20
0
30
0
70
128
71
19
72
20
73
18
0
VERTEX
8
OBJECT__24
10
0
20
0
30
0
70
128
71
21
72
20
73
22
0
VERTEX
8
OBJECT__24
10
0
20
0
30
0
70
128
71
20
72
19
73
22
0
VERTEX
8
OBJECT__24
10
0
20
0
30
0
70
128
71
22
72
23
73
21
0
VERTEX
8
OBJECT__24
10
0
20
0
30
0
70
128
71
18
72
8
73
19
0
VERTEX
8
OBJECT__24
10
0
20
0
30
0
70
128
71
21
72
23
73
24
0
VERTEX
8
OBJECT__24
10
0
20
0
30
0
70
128
71
24
72
25
73
21
0
VERTEX
8
OBJECT__24
10
0
20
0
30
0
70
128
71
12
72
10
73
26
0
VERTEX
8
OBJECT__24
10
0
20
0
30
0
70
128
71
26
72
25
73
12
0
VERTEX
8
OBJECT__24
10
0
20
0
30
0
70
128
71
17
72
27
73
26
0
VERTEX
8
OBJECT__24
10
0
20
0
30
0
70
128
71
26
72
10
73
17
0
VERTEX
8
OBJECT__24
10
0
20
0
30
0
70
128
71
28
72
29
73
4
0
VERTEX
8
OBJECT__24
10
0
20
0
30
0
70
128
71
29
72
28
73
30
0
VERTEX
8
OBJECT__24
10
0
20
0
30
0
70
128
71
30
72
31
73
29
0
VERTEX
8
OBJECT__24
10
0
20
0
30
0
70
128
71
32
72
33
73
34
0
VERTEX
8
OBJECT__24
10
0
20
0
30
0
70
128
71
34
72
35
73
36
0
VERTEX
8
OBJECT__24
10
0
20
0
30
0
70
128
71
34
72
36
73
32
0
VERTEX
8
OBJECT__24
10
0
20
0
30
0
70
128
71
31
72
30
73
33
0
VERTEX
8
OBJECT__24
10
0
20
0
30
0
70
128
71
37
72
38
73
39
0
VERTEX
8
OBJECT__24
10
0
20
0
30
0
70
128
71
39
72
40
73
37
0
VERTEX
8
OBJECT__24
10
0
20
0
30
0
70
128
71
35
72
34
73
41
0
VERTEX
8
OBJECT__24
10
0
20
0
30
0
70
128
71
41
72
38
73
35
0
VERTEX
8
OBJECT__24
10
0
20
0
30
0
70
128
71
42
72
43
73
44
0
VERTEX
8
OBJECT__24
10
0
20
0
30
0
70
128
71
39
72
44
73
43
0
VERTEX
8
OBJECT__24
10
0
20
0
30
0
70
128
71
43
72
40
73
39
0
VERTEX
8
OBJECT__24
10
0
20
0
30
0
70
128
71
45
72
46
73
47
0
VERTEX
8
OBJECT__24
10
0
20
0
30
0
70
128
71
42
72
48
73
49
0
VERTEX
8
OBJECT__24
10
0
20
0
30
0
70
128
71
49
72
47
73
42
0
VERTEX
8
OBJECT__24
10
0
20
0
30
0
70
128
71
50
72
51
73
52
0
VERTEX
8
OBJECT__24
10
0
20
0
30
0
70
128
71
53
72
46
73
45
0
VERTEX
8
OBJECT__24
10
0
20
0
30
0
70
128
71
51
72
50
73
53
0
VERTEX
8
OBJECT__24
10
0
20
0
30
0
70
128
71
45
72
51
73
53
0
VERTEX
8
OBJECT__24
10
0
20
0
30
0
70
128
71
54
72
55
73
56
0
VERTEX
8
OBJECT__24
10
0
20
0
30
0
70
128
71
56
72
57
73
54
0
VERTEX
8
OBJECT__24
10
0
20
0
30
0
70
128
71
57
72
58
73
54
0
VERTEX
8
OBJECT__24
10
0
20
0
30
0
70
128
71
55
72
50
73
56
0
VERTEX
8
OBJECT__24
10
0
20
0
30
0
70
128
71
59
72
58
73
60
0
VERTEX
8
OBJECT__24
10
0
20
0
30
0
70
128
71
61
72
16
73
62
0
VERTEX
8
OBJECT__24
10
0
20
0
30
0
70
128
71
62
72
59
73
61
0
VERTEX
8
OBJECT__24
10
0
20
0
30
0
70
128
71
60
72
61
73
59
0
VERTEX
8
OBJECT__24
10
0
20
0
30
0
70
128
71
57
72
60
73
58
0
VERTEX
8
OBJECT__24
10
0
20
0
30
0
70
128
71
52
72
56
73
50
0
VERTEX
8
OBJECT__24
10
0
20
0
30
0
70
128
71
47
72
49
73
45
0
VERTEX
8
OBJECT__24
10
0
20
0
30
0
70
128
71
44
72
48
73
42
0
VERTEX
8
OBJECT__24
10
0
20
0
30
0
70
128
71
37
72
35
73
38
0
VERTEX
8
OBJECT__24
10
0
20
0
30
0
70
128
71
32
72
31
73
33
0
VERTEX
8
OBJECT__24
10
0
20
0
30
0
70
128
71
4
72
2
73
28
0
VERTEX
8
OBJECT__24
10
0
20
0
30
0
70
128
71
24
72
12
73
25
0
VERTEX
8
OBJECT__24
10
0
20
0
30
0
70
128
71
18
72
27
73
17
0
VERTEX
8
OBJECT__24
10
0
20
0
30
0
70
128
71
14
72
62
73
16
0
VERTEX
8
OBJECT__24
10
0
20
0
30
0
70
128
71
11
72
15
73
9
0
VERTEX
8
OBJECT__24
10
0
20
0
30
0
70
128
71
7
72
19
73
8
0
VERTEX
8
OBJECT__24
10
0
20
0
30
0
70
128
71
5
72
6
73
1
0
SEQEND
8
OBJECT__24
0
POLYLINE
8
OBJECT__26
66
1
70
64
71
9
72
7
62
253
0
VERTEX
8
OBJECT__26
10
92.741997
20
25.348000
30
-5.597000
70
192
0
VERTEX
8
OBJECT__26
10
93.271004
20
0.000000
30
-25.804001
70
192
0
VERTEX
8
OBJECT__26
10
93.204002
20
-11.281000
30
-23.230000
70
192
0
VERTEX
8
OBJECT__26
10
93.014999
20
-20.327999
30
-16.018000
70
192
0
VERTEX
8
OBJECT__26
10
93.014999
20
20.327999
30
-16.018000
70
192
0
VERTEX
8
OBJECT__26
10
93.204002
20
11.281000
30
-23.230000
70
192
0
VERTEX
8
OBJECT__26
10
92.741997
20
-25.348000
30
-5.597000
70
192
0
VERTEX
8
OBJECT__26
10
92.589996
20
-26.000000
30
0.187000
70
192
0
VERTEX
8
OBJECT__26
10
92.589996
20
26.000000
30
0.187000
70
192
0
VERTEX
8
OBJECT__26
10
0
20
0
30
0
70
128
71
1
72
2
73
3
0
VERTEX
8
OBJECT__26
10
0
20
0
30
0
70
128
71
3
72
4
73
1
0
VERTEX
8
OBJECT__26
10
0
20
0
30
0
70
128
71
2
72
1
73
5
0
VERTEX
8
OBJECT__26
10
0
20
0
30
0
70
128
71
5
72
6
73
2
0
VERTEX
8
OBJECT__26
10
0
20
0
30
0
70
128
71
4
72
7
73
1
0
VERTEX
8
OBJECT__26
10
0
20
0
30
0
70
128
71
8
72
9
73
1
0
VERTEX
8
OBJECT__26
10
0
20
0
30
0
70
128
71
7
72
8
73
1
0
SEQEND
8
OBJECT__26
0
POLYLINE
8
OBJECT__27
66
1
70
64
71
17
72
15
62
253
0
VERTEX
8
OBJECT__27
10
106.445999
20
-11.178000
30
23.709999
70
192
0
VERTEX
8
OBJECT__27
10
102.274002
20
-20.277000
30
16.627001
70
192
0
VERTEX
8
OBJECT__27
10
102.456001
20
-20.107000
30
16.934999
70
192
0
VERTEX
8
OBJECT__27
10
96.018997
20
-25.028000
30
6.008000
70
192
0
VERTEX
8
OBJECT__27
10
97.721001
20
-24.546000
30
8.897000
70
192
0
VERTEX
8
OBJECT__27
10
92.589996
20
-26.000000
30
0.187000
70
192
0
VERTEX
8
OBJECT__27
10
107.891998
20
-4.724000
30
26.164000
70
192
0
VERTEX
8
OBJECT__27
10
106.467003
20
11.195000
30
23.743999
70
192
0
VERTEX
8
OBJECT__27
10
106.103996
20
12.890000
30
23.129000
70
192
0
VERTEX
8
OBJECT__27
10
107.913002
20
0.003000
30
26.198999
70
192
0
VERTEX
8
OBJECT__27
10
107.931999
20
4.348000
30
26.231001
70
192
0
VERTEX
8
OBJECT__27
10
105.988998
20
-13.220000
30
22.934000
70
192
0
VERTEX
8
OBJECT__27
10
102.255997
20
20.226000
30
16.596001
70
192
0
VERTEX
8
OBJECT__27
10
97.935997
20
24.417000
30
9.262000
70
192
0
VERTEX
8
OBJECT__27
10
102.630997
20
19.863001
30
17.233000
70
192
0
VERTEX
8
OBJECT__27
10
96.014000
20
24.987000
30
5.998000
70
192
0
VERTEX
8
OBJECT__27
10
92.589996
20
26.000000
30
0.187000
70
192
0
VERTEX
8
OBJECT__27
10
0
20
0
30
0
70
128
71
1
72
2
73
3
0
VERTEX
8
OBJECT__27
10
0
20
0
30
0
70
128
71
1
72
4
73
5
0
VERTEX
8
OBJECT__27
10
0
20
0
30
0
70
128
71
5
72
2
73
1
0
VERTEX
8
OBJECT__27
10
0
20
0
30
0
70
128
71
6
72
1
73
7
0
VERTEX
8
OBJECT__27
10
0
20
0
30
0
70
128
71
1
72
6
73
4
0
VERTEX
8
OBJECT__27
10
0
20
0
30
0
70
128
71
6
72
8
73
9
0
VERTEX
8
OBJECT__27
10
0
20
0
30
0
70
128
71
6
72
10
73
11
0
VERTEX
8
OBJECT__27
10
0
20
0
30
0
70
128
71
3
72
12
73
1
0
VERTEX
8
OBJECT__27
10
0
20
0
30
0
70
128
71
6
72
13
73
14
0
VERTEX
8
OBJECT__27
10
0
20
0
30
0
70
128
71
9
72
15
73
6
0
VERTEX
8
OBJECT__27
10
0
20
0
30
0
70
128
71
7
72
10
73
6
0
VERTEX
8
OBJECT__27
10
0
20
0
30
0
70
128
71
14
72
16
73
6
0
VERTEX
8
OBJECT__27
10
0
20
0
30
0
70
128
71
11
72
8
73
6
0
VERTEX
8
OBJECT__27
10
0
20
0
30
0
70
128
71
15
72
13
73
6
0
VERTEX
8
OBJECT__27
10
0
20
0
30
0
70
128
71
16
72
17
73
6
0
SEQEND
8
OBJECT__27
0
POLYLINE
8
OBJECT__28
66
1
70
64
71
4
72
2
62
253
0
VERTEX
8
OBJECT__28
10
124.910004
20
-9.800000
30
-87.997002
70
192
0
VERTEX
8
OBJECT__28
10
123.209999
20
-9.800000
30
-23.101999
70
192
0
VERTEX
8
OBJECT__28
10
115.712997
20
-9.800000
30
-23.298000
70
192
0
VERTEX
8
OBJECT__28
10
117.412003
20
-9.800000
30
-88.193001
70
192
0
VERTEX
8
OBJECT__28
10
0
20
0
30
0
70
128
71
1
72
2
73
3
0
VERTEX
8
OBJECT__28
10
0
20
0
30
0
70
128
71
3
72
4
73
1
0
SEQEND
8
OBJECT__28
0
POLYLINE
8
OBJECT__29
66
1
70
64
71
4
72
2
62
253
0
VERTEX
8
OBJECT__29
10
124.910004
20
9.800000
30
-87.997002
70
192
0
VERTEX
8
OBJECT__29
10
124.910004
20
-9.800000
30
-87.997002
70
192
0
VERTEX
8
OBJECT__29
10
117.412003
20
-9.800000
30
-88.193001
70
192
0
VERTEX
8
OBJECT__29
10
117.412003
20
9.800000
30
-88.193001
70
192
0
VERTEX
8
OBJECT__29
10
0
20
0
30
0
70
128
71
1
72
2
73
3
0
VERTEX
8
OBJECT__29
10
0
20
0
30
0
70
128
71
3
72
4
73
1
0
SEQEND
8
OBJECT__29
0
POLYLINE
8
OBJECT__30
66
1
70
64
71
4
72
2
62
253
0
VERTEX
8
OBJECT__30
10
115.712997
20
9.800000
30
-23.298000
70
192
0
VERTEX
8
OBJECT__30
10
123.209999
20
9.800000
30
-23.101999
70
192
0
VERTEX
8
OBJECT__30
10
124.910004
20
9.800000
30
-87.997002
70
192
0
VERTEX
8
OBJECT__30
10
117.412003
20
9.800000
30
-88.193001
70
192
0
VERTEX
8
OBJECT__30
10
0
20
0
30
0
70
128
71
1
72
2
73
3
0
VERTEX
8
OBJECT__30
10
0
20
0
30
0
70
128
71
3
72
4
73
1
0
SEQEND
8
OBJECT__30
0
POLYLINE
8
OBJECT__31
66
1
70
64
71
5
72
3
62
253
0
VERTEX
8
OBJECT__31
10
117.412003
20
9.800000
30
-88.193001
70
192
0
VERTEX
8
OBJECT__31
10
117.412003
20
-9.800000
30
-88.193001
70
192
0
VERTEX
8
OBJECT__31
10
115.763000
20
0.000000
30
-25.215000
70
192
0
VERTEX
8
OBJECT__31
10
115.712997
20
-9.800000
30
-23.298000
70
192
0
VERTEX
8
OBJECT__31
10
115.712997
20
9.800000
30
-23.298000
70
192
0
VERTEX
8
OBJECT__31
10
0
20
0
30
0
70
128
71
1
72
2
73
3
0
VERTEX
8
OBJECT__31
10
0
20
0
30
0
70
128
71
2
72
4
73
3
0
VERTEX
8
OBJECT__31
10
0
20
0
30
0
70
128
71
3
72
5
73
1
0
SEQEND
8
OBJECT__31
0
POLYLINE
8
OBJECT__32
66
1
70
64
71
5
72
3
62
253
0
VERTEX
8
OBJECT__32
10
124.910004
20
-9.800000
30
-87.997002
70
192
0
VERTEX
8
OBJECT__32
10
124.910004
20
9.800000
30
-87.997002
70
192
0
VERTEX
8
OBJECT__32
10
123.261002
20
0.000000
30
-25.018999
70
192
0
VERTEX
8
OBJECT__32
10
123.209999
20
9.800000
30
-23.101999
70
192
0
VERTEX
8
OBJECT__32
10
123.209999
20
-9.800000
30
-23.101999
70
192
0
VERTEX
8
OBJECT__32
10
0
20
0
30
0
70
128
71
1
72
2
73
3
0
VERTEX
8
OBJECT__32
10
0
20
0
30
0
70
128
71
2
72
4
73
3
0
VERTEX
8
OBJECT__32
10
0
20
0
30
0
70
128
71
3
72
5
73
1
0
SEQEND
8
OBJECT__32
0
POLYLINE
8
OBJECT__33
66
1
70
64
71
4
72
2
62
253
0
VERTEX
8
OBJECT__33
10
68.400002
20
-95.500000
30
-6.500000
70
192
0
VERTEX
8
OBJECT__33
10
240.815002
20
-95.500000
30
-6.500000
70
192
0
VERTEX
8
OBJECT__33
10
240.815002
20
-124.500000
30
-6.500000
70
192
0
VERTEX
8
OBJECT__33
10
68.400002
20
-124.500000
30
-6.500000
70
192
0
VERTEX
8
OBJECT__33
10
0
20
0
30
0
70
128
71
1
72
2
73
3
0
VERTEX
8
OBJECT__33
10
0
20
0
30
0
70
128
71
3
72
4
73
1
0
SEQEND
8
OBJECT__33
0
POLYLINE
8
OBJECT__34
66
1
70
64
71
10
72
8
62
253
0
VERTEX
8
OBJECT__34
10
262.734009
20
-124.500000
30
-20.882000
70
192
0
VERTEX
8
OBJECT__34
10
262.734009
20
-95.500000
30
-20.882000
70
192
0
VERTEX
8
OBJECT__34
10
265.300995
20
-95.500000
30
-29.624001
70
192
0
VERTEX
8
OBJECT__34
10
257.308990
20
-124.500000
30
-13.562000
70
192
0
VERTEX
8
OBJECT__34
10
257.308990
20
-95.500000
30
-13.562000
70
192
0
VERTEX
8
OBJECT__34
10
249.690002
20
-124.500000
30
-8.563000
70
192
0
VERTEX
8
OBJECT__34
10
249.690002
20
-95.500000
30
-8.563000
70
192
0
VERTEX
8
OBJECT__34
10
240.815002
20
-124.500000
30
-6.500000
70
192
0
VERTEX
8
OBJECT__34
10
240.815002
20
-95.500000
30
-6.500000
70
192
0
VERTEX
8
OBJECT__34
10
265.300995
20
-124.500000
30
-29.624001
70
192
0
VERTEX
8
OBJECT__34
10
0
20
0
30
0
70
128
71
1
72
2
73
3
0
VERTEX
8
OBJECT__34
10
0
20
0
30
0
70
128
71
4
72
5
73
2
0
VERTEX
8
OBJECT__34
10
0
20
0
30
0
70
128
71
6
72
7
73
5
0
VERTEX
8
OBJECT__34
10
0
20
0
30
0
70
128
71
8
72
9
73
7
0
VERTEX
8
OBJECT__34
10
0
20
0
30
0
70
128
71
7
72
6
73
8
0
VERTEX
8
OBJECT__34
10
0
20
0
30
0
70
128
71
5
72
4
73
6
0
VERTEX
8
OBJECT__34
10
0
20
0
30
0
70
128
71
2
72
1
73
4
0
VERTEX
8
OBJECT__34
10
0
20
0
30
0
70
128
71
3
72
10
73
1
0
SEQEND
8
OBJECT__34
0
POLYLINE
8
OBJECT__36
66
1
70
64
71
4
72
2
62
253
0
VERTEX
8
OBJECT__36
10
265.828003
20
-124.500000
30
-35.645000
70
192
0
VERTEX
8
OBJECT__36
10
265.300995
20
-124.500000
30
-29.624001
70
192
0
VERTEX
8
OBJECT__36
10
265.300995
20
-95.500000
30
-29.624001
70
192
0
VERTEX
8
OBJECT__36
10
265.828003
20
-95.500000
30
-35.645000
70
192
0
VERTEX
8
OBJECT__36
10
0
20
0
30
0
70
128
71
1
72
2
73
3
0
VERTEX
8
OBJECT__36
10
0
20
0
30
0
70
128
71
3
72
4
73
1
0
SEQEND
8
OBJECT__36
0
POLYLINE
8
OBJECT__37
66
1
70
64
71
4
72
2
62
253
0
VERTEX
8
OBJECT__37
10
279.674988
20
-95.500000
30
-34.432999
70
192
0
VERTEX
8
OBJECT__37
10
279.674988
20
-124.500000
30
-34.432999
70
192
0
VERTEX
8
OBJECT__37
10
265.828003
20
-124.500000
30
-35.645000
70
192
0
VERTEX
8
OBJECT__37
10
265.828003
20
-95.500000
30
-35.645000
70
192
0
VERTEX
8
OBJECT__37
10
0
20
0
30
0
70
128
71
1
72
2
73
3
0
VERTEX
8
OBJECT__37
10
0
20
0
30
0
70
128
71
3
72
4
73
1
0
SEQEND
8
OBJECT__37
0
POLYLINE
8
OBJECT__38
66
1
70
64
71
4
72
2
62
253
0
VERTEX
8
OBJECT__38
10
279.674988
20
-95.500000
30
-34.432999
70
192
0
VERTEX
8
OBJECT__38
10
279.169006
20
-95.500000
30
-28.645000
70
192
0
VERTEX
8
OBJECT__38
10
279.169006
20
-124.500000
30
-28.645000
70
192
0
VERTEX
8
OBJECT__38
10
279.674988
20
-124.500000
30
-34.432999
70
192
0
VERTEX
8
OBJECT__38
10
0
20
0
30
0
70
128
71
1
72
2
73
3
0
VERTEX
8
OBJECT__38
10
0
20
0
30
0
70
128
71
3
72
4
73
1
0
SEQEND
8
OBJECT__38
0
POLYLINE
8
OBJECT__39
66
1
70
64
71
14
72
12
62
253
0
VERTEX
8
OBJECT__39
10
266.825989
20
-124.500000
30
-3.615000
70
192
0
VERTEX
8
OBJECT__39
10
257.308990
20
-124.500000
30
-13.562000
70
192
0
VERTEX
8
OBJECT__39
10
262.734009
20
-124.500000
30
-20.882000
70
192
0
VERTEX
8
OBJECT__39
10
254.768997
20
-124.500000
30
3.882000
70
192
0
VERTEX
8
OBJECT__39
10
249.690002
20
-124.500000
30
-8.563000
70
192
0
VERTEX
8
OBJECT__39
10
240.815002
20
-124.500000
30
6.500000
70
192
0
VERTEX
8
OBJECT__39
10
240.815002
20
-124.500000
30
-6.500000
70
192
0
VERTEX
8
OBJECT__39
10
68.400002
20
-124.500000
30
-6.500000
70
192
0
VERTEX
8
OBJECT__39
10
265.828003
20
-124.500000
30
-35.645000
70
192
0
VERTEX
8
OBJECT__39
10
279.674988
20
-124.500000
30
-34.432999
70
192
0
VERTEX
8
OBJECT__39
10
279.169006
20
-124.500000
30
-28.645000
70
192
0
VERTEX
8
OBJECT__39
10
275.345001
20
-124.500000
30
-14.972000
70
192
0
VERTEX
8
OBJECT__39
10
265.300995
20
-124.500000
30
-29.624001
70
192
0
VERTEX
8
OBJECT__39
10
68.400002
20
-124.500000
30
6.500000
70
192
0
VERTEX
8
OBJECT__39
10
0
20
0
30
0
70
128
71
1
72
2
73
3
0
VERTEX
8
OBJECT__39
10
0
20
0
30
0
70
128
71
1
72
4
73
5
0
VERTEX
8
OBJECT__39
10
0
20
0
30
0
70
128
71
4
72
6
73
7
0
VERTEX
8
OBJECT__39
10
0
20
0
30
0
70
128
71
8
72
7
73
6
0
VERTEX
8
OBJECT__39
10
0
20
0
30
0
70
128
71
9
72
10
73
11
0
VERTEX
8
OBJECT__39
10
0
20
0
30
0
70
128
71
12
72
3
73
13
0
VERTEX
8
OBJECT__39
10
0
20
0
30
0
70
128
71
5
72
2
73
1
0
VERTEX
8
OBJECT__39
10
0
20
0
30
0
70
128
71
6
72
14
73
8
0
VERTEX
8
OBJECT__39
10
0
20
0
30
0
70
128
71
13
72
11
73
12
0
VERTEX
8
OBJECT__39
10
0
20
0
30
0
70
128
71
7
72
5
73
4
0
VERTEX
8
OBJECT__39
10
0
20
0
30
0
70
128
71
3
72
12
73
1
0
VERTEX
8
OBJECT__39
10
0
20
0
30
0
70
128
71
11
72
13
73
9
0
SEQEND
8
OBJECT__39
0
POLYLINE
8
OBJECT__40
66
1
70
64
71
14
72
12
62
253
0
VERTEX
8
OBJECT__40
10
68.400002
20
-95.500000
30
6.500000
70
192
0
VERTEX
8
OBJECT__40
10
240.815002
20
-95.500000
30
6.500000
70
192
0
VERTEX
8
OBJECT__40
10
240.815002
20
-95.500000
30
-6.500000
70
192
0
VERTEX
8
OBJECT__40
10
254.768997
20
-95.500000
30
3.882000
70
192
0
VERTEX
8
OBJECT__40
10
249.690002
20
-95.500000
30
-8.563000
70
192
0
VERTEX
8
OBJECT__40
10
266.825989
20
-95.500000
30
-3.615000
70
192
0
VERTEX
8
OBJECT__40
10
257.308990
20
-95.500000
30
-13.562000
70
192
0
VERTEX
8
OBJECT__40
10
275.345001
20
-95.500000
30
-14.972000
70
192
0
VERTEX
8
OBJECT__40
10
262.734009
20
-95.500000
30
-20.882000
70
192
0
VERTEX
8
OBJECT__40
10
279.169006
20
-95.500000
30
-28.645000
70
192
0
VERTEX
8
OBJECT__40
10
265.300995
20
-95.500000
30
-29.624001
70
192
0
VERTEX
8
OBJECT__40
10
265.828003
20
-95.500000
30
-35.645000
70
192
0
VERTEX
8
OBJECT__40
10
279.674988
20
-95.500000
30
-34.432999
70
192
0
VERTEX
8
OBJECT__40
10
68.400002
20
-95.500000
30
-6.500000
70
192
0
VERTEX
8
OBJECT__40
10
0
20
0
30
0
70
128
71
1
72
2
73
3
0
VERTEX
8
OBJECT__40
10
0
20
0
30
0
70
128
71
4
72
5
73
3
0
VERTEX
8
OBJECT__40
10
0
20
0
30
0
70
128
71
6
72
7
73
5
0
VERTEX
8
OBJECT__40
10
0
20
0
30
0
70
128
71
6
72
8
73
9
0
VERTEX
8
OBJECT__40
10
0
20
0
30
0
70
128
71
3
72
2
73
4
0
VERTEX
8
OBJECT__40
10
0
20
0
30
0
70
128
71
9
72
7
73
6
0
VERTEX
8
OBJECT__40
10
0
20
0
30
0
70
128
71
8
72
10
73
11
0
VERTEX
8
OBJECT__40
10
0
20
0
30
0
70
128
71
12
72
11
73
10
0
VERTEX
8
OBJECT__40
10
0
20
0
30
0
70
128
71
5
72
4
73
6
0
VERTEX
8
OBJECT__40
10
0
20
0
30
0
70
128
71
10
72
13
73
12
0
VERTEX
8
OBJECT__40
10
0
20
0
30
0
70
128
71
11
72
9
73
8
0
VERTEX
8
OBJECT__40
10
0
20
0
30
0
70
128
71
3
72
14
73
1
0
SEQEND
8
OBJECT__40
0
POLYLINE
8
OBJECT__41
66
1
70
64
71
10
72
8
62
253
0
VERTEX
8
OBJECT__41
10
254.768997
20
-124.500000
30
3.882000
70
192
0
VERTEX
8
OBJECT__41
10
254.768997
20
-95.500000
30
3.882000
70
192
0
VERTEX
8
OBJECT__41
10
240.815002
20
-95.500000
30
6.500000
70
192
0
VERTEX
8
OBJECT__41
10
266.825989
20
-124.500000
30
-3.615000
70
192
0
VERTEX
8
OBJECT__41
10
266.825989
20
-95.500000
30
-3.615000
70
192
0
VERTEX
8
OBJECT__41
10
275.345001
20
-124.500000
30
-14.972000
70
192
0
VERTEX
8
OBJECT__41
10
275.345001
20
-95.500000
30
-14.972000
70
192
0
VERTEX
8
OBJECT__41
10
279.169006
20
-124.500000
30
-28.645000
70
192
0
VERTEX
8
OBJECT__41
10
279.169006
20
-95.500000
30
-28.645000
70
192
0
VERTEX
8
OBJECT__41
10
240.815002
20
-124.500000
30
6.500000
70
192
0
VERTEX
8
OBJECT__41
10
0
20
0
30
0
70
128
71
1
72
2
73
3
0
VERTEX
8
OBJECT__41
10
0
20
0
30
0
70
128
71
4
72
5
73
2
0
VERTEX
8
OBJECT__41
10
0
20
0
30
0
70
128
71
6
72
7
73
5
0
VERTEX
8
OBJECT__41
10
0
20
0
30
0
70
128
71
8
72
9
73
7
0
VERTEX
8
OBJECT__41
10
0
20
0
30
0
70
128
71
7
72
6
73
8
0
VERTEX
8
OBJECT__41
10
0
20
0
30
0
70
128
71
5
72
4
73
6
0
VERTEX
8
OBJECT__41
10
0
20
0
30
0
70
128
71
2
72
1
73
4
0
VERTEX
8
OBJECT__41
10
0
20
0
30
0
70
128
71
3
72
10
73
1
0
SEQEND
8
OBJECT__41
0
POLYLINE
8
OBJECT__42
66
1
70
64
71
4
72
2
62
253
0
VERTEX
8
OBJECT__42
10
240.815002
20
-124.500000
30
6.500000
70
192
0
VERTEX
8
OBJECT__42
10
240.815002
20
-95.500000
30
6.500000
70
192
0
VERTEX
8
OBJECT__42
10
68.400002
20
-95.500000
30
6.500000
70
192
0
VERTEX
8
OBJECT__42
10
68.400002
20
-124.500000
30
6.500000
70
192
0
VERTEX
8
OBJECT__42
10
0
20
0
30
0
70
128
71
1
72
2
73
3
0
VERTEX
8
OBJECT__42
10
0
20
0
30
0
70
128
71
3
72
4
73
1
0
SEQEND
8
OBJECT__42
0
ENDSEC
0
EOF
