999
Converted by 3D Exploration 
999
XDimension Software, LLC
999
http://www.xdsoft.com/explorer/
0
SECTION
2
HEADER
9
$ACADVER
1
AC1008
9
$UCSORG
10
0.0
20
0.0
30
0.0
9
$UCSXDIR
10
1.0
20
0.0
30
0.0
9
$TILEMODE
70
1
9
$UCSYDIR
10
0.0
20
1.0
30
0.0
9
$EXTMIN
10
31.604000
20
-29.898001
30
-29.898001
9
$EXTMAX
10
222.240997
20
29.898001
30
30.000000
0
ENDSEC
0
SECTION
2
TABLES
0
TABLE
2
LTYPE
70
1
0
LTYPE
2
CONTINUOUS
70
64
3
Solid line
72
65
73
0
40
0.0
0
ENDTAB
0
TABLE
2
LAYER
70
40
0
LAYER
2
OBJECT__0
70
0
62
253
6
CONTINUOUS
0
LAYER
2
OBJECT__1
70
0
62
253
6
CONTINUOUS
0
LAYER
2
OBJECT__3
70
0
62
253
6
CONTINUOUS
0
LAYER
2
OBJECT__4
70
0
62
253
6
CONTINUOUS
0
LAYER
2
OBJECT__5
70
0
62
253
6
CONTINUOUS
0
LAYER
2
OBJECT__6
70
0
62
253
6
CONTINUOUS
0
LAYER
2
OBJECT__7
70
0
62
253
6
CONTINUOUS
0
LAYER
2
OBJECT__8
70
0
62
253
6
CONTINUOUS
0
LAYER
2
OBJECT__9
70
0
62
253
6
CONTINUOUS
0
LAYER
2
OBJECT__10
70
0
62
253
6
CONTINUOUS
0
LAYER
2
OBJECT__11
70
0
62
253
6
CONTINUOUS
0
LAYER
2
OBJECT__12
70
0
62
253
6
CONTINUOUS
0
LAYER
2
OBJECT__13
70
0
62
253
6
CONTINUOUS
0
LAYER
2
OBJECT__14
70
0
62
253
6
CONTINUOUS
0
LAYER
2
OBJECT__15
70
0
62
253
6
CONTINUOUS
0
LAYER
2
OBJECT__16
70
0
62
253
6
CONTINUOUS
0
LAYER
2
OBJECT__17
70
0
62
253
6
CONTINUOUS
0
LAYER
2
OBJECT__18
70
0
62
253
6
CONTINUOUS
0
LAYER
2
OBJECT__19
70
0
62
253
6
CONTINUOUS
0
LAYER
2
OBJECT__20
70
0
62
253
6
CONTINUOUS
0
LAYER
2
OBJECT__21
70
0
62
253
6
CONTINUOUS
0
LAYER
2
OBJECT__22
70
0
62
253
6
CONTINUOUS
0
LAYER
2
OBJECT__23
70
0
62
253
6
CONTINUOUS
0
LAYER
2
OBJECT__24
70
0
62
253
6
CONTINUOUS
0
LAYER
2
OBJECT__26
70
0
62
253
6
CONTINUOUS
0
LAYER
2
OBJECT__27
70
0
62
253
6
CONTINUOUS
0
LAYER
2
OBJECT__28
70
0
62
253
6
CONTINUOUS
0
LAYER
2
OBJECT__30
70
0
62
253
6
CONTINUOUS
0
LAYER
2
OBJECT__31
70
0
62
253
6
CONTINUOUS
0
LAYER
2
OBJECT__32
70
0
62
253
6
CONTINUOUS
0
LAYER
2
OBJECT__34
70
0
62
253
6
CONTINUOUS
0
LAYER
2
OBJECT__36
70
0
62
253
6
CONTINUOUS
0
LAYER
2
OBJECT__37
70
0
62
253
6
CONTINUOUS
0
LAYER
2
OBJECT__39
70
0
62
253
6
CONTINUOUS
0
ENDTAB
0
TABLE
2
STYLE
70
1
0
STYLE
2
STANDARD
70
0
40
0.0
41
1.0
50
0.0
71
0
42
0.2
3
txt
4
1
0
ENDTAB
0
TABLE
2
UCS
70
0
0
ENDTAB
0
ENDSEC
0
SECTION
2
ENTITIES
0
POLYLINE
8
OBJECT__0
66
1
70
64
71
35
72
35
62
253
0
VERTEX
8
OBJECT__0
10
212.507996
20
0.000000
30
-3.978000
70
192
0
VERTEX
8
OBJECT__0
10
213.104004
20
0.000000
30
-4.478000
70
192
0
VERTEX
8
OBJECT__0
10
212.619003
20
-3.383000
30
-4.520000
70
192
0
VERTEX
8
OBJECT__0
10
210.695999
20
-6.195000
30
-4.137000
70
192
0
VERTEX
8
OBJECT__0
10
205.835007
20
-10.423000
30
-4.562000
70
192
0
VERTEX
8
OBJECT__0
10
208.975006
20
-9.075000
30
-4.839000
70
192
0
VERTEX
8
OBJECT__0
10
211.205002
20
-6.492000
30
-4.644000
70
192
0
VERTEX
8
OBJECT__0
10
199.468994
20
-11.342000
30
-5.119000
70
192
0
VERTEX
8
OBJECT__0
10
202.843994
20
-11.886000
30
-5.376000
70
192
0
VERTEX
8
OBJECT__0
10
206.110992
20
-10.923000
30
-5.090000
70
192
0
VERTEX
8
OBJECT__0
10
199.438995
20
-11.886000
30
-5.673000
70
192
0
VERTEX
8
OBJECT__0
10
196.171997
20
-10.923000
30
-5.959000
70
192
0
VERTEX
8
OBJECT__0
10
193.617996
20
-8.660000
30
-5.631000
70
192
0
VERTEX
8
OBJECT__0
10
190.141006
20
-3.228000
30
-5.935000
70
192
0
VERTEX
8
OBJECT__0
10
191.076996
20
-6.492000
30
-6.405000
70
192
0
VERTEX
8
OBJECT__0
10
193.307007
20
-9.075000
30
-6.210000
70
192
0
VERTEX
8
OBJECT__0
10
189.677994
20
0.000000
30
-5.975000
70
192
0
VERTEX
8
OBJECT__0
10
189.300003
20
-1.709000
30
-6.561000
70
192
0
VERTEX
8
OBJECT__0
10
189.662994
20
-3.383000
30
-6.529000
70
192
0
VERTEX
8
OBJECT__0
10
189.177994
20
0.000000
30
-6.571000
70
192
0
VERTEX
8
OBJECT__0
10
189.662994
20
3.383000
30
-6.529000
70
192
0
VERTEX
8
OBJECT__0
10
190.141006
20
3.228000
30
-5.935000
70
192
0
VERTEX
8
OBJECT__0
10
191.076996
20
6.492000
30
-6.405000
70
192
0
VERTEX
8
OBJECT__0
10
193.617996
20
8.660000
30
-5.631000
70
192
0
VERTEX
8
OBJECT__0
10
193.307007
20
9.075000
30
-6.210000
70
192
0
VERTEX
8
OBJECT__0
10
196.171997
20
10.923000
30
-5.959000
70
192
0
VERTEX
8
OBJECT__0
10
199.468994
20
11.342000
30
-5.119000
70
192
0
VERTEX
8
OBJECT__0
10
199.438995
20
11.886000
30
-5.673000
70
192
0
VERTEX
8
OBJECT__0
10
202.843994
20
11.886000
30
-5.376000
70
192
0
VERTEX
8
OBJECT__0
10
205.835007
20
10.423000
30
-4.562000
70
192
0
VERTEX
8
OBJECT__0
10
206.110992
20
10.923000
30
-5.090000
70
192
0
VERTEX
8
OBJECT__0
10
208.975006
20
9.075000
30
-4.839000
70
192
0
VERTEX
8
OBJECT__0
10
210.695999
20
6.195000
30
-4.137000
70
192
0
VERTEX
8
OBJECT__0
10
211.205002
20
6.492000
30
-4.644000
70
192
0
VERTEX
8
OBJECT__0
10
212.619003
20
3.383000
30
-4.520000
70
192
0
VERTEX
8
OBJECT__0
10
0
20
0
30
0
70
128
71
1
72
2
73
3
0
VERTEX
8
OBJECT__0
10
0
20
0
30
0
70
128
71
3
72
4
73
1
0
VERTEX
8
OBJECT__0
10
0
20
0
30
0
70
128
71
5
72
4
73
6
0
VERTEX
8
OBJECT__0
10
0
20
0
30
0
70
128
71
4
72
7
73
6
0
VERTEX
8
OBJECT__0
10
0
20
0
30
0
70
128
71
8
72
5
73
9
0
VERTEX
8
OBJECT__0
10
0
20
0
30
0
70
128
71
5
72
10
73
9
0
VERTEX
8
OBJECT__0
10
0
20
0
30
0
70
128
71
8
72
11
73
12
0
VERTEX
8
OBJECT__0
10
0
20
0
30
0
70
128
71
12
72
13
73
8
0
VERTEX
8
OBJECT__0
10
0
20
0
30
0
70
128
71
14
72
13
73
15
0
VERTEX
8
OBJECT__0
10
0
20
0
30
0
70
128
71
13
72
16
73
15
0
VERTEX
8
OBJECT__0
10
0
20
0
30
0
70
128
71
17
72
14
73
18
0
VERTEX
8
OBJECT__0
10
0
20
0
30
0
70
128
71
14
72
19
73
18
0
VERTEX
8
OBJECT__0
10
0
20
0
30
0
70
128
71
20
72
21
73
22
0
VERTEX
8
OBJECT__0
10
0
20
0
30
0
70
128
71
22
72
17
73
20
0
VERTEX
8
OBJECT__0
10
0
20
0
30
0
70
128
71
22
72
21
73
23
0
VERTEX
8
OBJECT__0
10
0
20
0
30
0
70
128
71
23
72
24
73
22
0
VERTEX
8
OBJECT__0
10
0
20
0
30
0
70
128
71
24
72
25
73
26
0
VERTEX
8
OBJECT__0
10
0
20
0
30
0
70
128
71
26
72
27
73
24
0
VERTEX
8
OBJECT__0
10
0
20
0
30
0
70
128
71
27
72
28
73
29
0
VERTEX
8
OBJECT__0
10
0
20
0
30
0
70
128
71
29
72
30
73
27
0
VERTEX
8
OBJECT__0
10
0
20
0
30
0
70
128
71
30
72
31
73
32
0
VERTEX
8
OBJECT__0
10
0
20
0
30
0
70
128
71
32
72
33
73
30
0
VERTEX
8
OBJECT__0
10
0
20
0
30
0
70
128
71
33
72
34
73
35
0
VERTEX
8
OBJECT__0
10
0
20
0
30
0
70
128
71
35
72
1
73
33
0
VERTEX
8
OBJECT__0
10
0
20
0
30
0
70
128
71
35
72
2
73
1
0
VERTEX
8
OBJECT__0
10
0
20
0
30
0
70
128
71
32
72
34
73
33
0
VERTEX
8
OBJECT__0
10
0
20
0
30
0
70
128
71
29
72
31
73
30
0
VERTEX
8
OBJECT__0
10
0
20
0
30
0
70
128
71
26
72
28
73
27
0
VERTEX
8
OBJECT__0
10
0
20
0
30
0
70
128
71
23
72
25
73
24
0
VERTEX
8
OBJECT__0
10
0
20
0
30
0
70
128
71
18
72
20
73
17
0
VERTEX
8
OBJECT__0
10
0
20
0
30
0
70
128
71
15
72
19
73
14
0
VERTEX
8
OBJECT__0
10
0
20
0
30
0
70
128
71
12
72
16
73
13
0
VERTEX
8
OBJECT__0
10
0
20
0
30
0
70
128
71
9
72
11
73
8
0
VERTEX
8
OBJECT__0
10
0
20
0
30
0
70
128
71
6
72
10
73
5
0
VERTEX
8
OBJECT__0
10
0
20
0
30
0
70
128
71
3
72
7
73
4
0
SEQEND
8
OBJECT__0
0
POLYLINE
8
OBJECT__1
66
1
70
64
71
45
72
45
62
253
0
VERTEX
8
OBJECT__1
10
190.875000
20
6.623000
30
-6.423000
70
192
0
VERTEX
8
OBJECT__1
10
193.149994
20
9.258000
30
-6.224000
70
192
0
VERTEX
8
OBJECT__1
10
193.307007
20
9.075000
30
-6.210000
70
192
0
VERTEX
8
OBJECT__1
10
196.072006
20
11.143000
30
-5.968000
70
192
0
VERTEX
8
OBJECT__1
10
196.171997
20
10.923000
30
-5.959000
70
192
0
VERTEX
8
OBJECT__1
10
199.404007
20
12.125000
30
-5.676000
70
192
0
VERTEX
8
OBJECT__1
10
199.438995
20
11.886000
30
-5.673000
70
192
0
VERTEX
8
OBJECT__1
10
202.878006
20
12.125000
30
-5.373000
70
192
0
VERTEX
8
OBJECT__1
10
202.843994
20
11.886000
30
-5.376000
70
192
0
VERTEX
8
OBJECT__1
10
188.938004
20
0.000000
30
-6.592000
70
192
0
VERTEX
8
OBJECT__1
10
189.432007
20
3.451000
30
-6.549000
70
192
0
VERTEX
8
OBJECT__1
10
189.662994
20
3.383000
30
-6.529000
70
192
0
VERTEX
8
OBJECT__1
10
191.076996
20
6.492000
30
-6.405000
70
192
0
VERTEX
8
OBJECT__1
10
206.210999
20
11.143000
30
-5.081000
70
192
0
VERTEX
8
OBJECT__1
10
206.110992
20
10.923000
30
-5.090000
70
192
0
VERTEX
8
OBJECT__1
10
209.132996
20
9.258000
30
-4.825000
70
192
0
VERTEX
8
OBJECT__1
10
208.975006
20
9.075000
30
-4.839000
70
192
0
VERTEX
8
OBJECT__1
10
213.345001
20
0.000000
30
-4.457000
70
192
0
VERTEX
8
OBJECT__1
10
212.850006
20
-3.451000
30
-4.500000
70
192
0
VERTEX
8
OBJECT__1
10
212.619003
20
-3.383000
30
-4.520000
70
192
0
VERTEX
8
OBJECT__1
10
211.406998
20
-6.623000
30
-4.626000
70
192
0
VERTEX
8
OBJECT__1
10
211.205002
20
-6.492000
30
-4.644000
70
192
0
VERTEX
8
OBJECT__1
10
199.404007
20
-12.125000
30
-5.676000
70
192
0
VERTEX
8
OBJECT__1
10
199.438995
20
-11.886000
30
-5.673000
70
192
0
VERTEX
8
OBJECT__1
10
202.843994
20
-11.886000
30
-5.376000
70
192
0
VERTEX
8
OBJECT__1
10
196.072006
20
-11.143000
30
-5.968000
70
192
0
VERTEX
8
OBJECT__1
10
196.171997
20
-10.923000
30
-5.959000
70
192
0
VERTEX
8
OBJECT__1
10
193.149994
20
-9.258000
30
-6.224000
70
192
0
VERTEX
8
OBJECT__1
10
193.307007
20
-9.075000
30
-6.210000
70
192
0
VERTEX
8
OBJECT__1
10
190.875000
20
-6.623000
30
-6.423000
70
192
0
VERTEX
8
OBJECT__1
10
191.076996
20
-6.492000
30
-6.405000
70
192
0
VERTEX
8
OBJECT__1
10
211.406998
20
6.623000
30
-4.626000
70
192
0
VERTEX
8
OBJECT__1
10
211.205002
20
6.492000
30
-4.644000
70
192
0
VERTEX
8
OBJECT__1
10
212.850006
20
3.451000
30
-4.500000
70
192
0
VERTEX
8
OBJECT__1
10
212.619003
20
3.383000
30
-4.520000
70
192
0
VERTEX
8
OBJECT__1
10
213.104004
20
0.000000
30
-4.478000
70
192
0
VERTEX
8
OBJECT__1
10
209.132996
20
-9.258000
30
-4.825000
70
192
0
VERTEX
8
OBJECT__1
10
208.975006
20
-9.075000
30
-4.839000
70
192
0
VERTEX
8
OBJECT__1
10
206.210999
20
-11.143000
30
-5.081000
70
192
0
VERTEX
8
OBJECT__1
10
206.110992
20
-10.923000
30
-5.090000
70
192
0
VERTEX
8
OBJECT__1
10
202.878006
20
-12.125000
30
-5.373000
70
192
0
VERTEX
8
OBJECT__1
10
189.177994
20
0.000000
30
-6.571000
70
192
0
VERTEX
8
OBJECT__1
10
189.300003
20
-1.709000
30
-6.561000
70
192
0
VERTEX
8
OBJECT__1
10
189.432007
20
-3.451000
30
-6.549000
70
192
0
VERTEX
8
OBJECT__1
10
189.662994
20
-3.383000
30
-6.529000
70
192
0
VERTEX
8
OBJECT__1
10
0
20
0
30
0
70
128
71
1
72
2
73
3
0
VERTEX
8
OBJECT__1
10
0
20
0
30
0
70
128
71
2
72
4
73
5
0
VERTEX
8
OBJECT__1
10
0
20
0
30
0
70
128
71
4
72
6
73
7
0
VERTEX
8
OBJECT__1
10
0
20
0
30
0
70
128
71
6
72
8
73
9
0
VERTEX
8
OBJECT__1
10
0
20
0
30
0
70
128
71
10
72
11
73
12
0
VERTEX
8
OBJECT__1
10
0
20
0
30
0
70
128
71
11
72
1
73
13
0
VERTEX
8
OBJECT__1
10
0
20
0
30
0
70
128
71
5
72
3
73
2
0
VERTEX
8
OBJECT__1
10
0
20
0
30
0
70
128
71
9
72
7
73
6
0
VERTEX
8
OBJECT__1
10
0
20
0
30
0
70
128
71
14
72
15
73
9
0
VERTEX
8
OBJECT__1
10
0
20
0
30
0
70
128
71
16
72
17
73
15
0
VERTEX
8
OBJECT__1
10
0
20
0
30
0
70
128
71
18
72
19
73
20
0
VERTEX
8
OBJECT__1
10
0
20
0
30
0
70
128
71
19
72
21
73
22
0
VERTEX
8
OBJECT__1
10
0
20
0
30
0
70
128
71
23
72
24
73
25
0
VERTEX
8
OBJECT__1
10
0
20
0
30
0
70
128
71
26
72
27
73
24
0
VERTEX
8
OBJECT__1
10
0
20
0
30
0
70
128
71
28
72
29
73
27
0
VERTEX
8
OBJECT__1
10
0
20
0
30
0
70
128
71
30
72
31
73
29
0
VERTEX
8
OBJECT__1
10
0
20
0
30
0
70
128
71
13
72
12
73
11
0
VERTEX
8
OBJECT__1
10
0
20
0
30
0
70
128
71
7
72
5
73
4
0
VERTEX
8
OBJECT__1
10
0
20
0
30
0
70
128
71
15
72
14
73
16
0
VERTEX
8
OBJECT__1
10
0
20
0
30
0
70
128
71
32
72
33
73
17
0
VERTEX
8
OBJECT__1
10
0
20
0
30
0
70
128
71
32
72
34
73
35
0
VERTEX
8
OBJECT__1
10
0
20
0
30
0
70
128
71
34
72
18
73
36
0
VERTEX
8
OBJECT__1
10
0
20
0
30
0
70
128
71
22
72
20
73
19
0
VERTEX
8
OBJECT__1
10
0
20
0
30
0
70
128
71
21
72
37
73
38
0
VERTEX
8
OBJECT__1
10
0
20
0
30
0
70
128
71
37
72
39
73
40
0
VERTEX
8
OBJECT__1
10
0
20
0
30
0
70
128
71
41
72
25
73
40
0
VERTEX
8
OBJECT__1
10
0
20
0
30
0
70
128
71
24
72
23
73
26
0
VERTEX
8
OBJECT__1
10
0
20
0
30
0
70
128
71
29
72
28
73
30
0
VERTEX
8
OBJECT__1
10
0
20
0
30
0
70
128
71
10
72
42
73
43
0
VERTEX
8
OBJECT__1
10
0
20
0
30
0
70
128
71
3
72
13
73
1
0
VERTEX
8
OBJECT__1
10
0
20
0
30
0
70
128
71
17
72
16
73
32
0
VERTEX
8
OBJECT__1
10
0
20
0
30
0
70
128
71
36
72
35
73
34
0
VERTEX
8
OBJECT__1
10
0
20
0
30
0
70
128
71
38
72
22
73
21
0
VERTEX
8
OBJECT__1
10
0
20
0
30
0
70
128
71
40
72
39
73
41
0
VERTEX
8
OBJECT__1
10
0
20
0
30
0
70
128
71
27
72
26
73
28
0
VERTEX
8
OBJECT__1
10
0
20
0
30
0
70
128
71
44
72
45
73
31
0
VERTEX
8
OBJECT__1
10
0
20
0
30
0
70
128
71
43
72
44
73
10
0
VERTEX
8
OBJECT__1
10
0
20
0
30
0
70
128
71
9
72
8
73
14
0
VERTEX
8
OBJECT__1
10
0
20
0
30
0
70
128
71
20
72
36
73
18
0
VERTEX
8
OBJECT__1
10
0
20
0
30
0
70
128
71
25
72
41
73
23
0
VERTEX
8
OBJECT__1
10
0
20
0
30
0
70
128
71
43
72
45
73
44
0
VERTEX
8
OBJECT__1
10
0
20
0
30
0
70
128
71
35
72
33
73
32
0
VERTEX
8
OBJECT__1
10
0
20
0
30
0
70
128
71
31
72
30
73
44
0
VERTEX
8
OBJECT__1
10
0
20
0
30
0
70
128
71
40
72
38
73
37
0
VERTEX
8
OBJECT__1
10
0
20
0
30
0
70
128
71
12
72
42
73
10
0
SEQEND
8
OBJECT__1
0
POLYLINE
8
OBJECT__3
66
1
70
64
71
80
72
80
62
253
0
VERTEX
8
OBJECT__3
10
209.132996
20
9.258000
30
-4.825000
70
192
0
VERTEX
8
OBJECT__3
10
206.210999
20
11.143000
30
-5.081000
70
192
0
VERTEX
8
OBJECT__3
10
207.274994
20
10.697000
30
-7.137000
70
192
0
VERTEX
8
OBJECT__3
10
208.561005
20
9.874000
30
-7.139000
70
192
0
VERTEX
8
OBJECT__3
10
206.050003
20
11.215000
30
-7.135000
70
192
0
VERTEX
8
OBJECT__3
10
202.878006
20
12.125000
30
-5.373000
70
192
0
VERTEX
8
OBJECT__3
10
204.020004
20
11.942000
30
-7.131000
70
192
0
VERTEX
8
OBJECT__3
10
204.850998
20
11.723000
30
-7.133000
70
192
0
VERTEX
8
OBJECT__3
10
203.024002
20
12.059000
30
-7.129000
70
192
0
VERTEX
8
OBJECT__3
10
212.850006
20
3.451000
30
-4.500000
70
192
0
VERTEX
8
OBJECT__3
10
212.649002
20
4.656000
30
-7.144000
70
192
0
VERTEX
8
OBJECT__3
10
212.682007
20
4.594000
30
-7.144000
70
192
0
VERTEX
8
OBJECT__3
10
209.985001
20
8.576000
30
-7.141000
70
192
0
VERTEX
8
OBJECT__3
10
210.503006
20
8.105000
30
-7.142000
70
192
0
VERTEX
8
OBJECT__3
10
211.406998
20
6.623000
30
-4.626000
70
192
0
VERTEX
8
OBJECT__3
10
211.440002
20
6.905000
30
-7.143000
70
192
0
VERTEX
8
OBJECT__3
10
209.291000
20
9.209000
30
-7.140000
70
192
0
VERTEX
8
OBJECT__3
10
212.850006
20
-3.451000
30
-4.500000
70
192
0
VERTEX
8
OBJECT__3
10
213.345001
20
0.000000
30
-4.457000
70
192
0
VERTEX
8
OBJECT__3
10
213.544006
20
-0.927000
30
-7.144000
70
192
0
VERTEX
8
OBJECT__3
10
213.557999
20
0.000000
30
-7.144000
70
192
0
VERTEX
8
OBJECT__3
10
213.162994
20
3.162000
30
-7.144000
70
192
0
VERTEX
8
OBJECT__3
10
213.565994
20
0.572000
30
-7.144000
70
192
0
VERTEX
8
OBJECT__3
10
213.067001
20
3.447000
30
-7.144000
70
192
0
VERTEX
8
OBJECT__3
10
211.406998
20
-6.623000
30
-4.626000
70
192
0
VERTEX
8
OBJECT__3
10
212.552002
20
-4.903000
30
-7.144000
70
192
0
VERTEX
8
OBJECT__3
10
212.643005
20
-4.655000
30
-7.144000
70
192
0
VERTEX
8
OBJECT__3
10
211.246002
20
-7.180000
30
-7.142000
70
192
0
VERTEX
8
OBJECT__3
10
210.300003
20
-8.329000
30
-7.142000
70
192
0
VERTEX
8
OBJECT__3
10
209.132996
20
-9.258000
30
-4.825000
70
192
0
VERTEX
8
OBJECT__3
10
209.998993
20
-8.590000
30
-7.141000
70
192
0
VERTEX
8
OBJECT__3
10
213.076004
20
-3.450000
30
-7.144000
70
192
0
VERTEX
8
OBJECT__3
10
213.065994
20
-3.504000
30
-7.144000
70
192
0
VERTEX
8
OBJECT__3
10
202.878006
20
-12.125000
30
-5.373000
70
192
0
VERTEX
8
OBJECT__3
10
206.210999
20
-11.143000
30
-5.081000
70
192
0
VERTEX
8
OBJECT__3
10
204.585999
20
-11.799000
30
-7.133000
70
192
0
VERTEX
8
OBJECT__3
10
206.052994
20
-11.217000
30
-7.135000
70
192
0
VERTEX
8
OBJECT__3
10
203.113007
20
-12.113000
30
-7.129000
70
192
0
VERTEX
8
OBJECT__3
10
208.311996
20
-10.051000
30
-7.139000
70
192
0
VERTEX
8
OBJECT__3
10
207.033997
20
-10.827000
30
-7.137000
70
192
0
VERTEX
8
OBJECT__3
10
209.289001
20
-9.205000
30
-7.140000
70
192
0
VERTEX
8
OBJECT__3
10
196.072006
20
-11.143000
30
-5.968000
70
192
0
VERTEX
8
OBJECT__3
10
199.404007
20
-12.125000
30
-5.676000
70
192
0
VERTEX
8
OBJECT__3
10
197.966995
20
-11.794000
30
-7.239000
70
192
0
VERTEX
8
OBJECT__3
10
198.830994
20
-12.003000
30
-7.188000
70
192
0
VERTEX
8
OBJECT__3
10
201.404999
20
-12.249000
30
-7.125000
70
192
0
VERTEX
8
OBJECT__3
10
203.031006
20
-12.120000
30
-7.129000
70
192
0
VERTEX
8
OBJECT__3
10
190.875000
20
-6.623000
30
-6.423000
70
192
0
VERTEX
8
OBJECT__3
10
193.149994
20
-9.258000
30
-6.224000
70
192
0
VERTEX
8
OBJECT__3
10
192.391006
20
-8.391000
30
-7.910000
70
192
0
VERTEX
8
OBJECT__3
10
191.481003
20
-7.290000
30
-8.069000
70
192
0
VERTEX
8
OBJECT__3
10
194.362000
20
-10.098000
30
-7.610000
70
192
0
VERTEX
8
OBJECT__3
10
193.315994
20
-9.192000
30
-7.769000
70
192
0
VERTEX
8
OBJECT__3
10
195.561005
20
-10.829000
30
-7.460000
70
192
0
VERTEX
8
OBJECT__3
10
196.216995
20
-11.092000
30
-7.400000
70
192
0
VERTEX
8
OBJECT__3
10
191.078003
20
-6.593000
30
-8.146000
70
192
0
VERTEX
8
OBJECT__3
10
190.171997
20
-5.028000
30
-8.318000
70
192
0
VERTEX
8
OBJECT__3
10
189.432007
20
-3.451000
30
-6.549000
70
192
0
VERTEX
8
OBJECT__3
10
189.647003
20
-3.620000
30
-8.425000
70
192
0
VERTEX
8
OBJECT__3
10
189.153000
20
-1.054000
30
-8.528000
70
192
0
VERTEX
8
OBJECT__3
10
188.938004
20
0.000000
30
-6.592000
70
192
0
VERTEX
8
OBJECT__3
10
189.108002
20
0.000000
30
-8.538000
70
192
0
VERTEX
8
OBJECT__3
10
189.382996
20
2.599000
30
-8.480000
70
192
0
VERTEX
8
OBJECT__3
10
189.432007
20
3.451000
30
-6.549000
70
192
0
VERTEX
8
OBJECT__3
10
189.591995
20
3.433000
30
-8.436000
70
192
0
VERTEX
8
OBJECT__3
10
190.578003
20
5.857000
30
-8.238000
70
192
0
VERTEX
8
OBJECT__3
10
190.875000
20
6.623000
30
-6.423000
70
192
0
VERTEX
8
OBJECT__3
10
191.044006
20
6.612000
30
-8.150000
70
192
0
VERTEX
8
OBJECT__3
10
196.072006
20
11.143000
30
-5.968000
70
192
0
VERTEX
8
OBJECT__3
10
193.149994
20
9.258000
30
-6.224000
70
192
0
VERTEX
8
OBJECT__3
10
194.229996
20
10.005000
30
-7.628000
70
192
0
VERTEX
8
OBJECT__3
10
193.072006
20
9.068000
30
-7.799000
70
192
0
VERTEX
8
OBJECT__3
10
193.233994
20
9.199000
30
-7.775000
70
192
0
VERTEX
8
OBJECT__3
10
191.350006
20
7.107000
30
-8.093000
70
192
0
VERTEX
8
OBJECT__3
10
199.404007
20
12.125000
30
-5.676000
70
192
0
VERTEX
8
OBJECT__3
10
200.473999
20
12.224000
30
-7.132000
70
192
0
VERTEX
8
OBJECT__3
10
201.404999
20
12.249000
30
-7.125000
70
192
0
VERTEX
8
OBJECT__3
10
197.927994
20
11.783000
30
-7.242000
70
192
0
VERTEX
8
OBJECT__3
10
196.488007
20
11.272000
30
-7.362000
70
192
0
VERTEX
8
OBJECT__3
10
196.210999
20
11.117000
30
-7.394000
70
192
0
VERTEX
8
OBJECT__3
10
0
20
0
30
0
70
128
71
1
72
2
73
3
0
VERTEX
8
OBJECT__3
10
0
20
0
30
0
70
128
71
3
72
4
73
1
0
VERTEX
8
OBJECT__3
10
0
20
0
30
0
70
128
71
2
72
5
73
3
0
VERTEX
8
OBJECT__3
10
0
20
0
30
0
70
128
71
6
72
7
73
8
0
VERTEX
8
OBJECT__3
10
0
20
0
30
0
70
128
71
8
72
2
73
6
0
VERTEX
8
OBJECT__3
10
0
20
0
30
0
70
128
71
6
72
9
73
7
0
VERTEX
8
OBJECT__3
10
0
20
0
30
0
70
128
71
8
72
5
73
2
0
VERTEX
8
OBJECT__3
10
0
20
0
30
0
70
128
71
10
72
11
73
12
0
VERTEX
8
OBJECT__3
10
0
20
0
30
0
70
128
71
1
72
13
73
14
0
VERTEX
8
OBJECT__3
10
0
20
0
30
0
70
128
71
14
72
15
73
1
0
VERTEX
8
OBJECT__3
10
0
20
0
30
0
70
128
71
15
72
16
73
11
0
VERTEX
8
OBJECT__3
10
0
20
0
30
0
70
128
71
11
72
10
73
15
0
VERTEX
8
OBJECT__3
10
0
20
0
30
0
70
128
71
1
72
17
73
13
0
VERTEX
8
OBJECT__3
10
0
20
0
30
0
70
128
71
14
72
16
73
15
0
VERTEX
8
OBJECT__3
10
0
20
0
30
0
70
128
71
18
72
19
73
20
0
VERTEX
8
OBJECT__3
10
0
20
0
30
0
70
128
71
19
72
21
73
20
0
VERTEX
8
OBJECT__3
10
0
20
0
30
0
70
128
71
10
72
22
73
23
0
VERTEX
8
OBJECT__3
10
0
20
0
30
0
70
128
71
23
72
19
73
10
0
VERTEX
8
OBJECT__3
10
0
20
0
30
0
70
128
71
10
72
24
73
22
0
VERTEX
8
OBJECT__3
10
0
20
0
30
0
70
128
71
23
72
21
73
19
0
VERTEX
8
OBJECT__3
10
0
20
0
30
0
70
128
71
25
72
18
73
26
0
VERTEX
8
OBJECT__3
10
0
20
0
30
0
70
128
71
18
72
27
73
26
0
VERTEX
8
OBJECT__3
10
0
20
0
30
0
70
128
71
25
72
28
73
29
0
VERTEX
8
OBJECT__3
10
0
20
0
30
0
70
128
71
29
72
30
73
25
0
VERTEX
8
OBJECT__3
10
0
20
0
30
0
70
128
71
29
72
31
73
30
0
VERTEX
8
OBJECT__3
10
0
20
0
30
0
70
128
71
26
72
28
73
25
0
VERTEX
8
OBJECT__3
10
0
20
0
30
0
70
128
71
18
72
32
73
33
0
VERTEX
8
OBJECT__3
10
0
20
0
30
0
70
128
71
33
72
27
73
18
0
VERTEX
8
OBJECT__3
10
0
20
0
30
0
70
128
71
34
72
35
73
36
0
VERTEX
8
OBJECT__3
10
0
20
0
30
0
70
128
71
35
72
37
73
36
0
VERTEX
8
OBJECT__3
10
0
20
0
30
0
70
128
71
36
72
38
73
34
0
VERTEX
8
OBJECT__3
10
0
20
0
30
0
70
128
71
35
72
30
73
39
0
VERTEX
8
OBJECT__3
10
0
20
0
30
0
70
128
71
39
72
40
73
35
0
VERTEX
8
OBJECT__3
10
0
20
0
30
0
70
128
71
30
72
41
73
39
0
VERTEX
8
OBJECT__3
10
0
20
0
30
0
70
128
71
40
72
37
73
35
0
VERTEX
8
OBJECT__3
10
0
20
0
30
0
70
128
71
42
72
43
73
44
0
VERTEX
8
OBJECT__3
10
0
20
0
30
0
70
128
71
43
72
45
73
44
0
VERTEX
8
OBJECT__3
10
0
20
0
30
0
70
128
71
43
72
34
73
46
0
VERTEX
8
OBJECT__3
10
0
20
0
30
0
70
128
71
34
72
47
73
46
0
VERTEX
8
OBJECT__3
10
0
20
0
30
0
70
128
71
46
72
45
73
43
0
VERTEX
8
OBJECT__3
10
0
20
0
30
0
70
128
71
48
72
49
73
50
0
VERTEX
8
OBJECT__3
10
0
20
0
30
0
70
128
71
50
72
51
73
48
0
VERTEX
8
OBJECT__3
10
0
20
0
30
0
70
128
71
49
72
52
73
53
0
VERTEX
8
OBJECT__3
10
0
20
0
30
0
70
128
71
53
72
50
73
49
0
VERTEX
8
OBJECT__3
10
0
20
0
30
0
70
128
71
42
72
54
73
52
0
VERTEX
8
OBJECT__3
10
0
20
0
30
0
70
128
71
52
72
49
73
42
0
VERTEX
8
OBJECT__3
10
0
20
0
30
0
70
128
71
42
72
55
73
54
0
VERTEX
8
OBJECT__3
10
0
20
0
30
0
70
128
71
48
72
56
73
57
0
VERTEX
8
OBJECT__3
10
0
20
0
30
0
70
128
71
57
72
58
73
48
0
VERTEX
8
OBJECT__3
10
0
20
0
30
0
70
128
71
58
72
59
73
60
0
VERTEX
8
OBJECT__3
10
0
20
0
30
0
70
128
71
60
72
61
73
58
0
VERTEX
8
OBJECT__3
10
0
20
0
30
0
70
128
71
60
72
62
73
61
0
VERTEX
8
OBJECT__3
10
0
20
0
30
0
70
128
71
61
72
62
73
63
0
VERTEX
8
OBJECT__3
10
0
20
0
30
0
70
128
71
63
72
64
73
61
0
VERTEX
8
OBJECT__3
10
0
20
0
30
0
70
128
71
64
72
65
73
66
0
VERTEX
8
OBJECT__3
10
0
20
0
30
0
70
128
71
66
72
67
73
64
0
VERTEX
8
OBJECT__3
10
0
20
0
30
0
70
128
71
66
72
68
73
67
0
VERTEX
8
OBJECT__3
10
0
20
0
30
0
70
128
71
69
72
70
73
71
0
VERTEX
8
OBJECT__3
10
0
20
0
30
0
70
128
71
70
72
72
73
73
0
VERTEX
8
OBJECT__3
10
0
20
0
30
0
70
128
71
70
72
67
73
74
0
VERTEX
8
OBJECT__3
10
0
20
0
30
0
70
128
71
67
72
68
73
74
0
VERTEX
8
OBJECT__3
10
0
20
0
30
0
70
128
71
74
72
72
73
70
0
VERTEX
8
OBJECT__3
10
0
20
0
30
0
70
128
71
73
72
71
73
70
0
VERTEX
8
OBJECT__3
10
0
20
0
30
0
70
128
71
75
72
76
73
77
0
VERTEX
8
OBJECT__3
10
0
20
0
30
0
70
128
71
77
72
6
73
75
0
VERTEX
8
OBJECT__3
10
0
20
0
30
0
70
128
71
75
72
78
73
76
0
VERTEX
8
OBJECT__3
10
0
20
0
30
0
70
128
71
69
72
79
73
78
0
VERTEX
8
OBJECT__3
10
0
20
0
30
0
70
128
71
69
72
80
73
79
0
VERTEX
8
OBJECT__3
10
0
20
0
30
0
70
128
71
78
72
75
73
69
0
VERTEX
8
OBJECT__3
10
0
20
0
30
0
70
128
71
77
72
9
73
6
0
VERTEX
8
OBJECT__3
10
0
20
0
30
0
70
128
71
71
72
80
73
69
0
VERTEX
8
OBJECT__3
10
0
20
0
30
0
70
128
71
63
72
65
73
64
0
VERTEX
8
OBJECT__3
10
0
20
0
30
0
70
128
71
57
72
59
73
58
0
VERTEX
8
OBJECT__3
10
0
20
0
30
0
70
128
71
51
72
56
73
48
0
VERTEX
8
OBJECT__3
10
0
20
0
30
0
70
128
71
44
72
55
73
42
0
VERTEX
8
OBJECT__3
10
0
20
0
30
0
70
128
71
38
72
47
73
34
0
VERTEX
8
OBJECT__3
10
0
20
0
30
0
70
128
71
31
72
41
73
30
0
VERTEX
8
OBJECT__3
10
0
20
0
30
0
70
128
71
20
72
32
73
18
0
VERTEX
8
OBJECT__3
10
0
20
0
30
0
70
128
71
12
72
24
73
10
0
VERTEX
8
OBJECT__3
10
0
20
0
30
0
70
128
71
4
72
17
73
1
0
SEQEND
8
OBJECT__3
0
POLYLINE
8
OBJECT__4
66
1
70
64
71
123
72
158
62
253
0
VERTEX
8
OBJECT__4
10
221.554993
20
4.008000
30
-2.314000
70
192
0
VERTEX
8
OBJECT__4
10
221.951004
20
0.000000
30
-2.314000
70
192
0
VERTEX
8
OBJECT__4
10
220.617996
20
0.000000
30
-4.035000
70
192
0
VERTEX
8
OBJECT__4
10
205.153000
20
-18.841999
30
-4.035000
70
192
0
VERTEX
8
OBJECT__4
10
205.412994
20
-20.150000
30
-2.314000
70
192
0
VERTEX
8
OBJECT__4
10
201.404999
20
-20.014999
30
-3.169000
70
192
0
VERTEX
8
OBJECT__4
10
201.404999
20
-20.480000
30
-2.284000
70
192
0
VERTEX
8
OBJECT__4
10
201.404999
20
-20.122000
30
-3.066000
70
192
0
VERTEX
8
OBJECT__4
10
221.966995
20
3.373000
30
-0.754000
70
192
0
VERTEX
8
OBJECT__4
10
221.794006
20
4.053000
30
-0.754000
70
192
0
VERTEX
8
OBJECT__4
10
212.819000
20
17.082001
30
-2.314000
70
192
0
VERTEX
8
OBJECT__4
10
215.934006
20
14.528000
30
-2.314000
70
192
0
VERTEX
8
OBJECT__4
10
214.990005
20
13.585000
30
-4.035000
70
192
0
VERTEX
8
OBJECT__4
10
218.488007
20
11.414000
30
-2.314000
70
192
0
VERTEX
8
OBJECT__4
10
220.386993
20
7.863000
30
-2.314000
70
192
0
VERTEX
8
OBJECT__4
10
219.154999
20
7.352000
30
-4.035000
70
192
0
VERTEX
8
OBJECT__4
10
220.246994
20
3.748000
30
-4.035000
70
192
0
VERTEX
8
OBJECT__4
10
217.378998
20
10.673000
30
-4.035000
70
192
0
VERTEX
8
OBJECT__4
10
205.412994
20
20.150000
30
-2.314000
70
192
0
VERTEX
8
OBJECT__4
10
209.268005
20
18.982000
30
-2.314000
70
192
0
VERTEX
8
OBJECT__4
10
208.757996
20
17.750000
30
-4.035000
70
192
0
VERTEX
8
OBJECT__4
10
212.078003
20
15.973000
30
-4.035000
70
192
0
VERTEX
8
OBJECT__4
10
205.153000
20
18.841999
30
-4.035000
70
192
0
VERTEX
8
OBJECT__4
10
201.404999
20
19.693001
30
-3.581000
70
192
0
VERTEX
8
OBJECT__4
10
201.404999
20
19.172001
30
-3.982000
70
192
0
VERTEX
8
OBJECT__4
10
201.404999
20
19.976000
30
-3.150000
70
192
0
VERTEX
8
OBJECT__4
10
212.945007
20
17.275000
30
-0.754000
70
192
0
VERTEX
8
OBJECT__4
10
215.057007
20
15.742000
30
-0.754000
70
192
0
VERTEX
8
OBJECT__4
10
219.595001
20
10.164000
30
-0.754000
70
192
0
VERTEX
8
OBJECT__4
10
218.666000
20
11.533000
30
-0.754000
70
192
0
VERTEX
8
OBJECT__4
10
221.078003
20
6.867000
30
-0.754000
70
192
0
VERTEX
8
OBJECT__4
10
220.593002
20
7.946000
30
-0.754000
70
192
0
VERTEX
8
OBJECT__4
10
216.085007
20
14.681000
30
-0.754000
70
192
0
VERTEX
8
OBJECT__4
10
217.574005
20
13.143000
30
-0.754000
70
192
0
VERTEX
8
OBJECT__4
10
205.468994
20
20.433001
30
-0.754000
70
192
0
VERTEX
8
OBJECT__4
10
208.895996
20
19.444000
30
-0.754000
70
192
0
VERTEX
8
OBJECT__4
10
209.362000
20
19.216000
30
-0.754000
70
192
0
VERTEX
8
OBJECT__4
10
212.145004
20
17.855000
30
-0.754000
70
192
0
VERTEX
8
OBJECT__4
10
201.404999
20
20.531000
30
-2.304000
70
192
0
VERTEX
8
OBJECT__4
10
202.035995
20
20.827999
30
-0.754000
70
192
0
VERTEX
8
OBJECT__4
10
205.434006
20
20.443001
30
-0.754000
70
192
0
VERTEX
8
OBJECT__4
10
201.404999
20
20.580000
30
-2.228000
70
192
0
VERTEX
8
OBJECT__4
10
201.404999
20
20.837000
30
-0.754000
70
192
0
VERTEX
8
OBJECT__4
10
218.488007
20
-11.414000
30
-2.314000
70
192
0
VERTEX
8
OBJECT__4
10
215.932999
20
-14.528000
30
-2.314000
70
192
0
VERTEX
8
OBJECT__4
10
214.990005
20
-13.585000
30
-4.035000
70
192
0
VERTEX
8
OBJECT__4
10
201.404999
20
-20.729000
30
-1.739000
70
192
0
VERTEX
8
OBJECT__4
10
204.987000
20
-20.525999
30
-0.754000
70
192
0
VERTEX
8
OBJECT__4
10
205.460999
20
-20.400000
30
-0.754000
70
192
0
VERTEX
8
OBJECT__4
10
201.404999
20
-20.837000
30
-0.754000
70
192
0
VERTEX
8
OBJECT__4
10
212.819000
20
-17.082001
30
-2.314000
70
192
0
VERTEX
8
OBJECT__4
10
209.268005
20
-18.982000
30
-2.314000
70
192
0
VERTEX
8
OBJECT__4
10
208.757996
20
-17.750000
30
-4.035000
70
192
0
VERTEX
8
OBJECT__4
10
212.078003
20
-15.973000
30
-4.035000
70
192
0
VERTEX
8
OBJECT__4
10
211.753998
20
-18.084999
30
-0.754000
70
192
0
VERTEX
8
OBJECT__4
10
212.938995
20
-17.263000
30
-0.754000
70
192
0
VERTEX
8
OBJECT__4
10
208.473999
20
-19.601999
30
-0.754000
70
192
0
VERTEX
8
OBJECT__4
10
209.352997
20
-19.195000
30
-0.754000
70
192
0
VERTEX
8
OBJECT__4
10
214.712997
20
-16.033001
30
-0.754000
70
192
0
VERTEX
8
OBJECT__4
10
216.084000
20
-14.678000
30
-0.754000
70
192
0
VERTEX
8
OBJECT__4
10
218.673996
20
-11.536000
30
-0.754000
70
192
0
VERTEX
8
OBJECT__4
10
217.285995
20
-13.490000
30
-0.754000
70
192
0
VERTEX
8
OBJECT__4
10
221.554993
20
-4.008000
30
-2.314000
70
192
0
VERTEX
8
OBJECT__4
10
220.386993
20
-7.863000
30
-2.314000
70
192
0
VERTEX
8
OBJECT__4
10
219.154999
20
-7.352000
30
-4.035000
70
192
0
VERTEX
8
OBJECT__4
10
217.378998
20
-10.673000
30
-4.035000
70
192
0
VERTEX
8
OBJECT__4
10
220.246994
20
-3.748000
30
-4.035000
70
192
0
VERTEX
8
OBJECT__4
10
221.822006
20
-4.060000
30
-0.754000
70
192
0
VERTEX
8
OBJECT__4
10
220.925003
20
-7.291000
30
-0.754000
70
192
0
VERTEX
8
OBJECT__4
10
220.610001
20
-7.952000
30
-0.754000
70
192
0
VERTEX
8
OBJECT__4
10
219.369995
20
-10.556000
30
-0.754000
70
192
0
VERTEX
8
OBJECT__4
10
222.240997
20
-0.225000
30
-0.754000
70
192
0
VERTEX
8
OBJECT__4
10
221.888000
20
-3.821000
30
-0.754000
70
192
0
VERTEX
8
OBJECT__4
10
222.223999
20
-0.001000
30
-0.754000
70
192
0
VERTEX
8
OBJECT__4
10
201.404999
20
-18.712000
30
-4.427000
70
192
0
VERTEX
8
OBJECT__4
10
201.404999
20
-16.377001
30
-5.710000
70
192
0
VERTEX
8
OBJECT__4
10
201.404999
20
-19.167000
30
-3.988000
70
192
0
VERTEX
8
OBJECT__4
10
216.544998
20
-6.271000
30
-5.728000
70
192
0
VERTEX
8
OBJECT__4
10
212.992996
20
-11.588000
30
-5.728000
70
192
0
VERTEX
8
OBJECT__4
10
207.677002
20
-15.140000
30
-5.728000
70
192
0
VERTEX
8
OBJECT__4
10
217.792999
20
0.000000
30
-5.728000
70
192
0
VERTEX
8
OBJECT__4
10
216.544998
20
6.271000
30
-5.728000
70
192
0
VERTEX
8
OBJECT__4
10
212.992996
20
11.588000
30
-5.728000
70
192
0
VERTEX
8
OBJECT__4
10
207.677002
20
15.140000
30
-5.728000
70
192
0
VERTEX
8
OBJECT__4
10
201.404999
20
17.923000
30
-4.942000
70
192
0
VERTEX
8
OBJECT__4
10
201.404999
20
16.356001
30
-5.660000
70
192
0
VERTEX
8
OBJECT__4
10
203.113007
20
-12.113000
30
-7.129000
70
192
0
VERTEX
8
OBJECT__4
10
203.031006
20
-12.120000
30
-7.129000
70
192
0
VERTEX
8
OBJECT__4
10
201.404999
20
-16.291000
30
-5.758000
70
192
0
VERTEX
8
OBJECT__4
10
201.404999
20
-16.174000
30
-5.822000
70
192
0
VERTEX
8
OBJECT__4
10
201.404999
20
-12.249000
30
-7.125000
70
192
0
VERTEX
8
OBJECT__4
10
204.585999
20
-11.799000
30
-7.133000
70
192
0
VERTEX
8
OBJECT__4
10
208.311996
20
-10.051000
30
-7.139000
70
192
0
VERTEX
8
OBJECT__4
10
209.289001
20
-9.205000
30
-7.140000
70
192
0
VERTEX
8
OBJECT__4
10
207.033997
20
-10.827000
30
-7.137000
70
192
0
VERTEX
8
OBJECT__4
10
206.052994
20
-11.217000
30
-7.135000
70
192
0
VERTEX
8
OBJECT__4
10
211.246002
20
-7.180000
30
-7.142000
70
192
0
VERTEX
8
OBJECT__4
10
210.300003
20
-8.329000
30
-7.142000
70
192
0
VERTEX
8
OBJECT__4
10
209.998993
20
-8.590000
30
-7.141000
70
192
0
VERTEX
8
OBJECT__4
10
212.552002
20
-4.903000
30
-7.144000
70
192
0
VERTEX
8
OBJECT__4
10
213.076004
20
-3.450000
30
-7.144000
70
192
0
VERTEX
8
OBJECT__4
10
213.065994
20
-3.504000
30
-7.144000
70
192
0
VERTEX
8
OBJECT__4
10
212.643005
20
-4.655000
30
-7.144000
70
192
0
VERTEX
8
OBJECT__4
10
213.544006
20
-0.927000
30
-7.144000
70
192
0
VERTEX
8
OBJECT__4
10
213.162994
20
3.162000
30
-7.144000
70
192
0
VERTEX
8
OBJECT__4
10
213.067001
20
3.447000
30
-7.144000
70
192
0
VERTEX
8
OBJECT__4
10
213.565994
20
0.572000
30
-7.144000
70
192
0
VERTEX
8
OBJECT__4
10
213.557999
20
0.000000
30
-7.144000
70
192
0
VERTEX
8
OBJECT__4
10
212.682007
20
4.594000
30
-7.144000
70
192
0
VERTEX
8
OBJECT__4
10
212.649002
20
4.656000
30
-7.144000
70
192
0
VERTEX
8
OBJECT__4
10
211.440002
20
6.905000
30
-7.143000
70
192
0
VERTEX
8
OBJECT__4
10
210.503006
20
8.105000
30
-7.142000
70
192
0
VERTEX
8
OBJECT__4
10
208.561005
20
9.874000
30
-7.139000
70
192
0
VERTEX
8
OBJECT__4
10
207.274994
20
10.697000
30
-7.137000
70
192
0
VERTEX
8
OBJECT__4
10
209.985001
20
8.576000
30
-7.141000
70
192
0
VERTEX
8
OBJECT__4
10
209.291000
20
9.209000
30
-7.140000
70
192
0
VERTEX
8
OBJECT__4
10
203.024002
20
12.059000
30
-7.129000
70
192
0
VERTEX
8
OBJECT__4
10
201.404999
20
12.249000
30
-7.125000
70
192
0
VERTEX
8
OBJECT__4
10
201.404999
20
14.954000
30
-6.303000
70
192
0
VERTEX
8
OBJECT__4
10
201.404999
20
16.266001
30
-5.702000
70
192
0
VERTEX
8
OBJECT__4
10
204.020004
20
11.942000
30
-7.131000
70
192
0
VERTEX
8
OBJECT__4
10
204.850998
20
11.723000
30
-7.133000
70
192
0
VERTEX
8
OBJECT__4
10
206.050003
20
11.215000
30
-7.135000
70
192
0
VERTEX
8
OBJECT__4
10
0
20
0
30
0
70
128
71
1
72
2
73
3
0
VERTEX
8
OBJECT__4
10
0
20
0
30
0
70
128
71
4
72
5
73
6
0
VERTEX
8
OBJECT__4
10
0
20
0
30
0
70
128
71
5
72
7
73
8
0
VERTEX
8
OBJECT__4
10
0
20
0
30
0
70
128
71
8
72
6
73
5
0
VERTEX
8
OBJECT__4
10
0
20
0
30
0
70
128
71
2
72
1
73
9
0
VERTEX
8
OBJECT__4
10
0
20
0
30
0
70
128
71
1
72
10
73
9
0
VERTEX
8
OBJECT__4
10
0
20
0
30
0
70
128
71
11
72
12
73
13
0
VERTEX
8
OBJECT__4
10
0
20
0
30
0
70
128
71
14
72
15
73
16
0
VERTEX
8
OBJECT__4
10
0
20
0
30
0
70
128
71
1
72
17
73
16
0
VERTEX
8
OBJECT__4
10
0
20
0
30
0
70
128
71
14
72
18
73
13
0
VERTEX
8
OBJECT__4
10
0
20
0
30
0
70
128
71
19
72
20
73
21
0
VERTEX
8
OBJECT__4
10
0
20
0
30
0
70
128
71
11
72
22
73
21
0
VERTEX
8
OBJECT__4
10
0
20
0
30
0
70
128
71
19
72
23
73
24
0
VERTEX
8
OBJECT__4
10
0
20
0
30
0
70
128
71
23
72
25
73
24
0
VERTEX
8
OBJECT__4
10
0
20
0
30
0
70
128
71
24
72
26
73
19
0
VERTEX
8
OBJECT__4
10
0
20
0
30
0
70
128
71
11
72
27
73
28
0
VERTEX
8
OBJECT__4
10
0
20
0
30
0
70
128
71
28
72
12
73
11
0
VERTEX
8
OBJECT__4
10
0
20
0
30
0
70
128
71
15
72
14
73
29
0
VERTEX
8
OBJECT__4
10
0
20
0
30
0
70
128
71
14
72
30
73
29
0
VERTEX
8
OBJECT__4
10
0
20
0
30
0
70
128
71
1
72
15
73
31
0
VERTEX
8
OBJECT__4
10
0
20
0
30
0
70
128
71
15
72
32
73
31
0
VERTEX
8
OBJECT__4
10
0
20
0
30
0
70
128
71
12
72
33
73
34
0
VERTEX
8
OBJECT__4
10
0
20
0
30
0
70
128
71
34
72
14
73
12
0
VERTEX
8
OBJECT__4
10
0
20
0
30
0
70
128
71
19
72
35
73
36
0
VERTEX
8
OBJECT__4
10
0
20
0
30
0
70
128
71
36
72
20
73
19
0
VERTEX
8
OBJECT__4
10
0
20
0
30
0
70
128
71
20
72
37
73
38
0
VERTEX
8
OBJECT__4
10
0
20
0
30
0
70
128
71
38
72
11
73
20
0
VERTEX
8
OBJECT__4
10
0
20
0
30
0
70
128
71
19
72
39
73
40
0
VERTEX
8
OBJECT__4
10
0
20
0
30
0
70
128
71
40
72
41
73
19
0
VERTEX
8
OBJECT__4
10
0
20
0
30
0
70
128
71
40
72
39
73
42
0
VERTEX
8
OBJECT__4
10
0
20
0
30
0
70
128
71
42
72
43
73
40
0
VERTEX
8
OBJECT__4
10
0
20
0
30
0
70
128
71
44
72
45
73
46
0
VERTEX
8
OBJECT__4
10
0
20
0
30
0
70
128
71
47
72
5
73
48
0
VERTEX
8
OBJECT__4
10
0
20
0
30
0
70
128
71
5
72
49
73
48
0
VERTEX
8
OBJECT__4
10
0
20
0
30
0
70
128
71
48
72
50
73
47
0
VERTEX
8
OBJECT__4
10
0
20
0
30
0
70
128
71
51
72
52
73
53
0
VERTEX
8
OBJECT__4
10
0
20
0
30
0
70
128
71
5
72
4
73
53
0
VERTEX
8
OBJECT__4
10
0
20
0
30
0
70
128
71
51
72
54
73
46
0
VERTEX
8
OBJECT__4
10
0
20
0
30
0
70
128
71
52
72
51
73
55
0
VERTEX
8
OBJECT__4
10
0
20
0
30
0
70
128
71
51
72
56
73
55
0
VERTEX
8
OBJECT__4
10
0
20
0
30
0
70
128
71
5
72
52
73
57
0
VERTEX
8
OBJECT__4
10
0
20
0
30
0
70
128
71
52
72
58
73
57
0
VERTEX
8
OBJECT__4
10
0
20
0
30
0
70
128
71
51
72
45
73
59
0
VERTEX
8
OBJECT__4
10
0
20
0
30
0
70
128
71
45
72
60
73
59
0
VERTEX
8
OBJECT__4
10
0
20
0
30
0
70
128
71
44
72
61
73
62
0
VERTEX
8
OBJECT__4
10
0
20
0
30
0
70
128
71
62
72
45
73
44
0
VERTEX
8
OBJECT__4
10
0
20
0
30
0
70
128
71
63
72
64
73
65
0
VERTEX
8
OBJECT__4
10
0
20
0
30
0
70
128
71
44
72
66
73
65
0
VERTEX
8
OBJECT__4
10
0
20
0
30
0
70
128
71
63
72
67
73
3
0
VERTEX
8
OBJECT__4
10
0
20
0
30
0
70
128
71
63
72
68
73
69
0
VERTEX
8
OBJECT__4
10
0
20
0
30
0
70
128
71
69
72
64
73
63
0
VERTEX
8
OBJECT__4
10
0
20
0
30
0
70
128
71
64
72
70
73
71
0
VERTEX
8
OBJECT__4
10
0
20
0
30
0
70
128
71
71
72
44
73
64
0
VERTEX
8
OBJECT__4
10
0
20
0
30
0
70
128
71
2
72
72
73
73
0
VERTEX
8
OBJECT__4
10
0
20
0
30
0
70
128
71
2
72
74
73
72
0
VERTEX
8
OBJECT__4
10
0
20
0
30
0
70
128
71
73
72
63
73
2
0
VERTEX
8
OBJECT__4
10
0
20
0
30
0
70
128
71
53
72
75
73
76
0
VERTEX
8
OBJECT__4
10
0
20
0
30
0
70
128
71
75
72
53
73
4
0
VERTEX
8
OBJECT__4
10
0
20
0
30
0
70
128
71
4
72
77
73
75
0
VERTEX
8
OBJECT__4
10
0
20
0
30
0
70
128
71
78
72
65
73
66
0
VERTEX
8
OBJECT__4
10
0
20
0
30
0
70
128
71
66
72
79
73
78
0
VERTEX
8
OBJECT__4
10
0
20
0
30
0
70
128
71
79
72
46
73
54
0
VERTEX
8
OBJECT__4
10
0
20
0
30
0
70
128
71
54
72
80
73
79
0
VERTEX
8
OBJECT__4
10
0
20
0
30
0
70
128
71
81
72
3
73
67
0
VERTEX
8
OBJECT__4
10
0
20
0
30
0
70
128
71
67
72
78
73
81
0
VERTEX
8
OBJECT__4
10
0
20
0
30
0
70
128
71
82
72
16
73
17
0
VERTEX
8
OBJECT__4
10
0
20
0
30
0
70
128
71
17
72
81
73
82
0
VERTEX
8
OBJECT__4
10
0
20
0
30
0
70
128
71
83
72
13
73
18
0
VERTEX
8
OBJECT__4
10
0
20
0
30
0
70
128
71
18
72
82
73
83
0
VERTEX
8
OBJECT__4
10
0
20
0
30
0
70
128
71
84
72
21
73
22
0
VERTEX
8
OBJECT__4
10
0
20
0
30
0
70
128
71
22
72
83
73
84
0
VERTEX
8
OBJECT__4
10
0
20
0
30
0
70
128
71
85
72
25
73
23
0
VERTEX
8
OBJECT__4
10
0
20
0
30
0
70
128
71
21
72
84
73
86
0
VERTEX
8
OBJECT__4
10
0
20
0
30
0
70
128
71
86
72
85
73
21
0
VERTEX
8
OBJECT__4
10
0
20
0
30
0
70
128
71
80
72
76
73
87
0
VERTEX
8
OBJECT__4
10
0
20
0
30
0
70
128
71
88
72
89
73
90
0
VERTEX
8
OBJECT__4
10
0
20
0
30
0
70
128
71
88
72
76
73
89
0
VERTEX
8
OBJECT__4
10
0
20
0
30
0
70
128
71
90
72
91
73
88
0
VERTEX
8
OBJECT__4
10
0
20
0
30
0
70
128
71
88
72
87
73
76
0
VERTEX
8
OBJECT__4
10
0
20
0
30
0
70
128
71
87
72
92
73
80
0
VERTEX
8
OBJECT__4
10
0
20
0
30
0
70
128
71
79
72
93
73
94
0
VERTEX
8
OBJECT__4
10
0
20
0
30
0
70
128
71
80
72
95
73
93
0
VERTEX
8
OBJECT__4
10
0
20
0
30
0
70
128
71
80
72
96
73
95
0
VERTEX
8
OBJECT__4
10
0
20
0
30
0
70
128
71
93
72
79
73
80
0
VERTEX
8
OBJECT__4
10
0
20
0
30
0
70
128
71
78
72
79
73
97
0
VERTEX
8
OBJECT__4
10
0
20
0
30
0
70
128
71
79
72
98
73
97
0
VERTEX
8
OBJECT__4
10
0
20
0
30
0
70
128
71
79
72
99
73
98
0
VERTEX
8
OBJECT__4
10
0
20
0
30
0
70
128
71
97
72
100
73
78
0
VERTEX
8
OBJECT__4
10
0
20
0
30
0
70
128
71
81
72
78
73
101
0
VERTEX
8
OBJECT__4
10
0
20
0
30
0
70
128
71
78
72
102
73
101
0
VERTEX
8
OBJECT__4
10
0
20
0
30
0
70
128
71
78
72
103
73
102
0
VERTEX
8
OBJECT__4
10
0
20
0
30
0
70
128
71
101
72
104
73
81
0
VERTEX
8
OBJECT__4
10
0
20
0
30
0
70
128
71
82
72
105
73
106
0
VERTEX
8
OBJECT__4
10
0
20
0
30
0
70
128
71
81
72
107
73
105
0
VERTEX
8
OBJECT__4
10
0
20
0
30
0
70
128
71
81
72
108
73
107
0
VERTEX
8
OBJECT__4
10
0
20
0
30
0
70
128
71
105
72
82
73
81
0
VERTEX
8
OBJECT__4
10
0
20
0
30
0
70
128
71
106
72
109
73
82
0
VERTEX
8
OBJECT__4
10
0
20
0
30
0
70
128
71
82
72
110
73
111
0
VERTEX
8
OBJECT__4
10
0
20
0
30
0
70
128
71
111
72
83
73
82
0
VERTEX
8
OBJECT__4
10
0
20
0
30
0
70
128
71
111
72
112
73
83
0
VERTEX
8
OBJECT__4
10
0
20
0
30
0
70
128
71
84
72
83
73
113
0
VERTEX
8
OBJECT__4
10
0
20
0
30
0
70
128
71
113
72
114
73
84
0
VERTEX
8
OBJECT__4
10
0
20
0
30
0
70
128
71
83
72
115
73
116
0
VERTEX
8
OBJECT__4
10
0
20
0
30
0
70
128
71
116
72
113
73
83
0
VERTEX
8
OBJECT__4
10
0
20
0
30
0
70
128
71
117
72
118
73
119
0
VERTEX
8
OBJECT__4
10
0
20
0
30
0
70
128
71
119
72
120
73
117
0
VERTEX
8
OBJECT__4
10
0
20
0
30
0
70
128
71
86
72
84
73
121
0
VERTEX
8
OBJECT__4
10
0
20
0
30
0
70
128
71
121
72
117
73
86
0
VERTEX
8
OBJECT__4
10
0
20
0
30
0
70
128
71
84
72
122
73
121
0
VERTEX
8
OBJECT__4
10
0
20
0
30
0
70
128
71
84
72
123
73
122
0
VERTEX
8
OBJECT__4
10
0
20
0
30
0
70
128
71
120
72
86
73
117
0
VERTEX
8
OBJECT__4
10
0
20
0
30
0
70
128
71
114
72
123
73
84
0
VERTEX
8
OBJECT__4
10
0
20
0
30
0
70
128
71
112
72
115
73
83
0
VERTEX
8
OBJECT__4
10
0
20
0
30
0
70
128
71
109
72
110
73
82
0
VERTEX
8
OBJECT__4
10
0
20
0
30
0
70
128
71
104
72
108
73
81
0
VERTEX
8
OBJECT__4
10
0
20
0
30
0
70
128
71
100
72
103
73
78
0
VERTEX
8
OBJECT__4
10
0
20
0
30
0
70
128
71
94
72
99
73
79
0
VERTEX
8
OBJECT__4
10
0
20
0
30
0
70
128
71
92
72
96
73
80
0
VERTEX
8
OBJECT__4
10
0
20
0
30
0
70
128
71
23
72
21
73
85
0
VERTEX
8
OBJECT__4
10
0
20
0
30
0
70
128
71
22
72
13
73
83
0
VERTEX
8
OBJECT__4
10
0
20
0
30
0
70
128
71
18
72
16
73
82
0
VERTEX
8
OBJECT__4
10
0
20
0
30
0
70
128
71
17
72
3
73
81
0
VERTEX
8
OBJECT__4
10
0
20
0
30
0
70
128
71
67
72
65
73
78
0
VERTEX
8
OBJECT__4
10
0
20
0
30
0
70
128
71
54
72
53
73
80
0
VERTEX
8
OBJECT__4
10
0
20
0
30
0
70
128
71
66
72
46
73
79
0
VERTEX
8
OBJECT__4
10
0
20
0
30
0
70
128
71
76
72
80
73
53
0
VERTEX
8
OBJECT__4
10
0
20
0
30
0
70
128
71
73
72
68
73
63
0
VERTEX
8
OBJECT__4
10
0
20
0
30
0
70
128
71
71
72
61
73
44
0
VERTEX
8
OBJECT__4
10
0
20
0
30
0
70
128
71
69
72
70
73
64
0
VERTEX
8
OBJECT__4
10
0
20
0
30
0
70
128
71
3
72
2
73
63
0
VERTEX
8
OBJECT__4
10
0
20
0
30
0
70
128
71
65
72
64
73
44
0
VERTEX
8
OBJECT__4
10
0
20
0
30
0
70
128
71
65
72
67
73
63
0
VERTEX
8
OBJECT__4
10
0
20
0
30
0
70
128
71
62
72
60
73
45
0
VERTEX
8
OBJECT__4
10
0
20
0
30
0
70
128
71
59
72
56
73
51
0
VERTEX
8
OBJECT__4
10
0
20
0
30
0
70
128
71
57
72
49
73
5
0
VERTEX
8
OBJECT__4
10
0
20
0
30
0
70
128
71
55
72
58
73
52
0
VERTEX
8
OBJECT__4
10
0
20
0
30
0
70
128
71
46
72
45
73
51
0
VERTEX
8
OBJECT__4
10
0
20
0
30
0
70
128
71
53
72
52
73
5
0
VERTEX
8
OBJECT__4
10
0
20
0
30
0
70
128
71
53
72
54
73
51
0
VERTEX
8
OBJECT__4
10
0
20
0
30
0
70
128
71
47
72
7
73
5
0
VERTEX
8
OBJECT__4
10
0
20
0
30
0
70
128
71
46
72
66
73
44
0
VERTEX
8
OBJECT__4
10
0
20
0
30
0
70
128
71
41
72
35
73
19
0
VERTEX
8
OBJECT__4
10
0
20
0
30
0
70
128
71
38
72
27
73
11
0
VERTEX
8
OBJECT__4
10
0
20
0
30
0
70
128
71
36
72
37
73
20
0
VERTEX
8
OBJECT__4
10
0
20
0
30
0
70
128
71
34
72
30
73
14
0
VERTEX
8
OBJECT__4
10
0
20
0
30
0
70
128
71
31
72
10
73
1
0
VERTEX
8
OBJECT__4
10
0
20
0
30
0
70
128
71
29
72
32
73
15
0
VERTEX
8
OBJECT__4
10
0
20
0
30
0
70
128
71
28
72
33
73
12
0
VERTEX
8
OBJECT__4
10
0
20
0
30
0
70
128
71
26
72
39
73
19
0
VERTEX
8
OBJECT__4
10
0
20
0
30
0
70
128
71
21
72
20
73
11
0
VERTEX
8
OBJECT__4
10
0
20
0
30
0
70
128
71
21
72
23
73
19
0
VERTEX
8
OBJECT__4
10
0
20
0
30
0
70
128
71
13
72
12
73
14
0
VERTEX
8
OBJECT__4
10
0
20
0
30
0
70
128
71
16
72
15
73
1
0
VERTEX
8
OBJECT__4
10
0
20
0
30
0
70
128
71
16
72
18
73
14
0
VERTEX
8
OBJECT__4
10
0
20
0
30
0
70
128
71
13
72
22
73
11
0
VERTEX
8
OBJECT__4
10
0
20
0
30
0
70
128
71
9
72
74
73
2
0
VERTEX
8
OBJECT__4
10
0
20
0
30
0
70
128
71
6
72
77
73
4
0
VERTEX
8
OBJECT__4
10
0
20
0
30
0
70
128
71
3
72
17
73
1
0
SEQEND
8
OBJECT__4
0
POLYLINE
8
OBJECT__5
66
1
70
64
71
40
72
38
62
253
0
VERTEX
8
OBJECT__5
10
201.404999
20
16.356001
30
-5.660000
70
192
0
VERTEX
8
OBJECT__5
10
143.778000
20
16.433001
30
-5.670000
70
192
0
VERTEX
8
OBJECT__5
10
143.778000
20
16.862000
30
-5.508000
70
192
0
VERTEX
8
OBJECT__5
10
143.778000
20
16.281000
30
-5.727000
70
192
0
VERTEX
8
OBJECT__5
10
201.404999
20
16.266001
30
-5.702000
70
192
0
VERTEX
8
OBJECT__5
10
143.778000
20
19.139000
30
-4.097000
70
192
0
VERTEX
8
OBJECT__5
10
201.404999
20
19.172001
30
-3.982000
70
192
0
VERTEX
8
OBJECT__5
10
201.404999
20
17.923000
30
-4.942000
70
192
0
VERTEX
8
OBJECT__5
10
143.778000
20
19.981001
30
-3.142000
70
192
0
VERTEX
8
OBJECT__5
10
201.404999
20
19.693001
30
-3.581000
70
192
0
VERTEX
8
OBJECT__5
10
201.404999
20
19.976000
30
-3.150000
70
192
0
VERTEX
8
OBJECT__5
10
143.778000
20
20.094999
30
-3.013000
70
192
0
VERTEX
8
OBJECT__5
10
201.404999
20
20.580000
30
-2.228000
70
192
0
VERTEX
8
OBJECT__5
10
201.404999
20
20.531000
30
-2.304000
70
192
0
VERTEX
8
OBJECT__5
10
143.778000
20
20.329000
30
-2.748000
70
192
0
VERTEX
8
OBJECT__5
10
143.778000
20
20.789000
30
-1.405000
70
192
0
VERTEX
8
OBJECT__5
10
201.404999
20
20.837000
30
-0.754000
70
192
0
VERTEX
8
OBJECT__5
10
143.778000
20
20.837000
30
-0.754000
70
192
0
VERTEX
8
OBJECT__5
10
194.229996
20
10.005000
30
-7.628000
70
192
0
VERTEX
8
OBJECT__5
10
143.778000
20
12.011000
30
-7.123000
70
192
0
VERTEX
8
OBJECT__5
10
143.778000
20
13.378000
30
-6.816000
70
192
0
VERTEX
8
OBJECT__5
10
193.233994
20
9.199000
30
-7.775000
70
192
0
VERTEX
8
OBJECT__5
10
143.778000
20
9.196000
30
-7.757000
70
192
0
VERTEX
8
OBJECT__5
10
196.488007
20
11.272000
30
-7.362000
70
192
0
VERTEX
8
OBJECT__5
10
196.210999
20
11.117000
30
-7.394000
70
192
0
VERTEX
8
OBJECT__5
10
197.927994
20
11.783000
30
-7.242000
70
192
0
VERTEX
8
OBJECT__5
10
200.473999
20
12.224000
30
-7.132000
70
192
0
VERTEX
8
OBJECT__5
10
201.404999
20
14.954000
30
-6.303000
70
192
0
VERTEX
8
OBJECT__5
10
201.404999
20
12.249000
30
-7.125000
70
192
0
VERTEX
8
OBJECT__5
10
143.778000
20
0.000000
30
-8.538000
70
192
0
VERTEX
8
OBJECT__5
10
189.591995
20
3.433000
30
-8.436000
70
192
0
VERTEX
8
OBJECT__5
10
189.382996
20
2.599000
30
-8.480000
70
192
0
VERTEX
8
OBJECT__5
10
190.578003
20
5.857000
30
-8.238000
70
192
0
VERTEX
8
OBJECT__5
10
191.350006
20
7.107000
30
-8.093000
70
192
0
VERTEX
8
OBJECT__5
10
191.044006
20
6.612000
30
-8.150000
70
192
0
VERTEX
8
OBJECT__5
10
193.072006
20
9.068000
30
-7.799000
70
192
0
VERTEX
8
OBJECT__5
10
143.778000
20
6.346000
30
-8.110000
70
192
0
VERTEX
8
OBJECT__5
10
143.778000
20
8.850000
30
-7.834000
70
192
0
VERTEX
8
OBJECT__5
10
143.778000
20
3.330000
30
-8.442000
70
192
0
VERTEX
8
OBJECT__5
10
189.108002
20
0.000000
30
-8.538000
70
192
0
VERTEX
8
OBJECT__5
10
0
20
0
30
0
70
128
71
1
72
2
73
3
0
VERTEX
8
OBJECT__5
10
0
20
0
30
0
70
128
71
4
72
2
73
1
0
VERTEX
8
OBJECT__5
10
0
20
0
30
0
70
128
71
1
72
5
73
4
0
VERTEX
8
OBJECT__5
10
0
20
0
30
0
70
128
71
6
72
7
73
8
0
VERTEX
8
OBJECT__5
10
0
20
0
30
0
70
128
71
6
72
9
73
10
0
VERTEX
8
OBJECT__5
10
0
20
0
30
0
70
128
71
10
72
7
73
6
0
VERTEX
8
OBJECT__5
10
0
20
0
30
0
70
128
71
8
72
3
73
6
0
VERTEX
8
OBJECT__5
10
0
20
0
30
0
70
128
71
9
72
11
73
10
0
VERTEX
8
OBJECT__5
10
0
20
0
30
0
70
128
71
12
72
13
73
14
0
VERTEX
8
OBJECT__5
10
0
20
0
30
0
70
128
71
14
72
9
73
12
0
VERTEX
8
OBJECT__5
10
0
20
0
30
0
70
128
71
14
72
11
73
9
0
VERTEX
8
OBJECT__5
10
0
20
0
30
0
70
128
71
12
72
15
73
13
0
VERTEX
8
OBJECT__5
10
0
20
0
30
0
70
128
71
13
72
15
73
16
0
VERTEX
8
OBJECT__5
10
0
20
0
30
0
70
128
71
16
72
17
73
13
0
VERTEX
8
OBJECT__5
10
0
20
0
30
0
70
128
71
16
72
18
73
17
0
VERTEX
8
OBJECT__5
10
0
20
0
30
0
70
128
71
19
72
20
73
21
0
VERTEX
8
OBJECT__5
10
0
20
0
30
0
70
128
71
20
72
19
73
22
0
VERTEX
8
OBJECT__5
10
0
20
0
30
0
70
128
71
22
72
23
73
20
0
VERTEX
8
OBJECT__5
10
0
20
0
30
0
70
128
71
4
72
24
73
25
0
VERTEX
8
OBJECT__5
10
0
20
0
30
0
70
128
71
25
72
19
73
4
0
VERTEX
8
OBJECT__5
10
0
20
0
30
0
70
128
71
5
72
26
73
24
0
VERTEX
8
OBJECT__5
10
0
20
0
30
0
70
128
71
24
72
4
73
5
0
VERTEX
8
OBJECT__5
10
0
20
0
30
0
70
128
71
27
72
5
73
28
0
VERTEX
8
OBJECT__5
10
0
20
0
30
0
70
128
71
28
72
29
73
27
0
VERTEX
8
OBJECT__5
10
0
20
0
30
0
70
128
71
27
72
26
73
5
0
VERTEX
8
OBJECT__5
10
0
20
0
30
0
70
128
71
30
72
31
73
32
0
VERTEX
8
OBJECT__5
10
0
20
0
30
0
70
128
71
30
72
33
73
31
0
VERTEX
8
OBJECT__5
10
0
20
0
30
0
70
128
71
30
72
34
73
35
0
VERTEX
8
OBJECT__5
10
0
20
0
30
0
70
128
71
35
72
33
73
30
0
VERTEX
8
OBJECT__5
10
0
20
0
30
0
70
128
71
30
72
36
73
34
0
VERTEX
8
OBJECT__5
10
0
20
0
30
0
70
128
71
23
72
22
73
36
0
VERTEX
8
OBJECT__5
10
0
20
0
30
0
70
128
71
36
72
37
73
38
0
VERTEX
8
OBJECT__5
10
0
20
0
30
0
70
128
71
36
72
30
73
39
0
VERTEX
8
OBJECT__5
10
0
20
0
30
0
70
128
71
39
72
37
73
36
0
VERTEX
8
OBJECT__5
10
0
20
0
30
0
70
128
71
36
72
38
73
23
0
VERTEX
8
OBJECT__5
10
0
20
0
30
0
70
128
71
32
72
40
73
30
0
VERTEX
8
OBJECT__5
10
0
20
0
30
0
70
128
71
21
72
4
73
19
0
VERTEX
8
OBJECT__5
10
0
20
0
30
0
70
128
71
3
72
8
73
1
0
SEQEND
8
OBJECT__5
0
POLYLINE
8
OBJECT__6
66
1
70
64
71
72
72
86
62
253
0
VERTEX
8
OBJECT__6
10
98.264000
20
10.138000
30
-8.219000
70
192
0
VERTEX
8
OBJECT__6
10
86.320000
20
9.479000
30
-9.287000
70
192
0
VERTEX
8
OBJECT__6
10
87.068001
20
13.593000
30
-8.190000
70
192
0
VERTEX
8
OBJECT__6
10
85.901001
20
4.925000
30
-9.911000
70
192
0
VERTEX
8
OBJECT__6
10
97.896004
20
5.288000
30
-8.919000
70
192
0
VERTEX
8
OBJECT__6
10
91.792000
20
0.000000
30
-9.539000
70
192
0
VERTEX
8
OBJECT__6
10
85.851997
20
0.000000
30
-10.165000
70
192
0
VERTEX
8
OBJECT__6
10
97.847000
20
0.000000
30
-9.211000
70
192
0
VERTEX
8
OBJECT__6
10
111.850998
20
10.781000
30
-7.640000
70
192
0
VERTEX
8
OBJECT__6
10
112.301003
20
15.184000
30
-6.360000
70
192
0
VERTEX
8
OBJECT__6
10
143.778000
20
13.378000
30
-6.816000
70
192
0
VERTEX
8
OBJECT__6
10
143.778000
20
16.433001
30
-5.670000
70
192
0
VERTEX
8
OBJECT__6
10
143.778000
20
16.281000
30
-5.727000
70
192
0
VERTEX
8
OBJECT__6
10
98.915001
20
14.429000
30
-7.028000
70
192
0
VERTEX
8
OBJECT__6
10
111.595001
20
5.648000
30
-8.427000
70
192
0
VERTEX
8
OBJECT__6
10
124.075996
20
0.000000
30
-8.566000
70
192
0
VERTEX
8
OBJECT__6
10
111.559998
20
0.000000
30
-8.773000
70
192
0
VERTEX
8
OBJECT__6
10
143.778000
20
3.330000
30
-8.442000
70
192
0
VERTEX
8
OBJECT__6
10
143.778000
20
0.000000
30
-8.538000
70
192
0
VERTEX
8
OBJECT__6
10
143.778000
20
6.346000
30
-8.110000
70
192
0
VERTEX
8
OBJECT__6
10
103.453003
20
0.000000
30
-8.907000
70
192
0
VERTEX
8
OBJECT__6
10
143.778000
20
8.850000
30
-7.834000
70
192
0
VERTEX
8
OBJECT__6
10
143.778000
20
12.011000
30
-7.123000
70
192
0
VERTEX
8
OBJECT__6
10
143.778000
20
9.196000
30
-7.757000
70
192
0
VERTEX
8
OBJECT__6
10
67.255997
20
4.201000
30
-13.932000
70
192
0
VERTEX
8
OBJECT__6
10
69.391998
20
0.000000
30
-13.327000
70
192
0
VERTEX
8
OBJECT__6
10
67.282997
20
0.000000
30
-14.110000
70
192
0
VERTEX
8
OBJECT__6
10
75.684998
20
4.562000
30
-11.559000
70
192
0
VERTEX
8
OBJECT__6
10
75.396004
20
0.000000
30
-11.764000
70
192
0
VERTEX
8
OBJECT__6
10
75.647003
20
0.000000
30
-11.721000
70
192
0
VERTEX
8
OBJECT__6
10
60.441002
20
7.571000
30
-16.740999
70
192
0
VERTEX
8
OBJECT__6
10
63.967999
20
0.000000
30
-15.340000
70
192
0
VERTEX
8
OBJECT__6
10
60.590000
20
0.000000
30
-17.051001
70
192
0
VERTEX
8
OBJECT__6
10
67.472000
20
8.177000
30
-13.509000
70
192
0
VERTEX
8
OBJECT__6
10
76.059998
20
8.819000
30
-11.017000
70
192
0
VERTEX
8
OBJECT__6
10
82.682999
20
0.000000
30
-10.499000
70
192
0
VERTEX
8
OBJECT__6
10
67.882004
20
11.890000
30
-12.740000
70
192
0
VERTEX
8
OBJECT__6
10
76.740997
20
12.726000
30
-10.045000
70
192
0
VERTEX
8
OBJECT__6
10
59.473999
20
0.000000
30
-17.615999
70
192
0
VERTEX
8
OBJECT__6
10
57.672001
20
7.153000
30
-18.440001
70
192
0
VERTEX
8
OBJECT__6
10
57.804001
20
7.316000
30
-18.341000
70
192
0
VERTEX
8
OBJECT__6
10
56.924000
20
5.749000
30
-19.030001
70
192
0
VERTEX
8
OBJECT__6
10
55.909000
20
3.006000
30
-19.846001
70
192
0
VERTEX
8
OBJECT__6
10
56.499001
20
4.949000
30
-19.365999
70
192
0
VERTEX
8
OBJECT__6
10
55.513000
20
0.000000
30
-20.171000
70
192
0
VERTEX
8
OBJECT__6
10
55.757999
20
2.506000
30
-19.969000
70
192
0
VERTEX
8
OBJECT__6
10
59.313999
20
9.183000
30
-17.218000
70
192
0
VERTEX
8
OBJECT__6
10
60.390999
20
10.107000
30
-16.483000
70
192
0
VERTEX
8
OBJECT__6
10
61.414001
20
10.985000
30
-15.785000
70
192
0
VERTEX
8
OBJECT__6
10
61.926998
20
11.290000
30
-15.474000
70
192
0
VERTEX
8
OBJECT__6
10
60.414001
20
10.126000
30
-16.468000
70
192
0
VERTEX
8
OBJECT__6
10
65.080002
20
12.990000
30
-13.642000
70
192
0
VERTEX
8
OBJECT__6
10
67.250999
20
13.885000
30
-12.505000
70
192
0
VERTEX
8
OBJECT__6
10
64.112999
20
12.592000
30
-14.148000
70
192
0
VERTEX
8
OBJECT__6
10
70.426003
20
14.755000
30
-11.137000
70
192
0
VERTEX
8
OBJECT__6
10
71.389999
20
15.020000
30
-10.721000
70
192
0
VERTEX
8
OBJECT__6
10
76.063004
20
15.821000
30
-9.163000
70
192
0
VERTEX
8
OBJECT__6
10
68.132004
20
14.126000
30
-12.125000
70
192
0
VERTEX
8
OBJECT__6
10
82.134003
20
16.403999
30
-7.758000
70
192
0
VERTEX
8
OBJECT__6
10
86.746002
20
16.676001
30
-6.983000
70
192
0
VERTEX
8
OBJECT__6
10
81.053001
20
16.340000
30
-7.940000
70
192
0
VERTEX
8
OBJECT__6
10
77.362000
20
15.956000
30
-8.844000
70
192
0
VERTEX
8
OBJECT__6
10
94.374001
20
16.875999
30
-6.231000
70
192
0
VERTEX
8
OBJECT__6
10
94.836998
20
16.888000
30
-6.185000
70
192
0
VERTEX
8
OBJECT__6
10
87.742996
20
16.702000
30
-6.884000
70
192
0
VERTEX
8
OBJECT__6
10
106.718002
20
16.940001
30
-5.711000
70
192
0
VERTEX
8
OBJECT__6
10
99.390999
20
16.913000
30
-5.983000
70
192
0
VERTEX
8
OBJECT__6
10
105.217003
20
16.945000
30
-5.725000
70
192
0
VERTEX
8
OBJECT__6
10
127.776001
20
16.879000
30
-5.515000
70
192
0
VERTEX
8
OBJECT__6
10
119.068001
20
16.905001
30
-5.596000
70
192
0
VERTEX
8
OBJECT__6
10
112.532997
20
16.924000
30
-5.657000
70
192
0
VERTEX
8
OBJECT__6
10
143.778000
20
16.862000
30
-5.508000
70
192
0
VERTEX
8
OBJECT__6
10
0
20
0
30
0
70
128
71
1
72
2
73
3
0
VERTEX
8
OBJECT__6
10
0
20
0
30
0
70
128
71
4
72
5
73
6
0
VERTEX
8
OBJECT__6
10
0
20
0
30
0
70
128
71
6
72
7
73
4
0
VERTEX
8
OBJECT__6
10
0
20
0
30
0
70
128
71
5
72
8
73
6
0
VERTEX
8
OBJECT__6
10
0
20
0
30
0
70
128
71
9
72
10
73
11
0
VERTEX
8
OBJECT__6
10
0
20
0
30
0
70
128
71
10
72
12
73
13
0
VERTEX
8
OBJECT__6
10
0
20
0
30
0
70
128
71
13
72
11
73
10
0
VERTEX
8
OBJECT__6
10
0
20
0
30
0
70
128
71
9
72
1
73
14
0
VERTEX
8
OBJECT__6
10
0
20
0
30
0
70
128
71
5
72
4
73
2
0
VERTEX
8
OBJECT__6
10
0
20
0
30
0
70
128
71
15
72
16
73
17
0
VERTEX
8
OBJECT__6
10
0
20
0
30
0
70
128
71
18
72
19
73
16
0
VERTEX
8
OBJECT__6
10
0
20
0
30
0
70
128
71
15
72
20
73
18
0
VERTEX
8
OBJECT__6
10
0
20
0
30
0
70
128
71
16
72
15
73
18
0
VERTEX
8
OBJECT__6
10
0
20
0
30
0
70
128
71
5
72
21
73
8
0
VERTEX
8
OBJECT__6
10
0
20
0
30
0
70
128
71
15
72
17
73
21
0
VERTEX
8
OBJECT__6
10
0
20
0
30
0
70
128
71
21
72
5
73
15
0
VERTEX
8
OBJECT__6
10
0
20
0
30
0
70
128
71
15
72
9
73
22
0
VERTEX
8
OBJECT__6
10
0
20
0
30
0
70
128
71
9
72
23
73
24
0
VERTEX
8
OBJECT__6
10
0
20
0
30
0
70
128
71
24
72
22
73
9
0
VERTEX
8
OBJECT__6
10
0
20
0
30
0
70
128
71
15
72
5
73
1
0
VERTEX
8
OBJECT__6
10
0
20
0
30
0
70
128
71
25
72
26
73
27
0
VERTEX
8
OBJECT__6
10
0
20
0
30
0
70
128
71
28
72
29
73
26
0
VERTEX
8
OBJECT__6
10
0
20
0
30
0
70
128
71
28
72
30
73
29
0
VERTEX
8
OBJECT__6
10
0
20
0
30
0
70
128
71
26
72
25
73
28
0
VERTEX
8
OBJECT__6
10
0
20
0
30
0
70
128
71
31
72
32
73
33
0
VERTEX
8
OBJECT__6
10
0
20
0
30
0
70
128
71
25
72
27
73
32
0
VERTEX
8
OBJECT__6
10
0
20
0
30
0
70
128
71
32
72
31
73
25
0
VERTEX
8
OBJECT__6
10
0
20
0
30
0
70
128
71
31
72
34
73
25
0
VERTEX
8
OBJECT__6
10
0
20
0
30
0
70
128
71
34
72
35
73
28
0
VERTEX
8
OBJECT__6
10
0
20
0
30
0
70
128
71
28
72
4
73
36
0
VERTEX
8
OBJECT__6
10
0
20
0
30
0
70
128
71
36
72
30
73
28
0
VERTEX
8
OBJECT__6
10
0
20
0
30
0
70
128
71
4
72
7
73
36
0
VERTEX
8
OBJECT__6
10
0
20
0
30
0
70
128
71
4
72
28
73
35
0
VERTEX
8
OBJECT__6
10
0
20
0
30
0
70
128
71
37
72
38
73
35
0
VERTEX
8
OBJECT__6
10
0
20
0
30
0
70
128
71
2
72
35
73
38
0
VERTEX
8
OBJECT__6
10
0
20
0
30
0
70
128
71
39
72
40
73
41
0
VERTEX
8
OBJECT__6
10
0
20
0
30
0
70
128
71
39
72
42
73
40
0
VERTEX
8
OBJECT__6
10
0
20
0
30
0
70
128
71
39
72
43
73
44
0
VERTEX
8
OBJECT__6
10
0
20
0
30
0
70
128
71
44
72
42
73
39
0
VERTEX
8
OBJECT__6
10
0
20
0
30
0
70
128
71
39
72
45
73
46
0
VERTEX
8
OBJECT__6
10
0
20
0
30
0
70
128
71
46
72
43
73
39
0
VERTEX
8
OBJECT__6
10
0
20
0
30
0
70
128
71
31
72
33
73
39
0
VERTEX
8
OBJECT__6
10
0
20
0
30
0
70
128
71
31
72
41
73
47
0
VERTEX
8
OBJECT__6
10
0
20
0
30
0
70
128
71
47
72
48
73
31
0
VERTEX
8
OBJECT__6
10
0
20
0
30
0
70
128
71
34
72
49
73
50
0
VERTEX
8
OBJECT__6
10
0
20
0
30
0
70
128
71
34
72
31
73
51
0
VERTEX
8
OBJECT__6
10
0
20
0
30
0
70
128
71
51
72
49
73
34
0
VERTEX
8
OBJECT__6
10
0
20
0
30
0
70
128
71
37
72
52
73
53
0
VERTEX
8
OBJECT__6
10
0
20
0
30
0
70
128
71
37
72
50
73
54
0
VERTEX
8
OBJECT__6
10
0
20
0
30
0
70
128
71
54
72
52
73
37
0
VERTEX
8
OBJECT__6
10
0
20
0
30
0
70
128
71
38
72
55
73
56
0
VERTEX
8
OBJECT__6
10
0
20
0
30
0
70
128
71
56
72
57
73
38
0
VERTEX
8
OBJECT__6
10
0
20
0
30
0
70
128
71
37
72
58
73
55
0
VERTEX
8
OBJECT__6
10
0
20
0
30
0
70
128
71
55
72
38
73
37
0
VERTEX
8
OBJECT__6
10
0
20
0
30
0
70
128
71
3
72
59
73
60
0
VERTEX
8
OBJECT__6
10
0
20
0
30
0
70
128
71
38
72
61
73
59
0
VERTEX
8
OBJECT__6
10
0
20
0
30
0
70
128
71
38
72
62
73
61
0
VERTEX
8
OBJECT__6
10
0
20
0
30
0
70
128
71
59
72
3
73
38
0
VERTEX
8
OBJECT__6
10
0
20
0
30
0
70
128
71
14
72
63
73
64
0
VERTEX
8
OBJECT__6
10
0
20
0
30
0
70
128
71
3
72
65
73
63
0
VERTEX
8
OBJECT__6
10
0
20
0
30
0
70
128
71
63
72
14
73
3
0
VERTEX
8
OBJECT__6
10
0
20
0
30
0
70
128
71
10
72
14
73
66
0
VERTEX
8
OBJECT__6
10
0
20
0
30
0
70
128
71
14
72
67
73
68
0
VERTEX
8
OBJECT__6
10
0
20
0
30
0
70
128
71
68
72
66
73
14
0
VERTEX
8
OBJECT__6
10
0
20
0
30
0
70
128
71
12
72
10
73
69
0
VERTEX
8
OBJECT__6
10
0
20
0
30
0
70
128
71
10
72
70
73
69
0
VERTEX
8
OBJECT__6
10
0
20
0
30
0
70
128
71
10
72
71
73
70
0
VERTEX
8
OBJECT__6
10
0
20
0
30
0
70
128
71
69
72
72
73
12
0
VERTEX
8
OBJECT__6
10
0
20
0
30
0
70
128
71
66
72
71
73
10
0
VERTEX
8
OBJECT__6
10
0
20
0
30
0
70
128
71
64
72
67
73
14
0
VERTEX
8
OBJECT__6
10
0
20
0
30
0
70
128
71
60
72
65
73
3
0
VERTEX
8
OBJECT__6
10
0
20
0
30
0
70
128
71
57
72
62
73
38
0
VERTEX
8
OBJECT__6
10
0
20
0
30
0
70
128
71
53
72
58
73
37
0
VERTEX
8
OBJECT__6
10
0
20
0
30
0
70
128
71
50
72
37
73
34
0
VERTEX
8
OBJECT__6
10
0
20
0
30
0
70
128
71
48
72
51
73
31
0
VERTEX
8
OBJECT__6
10
0
20
0
30
0
70
128
71
41
72
31
73
39
0
VERTEX
8
OBJECT__6
10
0
20
0
30
0
70
128
71
38
72
3
73
2
0
VERTEX
8
OBJECT__6
10
0
20
0
30
0
70
128
71
35
72
34
73
37
0
VERTEX
8
OBJECT__6
10
0
20
0
30
0
70
128
71
35
72
2
73
4
0
VERTEX
8
OBJECT__6
10
0
20
0
30
0
70
128
71
28
72
25
73
34
0
VERTEX
8
OBJECT__6
10
0
20
0
30
0
70
128
71
1
72
9
73
15
0
VERTEX
8
OBJECT__6
10
0
20
0
30
0
70
128
71
22
72
20
73
15
0
VERTEX
8
OBJECT__6
10
0
20
0
30
0
70
128
71
2
72
1
73
5
0
VERTEX
8
OBJECT__6
10
0
20
0
30
0
70
128
71
14
72
10
73
9
0
VERTEX
8
OBJECT__6
10
0
20
0
30
0
70
128
71
11
72
23
73
9
0
VERTEX
8
OBJECT__6
10
0
20
0
30
0
70
128
71
3
72
14
73
1
0
SEQEND
8
OBJECT__6
0
POLYLINE
8
OBJECT__7
66
1
70
64
71
74
72
89
62
253
0
VERTEX
8
OBJECT__7
10
98.264999
20
-10.144000
30
-8.217000
70
192
0
VERTEX
8
OBJECT__7
10
98.917000
20
-14.437000
30
-7.025000
70
192
0
VERTEX
8
OBJECT__7
10
87.070000
20
-13.601000
30
-8.188000
70
192
0
VERTEX
8
OBJECT__7
10
97.896004
20
-5.292000
30
-8.919000
70
192
0
VERTEX
8
OBJECT__7
10
91.792000
20
0.000000
30
-9.539000
70
192
0
VERTEX
8
OBJECT__7
10
97.847000
20
0.000000
30
-9.211000
70
192
0
VERTEX
8
OBJECT__7
10
85.901001
20
-4.929000
30
-9.911000
70
192
0
VERTEX
8
OBJECT__7
10
85.851997
20
0.000000
30
-10.165000
70
192
0
VERTEX
8
OBJECT__7
10
112.302002
20
-15.193000
30
-6.357000
70
192
0
VERTEX
8
OBJECT__7
10
143.778000
20
-15.590000
30
-6.063000
70
192
0
VERTEX
8
OBJECT__7
10
143.778000
20
-16.291000
30
-5.757000
70
192
0
VERTEX
8
OBJECT__7
10
143.778000
20
-12.019000
30
-7.138000
70
192
0
VERTEX
8
OBJECT__7
10
111.851997
20
-10.787000
30
-7.639000
70
192
0
VERTEX
8
OBJECT__7
10
67.883003
20
-11.897000
30
-12.738000
70
192
0
VERTEX
8
OBJECT__7
10
67.473000
20
-8.182000
30
-13.508000
70
192
0
VERTEX
8
OBJECT__7
10
76.060997
20
-8.825000
30
-11.016000
70
192
0
VERTEX
8
OBJECT__7
10
86.320999
20
-9.486000
30
-9.286000
70
192
0
VERTEX
8
OBJECT__7
10
76.742996
20
-12.733000
30
-10.042000
70
192
0
VERTEX
8
OBJECT__7
10
75.684998
20
-4.565000
30
-11.559000
70
192
0
VERTEX
8
OBJECT__7
10
75.396004
20
0.000000
30
-11.764000
70
192
0
VERTEX
8
OBJECT__7
10
75.647003
20
0.000000
30
-11.721000
70
192
0
VERTEX
8
OBJECT__7
10
67.255997
20
-4.204000
30
-13.932000
70
192
0
VERTEX
8
OBJECT__7
10
69.391998
20
0.000000
30
-13.327000
70
192
0
VERTEX
8
OBJECT__7
10
67.282997
20
0.000000
30
-14.110000
70
192
0
VERTEX
8
OBJECT__7
10
63.967999
20
0.000000
30
-15.340000
70
192
0
VERTEX
8
OBJECT__7
10
60.502998
20
-3.850000
30
-16.959000
70
192
0
VERTEX
8
OBJECT__7
10
60.590000
20
0.000000
30
-17.051001
70
192
0
VERTEX
8
OBJECT__7
10
82.682999
20
0.000000
30
-10.499000
70
192
0
VERTEX
8
OBJECT__7
10
60.441002
20
-7.576000
30
-16.740000
70
192
0
VERTEX
8
OBJECT__7
10
143.778000
20
-5.927000
30
-8.230000
70
192
0
VERTEX
8
OBJECT__7
10
111.596001
20
-5.651000
30
-8.427000
70
192
0
VERTEX
8
OBJECT__7
10
124.075996
20
0.000000
30
-8.566000
70
192
0
VERTEX
8
OBJECT__7
10
143.778000
20
0.000000
30
-8.538000
70
192
0
VERTEX
8
OBJECT__7
10
111.559998
20
0.000000
30
-8.773000
70
192
0
VERTEX
8
OBJECT__7
10
103.453003
20
0.000000
30
-8.907000
70
192
0
VERTEX
8
OBJECT__7
10
143.778000
20
-6.355000
30
-8.160000
70
192
0
VERTEX
8
OBJECT__7
10
143.778000
20
-9.187000
30
-7.699000
70
192
0
VERTEX
8
OBJECT__7
10
143.778000
20
-11.296000
30
-7.355000
70
192
0
VERTEX
8
OBJECT__7
10
143.778000
20
-16.448000
30
-5.689000
70
192
0
VERTEX
8
OBJECT__7
10
143.778000
20
-16.862000
30
-5.508000
70
192
0
VERTEX
8
OBJECT__7
10
122.202003
20
-16.896000
30
-5.527000
70
192
0
VERTEX
8
OBJECT__7
10
119.070000
20
-16.906000
30
-5.558000
70
192
0
VERTEX
8
OBJECT__7
10
106.717003
20
-16.938999
30
-5.704000
70
192
0
VERTEX
8
OBJECT__7
10
112.530998
20
-16.926001
30
-5.623000
70
192
0
VERTEX
8
OBJECT__7
10
107.538002
20
-16.941999
30
-5.672000
70
192
0
VERTEX
8
OBJECT__7
10
94.373001
20
-16.870001
30
-6.245000
70
192
0
VERTEX
8
OBJECT__7
10
88.197998
20
-16.733000
30
-6.798000
70
192
0
VERTEX
8
OBJECT__7
10
99.391998
20
-16.912001
30
-5.988000
70
192
0
VERTEX
8
OBJECT__7
10
95.607002
20
-16.898001
30
-6.134000
70
192
0
VERTEX
8
OBJECT__7
10
81.986000
20
-16.410000
30
-7.754000
70
192
0
VERTEX
8
OBJECT__7
10
82.135002
20
-16.417999
30
-7.732000
70
192
0
VERTEX
8
OBJECT__7
10
87.742996
20
-16.709000
30
-6.868000
70
192
0
VERTEX
8
OBJECT__7
10
70.422997
20
-14.742000
30
-11.149000
70
192
0
VERTEX
8
OBJECT__7
10
76.152000
20
-15.819000
30
-9.154000
70
192
0
VERTEX
8
OBJECT__7
10
71.844002
20
-15.114000
30
-10.550000
70
192
0
VERTEX
8
OBJECT__7
10
77.361000
20
-15.964000
30
-8.834000
70
192
0
VERTEX
8
OBJECT__7
10
76.570000
20
-15.887000
30
-9.019000
70
192
0
VERTEX
8
OBJECT__7
10
68.129997
20
-14.140000
30
-12.116000
70
192
0
VERTEX
8
OBJECT__7
10
67.582001
20
-13.996000
30
-12.347000
70
192
0
VERTEX
8
OBJECT__7
10
65.078003
20
-12.987000
30
-13.644000
70
192
0
VERTEX
8
OBJECT__7
10
61.383999
20
-10.960000
30
-15.805000
70
192
0
VERTEX
8
OBJECT__7
10
60.416000
20
-10.119000
30
-16.468000
70
192
0
VERTEX
8
OBJECT__7
10
64.181999
20
-12.626000
30
-14.109000
70
192
0
VERTEX
8
OBJECT__7
10
60.403999
20
-10.108000
30
-16.476000
70
192
0
VERTEX
8
OBJECT__7
10
59.181000
20
-9.046000
30
-17.313000
70
192
0
VERTEX
8
OBJECT__7
10
56.932999
20
-5.755000
30
-19.023001
70
192
0
VERTEX
8
OBJECT__7
10
56.400002
20
-4.706000
30
-19.445000
70
192
0
VERTEX
8
OBJECT__7
10
57.830002
20
-7.318000
30
-18.323999
70
192
0
VERTEX
8
OBJECT__7
10
57.535999
20
-6.942000
30
-18.545000
70
192
0
VERTEX
8
OBJECT__7
10
59.473999
20
0.000000
30
-17.615999
70
192
0
VERTEX
8
OBJECT__7
10
55.926998
20
-3.003000
30
-19.830999
70
192
0
VERTEX
8
OBJECT__7
10
55.695999
20
-2.171000
30
-20.020000
70
192
0
VERTEX
8
OBJECT__7
10
56.085999
20
-3.573000
30
-19.702000
70
192
0
VERTEX
8
OBJECT__7
10
55.513000
20
0.000000
30
-20.171000
70
192
0
VERTEX
8
OBJECT__7
10
0
20
0
30
0
70
128
71
1
72
2
73
3
0
VERTEX
8
OBJECT__7
10
0
20
0
30
0
70
128
71
4
72
5
73
6
0
VERTEX
8
OBJECT__7
10
0
20
0
30
0
70
128
71
7
72
8
73
5
0
VERTEX
8
OBJECT__7
10
0
20
0
30
0
70
128
71
5
72
4
73
7
0
VERTEX
8
OBJECT__7
10
0
20
0
30
0
70
128
71
9
72
10
73
11
0
VERTEX
8
OBJECT__7
10
0
20
0
30
0
70
128
71
12
72
10
73
9
0
VERTEX
8
OBJECT__7
10
0
20
0
30
0
70
128
71
9
72
13
73
12
0
VERTEX
8
OBJECT__7
10
0
20
0
30
0
70
128
71
13
72
9
73
2
0
VERTEX
8
OBJECT__7
10
0
20
0
30
0
70
128
71
14
72
15
73
16
0
VERTEX
8
OBJECT__7
10
0
20
0
30
0
70
128
71
17
72
3
73
18
0
VERTEX
8
OBJECT__7
10
0
20
0
30
0
70
128
71
19
72
20
73
21
0
VERTEX
8
OBJECT__7
10
0
20
0
30
0
70
128
71
19
72
22
73
23
0
VERTEX
8
OBJECT__7
10
0
20
0
30
0
70
128
71
23
72
20
73
19
0
VERTEX
8
OBJECT__7
10
0
20
0
30
0
70
128
71
22
72
24
73
23
0
VERTEX
8
OBJECT__7
10
0
20
0
30
0
70
128
71
22
72
25
73
24
0
VERTEX
8
OBJECT__7
10
0
20
0
30
0
70
128
71
26
72
27
73
25
0
VERTEX
8
OBJECT__7
10
0
20
0
30
0
70
128
71
25
72
22
73
26
0
VERTEX
8
OBJECT__7
10
0
20
0
30
0
70
128
71
7
72
28
73
8
0
VERTEX
8
OBJECT__7
10
0
20
0
30
0
70
128
71
19
72
21
73
28
0
VERTEX
8
OBJECT__7
10
0
20
0
30
0
70
128
71
28
72
7
73
19
0
VERTEX
8
OBJECT__7
10
0
20
0
30
0
70
128
71
15
72
22
73
19
0
VERTEX
8
OBJECT__7
10
0
20
0
30
0
70
128
71
29
72
26
73
22
0
VERTEX
8
OBJECT__7
10
0
20
0
30
0
70
128
71
7
72
17
73
16
0
VERTEX
8
OBJECT__7
10
0
20
0
30
0
70
128
71
30
72
31
73
32
0
VERTEX
8
OBJECT__7
10
0
20
0
30
0
70
128
71
32
72
33
73
30
0
VERTEX
8
OBJECT__7
10
0
20
0
30
0
70
128
71
31
72
34
73
32
0
VERTEX
8
OBJECT__7
10
0
20
0
30
0
70
128
71
4
72
1
73
17
0
VERTEX
8
OBJECT__7
10
0
20
0
30
0
70
128
71
31
72
4
73
35
0
VERTEX
8
OBJECT__7
10
0
20
0
30
0
70
128
71
35
72
34
73
31
0
VERTEX
8
OBJECT__7
10
0
20
0
30
0
70
128
71
4
72
6
73
35
0
VERTEX
8
OBJECT__7
10
0
20
0
30
0
70
128
71
31
72
13
73
1
0
VERTEX
8
OBJECT__7
10
0
20
0
30
0
70
128
71
31
72
36
73
37
0
VERTEX
8
OBJECT__7
10
0
20
0
30
0
70
128
71
37
72
13
73
31
0
VERTEX
8
OBJECT__7
10
0
20
0
30
0
70
128
71
37
72
38
73
13
0
VERTEX
8
OBJECT__7
10
0
20
0
30
0
70
128
71
39
72
40
73
41
0
VERTEX
8
OBJECT__7
10
0
20
0
30
0
70
128
71
41
72
9
73
39
0
VERTEX
8
OBJECT__7
10
0
20
0
30
0
70
128
71
41
72
42
73
9
0
VERTEX
8
OBJECT__7
10
0
20
0
30
0
70
128
71
2
72
9
73
43
0
VERTEX
8
OBJECT__7
10
0
20
0
30
0
70
128
71
9
72
44
73
45
0
VERTEX
8
OBJECT__7
10
0
20
0
30
0
70
128
71
45
72
43
73
9
0
VERTEX
8
OBJECT__7
10
0
20
0
30
0
70
128
71
3
72
2
73
46
0
VERTEX
8
OBJECT__7
10
0
20
0
30
0
70
128
71
46
72
47
73
3
0
VERTEX
8
OBJECT__7
10
0
20
0
30
0
70
128
71
2
72
48
73
49
0
VERTEX
8
OBJECT__7
10
0
20
0
30
0
70
128
71
49
72
46
73
2
0
VERTEX
8
OBJECT__7
10
0
20
0
30
0
70
128
71
18
72
3
73
50
0
VERTEX
8
OBJECT__7
10
0
20
0
30
0
70
128
71
3
72
51
73
50
0
VERTEX
8
OBJECT__7
10
0
20
0
30
0
70
128
71
3
72
52
73
51
0
VERTEX
8
OBJECT__7
10
0
20
0
30
0
70
128
71
14
72
18
73
53
0
VERTEX
8
OBJECT__7
10
0
20
0
30
0
70
128
71
18
72
54
73
55
0
VERTEX
8
OBJECT__7
10
0
20
0
30
0
70
128
71
18
72
56
73
57
0
VERTEX
8
OBJECT__7
10
0
20
0
30
0
70
128
71
57
72
54
73
18
0
VERTEX
8
OBJECT__7
10
0
20
0
30
0
70
128
71
55
72
53
73
18
0
VERTEX
8
OBJECT__7
10
0
20
0
30
0
70
128
71
14
72
58
73
59
0
VERTEX
8
OBJECT__7
10
0
20
0
30
0
70
128
71
59
72
60
73
14
0
VERTEX
8
OBJECT__7
10
0
20
0
30
0
70
128
71
15
72
61
73
62
0
VERTEX
8
OBJECT__7
10
0
20
0
30
0
70
128
71
15
72
14
73
63
0
VERTEX
8
OBJECT__7
10
0
20
0
30
0
70
128
71
63
72
61
73
15
0
VERTEX
8
OBJECT__7
10
0
20
0
30
0
70
128
71
62
72
29
73
15
0
VERTEX
8
OBJECT__7
10
0
20
0
30
0
70
128
71
29
72
64
73
65
0
VERTEX
8
OBJECT__7
10
0
20
0
30
0
70
128
71
29
72
62
73
64
0
VERTEX
8
OBJECT__7
10
0
20
0
30
0
70
128
71
26
72
66
73
67
0
VERTEX
8
OBJECT__7
10
0
20
0
30
0
70
128
71
26
72
29
73
68
0
VERTEX
8
OBJECT__7
10
0
20
0
30
0
70
128
71
68
72
69
73
26
0
VERTEX
8
OBJECT__7
10
0
20
0
30
0
70
128
71
69
72
66
73
26
0
VERTEX
8
OBJECT__7
10
0
20
0
30
0
70
128
71
26
72
70
73
27
0
VERTEX
8
OBJECT__7
10
0
20
0
30
0
70
128
71
70
72
71
73
72
0
VERTEX
8
OBJECT__7
10
0
20
0
30
0
70
128
71
70
72
26
73
73
0
VERTEX
8
OBJECT__7
10
0
20
0
30
0
70
128
71
73
72
71
73
70
0
VERTEX
8
OBJECT__7
10
0
20
0
30
0
70
128
71
72
72
74
73
70
0
VERTEX
8
OBJECT__7
10
0
20
0
30
0
70
128
71
67
72
73
73
26
0
VERTEX
8
OBJECT__7
10
0
20
0
30
0
70
128
71
65
72
68
73
29
0
VERTEX
8
OBJECT__7
10
0
20
0
30
0
70
128
71
60
72
63
73
14
0
VERTEX
8
OBJECT__7
10
0
20
0
30
0
70
128
71
53
72
58
73
14
0
VERTEX
8
OBJECT__7
10
0
20
0
30
0
70
128
71
50
72
56
73
18
0
VERTEX
8
OBJECT__7
10
0
20
0
30
0
70
128
71
47
72
52
73
3
0
VERTEX
8
OBJECT__7
10
0
20
0
30
0
70
128
71
43
72
48
73
2
0
VERTEX
8
OBJECT__7
10
0
20
0
30
0
70
128
71
42
72
44
73
9
0
VERTEX
8
OBJECT__7
10
0
20
0
30
0
70
128
71
38
72
12
73
13
0
VERTEX
8
OBJECT__7
10
0
20
0
30
0
70
128
71
1
72
4
73
31
0
VERTEX
8
OBJECT__7
10
0
20
0
30
0
70
128
71
17
72
7
73
4
0
VERTEX
8
OBJECT__7
10
0
20
0
30
0
70
128
71
30
72
36
73
31
0
VERTEX
8
OBJECT__7
10
0
20
0
30
0
70
128
71
16
72
19
73
7
0
VERTEX
8
OBJECT__7
10
0
20
0
30
0
70
128
71
22
72
15
73
29
0
VERTEX
8
OBJECT__7
10
0
20
0
30
0
70
128
71
19
72
16
73
15
0
VERTEX
8
OBJECT__7
10
0
20
0
30
0
70
128
71
18
72
16
73
17
0
VERTEX
8
OBJECT__7
10
0
20
0
30
0
70
128
71
16
72
18
73
14
0
VERTEX
8
OBJECT__7
10
0
20
0
30
0
70
128
71
2
72
1
73
13
0
VERTEX
8
OBJECT__7
10
0
20
0
30
0
70
128
71
11
72
39
73
9
0
VERTEX
8
OBJECT__7
10
0
20
0
30
0
70
128
71
3
72
17
73
1
0
SEQEND
8
OBJECT__7
0
POLYLINE
8
OBJECT__8
66
1
70
64
71
40
72
38
62
253
0
VERTEX
8
OBJECT__8
10
201.404999
20
-20.014999
30
-3.169000
70
192
0
VERTEX
8
OBJECT__8
10
143.778000
20
-19.974001
30
-3.148000
70
192
0
VERTEX
8
OBJECT__8
10
143.778000
20
-19.674000
30
-3.601000
70
192
0
VERTEX
8
OBJECT__8
10
143.778000
20
-17.893999
30
-4.959000
70
192
0
VERTEX
8
OBJECT__8
10
201.404999
20
-18.712000
30
-4.427000
70
192
0
VERTEX
8
OBJECT__8
10
201.404999
20
-19.167000
30
-3.988000
70
192
0
VERTEX
8
OBJECT__8
10
201.404999
20
-16.377001
30
-5.710000
70
192
0
VERTEX
8
OBJECT__8
10
143.778000
20
-16.862000
30
-5.508000
70
192
0
VERTEX
8
OBJECT__8
10
143.778000
20
-16.291000
30
-5.757000
70
192
0
VERTEX
8
OBJECT__8
10
201.404999
20
-16.291000
30
-5.758000
70
192
0
VERTEX
8
OBJECT__8
10
143.778000
20
-16.448000
30
-5.689000
70
192
0
VERTEX
8
OBJECT__8
10
143.778000
20
-20.837000
30
-0.754000
70
192
0
VERTEX
8
OBJECT__8
10
143.778000
20
-20.575001
30
-2.242000
70
192
0
VERTEX
8
OBJECT__8
10
201.404999
20
-20.729000
30
-1.739000
70
192
0
VERTEX
8
OBJECT__8
10
143.778000
20
-20.070000
30
-3.005000
70
192
0
VERTEX
8
OBJECT__8
10
201.404999
20
-20.122000
30
-3.066000
70
192
0
VERTEX
8
OBJECT__8
10
201.404999
20
-20.480000
30
-2.284000
70
192
0
VERTEX
8
OBJECT__8
10
143.778000
20
-9.187000
30
-7.699000
70
192
0
VERTEX
8
OBJECT__8
10
190.171997
20
-5.028000
30
-8.318000
70
192
0
VERTEX
8
OBJECT__8
10
191.078003
20
-6.593000
30
-8.146000
70
192
0
VERTEX
8
OBJECT__8
10
191.481003
20
-7.290000
30
-8.069000
70
192
0
VERTEX
8
OBJECT__8
10
192.391006
20
-8.391000
30
-7.910000
70
192
0
VERTEX
8
OBJECT__8
10
189.647003
20
-3.620000
30
-8.425000
70
192
0
VERTEX
8
OBJECT__8
10
143.778000
20
-6.355000
30
-8.160000
70
192
0
VERTEX
8
OBJECT__8
10
143.778000
20
0.000000
30
-8.538000
70
192
0
VERTEX
8
OBJECT__8
10
189.108002
20
0.000000
30
-8.538000
70
192
0
VERTEX
8
OBJECT__8
10
189.153000
20
-1.054000
30
-8.528000
70
192
0
VERTEX
8
OBJECT__8
10
143.778000
20
-5.927000
30
-8.230000
70
192
0
VERTEX
8
OBJECT__8
10
198.830994
20
-12.003000
30
-7.188000
70
192
0
VERTEX
8
OBJECT__8
10
201.404999
20
-12.249000
30
-7.125000
70
192
0
VERTEX
8
OBJECT__8
10
201.404999
20
-16.174000
30
-5.822000
70
192
0
VERTEX
8
OBJECT__8
10
196.216995
20
-11.092000
30
-7.400000
70
192
0
VERTEX
8
OBJECT__8
10
195.561005
20
-10.829000
30
-7.460000
70
192
0
VERTEX
8
OBJECT__8
10
197.966995
20
-11.794000
30
-7.239000
70
192
0
VERTEX
8
OBJECT__8
10
143.778000
20
-11.296000
30
-7.355000
70
192
0
VERTEX
8
OBJECT__8
10
193.315994
20
-9.192000
30
-7.769000
70
192
0
VERTEX
8
OBJECT__8
10
194.362000
20
-10.098000
30
-7.610000
70
192
0
VERTEX
8
OBJECT__8
10
143.778000
20
-12.019000
30
-7.138000
70
192
0
VERTEX
8
OBJECT__8
10
143.778000
20
-15.590000
30
-6.063000
70
192
0
VERTEX
8
OBJECT__8
10
201.404999
20
-20.837000
30
-0.754000
70
192
0
VERTEX
8
OBJECT__8
10
0
20
0
30
0
70
128
71
1
72
2
73
3
0
VERTEX
8
OBJECT__8
10
0
20
0
30
0
70
128
71
3
72
4
73
5
0
VERTEX
8
OBJECT__8
10
0
20
0
30
0
70
128
71
5
72
6
73
3
0
VERTEX
8
OBJECT__8
10
0
20
0
30
0
70
128
71
7
72
5
73
4
0
VERTEX
8
OBJECT__8
10
0
20
0
30
0
70
128
71
4
72
8
73
7
0
VERTEX
8
OBJECT__8
10
0
20
0
30
0
70
128
71
9
72
10
73
7
0
VERTEX
8
OBJECT__8
10
0
20
0
30
0
70
128
71
7
72
11
73
9
0
VERTEX
8
OBJECT__8
10
0
20
0
30
0
70
128
71
8
72
11
73
7
0
VERTEX
8
OBJECT__8
10
0
20
0
30
0
70
128
71
12
72
13
73
14
0
VERTEX
8
OBJECT__8
10
0
20
0
30
0
70
128
71
15
72
16
73
17
0
VERTEX
8
OBJECT__8
10
0
20
0
30
0
70
128
71
17
72
13
73
15
0
VERTEX
8
OBJECT__8
10
0
20
0
30
0
70
128
71
17
72
14
73
13
0
VERTEX
8
OBJECT__8
10
0
20
0
30
0
70
128
71
2
72
1
73
16
0
VERTEX
8
OBJECT__8
10
0
20
0
30
0
70
128
71
16
72
15
73
2
0
VERTEX
8
OBJECT__8
10
0
20
0
30
0
70
128
71
18
72
19
73
20
0
VERTEX
8
OBJECT__8
10
0
20
0
30
0
70
128
71
20
72
21
73
18
0
VERTEX
8
OBJECT__8
10
0
20
0
30
0
70
128
71
21
72
22
73
18
0
VERTEX
8
OBJECT__8
10
0
20
0
30
0
70
128
71
23
72
18
73
24
0
VERTEX
8
OBJECT__8
10
0
20
0
30
0
70
128
71
25
72
26
73
27
0
VERTEX
8
OBJECT__8
10
0
20
0
30
0
70
128
71
27
72
24
73
28
0
VERTEX
8
OBJECT__8
10
0
20
0
30
0
70
128
71
27
72
28
73
25
0
VERTEX
8
OBJECT__8
10
0
20
0
30
0
70
128
71
24
72
27
73
23
0
VERTEX
8
OBJECT__8
10
0
20
0
30
0
70
128
71
23
72
19
73
18
0
VERTEX
8
OBJECT__8
10
0
20
0
30
0
70
128
71
29
72
30
73
31
0
VERTEX
8
OBJECT__8
10
0
20
0
30
0
70
128
71
10
72
9
73
32
0
VERTEX
8
OBJECT__8
10
0
20
0
30
0
70
128
71
9
72
33
73
32
0
VERTEX
8
OBJECT__8
10
0
20
0
30
0
70
128
71
32
72
34
73
10
0
VERTEX
8
OBJECT__8
10
0
20
0
30
0
70
128
71
34
72
29
73
10
0
VERTEX
8
OBJECT__8
10
0
20
0
30
0
70
128
71
35
72
18
73
36
0
VERTEX
8
OBJECT__8
10
0
20
0
30
0
70
128
71
37
72
38
73
35
0
VERTEX
8
OBJECT__8
10
0
20
0
30
0
70
128
71
37
72
9
73
39
0
VERTEX
8
OBJECT__8
10
0
20
0
30
0
70
128
71
39
72
38
73
37
0
VERTEX
8
OBJECT__8
10
0
20
0
30
0
70
128
71
36
72
37
73
35
0
VERTEX
8
OBJECT__8
10
0
20
0
30
0
70
128
71
37
72
33
73
9
0
VERTEX
8
OBJECT__8
10
0
20
0
30
0
70
128
71
31
72
10
73
29
0
VERTEX
8
OBJECT__8
10
0
20
0
30
0
70
128
71
22
72
36
73
18
0
VERTEX
8
OBJECT__8
10
0
20
0
30
0
70
128
71
14
72
40
73
12
0
VERTEX
8
OBJECT__8
10
0
20
0
30
0
70
128
71
3
72
6
73
1
0
SEQEND
8
OBJECT__8
0
POLYLINE
8
OBJECT__9
66
1
70
64
71
82
72
90
62
253
0
VERTEX
8
OBJECT__9
10
105.525002
20
-19.790001
30
-3.668000
70
192
0
VERTEX
8
OBJECT__9
10
103.775002
20
-20.792000
30
-1.569000
70
192
0
VERTEX
8
OBJECT__9
10
94.199997
20
-20.707001
30
-2.469000
70
192
0
VERTEX
8
OBJECT__9
10
92.883003
20
-19.452000
30
-4.682000
70
192
0
VERTEX
8
OBJECT__9
10
95.607002
20
-16.898001
30
-6.134000
70
192
0
VERTEX
8
OBJECT__9
10
99.391998
20
-16.912001
30
-5.988000
70
192
0
VERTEX
8
OBJECT__9
10
94.373001
20
-16.870001
30
-6.245000
70
192
0
VERTEX
8
OBJECT__9
10
54.348999
20
0.000000
30
-20.754999
70
192
0
VERTEX
8
OBJECT__9
10
54.668999
20
-3.174000
30
-20.480000
70
192
0
VERTEX
8
OBJECT__9
10
51.651001
20
-2.968000
30
-20.676001
70
192
0
VERTEX
8
OBJECT__9
10
51.728001
20
-3.295000
30
-20.605000
70
192
0
VERTEX
8
OBJECT__9
10
55.513000
20
0.000000
30
-20.171000
70
192
0
VERTEX
8
OBJECT__9
10
55.695999
20
-2.171000
30
-20.020000
70
192
0
VERTEX
8
OBJECT__9
10
118.223000
20
-19.979000
30
-3.249000
70
192
0
VERTEX
8
OBJECT__9
10
143.778000
20
-20.575001
30
-2.242000
70
192
0
VERTEX
8
OBJECT__9
10
138.518005
20
-20.837000
30
-0.755000
70
192
0
VERTEX
8
OBJECT__9
10
117.774002
20
-20.830000
30
-0.941000
70
192
0
VERTEX
8
OBJECT__9
10
143.778000
20
-20.837000
30
-0.754000
70
192
0
VERTEX
8
OBJECT__9
10
143.778000
20
-20.070000
30
-3.005000
70
192
0
VERTEX
8
OBJECT__9
10
117.099998
20
-20.829000
30
-0.970000
70
192
0
VERTEX
8
OBJECT__9
10
104.356003
20
-20.797001
30
-1.514000
70
192
0
VERTEX
8
OBJECT__9
10
143.778000
20
-19.674000
30
-3.601000
70
192
0
VERTEX
8
OBJECT__9
10
143.778000
20
-19.974001
30
-3.148000
70
192
0
VERTEX
8
OBJECT__9
10
122.202003
20
-16.896000
30
-5.527000
70
192
0
VERTEX
8
OBJECT__9
10
143.778000
20
-16.862000
30
-5.508000
70
192
0
VERTEX
8
OBJECT__9
10
143.778000
20
-17.893999
30
-4.959000
70
192
0
VERTEX
8
OBJECT__9
10
119.070000
20
-16.906000
30
-5.558000
70
192
0
VERTEX
8
OBJECT__9
10
107.538002
20
-16.941999
30
-5.672000
70
192
0
VERTEX
8
OBJECT__9
10
112.530998
20
-16.926001
30
-5.623000
70
192
0
VERTEX
8
OBJECT__9
10
106.717003
20
-16.938999
30
-5.704000
70
192
0
VERTEX
8
OBJECT__9
10
74.379997
20
-17.903000
30
-8.767000
70
192
0
VERTEX
8
OBJECT__9
10
68.620003
20
-16.587000
30
-11.173000
70
192
0
VERTEX
8
OBJECT__9
10
71.844002
20
-15.114000
30
-10.550000
70
192
0
VERTEX
8
OBJECT__9
10
70.422997
20
-14.742000
30
-11.149000
70
192
0
VERTEX
8
OBJECT__9
10
63.334999
20
-14.426000
30
-14.062000
70
192
0
VERTEX
8
OBJECT__9
10
58.817001
20
-11.035000
30
-17.132000
70
192
0
VERTEX
8
OBJECT__9
10
61.383999
20
-10.960000
30
-15.805000
70
192
0
VERTEX
8
OBJECT__9
10
64.181999
20
-12.626000
30
-14.109000
70
192
0
VERTEX
8
OBJECT__9
10
60.403999
20
-10.108000
30
-16.476000
70
192
0
VERTEX
8
OBJECT__9
10
60.416000
20
-10.119000
30
-16.468000
70
192
0
VERTEX
8
OBJECT__9
10
55.582001
20
-6.140000
30
-19.702999
70
192
0
VERTEX
8
OBJECT__9
10
57.535999
20
-6.942000
30
-18.545000
70
192
0
VERTEX
8
OBJECT__9
10
57.830002
20
-7.318000
30
-18.323999
70
192
0
VERTEX
8
OBJECT__9
10
59.181000
20
-9.046000
30
-17.313000
70
192
0
VERTEX
8
OBJECT__9
10
56.932999
20
-5.755000
30
-19.023001
70
192
0
VERTEX
8
OBJECT__9
10
56.085999
20
-3.573000
30
-19.702000
70
192
0
VERTEX
8
OBJECT__9
10
56.400002
20
-4.706000
30
-19.445000
70
192
0
VERTEX
8
OBJECT__9
10
55.926998
20
-3.003000
30
-19.830999
70
192
0
VERTEX
8
OBJECT__9
10
67.582001
20
-13.996000
30
-12.347000
70
192
0
VERTEX
8
OBJECT__9
10
68.129997
20
-14.140000
30
-12.116000
70
192
0
VERTEX
8
OBJECT__9
10
65.078003
20
-12.987000
30
-13.644000
70
192
0
VERTEX
8
OBJECT__9
10
80.425003
20
-18.686001
30
-6.923000
70
192
0
VERTEX
8
OBJECT__9
10
82.135002
20
-16.417999
30
-7.732000
70
192
0
VERTEX
8
OBJECT__9
10
87.742996
20
-16.709000
30
-6.868000
70
192
0
VERTEX
8
OBJECT__9
10
88.197998
20
-16.733000
30
-6.798000
70
192
0
VERTEX
8
OBJECT__9
10
77.361000
20
-15.964000
30
-8.834000
70
192
0
VERTEX
8
OBJECT__9
10
76.570000
20
-15.887000
30
-9.019000
70
192
0
VERTEX
8
OBJECT__9
10
81.986000
20
-16.410000
30
-7.754000
70
192
0
VERTEX
8
OBJECT__9
10
76.152000
20
-15.819000
30
-9.154000
70
192
0
VERTEX
8
OBJECT__9
10
70.195000
20
-19.035999
30
-8.541000
70
192
0
VERTEX
8
OBJECT__9
10
66.211998
20
-18.084999
30
-10.412000
70
192
0
VERTEX
8
OBJECT__9
10
71.296997
20
-19.200001
30
-8.119000
70
192
0
VERTEX
8
OBJECT__9
10
57.597000
20
-13.642000
30
-15.764000
70
192
0
VERTEX
8
OBJECT__9
10
57.014999
20
-13.192000
30
-16.181999
70
192
0
VERTEX
8
OBJECT__9
10
59.497002
20
-15.111000
30
-14.402000
70
192
0
VERTEX
8
OBJECT__9
10
60.061001
20
-15.417000
30
-14.039000
70
192
0
VERTEX
8
OBJECT__9
10
55.008999
20
-10.990000
30
-17.754999
70
192
0
VERTEX
8
OBJECT__9
10
53.455002
20
-8.535000
30
-19.059999
70
192
0
VERTEX
8
OBJECT__9
10
55.633999
20
-11.676000
30
-17.264999
70
192
0
VERTEX
8
OBJECT__9
10
52.969002
20
-7.371000
30
-19.490000
70
192
0
VERTEX
8
OBJECT__9
10
52.340000
20
-5.865000
30
-20.046000
70
192
0
VERTEX
8
OBJECT__9
10
52.570000
20
-6.415000
30
-19.843000
70
192
0
VERTEX
8
OBJECT__9
10
63.943001
20
-17.254999
30
-11.676000
70
192
0
VERTEX
8
OBJECT__9
10
62.441002
20
-16.705000
30
-12.512000
70
192
0
VERTEX
8
OBJECT__9
10
65.403000
20
-17.789000
30
-10.862000
70
192
0
VERTEX
8
OBJECT__9
10
81.449997
20
-20.289000
30
-4.817000
70
192
0
VERTEX
8
OBJECT__9
10
80.718002
20
-20.254999
30
-4.980000
70
192
0
VERTEX
8
OBJECT__9
10
86.934998
20
-20.542999
30
-3.598000
70
192
0
VERTEX
8
OBJECT__9
10
90.524002
20
-20.624001
30
-3.041000
70
192
0
VERTEX
8
OBJECT__9
10
77.538002
20
-19.983000
30
-5.926000
70
192
0
VERTEX
8
OBJECT__9
10
75.248001
20
-19.787001
30
-6.608000
70
192
0
VERTEX
8
OBJECT__9
10
51.422001
20
0.000000
30
-20.888000
70
192
0
VERTEX
8
OBJECT__9
10
0
20
0
30
0
70
128
71
1
72
2
73
3
0
VERTEX
8
OBJECT__9
10
0
20
0
30
0
70
128
71
3
72
4
73
1
0
VERTEX
8
OBJECT__9
10
0
20
0
30
0
70
128
71
4
72
5
73
6
0
VERTEX
8
OBJECT__9
10
0
20
0
30
0
70
128
71
6
72
1
73
4
0
VERTEX
8
OBJECT__9
10
0
20
0
30
0
70
128
71
4
72
7
73
5
0
VERTEX
8
OBJECT__9
10
0
20
0
30
0
70
128
71
8
72
9
73
10
0
VERTEX
8
OBJECT__9
10
0
20
0
30
0
70
128
71
9
72
11
73
10
0
VERTEX
8
OBJECT__9
10
0
20
0
30
0
70
128
71
8
72
12
73
13
0
VERTEX
8
OBJECT__9
10
0
20
0
30
0
70
128
71
13
72
9
73
8
0
VERTEX
8
OBJECT__9
10
0
20
0
30
0
70
128
71
14
72
15
73
16
0
VERTEX
8
OBJECT__9
10
0
20
0
30
0
70
128
71
16
72
17
73
14
0
VERTEX
8
OBJECT__9
10
0
20
0
30
0
70
128
71
15
72
18
73
16
0
VERTEX
8
OBJECT__9
10
0
20
0
30
0
70
128
71
14
72
19
73
15
0
VERTEX
8
OBJECT__9
10
0
20
0
30
0
70
128
71
20
72
21
73
1
0
VERTEX
8
OBJECT__9
10
0
20
0
30
0
70
128
71
1
72
14
73
20
0
VERTEX
8
OBJECT__9
10
0
20
0
30
0
70
128
71
14
72
22
73
23
0
VERTEX
8
OBJECT__9
10
0
20
0
30
0
70
128
71
22
72
14
73
24
0
VERTEX
8
OBJECT__9
10
0
20
0
30
0
70
128
71
24
72
25
73
26
0
VERTEX
8
OBJECT__9
10
0
20
0
30
0
70
128
71
24
72
26
73
22
0
VERTEX
8
OBJECT__9
10
0
20
0
30
0
70
128
71
14
72
27
73
24
0
VERTEX
8
OBJECT__9
10
0
20
0
30
0
70
128
71
1
72
28
73
29
0
VERTEX
8
OBJECT__9
10
0
20
0
30
0
70
128
71
29
72
14
73
1
0
VERTEX
8
OBJECT__9
10
0
20
0
30
0
70
128
71
1
72
30
73
28
0
VERTEX
8
OBJECT__9
10
0
20
0
30
0
70
128
71
31
72
32
73
33
0
VERTEX
8
OBJECT__9
10
0
20
0
30
0
70
128
71
32
72
34
73
33
0
VERTEX
8
OBJECT__9
10
0
20
0
30
0
70
128
71
35
72
36
73
37
0
VERTEX
8
OBJECT__9
10
0
20
0
30
0
70
128
71
37
72
38
73
35
0
VERTEX
8
OBJECT__9
10
0
20
0
30
0
70
128
71
36
72
39
73
40
0
VERTEX
8
OBJECT__9
10
0
20
0
30
0
70
128
71
40
72
37
73
36
0
VERTEX
8
OBJECT__9
10
0
20
0
30
0
70
128
71
41
72
42
73
43
0
VERTEX
8
OBJECT__9
10
0
20
0
30
0
70
128
71
43
72
36
73
41
0
VERTEX
8
OBJECT__9
10
0
20
0
30
0
70
128
71
43
72
44
73
36
0
VERTEX
8
OBJECT__9
10
0
20
0
30
0
70
128
71
41
72
45
73
42
0
VERTEX
8
OBJECT__9
10
0
20
0
30
0
70
128
71
9
72
46
73
47
0
VERTEX
8
OBJECT__9
10
0
20
0
30
0
70
128
71
9
72
48
73
46
0
VERTEX
8
OBJECT__9
10
0
20
0
30
0
70
128
71
47
72
41
73
9
0
VERTEX
8
OBJECT__9
10
0
20
0
30
0
70
128
71
32
72
49
73
50
0
VERTEX
8
OBJECT__9
10
0
20
0
30
0
70
128
71
35
72
51
73
49
0
VERTEX
8
OBJECT__9
10
0
20
0
30
0
70
128
71
49
72
32
73
35
0
VERTEX
8
OBJECT__9
10
0
20
0
30
0
70
128
71
52
72
53
73
54
0
VERTEX
8
OBJECT__9
10
0
20
0
30
0
70
128
71
54
72
4
73
52
0
VERTEX
8
OBJECT__9
10
0
20
0
30
0
70
128
71
54
72
55
73
4
0
VERTEX
8
OBJECT__9
10
0
20
0
30
0
70
128
71
52
72
31
73
56
0
VERTEX
8
OBJECT__9
10
0
20
0
30
0
70
128
71
31
72
57
73
56
0
VERTEX
8
OBJECT__9
10
0
20
0
30
0
70
128
71
56
72
58
73
52
0
VERTEX
8
OBJECT__9
10
0
20
0
30
0
70
128
71
31
72
59
73
57
0
VERTEX
8
OBJECT__9
10
0
20
0
30
0
70
128
71
32
72
60
73
61
0
VERTEX
8
OBJECT__9
10
0
20
0
30
0
70
128
71
32
72
31
73
62
0
VERTEX
8
OBJECT__9
10
0
20
0
30
0
70
128
71
62
72
60
73
32
0
VERTEX
8
OBJECT__9
10
0
20
0
30
0
70
128
71
36
72
63
73
64
0
VERTEX
8
OBJECT__9
10
0
20
0
30
0
70
128
71
36
72
35
73
65
0
VERTEX
8
OBJECT__9
10
0
20
0
30
0
70
128
71
35
72
66
73
65
0
VERTEX
8
OBJECT__9
10
0
20
0
30
0
70
128
71
65
72
63
73
36
0
VERTEX
8
OBJECT__9
10
0
20
0
30
0
70
128
71
41
72
36
73
67
0
VERTEX
8
OBJECT__9
10
0
20
0
30
0
70
128
71
67
72
68
73
41
0
VERTEX
8
OBJECT__9
10
0
20
0
30
0
70
128
71
36
72
69
73
67
0
VERTEX
8
OBJECT__9
10
0
20
0
30
0
70
128
71
68
72
70
73
41
0
VERTEX
8
OBJECT__9
10
0
20
0
30
0
70
128
71
9
72
41
73
71
0
VERTEX
8
OBJECT__9
10
0
20
0
30
0
70
128
71
41
72
72
73
71
0
VERTEX
8
OBJECT__9
10
0
20
0
30
0
70
128
71
35
72
73
73
74
0
VERTEX
8
OBJECT__9
10
0
20
0
30
0
70
128
71
32
72
75
73
73
0
VERTEX
8
OBJECT__9
10
0
20
0
30
0
70
128
71
73
72
35
73
32
0
VERTEX
8
OBJECT__9
10
0
20
0
30
0
70
128
71
52
72
76
73
77
0
VERTEX
8
OBJECT__9
10
0
20
0
30
0
70
128
71
52
72
4
73
78
0
VERTEX
8
OBJECT__9
10
0
20
0
30
0
70
128
71
4
72
79
73
78
0
VERTEX
8
OBJECT__9
10
0
20
0
30
0
70
128
71
78
72
76
73
52
0
VERTEX
8
OBJECT__9
10
0
20
0
30
0
70
128
71
31
72
52
73
80
0
VERTEX
8
OBJECT__9
10
0
20
0
30
0
70
128
71
80
72
81
73
31
0
VERTEX
8
OBJECT__9
10
0
20
0
30
0
70
128
71
81
72
62
73
31
0
VERTEX
8
OBJECT__9
10
0
20
0
30
0
70
128
71
77
72
80
73
52
0
VERTEX
8
OBJECT__9
10
0
20
0
30
0
70
128
71
74
72
66
73
35
0
VERTEX
8
OBJECT__9
10
0
20
0
30
0
70
128
71
71
72
11
73
9
0
VERTEX
8
OBJECT__9
10
0
20
0
30
0
70
128
71
70
72
72
73
41
0
VERTEX
8
OBJECT__9
10
0
20
0
30
0
70
128
71
64
72
69
73
36
0
VERTEX
8
OBJECT__9
10
0
20
0
30
0
70
128
71
61
72
75
73
32
0
VERTEX
8
OBJECT__9
10
0
20
0
30
0
70
128
71
58
72
53
73
52
0
VERTEX
8
OBJECT__9
10
0
20
0
30
0
70
128
71
55
72
7
73
4
0
VERTEX
8
OBJECT__9
10
0
20
0
30
0
70
128
71
50
72
34
73
32
0
VERTEX
8
OBJECT__9
10
0
20
0
30
0
70
128
71
47
72
45
73
41
0
VERTEX
8
OBJECT__9
10
0
20
0
30
0
70
128
71
44
72
39
73
36
0
VERTEX
8
OBJECT__9
10
0
20
0
30
0
70
128
71
38
72
51
73
35
0
VERTEX
8
OBJECT__9
10
0
20
0
30
0
70
128
71
33
72
59
73
31
0
VERTEX
8
OBJECT__9
10
0
20
0
30
0
70
128
71
29
72
27
73
14
0
VERTEX
8
OBJECT__9
10
0
20
0
30
0
70
128
71
23
72
19
73
14
0
VERTEX
8
OBJECT__9
10
0
20
0
30
0
70
128
71
21
72
2
73
1
0
VERTEX
8
OBJECT__9
10
0
20
0
30
0
70
128
71
17
72
20
73
14
0
VERTEX
8
OBJECT__9
10
0
20
0
30
0
70
128
71
13
72
48
73
9
0
VERTEX
8
OBJECT__9
10
0
20
0
30
0
70
128
71
10
72
82
73
8
0
VERTEX
8
OBJECT__9
10
0
20
0
30
0
70
128
71
6
72
30
73
1
0
VERTEX
8
OBJECT__9
10
0
20
0
30
0
70
128
71
3
72
79
73
4
0
SEQEND
8
OBJECT__9
0
POLYLINE
8
OBJECT__10
66
1
70
64
71
78
72
86
62
253
0
VERTEX
8
OBJECT__10
10
92.885002
20
19.452000
30
-4.680000
70
192
0
VERTEX
8
OBJECT__10
10
80.421997
20
18.686001
30
-6.922000
70
192
0
VERTEX
8
OBJECT__10
10
83.776001
20
20.421000
30
-4.245000
70
192
0
VERTEX
8
OBJECT__10
10
81.586998
20
20.280001
30
-4.815000
70
192
0
VERTEX
8
OBJECT__10
10
77.644997
20
20.025999
30
-5.841000
70
192
0
VERTEX
8
OBJECT__10
10
86.746002
20
16.676001
30
-6.983000
70
192
0
VERTEX
8
OBJECT__10
10
94.374001
20
16.875999
30
-6.231000
70
192
0
VERTEX
8
OBJECT__10
10
87.742996
20
16.702000
30
-6.884000
70
192
0
VERTEX
8
OBJECT__10
10
143.778000
20
20.789000
30
-1.405000
70
192
0
VERTEX
8
OBJECT__10
10
143.778000
20
20.329000
30
-2.748000
70
192
0
VERTEX
8
OBJECT__10
10
118.222000
20
19.979000
30
-3.248000
70
192
0
VERTEX
8
OBJECT__10
10
117.100998
20
20.826000
30
-1.011000
70
192
0
VERTEX
8
OBJECT__10
10
121.959000
20
20.834000
30
-0.861000
70
192
0
VERTEX
8
OBJECT__10
10
143.778000
20
20.837000
30
-0.754000
70
192
0
VERTEX
8
OBJECT__10
10
143.778000
20
19.139000
30
-4.097000
70
192
0
VERTEX
8
OBJECT__10
10
143.778000
20
16.862000
30
-5.508000
70
192
0
VERTEX
8
OBJECT__10
10
127.776001
20
16.879000
30
-5.515000
70
192
0
VERTEX
8
OBJECT__10
10
143.778000
20
20.094999
30
-3.013000
70
192
0
VERTEX
8
OBJECT__10
10
143.778000
20
19.981001
30
-3.142000
70
192
0
VERTEX
8
OBJECT__10
10
63.335999
20
14.427000
30
-14.061000
70
192
0
VERTEX
8
OBJECT__10
10
63.882000
20
17.273001
30
-11.687000
70
192
0
VERTEX
8
OBJECT__10
10
65.416000
20
17.764999
30
-10.876000
70
192
0
VERTEX
8
OBJECT__10
10
60.084999
20
15.477000
30
-14.006000
70
192
0
VERTEX
8
OBJECT__10
10
63.457001
20
17.136999
30
-11.912000
70
192
0
VERTEX
8
OBJECT__10
10
74.379997
20
17.903000
30
-8.766000
70
192
0
VERTEX
8
OBJECT__10
10
72.230003
20
19.386999
30
-7.707000
70
192
0
VERTEX
8
OBJECT__10
10
71.297997
20
19.201000
30
-8.113000
70
192
0
VERTEX
8
OBJECT__10
10
68.625000
20
16.589001
30
-11.170000
70
192
0
VERTEX
8
OBJECT__10
10
67.577003
20
18.457001
30
-9.733000
70
192
0
VERTEX
8
OBJECT__10
10
55.580002
20
6.136000
30
-19.704000
70
192
0
VERTEX
8
OBJECT__10
10
53.504002
20
8.628000
30
-19.018000
70
192
0
VERTEX
8
OBJECT__10
10
55.081001
20
11.084000
30
-17.695999
70
192
0
VERTEX
8
OBJECT__10
10
58.813000
20
11.031000
30
-17.135000
70
192
0
VERTEX
8
OBJECT__10
10
52.973999
20
7.369000
30
-19.486000
70
192
0
VERTEX
8
OBJECT__10
10
52.571999
20
6.413000
30
-19.841000
70
192
0
VERTEX
8
OBJECT__10
10
57.576000
20
13.651000
30
-15.773000
70
192
0
VERTEX
8
OBJECT__10
10
55.633999
20
11.674000
30
-17.264999
70
192
0
VERTEX
8
OBJECT__10
10
57.300999
20
13.450000
30
-15.968000
70
192
0
VERTEX
8
OBJECT__10
10
54.667999
20
3.172000
30
-20.481001
70
192
0
VERTEX
8
OBJECT__10
10
51.734001
20
3.293000
30
-20.599001
70
192
0
VERTEX
8
OBJECT__10
10
52.333000
20
5.846000
30
-20.051001
70
192
0
VERTEX
8
OBJECT__10
10
54.348999
20
0.000000
30
-20.754999
70
192
0
VERTEX
8
OBJECT__10
10
51.422001
20
0.000000
30
-20.888000
70
192
0
VERTEX
8
OBJECT__10
10
51.636002
20
2.875000
30
-20.688999
70
192
0
VERTEX
8
OBJECT__10
10
67.250999
20
13.885000
30
-12.505000
70
192
0
VERTEX
8
OBJECT__10
10
70.426003
20
14.755000
30
-11.137000
70
192
0
VERTEX
8
OBJECT__10
10
68.132004
20
14.126000
30
-12.125000
70
192
0
VERTEX
8
OBJECT__10
10
81.053001
20
16.340000
30
-7.940000
70
192
0
VERTEX
8
OBJECT__10
10
77.362000
20
15.956000
30
-8.844000
70
192
0
VERTEX
8
OBJECT__10
10
82.134003
20
16.403999
30
-7.758000
70
192
0
VERTEX
8
OBJECT__10
10
76.063004
20
15.821000
30
-9.163000
70
192
0
VERTEX
8
OBJECT__10
10
71.389999
20
15.020000
30
-10.721000
70
192
0
VERTEX
8
OBJECT__10
10
57.804001
20
7.316000
30
-18.341000
70
192
0
VERTEX
8
OBJECT__10
10
57.672001
20
7.153000
30
-18.440001
70
192
0
VERTEX
8
OBJECT__10
10
59.313999
20
9.183000
30
-17.218000
70
192
0
VERTEX
8
OBJECT__10
10
60.390999
20
10.107000
30
-16.483000
70
192
0
VERTEX
8
OBJECT__10
10
61.414001
20
10.985000
30
-15.785000
70
192
0
VERTEX
8
OBJECT__10
10
60.414001
20
10.126000
30
-16.468000
70
192
0
VERTEX
8
OBJECT__10
10
61.926998
20
11.290000
30
-15.474000
70
192
0
VERTEX
8
OBJECT__10
10
64.112999
20
12.592000
30
-14.148000
70
192
0
VERTEX
8
OBJECT__10
10
65.080002
20
12.990000
30
-13.642000
70
192
0
VERTEX
8
OBJECT__10
10
56.499001
20
4.949000
30
-19.365999
70
192
0
VERTEX
8
OBJECT__10
10
56.924000
20
5.749000
30
-19.030001
70
192
0
VERTEX
8
OBJECT__10
10
55.757999
20
2.506000
30
-19.969000
70
192
0
VERTEX
8
OBJECT__10
10
55.909000
20
3.006000
30
-19.846001
70
192
0
VERTEX
8
OBJECT__10
10
105.526001
20
19.790001
30
-3.667000
70
192
0
VERTEX
8
OBJECT__10
10
112.532997
20
16.924000
30
-5.657000
70
192
0
VERTEX
8
OBJECT__10
10
119.068001
20
16.905001
30
-5.596000
70
192
0
VERTEX
8
OBJECT__10
10
99.390999
20
16.913000
30
-5.983000
70
192
0
VERTEX
8
OBJECT__10
10
105.217003
20
16.945000
30
-5.725000
70
192
0
VERTEX
8
OBJECT__10
10
106.718002
20
16.940001
30
-5.711000
70
192
0
VERTEX
8
OBJECT__10
10
94.836998
20
16.888000
30
-6.185000
70
192
0
VERTEX
8
OBJECT__10
10
108.245003
20
20.812000
30
-1.286000
70
192
0
VERTEX
8
OBJECT__10
10
103.778000
20
20.787001
30
-1.615000
70
192
0
VERTEX
8
OBJECT__10
10
98.010002
20
20.753000
30
-2.040000
70
192
0
VERTEX
8
OBJECT__10
10
90.516998
20
20.636000
30
-2.998000
70
192
0
VERTEX
8
OBJECT__10
10
90.925003
20
20.649000
30
-2.923000
70
192
0
VERTEX
8
OBJECT__10
10
55.513000
20
0.000000
30
-20.171000
70
192
0
VERTEX
8
OBJECT__10
10
0
20
0
30
0
70
128
71
1
72
2
73
3
0
VERTEX
8
OBJECT__10
10
0
20
0
30
0
70
128
71
2
72
4
73
3
0
VERTEX
8
OBJECT__10
10
0
20
0
30
0
70
128
71
2
72
5
73
4
0
VERTEX
8
OBJECT__10
10
0
20
0
30
0
70
128
71
2
72
1
73
6
0
VERTEX
8
OBJECT__10
10
0
20
0
30
0
70
128
71
1
72
7
73
8
0
VERTEX
8
OBJECT__10
10
0
20
0
30
0
70
128
71
8
72
6
73
1
0
VERTEX
8
OBJECT__10
10
0
20
0
30
0
70
128
71
9
72
10
73
11
0
VERTEX
8
OBJECT__10
10
0
20
0
30
0
70
128
71
9
72
12
73
13
0
VERTEX
8
OBJECT__10
10
0
20
0
30
0
70
128
71
13
72
14
73
9
0
VERTEX
8
OBJECT__10
10
0
20
0
30
0
70
128
71
11
72
12
73
9
0
VERTEX
8
OBJECT__10
10
0
20
0
30
0
70
128
71
15
72
16
73
17
0
VERTEX
8
OBJECT__10
10
0
20
0
30
0
70
128
71
11
72
18
73
19
0
VERTEX
8
OBJECT__10
10
0
20
0
30
0
70
128
71
19
72
15
73
11
0
VERTEX
8
OBJECT__10
10
0
20
0
30
0
70
128
71
17
72
11
73
15
0
VERTEX
8
OBJECT__10
10
0
20
0
30
0
70
128
71
20
72
21
73
22
0
VERTEX
8
OBJECT__10
10
0
20
0
30
0
70
128
71
20
72
23
73
24
0
VERTEX
8
OBJECT__10
10
0
20
0
30
0
70
128
71
24
72
21
73
20
0
VERTEX
8
OBJECT__10
10
0
20
0
30
0
70
128
71
25
72
26
73
5
0
VERTEX
8
OBJECT__10
10
0
20
0
30
0
70
128
71
25
72
27
73
26
0
VERTEX
8
OBJECT__10
10
0
20
0
30
0
70
128
71
28
72
29
73
27
0
VERTEX
8
OBJECT__10
10
0
20
0
30
0
70
128
71
28
72
22
73
29
0
VERTEX
8
OBJECT__10
10
0
20
0
30
0
70
128
71
30
72
31
73
32
0
VERTEX
8
OBJECT__10
10
0
20
0
30
0
70
128
71
32
72
33
73
30
0
VERTEX
8
OBJECT__10
10
0
20
0
30
0
70
128
71
30
72
34
73
31
0
VERTEX
8
OBJECT__10
10
0
20
0
30
0
70
128
71
30
72
35
73
34
0
VERTEX
8
OBJECT__10
10
0
20
0
30
0
70
128
71
33
72
36
73
23
0
VERTEX
8
OBJECT__10
10
0
20
0
30
0
70
128
71
33
72
37
73
38
0
VERTEX
8
OBJECT__10
10
0
20
0
30
0
70
128
71
38
72
36
73
33
0
VERTEX
8
OBJECT__10
10
0
20
0
30
0
70
128
71
39
72
40
73
41
0
VERTEX
8
OBJECT__10
10
0
20
0
30
0
70
128
71
41
72
30
73
39
0
VERTEX
8
OBJECT__10
10
0
20
0
30
0
70
128
71
42
72
43
73
44
0
VERTEX
8
OBJECT__10
10
0
20
0
30
0
70
128
71
44
72
39
73
42
0
VERTEX
8
OBJECT__10
10
0
20
0
30
0
70
128
71
20
72
28
73
45
0
VERTEX
8
OBJECT__10
10
0
20
0
30
0
70
128
71
28
72
46
73
47
0
VERTEX
8
OBJECT__10
10
0
20
0
30
0
70
128
71
47
72
45
73
28
0
VERTEX
8
OBJECT__10
10
0
20
0
30
0
70
128
71
2
72
48
73
49
0
VERTEX
8
OBJECT__10
10
0
20
0
30
0
70
128
71
49
72
25
73
2
0
VERTEX
8
OBJECT__10
10
0
20
0
30
0
70
128
71
2
72
50
73
48
0
VERTEX
8
OBJECT__10
10
0
20
0
30
0
70
128
71
25
72
51
73
52
0
VERTEX
8
OBJECT__10
10
0
20
0
30
0
70
128
71
52
72
28
73
25
0
VERTEX
8
OBJECT__10
10
0
20
0
30
0
70
128
71
33
72
53
73
54
0
VERTEX
8
OBJECT__10
10
0
20
0
30
0
70
128
71
33
72
55
73
53
0
VERTEX
8
OBJECT__10
10
0
20
0
30
0
70
128
71
33
72
56
73
55
0
VERTEX
8
OBJECT__10
10
0
20
0
30
0
70
128
71
54
72
30
73
33
0
VERTEX
8
OBJECT__10
10
0
20
0
30
0
70
128
71
33
72
57
73
58
0
VERTEX
8
OBJECT__10
10
0
20
0
30
0
70
128
71
20
72
59
73
57
0
VERTEX
8
OBJECT__10
10
0
20
0
30
0
70
128
71
20
72
60
73
59
0
VERTEX
8
OBJECT__10
10
0
20
0
30
0
70
128
71
20
72
61
73
60
0
VERTEX
8
OBJECT__10
10
0
20
0
30
0
70
128
71
57
72
33
73
20
0
VERTEX
8
OBJECT__10
10
0
20
0
30
0
70
128
71
39
72
30
73
62
0
VERTEX
8
OBJECT__10
10
0
20
0
30
0
70
128
71
30
72
63
73
62
0
VERTEX
8
OBJECT__10
10
0
20
0
30
0
70
128
71
42
72
39
73
64
0
VERTEX
8
OBJECT__10
10
0
20
0
30
0
70
128
71
39
72
65
73
64
0
VERTEX
8
OBJECT__10
10
0
20
0
30
0
70
128
71
66
72
11
73
67
0
VERTEX
8
OBJECT__10
10
0
20
0
30
0
70
128
71
11
72
68
73
67
0
VERTEX
8
OBJECT__10
10
0
20
0
30
0
70
128
71
1
72
66
73
69
0
VERTEX
8
OBJECT__10
10
0
20
0
30
0
70
128
71
66
72
70
73
69
0
VERTEX
8
OBJECT__10
10
0
20
0
30
0
70
128
71
66
72
71
73
70
0
VERTEX
8
OBJECT__10
10
0
20
0
30
0
70
128
71
69
72
72
73
1
0
VERTEX
8
OBJECT__10
10
0
20
0
30
0
70
128
71
11
72
66
73
73
0
VERTEX
8
OBJECT__10
10
0
20
0
30
0
70
128
71
66
72
74
73
73
0
VERTEX
8
OBJECT__10
10
0
20
0
30
0
70
128
71
66
72
1
73
75
0
VERTEX
8
OBJECT__10
10
0
20
0
30
0
70
128
71
1
72
76
73
77
0
VERTEX
8
OBJECT__10
10
0
20
0
30
0
70
128
71
77
72
75
73
1
0
VERTEX
8
OBJECT__10
10
0
20
0
30
0
70
128
71
75
72
74
73
66
0
VERTEX
8
OBJECT__10
10
0
20
0
30
0
70
128
71
73
72
12
73
11
0
VERTEX
8
OBJECT__10
10
0
20
0
30
0
70
128
71
72
72
7
73
1
0
VERTEX
8
OBJECT__10
10
0
20
0
30
0
70
128
71
67
72
71
73
66
0
VERTEX
8
OBJECT__10
10
0
20
0
30
0
70
128
71
64
72
78
73
42
0
VERTEX
8
OBJECT__10
10
0
20
0
30
0
70
128
71
62
72
65
73
39
0
VERTEX
8
OBJECT__10
10
0
20
0
30
0
70
128
71
58
72
56
73
33
0
VERTEX
8
OBJECT__10
10
0
20
0
30
0
70
128
71
54
72
63
73
30
0
VERTEX
8
OBJECT__10
10
0
20
0
30
0
70
128
71
52
72
46
73
28
0
VERTEX
8
OBJECT__10
10
0
20
0
30
0
70
128
71
49
72
51
73
25
0
VERTEX
8
OBJECT__10
10
0
20
0
30
0
70
128
71
45
72
61
73
20
0
VERTEX
8
OBJECT__10
10
0
20
0
30
0
70
128
71
44
72
40
73
39
0
VERTEX
8
OBJECT__10
10
0
20
0
30
0
70
128
71
41
72
35
73
30
0
VERTEX
8
OBJECT__10
10
0
20
0
30
0
70
128
71
23
72
20
73
33
0
VERTEX
8
OBJECT__10
10
0
20
0
30
0
70
128
71
32
72
37
73
33
0
VERTEX
8
OBJECT__10
10
0
20
0
30
0
70
128
71
27
72
25
73
28
0
VERTEX
8
OBJECT__10
10
0
20
0
30
0
70
128
71
5
72
2
73
25
0
VERTEX
8
OBJECT__10
10
0
20
0
30
0
70
128
71
22
72
28
73
20
0
VERTEX
8
OBJECT__10
10
0
20
0
30
0
70
128
71
17
72
68
73
11
0
VERTEX
8
OBJECT__10
10
0
20
0
30
0
70
128
71
10
72
18
73
11
0
VERTEX
8
OBJECT__10
10
0
20
0
30
0
70
128
71
6
72
50
73
2
0
VERTEX
8
OBJECT__10
10
0
20
0
30
0
70
128
71
3
72
76
73
1
0
SEQEND
8
OBJECT__10
0
POLYLINE
8
OBJECT__11
66
1
70
64
71
72
72
70
62
253
0
VERTEX
8
OBJECT__11
10
37.104000
20
-7.388000
30
-19.535000
70
192
0
VERTEX
8
OBJECT__11
10
52.340000
20
-5.865000
30
-20.046000
70
192
0
VERTEX
8
OBJECT__11
10
52.570000
20
-6.415000
30
-19.843000
70
192
0
VERTEX
8
OBJECT__11
10
51.651001
20
-2.968000
30
-20.676001
70
192
0
VERTEX
8
OBJECT__11
10
51.728001
20
-3.295000
30
-20.605000
70
192
0
VERTEX
8
OBJECT__11
10
37.104000
20
0.000000
30
-20.888000
70
192
0
VERTEX
8
OBJECT__11
10
51.422001
20
0.000000
30
-20.888000
70
192
0
VERTEX
8
OBJECT__11
10
37.104000
20
-13.663000
30
-15.785000
70
192
0
VERTEX
8
OBJECT__11
10
55.008999
20
-10.990000
30
-17.754999
70
192
0
VERTEX
8
OBJECT__11
10
55.633999
20
-11.676000
30
-17.264999
70
192
0
VERTEX
8
OBJECT__11
10
53.455002
20
-8.535000
30
-19.059999
70
192
0
VERTEX
8
OBJECT__11
10
57.014999
20
-13.192000
30
-16.181999
70
192
0
VERTEX
8
OBJECT__11
10
52.969002
20
-7.371000
30
-19.490000
70
192
0
VERTEX
8
OBJECT__11
10
37.104000
20
-17.285000
30
-11.695000
70
192
0
VERTEX
8
OBJECT__11
10
59.497002
20
-15.111000
30
-14.402000
70
192
0
VERTEX
8
OBJECT__11
10
60.061001
20
-15.417000
30
-14.039000
70
192
0
VERTEX
8
OBJECT__11
10
57.597000
20
-13.642000
30
-15.764000
70
192
0
VERTEX
8
OBJECT__11
10
62.441002
20
-16.705000
30
-12.512000
70
192
0
VERTEX
8
OBJECT__11
10
37.104000
20
-20.294001
30
-4.818000
70
192
0
VERTEX
8
OBJECT__11
10
75.248001
20
-19.787001
30
-6.608000
70
192
0
VERTEX
8
OBJECT__11
10
77.538002
20
-19.983000
30
-5.926000
70
192
0
VERTEX
8
OBJECT__11
10
80.718002
20
-20.254999
30
-4.980000
70
192
0
VERTEX
8
OBJECT__11
10
70.195000
20
-19.035999
30
-8.541000
70
192
0
VERTEX
8
OBJECT__11
10
71.296997
20
-19.200001
30
-8.119000
70
192
0
VERTEX
8
OBJECT__11
10
66.211998
20
-18.084999
30
-10.412000
70
192
0
VERTEX
8
OBJECT__11
10
63.943001
20
-17.254999
30
-11.676000
70
192
0
VERTEX
8
OBJECT__11
10
65.403000
20
-17.789000
30
-10.862000
70
192
0
VERTEX
8
OBJECT__11
10
143.778000
20
-20.657000
30
2.788000
70
192
0
VERTEX
8
OBJECT__11
10
117.774002
20
-20.830000
30
-0.941000
70
192
0
VERTEX
8
OBJECT__11
10
138.518005
20
-20.837000
30
-0.755000
70
192
0
VERTEX
8
OBJECT__11
10
37.104000
20
-20.657000
30
2.788000
70
192
0
VERTEX
8
OBJECT__11
10
104.356003
20
-20.797001
30
-1.514000
70
192
0
VERTEX
8
OBJECT__11
10
117.099998
20
-20.829000
30
-0.970000
70
192
0
VERTEX
8
OBJECT__11
10
94.199997
20
-20.707001
30
-2.469000
70
192
0
VERTEX
8
OBJECT__11
10
103.775002
20
-20.792000
30
-1.569000
70
192
0
VERTEX
8
OBJECT__11
10
86.934998
20
-20.542999
30
-3.598000
70
192
0
VERTEX
8
OBJECT__11
10
90.524002
20
-20.624001
30
-3.041000
70
192
0
VERTEX
8
OBJECT__11
10
81.449997
20
-20.289000
30
-4.817000
70
192
0
VERTEX
8
OBJECT__11
10
74.341003
20
-18.413000
30
9.740000
70
192
0
VERTEX
8
OBJECT__11
10
73.211998
20
-18.233999
30
10.048000
70
192
0
VERTEX
8
OBJECT__11
10
80.139000
20
-18.934000
30
8.690000
70
192
0
VERTEX
8
OBJECT__11
10
78.738998
20
-18.809000
30
8.943000
70
192
0
VERTEX
8
OBJECT__11
10
94.663002
20
-19.438999
30
7.500000
70
192
0
VERTEX
8
OBJECT__11
10
91.679001
20
-19.368999
30
7.674000
70
192
0
VERTEX
8
OBJECT__11
10
105.313004
20
-19.542000
30
7.229000
70
192
0
VERTEX
8
OBJECT__11
10
121.568001
20
-19.580999
30
7.122000
70
192
0
VERTEX
8
OBJECT__11
10
117.723000
20
-19.572001
30
7.147000
70
192
0
VERTEX
8
OBJECT__11
10
143.778000
20
-19.584999
30
7.111000
70
192
0
VERTEX
8
OBJECT__11
10
86.939003
20
-19.257999
30
7.950000
70
192
0
VERTEX
8
OBJECT__11
10
37.104000
20
-18.243999
30
10.053000
70
192
0
VERTEX
8
OBJECT__11
10
60.776001
20
-14.673000
30
14.734000
70
192
0
VERTEX
8
OBJECT__11
10
58.596001
20
-13.396000
30
15.929000
70
192
0
VERTEX
8
OBJECT__11
10
61.544998
20
-15.123000
30
14.312000
70
192
0
VERTEX
8
OBJECT__11
10
65.046997
20
-16.517000
30
12.684000
70
192
0
VERTEX
8
OBJECT__11
10
69.208000
20
-17.599001
30
11.140000
70
192
0
VERTEX
8
OBJECT__11
10
66.336998
20
-16.851999
30
12.205000
70
192
0
VERTEX
8
OBJECT__11
10
72.411003
20
-18.107000
30
10.267000
70
192
0
VERTEX
8
OBJECT__11
10
37.104000
20
-13.400000
30
15.933000
70
192
0
VERTEX
8
OBJECT__11
10
54.034000
20
-8.816000
30
18.855000
70
192
0
VERTEX
8
OBJECT__11
10
52.840000
20
-6.602000
30
19.709999
70
192
0
VERTEX
8
OBJECT__11
10
56.021000
20
-11.249000
30
17.514999
70
192
0
VERTEX
8
OBJECT__11
10
54.127998
20
-8.931000
30
18.792000
70
192
0
VERTEX
8
OBJECT__11
10
58.470001
20
-13.323000
30
15.998000
70
192
0
VERTEX
8
OBJECT__11
10
37.104000
20
-6.612000
30
19.735001
70
192
0
VERTEX
8
OBJECT__11
10
51.699001
20
-3.218000
30
20.549999
70
192
0
VERTEX
8
OBJECT__11
10
51.372002
20
-0.758000
30
20.798000
70
192
0
VERTEX
8
OBJECT__11
10
51.724998
20
-3.410000
30
20.531000
70
192
0
VERTEX
8
OBJECT__11
10
37.104000
20
0.000000
30
20.812000
70
192
0
VERTEX
8
OBJECT__11
10
52.598000
20
-6.155000
30
19.882000
70
192
0
VERTEX
8
OBJECT__11
10
52.645000
20
-6.241000
30
19.849001
70
192
0
VERTEX
8
OBJECT__11
10
51.354000
20
0.000000
30
20.812000
70
192
0
VERTEX
8
OBJECT__11
10
143.778000
20
-20.837000
30
-0.754000
70
192
0
VERTEX
8
OBJECT__11
10
0
20
0
30
0
70
128
71
1
72
2
73
3
0
VERTEX
8
OBJECT__11
10
0
20
0
30
0
70
128
71
1
72
4
73
5
0
VERTEX
8
OBJECT__11
10
0
20
0
30
0
70
128
71
5
72
2
73
1
0
VERTEX
8
OBJECT__11
10
0
20
0
30
0
70
128
71
6
72
7
73
4
0
VERTEX
8
OBJECT__11
10
0
20
0
30
0
70
128
71
4
72
1
73
6
0
VERTEX
8
OBJECT__11
10
0
20
0
30
0
70
128
71
8
72
9
73
10
0
VERTEX
8
OBJECT__11
10
0
20
0
30
0
70
128
71
8
72
11
73
9
0
VERTEX
8
OBJECT__11
10
0
20
0
30
0
70
128
71
10
72
12
73
8
0
VERTEX
8
OBJECT__11
10
0
20
0
30
0
70
128
71
8
72
1
73
13
0
VERTEX
8
OBJECT__11
10
0
20
0
30
0
70
128
71
13
72
11
73
8
0
VERTEX
8
OBJECT__11
10
0
20
0
30
0
70
128
71
14
72
15
73
16
0
VERTEX
8
OBJECT__11
10
0
20
0
30
0
70
128
71
14
72
8
73
17
0
VERTEX
8
OBJECT__11
10
0
20
0
30
0
70
128
71
17
72
15
73
14
0
VERTEX
8
OBJECT__11
10
0
20
0
30
0
70
128
71
16
72
18
73
14
0
VERTEX
8
OBJECT__11
10
0
20
0
30
0
70
128
71
19
72
20
73
21
0
VERTEX
8
OBJECT__11
10
0
20
0
30
0
70
128
71
21
72
22
73
19
0
VERTEX
8
OBJECT__11
10
0
20
0
30
0
70
128
71
19
72
23
73
24
0
VERTEX
8
OBJECT__11
10
0
20
0
30
0
70
128
71
24
72
20
73
19
0
VERTEX
8
OBJECT__11
10
0
20
0
30
0
70
128
71
19
72
25
73
23
0
VERTEX
8
OBJECT__11
10
0
20
0
30
0
70
128
71
19
72
14
73
26
0
VERTEX
8
OBJECT__11
10
0
20
0
30
0
70
128
71
26
72
27
73
19
0
VERTEX
8
OBJECT__11
10
0
20
0
30
0
70
128
71
27
72
25
73
19
0
VERTEX
8
OBJECT__11
10
0
20
0
30
0
70
128
71
28
72
29
73
30
0
VERTEX
8
OBJECT__11
10
0
20
0
30
0
70
128
71
31
72
32
73
33
0
VERTEX
8
OBJECT__11
10
0
20
0
30
0
70
128
71
33
72
28
73
31
0
VERTEX
8
OBJECT__11
10
0
20
0
30
0
70
128
71
33
72
29
73
28
0
VERTEX
8
OBJECT__11
10
0
20
0
30
0
70
128
71
31
72
34
73
35
0
VERTEX
8
OBJECT__11
10
0
20
0
30
0
70
128
71
35
72
32
73
31
0
VERTEX
8
OBJECT__11
10
0
20
0
30
0
70
128
71
31
72
36
73
37
0
VERTEX
8
OBJECT__11
10
0
20
0
30
0
70
128
71
37
72
34
73
31
0
VERTEX
8
OBJECT__11
10
0
20
0
30
0
70
128
71
31
72
19
73
38
0
VERTEX
8
OBJECT__11
10
0
20
0
30
0
70
128
71
38
72
36
73
31
0
VERTEX
8
OBJECT__11
10
0
20
0
30
0
70
128
71
31
72
39
73
40
0
VERTEX
8
OBJECT__11
10
0
20
0
30
0
70
128
71
31
72
41
73
42
0
VERTEX
8
OBJECT__11
10
0
20
0
30
0
70
128
71
31
72
43
73
44
0
VERTEX
8
OBJECT__11
10
0
20
0
30
0
70
128
71
31
72
28
73
45
0
VERTEX
8
OBJECT__11
10
0
20
0
30
0
70
128
71
28
72
46
73
47
0
VERTEX
8
OBJECT__11
10
0
20
0
30
0
70
128
71
28
72
48
73
46
0
VERTEX
8
OBJECT__11
10
0
20
0
30
0
70
128
71
47
72
45
73
28
0
VERTEX
8
OBJECT__11
10
0
20
0
30
0
70
128
71
45
72
43
73
31
0
VERTEX
8
OBJECT__11
10
0
20
0
30
0
70
128
71
44
72
49
73
31
0
VERTEX
8
OBJECT__11
10
0
20
0
30
0
70
128
71
49
72
41
73
31
0
VERTEX
8
OBJECT__11
10
0
20
0
30
0
70
128
71
42
72
39
73
31
0
VERTEX
8
OBJECT__11
10
0
20
0
30
0
70
128
71
50
72
51
73
52
0
VERTEX
8
OBJECT__11
10
0
20
0
30
0
70
128
71
50
72
53
73
51
0
VERTEX
8
OBJECT__11
10
0
20
0
30
0
70
128
71
50
72
54
73
53
0
VERTEX
8
OBJECT__11
10
0
20
0
30
0
70
128
71
50
72
55
73
56
0
VERTEX
8
OBJECT__11
10
0
20
0
30
0
70
128
71
50
72
40
73
57
0
VERTEX
8
OBJECT__11
10
0
20
0
30
0
70
128
71
57
72
55
73
50
0
VERTEX
8
OBJECT__11
10
0
20
0
30
0
70
128
71
56
72
54
73
50
0
VERTEX
8
OBJECT__11
10
0
20
0
30
0
70
128
71
58
72
59
73
60
0
VERTEX
8
OBJECT__11
10
0
20
0
30
0
70
128
71
61
72
62
73
58
0
VERTEX
8
OBJECT__11
10
0
20
0
30
0
70
128
71
58
72
52
73
63
0
VERTEX
8
OBJECT__11
10
0
20
0
30
0
70
128
71
63
72
61
73
58
0
VERTEX
8
OBJECT__11
10
0
20
0
30
0
70
128
71
62
72
59
73
58
0
VERTEX
8
OBJECT__11
10
0
20
0
30
0
70
128
71
64
72
65
73
66
0
VERTEX
8
OBJECT__11
10
0
20
0
30
0
70
128
71
64
72
67
73
65
0
VERTEX
8
OBJECT__11
10
0
20
0
30
0
70
128
71
66
72
68
73
64
0
VERTEX
8
OBJECT__11
10
0
20
0
30
0
70
128
71
64
72
69
73
67
0
VERTEX
8
OBJECT__11
10
0
20
0
30
0
70
128
71
64
72
60
73
70
0
VERTEX
8
OBJECT__11
10
0
20
0
30
0
70
128
71
70
72
69
73
64
0
VERTEX
8
OBJECT__11
10
0
20
0
30
0
70
128
71
66
72
71
73
68
0
VERTEX
8
OBJECT__11
10
0
20
0
30
0
70
128
71
60
72
64
73
58
0
VERTEX
8
OBJECT__11
10
0
20
0
30
0
70
128
71
52
72
58
73
50
0
VERTEX
8
OBJECT__11
10
0
20
0
30
0
70
128
71
40
72
50
73
31
0
VERTEX
8
OBJECT__11
10
0
20
0
30
0
70
128
71
30
72
72
73
28
0
VERTEX
8
OBJECT__11
10
0
20
0
30
0
70
128
71
22
72
38
73
19
0
VERTEX
8
OBJECT__11
10
0
20
0
30
0
70
128
71
18
72
26
73
14
0
VERTEX
8
OBJECT__11
10
0
20
0
30
0
70
128
71
12
72
17
73
8
0
VERTEX
8
OBJECT__11
10
0
20
0
30
0
70
128
71
3
72
13
73
1
0
SEQEND
8
OBJECT__11
0
POLYLINE
8
OBJECT__12
66
1
70
64
71
70
72
68
62
253
0
VERTEX
8
OBJECT__12
10
37.104000
20
6.612000
30
19.735001
70
192
0
VERTEX
8
OBJECT__12
10
52.345001
20
5.516000
30
20.069000
70
192
0
VERTEX
8
OBJECT__12
10
52.681999
20
6.215000
30
19.825001
70
192
0
VERTEX
8
OBJECT__12
10
51.602001
20
2.798000
30
20.622999
70
192
0
VERTEX
8
OBJECT__12
10
51.715000
20
3.209000
30
20.539000
70
192
0
VERTEX
8
OBJECT__12
10
37.104000
20
0.000000
30
20.812000
70
192
0
VERTEX
8
OBJECT__12
10
51.354000
20
0.000000
30
20.812000
70
192
0
VERTEX
8
OBJECT__12
10
37.104000
20
13.400000
30
15.933000
70
192
0
VERTEX
8
OBJECT__12
10
55.431999
20
10.621000
30
17.902000
70
192
0
VERTEX
8
OBJECT__12
10
56.056999
20
11.201000
30
17.506001
70
192
0
VERTEX
8
OBJECT__12
10
53.626999
20
8.175000
30
19.142000
70
192
0
VERTEX
8
OBJECT__12
10
54.160999
20
8.899000
30
18.775000
70
192
0
VERTEX
8
OBJECT__12
10
52.866001
20
6.597000
30
19.691999
70
192
0
VERTEX
8
OBJECT__12
10
57.840000
20
12.857000
30
16.374001
70
192
0
VERTEX
8
OBJECT__12
10
37.104000
20
18.243999
30
10.053000
70
192
0
VERTEX
8
OBJECT__12
10
67.952003
20
17.322001
30
11.564000
70
192
0
VERTEX
8
OBJECT__12
10
72.398003
20
18.136000
30
10.233000
70
192
0
VERTEX
8
OBJECT__12
10
72.906998
20
18.229000
30
10.080000
70
192
0
VERTEX
8
OBJECT__12
10
64.045998
20
16.173000
30
13.118000
70
192
0
VERTEX
8
OBJECT__12
10
66.341003
20
16.848000
30
12.205000
70
192
0
VERTEX
8
OBJECT__12
10
60.984001
20
14.844000
30
14.601000
70
192
0
VERTEX
8
OBJECT__12
10
58.664001
20
13.378000
30
15.909000
70
192
0
VERTEX
8
OBJECT__12
10
60.757999
20
14.701000
30
14.729000
70
192
0
VERTEX
8
OBJECT__12
10
143.778000
20
19.899000
30
6.185000
70
192
0
VERTEX
8
OBJECT__12
10
110.120003
20
19.562000
30
7.175000
70
192
0
VERTEX
8
OBJECT__12
10
117.723000
20
19.566999
30
7.160000
70
192
0
VERTEX
8
OBJECT__12
10
143.778000
20
19.584999
30
7.111000
70
192
0
VERTEX
8
OBJECT__12
10
143.778000
20
20.649000
30
2.846000
70
192
0
VERTEX
8
OBJECT__12
10
143.778000
20
20.652000
30
2.788000
70
192
0
VERTEX
8
OBJECT__12
10
37.104000
20
20.657000
30
2.788000
70
192
0
VERTEX
8
OBJECT__12
10
94.286003
20
19.433001
30
7.516000
70
192
0
VERTEX
8
OBJECT__12
10
85.227997
20
19.195999
30
8.098000
70
192
0
VERTEX
8
OBJECT__12
10
91.680000
20
19.365000
30
7.683000
70
192
0
VERTEX
8
OBJECT__12
10
78.870003
20
18.844999
30
8.880000
70
192
0
VERTEX
8
OBJECT__12
10
73.042000
20
18.243000
30
10.053000
70
192
0
VERTEX
8
OBJECT__12
10
78.731003
20
18.830999
30
8.908000
70
192
0
VERTEX
8
OBJECT__12
10
83.776001
20
20.421000
30
-4.245000
70
192
0
VERTEX
8
OBJECT__12
10
81.586998
20
20.280001
30
-4.815000
70
192
0
VERTEX
8
OBJECT__12
10
90.925003
20
20.649000
30
-2.923000
70
192
0
VERTEX
8
OBJECT__12
10
90.516998
20
20.636000
30
-2.998000
70
192
0
VERTEX
8
OBJECT__12
10
108.245003
20
20.812000
30
-1.286000
70
192
0
VERTEX
8
OBJECT__12
10
103.778000
20
20.787001
30
-1.615000
70
192
0
VERTEX
8
OBJECT__12
10
117.100998
20
20.826000
30
-1.011000
70
192
0
VERTEX
8
OBJECT__12
10
121.959000
20
20.834000
30
-0.861000
70
192
0
VERTEX
8
OBJECT__12
10
143.778000
20
20.837000
30
-0.754000
70
192
0
VERTEX
8
OBJECT__12
10
98.010002
20
20.753000
30
-2.040000
70
192
0
VERTEX
8
OBJECT__12
10
37.104000
20
20.294001
30
-4.818000
70
192
0
VERTEX
8
OBJECT__12
10
65.416000
20
17.764999
30
-10.876000
70
192
0
VERTEX
8
OBJECT__12
10
63.882000
20
17.273001
30
-11.687000
70
192
0
VERTEX
8
OBJECT__12
10
67.577003
20
18.457001
30
-9.733000
70
192
0
VERTEX
8
OBJECT__12
10
72.230003
20
19.386999
30
-7.707000
70
192
0
VERTEX
8
OBJECT__12
10
71.297997
20
19.201000
30
-8.113000
70
192
0
VERTEX
8
OBJECT__12
10
77.644997
20
20.025999
30
-5.841000
70
192
0
VERTEX
8
OBJECT__12
10
37.104000
20
17.285000
30
-11.695000
70
192
0
VERTEX
8
OBJECT__12
10
60.084999
20
15.477000
30
-14.006000
70
192
0
VERTEX
8
OBJECT__12
10
57.576000
20
13.651000
30
-15.773000
70
192
0
VERTEX
8
OBJECT__12
10
63.457001
20
17.136999
30
-11.912000
70
192
0
VERTEX
8
OBJECT__12
10
37.104000
20
13.663000
30
-15.785000
70
192
0
VERTEX
8
OBJECT__12
10
53.504002
20
8.628000
30
-19.018000
70
192
0
VERTEX
8
OBJECT__12
10
52.973999
20
7.369000
30
-19.486000
70
192
0
VERTEX
8
OBJECT__12
10
55.081001
20
11.084000
30
-17.695999
70
192
0
VERTEX
8
OBJECT__12
10
57.300999
20
13.450000
30
-15.968000
70
192
0
VERTEX
8
OBJECT__12
10
55.633999
20
11.674000
30
-17.264999
70
192
0
VERTEX
8
OBJECT__12
10
37.104000
20
0.000000
30
-20.888000
70
192
0
VERTEX
8
OBJECT__12
10
37.104000
20
7.388000
30
-19.535000
70
192
0
VERTEX
8
OBJECT__12
10
51.636002
20
2.875000
30
-20.688999
70
192
0
VERTEX
8
OBJECT__12
10
52.333000
20
5.846000
30
-20.051001
70
192
0
VERTEX
8
OBJECT__12
10
51.734001
20
3.293000
30
-20.599001
70
192
0
VERTEX
8
OBJECT__12
10
52.571999
20
6.413000
30
-19.841000
70
192
0
VERTEX
8
OBJECT__12
10
51.422001
20
0.000000
30
-20.888000
70
192
0
VERTEX
8
OBJECT__12
10
0
20
0
30
0
70
128
71
1
72
2
73
3
0
VERTEX
8
OBJECT__12
10
0
20
0
30
0
70
128
71
1
72
4
73
5
0
VERTEX
8
OBJECT__12
10
0
20
0
30
0
70
128
71
5
72
2
73
1
0
VERTEX
8
OBJECT__12
10
0
20
0
30
0
70
128
71
6
72
7
73
4
0
VERTEX
8
OBJECT__12
10
0
20
0
30
0
70
128
71
4
72
1
73
6
0
VERTEX
8
OBJECT__12
10
0
20
0
30
0
70
128
71
8
72
9
73
10
0
VERTEX
8
OBJECT__12
10
0
20
0
30
0
70
128
71
8
72
11
73
12
0
VERTEX
8
OBJECT__12
10
0
20
0
30
0
70
128
71
12
72
9
73
8
0
VERTEX
8
OBJECT__12
10
0
20
0
30
0
70
128
71
8
72
1
73
13
0
VERTEX
8
OBJECT__12
10
0
20
0
30
0
70
128
71
13
72
11
73
8
0
VERTEX
8
OBJECT__12
10
0
20
0
30
0
70
128
71
10
72
14
73
8
0
VERTEX
8
OBJECT__12
10
0
20
0
30
0
70
128
71
15
72
16
73
17
0
VERTEX
8
OBJECT__12
10
0
20
0
30
0
70
128
71
17
72
18
73
15
0
VERTEX
8
OBJECT__12
10
0
20
0
30
0
70
128
71
15
72
19
73
20
0
VERTEX
8
OBJECT__12
10
0
20
0
30
0
70
128
71
15
72
21
73
19
0
VERTEX
8
OBJECT__12
10
0
20
0
30
0
70
128
71
15
72
8
73
22
0
VERTEX
8
OBJECT__12
10
0
20
0
30
0
70
128
71
22
72
23
73
15
0
VERTEX
8
OBJECT__12
10
0
20
0
30
0
70
128
71
23
72
21
73
15
0
VERTEX
8
OBJECT__12
10
0
20
0
30
0
70
128
71
20
72
16
73
15
0
VERTEX
8
OBJECT__12
10
0
20
0
30
0
70
128
71
24
72
25
73
26
0
VERTEX
8
OBJECT__12
10
0
20
0
30
0
70
128
71
26
72
27
73
24
0
VERTEX
8
OBJECT__12
10
0
20
0
30
0
70
128
71
24
72
28
73
25
0
VERTEX
8
OBJECT__12
10
0
20
0
30
0
70
128
71
29
72
30
73
31
0
VERTEX
8
OBJECT__12
10
0
20
0
30
0
70
128
71
31
72
25
73
29
0
VERTEX
8
OBJECT__12
10
0
20
0
30
0
70
128
71
30
72
32
73
33
0
VERTEX
8
OBJECT__12
10
0
20
0
30
0
70
128
71
33
72
31
73
30
0
VERTEX
8
OBJECT__12
10
0
20
0
30
0
70
128
71
30
72
34
73
32
0
VERTEX
8
OBJECT__12
10
0
20
0
30
0
70
128
71
30
72
15
73
35
0
VERTEX
8
OBJECT__12
10
0
20
0
30
0
70
128
71
35
72
36
73
30
0
VERTEX
8
OBJECT__12
10
0
20
0
30
0
70
128
71
36
72
34
73
30
0
VERTEX
8
OBJECT__12
10
0
20
0
30
0
70
128
71
30
72
37
73
38
0
VERTEX
8
OBJECT__12
10
0
20
0
30
0
70
128
71
30
72
39
73
40
0
VERTEX
8
OBJECT__12
10
0
20
0
30
0
70
128
71
30
72
41
73
42
0
VERTEX
8
OBJECT__12
10
0
20
0
30
0
70
128
71
29
72
43
73
41
0
VERTEX
8
OBJECT__12
10
0
20
0
30
0
70
128
71
29
72
44
73
43
0
VERTEX
8
OBJECT__12
10
0
20
0
30
0
70
128
71
29
72
45
73
44
0
VERTEX
8
OBJECT__12
10
0
20
0
30
0
70
128
71
41
72
30
73
29
0
VERTEX
8
OBJECT__12
10
0
20
0
30
0
70
128
71
42
72
46
73
30
0
VERTEX
8
OBJECT__12
10
0
20
0
30
0
70
128
71
46
72
39
73
30
0
VERTEX
8
OBJECT__12
10
0
20
0
30
0
70
128
71
40
72
37
73
30
0
VERTEX
8
OBJECT__12
10
0
20
0
30
0
70
128
71
47
72
48
73
49
0
VERTEX
8
OBJECT__12
10
0
20
0
30
0
70
128
71
47
72
50
73
48
0
VERTEX
8
OBJECT__12
10
0
20
0
30
0
70
128
71
47
72
51
73
52
0
VERTEX
8
OBJECT__12
10
0
20
0
30
0
70
128
71
47
72
38
73
53
0
VERTEX
8
OBJECT__12
10
0
20
0
30
0
70
128
71
53
72
51
73
47
0
VERTEX
8
OBJECT__12
10
0
20
0
30
0
70
128
71
52
72
50
73
47
0
VERTEX
8
OBJECT__12
10
0
20
0
30
0
70
128
71
54
72
55
73
56
0
VERTEX
8
OBJECT__12
10
0
20
0
30
0
70
128
71
54
72
57
73
55
0
VERTEX
8
OBJECT__12
10
0
20
0
30
0
70
128
71
54
72
49
73
57
0
VERTEX
8
OBJECT__12
10
0
20
0
30
0
70
128
71
58
72
59
73
60
0
VERTEX
8
OBJECT__12
10
0
20
0
30
0
70
128
71
58
72
61
73
59
0
VERTEX
8
OBJECT__12
10
0
20
0
30
0
70
128
71
58
72
62
73
63
0
VERTEX
8
OBJECT__12
10
0
20
0
30
0
70
128
71
63
72
61
73
58
0
VERTEX
8
OBJECT__12
10
0
20
0
30
0
70
128
71
58
72
56
73
62
0
VERTEX
8
OBJECT__12
10
0
20
0
30
0
70
128
71
64
72
65
73
66
0
VERTEX
8
OBJECT__12
10
0
20
0
30
0
70
128
71
65
72
67
73
68
0
VERTEX
8
OBJECT__12
10
0
20
0
30
0
70
128
71
68
72
66
73
65
0
VERTEX
8
OBJECT__12
10
0
20
0
30
0
70
128
71
65
72
60
73
69
0
VERTEX
8
OBJECT__12
10
0
20
0
30
0
70
128
71
69
72
67
73
65
0
VERTEX
8
OBJECT__12
10
0
20
0
30
0
70
128
71
66
72
70
73
64
0
VERTEX
8
OBJECT__12
10
0
20
0
30
0
70
128
71
60
72
65
73
58
0
VERTEX
8
OBJECT__12
10
0
20
0
30
0
70
128
71
56
72
58
73
54
0
VERTEX
8
OBJECT__12
10
0
20
0
30
0
70
128
71
49
72
54
73
47
0
VERTEX
8
OBJECT__12
10
0
20
0
30
0
70
128
71
38
72
47
73
30
0
VERTEX
8
OBJECT__12
10
0
20
0
30
0
70
128
71
28
72
29
73
25
0
VERTEX
8
OBJECT__12
10
0
20
0
30
0
70
128
71
18
72
35
73
15
0
VERTEX
8
OBJECT__12
10
0
20
0
30
0
70
128
71
14
72
22
73
8
0
VERTEX
8
OBJECT__12
10
0
20
0
30
0
70
128
71
3
72
13
73
1
0
SEQEND
8
OBJECT__12
0
POLYLINE
8
OBJECT__13
66
1
70
64
71
9
72
7
62
253
0
VERTEX
8
OBJECT__13
10
201.404999
20
20.524000
30
3.630000
70
192
0
VERTEX
8
OBJECT__13
10
143.778000
20
20.649000
30
2.846000
70
192
0
VERTEX
8
OBJECT__13
10
143.778000
20
19.899000
30
6.185000
70
192
0
VERTEX
8
OBJECT__13
10
143.778000
20
20.652000
30
2.788000
70
192
0
VERTEX
8
OBJECT__13
10
201.404999
20
20.848000
30
0.224000
70
192
0
VERTEX
8
OBJECT__13
10
143.778000
20
20.837000
30
-0.754000
70
192
0
VERTEX
8
OBJECT__13
10
201.404999
20
20.837000
30
-0.754000
70
192
0
VERTEX
8
OBJECT__13
10
201.404999
20
19.584999
30
7.111000
70
192
0
VERTEX
8
OBJECT__13
10
143.778000
20
19.584999
30
7.111000
70
192
0
VERTEX
8
OBJECT__13
10
0
20
0
30
0
70
128
71
1
72
2
73
3
0
VERTEX
8
OBJECT__13
10
0
20
0
30
0
70
128
71
4
72
1
73
5
0
VERTEX
8
OBJECT__13
10
0
20
0
30
0
70
128
71
5
72
6
73
4
0
VERTEX
8
OBJECT__13
10
0
20
0
30
0
70
128
71
5
72
7
73
6
0
VERTEX
8
OBJECT__13
10
0
20
0
30
0
70
128
71
4
72
2
73
1
0
VERTEX
8
OBJECT__13
10
0
20
0
30
0
70
128
71
3
72
8
73
1
0
VERTEX
8
OBJECT__13
10
0
20
0
30
0
70
128
71
3
72
9
73
8
0
SEQEND
8
OBJECT__13
0
POLYLINE
8
OBJECT__14
66
1
70
64
71
60
72
58
62
253
0
VERTEX
8
OBJECT__14
10
86.431000
20
16.662001
30
9.417000
70
192
0
VERTEX
8
OBJECT__14
10
94.767998
20
16.886000
30
8.879000
70
192
0
VERTEX
8
OBJECT__14
10
91.680000
20
19.365000
30
7.683000
70
192
0
VERTEX
8
OBJECT__14
10
85.227997
20
19.195999
30
8.098000
70
192
0
VERTEX
8
OBJECT__14
10
78.870003
20
18.844999
30
8.880000
70
192
0
VERTEX
8
OBJECT__14
10
82.571999
20
16.416000
30
9.889000
70
192
0
VERTEX
8
OBJECT__14
10
78.731003
20
18.830999
30
8.908000
70
192
0
VERTEX
8
OBJECT__14
10
143.778000
20
18.298000
30
7.902000
70
192
0
VERTEX
8
OBJECT__14
10
117.723000
20
19.566999
30
7.160000
70
192
0
VERTEX
8
OBJECT__14
10
119.271004
20
16.916000
30
8.528000
70
192
0
VERTEX
8
OBJECT__14
10
143.778000
20
17.129000
30
8.358000
70
192
0
VERTEX
8
OBJECT__14
10
143.778000
20
17.601000
30
8.173000
70
192
0
VERTEX
8
OBJECT__14
10
143.778000
20
16.862000
30
8.462000
70
192
0
VERTEX
8
OBJECT__14
10
143.778000
20
18.646999
30
7.765000
70
192
0
VERTEX
8
OBJECT__14
10
66.455002
20
13.601000
30
13.930000
70
192
0
VERTEX
8
OBJECT__14
10
69.222000
20
14.440000
30
12.895000
70
192
0
VERTEX
8
OBJECT__14
10
66.341003
20
16.848000
30
12.205000
70
192
0
VERTEX
8
OBJECT__14
10
64.045998
20
16.173000
30
13.118000
70
192
0
VERTEX
8
OBJECT__14
10
70.300003
20
14.767000
30
12.492000
70
192
0
VERTEX
8
OBJECT__14
10
60.984001
20
14.844000
30
14.601000
70
192
0
VERTEX
8
OBJECT__14
10
65.267998
20
13.059000
30
14.478000
70
192
0
VERTEX
8
OBJECT__14
10
60.757999
20
14.701000
30
14.729000
70
192
0
VERTEX
8
OBJECT__14
10
79.985001
20
16.250999
30
10.206000
70
192
0
VERTEX
8
OBJECT__14
10
80.110001
20
16.259001
30
10.190000
70
192
0
VERTEX
8
OBJECT__14
10
76.560997
20
15.847000
30
10.879000
70
192
0
VERTEX
8
OBJECT__14
10
73.042000
20
18.243000
30
10.053000
70
192
0
VERTEX
8
OBJECT__14
10
72.906998
20
18.229000
30
10.080000
70
192
0
VERTEX
8
OBJECT__14
10
72.398003
20
18.136000
30
10.233000
70
192
0
VERTEX
8
OBJECT__14
10
67.952003
20
17.322001
30
11.564000
70
192
0
VERTEX
8
OBJECT__14
10
70.713997
20
14.848000
30
12.375000
70
192
0
VERTEX
8
OBJECT__14
10
74.750000
20
15.633000
30
11.234000
70
192
0
VERTEX
8
OBJECT__14
10
58.465000
20
8.230000
30
18.122999
70
192
0
VERTEX
8
OBJECT__14
10
59.185001
20
8.958000
30
17.688000
70
192
0
VERTEX
8
OBJECT__14
10
56.056999
20
11.201000
30
17.506001
70
192
0
VERTEX
8
OBJECT__14
10
55.431999
20
10.621000
30
17.902000
70
192
0
VERTEX
8
OBJECT__14
10
54.160999
20
8.899000
30
18.775000
70
192
0
VERTEX
8
OBJECT__14
10
60.445000
20
10.231000
30
16.927000
70
192
0
VERTEX
8
OBJECT__14
10
58.664001
20
13.378000
30
15.909000
70
192
0
VERTEX
8
OBJECT__14
10
57.840000
20
12.857000
30
16.374001
70
192
0
VERTEX
8
OBJECT__14
10
63.223000
20
12.125000
30
15.424000
70
192
0
VERTEX
8
OBJECT__14
10
55.990002
20
3.481000
30
19.761000
70
192
0
VERTEX
8
OBJECT__14
10
56.895000
20
5.813000
30
19.143000
70
192
0
VERTEX
8
OBJECT__14
10
52.681999
20
6.215000
30
19.825001
70
192
0
VERTEX
8
OBJECT__14
10
51.715000
20
3.209000
30
20.539000
70
192
0
VERTEX
8
OBJECT__14
10
55.909000
20
3.012000
30
19.816999
70
192
0
VERTEX
8
OBJECT__14
10
52.345001
20
5.516000
30
20.069000
70
192
0
VERTEX
8
OBJECT__14
10
53.626999
20
8.175000
30
19.142000
70
192
0
VERTEX
8
OBJECT__14
10
52.866001
20
6.597000
30
19.691999
70
192
0
VERTEX
8
OBJECT__14
10
55.544998
20
0.921000
30
20.070999
70
192
0
VERTEX
8
OBJECT__14
10
51.602001
20
2.798000
30
20.622999
70
192
0
VERTEX
8
OBJECT__14
10
54.262001
20
0.000000
30
20.655001
70
192
0
VERTEX
8
OBJECT__14
10
51.856998
20
0.000000
30
20.812000
70
192
0
VERTEX
8
OBJECT__14
10
51.354000
20
0.000000
30
20.812000
70
192
0
VERTEX
8
OBJECT__14
10
55.512001
20
0.000000
30
20.094999
70
192
0
VERTEX
8
OBJECT__14
10
110.120003
20
19.562000
30
7.175000
70
192
0
VERTEX
8
OBJECT__14
10
94.286003
20
19.433001
30
7.516000
70
192
0
VERTEX
8
OBJECT__14
10
95.732002
20
16.893000
30
8.850000
70
192
0
VERTEX
8
OBJECT__14
10
107.268997
20
16.941999
30
8.561000
70
192
0
VERTEX
8
OBJECT__14
10
94.899002
20
16.889999
30
8.871000
70
192
0
VERTEX
8
OBJECT__14
10
143.778000
20
19.584999
30
7.111000
70
192
0
VERTEX
8
OBJECT__14
10
0
20
0
30
0
70
128
71
1
72
2
73
3
0
VERTEX
8
OBJECT__14
10
0
20
0
30
0
70
128
71
4
72
5
73
6
0
VERTEX
8
OBJECT__14
10
0
20
0
30
0
70
128
71
6
72
1
73
4
0
VERTEX
8
OBJECT__14
10
0
20
0
30
0
70
128
71
5
72
7
73
6
0
VERTEX
8
OBJECT__14
10
0
20
0
30
0
70
128
71
8
72
9
73
10
0
VERTEX
8
OBJECT__14
10
0
20
0
30
0
70
128
71
10
72
11
73
12
0
VERTEX
8
OBJECT__14
10
0
20
0
30
0
70
128
71
10
72
13
73
11
0
VERTEX
8
OBJECT__14
10
0
20
0
30
0
70
128
71
10
72
12
73
8
0
VERTEX
8
OBJECT__14
10
0
20
0
30
0
70
128
71
8
72
14
73
9
0
VERTEX
8
OBJECT__14
10
0
20
0
30
0
70
128
71
15
72
16
73
17
0
VERTEX
8
OBJECT__14
10
0
20
0
30
0
70
128
71
17
72
18
73
15
0
VERTEX
8
OBJECT__14
10
0
20
0
30
0
70
128
71
16
72
19
73
17
0
VERTEX
8
OBJECT__14
10
0
20
0
30
0
70
128
71
18
72
20
73
21
0
VERTEX
8
OBJECT__14
10
0
20
0
30
0
70
128
71
21
72
15
73
18
0
VERTEX
8
OBJECT__14
10
0
20
0
30
0
70
128
71
20
72
22
73
21
0
VERTEX
8
OBJECT__14
10
0
20
0
30
0
70
128
71
7
72
23
73
24
0
VERTEX
8
OBJECT__14
10
0
20
0
30
0
70
128
71
25
72
26
73
27
0
VERTEX
8
OBJECT__14
10
0
20
0
30
0
70
128
71
7
72
26
73
25
0
VERTEX
8
OBJECT__14
10
0
20
0
30
0
70
128
71
25
72
23
73
7
0
VERTEX
8
OBJECT__14
10
0
20
0
30
0
70
128
71
27
72
28
73
25
0
VERTEX
8
OBJECT__14
10
0
20
0
30
0
70
128
71
28
72
29
73
30
0
VERTEX
8
OBJECT__14
10
0
20
0
30
0
70
128
71
30
72
31
73
28
0
VERTEX
8
OBJECT__14
10
0
20
0
30
0
70
128
71
29
72
17
73
30
0
VERTEX
8
OBJECT__14
10
0
20
0
30
0
70
128
71
32
72
33
73
34
0
VERTEX
8
OBJECT__14
10
0
20
0
30
0
70
128
71
34
72
35
73
32
0
VERTEX
8
OBJECT__14
10
0
20
0
30
0
70
128
71
35
72
36
73
32
0
VERTEX
8
OBJECT__14
10
0
20
0
30
0
70
128
71
37
72
38
73
39
0
VERTEX
8
OBJECT__14
10
0
20
0
30
0
70
128
71
40
72
22
73
38
0
VERTEX
8
OBJECT__14
10
0
20
0
30
0
70
128
71
38
72
37
73
40
0
VERTEX
8
OBJECT__14
10
0
20
0
30
0
70
128
71
39
72
34
73
37
0
VERTEX
8
OBJECT__14
10
0
20
0
30
0
70
128
71
41
72
42
73
43
0
VERTEX
8
OBJECT__14
10
0
20
0
30
0
70
128
71
44
72
45
73
41
0
VERTEX
8
OBJECT__14
10
0
20
0
30
0
70
128
71
41
72
46
73
44
0
VERTEX
8
OBJECT__14
10
0
20
0
30
0
70
128
71
42
72
32
73
36
0
VERTEX
8
OBJECT__14
10
0
20
0
30
0
70
128
71
36
72
47
73
42
0
VERTEX
8
OBJECT__14
10
0
20
0
30
0
70
128
71
47
72
48
73
42
0
VERTEX
8
OBJECT__14
10
0
20
0
30
0
70
128
71
49
72
45
73
44
0
VERTEX
8
OBJECT__14
10
0
20
0
30
0
70
128
71
49
72
50
73
51
0
VERTEX
8
OBJECT__14
10
0
20
0
30
0
70
128
71
50
72
52
73
51
0
VERTEX
8
OBJECT__14
10
0
20
0
30
0
70
128
71
50
72
53
73
52
0
VERTEX
8
OBJECT__14
10
0
20
0
30
0
70
128
71
51
72
54
73
49
0
VERTEX
8
OBJECT__14
10
0
20
0
30
0
70
128
71
10
72
9
73
55
0
VERTEX
8
OBJECT__14
10
0
20
0
30
0
70
128
71
56
72
57
73
58
0
VERTEX
8
OBJECT__14
10
0
20
0
30
0
70
128
71
56
72
59
73
57
0
VERTEX
8
OBJECT__14
10
0
20
0
30
0
70
128
71
58
72
55
73
56
0
VERTEX
8
OBJECT__14
10
0
20
0
30
0
70
128
71
56
72
3
73
2
0
VERTEX
8
OBJECT__14
10
0
20
0
30
0
70
128
71
2
72
59
73
56
0
VERTEX
8
OBJECT__14
10
0
20
0
30
0
70
128
71
55
72
58
73
10
0
VERTEX
8
OBJECT__14
10
0
20
0
30
0
70
128
71
44
72
50
73
49
0
VERTEX
8
OBJECT__14
10
0
20
0
30
0
70
128
71
48
72
43
73
42
0
VERTEX
8
OBJECT__14
10
0
20
0
30
0
70
128
71
43
72
46
73
41
0
VERTEX
8
OBJECT__14
10
0
20
0
30
0
70
128
71
40
72
21
73
22
0
VERTEX
8
OBJECT__14
10
0
20
0
30
0
70
128
71
33
72
37
73
34
0
VERTEX
8
OBJECT__14
10
0
20
0
30
0
70
128
71
31
72
25
73
28
0
VERTEX
8
OBJECT__14
10
0
20
0
30
0
70
128
71
24
72
6
73
7
0
VERTEX
8
OBJECT__14
10
0
20
0
30
0
70
128
71
19
72
30
73
17
0
VERTEX
8
OBJECT__14
10
0
20
0
30
0
70
128
71
14
72
60
73
9
0
VERTEX
8
OBJECT__14
10
0
20
0
30
0
70
128
71
3
72
4
73
1
0
SEQEND
8
OBJECT__14
0
POLYLINE
8
OBJECT__15
66
1
70
64
71
63
72
61
62
253
0
VERTEX
8
OBJECT__15
10
82.564003
20
-16.448999
30
9.841000
70
192
0
VERTEX
8
OBJECT__15
10
80.139000
20
-18.934000
30
8.690000
70
192
0
VERTEX
8
OBJECT__15
10
86.939003
20
-19.257999
30
7.950000
70
192
0
VERTEX
8
OBJECT__15
10
78.738998
20
-18.809000
30
8.943000
70
192
0
VERTEX
8
OBJECT__15
10
90.203003
20
-16.795000
30
9.122000
70
192
0
VERTEX
8
OBJECT__15
10
91.679001
20
-19.368999
30
7.674000
70
192
0
VERTEX
8
OBJECT__15
10
94.769997
20
-16.853001
30
8.936000
70
192
0
VERTEX
8
OBJECT__15
10
65.046997
20
-16.517000
30
12.684000
70
192
0
VERTEX
8
OBJECT__15
10
67.544998
20
-13.984000
30
13.486000
70
192
0
VERTEX
8
OBJECT__15
10
65.262001
20
-13.066000
30
14.479000
70
192
0
VERTEX
8
OBJECT__15
10
60.776001
20
-14.673000
30
14.734000
70
192
0
VERTEX
8
OBJECT__15
10
61.544998
20
-15.123000
30
14.312000
70
192
0
VERTEX
8
OBJECT__15
10
66.336998
20
-16.851999
30
12.205000
70
192
0
VERTEX
8
OBJECT__15
10
70.726997
20
-14.826000
30
12.388000
70
192
0
VERTEX
8
OBJECT__15
10
69.224998
20
-14.429000
30
12.906000
70
192
0
VERTEX
8
OBJECT__15
10
80.119003
20
-16.219000
30
10.244000
70
192
0
VERTEX
8
OBJECT__15
10
76.549004
20
-15.878000
30
10.841000
70
192
0
VERTEX
8
OBJECT__15
10
73.211998
20
-18.233999
30
10.048000
70
192
0
VERTEX
8
OBJECT__15
10
74.341003
20
-18.413000
30
9.740000
70
192
0
VERTEX
8
OBJECT__15
10
72.411003
20
-18.107000
30
10.267000
70
192
0
VERTEX
8
OBJECT__15
10
82.473999
20
-16.444000
30
9.850000
70
192
0
VERTEX
8
OBJECT__15
10
69.208000
20
-17.599001
30
11.140000
70
192
0
VERTEX
8
OBJECT__15
10
71.707001
20
-15.086000
30
12.050000
70
192
0
VERTEX
8
OBJECT__15
10
76.336998
20
-15.857000
30
10.877000
70
192
0
VERTEX
8
OBJECT__15
10
56.020000
20
-11.248000
30
17.516001
70
192
0
VERTEX
8
OBJECT__15
10
59.183998
20
-9.032000
30
17.677999
70
192
0
VERTEX
8
OBJECT__15
10
58.508999
20
-8.185000
30
18.104000
70
192
0
VERTEX
8
OBJECT__15
10
59.264000
20
-9.132000
30
17.628000
70
192
0
VERTEX
8
OBJECT__15
10
60.488998
20
-10.175000
30
16.919001
70
192
0
VERTEX
8
OBJECT__15
10
58.470001
20
-13.323000
30
15.998000
70
192
0
VERTEX
8
OBJECT__15
10
58.596001
20
-13.396000
30
15.929000
70
192
0
VERTEX
8
OBJECT__15
10
61.550999
20
-11.079000
30
16.304001
70
192
0
VERTEX
8
OBJECT__15
10
64.250000
20
-12.659000
30
14.920000
70
192
0
VERTEX
8
OBJECT__15
10
52.598000
20
-6.155000
30
19.882000
70
192
0
VERTEX
8
OBJECT__15
10
56.534000
20
-5.034000
30
19.386999
70
192
0
VERTEX
8
OBJECT__15
10
55.908001
20
-3.005000
30
19.819000
70
192
0
VERTEX
8
OBJECT__15
10
51.699001
20
-3.218000
30
20.549999
70
192
0
VERTEX
8
OBJECT__15
10
51.724998
20
-3.410000
30
20.531000
70
192
0
VERTEX
8
OBJECT__15
10
52.645000
20
-6.241000
30
19.849001
70
192
0
VERTEX
8
OBJECT__15
10
56.933998
20
-5.785000
30
19.121000
70
192
0
VERTEX
8
OBJECT__15
10
54.034000
20
-8.816000
30
18.855000
70
192
0
VERTEX
8
OBJECT__15
10
57.612000
20
-7.061000
30
18.669001
70
192
0
VERTEX
8
OBJECT__15
10
52.840000
20
-6.602000
30
19.709999
70
192
0
VERTEX
8
OBJECT__15
10
54.127998
20
-8.931000
30
18.792000
70
192
0
VERTEX
8
OBJECT__15
10
51.856998
20
0.000000
30
20.812000
70
192
0
VERTEX
8
OBJECT__15
10
51.354000
20
0.000000
30
20.812000
70
192
0
VERTEX
8
OBJECT__15
10
51.372002
20
-0.758000
30
20.798000
70
192
0
VERTEX
8
OBJECT__15
10
55.765999
20
-2.545000
30
19.917000
70
192
0
VERTEX
8
OBJECT__15
10
54.262001
20
0.000000
30
20.655001
70
192
0
VERTEX
8
OBJECT__15
10
55.512001
20
0.000000
30
20.094999
70
192
0
VERTEX
8
OBJECT__15
10
94.663002
20
-19.438999
30
7.500000
70
192
0
VERTEX
8
OBJECT__15
10
95.734001
20
-16.865999
30
8.897000
70
192
0
VERTEX
8
OBJECT__15
10
105.313004
20
-19.542000
30
7.229000
70
192
0
VERTEX
8
OBJECT__15
10
101.560997
20
-16.940001
30
8.659000
70
192
0
VERTEX
8
OBJECT__15
10
119.271004
20
-16.900999
30
8.500000
70
192
0
VERTEX
8
OBJECT__15
10
117.723000
20
-19.572001
30
7.147000
70
192
0
VERTEX
8
OBJECT__15
10
121.568001
20
-19.580999
30
7.122000
70
192
0
VERTEX
8
OBJECT__15
10
122.586998
20
-16.893999
30
8.471000
70
192
0
VERTEX
8
OBJECT__15
10
143.778000
20
-18.306000
30
7.948000
70
192
0
VERTEX
8
OBJECT__15
10
143.778000
20
-16.862000
30
8.462000
70
192
0
VERTEX
8
OBJECT__15
10
143.778000
20
-19.584999
30
7.111000
70
192
0
VERTEX
8
OBJECT__15
10
143.778000
20
-19.365000
30
7.288000
70
192
0
VERTEX
8
OBJECT__15
10
143.778000
20
-18.957001
30
7.576000
70
192
0
VERTEX
8
OBJECT__15
10
0
20
0
30
0
70
128
71
1
72
2
73
3
0
VERTEX
8
OBJECT__15
10
0
20
0
30
0
70
128
71
1
72
4
73
2
0
VERTEX
8
OBJECT__15
10
0
20
0
30
0
70
128
71
3
72
5
73
1
0
VERTEX
8
OBJECT__15
10
0
20
0
30
0
70
128
71
6
72
7
73
5
0
VERTEX
8
OBJECT__15
10
0
20
0
30
0
70
128
71
8
72
9
73
10
0
VERTEX
8
OBJECT__15
10
0
20
0
30
0
70
128
71
10
72
11
73
12
0
VERTEX
8
OBJECT__15
10
0
20
0
30
0
70
128
71
10
72
12
73
8
0
VERTEX
8
OBJECT__15
10
0
20
0
30
0
70
128
71
13
72
14
73
15
0
VERTEX
8
OBJECT__15
10
0
20
0
30
0
70
128
71
15
72
9
73
13
0
VERTEX
8
OBJECT__15
10
0
20
0
30
0
70
128
71
4
72
16
73
17
0
VERTEX
8
OBJECT__15
10
0
20
0
30
0
70
128
71
17
72
18
73
19
0
VERTEX
8
OBJECT__15
10
0
20
0
30
0
70
128
71
17
72
20
73
18
0
VERTEX
8
OBJECT__15
10
0
20
0
30
0
70
128
71
4
72
21
73
16
0
VERTEX
8
OBJECT__15
10
0
20
0
30
0
70
128
71
4
72
1
73
21
0
VERTEX
8
OBJECT__15
10
0
20
0
30
0
70
128
71
22
72
23
73
14
0
VERTEX
8
OBJECT__15
10
0
20
0
30
0
70
128
71
23
72
22
73
20
0
VERTEX
8
OBJECT__15
10
0
20
0
30
0
70
128
71
20
72
17
73
24
0
VERTEX
8
OBJECT__15
10
0
20
0
30
0
70
128
71
20
72
24
73
23
0
VERTEX
8
OBJECT__15
10
0
20
0
30
0
70
128
71
25
72
26
73
27
0
VERTEX
8
OBJECT__15
10
0
20
0
30
0
70
128
71
25
72
28
73
26
0
VERTEX
8
OBJECT__15
10
0
20
0
30
0
70
128
71
25
72
29
73
28
0
VERTEX
8
OBJECT__15
10
0
20
0
30
0
70
128
71
29
72
30
73
31
0
VERTEX
8
OBJECT__15
10
0
20
0
30
0
70
128
71
25
72
30
73
29
0
VERTEX
8
OBJECT__15
10
0
20
0
30
0
70
128
71
32
72
31
73
11
0
VERTEX
8
OBJECT__15
10
0
20
0
30
0
70
128
71
11
72
10
73
33
0
VERTEX
8
OBJECT__15
10
0
20
0
30
0
70
128
71
11
72
33
73
32
0
VERTEX
8
OBJECT__15
10
0
20
0
30
0
70
128
71
34
72
35
73
36
0
VERTEX
8
OBJECT__15
10
0
20
0
30
0
70
128
71
36
72
37
73
38
0
VERTEX
8
OBJECT__15
10
0
20
0
30
0
70
128
71
36
72
38
73
34
0
VERTEX
8
OBJECT__15
10
0
20
0
30
0
70
128
71
39
72
40
73
35
0
VERTEX
8
OBJECT__15
10
0
20
0
30
0
70
128
71
41
72
42
73
40
0
VERTEX
8
OBJECT__15
10
0
20
0
30
0
70
128
71
40
72
43
73
41
0
VERTEX
8
OBJECT__15
10
0
20
0
30
0
70
128
71
40
72
39
73
43
0
VERTEX
8
OBJECT__15
10
0
20
0
30
0
70
128
71
44
72
27
73
42
0
VERTEX
8
OBJECT__15
10
0
20
0
30
0
70
128
71
45
72
46
73
47
0
VERTEX
8
OBJECT__15
10
0
20
0
30
0
70
128
71
37
72
48
73
49
0
VERTEX
8
OBJECT__15
10
0
20
0
30
0
70
128
71
48
72
50
73
49
0
VERTEX
8
OBJECT__15
10
0
20
0
30
0
70
128
71
49
72
45
73
37
0
VERTEX
8
OBJECT__15
10
0
20
0
30
0
70
128
71
37
72
36
73
48
0
VERTEX
8
OBJECT__15
10
0
20
0
30
0
70
128
71
51
72
52
73
7
0
VERTEX
8
OBJECT__15
10
0
20
0
30
0
70
128
71
51
72
53
73
54
0
VERTEX
8
OBJECT__15
10
0
20
0
30
0
70
128
71
54
72
52
73
51
0
VERTEX
8
OBJECT__15
10
0
20
0
30
0
70
128
71
55
72
54
73
53
0
VERTEX
8
OBJECT__15
10
0
20
0
30
0
70
128
71
53
72
56
73
55
0
VERTEX
8
OBJECT__15
10
0
20
0
30
0
70
128
71
57
72
58
73
55
0
VERTEX
8
OBJECT__15
10
0
20
0
30
0
70
128
71
59
72
60
73
58
0
VERTEX
8
OBJECT__15
10
0
20
0
30
0
70
128
71
57
72
61
73
62
0
VERTEX
8
OBJECT__15
10
0
20
0
30
0
70
128
71
62
72
63
73
57
0
VERTEX
8
OBJECT__15
10
0
20
0
30
0
70
128
71
63
72
59
73
57
0
VERTEX
8
OBJECT__15
10
0
20
0
30
0
70
128
71
58
72
57
73
59
0
VERTEX
8
OBJECT__15
10
0
20
0
30
0
70
128
71
55
72
56
73
57
0
VERTEX
8
OBJECT__15
10
0
20
0
30
0
70
128
71
7
72
6
73
51
0
VERTEX
8
OBJECT__15
10
0
20
0
30
0
70
128
71
47
72
37
73
45
0
VERTEX
8
OBJECT__15
10
0
20
0
30
0
70
128
71
41
72
44
73
42
0
VERTEX
8
OBJECT__15
10
0
20
0
30
0
70
128
71
34
72
39
73
35
0
VERTEX
8
OBJECT__15
10
0
20
0
30
0
70
128
71
31
72
32
73
29
0
VERTEX
8
OBJECT__15
10
0
20
0
30
0
70
128
71
27
72
44
73
25
0
VERTEX
8
OBJECT__15
10
0
20
0
30
0
70
128
71
14
72
13
73
22
0
VERTEX
8
OBJECT__15
10
0
20
0
30
0
70
128
71
17
72
19
73
4
0
VERTEX
8
OBJECT__15
10
0
20
0
30
0
70
128
71
8
72
13
73
9
0
VERTEX
8
OBJECT__15
10
0
20
0
30
0
70
128
71
3
72
6
73
5
0
SEQEND
8
OBJECT__15
0
POLYLINE
8
OBJECT__16
66
1
70
64
71
7
72
5
62
253
0
VERTEX
8
OBJECT__16
10
143.778000
20
-20.657000
30
2.788000
70
192
0
VERTEX
8
OBJECT__16
10
201.404999
20
-20.649000
30
2.846000
70
192
0
VERTEX
8
OBJECT__16
10
201.404999
20
-19.899000
30
6.184000
70
192
0
VERTEX
8
OBJECT__16
10
143.778000
20
-19.584999
30
7.111000
70
192
0
VERTEX
8
OBJECT__16
10
201.404999
20
-20.837000
30
-0.754000
70
192
0
VERTEX
8
OBJECT__16
10
143.778000
20
-20.837000
30
-0.754000
70
192
0
VERTEX
8
OBJECT__16
10
201.404999
20
-19.584999
30
7.111000
70
192
0
VERTEX
8
OBJECT__16
10
0
20
0
30
0
70
128
71
1
72
2
73
3
0
VERTEX
8
OBJECT__16
10
0
20
0
30
0
70
128
71
3
72
4
73
1
0
VERTEX
8
OBJECT__16
10
0
20
0
30
0
70
128
71
5
72
2
73
1
0
VERTEX
8
OBJECT__16
10
0
20
0
30
0
70
128
71
1
72
6
73
5
0
VERTEX
8
OBJECT__16
10
0
20
0
30
0
70
128
71
3
72
7
73
4
0
SEQEND
8
OBJECT__16
0
POLYLINE
8
OBJECT__17
66
1
70
64
71
73
72
71
62
253
0
VERTEX
8
OBJECT__17
10
221.966995
20
3.373000
30
-0.754000
70
192
0
VERTEX
8
OBJECT__17
10
220.580994
20
3.817000
30
7.111000
70
192
0
VERTEX
8
OBJECT__17
10
220.975998
20
0.755000
30
7.111000
70
192
0
VERTEX
8
OBJECT__17
10
222.223999
20
-0.001000
30
-0.754000
70
192
0
VERTEX
8
OBJECT__17
10
221.794006
20
4.053000
30
-0.754000
70
192
0
VERTEX
8
OBJECT__17
10
204.876999
20
-19.274000
30
7.111000
70
192
0
VERTEX
8
OBJECT__17
10
201.404999
20
-19.899000
30
6.184000
70
192
0
VERTEX
8
OBJECT__17
10
201.404999
20
-20.649000
30
2.846000
70
192
0
VERTEX
8
OBJECT__17
10
204.987000
20
-20.525999
30
-0.754000
70
192
0
VERTEX
8
OBJECT__17
10
201.404999
20
-19.584999
30
7.111000
70
192
0
VERTEX
8
OBJECT__17
10
205.460999
20
-20.400000
30
-0.754000
70
192
0
VERTEX
8
OBJECT__17
10
205.218002
20
-19.180000
30
7.111000
70
192
0
VERTEX
8
OBJECT__17
10
213.067993
20
15.733000
30
7.111000
70
192
0
VERTEX
8
OBJECT__17
10
215.223999
20
13.815000
30
7.111000
70
192
0
VERTEX
8
OBJECT__17
10
215.057007
20
15.742000
30
-0.754000
70
192
0
VERTEX
8
OBJECT__17
10
216.085007
20
14.681000
30
-0.754000
70
192
0
VERTEX
8
OBJECT__17
10
212.945007
20
17.275000
30
-0.754000
70
192
0
VERTEX
8
OBJECT__17
10
212.253006
20
16.231001
30
7.111000
70
192
0
VERTEX
8
OBJECT__17
10
219.473007
20
7.558000
30
7.111000
70
192
0
VERTEX
8
OBJECT__17
10
220.593002
20
7.946000
30
-0.754000
70
192
0
VERTEX
8
OBJECT__17
10
219.595001
20
10.164000
30
-0.754000
70
192
0
VERTEX
8
OBJECT__17
10
217.839996
20
10.650000
30
7.111000
70
192
0
VERTEX
8
OBJECT__17
10
218.666000
20
11.533000
30
-0.754000
70
192
0
VERTEX
8
OBJECT__17
10
217.671005
20
10.866000
30
7.111000
70
192
0
VERTEX
8
OBJECT__17
10
220.529999
20
4.218000
30
7.111000
70
192
0
VERTEX
8
OBJECT__17
10
221.078003
20
6.867000
30
-0.754000
70
192
0
VERTEX
8
OBJECT__17
10
219.494003
20
7.493000
30
7.111000
70
192
0
VERTEX
8
OBJECT__17
10
217.574005
20
13.143000
30
-0.754000
70
192
0
VERTEX
8
OBJECT__17
10
215.684006
20
13.405000
30
7.111000
70
192
0
VERTEX
8
OBJECT__17
10
208.895996
20
19.444000
30
-0.754000
70
192
0
VERTEX
8
OBJECT__17
10
205.468994
20
20.433001
30
-0.754000
70
192
0
VERTEX
8
OBJECT__17
10
206.819000
20
18.820999
30
7.111000
70
192
0
VERTEX
8
OBJECT__17
10
208.873001
20
18.025000
30
7.111000
70
192
0
VERTEX
8
OBJECT__17
10
209.362000
20
19.216000
30
-0.754000
70
192
0
VERTEX
8
OBJECT__17
10
205.210999
20
19.132000
30
7.111000
70
192
0
VERTEX
8
OBJECT__17
10
212.145004
20
17.855000
30
-0.754000
70
192
0
VERTEX
8
OBJECT__17
10
210.087997
20
17.555000
30
7.111000
70
192
0
VERTEX
8
OBJECT__17
10
205.434006
20
20.443001
30
-0.754000
70
192
0
VERTEX
8
OBJECT__17
10
202.035995
20
20.827999
30
-0.754000
70
192
0
VERTEX
8
OBJECT__17
10
203.393005
20
19.483000
30
7.111000
70
192
0
VERTEX
8
OBJECT__17
10
201.404999
20
20.848000
30
0.224000
70
192
0
VERTEX
8
OBJECT__17
10
201.404999
20
20.524000
30
3.630000
70
192
0
VERTEX
8
OBJECT__17
10
201.404999
20
20.837000
30
-0.754000
70
192
0
VERTEX
8
OBJECT__17
10
201.404999
20
19.584999
30
7.111000
70
192
0
VERTEX
8
OBJECT__17
10
215.199997
20
-13.796000
30
7.111000
70
192
0
VERTEX
8
OBJECT__17
10
216.084000
20
-14.678000
30
-0.754000
70
192
0
VERTEX
8
OBJECT__17
10
217.285995
20
-13.490000
30
-0.754000
70
192
0
VERTEX
8
OBJECT__17
10
218.673996
20
-11.536000
30
-0.754000
70
192
0
VERTEX
8
OBJECT__17
10
217.623993
20
-10.837000
30
7.111000
70
192
0
VERTEX
8
OBJECT__17
10
216.671997
20
-12.267000
30
7.111000
70
192
0
VERTEX
8
OBJECT__17
10
208.878006
20
-18.049000
30
7.111000
70
192
0
VERTEX
8
OBJECT__17
10
209.352997
20
-19.195000
30
-0.754000
70
192
0
VERTEX
8
OBJECT__17
10
211.753998
20
-18.084999
30
-0.754000
70
192
0
VERTEX
8
OBJECT__17
10
212.938995
20
-17.263000
30
-0.754000
70
192
0
VERTEX
8
OBJECT__17
10
212.248001
20
-16.231001
30
7.111000
70
192
0
VERTEX
8
OBJECT__17
10
211.408997
20
-16.836000
30
7.111000
70
192
0
VERTEX
8
OBJECT__17
10
208.473999
20
-19.601999
30
-0.754000
70
192
0
VERTEX
8
OBJECT__17
10
208.250000
20
-18.350000
30
7.111000
70
192
0
VERTEX
8
OBJECT__17
10
214.712997
20
-16.033001
30
-0.754000
70
192
0
VERTEX
8
OBJECT__17
10
214.240997
20
-14.792000
30
7.111000
70
192
0
VERTEX
8
OBJECT__17
10
219.429001
20
-7.464000
30
7.111000
70
192
0
VERTEX
8
OBJECT__17
10
220.610001
20
-7.952000
30
-0.754000
70
192
0
VERTEX
8
OBJECT__17
10
220.925003
20
-7.291000
30
-0.754000
70
192
0
VERTEX
8
OBJECT__17
10
221.822006
20
-4.060000
30
-0.754000
70
192
0
VERTEX
8
OBJECT__17
10
220.548004
20
-3.805000
30
7.111000
70
192
0
VERTEX
8
OBJECT__17
10
220.001007
20
-6.144000
30
7.111000
70
192
0
VERTEX
8
OBJECT__17
10
219.369995
20
-10.556000
30
-0.754000
70
192
0
VERTEX
8
OBJECT__17
10
218.606995
20
-9.362000
30
7.111000
70
192
0
VERTEX
8
OBJECT__17
10
221.888000
20
-3.821000
30
-0.754000
70
192
0
VERTEX
8
OBJECT__17
10
222.240997
20
-0.225000
30
-0.754000
70
192
0
VERTEX
8
OBJECT__17
10
220.936996
20
0.003000
30
7.111000
70
192
0
VERTEX
8
OBJECT__17
10
220.796005
20
-2.747000
30
7.111000
70
192
0
VERTEX
8
OBJECT__17
10
201.404999
20
-20.837000
30
-0.754000
70
192
0
VERTEX
8
OBJECT__17
10
0
20
0
30
0
70
128
71
1
72
2
73
3
0
VERTEX
8
OBJECT__17
10
0
20
0
30
0
70
128
71
3
72
4
73
1
0
VERTEX
8
OBJECT__17
10
0
20
0
30
0
70
128
71
1
72
5
73
2
0
VERTEX
8
OBJECT__17
10
0
20
0
30
0
70
128
71
6
72
7
73
8
0
VERTEX
8
OBJECT__17
10
0
20
0
30
0
70
128
71
8
72
9
73
6
0
VERTEX
8
OBJECT__17
10
0
20
0
30
0
70
128
71
6
72
10
73
7
0
VERTEX
8
OBJECT__17
10
0
20
0
30
0
70
128
71
11
72
12
73
6
0
VERTEX
8
OBJECT__17
10
0
20
0
30
0
70
128
71
6
72
9
73
11
0
VERTEX
8
OBJECT__17
10
0
20
0
30
0
70
128
71
13
72
14
73
15
0
VERTEX
8
OBJECT__17
10
0
20
0
30
0
70
128
71
14
72
16
73
15
0
VERTEX
8
OBJECT__17
10
0
20
0
30
0
70
128
71
17
72
18
73
13
0
VERTEX
8
OBJECT__17
10
0
20
0
30
0
70
128
71
19
72
20
73
21
0
VERTEX
8
OBJECT__17
10
0
20
0
30
0
70
128
71
21
72
22
73
19
0
VERTEX
8
OBJECT__17
10
0
20
0
30
0
70
128
71
23
72
24
73
22
0
VERTEX
8
OBJECT__17
10
0
20
0
30
0
70
128
71
21
72
23
73
22
0
VERTEX
8
OBJECT__17
10
0
20
0
30
0
70
128
71
25
72
5
73
26
0
VERTEX
8
OBJECT__17
10
0
20
0
30
0
70
128
71
26
72
27
73
25
0
VERTEX
8
OBJECT__17
10
0
20
0
30
0
70
128
71
26
72
20
73
27
0
VERTEX
8
OBJECT__17
10
0
20
0
30
0
70
128
71
24
72
23
73
28
0
VERTEX
8
OBJECT__17
10
0
20
0
30
0
70
128
71
28
72
29
73
24
0
VERTEX
8
OBJECT__17
10
0
20
0
30
0
70
128
71
16
72
14
73
29
0
VERTEX
8
OBJECT__17
10
0
20
0
30
0
70
128
71
30
72
31
73
32
0
VERTEX
8
OBJECT__17
10
0
20
0
30
0
70
128
71
33
72
34
73
30
0
VERTEX
8
OBJECT__17
10
0
20
0
30
0
70
128
71
31
72
35
73
32
0
VERTEX
8
OBJECT__17
10
0
20
0
30
0
70
128
71
36
72
34
73
37
0
VERTEX
8
OBJECT__17
10
0
20
0
30
0
70
128
71
18
72
17
73
36
0
VERTEX
8
OBJECT__17
10
0
20
0
30
0
70
128
71
34
72
33
73
37
0
VERTEX
8
OBJECT__17
10
0
20
0
30
0
70
128
71
38
72
39
73
40
0
VERTEX
8
OBJECT__17
10
0
20
0
30
0
70
128
71
35
72
31
73
38
0
VERTEX
8
OBJECT__17
10
0
20
0
30
0
70
128
71
39
72
41
73
42
0
VERTEX
8
OBJECT__17
10
0
20
0
30
0
70
128
71
42
72
40
73
39
0
VERTEX
8
OBJECT__17
10
0
20
0
30
0
70
128
71
39
72
43
73
41
0
VERTEX
8
OBJECT__17
10
0
20
0
30
0
70
128
71
42
72
44
73
40
0
VERTEX
8
OBJECT__17
10
0
20
0
30
0
70
128
71
45
72
46
73
47
0
VERTEX
8
OBJECT__17
10
0
20
0
30
0
70
128
71
48
72
49
73
50
0
VERTEX
8
OBJECT__17
10
0
20
0
30
0
70
128
71
50
72
47
73
48
0
VERTEX
8
OBJECT__17
10
0
20
0
30
0
70
128
71
51
72
52
73
53
0
VERTEX
8
OBJECT__17
10
0
20
0
30
0
70
128
71
54
72
55
73
56
0
VERTEX
8
OBJECT__17
10
0
20
0
30
0
70
128
71
56
72
53
73
54
0
VERTEX
8
OBJECT__17
10
0
20
0
30
0
70
128
71
12
72
11
73
57
0
VERTEX
8
OBJECT__17
10
0
20
0
30
0
70
128
71
52
72
51
73
58
0
VERTEX
8
OBJECT__17
10
0
20
0
30
0
70
128
71
58
72
57
73
52
0
VERTEX
8
OBJECT__17
10
0
20
0
30
0
70
128
71
55
72
54
73
59
0
VERTEX
8
OBJECT__17
10
0
20
0
30
0
70
128
71
46
72
45
73
60
0
VERTEX
8
OBJECT__17
10
0
20
0
30
0
70
128
71
60
72
59
73
46
0
VERTEX
8
OBJECT__17
10
0
20
0
30
0
70
128
71
61
72
62
73
63
0
VERTEX
8
OBJECT__17
10
0
20
0
30
0
70
128
71
64
72
65
73
66
0
VERTEX
8
OBJECT__17
10
0
20
0
30
0
70
128
71
66
72
63
73
64
0
VERTEX
8
OBJECT__17
10
0
20
0
30
0
70
128
71
49
72
48
73
67
0
VERTEX
8
OBJECT__17
10
0
20
0
30
0
70
128
71
62
72
61
73
68
0
VERTEX
8
OBJECT__17
10
0
20
0
30
0
70
128
71
68
72
67
73
62
0
VERTEX
8
OBJECT__17
10
0
20
0
30
0
70
128
71
65
72
64
73
69
0
VERTEX
8
OBJECT__17
10
0
20
0
30
0
70
128
71
70
72
71
73
72
0
VERTEX
8
OBJECT__17
10
0
20
0
30
0
70
128
71
72
72
69
73
70
0
VERTEX
8
OBJECT__17
10
0
20
0
30
0
70
128
71
70
72
4
73
71
0
VERTEX
8
OBJECT__17
10
0
20
0
30
0
70
128
71
69
72
72
73
65
0
VERTEX
8
OBJECT__17
10
0
20
0
30
0
70
128
71
67
72
68
73
49
0
VERTEX
8
OBJECT__17
10
0
20
0
30
0
70
128
71
63
72
66
73
61
0
VERTEX
8
OBJECT__17
10
0
20
0
30
0
70
128
71
59
72
60
73
55
0
VERTEX
8
OBJECT__17
10
0
20
0
30
0
70
128
71
57
72
58
73
12
0
VERTEX
8
OBJECT__17
10
0
20
0
30
0
70
128
71
53
72
56
73
51
0
VERTEX
8
OBJECT__17
10
0
20
0
30
0
70
128
71
47
72
50
73
45
0
VERTEX
8
OBJECT__17
10
0
20
0
30
0
70
128
71
40
72
35
73
38
0
VERTEX
8
OBJECT__17
10
0
20
0
30
0
70
128
71
37
72
18
73
36
0
VERTEX
8
OBJECT__17
10
0
20
0
30
0
70
128
71
32
72
33
73
30
0
VERTEX
8
OBJECT__17
10
0
20
0
30
0
70
128
71
28
72
16
73
29
0
VERTEX
8
OBJECT__17
10
0
20
0
30
0
70
128
71
25
72
2
73
5
0
VERTEX
8
OBJECT__17
10
0
20
0
30
0
70
128
71
19
72
27
73
20
0
VERTEX
8
OBJECT__17
10
0
20
0
30
0
70
128
71
15
72
17
73
13
0
VERTEX
8
OBJECT__17
10
0
20
0
30
0
70
128
71
8
72
73
73
9
0
VERTEX
8
OBJECT__17
10
0
20
0
30
0
70
128
71
3
72
71
73
4
0
SEQEND
8
OBJECT__17
0
POLYLINE
8
OBJECT__18
66
1
70
64
71
12
72
10
62
253
0
VERTEX
8
OBJECT__18
10
201.404999
20
16.862000
30
8.462000
70
192
0
VERTEX
8
OBJECT__18
10
201.404999
20
17.138000
30
8.375000
70
192
0
VERTEX
8
OBJECT__18
10
143.778000
20
17.129000
30
8.358000
70
192
0
VERTEX
8
OBJECT__18
10
201.404999
20
17.622000
30
8.223000
70
192
0
VERTEX
8
OBJECT__18
10
143.778000
20
17.601000
30
8.173000
70
192
0
VERTEX
8
OBJECT__18
10
143.778000
20
18.298000
30
7.902000
70
192
0
VERTEX
8
OBJECT__18
10
201.404999
20
17.886999
30
8.139000
70
192
0
VERTEX
8
OBJECT__18
10
201.404999
20
19.584999
30
7.111000
70
192
0
VERTEX
8
OBJECT__18
10
143.778000
20
19.584999
30
7.111000
70
192
0
VERTEX
8
OBJECT__18
10
143.778000
20
18.646999
30
7.765000
70
192
0
VERTEX
8
OBJECT__18
10
201.404999
20
18.285999
30
7.898000
70
192
0
VERTEX
8
OBJECT__18
10
143.778000
20
16.862000
30
8.462000
70
192
0
VERTEX
8
OBJECT__18
10
0
20
0
30
0
70
128
71
1
72
2
73
3
0
VERTEX
8
OBJECT__18
10
0
20
0
30
0
70
128
71
2
72
4
73
5
0
VERTEX
8
OBJECT__18
10
0
20
0
30
0
70
128
71
6
72
5
73
7
0
VERTEX
8
OBJECT__18
10
0
20
0
30
0
70
128
71
5
72
4
73
7
0
VERTEX
8
OBJECT__18
10
0
20
0
30
0
70
128
71
8
72
9
73
10
0
VERTEX
8
OBJECT__18
10
0
20
0
30
0
70
128
71
10
72
11
73
8
0
VERTEX
8
OBJECT__18
10
0
20
0
30
0
70
128
71
10
72
6
73
11
0
VERTEX
8
OBJECT__18
10
0
20
0
30
0
70
128
71
7
72
11
73
6
0
VERTEX
8
OBJECT__18
10
0
20
0
30
0
70
128
71
5
72
3
73
2
0
VERTEX
8
OBJECT__18
10
0
20
0
30
0
70
128
71
3
72
12
73
1
0
SEQEND
8
OBJECT__18
0
POLYLINE
8
OBJECT__19
66
1
70
64
71
10
72
8
62
253
0
VERTEX
8
OBJECT__19
10
143.778000
20
-18.957001
30
7.576000
70
192
0
VERTEX
8
OBJECT__19
10
201.404999
20
-18.957001
30
7.576000
70
192
0
VERTEX
8
OBJECT__19
10
201.404999
20
-18.306000
30
7.948000
70
192
0
VERTEX
8
OBJECT__19
10
143.778000
20
-19.365000
30
7.288000
70
192
0
VERTEX
8
OBJECT__19
10
201.404999
20
-19.365000
30
7.288000
70
192
0
VERTEX
8
OBJECT__19
10
143.778000
20
-16.862000
30
8.462000
70
192
0
VERTEX
8
OBJECT__19
10
143.778000
20
-18.306000
30
7.948000
70
192
0
VERTEX
8
OBJECT__19
10
201.404999
20
-19.584999
30
7.111000
70
192
0
VERTEX
8
OBJECT__19
10
143.778000
20
-19.584999
30
7.111000
70
192
0
VERTEX
8
OBJECT__19
10
201.404999
20
-16.862000
30
8.462000
70
192
0
VERTEX
8
OBJECT__19
10
0
20
0
30
0
70
128
71
1
72
2
73
3
0
VERTEX
8
OBJECT__19
10
0
20
0
30
0
70
128
71
4
72
5
73
2
0
VERTEX
8
OBJECT__19
10
0
20
0
30
0
70
128
71
6
72
7
73
3
0
VERTEX
8
OBJECT__19
10
0
20
0
30
0
70
128
71
8
72
5
73
4
0
VERTEX
8
OBJECT__19
10
0
20
0
30
0
70
128
71
4
72
9
73
8
0
VERTEX
8
OBJECT__19
10
0
20
0
30
0
70
128
71
3
72
10
73
6
0
VERTEX
8
OBJECT__19
10
0
20
0
30
0
70
128
71
2
72
1
73
4
0
VERTEX
8
OBJECT__19
10
0
20
0
30
0
70
128
71
3
72
7
73
1
0
SEQEND
8
OBJECT__19
0
POLYLINE
8
OBJECT__20
66
1
70
64
71
66
72
64
62
253
0
VERTEX
8
OBJECT__20
10
220.975998
20
0.755000
30
7.111000
70
192
0
VERTEX
8
OBJECT__20
10
220.580994
20
3.817000
30
7.111000
70
192
0
VERTEX
8
OBJECT__20
10
218.039993
20
2.754000
30
8.462000
70
192
0
VERTEX
8
OBJECT__20
10
218.227997
20
-0.003000
30
8.462000
70
192
0
VERTEX
8
OBJECT__20
10
220.936996
20
0.003000
30
7.111000
70
192
0
VERTEX
8
OBJECT__20
10
220.529999
20
4.218000
30
7.111000
70
192
0
VERTEX
8
OBJECT__20
10
219.494003
20
7.493000
30
7.111000
70
192
0
VERTEX
8
OBJECT__20
10
217.203995
20
5.893000
30
8.462000
70
192
0
VERTEX
8
OBJECT__20
10
216.940994
20
6.432000
30
8.462000
70
192
0
VERTEX
8
OBJECT__20
10
215.223999
20
13.815000
30
7.111000
70
192
0
VERTEX
8
OBJECT__20
10
213.067993
20
15.733000
30
7.111000
70
192
0
VERTEX
8
OBJECT__20
10
211.414001
20
13.570000
30
8.462000
70
192
0
VERTEX
8
OBJECT__20
10
208.626007
20
15.238000
30
8.462000
70
192
0
VERTEX
8
OBJECT__20
10
212.253006
20
16.231001
30
7.111000
70
192
0
VERTEX
8
OBJECT__20
10
210.087997
20
17.555000
30
7.111000
70
192
0
VERTEX
8
OBJECT__20
10
208.873001
20
18.025000
30
7.111000
70
192
0
VERTEX
8
OBJECT__20
10
207.837997
20
15.522000
30
8.462000
70
192
0
VERTEX
8
OBJECT__20
10
219.473007
20
7.558000
30
7.111000
70
192
0
VERTEX
8
OBJECT__20
10
217.839996
20
10.650000
30
7.111000
70
192
0
VERTEX
8
OBJECT__20
10
215.783005
20
8.809000
30
8.462000
70
192
0
VERTEX
8
OBJECT__20
10
217.671005
20
10.866000
30
7.111000
70
192
0
VERTEX
8
OBJECT__20
10
215.684006
20
13.405000
30
7.111000
70
192
0
VERTEX
8
OBJECT__20
10
213.828003
20
11.403000
30
8.462000
70
192
0
VERTEX
8
OBJECT__20
10
213.292007
20
11.883000
30
8.462000
70
192
0
VERTEX
8
OBJECT__20
10
206.819000
20
18.820999
30
7.111000
70
192
0
VERTEX
8
OBJECT__20
10
202.365005
20
16.834999
30
8.462000
70
192
0
VERTEX
8
OBJECT__20
10
205.574997
20
16.337999
30
8.462000
70
192
0
VERTEX
8
OBJECT__20
10
205.210999
20
19.132000
30
7.111000
70
192
0
VERTEX
8
OBJECT__20
10
201.404999
20
17.622000
30
8.223000
70
192
0
VERTEX
8
OBJECT__20
10
201.404999
20
17.138000
30
8.375000
70
192
0
VERTEX
8
OBJECT__20
10
203.393005
20
19.483000
30
7.111000
70
192
0
VERTEX
8
OBJECT__20
10
201.404999
20
17.886999
30
8.139000
70
192
0
VERTEX
8
OBJECT__20
10
201.404999
20
18.285999
30
7.898000
70
192
0
VERTEX
8
OBJECT__20
10
201.404999
20
19.584999
30
7.111000
70
192
0
VERTEX
8
OBJECT__20
10
201.404999
20
16.862000
30
8.462000
70
192
0
VERTEX
8
OBJECT__20
10
213.311996
20
-11.909000
30
8.462000
70
192
0
VERTEX
8
OBJECT__20
10
215.199997
20
-13.796000
30
7.111000
70
192
0
VERTEX
8
OBJECT__20
10
216.671997
20
-12.267000
30
7.111000
70
192
0
VERTEX
8
OBJECT__20
10
215.253006
20
-9.619000
30
8.462000
70
192
0
VERTEX
8
OBJECT__20
10
217.623993
20
-10.837000
30
7.111000
70
192
0
VERTEX
8
OBJECT__20
10
218.606995
20
-9.362000
30
7.111000
70
192
0
VERTEX
8
OBJECT__20
10
216.841003
20
-6.787000
30
8.462000
70
192
0
VERTEX
8
OBJECT__20
10
219.429001
20
-7.464000
30
7.111000
70
192
0
VERTEX
8
OBJECT__20
10
216.953995
20
-6.443000
30
8.462000
70
192
0
VERTEX
8
OBJECT__20
10
207.852997
20
-15.568000
30
8.462000
70
192
0
VERTEX
8
OBJECT__20
10
208.878006
20
-18.049000
30
7.111000
70
192
0
VERTEX
8
OBJECT__20
10
211.408997
20
-16.836000
30
7.111000
70
192
0
VERTEX
8
OBJECT__20
10
210.619003
20
-14.121000
30
8.462000
70
192
0
VERTEX
8
OBJECT__20
10
212.248001
20
-16.231001
30
7.111000
70
192
0
VERTEX
8
OBJECT__20
10
214.240997
20
-14.792000
30
7.111000
70
192
0
VERTEX
8
OBJECT__20
10
213.154999
20
-12.095000
30
8.462000
70
192
0
VERTEX
8
OBJECT__20
10
217.854996
20
-3.705000
30
8.462000
70
192
0
VERTEX
8
OBJECT__20
10
220.001007
20
-6.144000
30
7.111000
70
192
0
VERTEX
8
OBJECT__20
10
218.261002
20
-0.483000
30
8.462000
70
192
0
VERTEX
8
OBJECT__20
10
220.796005
20
-2.747000
30
7.111000
70
192
0
VERTEX
8
OBJECT__20
10
220.548004
20
-3.805000
30
7.111000
70
192
0
VERTEX
8
OBJECT__20
10
201.404999
20
-19.365000
30
7.288000
70
192
0
VERTEX
8
OBJECT__20
10
201.404999
20
-19.584999
30
7.111000
70
192
0
VERTEX
8
OBJECT__20
10
204.876999
20
-19.274000
30
7.111000
70
192
0
VERTEX
8
OBJECT__20
10
204.630997
20
-16.549999
30
8.462000
70
192
0
VERTEX
8
OBJECT__20
10
201.404999
20
-16.862000
30
8.462000
70
192
0
VERTEX
8
OBJECT__20
10
201.404999
20
-18.306000
30
7.948000
70
192
0
VERTEX
8
OBJECT__20
10
205.218002
20
-19.180000
30
7.111000
70
192
0
VERTEX
8
OBJECT__20
10
201.404999
20
-18.957001
30
7.576000
70
192
0
VERTEX
8
OBJECT__20
10
208.250000
20
-18.350000
30
7.111000
70
192
0
VERTEX
8
OBJECT__20
10
207.742996
20
-15.626000
30
8.462000
70
192
0
VERTEX
8
OBJECT__20
10
0
20
0
30
0
70
128
71
1
72
2
73
3
0
VERTEX
8
OBJECT__20
10
0
20
0
30
0
70
128
71
4
72
5
73
1
0
VERTEX
8
OBJECT__20
10
0
20
0
30
0
70
128
71
6
72
7
73
8
0
VERTEX
8
OBJECT__20
10
0
20
0
30
0
70
128
71
3
72
2
73
6
0
VERTEX
8
OBJECT__20
10
0
20
0
30
0
70
128
71
8
72
3
73
6
0
VERTEX
8
OBJECT__20
10
0
20
0
30
0
70
128
71
7
72
9
73
8
0
VERTEX
8
OBJECT__20
10
0
20
0
30
0
70
128
71
10
72
11
73
12
0
VERTEX
8
OBJECT__20
10
0
20
0
30
0
70
128
71
13
72
12
73
14
0
VERTEX
8
OBJECT__20
10
0
20
0
30
0
70
128
71
12
72
11
73
14
0
VERTEX
8
OBJECT__20
10
0
20
0
30
0
70
128
71
14
72
15
73
13
0
VERTEX
8
OBJECT__20
10
0
20
0
30
0
70
128
71
16
72
17
73
13
0
VERTEX
8
OBJECT__20
10
0
20
0
30
0
70
128
71
13
72
15
73
16
0
VERTEX
8
OBJECT__20
10
0
20
0
30
0
70
128
71
18
72
19
73
20
0
VERTEX
8
OBJECT__20
10
0
20
0
30
0
70
128
71
9
72
7
73
18
0
VERTEX
8
OBJECT__20
10
0
20
0
30
0
70
128
71
21
72
22
73
23
0
VERTEX
8
OBJECT__20
10
0
20
0
30
0
70
128
71
20
72
19
73
21
0
VERTEX
8
OBJECT__20
10
0
20
0
30
0
70
128
71
23
72
20
73
21
0
VERTEX
8
OBJECT__20
10
0
20
0
30
0
70
128
71
23
72
22
73
10
0
VERTEX
8
OBJECT__20
10
0
20
0
30
0
70
128
71
10
72
24
73
23
0
VERTEX
8
OBJECT__20
10
0
20
0
30
0
70
128
71
17
72
16
73
25
0
VERTEX
8
OBJECT__20
10
0
20
0
30
0
70
128
71
26
72
27
73
28
0
VERTEX
8
OBJECT__20
10
0
20
0
30
0
70
128
71
27
72
25
73
28
0
VERTEX
8
OBJECT__20
10
0
20
0
30
0
70
128
71
26
72
29
73
30
0
VERTEX
8
OBJECT__20
10
0
20
0
30
0
70
128
71
26
72
31
73
32
0
VERTEX
8
OBJECT__20
10
0
20
0
30
0
70
128
71
31
72
33
73
32
0
VERTEX
8
OBJECT__20
10
0
20
0
30
0
70
128
71
32
72
29
73
26
0
VERTEX
8
OBJECT__20
10
0
20
0
30
0
70
128
71
31
72
34
73
33
0
VERTEX
8
OBJECT__20
10
0
20
0
30
0
70
128
71
30
72
35
73
26
0
VERTEX
8
OBJECT__20
10
0
20
0
30
0
70
128
71
28
72
31
73
26
0
VERTEX
8
OBJECT__20
10
0
20
0
30
0
70
128
71
36
72
37
73
38
0
VERTEX
8
OBJECT__20
10
0
20
0
30
0
70
128
71
38
72
39
73
36
0
VERTEX
8
OBJECT__20
10
0
20
0
30
0
70
128
71
39
72
40
73
41
0
VERTEX
8
OBJECT__20
10
0
20
0
30
0
70
128
71
41
72
42
73
39
0
VERTEX
8
OBJECT__20
10
0
20
0
30
0
70
128
71
41
72
43
73
42
0
VERTEX
8
OBJECT__20
10
0
20
0
30
0
70
128
71
43
72
44
73
42
0
VERTEX
8
OBJECT__20
10
0
20
0
30
0
70
128
71
45
72
46
73
47
0
VERTEX
8
OBJECT__20
10
0
20
0
30
0
70
128
71
47
72
48
73
45
0
VERTEX
8
OBJECT__20
10
0
20
0
30
0
70
128
71
48
72
49
73
50
0
VERTEX
8
OBJECT__20
10
0
20
0
30
0
70
128
71
50
72
51
73
48
0
VERTEX
8
OBJECT__20
10
0
20
0
30
0
70
128
71
50
72
37
73
51
0
VERTEX
8
OBJECT__20
10
0
20
0
30
0
70
128
71
37
72
36
73
51
0
VERTEX
8
OBJECT__20
10
0
20
0
30
0
70
128
71
52
72
44
73
53
0
VERTEX
8
OBJECT__20
10
0
20
0
30
0
70
128
71
44
72
43
73
53
0
VERTEX
8
OBJECT__20
10
0
20
0
30
0
70
128
71
54
72
52
73
55
0
VERTEX
8
OBJECT__20
10
0
20
0
30
0
70
128
71
52
72
56
73
55
0
VERTEX
8
OBJECT__20
10
0
20
0
30
0
70
128
71
55
72
5
73
54
0
VERTEX
8
OBJECT__20
10
0
20
0
30
0
70
128
71
5
72
4
73
54
0
VERTEX
8
OBJECT__20
10
0
20
0
30
0
70
128
71
57
72
58
73
59
0
VERTEX
8
OBJECT__20
10
0
20
0
30
0
70
128
71
60
72
61
73
62
0
VERTEX
8
OBJECT__20
10
0
20
0
30
0
70
128
71
62
72
63
73
60
0
VERTEX
8
OBJECT__20
10
0
20
0
30
0
70
128
71
62
72
64
73
63
0
VERTEX
8
OBJECT__20
10
0
20
0
30
0
70
128
71
64
72
57
73
63
0
VERTEX
8
OBJECT__20
10
0
20
0
30
0
70
128
71
60
72
63
73
65
0
VERTEX
8
OBJECT__20
10
0
20
0
30
0
70
128
71
65
72
66
73
60
0
VERTEX
8
OBJECT__20
10
0
20
0
30
0
70
128
71
65
72
46
73
66
0
VERTEX
8
OBJECT__20
10
0
20
0
30
0
70
128
71
46
72
45
73
66
0
VERTEX
8
OBJECT__20
10
0
20
0
30
0
70
128
71
59
72
63
73
57
0
VERTEX
8
OBJECT__20
10
0
20
0
30
0
70
128
71
53
72
56
73
52
0
VERTEX
8
OBJECT__20
10
0
20
0
30
0
70
128
71
47
72
49
73
48
0
VERTEX
8
OBJECT__20
10
0
20
0
30
0
70
128
71
38
72
40
73
39
0
VERTEX
8
OBJECT__20
10
0
20
0
30
0
70
128
71
25
72
27
73
17
0
VERTEX
8
OBJECT__20
10
0
20
0
30
0
70
128
71
20
72
9
73
18
0
VERTEX
8
OBJECT__20
10
0
20
0
30
0
70
128
71
12
72
24
73
10
0
VERTEX
8
OBJECT__20
10
0
20
0
30
0
70
128
71
3
72
4
73
1
0
SEQEND
8
OBJECT__20
0
POLYLINE
8
OBJECT__21
66
1
70
64
71
27
72
25
62
253
0
VERTEX
8
OBJECT__21
10
216.940994
20
6.432000
30
8.462000
70
192
0
VERTEX
8
OBJECT__21
10
207.837997
20
15.522000
30
8.462000
70
192
0
VERTEX
8
OBJECT__21
10
205.574997
20
16.337999
30
8.462000
70
192
0
VERTEX
8
OBJECT__21
10
211.414001
20
13.570000
30
8.462000
70
192
0
VERTEX
8
OBJECT__21
10
208.626007
20
15.238000
30
8.462000
70
192
0
VERTEX
8
OBJECT__21
10
143.778000
20
16.862000
30
8.462000
70
192
0
VERTEX
8
OBJECT__21
10
217.854996
20
-3.705000
30
8.462000
70
192
0
VERTEX
8
OBJECT__21
10
218.261002
20
-0.483000
30
8.462000
70
192
0
VERTEX
8
OBJECT__21
10
215.253006
20
-9.619000
30
8.462000
70
192
0
VERTEX
8
OBJECT__21
10
216.841003
20
-6.787000
30
8.462000
70
192
0
VERTEX
8
OBJECT__21
10
202.365005
20
16.834999
30
8.462000
70
192
0
VERTEX
8
OBJECT__21
10
213.292007
20
11.883000
30
8.462000
70
192
0
VERTEX
8
OBJECT__21
10
215.783005
20
8.809000
30
8.462000
70
192
0
VERTEX
8
OBJECT__21
10
218.039993
20
2.754000
30
8.462000
70
192
0
VERTEX
8
OBJECT__21
10
217.203995
20
5.893000
30
8.462000
70
192
0
VERTEX
8
OBJECT__21
10
216.953995
20
-6.443000
30
8.462000
70
192
0
VERTEX
8
OBJECT__21
10
213.311996
20
-11.909000
30
8.462000
70
192
0
VERTEX
8
OBJECT__21
10
204.630997
20
-16.549999
30
8.462000
70
192
0
VERTEX
8
OBJECT__21
10
207.742996
20
-15.626000
30
8.462000
70
192
0
VERTEX
8
OBJECT__21
10
201.404999
20
16.862000
30
8.462000
70
192
0
VERTEX
8
OBJECT__21
10
213.828003
20
11.403000
30
8.462000
70
192
0
VERTEX
8
OBJECT__21
10
218.227997
20
-0.003000
30
8.462000
70
192
0
VERTEX
8
OBJECT__21
10
210.619003
20
-14.121000
30
8.462000
70
192
0
VERTEX
8
OBJECT__21
10
213.154999
20
-12.095000
30
8.462000
70
192
0
VERTEX
8
OBJECT__21
10
201.404999
20
-16.862000
30
8.462000
70
192
0
VERTEX
8
OBJECT__21
10
207.852997
20
-15.568000
30
8.462000
70
192
0
VERTEX
8
OBJECT__21
10
143.778000
20
-16.862000
30
8.462000
70
192
0
VERTEX
8
OBJECT__21
10
0
20
0
30
0
70
128
71
1
72
2
73
3
0
VERTEX
8
OBJECT__21
10
0
20
0
30
0
70
128
71
1
72
4
73
5
0
VERTEX
8
OBJECT__21
10
0
20
0
30
0
70
128
71
6
72
7
73
8
0
VERTEX
8
OBJECT__21
10
0
20
0
30
0
70
128
71
6
72
9
73
10
0
VERTEX
8
OBJECT__21
10
0
20
0
30
0
70
128
71
3
72
11
73
1
0
VERTEX
8
OBJECT__21
10
0
20
0
30
0
70
128
71
1
72
12
73
4
0
VERTEX
8
OBJECT__21
10
0
20
0
30
0
70
128
71
12
72
1
73
13
0
VERTEX
8
OBJECT__21
10
0
20
0
30
0
70
128
71
6
72
14
73
15
0
VERTEX
8
OBJECT__21
10
0
20
0
30
0
70
128
71
6
72
16
73
7
0
VERTEX
8
OBJECT__21
10
0
20
0
30
0
70
128
71
6
72
17
73
9
0
VERTEX
8
OBJECT__21
10
0
20
0
30
0
70
128
71
6
72
18
73
19
0
VERTEX
8
OBJECT__21
10
0
20
0
30
0
70
128
71
11
72
20
73
1
0
VERTEX
8
OBJECT__21
10
0
20
0
30
0
70
128
71
13
72
21
73
12
0
VERTEX
8
OBJECT__21
10
0
20
0
30
0
70
128
71
6
72
22
73
14
0
VERTEX
8
OBJECT__21
10
0
20
0
30
0
70
128
71
10
72
16
73
6
0
VERTEX
8
OBJECT__21
10
0
20
0
30
0
70
128
71
6
72
23
73
24
0
VERTEX
8
OBJECT__21
10
0
20
0
30
0
70
128
71
6
72
25
73
18
0
VERTEX
8
OBJECT__21
10
0
20
0
30
0
70
128
71
5
72
2
73
1
0
VERTEX
8
OBJECT__21
10
0
20
0
30
0
70
128
71
8
72
22
73
6
0
VERTEX
8
OBJECT__21
10
0
20
0
30
0
70
128
71
6
72
26
73
23
0
VERTEX
8
OBJECT__21
10
0
20
0
30
0
70
128
71
6
72
27
73
25
0
VERTEX
8
OBJECT__21
10
0
20
0
30
0
70
128
71
15
72
1
73
6
0
VERTEX
8
OBJECT__21
10
0
20
0
30
0
70
128
71
19
72
26
73
6
0
VERTEX
8
OBJECT__21
10
0
20
0
30
0
70
128
71
24
72
17
73
6
0
VERTEX
8
OBJECT__21
10
0
20
0
30
0
70
128
71
20
72
6
73
1
0
SEQEND
8
OBJECT__21
0
POLYLINE
8
OBJECT__22
66
1
70
64
71
55
72
54
62
253
0
VERTEX
8
OBJECT__22
10
59.185001
20
8.958000
30
17.688000
70
192
0
VERTEX
8
OBJECT__22
10
56.933998
20
-5.785000
30
19.121000
70
192
0
VERTEX
8
OBJECT__22
10
57.612000
20
-7.061000
30
18.669001
70
192
0
VERTEX
8
OBJECT__22
10
55.908001
20
-3.005000
30
19.819000
70
192
0
VERTEX
8
OBJECT__22
10
56.534000
20
-5.034000
30
19.386999
70
192
0
VERTEX
8
OBJECT__22
10
58.508999
20
-8.185000
30
18.104000
70
192
0
VERTEX
8
OBJECT__22
10
57.562000
20
5.982000
30
18.702000
70
192
0
VERTEX
8
OBJECT__22
10
55.512001
20
0.000000
30
20.094999
70
192
0
VERTEX
8
OBJECT__22
10
55.765999
20
-2.545000
30
19.917000
70
192
0
VERTEX
8
OBJECT__22
10
55.909000
20
3.012000
30
19.816999
70
192
0
VERTEX
8
OBJECT__22
10
55.544998
20
0.921000
30
20.070999
70
192
0
VERTEX
8
OBJECT__22
10
58.465000
20
8.230000
30
18.122999
70
192
0
VERTEX
8
OBJECT__22
10
56.895000
20
5.813000
30
19.143000
70
192
0
VERTEX
8
OBJECT__22
10
55.990002
20
3.481000
30
19.761000
70
192
0
VERTEX
8
OBJECT__22
10
69.222000
20
14.440000
30
12.895000
70
192
0
VERTEX
8
OBJECT__22
10
65.262001
20
-13.066000
30
14.479000
70
192
0
VERTEX
8
OBJECT__22
10
67.544998
20
-13.984000
30
13.486000
70
192
0
VERTEX
8
OBJECT__22
10
60.488998
20
-10.175000
30
16.919001
70
192
0
VERTEX
8
OBJECT__22
10
61.550999
20
-11.079000
30
16.304001
70
192
0
VERTEX
8
OBJECT__22
10
64.250000
20
-12.659000
30
14.920000
70
192
0
VERTEX
8
OBJECT__22
10
60.445000
20
10.231000
30
16.927000
70
192
0
VERTEX
8
OBJECT__22
10
59.183998
20
-9.032000
30
17.677999
70
192
0
VERTEX
8
OBJECT__22
10
59.264000
20
-9.132000
30
17.628000
70
192
0
VERTEX
8
OBJECT__22
10
63.223000
20
12.125000
30
15.424000
70
192
0
VERTEX
8
OBJECT__22
10
65.267998
20
13.059000
30
14.478000
70
192
0
VERTEX
8
OBJECT__22
10
66.455002
20
13.601000
30
13.930000
70
192
0
VERTEX
8
OBJECT__22
10
70.713997
20
14.848000
30
12.375000
70
192
0
VERTEX
8
OBJECT__22
10
70.726997
20
-14.826000
30
12.388000
70
192
0
VERTEX
8
OBJECT__22
10
71.707001
20
-15.086000
30
12.050000
70
192
0
VERTEX
8
OBJECT__22
10
70.300003
20
14.767000
30
12.492000
70
192
0
VERTEX
8
OBJECT__22
10
69.224998
20
-14.429000
30
12.906000
70
192
0
VERTEX
8
OBJECT__22
10
74.750000
20
15.633000
30
11.234000
70
192
0
VERTEX
8
OBJECT__22
10
76.336998
20
-15.857000
30
10.877000
70
192
0
VERTEX
8
OBJECT__22
10
76.549004
20
-15.878000
30
10.841000
70
192
0
VERTEX
8
OBJECT__22
10
76.560997
20
15.847000
30
10.879000
70
192
0
VERTEX
8
OBJECT__22
10
80.119003
20
-16.219000
30
10.244000
70
192
0
VERTEX
8
OBJECT__22
10
80.110001
20
16.259001
30
10.190000
70
192
0
VERTEX
8
OBJECT__22
10
79.985001
20
16.250999
30
10.206000
70
192
0
VERTEX
8
OBJECT__22
10
82.571999
20
16.416000
30
9.889000
70
192
0
VERTEX
8
OBJECT__22
10
82.473999
20
-16.444000
30
9.850000
70
192
0
VERTEX
8
OBJECT__22
10
90.203003
20
-16.795000
30
9.122000
70
192
0
VERTEX
8
OBJECT__22
10
86.431000
20
16.662001
30
9.417000
70
192
0
VERTEX
8
OBJECT__22
10
94.767998
20
16.886000
30
8.879000
70
192
0
VERTEX
8
OBJECT__22
10
82.564003
20
-16.448999
30
9.841000
70
192
0
VERTEX
8
OBJECT__22
10
94.769997
20
-16.853001
30
8.936000
70
192
0
VERTEX
8
OBJECT__22
10
95.734001
20
-16.865999
30
8.897000
70
192
0
VERTEX
8
OBJECT__22
10
95.732002
20
16.893000
30
8.850000
70
192
0
VERTEX
8
OBJECT__22
10
94.899002
20
16.889999
30
8.871000
70
192
0
VERTEX
8
OBJECT__22
10
143.778000
20
16.862000
30
8.462000
70
192
0
VERTEX
8
OBJECT__22
10
119.271004
20
16.916000
30
8.528000
70
192
0
VERTEX
8
OBJECT__22
10
122.586998
20
-16.893999
30
8.471000
70
192
0
VERTEX
8
OBJECT__22
10
101.560997
20
-16.940001
30
8.659000
70
192
0
VERTEX
8
OBJECT__22
10
119.271004
20
-16.900999
30
8.500000
70
192
0
VERTEX
8
OBJECT__22
10
107.268997
20
16.941999
30
8.561000
70
192
0
VERTEX
8
OBJECT__22
10
143.778000
20
-16.862000
30
8.462000
70
192
0
VERTEX
8
OBJECT__22
10
0
20
0
30
0
70
128
71
1
72
2
73
3
0
VERTEX
8
OBJECT__22
10
0
20
0
30
0
70
128
71
1
72
4
73
5
0
VERTEX
8
OBJECT__22
10
0
20
0
30
0
70
128
71
5
72
2
73
1
0
VERTEX
8
OBJECT__22
10
0
20
0
30
0
70
128
71
3
72
6
73
1
0
VERTEX
8
OBJECT__22
10
0
20
0
30
0
70
128
71
7
72
8
73
9
0
VERTEX
8
OBJECT__22
10
0
20
0
30
0
70
128
71
7
72
10
73
11
0
VERTEX
8
OBJECT__22
10
0
20
0
30
0
70
128
71
11
72
8
73
7
0
VERTEX
8
OBJECT__22
10
0
20
0
30
0
70
128
71
4
72
1
73
7
0
VERTEX
8
OBJECT__22
10
0
20
0
30
0
70
128
71
7
72
1
73
12
0
VERTEX
8
OBJECT__22
10
0
20
0
30
0
70
128
71
7
72
13
73
14
0
VERTEX
8
OBJECT__22
10
0
20
0
30
0
70
128
71
14
72
10
73
7
0
VERTEX
8
OBJECT__22
10
0
20
0
30
0
70
128
71
12
72
13
73
7
0
VERTEX
8
OBJECT__22
10
0
20
0
30
0
70
128
71
9
72
4
73
7
0
VERTEX
8
OBJECT__22
10
0
20
0
30
0
70
128
71
15
72
16
73
17
0
VERTEX
8
OBJECT__22
10
0
20
0
30
0
70
128
71
15
72
18
73
19
0
VERTEX
8
OBJECT__22
10
0
20
0
30
0
70
128
71
19
72
20
73
15
0
VERTEX
8
OBJECT__22
10
0
20
0
30
0
70
128
71
20
72
16
73
15
0
VERTEX
8
OBJECT__22
10
0
20
0
30
0
70
128
71
21
72
1
73
22
0
VERTEX
8
OBJECT__22
10
0
20
0
30
0
70
128
71
22
72
23
73
21
0
VERTEX
8
OBJECT__22
10
0
20
0
30
0
70
128
71
18
72
24
73
21
0
VERTEX
8
OBJECT__22
10
0
20
0
30
0
70
128
71
18
72
25
73
24
0
VERTEX
8
OBJECT__22
10
0
20
0
30
0
70
128
71
18
72
15
73
26
0
VERTEX
8
OBJECT__22
10
0
20
0
30
0
70
128
71
26
72
25
73
18
0
VERTEX
8
OBJECT__22
10
0
20
0
30
0
70
128
71
23
72
18
73
21
0
VERTEX
8
OBJECT__22
10
0
20
0
30
0
70
128
71
27
72
28
73
29
0
VERTEX
8
OBJECT__22
10
0
20
0
30
0
70
128
71
28
72
30
73
15
0
VERTEX
8
OBJECT__22
10
0
20
0
30
0
70
128
71
28
72
27
73
30
0
VERTEX
8
OBJECT__22
10
0
20
0
30
0
70
128
71
15
72
31
73
28
0
VERTEX
8
OBJECT__22
10
0
20
0
30
0
70
128
71
32
72
27
73
33
0
VERTEX
8
OBJECT__22
10
0
20
0
30
0
70
128
71
34
72
35
73
32
0
VERTEX
8
OBJECT__22
10
0
20
0
30
0
70
128
71
33
72
34
73
32
0
VERTEX
8
OBJECT__22
10
0
20
0
30
0
70
128
71
36
72
37
73
38
0
VERTEX
8
OBJECT__22
10
0
20
0
30
0
70
128
71
38
72
35
73
36
0
VERTEX
8
OBJECT__22
10
0
20
0
30
0
70
128
71
34
72
36
73
35
0
VERTEX
8
OBJECT__22
10
0
20
0
30
0
70
128
71
39
72
37
73
36
0
VERTEX
8
OBJECT__22
10
0
20
0
30
0
70
128
71
36
72
40
73
39
0
VERTEX
8
OBJECT__22
10
0
20
0
30
0
70
128
71
41
72
42
73
39
0
VERTEX
8
OBJECT__22
10
0
20
0
30
0
70
128
71
41
72
43
73
42
0
VERTEX
8
OBJECT__22
10
0
20
0
30
0
70
128
71
39
72
44
73
41
0
VERTEX
8
OBJECT__22
10
0
20
0
30
0
70
128
71
41
72
45
73
43
0
VERTEX
8
OBJECT__22
10
0
20
0
30
0
70
128
71
40
72
44
73
39
0
VERTEX
8
OBJECT__22
10
0
20
0
30
0
70
128
71
46
72
47
73
48
0
VERTEX
8
OBJECT__22
10
0
20
0
30
0
70
128
71
48
72
43
73
46
0
VERTEX
8
OBJECT__22
10
0
20
0
30
0
70
128
71
49
72
50
73
51
0
VERTEX
8
OBJECT__22
10
0
20
0
30
0
70
128
71
47
72
46
73
52
0
VERTEX
8
OBJECT__22
10
0
20
0
30
0
70
128
71
53
72
50
73
54
0
VERTEX
8
OBJECT__22
10
0
20
0
30
0
70
128
71
54
72
52
73
53
0
VERTEX
8
OBJECT__22
10
0
20
0
30
0
70
128
71
52
72
54
73
47
0
VERTEX
8
OBJECT__22
10
0
20
0
30
0
70
128
71
53
72
51
73
50
0
VERTEX
8
OBJECT__22
10
0
20
0
30
0
70
128
71
51
72
55
73
49
0
VERTEX
8
OBJECT__22
10
0
20
0
30
0
70
128
71
45
72
46
73
43
0
VERTEX
8
OBJECT__22
10
0
20
0
30
0
70
128
71
29
72
33
73
27
0
VERTEX
8
OBJECT__22
10
0
20
0
30
0
70
128
71
17
72
31
73
15
0
VERTEX
8
OBJECT__22
10
0
20
0
30
0
70
128
71
6
72
22
73
1
0
SEQEND
8
OBJECT__22
0
POLYLINE
8
OBJECT__23
66
1
70
64
71
24
72
24
62
253
0
VERTEX
8
OBJECT__23
10
207.723999
20
-10.219000
30
-13.073000
70
192
0
VERTEX
8
OBJECT__23
10
207.035995
20
-10.219000
30
-5.210000
70
192
0
VERTEX
8
OBJECT__23
10
201.158997
20
-11.800000
30
-5.724000
70
192
0
VERTEX
8
OBJECT__23
10
212.026993
20
-5.900000
30
-12.697000
70
192
0
VERTEX
8
OBJECT__23
10
211.339005
20
-5.900000
30
-4.833000
70
192
0
VERTEX
8
OBJECT__23
10
213.602005
20
0.000000
30
-12.559000
70
192
0
VERTEX
8
OBJECT__23
10
212.914001
20
0.000000
30
-4.695000
70
192
0
VERTEX
8
OBJECT__23
10
211.339005
20
5.900000
30
-4.833000
70
192
0
VERTEX
8
OBJECT__23
10
207.035995
20
10.219000
30
-5.210000
70
192
0
VERTEX
8
OBJECT__23
10
212.026993
20
5.900000
30
-12.697000
70
192
0
VERTEX
8
OBJECT__23
10
201.158997
20
11.800000
30
-5.724000
70
192
0
VERTEX
8
OBJECT__23
10
207.723999
20
10.219000
30
-13.073000
70
192
0
VERTEX
8
OBJECT__23
10
195.281006
20
10.219000
30
-6.238000
70
192
0
VERTEX
8
OBJECT__23
10
201.847000
20
11.800000
30
-13.588000
70
192
0
VERTEX
8
OBJECT__23
10
190.977997
20
5.900000
30
-6.614000
70
192
0
VERTEX
8
OBJECT__23
10
195.968994
20
10.219000
30
-14.102000
70
192
0
VERTEX
8
OBJECT__23
10
190.091003
20
0.000000
30
-14.616000
70
192
0
VERTEX
8
OBJECT__23
10
189.404007
20
0.000000
30
-6.752000
70
192
0
VERTEX
8
OBJECT__23
10
191.666000
20
-5.900000
30
-14.478000
70
192
0
VERTEX
8
OBJECT__23
10
190.977997
20
-5.900000
30
-6.614000
70
192
0
VERTEX
8
OBJECT__23
10
195.968994
20
-10.219000
30
-14.102000
70
192
0
VERTEX
8
OBJECT__23
10
195.281006
20
-10.219000
30
-6.238000
70
192
0
VERTEX
8
OBJECT__23
10
201.847000
20
-11.800000
30
-13.588000
70
192
0
VERTEX
8
OBJECT__23
10
191.666000
20
5.900000
30
-14.478000
70
192
0
VERTEX
8
OBJECT__23
10
0
20
0
30
0
70
128
71
1
72
2
73
3
0
VERTEX
8
OBJECT__23
10
0
20
0
30
0
70
128
71
4
72
5
73
2
0
VERTEX
8
OBJECT__23
10
0
20
0
30
0
70
128
71
6
72
7
73
5
0
VERTEX
8
OBJECT__23
10
0
20
0
30
0
70
128
71
8
72
7
73
6
0
VERTEX
8
OBJECT__23
10
0
20
0
30
0
70
128
71
9
72
8
73
10
0
VERTEX
8
OBJECT__23
10
0
20
0
30
0
70
128
71
11
72
9
73
12
0
VERTEX
8
OBJECT__23
10
0
20
0
30
0
70
128
71
13
72
11
73
14
0
VERTEX
8
OBJECT__23
10
0
20
0
30
0
70
128
71
15
72
13
73
16
0
VERTEX
8
OBJECT__23
10
0
20
0
30
0
70
128
71
17
72
18
73
15
0
VERTEX
8
OBJECT__23
10
0
20
0
30
0
70
128
71
19
72
20
73
18
0
VERTEX
8
OBJECT__23
10
0
20
0
30
0
70
128
71
21
72
22
73
20
0
VERTEX
8
OBJECT__23
10
0
20
0
30
0
70
128
71
23
72
3
73
22
0
VERTEX
8
OBJECT__23
10
0
20
0
30
0
70
128
71
22
72
21
73
23
0
VERTEX
8
OBJECT__23
10
0
20
0
30
0
70
128
71
20
72
19
73
21
0
VERTEX
8
OBJECT__23
10
0
20
0
30
0
70
128
71
18
72
17
73
19
0
VERTEX
8
OBJECT__23
10
0
20
0
30
0
70
128
71
15
72
24
73
17
0
VERTEX
8
OBJECT__23
10
0
20
0
30
0
70
128
71
16
72
24
73
15
0
VERTEX
8
OBJECT__23
10
0
20
0
30
0
70
128
71
14
72
16
73
13
0
VERTEX
8
OBJECT__23
10
0
20
0
30
0
70
128
71
12
72
14
73
11
0
VERTEX
8
OBJECT__23
10
0
20
0
30
0
70
128
71
10
72
12
73
9
0
VERTEX
8
OBJECT__23
10
0
20
0
30
0
70
128
71
6
72
10
73
8
0
VERTEX
8
OBJECT__23
10
0
20
0
30
0
70
128
71
5
72
4
73
6
0
VERTEX
8
OBJECT__23
10
0
20
0
30
0
70
128
71
2
72
1
73
4
0
VERTEX
8
OBJECT__23
10
0
20
0
30
0
70
128
71
3
72
23
73
1
0
SEQEND
8
OBJECT__23
0
POLYLINE
8
OBJECT__24
66
1
70
64
71
24
72
24
62
253
0
VERTEX
8
OBJECT__24
10
201.847000
20
-11.800000
30
-13.588000
70
192
0
VERTEX
8
OBJECT__24
10
201.899002
20
-10.750000
30
-14.191000
70
192
0
VERTEX
8
OBJECT__24
10
207.253998
20
-9.310000
30
-13.723000
70
192
0
VERTEX
8
OBJECT__24
10
207.723999
20
-10.219000
30
-13.073000
70
192
0
VERTEX
8
OBJECT__24
10
211.173996
20
-5.375000
30
-13.380000
70
192
0
VERTEX
8
OBJECT__24
10
212.026993
20
-5.900000
30
-12.697000
70
192
0
VERTEX
8
OBJECT__24
10
212.608994
20
0.000000
30
-13.255000
70
192
0
VERTEX
8
OBJECT__24
10
213.602005
20
0.000000
30
-12.559000
70
192
0
VERTEX
8
OBJECT__24
10
211.173996
20
5.375000
30
-13.380000
70
192
0
VERTEX
8
OBJECT__24
10
207.723999
20
10.219000
30
-13.073000
70
192
0
VERTEX
8
OBJECT__24
10
212.026993
20
5.900000
30
-12.697000
70
192
0
VERTEX
8
OBJECT__24
10
201.847000
20
11.800000
30
-13.588000
70
192
0
VERTEX
8
OBJECT__24
10
207.253998
20
9.310000
30
-13.723000
70
192
0
VERTEX
8
OBJECT__24
10
195.968994
20
10.219000
30
-14.102000
70
192
0
VERTEX
8
OBJECT__24
10
201.899002
20
10.750000
30
-14.191000
70
192
0
VERTEX
8
OBJECT__24
10
191.666000
20
5.900000
30
-14.478000
70
192
0
VERTEX
8
OBJECT__24
10
196.544998
20
9.310000
30
-14.660000
70
192
0
VERTEX
8
OBJECT__24
10
192.625000
20
5.375000
30
-15.003000
70
192
0
VERTEX
8
OBJECT__24
10
191.190002
20
0.000000
30
-15.128000
70
192
0
VERTEX
8
OBJECT__24
10
190.091003
20
0.000000
30
-14.616000
70
192
0
VERTEX
8
OBJECT__24
10
192.625000
20
-5.375000
30
-15.003000
70
192
0
VERTEX
8
OBJECT__24
10
191.666000
20
-5.900000
30
-14.478000
70
192
0
VERTEX
8
OBJECT__24
10
196.544998
20
-9.310000
30
-14.660000
70
192
0
VERTEX
8
OBJECT__24
10
195.968994
20
-10.219000
30
-14.102000
70
192
0
VERTEX
8
OBJECT__24
10
0
20
0
30
0
70
128
71
1
72
2
73
3
0
VERTEX
8
OBJECT__24
10
0
20
0
30
0
70
128
71
4
72
3
73
5
0
VERTEX
8
OBJECT__24
10
0
20
0
30
0
70
128
71
6
72
5
73
7
0
VERTEX
8
OBJECT__24
10
0
20
0
30
0
70
128
71
8
72
7
73
9
0
VERTEX
8
OBJECT__24
10
0
20
0
30
0
70
128
71
10
72
11
73
9
0
VERTEX
8
OBJECT__24
10
0
20
0
30
0
70
128
71
12
72
10
73
13
0
VERTEX
8
OBJECT__24
10
0
20
0
30
0
70
128
71
14
72
12
73
15
0
VERTEX
8
OBJECT__24
10
0
20
0
30
0
70
128
71
16
72
14
73
17
0
VERTEX
8
OBJECT__24
10
0
20
0
30
0
70
128
71
16
72
18
73
19
0
VERTEX
8
OBJECT__24
10
0
20
0
30
0
70
128
71
20
72
19
73
21
0
VERTEX
8
OBJECT__24
10
0
20
0
30
0
70
128
71
22
72
21
73
23
0
VERTEX
8
OBJECT__24
10
0
20
0
30
0
70
128
71
24
72
23
73
2
0
VERTEX
8
OBJECT__24
10
0
20
0
30
0
70
128
71
2
72
1
73
24
0
VERTEX
8
OBJECT__24
10
0
20
0
30
0
70
128
71
23
72
24
73
22
0
VERTEX
8
OBJECT__24
10
0
20
0
30
0
70
128
71
21
72
22
73
20
0
VERTEX
8
OBJECT__24
10
0
20
0
30
0
70
128
71
19
72
20
73
16
0
VERTEX
8
OBJECT__24
10
0
20
0
30
0
70
128
71
17
72
18
73
16
0
VERTEX
8
OBJECT__24
10
0
20
0
30
0
70
128
71
15
72
17
73
14
0
VERTEX
8
OBJECT__24
10
0
20
0
30
0
70
128
71
13
72
15
73
12
0
VERTEX
8
OBJECT__24
10
0
20
0
30
0
70
128
71
9
72
13
73
10
0
VERTEX
8
OBJECT__24
10
0
20
0
30
0
70
128
71
9
72
11
73
8
0
VERTEX
8
OBJECT__24
10
0
20
0
30
0
70
128
71
7
72
8
73
6
0
VERTEX
8
OBJECT__24
10
0
20
0
30
0
70
128
71
5
72
6
73
4
0
VERTEX
8
OBJECT__24
10
0
20
0
30
0
70
128
71
3
72
4
73
1
0
SEQEND
8
OBJECT__24
0
POLYLINE
8
OBJECT__26
66
1
70
64
71
12
72
10
62
253
0
VERTEX
8
OBJECT__26
10
196.544998
20
-9.310000
30
-14.660000
70
192
0
VERTEX
8
OBJECT__26
10
191.190002
20
0.000000
30
-15.128000
70
192
0
VERTEX
8
OBJECT__26
10
192.625000
20
5.375000
30
-15.003000
70
192
0
VERTEX
8
OBJECT__26
10
201.899002
20
-10.750000
30
-14.191000
70
192
0
VERTEX
8
OBJECT__26
10
212.608994
20
0.000000
30
-13.255000
70
192
0
VERTEX
8
OBJECT__26
10
211.173996
20
-5.375000
30
-13.380000
70
192
0
VERTEX
8
OBJECT__26
10
196.544998
20
9.310000
30
-14.660000
70
192
0
VERTEX
8
OBJECT__26
10
201.899002
20
10.750000
30
-14.191000
70
192
0
VERTEX
8
OBJECT__26
10
192.625000
20
-5.375000
30
-15.003000
70
192
0
VERTEX
8
OBJECT__26
10
207.253998
20
-9.310000
30
-13.723000
70
192
0
VERTEX
8
OBJECT__26
10
207.253998
20
9.310000
30
-13.723000
70
192
0
VERTEX
8
OBJECT__26
10
211.173996
20
5.375000
30
-13.380000
70
192
0
VERTEX
8
OBJECT__26
10
0
20
0
30
0
70
128
71
1
72
2
73
3
0
VERTEX
8
OBJECT__26
10
0
20
0
30
0
70
128
71
4
72
5
73
6
0
VERTEX
8
OBJECT__26
10
0
20
0
30
0
70
128
71
1
72
7
73
8
0
VERTEX
8
OBJECT__26
10
0
20
0
30
0
70
128
71
1
72
9
73
2
0
VERTEX
8
OBJECT__26
10
0
20
0
30
0
70
128
71
6
72
10
73
4
0
VERTEX
8
OBJECT__26
10
0
20
0
30
0
70
128
71
1
72
11
73
12
0
VERTEX
8
OBJECT__26
10
0
20
0
30
0
70
128
71
3
72
7
73
1
0
VERTEX
8
OBJECT__26
10
0
20
0
30
0
70
128
71
12
72
5
73
1
0
VERTEX
8
OBJECT__26
10
0
20
0
30
0
70
128
71
4
72
1
73
5
0
VERTEX
8
OBJECT__26
10
0
20
0
30
0
70
128
71
8
72
11
73
1
0
SEQEND
8
OBJECT__26
0
POLYLINE
8
OBJECT__27
66
1
70
64
71
19
72
17
62
253
0
VERTEX
8
OBJECT__27
10
31.604000
20
4.938000
30
-29.591000
70
192
0
VERTEX
8
OBJECT__27
10
31.604000
20
-29.082001
30
7.365000
70
192
0
VERTEX
8
OBJECT__27
10
31.604000
20
-25.115000
30
16.408001
70
192
0
VERTEX
8
OBJECT__27
10
31.604000
20
-29.898001
30
-2.477000
70
192
0
VERTEX
8
OBJECT__27
10
31.604000
20
-14.278000
30
-26.384001
70
192
0
VERTEX
8
OBJECT__27
10
31.604000
20
-22.072001
30
-20.318001
70
192
0
VERTEX
8
OBJECT__27
10
31.604000
20
-4.938000
30
-29.591000
70
192
0
VERTEX
8
OBJECT__27
10
31.604000
20
22.072001
30
-20.318001
70
192
0
VERTEX
8
OBJECT__27
10
31.604000
20
29.082001
30
7.365000
70
192
0
VERTEX
8
OBJECT__27
10
31.604000
20
29.898001
30
-2.477000
70
192
0
VERTEX
8
OBJECT__27
10
31.604000
20
18.426001
30
23.674000
70
192
0
VERTEX
8
OBJECT__27
10
31.604000
20
25.115000
30
16.408001
70
192
0
VERTEX
8
OBJECT__27
10
31.604000
20
0.000000
30
30.000000
70
192
0
VERTEX
8
OBJECT__27
10
31.604000
20
9.741000
30
28.375000
70
192
0
VERTEX
8
OBJECT__27
10
31.604000
20
-18.426001
30
23.674000
70
192
0
VERTEX
8
OBJECT__27
10
31.604000
20
-9.741000
30
28.375000
70
192
0
VERTEX
8
OBJECT__27
10
31.604000
20
-27.473000
30
-12.051000
70
192
0
VERTEX
8
OBJECT__27
10
31.604000
20
14.278000
30
-26.384001
70
192
0
VERTEX
8
OBJECT__27
10
31.604000
20
27.473000
30
-12.051000
70
192
0
VERTEX
8
OBJECT__27
10
0
20
0
30
0
70
128
71
1
72
2
73
3
0
VERTEX
8
OBJECT__27
10
0
20
0
30
0
70
128
71
4
72
5
73
6
0
VERTEX
8
OBJECT__27
10
0
20
0
30
0
70
128
71
4
72
1
73
7
0
VERTEX
8
OBJECT__27
10
0
20
0
30
0
70
128
71
1
72
4
73
2
0
VERTEX
8
OBJECT__27
10
0
20
0
30
0
70
128
71
7
72
5
73
4
0
VERTEX
8
OBJECT__27
10
0
20
0
30
0
70
128
71
8
72
9
73
10
0
VERTEX
8
OBJECT__27
10
0
20
0
30
0
70
128
71
8
72
11
73
12
0
VERTEX
8
OBJECT__27
10
0
20
0
30
0
70
128
71
8
72
13
73
14
0
VERTEX
8
OBJECT__27
10
0
20
0
30
0
70
128
71
8
72
15
73
16
0
VERTEX
8
OBJECT__27
10
0
20
0
30
0
70
128
71
6
72
17
73
4
0
VERTEX
8
OBJECT__27
10
0
20
0
30
0
70
128
71
15
72
8
73
18
0
VERTEX
8
OBJECT__27
10
0
20
0
30
0
70
128
71
12
72
9
73
8
0
VERTEX
8
OBJECT__27
10
0
20
0
30
0
70
128
71
16
72
13
73
8
0
VERTEX
8
OBJECT__27
10
0
20
0
30
0
70
128
71
18
72
1
73
15
0
VERTEX
8
OBJECT__27
10
0
20
0
30
0
70
128
71
14
72
11
73
8
0
VERTEX
8
OBJECT__27
10
0
20
0
30
0
70
128
71
10
72
19
73
8
0
VERTEX
8
OBJECT__27
10
0
20
0
30
0
70
128
71
3
72
15
73
1
0
SEQEND
8
OBJECT__27
0
POLYLINE
8
OBJECT__28
66
1
70
64
71
39
72
39
62
253
0
VERTEX
8
OBJECT__28
10
37.304001
20
-9.741000
30
28.375000
70
192
0
VERTEX
8
OBJECT__28
10
37.304001
20
0.000000
30
30.000000
70
192
0
VERTEX
8
OBJECT__28
10
31.604000
20
0.000000
30
30.000000
70
192
0
VERTEX
8
OBJECT__28
10
31.604000
20
-18.426001
30
23.674000
70
192
0
VERTEX
8
OBJECT__28
10
37.304001
20
-18.426001
30
23.674000
70
192
0
VERTEX
8
OBJECT__28
10
31.604000
20
-25.115000
30
16.408001
70
192
0
VERTEX
8
OBJECT__28
10
37.304001
20
-25.115000
30
16.408001
70
192
0
VERTEX
8
OBJECT__28
10
31.604000
20
-29.082001
30
7.365000
70
192
0
VERTEX
8
OBJECT__28
10
37.304001
20
-29.082001
30
7.365000
70
192
0
VERTEX
8
OBJECT__28
10
31.604000
20
-29.898001
30
-2.477000
70
192
0
VERTEX
8
OBJECT__28
10
37.304001
20
-29.898001
30
-2.477000
70
192
0
VERTEX
8
OBJECT__28
10
31.604000
20
-27.473000
30
-12.051000
70
192
0
VERTEX
8
OBJECT__28
10
37.304001
20
-27.473000
30
-12.051000
70
192
0
VERTEX
8
OBJECT__28
10
31.604000
20
-22.072001
30
-20.318001
70
192
0
VERTEX
8
OBJECT__28
10
37.304001
20
-22.072001
30
-20.318001
70
192
0
VERTEX
8
OBJECT__28
10
31.604000
20
-14.278000
30
-26.384001
70
192
0
VERTEX
8
OBJECT__28
10
37.304001
20
-14.278000
30
-26.384001
70
192
0
VERTEX
8
OBJECT__28
10
31.604000
20
-4.938000
30
-29.591000
70
192
0
VERTEX
8
OBJECT__28
10
37.304001
20
-4.938000
30
-29.591000
70
192
0
VERTEX
8
OBJECT__28
10
31.604000
20
4.938000
30
-29.591000
70
192
0
VERTEX
8
OBJECT__28
10
37.304001
20
0.000000
30
-30.000000
70
192
0
VERTEX
8
OBJECT__28
10
37.304001
20
4.938000
30
-29.591000
70
192
0
VERTEX
8
OBJECT__28
10
31.604000
20
14.278000
30
-26.384001
70
192
0
VERTEX
8
OBJECT__28
10
37.304001
20
14.278000
30
-26.384001
70
192
0
VERTEX
8
OBJECT__28
10
31.604000
20
22.072001
30
-20.318001
70
192
0
VERTEX
8
OBJECT__28
10
37.304001
20
22.072001
30
-20.318001
70
192
0
VERTEX
8
OBJECT__28
10
31.604000
20
27.473000
30
-12.051000
70
192
0
VERTEX
8
OBJECT__28
10
37.304001
20
27.473000
30
-12.051000
70
192
0
VERTEX
8
OBJECT__28
10
31.604000
20
29.898001
30
-2.477000
70
192
0
VERTEX
8
OBJECT__28
10
37.304001
20
29.898001
30
-2.477000
70
192
0
VERTEX
8
OBJECT__28
10
31.604000
20
29.082001
30
7.365000
70
192
0
VERTEX
8
OBJECT__28
10
37.304001
20
29.082001
30
7.365000
70
192
0
VERTEX
8
OBJECT__28
10
31.604000
20
25.115000
30
16.408001
70
192
0
VERTEX
8
OBJECT__28
10
37.304001
20
25.115000
30
16.408001
70
192
0
VERTEX
8
OBJECT__28
10
31.604000
20
18.426001
30
23.674000
70
192
0
VERTEX
8
OBJECT__28
10
37.304001
20
18.426001
30
23.674000
70
192
0
VERTEX
8
OBJECT__28
10
31.604000
20
9.741000
30
28.375000
70
192
0
VERTEX
8
OBJECT__28
10
37.304001
20
9.741000
30
28.375000
70
192
0
VERTEX
8
OBJECT__28
10
31.604000
20
-9.741000
30
28.375000
70
192
0
VERTEX
8
OBJECT__28
10
0
20
0
30
0
70
128
71
1
72
2
73
3
0
VERTEX
8
OBJECT__28
10
0
20
0
30
0
70
128
71
4
72
5
73
1
0
VERTEX
8
OBJECT__28
10
0
20
0
30
0
70
128
71
6
72
7
73
5
0
VERTEX
8
OBJECT__28
10
0
20
0
30
0
70
128
71
8
72
9
73
7
0
VERTEX
8
OBJECT__28
10
0
20
0
30
0
70
128
71
10
72
11
73
9
0
VERTEX
8
OBJECT__28
10
0
20
0
30
0
70
128
71
12
72
13
73
11
0
VERTEX
8
OBJECT__28
10
0
20
0
30
0
70
128
71
14
72
15
73
13
0
VERTEX
8
OBJECT__28
10
0
20
0
30
0
70
128
71
16
72
17
73
15
0
VERTEX
8
OBJECT__28
10
0
20
0
30
0
70
128
71
18
72
19
73
17
0
VERTEX
8
OBJECT__28
10
0
20
0
30
0
70
128
71
18
72
20
73
21
0
VERTEX
8
OBJECT__28
10
0
20
0
30
0
70
128
71
20
72
22
73
21
0
VERTEX
8
OBJECT__28
10
0
20
0
30
0
70
128
71
23
72
24
73
22
0
VERTEX
8
OBJECT__28
10
0
20
0
30
0
70
128
71
25
72
26
73
24
0
VERTEX
8
OBJECT__28
10
0
20
0
30
0
70
128
71
27
72
28
73
26
0
VERTEX
8
OBJECT__28
10
0
20
0
30
0
70
128
71
29
72
30
73
28
0
VERTEX
8
OBJECT__28
10
0
20
0
30
0
70
128
71
31
72
32
73
30
0
VERTEX
8
OBJECT__28
10
0
20
0
30
0
70
128
71
33
72
34
73
32
0
VERTEX
8
OBJECT__28
10
0
20
0
30
0
70
128
71
35
72
36
73
34
0
VERTEX
8
OBJECT__28
10
0
20
0
30
0
70
128
71
37
72
38
73
36
0
VERTEX
8
OBJECT__28
10
0
20
0
30
0
70
128
71
37
72
3
73
2
0
VERTEX
8
OBJECT__28
10
0
20
0
30
0
70
128
71
2
72
38
73
37
0
VERTEX
8
OBJECT__28
10
0
20
0
30
0
70
128
71
36
72
35
73
37
0
VERTEX
8
OBJECT__28
10
0
20
0
30
0
70
128
71
34
72
33
73
35
0
VERTEX
8
OBJECT__28
10
0
20
0
30
0
70
128
71
32
72
31
73
33
0
VERTEX
8
OBJECT__28
10
0
20
0
30
0
70
128
71
30
72
29
73
31
0
VERTEX
8
OBJECT__28
10
0
20
0
30
0
70
128
71
28
72
27
73
29
0
VERTEX
8
OBJECT__28
10
0
20
0
30
0
70
128
71
26
72
25
73
27
0
VERTEX
8
OBJECT__28
10
0
20
0
30
0
70
128
71
24
72
23
73
25
0
VERTEX
8
OBJECT__28
10
0
20
0
30
0
70
128
71
22
72
20
73
23
0
VERTEX
8
OBJECT__28
10
0
20
0
30
0
70
128
71
21
72
19
73
18
0
VERTEX
8
OBJECT__28
10
0
20
0
30
0
70
128
71
17
72
16
73
18
0
VERTEX
8
OBJECT__28
10
0
20
0
30
0
70
128
71
15
72
14
73
16
0
VERTEX
8
OBJECT__28
10
0
20
0
30
0
70
128
71
13
72
12
73
14
0
VERTEX
8
OBJECT__28
10
0
20
0
30
0
70
128
71
11
72
10
73
12
0
VERTEX
8
OBJECT__28
10
0
20
0
30
0
70
128
71
9
72
8
73
10
0
VERTEX
8
OBJECT__28
10
0
20
0
30
0
70
128
71
7
72
6
73
8
0
VERTEX
8
OBJECT__28
10
0
20
0
30
0
70
128
71
5
72
4
73
6
0
VERTEX
8
OBJECT__28
10
0
20
0
30
0
70
128
71
1
72
39
73
4
0
VERTEX
8
OBJECT__28
10
0
20
0
30
0
70
128
71
3
72
39
73
1
0
SEQEND
8
OBJECT__28
0
POLYLINE
8
OBJECT__30
66
1
70
64
71
38
72
38
62
253
0
VERTEX
8
OBJECT__30
10
37.304001
20
4.938000
30
-29.591000
70
192
0
VERTEX
8
OBJECT__30
10
37.304001
20
14.278000
30
-26.384001
70
192
0
VERTEX
8
OBJECT__30
10
37.304001
20
8.465000
30
-23.257000
70
192
0
VERTEX
8
OBJECT__30
10
37.304001
20
0.000000
30
-24.750000
70
192
0
VERTEX
8
OBJECT__30
10
37.304001
20
0.000000
30
-30.000000
70
192
0
VERTEX
8
OBJECT__30
10
37.304001
20
22.072001
30
-20.318001
70
192
0
VERTEX
8
OBJECT__30
10
37.304001
20
15.909000
30
-18.959999
70
192
0
VERTEX
8
OBJECT__30
10
37.304001
20
27.473000
30
-12.051000
70
192
0
VERTEX
8
OBJECT__30
10
37.304001
20
21.434000
30
-12.375000
70
192
0
VERTEX
8
OBJECT__30
10
37.304001
20
29.898001
30
-2.477000
70
192
0
VERTEX
8
OBJECT__30
10
37.304001
20
24.374001
30
-4.298000
70
192
0
VERTEX
8
OBJECT__30
10
37.304001
20
29.082001
30
7.365000
70
192
0
VERTEX
8
OBJECT__30
10
37.304001
20
24.374001
30
4.298000
70
192
0
VERTEX
8
OBJECT__30
10
37.304001
20
25.115000
30
16.408001
70
192
0
VERTEX
8
OBJECT__30
10
37.304001
20
21.434000
30
12.375000
70
192
0
VERTEX
8
OBJECT__30
10
37.304001
20
18.426001
30
23.674000
70
192
0
VERTEX
8
OBJECT__30
10
37.304001
20
15.909000
30
18.959999
70
192
0
VERTEX
8
OBJECT__30
10
37.304001
20
-18.426001
30
23.674000
70
192
0
VERTEX
8
OBJECT__30
10
37.304001
20
-15.909000
30
18.959999
70
192
0
VERTEX
8
OBJECT__30
10
37.304001
20
-8.465000
30
23.257000
70
192
0
VERTEX
8
OBJECT__30
10
37.304001
20
-25.115000
30
16.408001
70
192
0
VERTEX
8
OBJECT__30
10
37.304001
20
-21.434000
30
12.375000
70
192
0
VERTEX
8
OBJECT__30
10
37.304001
20
-29.082001
30
7.365000
70
192
0
VERTEX
8
OBJECT__30
10
37.304001
20
-24.374001
30
4.298000
70
192
0
VERTEX
8
OBJECT__30
10
37.304001
20
9.741000
30
28.375000
70
192
0
VERTEX
8
OBJECT__30
10
37.304001
20
8.465000
30
23.257000
70
192
0
VERTEX
8
OBJECT__30
10
37.304001
20
-29.898001
30
-2.477000
70
192
0
VERTEX
8
OBJECT__30
10
37.304001
20
-24.374001
30
-4.298000
70
192
0
VERTEX
8
OBJECT__30
10
37.304001
20
-27.473000
30
-12.051000
70
192
0
VERTEX
8
OBJECT__30
10
37.304001
20
-21.434000
30
-12.375000
70
192
0
VERTEX
8
OBJECT__30
10
37.304001
20
-22.072001
30
-20.318001
70
192
0
VERTEX
8
OBJECT__30
10
37.304001
20
-15.909000
30
-18.959999
70
192
0
VERTEX
8
OBJECT__30
10
37.304001
20
0.000000
30
30.000000
70
192
0
VERTEX
8
OBJECT__30
10
37.304001
20
0.000000
30
24.750000
70
192
0
VERTEX
8
OBJECT__30
10
37.304001
20
-9.741000
30
28.375000
70
192
0
VERTEX
8
OBJECT__30
10
37.304001
20
-14.278000
30
-26.384001
70
192
0
VERTEX
8
OBJECT__30
10
37.304001
20
-8.465000
30
-23.257000
70
192
0
VERTEX
8
OBJECT__30
10
37.304001
20
-4.938000
30
-29.591000
70
192
0
VERTEX
8
OBJECT__30
10
0
20
0
30
0
70
128
71
1
72
2
73
3
0
VERTEX
8
OBJECT__30
10
0
20
0
30
0
70
128
71
4
72
5
73
1
0
VERTEX
8
OBJECT__30
10
0
20
0
30
0
70
128
71
2
72
6
73
7
0
VERTEX
8
OBJECT__30
10
0
20
0
30
0
70
128
71
7
72
3
73
2
0
VERTEX
8
OBJECT__30
10
0
20
0
30
0
70
128
71
6
72
8
73
9
0
VERTEX
8
OBJECT__30
10
0
20
0
30
0
70
128
71
8
72
10
73
11
0
VERTEX
8
OBJECT__30
10
0
20
0
30
0
70
128
71
10
72
12
73
13
0
VERTEX
8
OBJECT__30
10
0
20
0
30
0
70
128
71
9
72
7
73
6
0
VERTEX
8
OBJECT__30
10
0
20
0
30
0
70
128
71
13
72
11
73
10
0
VERTEX
8
OBJECT__30
10
0
20
0
30
0
70
128
71
12
72
14
73
15
0
VERTEX
8
OBJECT__30
10
0
20
0
30
0
70
128
71
14
72
16
73
17
0
VERTEX
8
OBJECT__30
10
0
20
0
30
0
70
128
71
18
72
19
73
20
0
VERTEX
8
OBJECT__30
10
0
20
0
30
0
70
128
71
21
72
22
73
19
0
VERTEX
8
OBJECT__30
10
0
20
0
30
0
70
128
71
11
72
9
73
8
0
VERTEX
8
OBJECT__30
10
0
20
0
30
0
70
128
71
17
72
15
73
14
0
VERTEX
8
OBJECT__30
10
0
20
0
30
0
70
128
71
19
72
18
73
21
0
VERTEX
8
OBJECT__30
10
0
20
0
30
0
70
128
71
23
72
24
73
22
0
VERTEX
8
OBJECT__30
10
0
20
0
30
0
70
128
71
15
72
13
73
12
0
VERTEX
8
OBJECT__30
10
0
20
0
30
0
70
128
71
16
72
25
73
26
0
VERTEX
8
OBJECT__30
10
0
20
0
30
0
70
128
71
22
72
21
73
23
0
VERTEX
8
OBJECT__30
10
0
20
0
30
0
70
128
71
27
72
28
73
24
0
VERTEX
8
OBJECT__30
10
0
20
0
30
0
70
128
71
29
72
30
73
28
0
VERTEX
8
OBJECT__30
10
0
20
0
30
0
70
128
71
31
72
32
73
30
0
VERTEX
8
OBJECT__30
10
0
20
0
30
0
70
128
71
26
72
17
73
16
0
VERTEX
8
OBJECT__30
10
0
20
0
30
0
70
128
71
25
72
33
73
34
0
VERTEX
8
OBJECT__30
10
0
20
0
30
0
70
128
71
35
72
20
73
34
0
VERTEX
8
OBJECT__30
10
0
20
0
30
0
70
128
71
24
72
23
73
27
0
VERTEX
8
OBJECT__30
10
0
20
0
30
0
70
128
71
30
72
29
73
31
0
VERTEX
8
OBJECT__30
10
0
20
0
30
0
70
128
71
36
72
37
73
32
0
VERTEX
8
OBJECT__30
10
0
20
0
30
0
70
128
71
38
72
4
73
37
0
VERTEX
8
OBJECT__30
10
0
20
0
30
0
70
128
71
34
72
26
73
25
0
VERTEX
8
OBJECT__30
10
0
20
0
30
0
70
128
71
20
72
35
73
18
0
VERTEX
8
OBJECT__30
10
0
20
0
30
0
70
128
71
32
72
31
73
36
0
VERTEX
8
OBJECT__30
10
0
20
0
30
0
70
128
71
37
72
36
73
38
0
VERTEX
8
OBJECT__30
10
0
20
0
30
0
70
128
71
34
72
33
73
35
0
VERTEX
8
OBJECT__30
10
0
20
0
30
0
70
128
71
38
72
5
73
4
0
VERTEX
8
OBJECT__30
10
0
20
0
30
0
70
128
71
28
72
27
73
29
0
VERTEX
8
OBJECT__30
10
0
20
0
30
0
70
128
71
3
72
4
73
1
0
SEQEND
8
OBJECT__30
0
POLYLINE
8
OBJECT__31
66
1
70
64
71
36
72
36
62
253
0
VERTEX
8
OBJECT__31
10
34.104000
20
8.465000
30
23.257000
70
192
0
VERTEX
8
OBJECT__31
10
37.304001
20
8.465000
30
23.257000
70
192
0
VERTEX
8
OBJECT__31
10
37.304001
20
0.000000
30
24.750000
70
192
0
VERTEX
8
OBJECT__31
10
34.104000
20
15.909000
30
18.959999
70
192
0
VERTEX
8
OBJECT__31
10
37.304001
20
15.909000
30
18.959999
70
192
0
VERTEX
8
OBJECT__31
10
34.104000
20
21.434000
30
12.375000
70
192
0
VERTEX
8
OBJECT__31
10
37.304001
20
21.434000
30
12.375000
70
192
0
VERTEX
8
OBJECT__31
10
34.104000
20
24.374001
30
4.298000
70
192
0
VERTEX
8
OBJECT__31
10
37.304001
20
24.374001
30
4.298000
70
192
0
VERTEX
8
OBJECT__31
10
34.104000
20
24.374001
30
-4.298000
70
192
0
VERTEX
8
OBJECT__31
10
37.304001
20
24.374001
30
-4.298000
70
192
0
VERTEX
8
OBJECT__31
10
34.104000
20
21.434000
30
-12.375000
70
192
0
VERTEX
8
OBJECT__31
10
37.304001
20
21.434000
30
-12.375000
70
192
0
VERTEX
8
OBJECT__31
10
34.104000
20
15.909000
30
-18.959999
70
192
0
VERTEX
8
OBJECT__31
10
37.304001
20
15.909000
30
-18.959999
70
192
0
VERTEX
8
OBJECT__31
10
34.104000
20
8.465000
30
-23.257000
70
192
0
VERTEX
8
OBJECT__31
10
37.304001
20
8.465000
30
-23.257000
70
192
0
VERTEX
8
OBJECT__31
10
34.104000
20
0.000000
30
-24.750000
70
192
0
VERTEX
8
OBJECT__31
10
37.304001
20
0.000000
30
-24.750000
70
192
0
VERTEX
8
OBJECT__31
10
37.304001
20
-8.465000
30
-23.257000
70
192
0
VERTEX
8
OBJECT__31
10
34.104000
20
-15.909000
30
-18.959999
70
192
0
VERTEX
8
OBJECT__31
10
37.304001
20
-15.909000
30
-18.959999
70
192
0
VERTEX
8
OBJECT__31
10
34.104000
20
-21.434000
30
-12.375000
70
192
0
VERTEX
8
OBJECT__31
10
37.304001
20
-21.434000
30
-12.375000
70
192
0
VERTEX
8
OBJECT__31
10
34.104000
20
-24.374001
30
-4.298000
70
192
0
VERTEX
8
OBJECT__31
10
37.304001
20
-24.374001
30
-4.298000
70
192
0
VERTEX
8
OBJECT__31
10
34.104000
20
-24.374001
30
4.298000
70
192
0
VERTEX
8
OBJECT__31
10
37.304001
20
-24.374001
30
4.298000
70
192
0
VERTEX
8
OBJECT__31
10
34.104000
20
-21.434000
30
12.375000
70
192
0
VERTEX
8
OBJECT__31
10
37.304001
20
-21.434000
30
12.375000
70
192
0
VERTEX
8
OBJECT__31
10
34.104000
20
-15.909000
30
18.959999
70
192
0
VERTEX
8
OBJECT__31
10
37.304001
20
-15.909000
30
18.959999
70
192
0
VERTEX
8
OBJECT__31
10
34.104000
20
-8.465000
30
23.257000
70
192
0
VERTEX
8
OBJECT__31
10
37.304001
20
-8.465000
30
23.257000
70
192
0
VERTEX
8
OBJECT__31
10
34.104000
20
0.000000
30
24.750000
70
192
0
VERTEX
8
OBJECT__31
10
34.104000
20
-8.465000
30
-23.257000
70
192
0
VERTEX
8
OBJECT__31
10
0
20
0
30
0
70
128
71
1
72
2
73
3
0
VERTEX
8
OBJECT__31
10
0
20
0
30
0
70
128
71
4
72
5
73
2
0
VERTEX
8
OBJECT__31
10
0
20
0
30
0
70
128
71
6
72
7
73
5
0
VERTEX
8
OBJECT__31
10
0
20
0
30
0
70
128
71
8
72
9
73
7
0
VERTEX
8
OBJECT__31
10
0
20
0
30
0
70
128
71
10
72
11
73
9
0
VERTEX
8
OBJECT__31
10
0
20
0
30
0
70
128
71
12
72
13
73
11
0
VERTEX
8
OBJECT__31
10
0
20
0
30
0
70
128
71
14
72
15
73
13
0
VERTEX
8
OBJECT__31
10
0
20
0
30
0
70
128
71
16
72
17
73
15
0
VERTEX
8
OBJECT__31
10
0
20
0
30
0
70
128
71
16
72
18
73
19
0
VERTEX
8
OBJECT__31
10
0
20
0
30
0
70
128
71
20
72
19
73
18
0
VERTEX
8
OBJECT__31
10
0
20
0
30
0
70
128
71
21
72
22
73
20
0
VERTEX
8
OBJECT__31
10
0
20
0
30
0
70
128
71
23
72
24
73
22
0
VERTEX
8
OBJECT__31
10
0
20
0
30
0
70
128
71
25
72
26
73
24
0
VERTEX
8
OBJECT__31
10
0
20
0
30
0
70
128
71
27
72
28
73
26
0
VERTEX
8
OBJECT__31
10
0
20
0
30
0
70
128
71
29
72
30
73
28
0
VERTEX
8
OBJECT__31
10
0
20
0
30
0
70
128
71
31
72
32
73
30
0
VERTEX
8
OBJECT__31
10
0
20
0
30
0
70
128
71
33
72
34
73
32
0
VERTEX
8
OBJECT__31
10
0
20
0
30
0
70
128
71
34
72
33
73
35
0
VERTEX
8
OBJECT__31
10
0
20
0
30
0
70
128
71
35
72
3
73
34
0
VERTEX
8
OBJECT__31
10
0
20
0
30
0
70
128
71
32
72
31
73
33
0
VERTEX
8
OBJECT__31
10
0
20
0
30
0
70
128
71
30
72
29
73
31
0
VERTEX
8
OBJECT__31
10
0
20
0
30
0
70
128
71
28
72
27
73
29
0
VERTEX
8
OBJECT__31
10
0
20
0
30
0
70
128
71
26
72
25
73
27
0
VERTEX
8
OBJECT__31
10
0
20
0
30
0
70
128
71
24
72
23
73
25
0
VERTEX
8
OBJECT__31
10
0
20
0
30
0
70
128
71
22
72
21
73
23
0
VERTEX
8
OBJECT__31
10
0
20
0
30
0
70
128
71
20
72
36
73
21
0
VERTEX
8
OBJECT__31
10
0
20
0
30
0
70
128
71
18
72
36
73
20
0
VERTEX
8
OBJECT__31
10
0
20
0
30
0
70
128
71
19
72
17
73
16
0
VERTEX
8
OBJECT__31
10
0
20
0
30
0
70
128
71
15
72
14
73
16
0
VERTEX
8
OBJECT__31
10
0
20
0
30
0
70
128
71
13
72
12
73
14
0
VERTEX
8
OBJECT__31
10
0
20
0
30
0
70
128
71
11
72
10
73
12
0
VERTEX
8
OBJECT__31
10
0
20
0
30
0
70
128
71
9
72
8
73
10
0
VERTEX
8
OBJECT__31
10
0
20
0
30
0
70
128
71
7
72
6
73
8
0
VERTEX
8
OBJECT__31
10
0
20
0
30
0
70
128
71
5
72
4
73
6
0
VERTEX
8
OBJECT__31
10
0
20
0
30
0
70
128
71
2
72
1
73
4
0
VERTEX
8
OBJECT__31
10
0
20
0
30
0
70
128
71
3
72
35
73
1
0
SEQEND
8
OBJECT__31
0
POLYLINE
8
OBJECT__32
66
1
70
64
71
150
72
300
62
253
0
VERTEX
8
OBJECT__32
10
33.604000
20
0.000000
30
-23.924999
70
192
0
VERTEX
8
OBJECT__32
10
34.355999
20
-5.759000
30
-22.427999
70
192
0
VERTEX
8
OBJECT__32
10
34.355999
20
0.000000
30
-23.155001
70
192
0
VERTEX
8
OBJECT__32
10
33.604000
20
-5.950000
30
-23.173000
70
192
0
VERTEX
8
OBJECT__32
10
34.355999
20
-11.155000
30
-20.291000
70
192
0
VERTEX
8
OBJECT__32
10
33.604000
20
-11.526000
30
-20.966000
70
192
0
VERTEX
8
OBJECT__32
10
34.355999
20
-15.851000
30
-16.879999
70
192
0
VERTEX
8
OBJECT__32
10
33.604000
20
-16.378000
30
-17.441000
70
192
0
VERTEX
8
OBJECT__32
10
34.355999
20
-19.551001
30
-12.407000
70
192
0
VERTEX
8
OBJECT__32
10
33.604000
20
-20.201000
30
-12.820000
70
192
0
VERTEX
8
OBJECT__32
10
34.355999
20
-22.021999
30
-7.155000
70
192
0
VERTEX
8
OBJECT__32
10
33.604000
20
-22.754000
30
-7.393000
70
192
0
VERTEX
8
OBJECT__32
10
34.355999
20
-23.110001
30
-1.454000
70
192
0
VERTEX
8
OBJECT__32
10
33.604000
20
-23.878000
30
-1.502000
70
192
0
VERTEX
8
OBJECT__32
10
34.355999
20
-22.745001
30
4.339000
70
192
0
VERTEX
8
OBJECT__32
10
33.604000
20
-23.500999
30
4.483000
70
192
0
VERTEX
8
OBJECT__32
10
34.355999
20
-20.952000
30
9.859000
70
192
0
VERTEX
8
OBJECT__32
10
33.604000
20
-21.648001
30
10.187000
70
192
0
VERTEX
8
OBJECT__32
10
34.355999
20
-17.841999
30
14.760000
70
192
0
VERTEX
8
OBJECT__32
10
33.604000
20
-18.434999
30
15.250000
70
192
0
VERTEX
8
OBJECT__32
10
34.355999
20
-13.610000
30
18.733000
70
192
0
VERTEX
8
OBJECT__32
10
33.604000
20
-14.063000
30
19.356001
70
192
0
VERTEX
8
OBJECT__32
10
34.355999
20
-8.524000
30
21.528999
70
192
0
VERTEX
8
OBJECT__32
10
33.604000
20
-8.807000
30
22.245001
70
192
0
VERTEX
8
OBJECT__32
10
34.355999
20
-2.902000
30
22.973000
70
192
0
VERTEX
8
OBJECT__32
10
33.604000
20
-2.999000
30
23.736000
70
192
0
VERTEX
8
OBJECT__32
10
34.355999
20
2.902000
30
22.973000
70
192
0
VERTEX
8
OBJECT__32
10
33.604000
20
2.999000
30
23.736000
70
192
0
VERTEX
8
OBJECT__32
10
34.355999
20
8.524000
30
21.528999
70
192
0
VERTEX
8
OBJECT__32
10
33.604000
20
8.807000
30
22.245001
70
192
0
VERTEX
8
OBJECT__32
10
34.355999
20
13.610000
30
18.733000
70
192
0
VERTEX
8
OBJECT__32
10
33.604000
20
14.063000
30
19.356001
70
192
0
VERTEX
8
OBJECT__32
10
34.355999
20
17.841999
30
14.760000
70
192
0
VERTEX
8
OBJECT__32
10
33.604000
20
18.434999
30
15.250000
70
192
0
VERTEX
8
OBJECT__32
10
34.355999
20
20.952000
30
9.859000
70
192
0
VERTEX
8
OBJECT__32
10
33.604000
20
21.648001
30
10.187000
70
192
0
VERTEX
8
OBJECT__32
10
34.355999
20
22.745001
30
4.339000
70
192
0
VERTEX
8
OBJECT__32
10
33.604000
20
23.500999
30
4.483000
70
192
0
VERTEX
8
OBJECT__32
10
34.355999
20
23.110001
30
-1.454000
70
192
0
VERTEX
8
OBJECT__32
10
33.604000
20
23.878000
30
-1.502000
70
192
0
VERTEX
8
OBJECT__32
10
34.355999
20
22.021999
30
-7.155000
70
192
0
VERTEX
8
OBJECT__32
10
33.604000
20
22.754000
30
-7.393000
70
192
0
VERTEX
8
OBJECT__32
10
34.355999
20
19.551001
30
-12.407000
70
192
0
VERTEX
8
OBJECT__32
10
33.604000
20
20.201000
30
-12.820000
70
192
0
VERTEX
8
OBJECT__32
10
34.355999
20
15.851000
30
-16.879999
70
192
0
VERTEX
8
OBJECT__32
10
33.604000
20
16.378000
30
-17.441000
70
192
0
VERTEX
8
OBJECT__32
10
34.355999
20
11.155000
30
-20.291000
70
192
0
VERTEX
8
OBJECT__32
10
33.604000
20
11.526000
30
-20.966000
70
192
0
VERTEX
8
OBJECT__32
10
34.355999
20
5.759000
30
-22.427999
70
192
0
VERTEX
8
OBJECT__32
10
33.604000
20
5.950000
30
-23.173000
70
192
0
VERTEX
8
OBJECT__32
10
35.648998
20
-5.812000
30
-22.636000
70
192
0
VERTEX
8
OBJECT__32
10
35.648998
20
0.000000
30
-23.371000
70
192
0
VERTEX
8
OBJECT__32
10
35.648998
20
-11.259000
30
-20.480000
70
192
0
VERTEX
8
OBJECT__32
10
35.648998
20
-15.998000
30
-17.035999
70
192
0
VERTEX
8
OBJECT__32
10
35.648998
20
-19.733000
30
-12.523000
70
192
0
VERTEX
8
OBJECT__32
10
35.648998
20
-22.226999
30
-7.222000
70
192
0
VERTEX
8
OBJECT__32
10
35.648998
20
-23.325001
30
-1.467000
70
192
0
VERTEX
8
OBJECT__32
10
35.648998
20
-22.957001
30
4.379000
70
192
0
VERTEX
8
OBJECT__32
10
35.648998
20
-21.146000
30
9.951000
70
192
0
VERTEX
8
OBJECT__32
10
35.648998
20
-18.007000
30
14.897000
70
192
0
VERTEX
8
OBJECT__32
10
35.648998
20
-13.737000
30
18.907000
70
192
0
VERTEX
8
OBJECT__32
10
35.648998
20
-8.603000
30
21.730000
70
192
0
VERTEX
8
OBJECT__32
10
35.648998
20
-2.929000
30
23.186001
70
192
0
VERTEX
8
OBJECT__32
10
35.648998
20
2.929000
30
23.186001
70
192
0
VERTEX
8
OBJECT__32
10
35.648998
20
8.603000
30
21.730000
70
192
0
VERTEX
8
OBJECT__32
10
35.648998
20
13.737000
30
18.907000
70
192
0
VERTEX
8
OBJECT__32
10
35.648998
20
18.007000
30
14.897000
70
192
0
VERTEX
8
OBJECT__32
10
35.648998
20
21.146000
30
9.951000
70
192
0
VERTEX
8
OBJECT__32
10
35.648998
20
22.957001
30
4.379000
70
192
0
VERTEX
8
OBJECT__32
10
35.648998
20
23.325001
30
-1.467000
70
192
0
VERTEX
8
OBJECT__32
10
35.648998
20
22.226999
30
-7.222000
70
192
0
VERTEX
8
OBJECT__32
10
35.648998
20
19.733000
30
-12.523000
70
192
0
VERTEX
8
OBJECT__32
10
35.648998
20
15.998000
30
-17.035999
70
192
0
VERTEX
8
OBJECT__32
10
35.648998
20
11.259000
30
-20.480000
70
192
0
VERTEX
8
OBJECT__32
10
35.648998
20
5.812000
30
-22.636000
70
192
0
VERTEX
8
OBJECT__32
10
35.828999
20
-6.042000
30
-23.532000
70
192
0
VERTEX
8
OBJECT__32
10
35.828999
20
0.000000
30
-24.295000
70
192
0
VERTEX
8
OBJECT__32
10
35.828999
20
-11.704000
30
-21.290001
70
192
0
VERTEX
8
OBJECT__32
10
35.828999
20
-16.631001
30
-17.711000
70
192
0
VERTEX
8
OBJECT__32
10
35.828999
20
-20.513000
30
-13.018000
70
192
0
VERTEX
8
OBJECT__32
10
35.828999
20
-23.106001
30
-7.508000
70
192
0
VERTEX
8
OBJECT__32
10
35.828999
20
-24.247000
30
-1.526000
70
192
0
VERTEX
8
OBJECT__32
10
35.828999
20
-23.865000
30
4.553000
70
192
0
VERTEX
8
OBJECT__32
10
35.828999
20
-21.983000
30
10.344000
70
192
0
VERTEX
8
OBJECT__32
10
35.828999
20
-18.719999
30
15.486000
70
192
0
VERTEX
8
OBJECT__32
10
35.828999
20
-14.280000
30
19.655001
70
192
0
VERTEX
8
OBJECT__32
10
35.828999
20
-8.944000
30
22.589001
70
192
0
VERTEX
8
OBJECT__32
10
35.828999
20
-3.045000
30
24.104000
70
192
0
VERTEX
8
OBJECT__32
10
35.828999
20
3.045000
30
24.104000
70
192
0
VERTEX
8
OBJECT__32
10
35.828999
20
8.944000
30
22.589001
70
192
0
VERTEX
8
OBJECT__32
10
35.828999
20
14.280000
30
19.655001
70
192
0
VERTEX
8
OBJECT__32
10
35.828999
20
18.719999
30
15.486000
70
192
0
VERTEX
8
OBJECT__32
10
35.828999
20
21.983000
30
10.344000
70
192
0
VERTEX
8
OBJECT__32
10
35.828999
20
23.865000
30
4.553000
70
192
0
VERTEX
8
OBJECT__32
10
35.828999
20
24.247000
30
-1.526000
70
192
0
VERTEX
8
OBJECT__32
10
35.828999
20
23.106001
30
-7.508000
70
192
0
VERTEX
8
OBJECT__32
10
35.828999
20
20.513000
30
-13.018000
70
192
0
VERTEX
8
OBJECT__32
10
35.828999
20
16.631001
30
-17.711000
70
192
0
VERTEX
8
OBJECT__32
10
35.828999
20
11.704000
30
-21.290001
70
192
0
VERTEX
8
OBJECT__32
10
35.828999
20
6.042000
30
-23.532000
70
192
0
VERTEX
8
OBJECT__32
10
34.665001
20
-6.154000
30
-23.969000
70
192
0
VERTEX
8
OBJECT__32
10
34.665001
20
0.000000
30
-24.746000
70
192
0
VERTEX
8
OBJECT__32
10
34.665001
20
-11.922000
30
-21.684999
70
192
0
VERTEX
8
OBJECT__32
10
34.665001
20
-16.940001
30
-18.039000
70
192
0
VERTEX
8
OBJECT__32
10
34.665001
20
-20.893999
30
-13.260000
70
192
0
VERTEX
8
OBJECT__32
10
34.665001
20
-23.535000
30
-7.647000
70
192
0
VERTEX
8
OBJECT__32
10
34.665001
20
-24.697001
30
-1.554000
70
192
0
VERTEX
8
OBJECT__32
10
34.665001
20
-24.308001
30
4.637000
70
192
0
VERTEX
8
OBJECT__32
10
34.665001
20
-22.391001
30
10.536000
70
192
0
VERTEX
8
OBJECT__32
10
34.665001
20
-19.066999
30
15.774000
70
192
0
VERTEX
8
OBJECT__32
10
34.665001
20
-14.545000
30
20.020000
70
192
0
VERTEX
8
OBJECT__32
10
34.665001
20
-9.110000
30
23.007999
70
192
0
VERTEX
8
OBJECT__32
10
34.665001
20
-3.102000
30
24.551001
70
192
0
VERTEX
8
OBJECT__32
10
34.665001
20
3.102000
30
24.551001
70
192
0
VERTEX
8
OBJECT__32
10
34.665001
20
9.110000
30
23.007999
70
192
0
VERTEX
8
OBJECT__32
10
34.665001
20
14.545000
30
20.020000
70
192
0
VERTEX
8
OBJECT__32
10
34.665001
20
19.066999
30
15.774000
70
192
0
VERTEX
8
OBJECT__32
10
34.665001
20
22.391001
30
10.536000
70
192
0
VERTEX
8
OBJECT__32
10
34.665001
20
24.308001
30
4.637000
70
192
0
VERTEX
8
OBJECT__32
10
34.665001
20
24.697001
30
-1.554000
70
192
0
VERTEX
8
OBJECT__32
10
34.665001
20
23.535000
30
-7.647000
70
192
0
VERTEX
8
OBJECT__32
10
34.665001
20
20.893999
30
-13.260000
70
192
0
VERTEX
8
OBJECT__32
10
34.665001
20
16.940001
30
-18.039000
70
192
0
VERTEX
8
OBJECT__32
10
34.665001
20
11.922000
30
-21.684999
70
192
0
VERTEX
8
OBJECT__32
10
34.665001
20
6.154000
30
-23.969000
70
192
0
VERTEX
8
OBJECT__32
10
33.646999
20
-6.005000
30
-23.386999
70
192
0
VERTEX
8
OBJECT__32
10
33.646999
20
0.000000
30
-24.146000
70
192
0
VERTEX
8
OBJECT__32
10
33.646999
20
-11.632000
30
-21.159000
70
192
0
VERTEX
8
OBJECT__32
10
33.646999
20
-16.528999
30
-17.601999
70
192
0
VERTEX
8
OBJECT__32
10
33.646999
20
-20.386999
30
-12.938000
70
192
0
VERTEX
8
OBJECT__32
10
33.646999
20
-22.964001
30
-7.462000
70
192
0
VERTEX
8
OBJECT__32
10
33.646999
20
-24.098000
30
-1.516000
70
192
0
VERTEX
8
OBJECT__32
10
33.646999
20
-23.718000
30
4.525000
70
192
0
VERTEX
8
OBJECT__32
10
33.646999
20
-21.848000
30
10.281000
70
192
0
VERTEX
8
OBJECT__32
10
33.646999
20
-18.605000
30
15.391000
70
192
0
VERTEX
8
OBJECT__32
10
33.646999
20
-14.193000
30
19.534000
70
192
0
VERTEX
8
OBJECT__32
10
33.646999
20
-8.889000
30
22.450001
70
192
0
VERTEX
8
OBJECT__32
10
33.646999
20
-3.026000
30
23.955999
70
192
0
VERTEX
8
OBJECT__32
10
33.646999
20
3.026000
30
23.955999
70
192
0
VERTEX
8
OBJECT__32
10
33.646999
20
8.889000
30
22.450001
70
192
0
VERTEX
8
OBJECT__32
10
33.646999
20
14.193000
30
19.534000
70
192
0
VERTEX
8
OBJECT__32
10
33.646999
20
18.605000
30
15.391000
70
192
0
VERTEX
8
OBJECT__32
10
33.646999
20
21.848000
30
10.281000
70
192
0
VERTEX
8
OBJECT__32
10
33.646999
20
23.718000
30
4.525000
70
192
0
VERTEX
8
OBJECT__32
10
33.646999
20
24.098000
30
-1.516000
70
192
0
VERTEX
8
OBJECT__32
10
33.646999
20
22.964001
30
-7.462000
70
192
0
VERTEX
8
OBJECT__32
10
33.646999
20
20.386999
30
-12.938000
70
192
0
VERTEX
8
OBJECT__32
10
33.646999
20
16.528999
30
-17.601999
70
192
0
VERTEX
8
OBJECT__32
10
33.646999
20
11.632000
30
-21.159000
70
192
0
VERTEX
8
OBJECT__32
10
33.646999
20
6.005000
30
-23.386999
70
192
0
VERTEX
8
OBJECT__32
10
0
20
0
30
0
70
128
71
1
72
2
73
3
0
VERTEX
8
OBJECT__32
10
0
20
0
30
0
70
128
71
1
72
4
73
2
0
VERTEX
8
OBJECT__32
10
0
20
0
30
0
70
128
71
4
72
5
73
2
0
VERTEX
8
OBJECT__32
10
0
20
0
30
0
70
128
71
4
72
6
73
5
0
VERTEX
8
OBJECT__32
10
0
20
0
30
0
70
128
71
6
72
7
73
5
0
VERTEX
8
OBJECT__32
10
0
20
0
30
0
70
128
71
6
72
8
73
7
0
VERTEX
8
OBJECT__32
10
0
20
0
30
0
70
128
71
8
72
9
73
7
0
VERTEX
8
OBJECT__32
10
0
20
0
30
0
70
128
71
8
72
10
73
9
0
VERTEX
8
OBJECT__32
10
0
20
0
30
0
70
128
71
10
72
11
73
9
0
VERTEX
8
OBJECT__32
10
0
20
0
30
0
70
128
71
10
72
12
73
11
0
VERTEX
8
OBJECT__32
10
0
20
0
30
0
70
128
71
12
72
13
73
11
0
VERTEX
8
OBJECT__32
10
0
20
0
30
0
70
128
71
12
72
14
73
13
0
VERTEX
8
OBJECT__32
10
0
20
0
30
0
70
128
71
14
72
15
73
13
0
VERTEX
8
OBJECT__32
10
0
20
0
30
0
70
128
71
14
72
16
73
15
0
VERTEX
8
OBJECT__32
10
0
20
0
30
0
70
128
71
16
72
17
73
15
0
VERTEX
8
OBJECT__32
10
0
20
0
30
0
70
128
71
16
72
18
73
17
0
VERTEX
8
OBJECT__32
10
0
20
0
30
0
70
128
71
18
72
19
73
17
0
VERTEX
8
OBJECT__32
10
0
20
0
30
0
70
128
71
18
72
20
73
19
0
VERTEX
8
OBJECT__32
10
0
20
0
30
0
70
128
71
20
72
21
73
19
0
VERTEX
8
OBJECT__32
10
0
20
0
30
0
70
128
71
20
72
22
73
21
0
VERTEX
8
OBJECT__32
10
0
20
0
30
0
70
128
71
22
72
23
73
21
0
VERTEX
8
OBJECT__32
10
0
20
0
30
0
70
128
71
22
72
24
73
23
0
VERTEX
8
OBJECT__32
10
0
20
0
30
0
70
128
71
24
72
25
73
23
0
VERTEX
8
OBJECT__32
10
0
20
0
30
0
70
128
71
24
72
26
73
25
0
VERTEX
8
OBJECT__32
10
0
20
0
30
0
70
128
71
26
72
27
73
25
0
VERTEX
8
OBJECT__32
10
0
20
0
30
0
70
128
71
26
72
28
73
27
0
VERTEX
8
OBJECT__32
10
0
20
0
30
0
70
128
71
28
72
29
73
27
0
VERTEX
8
OBJECT__32
10
0
20
0
30
0
70
128
71
28
72
30
73
29
0
VERTEX
8
OBJECT__32
10
0
20
0
30
0
70
128
71
30
72
31
73
29
0
VERTEX
8
OBJECT__32
10
0
20
0
30
0
70
128
71
30
72
32
73
31
0
VERTEX
8
OBJECT__32
10
0
20
0
30
0
70
128
71
32
72
33
73
31
0
VERTEX
8
OBJECT__32
10
0
20
0
30
0
70
128
71
32
72
34
73
33
0
VERTEX
8
OBJECT__32
10
0
20
0
30
0
70
128
71
34
72
35
73
33
0
VERTEX
8
OBJECT__32
10
0
20
0
30
0
70
128
71
34
72
36
73
35
0
VERTEX
8
OBJECT__32
10
0
20
0
30
0
70
128
71
36
72
37
73
35
0
VERTEX
8
OBJECT__32
10
0
20
0
30
0
70
128
71
36
72
38
73
37
0
VERTEX
8
OBJECT__32
10
0
20
0
30
0
70
128
71
38
72
39
73
37
0
VERTEX
8
OBJECT__32
10
0
20
0
30
0
70
128
71
38
72
40
73
39
0
VERTEX
8
OBJECT__32
10
0
20
0
30
0
70
128
71
40
72
41
73
39
0
VERTEX
8
OBJECT__32
10
0
20
0
30
0
70
128
71
40
72
42
73
41
0
VERTEX
8
OBJECT__32
10
0
20
0
30
0
70
128
71
42
72
43
73
41
0
VERTEX
8
OBJECT__32
10
0
20
0
30
0
70
128
71
42
72
44
73
43
0
VERTEX
8
OBJECT__32
10
0
20
0
30
0
70
128
71
44
72
45
73
43
0
VERTEX
8
OBJECT__32
10
0
20
0
30
0
70
128
71
44
72
46
73
45
0
VERTEX
8
OBJECT__32
10
0
20
0
30
0
70
128
71
46
72
47
73
45
0
VERTEX
8
OBJECT__32
10
0
20
0
30
0
70
128
71
46
72
48
73
47
0
VERTEX
8
OBJECT__32
10
0
20
0
30
0
70
128
71
48
72
49
73
47
0
VERTEX
8
OBJECT__32
10
0
20
0
30
0
70
128
71
48
72
50
73
49
0
VERTEX
8
OBJECT__32
10
0
20
0
30
0
70
128
71
50
72
3
73
49
0
VERTEX
8
OBJECT__32
10
0
20
0
30
0
70
128
71
50
72
1
73
3
0
VERTEX
8
OBJECT__32
10
0
20
0
30
0
70
128
71
3
72
51
73
52
0
VERTEX
8
OBJECT__32
10
0
20
0
30
0
70
128
71
3
72
2
73
51
0
VERTEX
8
OBJECT__32
10
0
20
0
30
0
70
128
71
2
72
53
73
51
0
VERTEX
8
OBJECT__32
10
0
20
0
30
0
70
128
71
2
72
5
73
53
0
VERTEX
8
OBJECT__32
10
0
20
0
30
0
70
128
71
5
72
54
73
53
0
VERTEX
8
OBJECT__32
10
0
20
0
30
0
70
128
71
5
72
7
73
54
0
VERTEX
8
OBJECT__32
10
0
20
0
30
0
70
128
71
7
72
55
73
54
0
VERTEX
8
OBJECT__32
10
0
20
0
30
0
70
128
71
7
72
9
73
55
0
VERTEX
8
OBJECT__32
10
0
20
0
30
0
70
128
71
9
72
56
73
55
0
VERTEX
8
OBJECT__32
10
0
20
0
30
0
70
128
71
9
72
11
73
56
0
VERTEX
8
OBJECT__32
10
0
20
0
30
0
70
128
71
11
72
57
73
56
0
VERTEX
8
OBJECT__32
10
0
20
0
30
0
70
128
71
11
72
13
73
57
0
VERTEX
8
OBJECT__32
10
0
20
0
30
0
70
128
71
13
72
58
73
57
0
VERTEX
8
OBJECT__32
10
0
20
0
30
0
70
128
71
13
72
15
73
58
0
VERTEX
8
OBJECT__32
10
0
20
0
30
0
70
128
71
15
72
59
73
58
0
VERTEX
8
OBJECT__32
10
0
20
0
30
0
70
128
71
15
72
17
73
59
0
VERTEX
8
OBJECT__32
10
0
20
0
30
0
70
128
71
17
72
60
73
59
0
VERTEX
8
OBJECT__32
10
0
20
0
30
0
70
128
71
17
72
19
73
60
0
VERTEX
8
OBJECT__32
10
0
20
0
30
0
70
128
71
19
72
61
73
60
0
VERTEX
8
OBJECT__32
10
0
20
0
30
0
70
128
71
19
72
21
73
61
0
VERTEX
8
OBJECT__32
10
0
20
0
30
0
70
128
71
21
72
62
73
61
0
VERTEX
8
OBJECT__32
10
0
20
0
30
0
70
128
71
21
72
23
73
62
0
VERTEX
8
OBJECT__32
10
0
20
0
30
0
70
128
71
23
72
63
73
62
0
VERTEX
8
OBJECT__32
10
0
20
0
30
0
70
128
71
23
72
25
73
63
0
VERTEX
8
OBJECT__32
10
0
20
0
30
0
70
128
71
25
72
64
73
63
0
VERTEX
8
OBJECT__32
10
0
20
0
30
0
70
128
71
25
72
27
73
64
0
VERTEX
8
OBJECT__32
10
0
20
0
30
0
70
128
71
27
72
65
73
64
0
VERTEX
8
OBJECT__32
10
0
20
0
30
0
70
128
71
27
72
29
73
65
0
VERTEX
8
OBJECT__32
10
0
20
0
30
0
70
128
71
29
72
66
73
65
0
VERTEX
8
OBJECT__32
10
0
20
0
30
0
70
128
71
29
72
31
73
66
0
VERTEX
8
OBJECT__32
10
0
20
0
30
0
70
128
71
31
72
67
73
66
0
VERTEX
8
OBJECT__32
10
0
20
0
30
0
70
128
71
31
72
33
73
67
0
VERTEX
8
OBJECT__32
10
0
20
0
30
0
70
128
71
33
72
68
73
67
0
VERTEX
8
OBJECT__32
10
0
20
0
30
0
70
128
71
33
72
35
73
68
0
VERTEX
8
OBJECT__32
10
0
20
0
30
0
70
128
71
35
72
69
73
68
0
VERTEX
8
OBJECT__32
10
0
20
0
30
0
70
128
71
35
72
37
73
69
0
VERTEX
8
OBJECT__32
10
0
20
0
30
0
70
128
71
37
72
70
73
69
0
VERTEX
8
OBJECT__32
10
0
20
0
30
0
70
128
71
37
72
39
73
70
0
VERTEX
8
OBJECT__32
10
0
20
0
30
0
70
128
71
39
72
71
73
70
0
VERTEX
8
OBJECT__32
10
0
20
0
30
0
70
128
71
39
72
41
73
71
0
VERTEX
8
OBJECT__32
10
0
20
0
30
0
70
128
71
41
72
72
73
71
0
VERTEX
8
OBJECT__32
10
0
20
0
30
0
70
128
71
41
72
43
73
72
0
VERTEX
8
OBJECT__32
10
0
20
0
30
0
70
128
71
43
72
73
73
72
0
VERTEX
8
OBJECT__32
10
0
20
0
30
0
70
128
71
43
72
45
73
73
0
VERTEX
8
OBJECT__32
10
0
20
0
30
0
70
128
71
45
72
74
73
73
0
VERTEX
8
OBJECT__32
10
0
20
0
30
0
70
128
71
45
72
47
73
74
0
VERTEX
8
OBJECT__32
10
0
20
0
30
0
70
128
71
47
72
75
73
74
0
VERTEX
8
OBJECT__32
10
0
20
0
30
0
70
128
71
47
72
49
73
75
0
VERTEX
8
OBJECT__32
10
0
20
0
30
0
70
128
71
49
72
52
73
75
0
VERTEX
8
OBJECT__32
10
0
20
0
30
0
70
128
71
49
72
3
73
52
0
VERTEX
8
OBJECT__32
10
0
20
0
30
0
70
128
71
52
72
76
73
77
0
VERTEX
8
OBJECT__32
10
0
20
0
30
0
70
128
71
52
72
51
73
76
0
VERTEX
8
OBJECT__32
10
0
20
0
30
0
70
128
71
51
72
78
73
76
0
VERTEX
8
OBJECT__32
10
0
20
0
30
0
70
128
71
51
72
53
73
78
0
VERTEX
8
OBJECT__32
10
0
20
0
30
0
70
128
71
53
72
79
73
78
0
VERTEX
8
OBJECT__32
10
0
20
0
30
0
70
128
71
53
72
54
73
79
0
VERTEX
8
OBJECT__32
10
0
20
0
30
0
70
128
71
54
72
80
73
79
0
VERTEX
8
OBJECT__32
10
0
20
0
30
0
70
128
71
54
72
55
73
80
0
VERTEX
8
OBJECT__32
10
0
20
0
30
0
70
128
71
55
72
81
73
80
0
VERTEX
8
OBJECT__32
10
0
20
0
30
0
70
128
71
55
72
56
73
81
0
VERTEX
8
OBJECT__32
10
0
20
0
30
0
70
128
71
56
72
82
73
81
0
VERTEX
8
OBJECT__32
10
0
20
0
30
0
70
128
71
56
72
57
73
82
0
VERTEX
8
OBJECT__32
10
0
20
0
30
0
70
128
71
57
72
83
73
82
0
VERTEX
8
OBJECT__32
10
0
20
0
30
0
70
128
71
57
72
58
73
83
0
VERTEX
8
OBJECT__32
10
0
20
0
30
0
70
128
71
58
72
84
73
83
0
VERTEX
8
OBJECT__32
10
0
20
0
30
0
70
128
71
58
72
59
73
84
0
VERTEX
8
OBJECT__32
10
0
20
0
30
0
70
128
71
59
72
85
73
84
0
VERTEX
8
OBJECT__32
10
0
20
0
30
0
70
128
71
59
72
60
73
85
0
VERTEX
8
OBJECT__32
10
0
20
0
30
0
70
128
71
60
72
86
73
85
0
VERTEX
8
OBJECT__32
10
0
20
0
30
0
70
128
71
60
72
61
73
86
0
VERTEX
8
OBJECT__32
10
0
20
0
30
0
70
128
71
61
72
87
73
86
0
VERTEX
8
OBJECT__32
10
0
20
0
30
0
70
128
71
61
72
62
73
87
0
VERTEX
8
OBJECT__32
10
0
20
0
30
0
70
128
71
62
72
88
73
87
0
VERTEX
8
OBJECT__32
10
0
20
0
30
0
70
128
71
62
72
63
73
88
0
VERTEX
8
OBJECT__32
10
0
20
0
30
0
70
128
71
63
72
89
73
88
0
VERTEX
8
OBJECT__32
10
0
20
0
30
0
70
128
71
63
72
64
73
89
0
VERTEX
8
OBJECT__32
10
0
20
0
30
0
70
128
71
64
72
90
73
89
0
VERTEX
8
OBJECT__32
10
0
20
0
30
0
70
128
71
64
72
65
73
90
0
VERTEX
8
OBJECT__32
10
0
20
0
30
0
70
128
71
65
72
91
73
90
0
VERTEX
8
OBJECT__32
10
0
20
0
30
0
70
128
71
65
72
66
73
91
0
VERTEX
8
OBJECT__32
10
0
20
0
30
0
70
128
71
66
72
92
73
91
0
VERTEX
8
OBJECT__32
10
0
20
0
30
0
70
128
71
66
72
67
73
92
0
VERTEX
8
OBJECT__32
10
0
20
0
30
0
70
128
71
67
72
93
73
92
0
VERTEX
8
OBJECT__32
10
0
20
0
30
0
70
128
71
67
72
68
73
93
0
VERTEX
8
OBJECT__32
10
0
20
0
30
0
70
128
71
68
72
94
73
93
0
VERTEX
8
OBJECT__32
10
0
20
0
30
0
70
128
71
68
72
69
73
94
0
VERTEX
8
OBJECT__32
10
0
20
0
30
0
70
128
71
69
72
95
73
94
0
VERTEX
8
OBJECT__32
10
0
20
0
30
0
70
128
71
69
72
70
73
95
0
VERTEX
8
OBJECT__32
10
0
20
0
30
0
70
128
71
70
72
96
73
95
0
VERTEX
8
OBJECT__32
10
0
20
0
30
0
70
128
71
70
72
71
73
96
0
VERTEX
8
OBJECT__32
10
0
20
0
30
0
70
128
71
71
72
97
73
96
0
VERTEX
8
OBJECT__32
10
0
20
0
30
0
70
128
71
71
72
72
73
97
0
VERTEX
8
OBJECT__32
10
0
20
0
30
0
70
128
71
72
72
98
73
97
0
VERTEX
8
OBJECT__32
10
0
20
0
30
0
70
128
71
72
72
73
73
98
0
VERTEX
8
OBJECT__32
10
0
20
0
30
0
70
128
71
73
72
99
73
98
0
VERTEX
8
OBJECT__32
10
0
20
0
30
0
70
128
71
73
72
74
73
99
0
VERTEX
8
OBJECT__32
10
0
20
0
30
0
70
128
71
74
72
100
73
99
0
VERTEX
8
OBJECT__32
10
0
20
0
30
0
70
128
71
74
72
75
73
100
0
VERTEX
8
OBJECT__32
10
0
20
0
30
0
70
128
71
75
72
77
73
100
0
VERTEX
8
OBJECT__32
10
0
20
0
30
0
70
128
71
75
72
52
73
77
0
VERTEX
8
OBJECT__32
10
0
20
0
30
0
70
128
71
77
72
101
73
102
0
VERTEX
8
OBJECT__32
10
0
20
0
30
0
70
128
71
77
72
76
73
101
0
VERTEX
8
OBJECT__32
10
0
20
0
30
0
70
128
71
76
72
103
73
101
0
VERTEX
8
OBJECT__32
10
0
20
0
30
0
70
128
71
76
72
78
73
103
0
VERTEX
8
OBJECT__32
10
0
20
0
30
0
70
128
71
78
72
104
73
103
0
VERTEX
8
OBJECT__32
10
0
20
0
30
0
70
128
71
78
72
79
73
104
0
VERTEX
8
OBJECT__32
10
0
20
0
30
0
70
128
71
79
72
105
73
104
0
VERTEX
8
OBJECT__32
10
0
20
0
30
0
70
128
71
79
72
80
73
105
0
VERTEX
8
OBJECT__32
10
0
20
0
30
0
70
128
71
80
72
106
73
105
0
VERTEX
8
OBJECT__32
10
0
20
0
30
0
70
128
71
80
72
81
73
106
0
VERTEX
8
OBJECT__32
10
0
20
0
30
0
70
128
71
81
72
107
73
106
0
VERTEX
8
OBJECT__32
10
0
20
0
30
0
70
128
71
81
72
82
73
107
0
VERTEX
8
OBJECT__32
10
0
20
0
30
0
70
128
71
82
72
108
73
107
0
VERTEX
8
OBJECT__32
10
0
20
0
30
0
70
128
71
82
72
83
73
108
0
VERTEX
8
OBJECT__32
10
0
20
0
30
0
70
128
71
83
72
109
73
108
0
VERTEX
8
OBJECT__32
10
0
20
0
30
0
70
128
71
83
72
84
73
109
0
VERTEX
8
OBJECT__32
10
0
20
0
30
0
70
128
71
84
72
110
73
109
0
VERTEX
8
OBJECT__32
10
0
20
0
30
0
70
128
71
84
72
85
73
110
0
VERTEX
8
OBJECT__32
10
0
20
0
30
0
70
128
71
85
72
111
73
110
0
VERTEX
8
OBJECT__32
10
0
20
0
30
0
70
128
71
85
72
86
73
111
0
VERTEX
8
OBJECT__32
10
0
20
0
30
0
70
128
71
86
72
112
73
111
0
VERTEX
8
OBJECT__32
10
0
20
0
30
0
70
128
71
86
72
87
73
112
0
VERTEX
8
OBJECT__32
10
0
20
0
30
0
70
128
71
87
72
113
73
112
0
VERTEX
8
OBJECT__32
10
0
20
0
30
0
70
128
71
87
72
88
73
113
0
VERTEX
8
OBJECT__32
10
0
20
0
30
0
70
128
71
88
72
114
73
113
0
VERTEX
8
OBJECT__32
10
0
20
0
30
0
70
128
71
88
72
89
73
114
0
VERTEX
8
OBJECT__32
10
0
20
0
30
0
70
128
71
89
72
115
73
114
0
VERTEX
8
OBJECT__32
10
0
20
0
30
0
70
128
71
89
72
90
73
115
0
VERTEX
8
OBJECT__32
10
0
20
0
30
0
70
128
71
90
72
116
73
115
0
VERTEX
8
OBJECT__32
10
0
20
0
30
0
70
128
71
90
72
91
73
116
0
VERTEX
8
OBJECT__32
10
0
20
0
30
0
70
128
71
91
72
117
73
116
0
VERTEX
8
OBJECT__32
10
0
20
0
30
0
70
128
71
91
72
92
73
117
0
VERTEX
8
OBJECT__32
10
0
20
0
30
0
70
128
71
92
72
118
73
117
0
VERTEX
8
OBJECT__32
10
0
20
0
30
0
70
128
71
92
72
93
73
118
0
VERTEX
8
OBJECT__32
10
0
20
0
30
0
70
128
71
93
72
119
73
118
0
VERTEX
8
OBJECT__32
10
0
20
0
30
0
70
128
71
93
72
94
73
119
0
VERTEX
8
OBJECT__32
10
0
20
0
30
0
70
128
71
94
72
120
73
119
0
VERTEX
8
OBJECT__32
10
0
20
0
30
0
70
128
71
94
72
95
73
120
0
VERTEX
8
OBJECT__32
10
0
20
0
30
0
70
128
71
95
72
121
73
120
0
VERTEX
8
OBJECT__32
10
0
20
0
30
0
70
128
71
95
72
96
73
121
0
VERTEX
8
OBJECT__32
10
0
20
0
30
0
70
128
71
96
72
122
73
121
0
VERTEX
8
OBJECT__32
10
0
20
0
30
0
70
128
71
96
72
97
73
122
0
VERTEX
8
OBJECT__32
10
0
20
0
30
0
70
128
71
97
72
123
73
122
0
VERTEX
8
OBJECT__32
10
0
20
0
30
0
70
128
71
97
72
98
73
123
0
VERTEX
8
OBJECT__32
10
0
20
0
30
0
70
128
71
98
72
124
73
123
0
VERTEX
8
OBJECT__32
10
0
20
0
30
0
70
128
71
98
72
99
73
124
0
VERTEX
8
OBJECT__32
10
0
20
0
30
0
70
128
71
99
72
125
73
124
0
VERTEX
8
OBJECT__32
10
0
20
0
30
0
70
128
71
99
72
100
73
125
0
VERTEX
8
OBJECT__32
10
0
20
0
30
0
70
128
71
100
72
102
73
125
0
VERTEX
8
OBJECT__32
10
0
20
0
30
0
70
128
71
100
72
77
73
102
0
VERTEX
8
OBJECT__32
10
0
20
0
30
0
70
128
71
102
72
126
73
127
0
VERTEX
8
OBJECT__32
10
0
20
0
30
0
70
128
71
102
72
101
73
126
0
VERTEX
8
OBJECT__32
10
0
20
0
30
0
70
128
71
101
72
128
73
126
0
VERTEX
8
OBJECT__32
10
0
20
0
30
0
70
128
71
101
72
103
73
128
0
VERTEX
8
OBJECT__32
10
0
20
0
30
0
70
128
71
103
72
129
73
128
0
VERTEX
8
OBJECT__32
10
0
20
0
30
0
70
128
71
103
72
104
73
129
0
VERTEX
8
OBJECT__32
10
0
20
0
30
0
70
128
71
104
72
130
73
129
0
VERTEX
8
OBJECT__32
10
0
20
0
30
0
70
128
71
104
72
105
73
130
0
VERTEX
8
OBJECT__32
10
0
20
0
30
0
70
128
71
105
72
131
73
130
0
VERTEX
8
OBJECT__32
10
0
20
0
30
0
70
128
71
105
72
106
73
131
0
VERTEX
8
OBJECT__32
10
0
20
0
30
0
70
128
71
106
72
132
73
131
0
VERTEX
8
OBJECT__32
10
0
20
0
30
0
70
128
71
106
72
107
73
132
0
VERTEX
8
OBJECT__32
10
0
20
0
30
0
70
128
71
107
72
133
73
132
0
VERTEX
8
OBJECT__32
10
0
20
0
30
0
70
128
71
107
72
108
73
133
0
VERTEX
8
OBJECT__32
10
0
20
0
30
0
70
128
71
108
72
134
73
133
0
VERTEX
8
OBJECT__32
10
0
20
0
30
0
70
128
71
108
72
109
73
134
0
VERTEX
8
OBJECT__32
10
0
20
0
30
0
70
128
71
109
72
135
73
134
0
VERTEX
8
OBJECT__32
10
0
20
0
30
0
70
128
71
109
72
110
73
135
0
VERTEX
8
OBJECT__32
10
0
20
0
30
0
70
128
71
110
72
136
73
135
0
VERTEX
8
OBJECT__32
10
0
20
0
30
0
70
128
71
110
72
111
73
136
0
VERTEX
8
OBJECT__32
10
0
20
0
30
0
70
128
71
111
72
137
73
136
0
VERTEX
8
OBJECT__32
10
0
20
0
30
0
70
128
71
111
72
112
73
137
0
VERTEX
8
OBJECT__32
10
0
20
0
30
0
70
128
71
112
72
138
73
137
0
VERTEX
8
OBJECT__32
10
0
20
0
30
0
70
128
71
112
72
113
73
138
0
VERTEX
8
OBJECT__32
10
0
20
0
30
0
70
128
71
113
72
139
73
138
0
VERTEX
8
OBJECT__32
10
0
20
0
30
0
70
128
71
113
72
114
73
139
0
VERTEX
8
OBJECT__32
10
0
20
0
30
0
70
128
71
114
72
140
73
139
0
VERTEX
8
OBJECT__32
10
0
20
0
30
0
70
128
71
114
72
115
73
140
0
VERTEX
8
OBJECT__32
10
0
20
0
30
0
70
128
71
115
72
141
73
140
0
VERTEX
8
OBJECT__32
10
0
20
0
30
0
70
128
71
115
72
116
73
141
0
VERTEX
8
OBJECT__32
10
0
20
0
30
0
70
128
71
116
72
142
73
141
0
VERTEX
8
OBJECT__32
10
0
20
0
30
0
70
128
71
116
72
117
73
142
0
VERTEX
8
OBJECT__32
10
0
20
0
30
0
70
128
71
117
72
143
73
142
0
VERTEX
8
OBJECT__32
10
0
20
0
30
0
70
128
71
117
72
118
73
143
0
VERTEX
8
OBJECT__32
10
0
20
0
30
0
70
128
71
118
72
144
73
143
0
VERTEX
8
OBJECT__32
10
0
20
0
30
0
70
128
71
118
72
119
73
144
0
VERTEX
8
OBJECT__32
10
0
20
0
30
0
70
128
71
119
72
145
73
144
0
VERTEX
8
OBJECT__32
10
0
20
0
30
0
70
128
71
119
72
120
73
145
0
VERTEX
8
OBJECT__32
10
0
20
0
30
0
70
128
71
120
72
146
73
145
0
VERTEX
8
OBJECT__32
10
0
20
0
30
0
70
128
71
120
72
121
73
146
0
VERTEX
8
OBJECT__32
10
0
20
0
30
0
70
128
71
121
72
147
73
146
0
VERTEX
8
OBJECT__32
10
0
20
0
30
0
70
128
71
121
72
122
73
147
0
VERTEX
8
OBJECT__32
10
0
20
0
30
0
70
128
71
122
72
148
73
147
0
VERTEX
8
OBJECT__32
10
0
20
0
30
0
70
128
71
122
72
123
73
148
0
VERTEX
8
OBJECT__32
10
0
20
0
30
0
70
128
71
123
72
149
73
148
0
VERTEX
8
OBJECT__32
10
0
20
0
30
0
70
128
71
123
72
124
73
149
0
VERTEX
8
OBJECT__32
10
0
20
0
30
0
70
128
71
124
72
150
73
149
0
VERTEX
8
OBJECT__32
10
0
20
0
30
0
70
128
71
124
72
125
73
150
0
VERTEX
8
OBJECT__32
10
0
20
0
30
0
70
128
71
125
72
127
73
150
0
VERTEX
8
OBJECT__32
10
0
20
0
30
0
70
128
71
125
72
102
73
127
0
VERTEX
8
OBJECT__32
10
0
20
0
30
0
70
128
71
127
72
4
73
1
0
VERTEX
8
OBJECT__32
10
0
20
0
30
0
70
128
71
127
72
126
73
4
0
VERTEX
8
OBJECT__32
10
0
20
0
30
0
70
128
71
126
72
6
73
4
0
VERTEX
8
OBJECT__32
10
0
20
0
30
0
70
128
71
126
72
128
73
6
0
VERTEX
8
OBJECT__32
10
0
20
0
30
0
70
128
71
128
72
8
73
6
0
VERTEX
8
OBJECT__32
10
0
20
0
30
0
70
128
71
128
72
129
73
8
0
VERTEX
8
OBJECT__32
10
0
20
0
30
0
70
128
71
129
72
10
73
8
0
VERTEX
8
OBJECT__32
10
0
20
0
30
0
70
128
71
129
72
130
73
10
0
VERTEX
8
OBJECT__32
10
0
20
0
30
0
70
128
71
130
72
12
73
10
0
VERTEX
8
OBJECT__32
10
0
20
0
30
0
70
128
71
130
72
131
73
12
0
VERTEX
8
OBJECT__32
10
0
20
0
30
0
70
128
71
131
72
14
73
12
0
VERTEX
8
OBJECT__32
10
0
20
0
30
0
70
128
71
131
72
132
73
14
0
VERTEX
8
OBJECT__32
10
0
20
0
30
0
70
128
71
132
72
16
73
14
0
VERTEX
8
OBJECT__32
10
0
20
0
30
0
70
128
71
132
72
133
73
16
0
VERTEX
8
OBJECT__32
10
0
20
0
30
0
70
128
71
133
72
18
73
16
0
VERTEX
8
OBJECT__32
10
0
20
0
30
0
70
128
71
133
72
134
73
18
0
VERTEX
8
OBJECT__32
10
0
20
0
30
0
70
128
71
134
72
20
73
18
0
VERTEX
8
OBJECT__32
10
0
20
0
30
0
70
128
71
134
72
135
73
20
0
VERTEX
8
OBJECT__32
10
0
20
0
30
0
70
128
71
135
72
22
73
20
0
VERTEX
8
OBJECT__32
10
0
20
0
30
0
70
128
71
135
72
136
73
22
0
VERTEX
8
OBJECT__32
10
0
20
0
30
0
70
128
71
136
72
24
73
22
0
VERTEX
8
OBJECT__32
10
0
20
0
30
0
70
128
71
136
72
137
73
24
0
VERTEX
8
OBJECT__32
10
0
20
0
30
0
70
128
71
137
72
26
73
24
0
VERTEX
8
OBJECT__32
10
0
20
0
30
0
70
128
71
137
72
138
73
26
0
VERTEX
8
OBJECT__32
10
0
20
0
30
0
70
128
71
138
72
28
73
26
0
VERTEX
8
OBJECT__32
10
0
20
0
30
0
70
128
71
138
72
139
73
28
0
VERTEX
8
OBJECT__32
10
0
20
0
30
0
70
128
71
139
72
30
73
28
0
VERTEX
8
OBJECT__32
10
0
20
0
30
0
70
128
71
139
72
140
73
30
0
VERTEX
8
OBJECT__32
10
0
20
0
30
0
70
128
71
140
72
32
73
30
0
VERTEX
8
OBJECT__32
10
0
20
0
30
0
70
128
71
140
72
141
73
32
0
VERTEX
8
OBJECT__32
10
0
20
0
30
0
70
128
71
141
72
34
73
32
0
VERTEX
8
OBJECT__32
10
0
20
0
30
0
70
128
71
141
72
142
73
34
0
VERTEX
8
OBJECT__32
10
0
20
0
30
0
70
128
71
142
72
36
73
34
0
VERTEX
8
OBJECT__32
10
0
20
0
30
0
70
128
71
142
72
143
73
36
0
VERTEX
8
OBJECT__32
10
0
20
0
30
0
70
128
71
143
72
38
73
36
0
VERTEX
8
OBJECT__32
10
0
20
0
30
0
70
128
71
143
72
144
73
38
0
VERTEX
8
OBJECT__32
10
0
20
0
30
0
70
128
71
144
72
40
73
38
0
VERTEX
8
OBJECT__32
10
0
20
0
30
0
70
128
71
144
72
145
73
40
0
VERTEX
8
OBJECT__32
10
0
20
0
30
0
70
128
71
145
72
42
73
40
0
VERTEX
8
OBJECT__32
10
0
20
0
30
0
70
128
71
145
72
146
73
42
0
VERTEX
8
OBJECT__32
10
0
20
0
30
0
70
128
71
146
72
44
73
42
0
VERTEX
8
OBJECT__32
10
0
20
0
30
0
70
128
71
146
72
147
73
44
0
VERTEX
8
OBJECT__32
10
0
20
0
30
0
70
128
71
147
72
46
73
44
0
VERTEX
8
OBJECT__32
10
0
20
0
30
0
70
128
71
147
72
148
73
46
0
VERTEX
8
OBJECT__32
10
0
20
0
30
0
70
128
71
148
72
48
73
46
0
VERTEX
8
OBJECT__32
10
0
20
0
30
0
70
128
71
148
72
149
73
48
0
VERTEX
8
OBJECT__32
10
0
20
0
30
0
70
128
71
149
72
50
73
48
0
VERTEX
8
OBJECT__32
10
0
20
0
30
0
70
128
71
149
72
150
73
50
0
VERTEX
8
OBJECT__32
10
0
20
0
30
0
70
128
71
150
72
1
73
50
0
VERTEX
8
OBJECT__32
10
0
20
0
30
0
70
128
71
150
72
127
73
1
0
SEQEND
8
OBJECT__32
0
POLYLINE
8
OBJECT__34
66
1
70
64
71
115
72
230
62
253
0
VERTEX
8
OBJECT__34
10
36.254002
20
0.000000
30
-19.549999
70
192
0
VERTEX
8
OBJECT__34
10
37.070000
20
0.000000
30
-20.291000
70
192
0
VERTEX
8
OBJECT__34
10
37.070000
20
5.475000
30
-19.539000
70
192
0
VERTEX
8
OBJECT__34
10
36.254002
20
5.275000
30
-18.825001
70
192
0
VERTEX
8
OBJECT__34
10
37.070000
20
10.543000
30
-17.337000
70
192
0
VERTEX
8
OBJECT__34
10
36.254002
20
10.158000
30
-16.704000
70
192
0
VERTEX
8
OBJECT__34
10
37.070000
20
14.830000
30
-13.850000
70
192
0
VERTEX
8
OBJECT__34
10
36.254002
20
14.288000
30
-13.344000
70
192
0
VERTEX
8
OBJECT__34
10
37.070000
20
18.016001
30
-9.335000
70
192
0
VERTEX
8
OBJECT__34
10
36.254002
20
17.358000
30
-8.994000
70
192
0
VERTEX
8
OBJECT__34
10
37.070000
20
19.867001
30
-4.128000
70
192
0
VERTEX
8
OBJECT__34
10
36.254002
20
19.141001
30
-3.978000
70
192
0
VERTEX
8
OBJECT__34
10
37.070000
20
20.243999
30
1.385000
70
192
0
VERTEX
8
OBJECT__34
10
36.254002
20
19.504000
30
1.334000
70
192
0
VERTEX
8
OBJECT__34
10
37.070000
20
19.120001
30
6.795000
70
192
0
VERTEX
8
OBJECT__34
10
36.254002
20
18.421000
30
6.547000
70
192
0
VERTEX
8
OBJECT__34
10
37.070000
20
16.577000
30
11.702000
70
192
0
VERTEX
8
OBJECT__34
10
36.254002
20
15.972000
30
11.274000
70
192
0
VERTEX
8
OBJECT__34
10
37.070000
20
12.806000
30
15.740000
70
192
0
VERTEX
8
OBJECT__34
10
36.254002
20
12.338000
30
15.165000
70
192
0
VERTEX
8
OBJECT__34
10
37.070000
20
8.084000
30
18.611000
70
192
0
VERTEX
8
OBJECT__34
10
36.254002
20
7.789000
30
17.931000
70
192
0
VERTEX
8
OBJECT__34
10
37.070000
20
2.763000
30
20.101999
70
192
0
VERTEX
8
OBJECT__34
10
36.254002
20
2.662000
30
19.368000
70
192
0
VERTEX
8
OBJECT__34
10
37.070000
20
-2.763000
30
20.101999
70
192
0
VERTEX
8
OBJECT__34
10
36.254002
20
-2.662000
30
19.368000
70
192
0
VERTEX
8
OBJECT__34
10
37.070000
20
-8.084000
30
18.611000
70
192
0
VERTEX
8
OBJECT__34
10
36.254002
20
-7.789000
30
17.931000
70
192
0
VERTEX
8
OBJECT__34
10
37.070000
20
-12.806000
30
15.740000
70
192
0
VERTEX
8
OBJECT__34
10
36.254002
20
-12.338000
30
15.165000
70
192
0
VERTEX
8
OBJECT__34
10
37.070000
20
-16.577000
30
11.702000
70
192
0
VERTEX
8
OBJECT__34
10
36.254002
20
-15.972000
30
11.274000
70
192
0
VERTEX
8
OBJECT__34
10
37.070000
20
-19.120001
30
6.795000
70
192
0
VERTEX
8
OBJECT__34
10
36.254002
20
-18.421000
30
6.547000
70
192
0
VERTEX
8
OBJECT__34
10
37.070000
20
-20.243999
30
1.385000
70
192
0
VERTEX
8
OBJECT__34
10
36.254002
20
-19.504000
30
1.334000
70
192
0
VERTEX
8
OBJECT__34
10
37.070000
20
-19.867001
30
-4.128000
70
192
0
VERTEX
8
OBJECT__34
10
36.254002
20
-19.141001
30
-3.978000
70
192
0
VERTEX
8
OBJECT__34
10
37.070000
20
-18.016001
30
-9.335000
70
192
0
VERTEX
8
OBJECT__34
10
36.254002
20
-17.358000
30
-8.994000
70
192
0
VERTEX
8
OBJECT__34
10
37.070000
20
-14.830000
30
-13.850000
70
192
0
VERTEX
8
OBJECT__34
10
36.254002
20
-14.288000
30
-13.344000
70
192
0
VERTEX
8
OBJECT__34
10
37.070000
20
-10.543000
30
-17.337000
70
192
0
VERTEX
8
OBJECT__34
10
36.254002
20
-10.158000
30
-16.704000
70
192
0
VERTEX
8
OBJECT__34
10
37.070000
20
-5.475000
30
-19.539000
70
192
0
VERTEX
8
OBJECT__34
10
36.254002
20
-5.275000
30
-18.825001
70
192
0
VERTEX
8
OBJECT__34
10
36.706001
20
0.000000
30
-21.443001
70
192
0
VERTEX
8
OBJECT__34
10
36.706001
20
5.785000
30
-20.648001
70
192
0
VERTEX
8
OBJECT__34
10
36.706001
20
11.141000
30
-18.320999
70
192
0
VERTEX
8
OBJECT__34
10
36.706001
20
15.671000
30
-14.636000
70
192
0
VERTEX
8
OBJECT__34
10
36.706001
20
19.039000
30
-9.865000
70
192
0
VERTEX
8
OBJECT__34
10
36.706001
20
20.993999
30
-4.363000
70
192
0
VERTEX
8
OBJECT__34
10
36.706001
20
21.393000
30
1.463000
70
192
0
VERTEX
8
OBJECT__34
10
36.706001
20
20.205000
30
7.181000
70
192
0
VERTEX
8
OBJECT__34
10
36.706001
20
17.518000
30
12.366000
70
192
0
VERTEX
8
OBJECT__34
10
36.706001
20
13.532000
30
16.634001
70
192
0
VERTEX
8
OBJECT__34
10
36.706001
20
8.543000
30
19.667999
70
192
0
VERTEX
8
OBJECT__34
10
36.706001
20
2.920000
30
21.243000
70
192
0
VERTEX
8
OBJECT__34
10
36.706001
20
-2.920000
30
21.243000
70
192
0
VERTEX
8
OBJECT__34
10
36.706001
20
-8.543000
30
19.667999
70
192
0
VERTEX
8
OBJECT__34
10
36.706001
20
-13.532000
30
16.634001
70
192
0
VERTEX
8
OBJECT__34
10
36.706001
20
-17.518000
30
12.366000
70
192
0
VERTEX
8
OBJECT__34
10
36.706001
20
-20.205000
30
7.181000
70
192
0
VERTEX
8
OBJECT__34
10
36.706001
20
-21.393000
30
1.463000
70
192
0
VERTEX
8
OBJECT__34
10
36.706001
20
-20.993999
30
-4.363000
70
192
0
VERTEX
8
OBJECT__34
10
36.706001
20
-19.039000
30
-9.865000
70
192
0
VERTEX
8
OBJECT__34
10
36.706001
20
-15.671000
30
-14.636000
70
192
0
VERTEX
8
OBJECT__34
10
36.706001
20
-11.141000
30
-18.320999
70
192
0
VERTEX
8
OBJECT__34
10
36.706001
20
-5.785000
30
-20.648001
70
192
0
VERTEX
8
OBJECT__34
10
35.687000
20
0.000000
30
-21.339001
70
192
0
VERTEX
8
OBJECT__34
10
35.687000
20
5.757000
30
-20.548000
70
192
0
VERTEX
8
OBJECT__34
10
35.687000
20
11.087000
30
-18.233000
70
192
0
VERTEX
8
OBJECT__34
10
35.687000
20
15.595000
30
-14.565000
70
192
0
VERTEX
8
OBJECT__34
10
35.687000
20
18.947001
30
-9.817000
70
192
0
VERTEX
8
OBJECT__34
10
35.687000
20
20.893000
30
-4.342000
70
192
0
VERTEX
8
OBJECT__34
10
35.687000
20
21.289000
30
1.456000
70
192
0
VERTEX
8
OBJECT__34
10
35.687000
20
20.107000
30
7.146000
70
192
0
VERTEX
8
OBJECT__34
10
35.687000
20
17.433001
30
12.306000
70
192
0
VERTEX
8
OBJECT__34
10
35.687000
20
13.467000
30
16.552999
70
192
0
VERTEX
8
OBJECT__34
10
35.687000
20
8.502000
30
19.573000
70
192
0
VERTEX
8
OBJECT__34
10
35.687000
20
2.906000
30
21.139999
70
192
0
VERTEX
8
OBJECT__34
10
35.687000
20
-2.906000
30
21.139999
70
192
0
VERTEX
8
OBJECT__34
10
35.687000
20
-8.502000
30
19.573000
70
192
0
VERTEX
8
OBJECT__34
10
35.687000
20
-13.467000
30
16.552999
70
192
0
VERTEX
8
OBJECT__34
10
35.687000
20
-17.433001
30
12.306000
70
192
0
VERTEX
8
OBJECT__34
10
35.687000
20
-20.107000
30
7.146000
70
192
0
VERTEX
8
OBJECT__34
10
35.687000
20
-21.289000
30
1.456000
70
192
0
VERTEX
8
OBJECT__34
10
35.687000
20
-20.893000
30
-4.342000
70
192
0
VERTEX
8
OBJECT__34
10
35.687000
20
-18.947001
30
-9.817000
70
192
0
VERTEX
8
OBJECT__34
10
35.687000
20
-15.595000
30
-14.565000
70
192
0
VERTEX
8
OBJECT__34
10
35.687000
20
-11.087000
30
-18.233000
70
192
0
VERTEX
8
OBJECT__34
10
35.687000
20
-5.757000
30
-20.548000
70
192
0
VERTEX
8
OBJECT__34
10
35.487999
20
0.000000
30
-20.129999
70
192
0
VERTEX
8
OBJECT__34
10
35.487999
20
5.431000
30
-19.384001
70
192
0
VERTEX
8
OBJECT__34
10
35.487999
20
10.459000
30
-17.200001
70
192
0
VERTEX
8
OBJECT__34
10
35.487999
20
14.712000
30
-13.740000
70
192
0
VERTEX
8
OBJECT__34
10
35.487999
20
17.872999
30
-9.261000
70
192
0
VERTEX
8
OBJECT__34
10
35.487999
20
19.709000
30
-4.096000
70
192
0
VERTEX
8
OBJECT__34
10
35.487999
20
20.083000
30
1.374000
70
192
0
VERTEX
8
OBJECT__34
10
35.487999
20
18.968000
30
6.741000
70
192
0
VERTEX
8
OBJECT__34
10
35.487999
20
16.445999
30
11.609000
70
192
0
VERTEX
8
OBJECT__34
10
35.487999
20
12.704000
30
15.615000
70
192
0
VERTEX
8
OBJECT__34
10
35.487999
20
8.020000
30
18.464001
70
192
0
VERTEX
8
OBJECT__34
10
35.487999
20
2.741000
30
19.943001
70
192
0
VERTEX
8
OBJECT__34
10
35.487999
20
-2.741000
30
19.943001
70
192
0
VERTEX
8
OBJECT__34
10
35.487999
20
-8.020000
30
18.464001
70
192
0
VERTEX
8
OBJECT__34
10
35.487999
20
-12.704000
30
15.615000
70
192
0
VERTEX
8
OBJECT__34
10
35.487999
20
-16.445999
30
11.609000
70
192
0
VERTEX
8
OBJECT__34
10
35.487999
20
-18.968000
30
6.741000
70
192
0
VERTEX
8
OBJECT__34
10
35.487999
20
-20.083000
30
1.374000
70
192
0
VERTEX
8
OBJECT__34
10
35.487999
20
-19.709000
30
-4.096000
70
192
0
VERTEX
8
OBJECT__34
10
35.487999
20
-17.872999
30
-9.261000
70
192
0
VERTEX
8
OBJECT__34
10
35.487999
20
-14.712000
30
-13.740000
70
192
0
VERTEX
8
OBJECT__34
10
35.487999
20
-10.459000
30
-17.200001
70
192
0
VERTEX
8
OBJECT__34
10
35.487999
20
-5.431000
30
-19.384001
70
192
0
VERTEX
8
OBJECT__34
10
0
20
0
30
0
70
128
71
1
72
2
73
3
0
VERTEX
8
OBJECT__34
10
0
20
0
30
0
70
128
71
1
72
3
73
4
0
VERTEX
8
OBJECT__34
10
0
20
0
30
0
70
128
71
4
72
3
73
5
0
VERTEX
8
OBJECT__34
10
0
20
0
30
0
70
128
71
4
72
5
73
6
0
VERTEX
8
OBJECT__34
10
0
20
0
30
0
70
128
71
6
72
5
73
7
0
VERTEX
8
OBJECT__34
10
0
20
0
30
0
70
128
71
6
72
7
73
8
0
VERTEX
8
OBJECT__34
10
0
20
0
30
0
70
128
71
8
72
7
73
9
0
VERTEX
8
OBJECT__34
10
0
20
0
30
0
70
128
71
8
72
9
73
10
0
VERTEX
8
OBJECT__34
10
0
20
0
30
0
70
128
71
10
72
9
73
11
0
VERTEX
8
OBJECT__34
10
0
20
0
30
0
70
128
71
10
72
11
73
12
0
VERTEX
8
OBJECT__34
10
0
20
0
30
0
70
128
71
12
72
11
73
13
0
VERTEX
8
OBJECT__34
10
0
20
0
30
0
70
128
71
12
72
13
73
14
0
VERTEX
8
OBJECT__34
10
0
20
0
30
0
70
128
71
14
72
13
73
15
0
VERTEX
8
OBJECT__34
10
0
20
0
30
0
70
128
71
14
72
15
73
16
0
VERTEX
8
OBJECT__34
10
0
20
0
30
0
70
128
71
16
72
15
73
17
0
VERTEX
8
OBJECT__34
10
0
20
0
30
0
70
128
71
16
72
17
73
18
0
VERTEX
8
OBJECT__34
10
0
20
0
30
0
70
128
71
18
72
17
73
19
0
VERTEX
8
OBJECT__34
10
0
20
0
30
0
70
128
71
18
72
19
73
20
0
VERTEX
8
OBJECT__34
10
0
20
0
30
0
70
128
71
20
72
19
73
21
0
VERTEX
8
OBJECT__34
10
0
20
0
30
0
70
128
71
20
72
21
73
22
0
VERTEX
8
OBJECT__34
10
0
20
0
30
0
70
128
71
22
72
21
73
23
0
VERTEX
8
OBJECT__34
10
0
20
0
30
0
70
128
71
22
72
23
73
24
0
VERTEX
8
OBJECT__34
10
0
20
0
30
0
70
128
71
24
72
23
73
25
0
VERTEX
8
OBJECT__34
10
0
20
0
30
0
70
128
71
24
72
25
73
26
0
VERTEX
8
OBJECT__34
10
0
20
0
30
0
70
128
71
26
72
25
73
27
0
VERTEX
8
OBJECT__34
10
0
20
0
30
0
70
128
71
26
72
27
73
28
0
VERTEX
8
OBJECT__34
10
0
20
0
30
0
70
128
71
28
72
27
73
29
0
VERTEX
8
OBJECT__34
10
0
20
0
30
0
70
128
71
28
72
29
73
30
0
VERTEX
8
OBJECT__34
10
0
20
0
30
0
70
128
71
30
72
29
73
31
0
VERTEX
8
OBJECT__34
10
0
20
0
30
0
70
128
71
30
72
31
73
32
0
VERTEX
8
OBJECT__34
10
0
20
0
30
0
70
128
71
32
72
31
73
33
0
VERTEX
8
OBJECT__34
10
0
20
0
30
0
70
128
71
32
72
33
73
34
0
VERTEX
8
OBJECT__34
10
0
20
0
30
0
70
128
71
34
72
33
73
35
0
VERTEX
8
OBJECT__34
10
0
20
0
30
0
70
128
71
34
72
35
73
36
0
VERTEX
8
OBJECT__34
10
0
20
0
30
0
70
128
71
36
72
35
73
37
0
VERTEX
8
OBJECT__34
10
0
20
0
30
0
70
128
71
36
72
37
73
38
0
VERTEX
8
OBJECT__34
10
0
20
0
30
0
70
128
71
38
72
37
73
39
0
VERTEX
8
OBJECT__34
10
0
20
0
30
0
70
128
71
38
72
39
73
40
0
VERTEX
8
OBJECT__34
10
0
20
0
30
0
70
128
71
40
72
39
73
41
0
VERTEX
8
OBJECT__34
10
0
20
0
30
0
70
128
71
40
72
41
73
42
0
VERTEX
8
OBJECT__34
10
0
20
0
30
0
70
128
71
42
72
41
73
43
0
VERTEX
8
OBJECT__34
10
0
20
0
30
0
70
128
71
42
72
43
73
44
0
VERTEX
8
OBJECT__34
10
0
20
0
30
0
70
128
71
44
72
43
73
45
0
VERTEX
8
OBJECT__34
10
0
20
0
30
0
70
128
71
44
72
45
73
46
0
VERTEX
8
OBJECT__34
10
0
20
0
30
0
70
128
71
46
72
45
73
2
0
VERTEX
8
OBJECT__34
10
0
20
0
30
0
70
128
71
46
72
2
73
1
0
VERTEX
8
OBJECT__34
10
0
20
0
30
0
70
128
71
2
72
47
73
48
0
VERTEX
8
OBJECT__34
10
0
20
0
30
0
70
128
71
2
72
48
73
3
0
VERTEX
8
OBJECT__34
10
0
20
0
30
0
70
128
71
3
72
48
73
49
0
VERTEX
8
OBJECT__34
10
0
20
0
30
0
70
128
71
3
72
49
73
5
0
VERTEX
8
OBJECT__34
10
0
20
0
30
0
70
128
71
5
72
49
73
50
0
VERTEX
8
OBJECT__34
10
0
20
0
30
0
70
128
71
5
72
50
73
7
0
VERTEX
8
OBJECT__34
10
0
20
0
30
0
70
128
71
7
72
50
73
51
0
VERTEX
8
OBJECT__34
10
0
20
0
30
0
70
128
71
7
72
51
73
9
0
VERTEX
8
OBJECT__34
10
0
20
0
30
0
70
128
71
9
72
51
73
52
0
VERTEX
8
OBJECT__34
10
0
20
0
30
0
70
128
71
9
72
52
73
11
0
VERTEX
8
OBJECT__34
10
0
20
0
30
0
70
128
71
11
72
52
73
53
0
VERTEX
8
OBJECT__34
10
0
20
0
30
0
70
128
71
11
72
53
73
13
0
VERTEX
8
OBJECT__34
10
0
20
0
30
0
70
128
71
13
72
53
73
54
0
VERTEX
8
OBJECT__34
10
0
20
0
30
0
70
128
71
13
72
54
73
15
0
VERTEX
8
OBJECT__34
10
0
20
0
30
0
70
128
71
15
72
54
73
55
0
VERTEX
8
OBJECT__34
10
0
20
0
30
0
70
128
71
15
72
55
73
17
0
VERTEX
8
OBJECT__34
10
0
20
0
30
0
70
128
71
17
72
55
73
56
0
VERTEX
8
OBJECT__34
10
0
20
0
30
0
70
128
71
17
72
56
73
19
0
VERTEX
8
OBJECT__34
10
0
20
0
30
0
70
128
71
19
72
56
73
57
0
VERTEX
8
OBJECT__34
10
0
20
0
30
0
70
128
71
19
72
57
73
21
0
VERTEX
8
OBJECT__34
10
0
20
0
30
0
70
128
71
21
72
57
73
58
0
VERTEX
8
OBJECT__34
10
0
20
0
30
0
70
128
71
21
72
58
73
23
0
VERTEX
8
OBJECT__34
10
0
20
0
30
0
70
128
71
23
72
58
73
59
0
VERTEX
8
OBJECT__34
10
0
20
0
30
0
70
128
71
23
72
59
73
25
0
VERTEX
8
OBJECT__34
10
0
20
0
30
0
70
128
71
25
72
59
73
60
0
VERTEX
8
OBJECT__34
10
0
20
0
30
0
70
128
71
25
72
60
73
27
0
VERTEX
8
OBJECT__34
10
0
20
0
30
0
70
128
71
27
72
60
73
61
0
VERTEX
8
OBJECT__34
10
0
20
0
30
0
70
128
71
27
72
61
73
29
0
VERTEX
8
OBJECT__34
10
0
20
0
30
0
70
128
71
29
72
61
73
62
0
VERTEX
8
OBJECT__34
10
0
20
0
30
0
70
128
71
29
72
62
73
31
0
VERTEX
8
OBJECT__34
10
0
20
0
30
0
70
128
71
31
72
62
73
63
0
VERTEX
8
OBJECT__34
10
0
20
0
30
0
70
128
71
31
72
63
73
33
0
VERTEX
8
OBJECT__34
10
0
20
0
30
0
70
128
71
33
72
63
73
64
0
VERTEX
8
OBJECT__34
10
0
20
0
30
0
70
128
71
33
72
64
73
35
0
VERTEX
8
OBJECT__34
10
0
20
0
30
0
70
128
71
35
72
64
73
65
0
VERTEX
8
OBJECT__34
10
0
20
0
30
0
70
128
71
35
72
65
73
37
0
VERTEX
8
OBJECT__34
10
0
20
0
30
0
70
128
71
37
72
65
73
66
0
VERTEX
8
OBJECT__34
10
0
20
0
30
0
70
128
71
37
72
66
73
39
0
VERTEX
8
OBJECT__34
10
0
20
0
30
0
70
128
71
39
72
66
73
67
0
VERTEX
8
OBJECT__34
10
0
20
0
30
0
70
128
71
39
72
67
73
41
0
VERTEX
8
OBJECT__34
10
0
20
0
30
0
70
128
71
41
72
67
73
68
0
VERTEX
8
OBJECT__34
10
0
20
0
30
0
70
128
71
41
72
68
73
43
0
VERTEX
8
OBJECT__34
10
0
20
0
30
0
70
128
71
43
72
68
73
69
0
VERTEX
8
OBJECT__34
10
0
20
0
30
0
70
128
71
43
72
69
73
45
0
VERTEX
8
OBJECT__34
10
0
20
0
30
0
70
128
71
45
72
69
73
47
0
VERTEX
8
OBJECT__34
10
0
20
0
30
0
70
128
71
45
72
47
73
2
0
VERTEX
8
OBJECT__34
10
0
20
0
30
0
70
128
71
47
72
70
73
71
0
VERTEX
8
OBJECT__34
10
0
20
0
30
0
70
128
71
47
72
71
73
48
0
VERTEX
8
OBJECT__34
10
0
20
0
30
0
70
128
71
48
72
71
73
72
0
VERTEX
8
OBJECT__34
10
0
20
0
30
0
70
128
71
48
72
72
73
49
0
VERTEX
8
OBJECT__34
10
0
20
0
30
0
70
128
71
49
72
72
73
73
0
VERTEX
8
OBJECT__34
10
0
20
0
30
0
70
128
71
49
72
73
73
50
0
VERTEX
8
OBJECT__34
10
0
20
0
30
0
70
128
71
50
72
73
73
74
0
VERTEX
8
OBJECT__34
10
0
20
0
30
0
70
128
71
50
72
74
73
51
0
VERTEX
8
OBJECT__34
10
0
20
0
30
0
70
128
71
51
72
74
73
75
0
VERTEX
8
OBJECT__34
10
0
20
0
30
0
70
128
71
51
72
75
73
52
0
VERTEX
8
OBJECT__34
10
0
20
0
30
0
70
128
71
52
72
75
73
76
0
VERTEX
8
OBJECT__34
10
0
20
0
30
0
70
128
71
52
72
76
73
53
0
VERTEX
8
OBJECT__34
10
0
20
0
30
0
70
128
71
53
72
76
73
77
0
VERTEX
8
OBJECT__34
10
0
20
0
30
0
70
128
71
53
72
77
73
54
0
VERTEX
8
OBJECT__34
10
0
20
0
30
0
70
128
71
54
72
77
73
78
0
VERTEX
8
OBJECT__34
10
0
20
0
30
0
70
128
71
54
72
78
73
55
0
VERTEX
8
OBJECT__34
10
0
20
0
30
0
70
128
71
55
72
78
73
79
0
VERTEX
8
OBJECT__34
10
0
20
0
30
0
70
128
71
55
72
79
73
56
0
VERTEX
8
OBJECT__34
10
0
20
0
30
0
70
128
71
56
72
79
73
80
0
VERTEX
8
OBJECT__34
10
0
20
0
30
0
70
128
71
56
72
80
73
57
0
VERTEX
8
OBJECT__34
10
0
20
0
30
0
70
128
71
57
72
80
73
81
0
VERTEX
8
OBJECT__34
10
0
20
0
30
0
70
128
71
57
72
81
73
58
0
VERTEX
8
OBJECT__34
10
0
20
0
30
0
70
128
71
58
72
81
73
82
0
VERTEX
8
OBJECT__34
10
0
20
0
30
0
70
128
71
58
72
82
73
59
0
VERTEX
8
OBJECT__34
10
0
20
0
30
0
70
128
71
59
72
82
73
83
0
VERTEX
8
OBJECT__34
10
0
20
0
30
0
70
128
71
59
72
83
73
60
0
VERTEX
8
OBJECT__34
10
0
20
0
30
0
70
128
71
60
72
83
73
84
0
VERTEX
8
OBJECT__34
10
0
20
0
30
0
70
128
71
60
72
84
73
61
0
VERTEX
8
OBJECT__34
10
0
20
0
30
0
70
128
71
61
72
84
73
85
0
VERTEX
8
OBJECT__34
10
0
20
0
30
0
70
128
71
61
72
85
73
62
0
VERTEX
8
OBJECT__34
10
0
20
0
30
0
70
128
71
62
72
85
73
86
0
VERTEX
8
OBJECT__34
10
0
20
0
30
0
70
128
71
62
72
86
73
63
0
VERTEX
8
OBJECT__34
10
0
20
0
30
0
70
128
71
63
72
86
73
87
0
VERTEX
8
OBJECT__34
10
0
20
0
30
0
70
128
71
63
72
87
73
64
0
VERTEX
8
OBJECT__34
10
0
20
0
30
0
70
128
71
64
72
87
73
88
0
VERTEX
8
OBJECT__34
10
0
20
0
30
0
70
128
71
64
72
88
73
65
0
VERTEX
8
OBJECT__34
10
0
20
0
30
0
70
128
71
65
72
88
73
89
0
VERTEX
8
OBJECT__34
10
0
20
0
30
0
70
128
71
65
72
89
73
66
0
VERTEX
8
OBJECT__34
10
0
20
0
30
0
70
128
71
66
72
89
73
90
0
VERTEX
8
OBJECT__34
10
0
20
0
30
0
70
128
71
66
72
90
73
67
0
VERTEX
8
OBJECT__34
10
0
20
0
30
0
70
128
71
67
72
90
73
91
0
VERTEX
8
OBJECT__34
10
0
20
0
30
0
70
128
71
67
72
91
73
68
0
VERTEX
8
OBJECT__34
10
0
20
0
30
0
70
128
71
68
72
91
73
92
0
VERTEX
8
OBJECT__34
10
0
20
0
30
0
70
128
71
68
72
92
73
69
0
VERTEX
8
OBJECT__34
10
0
20
0
30
0
70
128
71
69
72
92
73
70
0
VERTEX
8
OBJECT__34
10
0
20
0
30
0
70
128
71
69
72
70
73
47
0
VERTEX
8
OBJECT__34
10
0
20
0
30
0
70
128
71
70
72
93
73
94
0
VERTEX
8
OBJECT__34
10
0
20
0
30
0
70
128
71
70
72
94
73
71
0
VERTEX
8
OBJECT__34
10
0
20
0
30
0
70
128
71
71
72
94
73
95
0
VERTEX
8
OBJECT__34
10
0
20
0
30
0
70
128
71
71
72
95
73
72
0
VERTEX
8
OBJECT__34
10
0
20
0
30
0
70
128
71
72
72
95
73
96
0
VERTEX
8
OBJECT__34
10
0
20
0
30
0
70
128
71
72
72
96
73
73
0
VERTEX
8
OBJECT__34
10
0
20
0
30
0
70
128
71
73
72
96
73
97
0
VERTEX
8
OBJECT__34
10
0
20
0
30
0
70
128
71
73
72
97
73
74
0
VERTEX
8
OBJECT__34
10
0
20
0
30
0
70
128
71
74
72
97
73
98
0
VERTEX
8
OBJECT__34
10
0
20
0
30
0
70
128
71
74
72
98
73
75
0
VERTEX
8
OBJECT__34
10
0
20
0
30
0
70
128
71
75
72
98
73
99
0
VERTEX
8
OBJECT__34
10
0
20
0
30
0
70
128
71
75
72
99
73
76
0
VERTEX
8
OBJECT__34
10
0
20
0
30
0
70
128
71
76
72
99
73
100
0
VERTEX
8
OBJECT__34
10
0
20
0
30
0
70
128
71
76
72
100
73
77
0
VERTEX
8
OBJECT__34
10
0
20
0
30
0
70
128
71
77
72
100
73
101
0
VERTEX
8
OBJECT__34
10
0
20
0
30
0
70
128
71
77
72
101
73
78
0
VERTEX
8
OBJECT__34
10
0
20
0
30
0
70
128
71
78
72
101
73
102
0
VERTEX
8
OBJECT__34
10
0
20
0
30
0
70
128
71
78
72
102
73
79
0
VERTEX
8
OBJECT__34
10
0
20
0
30
0
70
128
71
79
72
102
73
103
0
VERTEX
8
OBJECT__34
10
0
20
0
30
0
70
128
71
79
72
103
73
80
0
VERTEX
8
OBJECT__34
10
0
20
0
30
0
70
128
71
80
72
103
73
104
0
VERTEX
8
OBJECT__34
10
0
20
0
30
0
70
128
71
80
72
104
73
81
0
VERTEX
8
OBJECT__34
10
0
20
0
30
0
70
128
71
81
72
104
73
105
0
VERTEX
8
OBJECT__34
10
0
20
0
30
0
70
128
71
81
72
105
73
82
0
VERTEX
8
OBJECT__34
10
0
20
0
30
0
70
128
71
82
72
105
73
106
0
VERTEX
8
OBJECT__34
10
0
20
0
30
0
70
128
71
82
72
106
73
83
0
VERTEX
8
OBJECT__34
10
0
20
0
30
0
70
128
71
83
72
106
73
107
0
VERTEX
8
OBJECT__34
10
0
20
0
30
0
70
128
71
83
72
107
73
84
0
VERTEX
8
OBJECT__34
10
0
20
0
30
0
70
128
71
84
72
107
73
108
0
VERTEX
8
OBJECT__34
10
0
20
0
30
0
70
128
71
84
72
108
73
85
0
VERTEX
8
OBJECT__34
10
0
20
0
30
0
70
128
71
85
72
108
73
109
0
VERTEX
8
OBJECT__34
10
0
20
0
30
0
70
128
71
85
72
109
73
86
0
VERTEX
8
OBJECT__34
10
0
20
0
30
0
70
128
71
86
72
109
73
110
0
VERTEX
8
OBJECT__34
10
0
20
0
30
0
70
128
71
86
72
110
73
87
0
VERTEX
8
OBJECT__34
10
0
20
0
30
0
70
128
71
87
72
110
73
111
0
VERTEX
8
OBJECT__34
10
0
20
0
30
0
70
128
71
87
72
111
73
88
0
VERTEX
8
OBJECT__34
10
0
20
0
30
0
70
128
71
88
72
111
73
112
0
VERTEX
8
OBJECT__34
10
0
20
0
30
0
70
128
71
88
72
112
73
89
0
VERTEX
8
OBJECT__34
10
0
20
0
30
0
70
128
71
89
72
112
73
113
0
VERTEX
8
OBJECT__34
10
0
20
0
30
0
70
128
71
89
72
113
73
90
0
VERTEX
8
OBJECT__34
10
0
20
0
30
0
70
128
71
90
72
113
73
114
0
VERTEX
8
OBJECT__34
10
0
20
0
30
0
70
128
71
90
72
114
73
91
0
VERTEX
8
OBJECT__34
10
0
20
0
30
0
70
128
71
91
72
114
73
115
0
VERTEX
8
OBJECT__34
10
0
20
0
30
0
70
128
71
91
72
115
73
92
0
VERTEX
8
OBJECT__34
10
0
20
0
30
0
70
128
71
92
72
115
73
93
0
VERTEX
8
OBJECT__34
10
0
20
0
30
0
70
128
71
92
72
93
73
70
0
VERTEX
8
OBJECT__34
10
0
20
0
30
0
70
128
71
93
72
1
73
4
0
VERTEX
8
OBJECT__34
10
0
20
0
30
0
70
128
71
93
72
4
73
94
0
VERTEX
8
OBJECT__34
10
0
20
0
30
0
70
128
71
94
72
4
73
6
0
VERTEX
8
OBJECT__34
10
0
20
0
30
0
70
128
71
94
72
6
73
95
0
VERTEX
8
OBJECT__34
10
0
20
0
30
0
70
128
71
95
72
6
73
8
0
VERTEX
8
OBJECT__34
10
0
20
0
30
0
70
128
71
95
72
8
73
96
0
VERTEX
8
OBJECT__34
10
0
20
0
30
0
70
128
71
96
72
8
73
10
0
VERTEX
8
OBJECT__34
10
0
20
0
30
0
70
128
71
96
72
10
73
97
0
VERTEX
8
OBJECT__34
10
0
20
0
30
0
70
128
71
97
72
10
73
12
0
VERTEX
8
OBJECT__34
10
0
20
0
30
0
70
128
71
97
72
12
73
98
0
VERTEX
8
OBJECT__34
10
0
20
0
30
0
70
128
71
98
72
12
73
14
0
VERTEX
8
OBJECT__34
10
0
20
0
30
0
70
128
71
98
72
14
73
99
0
VERTEX
8
OBJECT__34
10
0
20
0
30
0
70
128
71
99
72
14
73
16
0
VERTEX
8
OBJECT__34
10
0
20
0
30
0
70
128
71
99
72
16
73
100
0
VERTEX
8
OBJECT__34
10
0
20
0
30
0
70
128
71
100
72
16
73
18
0
VERTEX
8
OBJECT__34
10
0
20
0
30
0
70
128
71
100
72
18
73
101
0
VERTEX
8
OBJECT__34
10
0
20
0
30
0
70
128
71
101
72
18
73
20
0
VERTEX
8
OBJECT__34
10
0
20
0
30
0
70
128
71
101
72
20
73
102
0
VERTEX
8
OBJECT__34
10
0
20
0
30
0
70
128
71
102
72
20
73
22
0
VERTEX
8
OBJECT__34
10
0
20
0
30
0
70
128
71
102
72
22
73
103
0
VERTEX
8
OBJECT__34
10
0
20
0
30
0
70
128
71
103
72
22
73
24
0
VERTEX
8
OBJECT__34
10
0
20
0
30
0
70
128
71
103
72
24
73
104
0
VERTEX
8
OBJECT__34
10
0
20
0
30
0
70
128
71
104
72
24
73
26
0
VERTEX
8
OBJECT__34
10
0
20
0
30
0
70
128
71
104
72
26
73
105
0
VERTEX
8
OBJECT__34
10
0
20
0
30
0
70
128
71
105
72
26
73
28
0
VERTEX
8
OBJECT__34
10
0
20
0
30
0
70
128
71
105
72
28
73
106
0
VERTEX
8
OBJECT__34
10
0
20
0
30
0
70
128
71
106
72
28
73
30
0
VERTEX
8
OBJECT__34
10
0
20
0
30
0
70
128
71
106
72
30
73
107
0
VERTEX
8
OBJECT__34
10
0
20
0
30
0
70
128
71
107
72
30
73
32
0
VERTEX
8
OBJECT__34
10
0
20
0
30
0
70
128
71
107
72
32
73
108
0
VERTEX
8
OBJECT__34
10
0
20
0
30
0
70
128
71
108
72
32
73
34
0
VERTEX
8
OBJECT__34
10
0
20
0
30
0
70
128
71
108
72
34
73
109
0
VERTEX
8
OBJECT__34
10
0
20
0
30
0
70
128
71
109
72
34
73
36
0
VERTEX
8
OBJECT__34
10
0
20
0
30
0
70
128
71
109
72
36
73
110
0
VERTEX
8
OBJECT__34
10
0
20
0
30
0
70
128
71
110
72
36
73
38
0
VERTEX
8
OBJECT__34
10
0
20
0
30
0
70
128
71
110
72
38
73
111
0
VERTEX
8
OBJECT__34
10
0
20
0
30
0
70
128
71
111
72
38
73
40
0
VERTEX
8
OBJECT__34
10
0
20
0
30
0
70
128
71
111
72
40
73
112
0
VERTEX
8
OBJECT__34
10
0
20
0
30
0
70
128
71
112
72
40
73
42
0
VERTEX
8
OBJECT__34
10
0
20
0
30
0
70
128
71
112
72
42
73
113
0
VERTEX
8
OBJECT__34
10
0
20
0
30
0
70
128
71
113
72
42
73
44
0
VERTEX
8
OBJECT__34
10
0
20
0
30
0
70
128
71
113
72
44
73
114
0
VERTEX
8
OBJECT__34
10
0
20
0
30
0
70
128
71
114
72
44
73
46
0
VERTEX
8
OBJECT__34
10
0
20
0
30
0
70
128
71
114
72
46
73
115
0
VERTEX
8
OBJECT__34
10
0
20
0
30
0
70
128
71
115
72
46
73
1
0
VERTEX
8
OBJECT__34
10
0
20
0
30
0
70
128
71
115
72
1
73
93
0
SEQEND
8
OBJECT__34
0
POLYLINE
8
OBJECT__36
66
1
70
64
71
47
72
47
62
253
0
VERTEX
8
OBJECT__36
10
36.104000
20
23.163000
30
8.431000
70
192
0
VERTEX
8
OBJECT__36
10
37.380001
20
23.163000
30
8.431000
70
192
0
VERTEX
8
OBJECT__36
10
37.380001
20
24.650000
30
0.000000
70
192
0
VERTEX
8
OBJECT__36
10
36.104000
20
18.882999
30
15.845000
70
192
0
VERTEX
8
OBJECT__36
10
37.380001
20
20.934999
30
12.290000
70
192
0
VERTEX
8
OBJECT__36
10
37.380001
20
18.882999
30
15.845000
70
192
0
VERTEX
8
OBJECT__36
10
36.104000
20
12.325000
30
21.348000
70
192
0
VERTEX
8
OBJECT__36
10
37.380001
20
12.568000
30
21.143000
70
192
0
VERTEX
8
OBJECT__36
10
37.380001
20
12.325000
30
21.348000
70
192
0
VERTEX
8
OBJECT__36
10
36.104000
20
4.280000
30
24.275999
70
192
0
VERTEX
8
OBJECT__36
10
37.380001
20
4.280000
30
24.275999
70
192
0
VERTEX
8
OBJECT__36
10
36.104000
20
-4.280000
30
24.275999
70
192
0
VERTEX
8
OBJECT__36
10
37.380001
20
0.000000
30
24.650000
70
192
0
VERTEX
8
OBJECT__36
10
37.380001
20
-4.280000
30
24.275999
70
192
0
VERTEX
8
OBJECT__36
10
37.380001
20
-12.325000
30
21.348000
70
192
0
VERTEX
8
OBJECT__36
10
36.104000
20
-18.882999
30
15.845000
70
192
0
VERTEX
8
OBJECT__36
10
37.380001
20
-18.882999
30
15.845000
70
192
0
VERTEX
8
OBJECT__36
10
37.380001
20
-12.568000
30
21.143000
70
192
0
VERTEX
8
OBJECT__36
10
36.104000
20
-12.325000
30
21.348000
70
192
0
VERTEX
8
OBJECT__36
10
36.104000
20
-23.163000
30
8.431000
70
192
0
VERTEX
8
OBJECT__36
10
37.380001
20
-23.163000
30
8.431000
70
192
0
VERTEX
8
OBJECT__36
10
37.380001
20
-20.934999
30
12.290000
70
192
0
VERTEX
8
OBJECT__36
10
36.104000
20
-24.650000
30
0.000000
70
192
0
VERTEX
8
OBJECT__36
10
37.380001
20
-24.650000
30
0.000000
70
192
0
VERTEX
8
OBJECT__36
10
37.380001
20
-23.163000
30
-8.431000
70
192
0
VERTEX
8
OBJECT__36
10
36.104000
20
-23.163000
30
-8.431000
70
192
0
VERTEX
8
OBJECT__36
10
36.104000
20
-18.882999
30
-15.845000
70
192
0
VERTEX
8
OBJECT__36
10
37.380001
20
-20.934999
30
-12.290000
70
192
0
VERTEX
8
OBJECT__36
10
37.380001
20
-18.882999
30
-15.845000
70
192
0
VERTEX
8
OBJECT__36
10
36.104000
20
-12.325000
30
-21.348000
70
192
0
VERTEX
8
OBJECT__36
10
37.380001
20
-12.568000
30
-21.143000
70
192
0
VERTEX
8
OBJECT__36
10
37.380001
20
-12.325000
30
-21.348000
70
192
0
VERTEX
8
OBJECT__36
10
36.104000
20
-4.280000
30
-24.275999
70
192
0
VERTEX
8
OBJECT__36
10
36.104000
20
4.280000
30
-24.275999
70
192
0
VERTEX
8
OBJECT__36
10
37.380001
20
4.280000
30
-24.275999
70
192
0
VERTEX
8
OBJECT__36
10
37.380001
20
0.000000
30
-24.275999
70
192
0
VERTEX
8
OBJECT__36
10
36.104000
20
0.000000
30
-24.650000
70
192
0
VERTEX
8
OBJECT__36
10
37.380001
20
-4.280000
30
-24.275999
70
192
0
VERTEX
8
OBJECT__36
10
36.104000
20
12.325000
30
-21.348000
70
192
0
VERTEX
8
OBJECT__36
10
37.380001
20
12.325000
30
-21.348000
70
192
0
VERTEX
8
OBJECT__36
10
36.104000
20
18.882999
30
-15.845000
70
192
0
VERTEX
8
OBJECT__36
10
37.380001
20
18.882999
30
-15.845000
70
192
0
VERTEX
8
OBJECT__36
10
37.380001
20
12.568000
30
-21.143000
70
192
0
VERTEX
8
OBJECT__36
10
36.104000
20
23.163000
30
-8.431000
70
192
0
VERTEX
8
OBJECT__36
10
37.380001
20
23.163000
30
-8.431000
70
192
0
VERTEX
8
OBJECT__36
10
37.380001
20
20.934999
30
-12.290000
70
192
0
VERTEX
8
OBJECT__36
10
36.104000
20
24.650000
30
0.000000
70
192
0
VERTEX
8
OBJECT__36
10
0
20
0
30
0
70
128
71
1
72
2
73
3
0
VERTEX
8
OBJECT__36
10
0
20
0
30
0
70
128
71
1
72
4
73
5
0
VERTEX
8
OBJECT__36
10
0
20
0
30
0
70
128
71
4
72
6
73
5
0
VERTEX
8
OBJECT__36
10
0
20
0
30
0
70
128
71
4
72
7
73
8
0
VERTEX
8
OBJECT__36
10
0
20
0
30
0
70
128
71
7
72
9
73
8
0
VERTEX
8
OBJECT__36
10
0
20
0
30
0
70
128
71
7
72
10
73
11
0
VERTEX
8
OBJECT__36
10
0
20
0
30
0
70
128
71
10
72
12
73
13
0
VERTEX
8
OBJECT__36
10
0
20
0
30
0
70
128
71
12
72
14
73
13
0
VERTEX
8
OBJECT__36
10
0
20
0
30
0
70
128
71
15
72
14
73
12
0
VERTEX
8
OBJECT__36
10
0
20
0
30
0
70
128
71
16
72
17
73
18
0
VERTEX
8
OBJECT__36
10
0
20
0
30
0
70
128
71
18
72
19
73
16
0
VERTEX
8
OBJECT__36
10
0
20
0
30
0
70
128
71
20
72
21
73
22
0
VERTEX
8
OBJECT__36
10
0
20
0
30
0
70
128
71
22
72
16
73
20
0
VERTEX
8
OBJECT__36
10
0
20
0
30
0
70
128
71
20
72
23
73
24
0
VERTEX
8
OBJECT__36
10
0
20
0
30
0
70
128
71
25
72
24
73
23
0
VERTEX
8
OBJECT__36
10
0
20
0
30
0
70
128
71
26
72
27
73
28
0
VERTEX
8
OBJECT__36
10
0
20
0
30
0
70
128
71
27
72
29
73
28
0
VERTEX
8
OBJECT__36
10
0
20
0
30
0
70
128
71
27
72
30
73
31
0
VERTEX
8
OBJECT__36
10
0
20
0
30
0
70
128
71
30
72
32
73
31
0
VERTEX
8
OBJECT__36
10
0
20
0
30
0
70
128
71
32
72
30
73
33
0
VERTEX
8
OBJECT__36
10
0
20
0
30
0
70
128
71
34
72
35
73
36
0
VERTEX
8
OBJECT__36
10
0
20
0
30
0
70
128
71
33
72
37
73
36
0
VERTEX
8
OBJECT__36
10
0
20
0
30
0
70
128
71
36
72
38
73
33
0
VERTEX
8
OBJECT__36
10
0
20
0
30
0
70
128
71
39
72
40
73
35
0
VERTEX
8
OBJECT__36
10
0
20
0
30
0
70
128
71
41
72
42
73
43
0
VERTEX
8
OBJECT__36
10
0
20
0
30
0
70
128
71
43
72
39
73
41
0
VERTEX
8
OBJECT__36
10
0
20
0
30
0
70
128
71
44
72
45
73
46
0
VERTEX
8
OBJECT__36
10
0
20
0
30
0
70
128
71
46
72
41
73
44
0
VERTEX
8
OBJECT__36
10
0
20
0
30
0
70
128
71
45
72
44
73
47
0
VERTEX
8
OBJECT__36
10
0
20
0
30
0
70
128
71
47
72
3
73
45
0
VERTEX
8
OBJECT__36
10
0
20
0
30
0
70
128
71
46
72
42
73
41
0
VERTEX
8
OBJECT__36
10
0
20
0
30
0
70
128
71
43
72
40
73
39
0
VERTEX
8
OBJECT__36
10
0
20
0
30
0
70
128
71
35
72
34
73
39
0
VERTEX
8
OBJECT__36
10
0
20
0
30
0
70
128
71
36
72
37
73
34
0
VERTEX
8
OBJECT__36
10
0
20
0
30
0
70
128
71
33
72
38
73
32
0
VERTEX
8
OBJECT__36
10
0
20
0
30
0
70
128
71
31
72
29
73
27
0
VERTEX
8
OBJECT__36
10
0
20
0
30
0
70
128
71
28
72
25
73
26
0
VERTEX
8
OBJECT__36
10
0
20
0
30
0
70
128
71
23
72
26
73
25
0
VERTEX
8
OBJECT__36
10
0
20
0
30
0
70
128
71
24
72
21
73
20
0
VERTEX
8
OBJECT__36
10
0
20
0
30
0
70
128
71
22
72
17
73
16
0
VERTEX
8
OBJECT__36
10
0
20
0
30
0
70
128
71
18
72
15
73
19
0
VERTEX
8
OBJECT__36
10
0
20
0
30
0
70
128
71
12
72
19
73
15
0
VERTEX
8
OBJECT__36
10
0
20
0
30
0
70
128
71
13
72
11
73
10
0
VERTEX
8
OBJECT__36
10
0
20
0
30
0
70
128
71
11
72
9
73
7
0
VERTEX
8
OBJECT__36
10
0
20
0
30
0
70
128
71
8
72
6
73
4
0
VERTEX
8
OBJECT__36
10
0
20
0
30
0
70
128
71
5
72
2
73
1
0
VERTEX
8
OBJECT__36
10
0
20
0
30
0
70
128
71
3
72
47
73
1
0
SEQEND
8
OBJECT__36
0
POLYLINE
8
OBJECT__37
66
1
70
64
71
108
72
108
62
253
0
VERTEX
8
OBJECT__37
10
37.380001
20
0.000000
30
24.650000
70
192
0
VERTEX
8
OBJECT__37
10
38.257000
20
-0.866000
30
20.882000
70
192
0
VERTEX
8
OBJECT__37
10
38.257000
20
-0.001000
30
20.854000
70
192
0
VERTEX
8
OBJECT__37
10
37.380001
20
-4.280000
30
24.275999
70
192
0
VERTEX
8
OBJECT__37
10
38.257999
20
-3.892000
30
20.534000
70
192
0
VERTEX
8
OBJECT__37
10
38.257999
20
-4.807000
30
20.340000
70
192
0
VERTEX
8
OBJECT__37
10
37.380001
20
-12.325000
30
21.348000
70
192
0
VERTEX
8
OBJECT__37
10
38.257999
20
-7.729000
30
19.417999
70
192
0
VERTEX
8
OBJECT__37
10
38.257999
20
-10.469000
30
18.089001
70
192
0
VERTEX
8
OBJECT__37
10
38.257999
20
-7.990000
30
19.292000
70
192
0
VERTEX
8
OBJECT__37
10
37.380001
20
-12.568000
30
21.143000
70
192
0
VERTEX
8
OBJECT__37
10
38.257999
20
-11.269000
30
17.601999
70
192
0
VERTEX
8
OBJECT__37
10
38.257999
20
-12.569000
30
16.628000
70
192
0
VERTEX
8
OBJECT__37
10
37.380001
20
-18.882999
30
15.845000
70
192
0
VERTEX
8
OBJECT__37
10
38.257999
20
-13.721000
30
15.765000
70
192
0
VERTEX
8
OBJECT__37
10
38.257000
20
-15.867000
30
13.604000
70
192
0
VERTEX
8
OBJECT__37
10
38.257000
20
-14.739000
30
14.740000
70
192
0
VERTEX
8
OBJECT__37
10
38.257000
20
-16.459999
30
12.879000
70
192
0
VERTEX
8
OBJECT__37
10
37.380001
20
-20.934999
30
12.290000
70
192
0
VERTEX
8
OBJECT__37
10
38.257000
20
-16.787001
30
12.391000
70
192
0
VERTEX
8
OBJECT__37
10
37.380001
20
-23.163000
30
8.431000
70
192
0
VERTEX
8
OBJECT__37
10
38.257000
20
-19.284000
30
7.986000
70
192
0
VERTEX
8
OBJECT__37
10
38.257000
20
-19.475000
30
7.585000
70
192
0
VERTEX
8
OBJECT__37
10
38.257000
20
-19.795000
30
6.705000
70
192
0
VERTEX
8
OBJECT__37
10
38.257000
20
-20.563000
30
3.739000
70
192
0
VERTEX
8
OBJECT__37
10
37.380001
20
-24.650000
30
0.000000
70
192
0
VERTEX
8
OBJECT__37
10
38.257000
20
-20.888000
30
0.711000
70
192
0
VERTEX
8
OBJECT__37
10
38.257000
20
-20.896000
30
0.000000
70
192
0
VERTEX
8
OBJECT__37
10
38.257000
20
-18.166000
30
10.335000
70
192
0
VERTEX
8
OBJECT__37
10
38.257000
20
-20.899000
30
-0.225000
70
192
0
VERTEX
8
OBJECT__37
10
38.257000
20
-20.641001
30
-3.278000
70
192
0
VERTEX
8
OBJECT__37
10
37.380001
20
-23.163000
30
-8.431000
70
192
0
VERTEX
8
OBJECT__37
10
38.257000
20
-19.945999
30
-6.243000
70
192
0
VERTEX
8
OBJECT__37
10
38.257000
20
-19.646000
30
-7.130000
70
192
0
VERTEX
8
OBJECT__37
10
37.380001
20
-20.934999
30
-12.290000
70
192
0
VERTEX
8
OBJECT__37
10
38.257000
20
-18.393000
30
-9.926000
70
192
0
VERTEX
8
OBJECT__37
10
38.257000
20
-19.266001
30
-7.979000
70
192
0
VERTEX
8
OBJECT__37
10
38.257000
20
-16.820999
30
-12.390000
70
192
0
VERTEX
8
OBJECT__37
10
37.380001
20
-18.882999
30
-15.845000
70
192
0
VERTEX
8
OBJECT__37
10
38.257000
20
-16.754999
30
-12.493000
70
192
0
VERTEX
8
OBJECT__37
10
38.257000
20
-16.179001
30
-13.231000
70
192
0
VERTEX
8
OBJECT__37
10
38.257999
20
-14.070000
30
-15.454000
70
192
0
VERTEX
8
OBJECT__37
10
38.257000
20
-14.743000
30
-14.745000
70
192
0
VERTEX
8
OBJECT__37
10
37.380001
20
-12.568000
30
-21.143000
70
192
0
VERTEX
8
OBJECT__37
10
38.257999
20
-12.569000
30
-16.632999
70
192
0
VERTEX
8
OBJECT__37
10
38.257999
20
-10.887000
30
-17.841000
70
192
0
VERTEX
8
OBJECT__37
10
38.257999
20
-11.675000
30
-17.334999
70
192
0
VERTEX
8
OBJECT__37
10
37.380001
20
-12.325000
30
-21.348000
70
192
0
VERTEX
8
OBJECT__37
10
38.257999
20
-8.162000
30
-19.240000
70
192
0
VERTEX
8
OBJECT__37
10
37.380001
20
-4.280000
30
-24.275999
70
192
0
VERTEX
8
OBJECT__37
10
38.257999
20
-5.279000
30
-20.222000
70
192
0
VERTEX
8
OBJECT__37
10
38.257999
20
-7.994000
30
-19.298000
70
192
0
VERTEX
8
OBJECT__37
10
38.257999
20
-4.368000
30
-20.438000
70
192
0
VERTEX
8
OBJECT__37
10
37.380001
20
0.000000
30
-24.275999
70
192
0
VERTEX
8
OBJECT__37
10
38.257000
20
-1.345000
30
-20.857000
70
192
0
VERTEX
8
OBJECT__37
10
38.257000
20
0.000000
30
-20.900000
70
192
0
VERTEX
8
OBJECT__37
10
37.380001
20
4.280000
30
-24.275999
70
192
0
VERTEX
8
OBJECT__37
10
38.257999
20
3.055000
30
-20.674999
70
192
0
VERTEX
8
OBJECT__37
10
38.257999
20
6.918000
30
-19.722000
70
192
0
VERTEX
8
OBJECT__37
10
38.257999
20
6.028000
30
-20.011999
70
192
0
VERTEX
8
OBJECT__37
10
37.380001
20
12.325000
30
-21.348000
70
192
0
VERTEX
8
OBJECT__37
10
38.257999
20
7.977000
30
-19.261000
70
192
0
VERTEX
8
OBJECT__37
10
38.257999
20
9.727000
30
-18.499001
70
192
0
VERTEX
8
OBJECT__37
10
37.380001
20
12.568000
30
-21.143000
70
192
0
VERTEX
8
OBJECT__37
10
38.257999
20
12.569000
30
-16.691999
70
192
0
VERTEX
8
OBJECT__37
10
38.257999
20
12.312000
30
-16.889000
70
192
0
VERTEX
8
OBJECT__37
10
37.380001
20
18.882999
30
-15.845000
70
192
0
VERTEX
8
OBJECT__37
10
38.257000
20
14.750000
30
-14.748000
70
192
0
VERTEX
8
OBJECT__37
10
38.257999
20
13.056000
30
-16.320000
70
192
0
VERTEX
8
OBJECT__37
10
38.257000
20
15.302000
30
-14.236000
70
192
0
VERTEX
8
OBJECT__37
10
37.380001
20
20.934999
30
-12.290000
70
192
0
VERTEX
8
OBJECT__37
10
38.257000
20
16.783001
30
-12.391000
70
192
0
VERTEX
8
OBJECT__37
10
38.257000
20
17.722000
30
-11.079000
70
192
0
VERTEX
8
OBJECT__37
10
38.257000
20
17.208000
30
-11.861000
70
192
0
VERTEX
8
OBJECT__37
10
37.380001
20
23.163000
30
-8.431000
70
192
0
VERTEX
8
OBJECT__37
10
38.257000
20
19.150999
30
-8.369000
70
192
0
VERTEX
8
OBJECT__37
10
38.257000
20
20.164000
30
-5.497000
70
192
0
VERTEX
8
OBJECT__37
10
38.257000
20
19.285000
30
-7.990000
70
192
0
VERTEX
8
OBJECT__37
10
38.257000
20
20.389999
30
-4.588000
70
192
0
VERTEX
8
OBJECT__37
10
37.380001
20
24.650000
30
0.000000
70
192
0
VERTEX
8
OBJECT__37
10
38.257000
20
20.841999
30
-1.558000
70
192
0
VERTEX
8
OBJECT__37
10
38.257000
20
20.844000
30
0.000000
70
192
0
VERTEX
8
OBJECT__37
10
38.257000
20
20.847000
30
1.488000
70
192
0
VERTEX
8
OBJECT__37
10
38.257000
20
20.759001
30
2.420000
70
192
0
VERTEX
8
OBJECT__37
10
37.380001
20
23.163000
30
8.431000
70
192
0
VERTEX
8
OBJECT__37
10
38.257000
20
20.183001
30
5.429000
70
192
0
VERTEX
8
OBJECT__37
10
38.257000
20
19.179001
30
8.304000
70
192
0
VERTEX
8
OBJECT__37
10
38.257000
20
19.289000
30
7.991000
70
192
0
VERTEX
8
OBJECT__37
10
37.380001
20
20.934999
30
12.290000
70
192
0
VERTEX
8
OBJECT__37
10
38.257000
20
18.788000
30
9.155000
70
192
0
VERTEX
8
OBJECT__37
10
38.257000
20
17.247999
30
11.803000
70
192
0
VERTEX
8
OBJECT__37
10
38.257000
20
16.778999
30
12.391000
70
192
0
VERTEX
8
OBJECT__37
10
37.380001
20
18.882999
30
15.845000
70
192
0
VERTEX
8
OBJECT__37
10
38.257000
20
15.349000
30
14.185000
70
192
0
VERTEX
8
OBJECT__37
10
38.257000
20
14.699000
30
14.858000
70
192
0
VERTEX
8
OBJECT__37
10
38.257000
20
14.777000
30
14.777000
70
192
0
VERTEX
8
OBJECT__37
10
37.380001
20
12.568000
30
21.143000
70
192
0
VERTEX
8
OBJECT__37
10
38.257999
20
12.569000
30
16.676001
70
192
0
VERTEX
8
OBJECT__37
10
38.257999
20
9.789000
30
18.466000
70
192
0
VERTEX
8
OBJECT__37
10
38.257999
20
12.369000
30
16.847000
70
192
0
VERTEX
8
OBJECT__37
10
37.380001
20
12.325000
30
21.348000
70
192
0
VERTEX
8
OBJECT__37
10
38.257999
20
8.952000
30
18.886000
70
192
0
VERTEX
8
OBJECT__37
10
37.380001
20
4.280000
30
24.275999
70
192
0
VERTEX
8
OBJECT__37
10
38.257999
20
6.095000
30
19.992001
70
192
0
VERTEX
8
OBJECT__37
10
38.257999
20
7.980000
30
19.261999
70
192
0
VERTEX
8
OBJECT__37
10
38.257999
20
2.196000
30
20.784000
70
192
0
VERTEX
8
OBJECT__37
10
38.257999
20
3.125000
30
20.665001
70
192
0
VERTEX
8
OBJECT__37
10
38.257000
20
0.000000
30
20.854000
70
192
0
VERTEX
8
OBJECT__37
10
0
20
0
30
0
70
128
71
1
72
2
73
3
0
VERTEX
8
OBJECT__37
10
0
20
0
30
0
70
128
71
4
72
5
73
2
0
VERTEX
8
OBJECT__37
10
0
20
0
30
0
70
128
71
4
72
6
73
5
0
VERTEX
8
OBJECT__37
10
0
20
0
30
0
70
128
71
4
72
7
73
8
0
VERTEX
8
OBJECT__37
10
0
20
0
30
0
70
128
71
8
72
6
73
4
0
VERTEX
8
OBJECT__37
10
0
20
0
30
0
70
128
71
7
72
9
73
10
0
VERTEX
8
OBJECT__37
10
0
20
0
30
0
70
128
71
9
72
7
73
11
0
VERTEX
8
OBJECT__37
10
0
20
0
30
0
70
128
71
11
72
12
73
9
0
VERTEX
8
OBJECT__37
10
0
20
0
30
0
70
128
71
11
72
13
73
12
0
VERTEX
8
OBJECT__37
10
0
20
0
30
0
70
128
71
10
72
8
73
7
0
VERTEX
8
OBJECT__37
10
0
20
0
30
0
70
128
71
2
72
1
73
4
0
VERTEX
8
OBJECT__37
10
0
20
0
30
0
70
128
71
11
72
14
73
15
0
VERTEX
8
OBJECT__37
10
0
20
0
30
0
70
128
71
14
72
16
73
17
0
VERTEX
8
OBJECT__37
10
0
20
0
30
0
70
128
71
14
72
18
73
16
0
VERTEX
8
OBJECT__37
10
0
20
0
30
0
70
128
71
14
72
19
73
20
0
VERTEX
8
OBJECT__37
10
0
20
0
30
0
70
128
71
20
72
18
73
14
0
VERTEX
8
OBJECT__37
10
0
20
0
30
0
70
128
71
17
72
15
73
14
0
VERTEX
8
OBJECT__37
10
0
20
0
30
0
70
128
71
19
72
21
73
22
0
VERTEX
8
OBJECT__37
10
0
20
0
30
0
70
128
71
21
72
23
73
22
0
VERTEX
8
OBJECT__37
10
0
20
0
30
0
70
128
71
21
72
24
73
23
0
VERTEX
8
OBJECT__37
10
0
20
0
30
0
70
128
71
21
72
25
73
24
0
VERTEX
8
OBJECT__37
10
0
20
0
30
0
70
128
71
26
72
27
73
25
0
VERTEX
8
OBJECT__37
10
0
20
0
30
0
70
128
71
26
72
28
73
27
0
VERTEX
8
OBJECT__37
10
0
20
0
30
0
70
128
71
25
72
21
73
26
0
VERTEX
8
OBJECT__37
10
0
20
0
30
0
70
128
71
22
72
29
73
19
0
VERTEX
8
OBJECT__37
10
0
20
0
30
0
70
128
71
26
72
30
73
28
0
VERTEX
8
OBJECT__37
10
0
20
0
30
0
70
128
71
26
72
31
73
30
0
VERTEX
8
OBJECT__37
10
0
20
0
30
0
70
128
71
32
72
33
73
31
0
VERTEX
8
OBJECT__37
10
0
20
0
30
0
70
128
71
32
72
34
73
33
0
VERTEX
8
OBJECT__37
10
0
20
0
30
0
70
128
71
32
72
35
73
36
0
VERTEX
8
OBJECT__37
10
0
20
0
30
0
70
128
71
36
72
37
73
32
0
VERTEX
8
OBJECT__37
10
0
20
0
30
0
70
128
71
37
72
34
73
32
0
VERTEX
8
OBJECT__37
10
0
20
0
30
0
70
128
71
31
72
26
73
32
0
VERTEX
8
OBJECT__37
10
0
20
0
30
0
70
128
71
35
72
38
73
36
0
VERTEX
8
OBJECT__37
10
0
20
0
30
0
70
128
71
39
72
40
73
38
0
VERTEX
8
OBJECT__37
10
0
20
0
30
0
70
128
71
39
72
41
73
40
0
VERTEX
8
OBJECT__37
10
0
20
0
30
0
70
128
71
39
72
42
73
43
0
VERTEX
8
OBJECT__37
10
0
20
0
30
0
70
128
71
43
72
41
73
39
0
VERTEX
8
OBJECT__37
10
0
20
0
30
0
70
128
71
44
72
45
73
42
0
VERTEX
8
OBJECT__37
10
0
20
0
30
0
70
128
71
42
72
39
73
44
0
VERTEX
8
OBJECT__37
10
0
20
0
30
0
70
128
71
44
72
46
73
47
0
VERTEX
8
OBJECT__37
10
0
20
0
30
0
70
128
71
46
72
44
73
48
0
VERTEX
8
OBJECT__37
10
0
20
0
30
0
70
128
71
48
72
49
73
46
0
VERTEX
8
OBJECT__37
10
0
20
0
30
0
70
128
71
50
72
51
73
52
0
VERTEX
8
OBJECT__37
10
0
20
0
30
0
70
128
71
52
72
48
73
50
0
VERTEX
8
OBJECT__37
10
0
20
0
30
0
70
128
71
50
72
53
73
51
0
VERTEX
8
OBJECT__37
10
0
20
0
30
0
70
128
71
50
72
54
73
55
0
VERTEX
8
OBJECT__37
10
0
20
0
30
0
70
128
71
55
72
53
73
50
0
VERTEX
8
OBJECT__37
10
0
20
0
30
0
70
128
71
54
72
56
73
55
0
VERTEX
8
OBJECT__37
10
0
20
0
30
0
70
128
71
52
72
49
73
48
0
VERTEX
8
OBJECT__37
10
0
20
0
30
0
70
128
71
54
72
57
73
58
0
VERTEX
8
OBJECT__37
10
0
20
0
30
0
70
128
71
57
72
59
73
60
0
VERTEX
8
OBJECT__37
10
0
20
0
30
0
70
128
71
61
72
62
73
59
0
VERTEX
8
OBJECT__37
10
0
20
0
30
0
70
128
71
61
72
63
73
62
0
VERTEX
8
OBJECT__37
10
0
20
0
30
0
70
128
71
59
72
57
73
61
0
VERTEX
8
OBJECT__37
10
0
20
0
30
0
70
128
71
63
72
61
73
64
0
VERTEX
8
OBJECT__37
10
0
20
0
30
0
70
128
71
64
72
65
73
66
0
VERTEX
8
OBJECT__37
10
0
20
0
30
0
70
128
71
64
72
66
73
63
0
VERTEX
8
OBJECT__37
10
0
20
0
30
0
70
128
71
60
72
58
73
57
0
VERTEX
8
OBJECT__37
10
0
20
0
30
0
70
128
71
67
72
68
73
69
0
VERTEX
8
OBJECT__37
10
0
20
0
30
0
70
128
71
67
72
70
73
68
0
VERTEX
8
OBJECT__37
10
0
20
0
30
0
70
128
71
69
72
64
73
67
0
VERTEX
8
OBJECT__37
10
0
20
0
30
0
70
128
71
67
72
71
73
72
0
VERTEX
8
OBJECT__37
10
0
20
0
30
0
70
128
71
72
72
70
73
67
0
VERTEX
8
OBJECT__37
10
0
20
0
30
0
70
128
71
71
72
73
73
74
0
VERTEX
8
OBJECT__37
10
0
20
0
30
0
70
128
71
71
72
75
73
76
0
VERTEX
8
OBJECT__37
10
0
20
0
30
0
70
128
71
76
72
73
73
71
0
VERTEX
8
OBJECT__37
10
0
20
0
30
0
70
128
71
75
72
77
73
78
0
VERTEX
8
OBJECT__37
10
0
20
0
30
0
70
128
71
75
72
79
73
77
0
VERTEX
8
OBJECT__37
10
0
20
0
30
0
70
128
71
80
72
81
73
79
0
VERTEX
8
OBJECT__37
10
0
20
0
30
0
70
128
71
79
72
75
73
80
0
VERTEX
8
OBJECT__37
10
0
20
0
30
0
70
128
71
78
72
76
73
75
0
VERTEX
8
OBJECT__37
10
0
20
0
30
0
70
128
71
80
72
82
73
81
0
VERTEX
8
OBJECT__37
10
0
20
0
30
0
70
128
71
80
72
83
73
82
0
VERTEX
8
OBJECT__37
10
0
20
0
30
0
70
128
71
80
72
84
73
83
0
VERTEX
8
OBJECT__37
10
0
20
0
30
0
70
128
71
85
72
86
73
84
0
VERTEX
8
OBJECT__37
10
0
20
0
30
0
70
128
71
84
72
80
73
85
0
VERTEX
8
OBJECT__37
10
0
20
0
30
0
70
128
71
85
72
87
73
88
0
VERTEX
8
OBJECT__37
10
0
20
0
30
0
70
128
71
85
72
89
73
90
0
VERTEX
8
OBJECT__37
10
0
20
0
30
0
70
128
71
90
72
87
73
85
0
VERTEX
8
OBJECT__37
10
0
20
0
30
0
70
128
71
89
72
91
73
90
0
VERTEX
8
OBJECT__37
10
0
20
0
30
0
70
128
71
88
72
86
73
85
0
VERTEX
8
OBJECT__37
10
0
20
0
30
0
70
128
71
89
72
92
73
91
0
VERTEX
8
OBJECT__37
10
0
20
0
30
0
70
128
71
93
72
94
73
92
0
VERTEX
8
OBJECT__37
10
0
20
0
30
0
70
128
71
93
72
95
73
96
0
VERTEX
8
OBJECT__37
10
0
20
0
30
0
70
128
71
96
72
94
73
93
0
VERTEX
8
OBJECT__37
10
0
20
0
30
0
70
128
71
93
72
97
73
98
0
VERTEX
8
OBJECT__37
10
0
20
0
30
0
70
128
71
98
72
95
73
93
0
VERTEX
8
OBJECT__37
10
0
20
0
30
0
70
128
71
99
72
100
73
97
0
VERTEX
8
OBJECT__37
10
0
20
0
30
0
70
128
71
101
72
102
73
99
0
VERTEX
8
OBJECT__37
10
0
20
0
30
0
70
128
71
101
72
103
73
104
0
VERTEX
8
OBJECT__37
10
0
20
0
30
0
70
128
71
104
72
105
73
101
0
VERTEX
8
OBJECT__37
10
0
20
0
30
0
70
128
71
105
72
102
73
101
0
VERTEX
8
OBJECT__37
10
0
20
0
30
0
70
128
71
103
72
106
73
107
0
VERTEX
8
OBJECT__37
10
0
20
0
30
0
70
128
71
1
72
108
73
106
0
VERTEX
8
OBJECT__37
10
0
20
0
30
0
70
128
71
106
72
103
73
1
0
VERTEX
8
OBJECT__37
10
0
20
0
30
0
70
128
71
107
72
104
73
103
0
VERTEX
8
OBJECT__37
10
0
20
0
30
0
70
128
71
97
72
101
73
99
0
VERTEX
8
OBJECT__37
10
0
20
0
30
0
70
128
71
100
72
98
73
97
0
VERTEX
8
OBJECT__37
10
0
20
0
30
0
70
128
71
92
72
89
73
93
0
VERTEX
8
OBJECT__37
10
0
20
0
30
0
70
128
71
74
72
72
73
71
0
VERTEX
8
OBJECT__37
10
0
20
0
30
0
70
128
71
69
72
65
73
64
0
VERTEX
8
OBJECT__37
10
0
20
0
30
0
70
128
71
58
72
56
73
54
0
VERTEX
8
OBJECT__37
10
0
20
0
30
0
70
128
71
47
72
45
73
44
0
VERTEX
8
OBJECT__37
10
0
20
0
30
0
70
128
71
38
72
35
73
39
0
VERTEX
8
OBJECT__37
10
0
20
0
30
0
70
128
71
29
72
20
73
19
0
VERTEX
8
OBJECT__37
10
0
20
0
30
0
70
128
71
15
72
13
73
11
0
VERTEX
8
OBJECT__37
10
0
20
0
30
0
70
128
71
3
72
108
73
1
0
SEQEND
8
OBJECT__37
0
POLYLINE
8
OBJECT__39
66
1
70
64
71
96
72
96
62
253
0
VERTEX
8
OBJECT__39
10
37.403999
20
7.998000
30
-19.309000
70
192
0
VERTEX
8
OBJECT__39
10
38.257999
20
6.028000
30
-20.011999
70
192
0
VERTEX
8
OBJECT__39
10
38.257999
20
6.918000
30
-19.722000
70
192
0
VERTEX
8
OBJECT__39
10
37.403999
20
0.000000
30
-20.900000
70
192
0
VERTEX
8
OBJECT__39
10
38.257999
20
3.055000
30
-20.674999
70
192
0
VERTEX
8
OBJECT__39
10
38.257000
20
0.000000
30
-20.900000
70
192
0
VERTEX
8
OBJECT__39
10
37.403999
20
14.779000
30
-14.779000
70
192
0
VERTEX
8
OBJECT__39
10
38.257999
20
12.569000
30
-16.691999
70
192
0
VERTEX
8
OBJECT__39
10
38.257999
20
13.056000
30
-16.320000
70
192
0
VERTEX
8
OBJECT__39
10
38.257999
20
9.727000
30
-18.499001
70
192
0
VERTEX
8
OBJECT__39
10
38.257999
20
12.312000
30
-16.889000
70
192
0
VERTEX
8
OBJECT__39
10
38.257999
20
7.977000
30
-19.261000
70
192
0
VERTEX
8
OBJECT__39
10
37.403999
20
19.309000
30
-7.998000
70
192
0
VERTEX
8
OBJECT__39
10
38.257000
20
17.208000
30
-11.861000
70
192
0
VERTEX
8
OBJECT__39
10
38.257000
20
15.302000
30
-14.236000
70
192
0
VERTEX
8
OBJECT__39
10
38.257000
20
16.783001
30
-12.391000
70
192
0
VERTEX
8
OBJECT__39
10
38.257000
20
14.750000
30
-14.748000
70
192
0
VERTEX
8
OBJECT__39
10
38.257000
20
17.722000
30
-11.079000
70
192
0
VERTEX
8
OBJECT__39
10
38.257000
20
19.150999
30
-8.369000
70
192
0
VERTEX
8
OBJECT__39
10
37.403999
20
20.900000
30
0.000000
70
192
0
VERTEX
8
OBJECT__39
10
38.257000
20
20.389999
30
-4.588000
70
192
0
VERTEX
8
OBJECT__39
10
38.257000
20
20.841999
30
-1.558000
70
192
0
VERTEX
8
OBJECT__39
10
38.257000
20
20.164000
30
-5.497000
70
192
0
VERTEX
8
OBJECT__39
10
38.257000
20
20.844000
30
0.000000
70
192
0
VERTEX
8
OBJECT__39
10
38.257000
20
19.285000
30
-7.990000
70
192
0
VERTEX
8
OBJECT__39
10
38.257000
20
20.759001
30
2.420000
70
192
0
VERTEX
8
OBJECT__39
10
38.257000
20
20.183001
30
5.429000
70
192
0
VERTEX
8
OBJECT__39
10
38.257000
20
20.847000
30
1.488000
70
192
0
VERTEX
8
OBJECT__39
10
37.403999
20
19.309000
30
7.998000
70
192
0
VERTEX
8
OBJECT__39
10
37.403999
20
14.779000
30
14.779000
70
192
0
VERTEX
8
OBJECT__39
10
38.257000
20
17.247999
30
11.803000
70
192
0
VERTEX
8
OBJECT__39
10
38.257000
20
16.778999
30
12.391000
70
192
0
VERTEX
8
OBJECT__39
10
38.257000
20
15.349000
30
14.185000
70
192
0
VERTEX
8
OBJECT__39
10
38.257000
20
18.788000
30
9.155000
70
192
0
VERTEX
8
OBJECT__39
10
38.257000
20
19.289000
30
7.991000
70
192
0
VERTEX
8
OBJECT__39
10
38.257000
20
19.179001
30
8.304000
70
192
0
VERTEX
8
OBJECT__39
10
37.403999
20
7.998000
30
19.309000
70
192
0
VERTEX
8
OBJECT__39
10
38.257999
20
12.369000
30
16.847000
70
192
0
VERTEX
8
OBJECT__39
10
38.257999
20
9.789000
30
18.466000
70
192
0
VERTEX
8
OBJECT__39
10
38.257999
20
12.569000
30
16.676001
70
192
0
VERTEX
8
OBJECT__39
10
38.257999
20
8.952000
30
18.886000
70
192
0
VERTEX
8
OBJECT__39
10
38.257000
20
14.777000
30
14.777000
70
192
0
VERTEX
8
OBJECT__39
10
38.257000
20
14.699000
30
14.858000
70
192
0
VERTEX
8
OBJECT__39
10
37.403999
20
0.000000
30
20.900000
70
192
0
VERTEX
8
OBJECT__39
10
38.257999
20
2.196000
30
20.784000
70
192
0
VERTEX
8
OBJECT__39
10
38.257000
20
0.000000
30
20.854000
70
192
0
VERTEX
8
OBJECT__39
10
38.257999
20
6.095000
30
19.992001
70
192
0
VERTEX
8
OBJECT__39
10
38.257999
20
3.125000
30
20.665001
70
192
0
VERTEX
8
OBJECT__39
10
38.257999
20
7.980000
30
19.261999
70
192
0
VERTEX
8
OBJECT__39
10
37.403999
20
-7.998000
30
19.309000
70
192
0
VERTEX
8
OBJECT__39
10
38.257999
20
-4.807000
30
20.340000
70
192
0
VERTEX
8
OBJECT__39
10
38.257999
20
-7.729000
30
19.417999
70
192
0
VERTEX
8
OBJECT__39
10
38.257999
20
-3.892000
30
20.534000
70
192
0
VERTEX
8
OBJECT__39
10
38.257000
20
-0.866000
30
20.882000
70
192
0
VERTEX
8
OBJECT__39
10
38.257000
20
-0.001000
30
20.854000
70
192
0
VERTEX
8
OBJECT__39
10
37.403999
20
-14.779000
30
14.779000
70
192
0
VERTEX
8
OBJECT__39
10
38.257999
20
-12.569000
30
16.628000
70
192
0
VERTEX
8
OBJECT__39
10
38.257999
20
-13.721000
30
15.765000
70
192
0
VERTEX
8
OBJECT__39
10
38.257999
20
-11.269000
30
17.601999
70
192
0
VERTEX
8
OBJECT__39
10
38.257999
20
-7.990000
30
19.292000
70
192
0
VERTEX
8
OBJECT__39
10
38.257999
20
-10.469000
30
18.089001
70
192
0
VERTEX
8
OBJECT__39
10
37.403999
20
-19.309000
30
7.998000
70
192
0
VERTEX
8
OBJECT__39
10
38.257000
20
-16.787001
30
12.391000
70
192
0
VERTEX
8
OBJECT__39
10
38.257000
20
-16.459999
30
12.879000
70
192
0
VERTEX
8
OBJECT__39
10
38.257000
20
-14.739000
30
14.740000
70
192
0
VERTEX
8
OBJECT__39
10
38.257000
20
-15.867000
30
13.604000
70
192
0
VERTEX
8
OBJECT__39
10
38.257000
20
-18.166000
30
10.335000
70
192
0
VERTEX
8
OBJECT__39
10
37.403999
20
-20.900000
30
0.000000
70
192
0
VERTEX
8
OBJECT__39
10
38.257000
20
-20.563000
30
3.739000
70
192
0
VERTEX
8
OBJECT__39
10
38.257000
20
-20.888000
30
0.711000
70
192
0
VERTEX
8
OBJECT__39
10
38.257000
20
-19.795000
30
6.705000
70
192
0
VERTEX
8
OBJECT__39
10
38.257000
20
-20.896000
30
0.000000
70
192
0
VERTEX
8
OBJECT__39
10
38.257000
20
-19.475000
30
7.585000
70
192
0
VERTEX
8
OBJECT__39
10
38.257000
20
-19.284000
30
7.986000
70
192
0
VERTEX
8
OBJECT__39
10
37.403999
20
-19.309000
30
-7.998000
70
192
0
VERTEX
8
OBJECT__39
10
38.257000
20
-20.641001
30
-3.278000
70
192
0
VERTEX
8
OBJECT__39
10
38.257000
20
-20.899000
30
-0.225000
70
192
0
VERTEX
8
OBJECT__39
10
38.257000
20
-19.945999
30
-6.243000
70
192
0
VERTEX
8
OBJECT__39
10
38.257000
20
-19.646000
30
-7.130000
70
192
0
VERTEX
8
OBJECT__39
10
37.403999
20
-14.779000
30
-14.779000
70
192
0
VERTEX
8
OBJECT__39
10
38.257000
20
-16.754999
30
-12.493000
70
192
0
VERTEX
8
OBJECT__39
10
38.257000
20
-16.179001
30
-13.231000
70
192
0
VERTEX
8
OBJECT__39
10
38.257000
20
-18.393000
30
-9.926000
70
192
0
VERTEX
8
OBJECT__39
10
38.257000
20
-16.820999
30
-12.390000
70
192
0
VERTEX
8
OBJECT__39
10
38.257000
20
-19.266001
30
-7.979000
70
192
0
VERTEX
8
OBJECT__39
10
37.403999
20
-7.998000
30
-19.309000
70
192
0
VERTEX
8
OBJECT__39
10
38.257999
20
-10.887000
30
-17.841000
70
192
0
VERTEX
8
OBJECT__39
10
38.257999
20
-8.162000
30
-19.240000
70
192
0
VERTEX
8
OBJECT__39
10
38.257999
20
-11.675000
30
-17.334999
70
192
0
VERTEX
8
OBJECT__39
10
38.257999
20
-12.569000
30
-16.632999
70
192
0
VERTEX
8
OBJECT__39
10
38.257000
20
-14.743000
30
-14.745000
70
192
0
VERTEX
8
OBJECT__39
10
38.257999
20
-14.070000
30
-15.454000
70
192
0
VERTEX
8
OBJECT__39
10
38.257999
20
-4.368000
30
-20.438000
70
192
0
VERTEX
8
OBJECT__39
10
38.257999
20
-7.994000
30
-19.298000
70
192
0
VERTEX
8
OBJECT__39
10
38.257999
20
-5.279000
30
-20.222000
70
192
0
VERTEX
8
OBJECT__39
10
38.257000
20
-1.345000
30
-20.857000
70
192
0
VERTEX
8
OBJECT__39
10
0
20
0
30
0
70
128
71
1
72
2
73
3
0
VERTEX
8
OBJECT__39
10
0
20
0
30
0
70
128
71
1
72
4
73
5
0
VERTEX
8
OBJECT__39
10
0
20
0
30
0
70
128
71
5
72
2
73
1
0
VERTEX
8
OBJECT__39
10
0
20
0
30
0
70
128
71
4
72
6
73
5
0
VERTEX
8
OBJECT__39
10
0
20
0
30
0
70
128
71
7
72
8
73
9
0
VERTEX
8
OBJECT__39
10
0
20
0
30
0
70
128
71
1
72
10
73
11
0
VERTEX
8
OBJECT__39
10
0
20
0
30
0
70
128
71
1
72
12
73
10
0
VERTEX
8
OBJECT__39
10
0
20
0
30
0
70
128
71
11
72
7
73
1
0
VERTEX
8
OBJECT__39
10
0
20
0
30
0
70
128
71
11
72
8
73
7
0
VERTEX
8
OBJECT__39
10
0
20
0
30
0
70
128
71
13
72
7
73
14
0
VERTEX
8
OBJECT__39
10
0
20
0
30
0
70
128
71
7
72
15
73
16
0
VERTEX
8
OBJECT__39
10
0
20
0
30
0
70
128
71
7
72
17
73
15
0
VERTEX
8
OBJECT__39
10
0
20
0
30
0
70
128
71
16
72
14
73
7
0
VERTEX
8
OBJECT__39
10
0
20
0
30
0
70
128
71
14
72
18
73
13
0
VERTEX
8
OBJECT__39
10
0
20
0
30
0
70
128
71
18
72
19
73
13
0
VERTEX
8
OBJECT__39
10
0
20
0
30
0
70
128
71
20
72
13
73
21
0
VERTEX
8
OBJECT__39
10
0
20
0
30
0
70
128
71
21
72
22
73
20
0
VERTEX
8
OBJECT__39
10
0
20
0
30
0
70
128
71
13
72
23
73
21
0
VERTEX
8
OBJECT__39
10
0
20
0
30
0
70
128
71
22
72
24
73
20
0
VERTEX
8
OBJECT__39
10
0
20
0
30
0
70
128
71
13
72
25
73
23
0
VERTEX
8
OBJECT__39
10
0
20
0
30
0
70
128
71
20
72
26
73
27
0
VERTEX
8
OBJECT__39
10
0
20
0
30
0
70
128
71
20
72
24
73
28
0
VERTEX
8
OBJECT__39
10
0
20
0
30
0
70
128
71
28
72
26
73
20
0
VERTEX
8
OBJECT__39
10
0
20
0
30
0
70
128
71
27
72
29
73
20
0
VERTEX
8
OBJECT__39
10
0
20
0
30
0
70
128
71
30
72
31
73
32
0
VERTEX
8
OBJECT__39
10
0
20
0
30
0
70
128
71
32
72
33
73
30
0
VERTEX
8
OBJECT__39
10
0
20
0
30
0
70
128
71
29
72
34
73
31
0
VERTEX
8
OBJECT__39
10
0
20
0
30
0
70
128
71
29
72
35
73
36
0
VERTEX
8
OBJECT__39
10
0
20
0
30
0
70
128
71
36
72
34
73
29
0
VERTEX
8
OBJECT__39
10
0
20
0
30
0
70
128
71
31
72
30
73
29
0
VERTEX
8
OBJECT__39
10
0
20
0
30
0
70
128
71
37
72
30
73
38
0
VERTEX
8
OBJECT__39
10
0
20
0
30
0
70
128
71
38
72
39
73
37
0
VERTEX
8
OBJECT__39
10
0
20
0
30
0
70
128
71
30
72
40
73
38
0
VERTEX
8
OBJECT__39
10
0
20
0
30
0
70
128
71
39
72
41
73
37
0
VERTEX
8
OBJECT__39
10
0
20
0
30
0
70
128
71
30
72
42
73
43
0
VERTEX
8
OBJECT__39
10
0
20
0
30
0
70
128
71
43
72
40
73
30
0
VERTEX
8
OBJECT__39
10
0
20
0
30
0
70
128
71
44
72
45
73
46
0
VERTEX
8
OBJECT__39
10
0
20
0
30
0
70
128
71
37
72
47
73
48
0
VERTEX
8
OBJECT__39
10
0
20
0
30
0
70
128
71
37
72
49
73
47
0
VERTEX
8
OBJECT__39
10
0
20
0
30
0
70
128
71
48
72
44
73
37
0
VERTEX
8
OBJECT__39
10
0
20
0
30
0
70
128
71
48
72
45
73
44
0
VERTEX
8
OBJECT__39
10
0
20
0
30
0
70
128
71
50
72
51
73
52
0
VERTEX
8
OBJECT__39
10
0
20
0
30
0
70
128
71
50
72
44
73
53
0
VERTEX
8
OBJECT__39
10
0
20
0
30
0
70
128
71
53
72
51
73
50
0
VERTEX
8
OBJECT__39
10
0
20
0
30
0
70
128
71
44
72
54
73
53
0
VERTEX
8
OBJECT__39
10
0
20
0
30
0
70
128
71
44
72
55
73
54
0
VERTEX
8
OBJECT__39
10
0
20
0
30
0
70
128
71
56
72
57
73
58
0
VERTEX
8
OBJECT__39
10
0
20
0
30
0
70
128
71
56
72
50
73
59
0
VERTEX
8
OBJECT__39
10
0
20
0
30
0
70
128
71
50
72
60
73
61
0
VERTEX
8
OBJECT__39
10
0
20
0
30
0
70
128
71
61
72
59
73
50
0
VERTEX
8
OBJECT__39
10
0
20
0
30
0
70
128
71
59
72
57
73
56
0
VERTEX
8
OBJECT__39
10
0
20
0
30
0
70
128
71
62
72
56
73
63
0
VERTEX
8
OBJECT__39
10
0
20
0
30
0
70
128
71
56
72
64
73
63
0
VERTEX
8
OBJECT__39
10
0
20
0
30
0
70
128
71
56
72
65
73
66
0
VERTEX
8
OBJECT__39
10
0
20
0
30
0
70
128
71
66
72
64
73
56
0
VERTEX
8
OBJECT__39
10
0
20
0
30
0
70
128
71
63
72
67
73
62
0
VERTEX
8
OBJECT__39
10
0
20
0
30
0
70
128
71
68
72
69
73
70
0
VERTEX
8
OBJECT__39
10
0
20
0
30
0
70
128
71
62
72
71
73
69
0
VERTEX
8
OBJECT__39
10
0
20
0
30
0
70
128
71
69
72
68
73
62
0
VERTEX
8
OBJECT__39
10
0
20
0
30
0
70
128
71
70
72
72
73
68
0
VERTEX
8
OBJECT__39
10
0
20
0
30
0
70
128
71
62
72
73
73
71
0
VERTEX
8
OBJECT__39
10
0
20
0
30
0
70
128
71
62
72
74
73
73
0
VERTEX
8
OBJECT__39
10
0
20
0
30
0
70
128
71
75
72
68
73
76
0
VERTEX
8
OBJECT__39
10
0
20
0
30
0
70
128
71
68
72
72
73
77
0
VERTEX
8
OBJECT__39
10
0
20
0
30
0
70
128
71
77
72
76
73
68
0
VERTEX
8
OBJECT__39
10
0
20
0
30
0
70
128
71
76
72
78
73
75
0
VERTEX
8
OBJECT__39
10
0
20
0
30
0
70
128
71
78
72
79
73
75
0
VERTEX
8
OBJECT__39
10
0
20
0
30
0
70
128
71
80
72
81
73
82
0
VERTEX
8
OBJECT__39
10
0
20
0
30
0
70
128
71
75
72
83
73
84
0
VERTEX
8
OBJECT__39
10
0
20
0
30
0
70
128
71
84
72
80
73
75
0
VERTEX
8
OBJECT__39
10
0
20
0
30
0
70
128
71
84
72
81
73
80
0
VERTEX
8
OBJECT__39
10
0
20
0
30
0
70
128
71
75
72
85
73
83
0
VERTEX
8
OBJECT__39
10
0
20
0
30
0
70
128
71
86
72
87
73
88
0
VERTEX
8
OBJECT__39
10
0
20
0
30
0
70
128
71
86
72
80
73
89
0
VERTEX
8
OBJECT__39
10
0
20
0
30
0
70
128
71
89
72
87
73
86
0
VERTEX
8
OBJECT__39
10
0
20
0
30
0
70
128
71
80
72
90
73
89
0
VERTEX
8
OBJECT__39
10
0
20
0
30
0
70
128
71
80
72
91
73
92
0
VERTEX
8
OBJECT__39
10
0
20
0
30
0
70
128
71
92
72
90
73
80
0
VERTEX
8
OBJECT__39
10
0
20
0
30
0
70
128
71
4
72
86
73
93
0
VERTEX
8
OBJECT__39
10
0
20
0
30
0
70
128
71
86
72
94
73
95
0
VERTEX
8
OBJECT__39
10
0
20
0
30
0
70
128
71
95
72
93
73
86
0
VERTEX
8
OBJECT__39
10
0
20
0
30
0
70
128
71
93
72
96
73
4
0
VERTEX
8
OBJECT__39
10
0
20
0
30
0
70
128
71
96
72
6
73
4
0
VERTEX
8
OBJECT__39
10
0
20
0
30
0
70
128
71
88
72
94
73
86
0
VERTEX
8
OBJECT__39
10
0
20
0
30
0
70
128
71
82
72
91
73
80
0
VERTEX
8
OBJECT__39
10
0
20
0
30
0
70
128
71
79
72
85
73
75
0
VERTEX
8
OBJECT__39
10
0
20
0
30
0
70
128
71
67
72
74
73
62
0
VERTEX
8
OBJECT__39
10
0
20
0
30
0
70
128
71
58
72
65
73
56
0
VERTEX
8
OBJECT__39
10
0
20
0
30
0
70
128
71
52
72
60
73
50
0
VERTEX
8
OBJECT__39
10
0
20
0
30
0
70
128
71
46
72
55
73
44
0
VERTEX
8
OBJECT__39
10
0
20
0
30
0
70
128
71
41
72
49
73
37
0
VERTEX
8
OBJECT__39
10
0
20
0
30
0
70
128
71
33
72
42
73
30
0
VERTEX
8
OBJECT__39
10
0
20
0
30
0
70
128
71
27
72
35
73
29
0
VERTEX
8
OBJECT__39
10
0
20
0
30
0
70
128
71
19
72
25
73
13
0
VERTEX
8
OBJECT__39
10
0
20
0
30
0
70
128
71
9
72
17
73
7
0
VERTEX
8
OBJECT__39
10
0
20
0
30
0
70
128
71
3
72
12
73
1
0
SEQEND
8
OBJECT__39
0
ENDSEC
0
EOF
