  0
SECTION
  2
HEADER
  9
$ACADVER
  1
AC1015
  9
$ACADMAINTVER
 70
     6
  9
$DWGCODEPAGE
  3
ANSI_1252
  9
$INSBASE
 10
0.0
 20
0.0
 30
0.0
  9
$EXTMIN
 10
0.0
 20
0.0
 30
0.0
  9
$EXTMAX
 10
1682.0
 20
2378.0
 30
0.0
  9
$LIMMIN
 10
0.0
 20
0.0
  9
$LIMMAX
 10
1682.0
 20
2378.0
  9
$ORTHOMODE
 70
     0
  9
$REGENMODE
 70
     1
  9
$FILLMODE
 70
     1
  9
$QTEXTMODE
 70
     0
  9
$MIRRTEXT
 70
     1
  9
$LTSCALE
 40
1.0
  9
$ATTMODE
 70
     1
  9
$TEXTSIZE
 40
2.5
  9
$TRACEWID
 40
1.0
  9
$TEXTSTYLE
  7
Standard
  9
$CLAYER
  8
0
  9
$CELTYPE
  6
ByLayer
  9
$CECOLOR
 62
   256
  9
$CELTSCALE
 40
1.0
  9
$DISPSILH
 70
     0
  9
$DIMSCALE
 40
1.0
  9
$DIMASZ
 40
2.5
  9
$DIMEXO
 40
0.625
  9
$DIMDLI
 40
3.75
  9
$DIMRND
 40
0.0
  9
$DIMDLE
 40
0.0
  9
$DIMEXE
 40
1.25
  9
$DIMTP
 40
0.0
  9
$DIMTM
 40
0.0
  9
$DIMTXT
 40
2.5
  9
$DIMCEN
 40
2.5
  9
$DIMTSZ
 40
0.0
  9
$DIMTOL
 70
     0
  9
$DIMLIM
 70
     0
  9
$DIMTIH
 70
     0
  9
$DIMTOH
 70
     0
  9
$DIMSE1
 70
     0
  9
$DIMSE2
 70
     0
  9
$DIMTAD
 70
     1
  9
$DIMZIN
 70
     8
  9
$DIMBLK
  1

  9
$DIMASO
 70
     1
  9
$DIMSHO
 70
     1
  9
$DIMPOST
  1

  9
$DIMAPOST
  1

  9
$DIMALT
 70
     0
  9
$DIMALTD
 70
     3
  9
$DIMALTF
 40
0.0393700787
  9
$DIMLFAC
 40
1.0
  9
$DIMTOFL
 70
     1
  9
$DIMTVP
 40
0.0
  9
$DIMTIX
 70
     0
  9
$DIMSOXD
 70
     0
  9
$DIMSAH
 70
     0
  9
$DIMBLK1
  1

  9
$DIMBLK2
  1

  9
$DIMSTYLE
  2
ISO-25
  9
$DIMCLRD
 70
     0
  9
$DIMCLRE
 70
     0
  9
$DIMCLRT
 70
     0
  9
$DIMTFAC
 40
1.0
  9
$DIMGAP
 40
0.625
  9
$DIMJUST
 70
     0
  9
$DIMSD1
 70
     0
  9
$DIMSD2
 70
     0
  9
$DIMTOLJ
 70
     0
  9
$DIMTZIN
 70
     8
  9
$DIMALTZ
 70
     0
  9
$DIMALTTZ
 70
     0
  9
$DIMUPT
 70
     0
  9
$DIMDEC
 70
     2
  9
$DIMTDEC
 70
     2
  9
$DIMALTU
 70
     2
  9
$DIMALTTD
 70
     3
  9
$DIMTXSTY
  7
Standard
  9
$DIMAUNIT
 70
     0
  9
$DIMADEC
 70
     0
  9
$DIMALTRND
 40
0.0
  9
$DIMAZIN
 70
     0
  9
$DIMDSEP
 70
    44
  9
$DIMATFIT
 70
     3
  9
$DIMFRAC
 70
     0
  9
$DIMLDRBLK
  1

  9
$DIMLUNIT
 70
     2
  9
$DIMLWD
 70
    -2
  9
$DIMLWE
 70
    -2
  9
$DIMTMOVE
 70
     0
  9
$LUNITS
 70
     2
  9
$LUPREC
 70
     4
  9
$SKETCHINC
 40
1.0
  9
$FILLETRAD
 40
10.0
  9
$AUNITS
 70
     0
  9
$AUPREC
 70
     0
  9
$MENU
  1
.
  9
$ELEVATION
 40
0.0
  9
$PELEVATION
 40
0.0
  9
$THICKNESS
 40
0.0
  9
$LIMCHECK
 70
     0
  9
$CHAMFERA
 40
10.0
  9
$CHAMFERB
 40
10.0
  9
$CHAMFERC
 40
20.0
  9
$CHAMFERD
 40
0.0
  9
$SKPOLY
 70
     0
  9
$TDCREATE
 40
2455348.530833866
  9
$TDUCREATE
 40
2455348.447500532
  9
$TDUPDATE
 40
2455348.530833877
  9
$TDUUPDATE
 40
2455348.447500544
  9
$TDINDWG
 40
0.0000000116
  9
$TDUSRTIMER
 40
0.0000000116
  9
$USRTIMER
 70
     1
  9
$ANGBASE
 50
0.0
  9
$ANGDIR
 70
     0
  9
$PDMODE
 70
     0
  9
$PDSIZE
 40
0.0
  9
$PLINEWID
 40
0.0
  9
$SPLFRAME
 70
     0
  9
$SPLINETYPE
 70
     6
  9
$SPLINESEGS
 70
     8
  9
$HANDSEED
  5
F9
  9
$SURFTAB1
 70
     6
  9
$SURFTAB2
 70
     6
  9
$SURFTYPE
 70
     6
  9
$SURFU
 70
     6
  9
$SURFV
 70
     6
  9
$UCSBASE
  2

  9
$UCSNAME
  2

  9
$UCSORG
 10
0.0
 20
0.0
 30
0.0
  9
$UCSXDIR
 10
1.0
 20
0.0
 30
0.0
  9
$UCSYDIR
 10
0.0
 20
1.0
 30
0.0
  9
$UCSORTHOREF
  2

  9
$UCSORTHOVIEW
 70
     0
  9
$UCSORGTOP
 10
0.0
 20
0.0
 30
0.0
  9
$UCSORGBOTTOM
 10
0.0
 20
0.0
 30
0.0
  9
$UCSORGLEFT
 10
0.0
 20
0.0
 30
0.0
  9
$UCSORGRIGHT
 10
0.0
 20
0.0
 30
0.0
  9
$UCSORGFRONT
 10
0.0
 20
0.0
 30
0.0
  9
$UCSORGBACK
 10
0.0
 20
0.0
 30
0.0
  9
$PUCSBASE
  2

  9
$PUCSNAME
  2

  9
$PUCSORG
 10
0.0
 20
0.0
 30
0.0
  9
$PUCSXDIR
 10
1.0
 20
0.0
 30
0.0
  9
$PUCSYDIR
 10
0.0
 20
1.0
 30
0.0
  9
$PUCSORTHOREF
  2

  9
$PUCSORTHOVIEW
 70
     0
  9
$PUCSORGTOP
 10
0.0
 20
0.0
 30
0.0
  9
$PUCSORGBOTTOM
 10
0.0
 20
0.0
 30
0.0
  9
$PUCSORGLEFT
 10
0.0
 20
0.0
 30
0.0
  9
$PUCSORGRIGHT
 10
0.0
 20
0.0
 30
0.0
  9
$PUCSORGFRONT
 10
0.0
 20
0.0
 30
0.0
  9
$PUCSORGBACK
 10
0.0
 20
0.0
 30
0.0
  9
$USERI1
 70
     0
  9
$USERI2
 70
     0
  9
$USERI3
 70
     0
  9
$USERI4
 70
     0
  9
$USERI5
 70
     0
  9
$USERR1
 40
0.0
  9
$USERR2
 40
0.0
  9
$USERR3
 40
0.0
  9
$USERR4
 40
0.0
  9
$USERR5
 40
0.0
  9
$WORLDVIEW
 70
     1
  9
$SHADEDGE
 70
     3
  9
$SHADEDIF
 70
    70
  9
$TILEMODE
 70
     1
  9
$MAXACTVP
 70
    64
  9
$PINSBASE
 10
0.0
 20
0.0
 30
0.0
  9
$PLIMCHECK
 70
     0
  9
$PEXTMIN
 10
0.0
 20
0.0
 30
0.0
  9
$PEXTMAX
 10
1682.0
 20
2378.0
 30
0.0
  9
$PLIMMIN
 10
0.0
 20
0.0
  9
$PLIMMAX
 10
1682.0
 20
2378.0
  9
$UNITMODE
 70
     0
  9
$VISRETAIN
 70
     1
  9
$PLINEGEN
 70
     0
  9
$PSLTSCALE
 70
     1
  9
$TREEDEPTH
 70
  3020
  9
$CMLSTYLE
  2
Standard
  9
$CMLJUST
 70
     0
  9
$CMLSCALE
 40
20.0
  9
$PROXYGRAPHICS
 70
     1
  9
$MEASUREMENT
 70
     1
  9
$CELWEIGHT
370
    -1
  9
$ENDCAPS
280
     0
  9
$JOINSTYLE
280
     0
  9
$LWDISPLAY
290
     0
  9
$INSUNITS
 70
     4
  9
$HYPERLINKBASE
  1

  9
$STYLESHEET
  1

  9
$XEDIT
290
     1
  9
$CEPSNTYPE
380
     0
  9
$PSTYLEMODE
290
     1
  9
$FINGERPRINTGUID
  2
{AF5B0478-59E6-4E8C-9E01-CACD9D4EEC5C}
  9
$VERSIONGUID
  2
{FAEB1C32-E019-11D5-929B-00C0DF256EC4}
  9
$EXTNAMES
290
     1
  9
$PSVPSCALE
 40
0.0
  9
$OLESTARTUP
290
     0
  0
ENDSEC
  0
SECTION
  2
CLASSES
  0
CLASS
  1
ACDBDICTIONARYWDFLT
  2
AcDbDictionaryWithDefault
  3
ObjectDBX Classes
 90
        0
280
     0
281
     0
  0
CLASS
  1
VISUALSTYLE
  2
AcDbVisualStyle
  3
ObjectDBX Classes
 90
     4095
280
     0
281
     0
  0
CLASS
  1
SCALE
  2
AcDbScale
  3
ObjectDBX Classes
 90
     1153
280
     0
281
     0
  0
CLASS
  1
DICTIONARYVAR
  2
AcDbDictionaryVar
  3
ObjectDBX Classes
 90
        0
280
     0
281
     0
  0
CLASS
  1
ACDBPLACEHOLDER
  2
AcDbPlaceHolder
  3
ObjectDBX Classes
 90
        0
280
     0
281
     0
  0
CLASS
  1
LAYOUT
  2
AcDbLayout
  3
ObjectDBX Classes
 90
        0
280
     0
281
     0
  0
ENDSEC
  0
SECTION
  2
TABLES
  0
TABLE
  2
VPORT
  5
8
330
0
100
AcDbSymbolTable
 70
     1
  0
VPORT
  5
29
330
8
100
AcDbSymbolTableRecord
100
AcDbViewportTableRecord
  2
*Active
 70
     0
 10
0.0
 20
0.0
 11
1.0
 21
1.0
 12
344.1869158879
 22
148.5
 13
0.0
 23
0.0
 14
10.0
 24
10.0
 15
10.0
 25
10.0
 16
0.0
 26
0.0
 36
1.0
 17
0.0
 27
0.0
 37
0.0
 40
297.0
 41
1.9729729729
 42
50.0
 43
0.0
 44
0.0
 50
0.0
 51
0.0
 71
     0
 72
   100
 73
     1
 74
     3
 75
     0
 76
     0
 77
     0
 78
     0
281
     0
 65
     1
110
0.0
120
0.0
130
0.0
111
1.0
121
0.0
131
0.0
112
0.0
122
1.0
132
0.0
 79
     0
146
0.0
  0
ENDTAB
  0
TABLE
  2
LTYPE
  5
5
330
0
100
AcDbSymbolTable
 70
     2
  0
LTYPE
  5
14
330
5
100
AcDbSymbolTableRecord
100
AcDbLinetypeTableRecord
  2
ByBlock
 70
     0
  3

 72
    65
 73
     0
 40
0.0
  0
LTYPE
  5
15
330
5
100
AcDbSymbolTableRecord
100
AcDbLinetypeTableRecord
  2
ByLayer
 70
     0
  3

 72
    65
 73
     0
 40
0.0
  0
LTYPE
  5
16
330
5
100
AcDbSymbolTableRecord
100
AcDbLinetypeTableRecord
  2
Continuous
 70
     0
  3
Solid line
 72
    65
 73
     0
 40
0.0
  0
LTYPE
  5
68
330
5
100
AcDbSymbolTableRecord
100
AcDbLinetypeTableRecord
  2
CENTER2
 70
     0
  3
Center (.5x) ___ _ ___ _ ___ _ ___ _ ___ _ ___
 72
    65
 73
     4
 40
28.575
 49
19.05
 74
     4
 75
     0
340
0
 46
0.0
 50
0.0
 44
0.0
 45
0.0
 49
-3.175
 74
     4
 75
     0
340
0
 46
0.0
 50
0.0
 44
0.0
 45
0.0
 49
3.175
 74
     4
 75
     0
340
0
 46
0.0
 50
0.0
 44
0.0
 45
0.0
 49
-3.175
 74
     4
 75
     0
340
0
 46
0.0
 50
0.0
 44
0.0
 45
0.0
  0
ENDTAB
  0
TABLE
  2
LAYER
  5
2
330
0
100
AcDbSymbolTable
 70
     9
  0
LAYER
  5
10
330
2
100
AcDbSymbolTableRecord
100
AcDbLayerTableRecord
  2
0
 70
     0
 62
     7
  6
Continuous
370
    -3
390
F
  0
LAYER
  5
5D
330
2
100
AcDbSymbolTableRecord
100
AcDbLayerTableRecord
  2
Default
 70
     0
 62
     7
  6
Continuous
370
    -3
390
F
  0
LAYER
  5
60
330
2
100
AcDbSymbolTableRecord
100
AcDbLayerTableRecord
  2
$DDT_AUDIT_GENERATED_(60)
 70
     0
 62
     7
  6
Continuous
370
    -3
390
F
  0
LAYER
  5
65
330
2
100
AcDbSymbolTableRecord
100
AcDbLayerTableRecord
  2
$DDT_AUDIT_GENERATED_(65)
 70
     0
 62
     7
  6
Continuous
370
    -3
390
F
  0
LAYER
  5
67
330
2
100
AcDbSymbolTableRecord
100
AcDbLayerTableRecord
  2
DV1_Standard
 70
     0
 62
     7
  6
Continuous
370
    -3
390
F
  0
LAYER
  5
9D
330
2
100
AcDbSymbolTableRecord
100
AcDbLayerTableRecord
  2
15620031__MODULA
 70
     0
 62
     7
  6
Continuous
370
    -3
390
F
  0
LAYER
  5
A5
330
2
100
AcDbSymbolTableRecord
100
AcDbLayerTableRecord
  2
12030697_LEVELIN
 70
     0
 62
     7
  6
Continuous
370
    -3
390
F
  0
LAYER
  5
AF
330
2
100
AcDbSymbolTableRecord
100
AcDbLayerTableRecord
  2
DV2_Standard
 70
     0
 62
     7
  6
Continuous
370
    -3
390
F
  0
LAYER
  5
E3
330
2
100
AcDbSymbolTableRecord
100
AcDbLayerTableRecord
  2
DV3_Standard
 70
     0
 62
     7
  6
Continuous
370
    -3
390
F
  0
ENDTAB
  0
TABLE
  2
STYLE
  5
3
330
0
100
AcDbSymbolTable
 70
     2
  0
STYLE
  5
11
330
3
100
AcDbSymbolTableRecord
100
AcDbTextStyleTableRecord
  2
Standard
 70
     0
 40
0.0
 41
1.0
 50
0.0
 71
     0
 42
2.5
  3
txt
  4

  0
STYLE
  5
E8
330
3
100
AcDbSymbolTableRecord
100
AcDbTextStyleTableRecord
  2
SEACAD_seiso_ttf
 70
     0
 40
0.0
 41
1.0
 50
0.0
 71
     0
 42
0.2
  3
seiso.ttf
  4

  0
ENDTAB
  0
TABLE
  2
VIEW
  5
6
330
0
100
AcDbSymbolTable
 70
     0
  0
ENDTAB
  0
TABLE
  2
UCS
  5
7
330
0
100
AcDbSymbolTable
 70
     0
  0
ENDTAB
  0
TABLE
  2
APPID
  5
9
330
0
100
AcDbSymbolTable
 70
     1
  0
APPID
  5
12
330
9
100
AcDbSymbolTableRecord
100
AcDbRegAppTableRecord
  2
ACAD
 70
     0
  0
ENDTAB
  0
TABLE
  2
DIMSTYLE
  5
A
330
0
100
AcDbSymbolTable
 70
     1
100
AcDbDimStyleTable
  0
DIMSTYLE
105
27
330
A
100
AcDbSymbolTableRecord
100
AcDbDimStyleTableRecord
  2
ISO-25
 70
     0
 41
2.5
 42
0.625
 43
3.75
 44
1.25
 73
     0
 74
     0
 77
     1
 78
     8
140
2.5
141
2.5
143
0.0393700787
147
0.625
171
     3
172
     1
271
     2
272
     2
274
     3
278
    44
283
     0
284
     8
340
11
  0
ENDTAB
  0
TABLE
  2
BLOCK_RECORD
  5
1
330
0
100
AcDbSymbolTable
 70
     4
  0
BLOCK_RECORD
  5
1F
330
1
100
AcDbSymbolTableRecord
100
AcDbBlockTableRecord
  2
*Model_Space
340
22
  0
BLOCK_RECORD
  5
1B
330
1
100
AcDbSymbolTableRecord
100
AcDbBlockTableRecord
  2
*Paper_Space
340
1E
  0
BLOCK_RECORD
  5
5E
330
1
100
AcDbSymbolTableRecord
100
AcDbBlockTableRecord
  2
SE
340
0
102
{BLKREFS
331
5F
102
}
  0
BLOCK_RECORD
  5
71
330
1
100
AcDbSymbolTableRecord
100
AcDbBlockTableRecord
  2
SE1
340
0
102
{BLKREFS
331
72
102
}
  0
BLOCK_RECORD
  5
B5
330
1
100
AcDbSymbolTableRecord
100
AcDbBlockTableRecord
  2
SE2
340
0
102
{BLKREFS
331
B6
102
}
  0
ENDTAB
  0
ENDSEC
  0
SECTION
  2
BLOCKS
  0
BLOCK
  5
20
330
1F
100
AcDbEntity
  8
0
100
AcDbBlockBegin
  2
*Model_Space
 70
     0
 10
0.0
 20
0.0
 30
0.0
  3
*Model_Space
  1

  0
ENDBLK
  5
21
330
1F
100
AcDbEntity
  8
0
100
AcDbBlockEnd
  0
BLOCK
  5
1C
330
1B
100
AcDbEntity
 67
     1
  8
0
100
AcDbBlockBegin
  2
*Paper_Space
 70
     0
 10
0.0
 20
0.0
 30
0.0
  3
*Paper_Space
  1

  0
ENDBLK
  5
1D
330
1B
100
AcDbEntity
 67
     1
  8
0
100
AcDbBlockEnd
  0
BLOCK
  5
6F
330
5E
100
AcDbEntity
  8
0
100
AcDbBlockBegin
  2
SE
 70
     0
 10
0.0
 20
0.0
 30
0.0
  3
SE
  1

  0
LINE
  5
61
330
5E
100
AcDbEntity
  8
$DDT_AUDIT_GENERATED_(60)
  6
Continuous
 62
     7
100
AcDbLine
 10
83.6156938489
 20
341.5448872527
 30
0.0
 11
83.6156938493
 21
276.4748872527
 31
0.0
  0
SPLINE
  5
62
330
5E
100
AcDbEntity
  8
$DDT_AUDIT_GENERATED_(60)
  6
Continuous
 62
     7
100
AcDbSpline
210
0.0
220
0.0
230
1.0
 70
     8
 71
     3
 72
    22
 73
    18
 74
     0
 42
0.0000000001810144
 43
0.0000000001
 40
0.0
 40
0.0
 40
0.0
 40
0.0
 40
0.125
 40
0.125
 40
0.25
 40
0.25
 40
0.375
 40
0.375
 40
0.5
 40
0.5
 40
0.625
 40
0.625
 40
0.75
 40
0.75
 40
0.875
 40
0.875
 40
1.0
 40
1.0
 40
1.0
 40
1.0
 10
118.561728660586
 20
341.544891445991
 30
0.0
 10
118.5617286605329
 20
343.8320998825583
 30
0.0
 10
118.1069527869372
 20
346.1184125919451
 30
0.0
 10
116.3563960274258
 20
350.3446304624542
 30
0.0
 10
115.0613039108429
 20
352.2828727873127
 30
0.0
 10
111.8266967896222
 20
355.5174799085302
 30
0.0
 10
109.8884544647624
 20
356.8125720251112
 30
0.0
 10
105.6622365942515
 20
358.5631287846183
 30
0.0
 10
103.3759238848643
 20
359.0179046582118
 30
0.0
 10
98.80149862508772
 20
359.0179046582103
 30
0.0
 10
96.51518591570085
 20
358.5631287846153
 30
0.0
 10
92.28896804519106
 20
356.8125720251053
 30
0.0
 10
90.35072572033218
 20
355.517479908523
 30
0.0
 10
87.11611859911365
 20
352.2828727873034
 30
0.0
 10
85.82102648253196
 20
350.3446304624441
 30
0.0
 10
84.07046972302344
 20
346.1184125919337
 30
0.0
 10
83.61569384942916
 20
343.8320998825467
 30
0.0
 10
83.61569384934235
 20
341.5448877068499
 30
0.0
  0
ARC
  5
63
330
5E
100
AcDbEntity
  8
$DDT_AUDIT_GENERATED_(60)
  6
Continuous
 62
     7
100
AcDbCircle
 10
101.088711255
 20
276.4748872527
 30
0.0
 40
17.47301740605547
100
AcDbArc
 50
179.9999999999
 51
0.0
  0
LINE
  5
64
330
5E
100
AcDbEntity
  8
$DDT_AUDIT_GENERATED_(60)
  6
Continuous
 62
     7
100
AcDbLine
 10
118.5617286606
 20
276.4748872527
 30
0.0
 11
118.561728661
 21
341.5448872527
 31
0.0
  0
CIRCLE
  5
66
330
5E
100
AcDbEntity
  8
$DDT_AUDIT_GENERATED_(65)
  6
Continuous
 62
     7
100
AcDbCircle
 10
101.088713308
 20
341.5448872527
 30
0.0
 40
94.24999999999999
  0
LINE
  5
69
330
5E
100
AcDbEntity
  8
DV1_Standard
  6
CENTER2
 62
     7
100
AcDbLine
 10
121.088712861
 20
341.5448872527
 30
0.0
 11
81.0887137551
 21
341.5448872527
 31
0.0
  0
LINE
  5
6A
330
5E
100
AcDbEntity
  8
DV1_Standard
  6
CENTER2
 62
     7
100
AcDbLine
 10
101.088713308
 20
361.5448868056
 30
0.0
 11
101.088713308
 21
321.5448876997
 31
0.0
  0
LINE
  5
6B
330
5E
100
AcDbEntity
  8
DV1_Standard
  6
CENTER2
 62
     7
100
AcDbLine
 10
126.0887127492
 20
341.5448872527
 30
0.0
 11
198.838713308
 21
341.5448872527
 31
0.0
  0
LINE
  5
6C
330
5E
100
AcDbEntity
  8
DV1_Standard
  6
CENTER2
 62
     7
100
AcDbLine
 10
101.088713308
 20
366.5448866939
 30
0.0
 11
101.088713308
 21
439.2948872527
 31
0.0
  0
LINE
  5
6D
330
5E
100
AcDbEntity
  8
DV1_Standard
  6
CENTER2
 62
     7
100
AcDbLine
 10
76.0887138668
 20
341.5448872527
 30
0.0
 11
3.338713308
 21
341.5448872527
 31
0.0
  0
LINE
  5
6E
330
5E
100
AcDbEntity
  8
DV1_Standard
  6
CENTER2
 62
     7
100
AcDbLine
 10
101.088713308
 20
316.5448878115
 30
0.0
 11
101.088713308
 21
243.7948872527
 31
0.0
  0
ENDBLK
  5
70
330
5E
100
AcDbEntity
  8
0
100
AcDbBlockEnd
  0
BLOCK
  5
B3
330
71
100
AcDbEntity
  8
0
100
AcDbBlockBegin
  2
SE1
 70
     0
 10
0.0
 20
0.0
 30
0.0
  3
SE1
  1

  0
LINE
  5
73
330
71
100
AcDbEntity
  8
$DDT_AUDIT_GENERATED_(60)
  6
Continuous
 62
     7
100
AcDbLine
 10
423.7807025082
 20
276.4748872527
 30
0.0
 11
423.7807025082
 21
321.2190190982
 31
0.0
  0
SPLINE
  5
74
330
71
100
AcDbEntity
  8
$DDT_AUDIT_GENERATED_(60)
  6
Continuous
 62
     7
100
AcDbSpline
210
0.0
220
0.0
230
1.0
 70
     8
 71
     5
 72
    15
 73
     9
 74
     0
 42
0.0000000005629494
 43
0.0000000001
 40
0.0
 40
0.0
 40
0.0
 40
0.0
 40
0.0
 40
0.0
 40
0.25
 40
0.5
 40
0.75
 40
1.0
 40
1.0
 40
1.0
 40
1.0
 40
1.0
 40
1.0
 10
423.7807025082144
 20
321.2190190981528
 30
0.0
 10
423.7807025082142
 20
322.4539987245256
 30
0.0
 10
423.7807025082142
 20
324.6787595891914
 30
0.0
 10
423.5936913666901
 20
327.3736362128072
 30
0.0
 10
422.5041018177016
 20
329.8666218125838
 30
0.0
 10
420.0207194066731
 20
330.9779249357439
 30
0.0
 10
417.3275773116994
 20
331.1884458779421
 30
0.0
 10
415.1029011354961
 20
331.2078603328114
 30
0.0
 10
413.8679682582134
 20
331.2186377874224
 30
0.0
  0
SPLINE
  5
75
330
71
100
AcDbEntity
  8
$DDT_AUDIT_GENERATED_(60)
  6
Continuous
 62
     7
100
AcDbSpline
210
0.0
220
0.0
230
1.0
 70
     8
 71
     5
 72
    12
 73
     6
 74
     0
 42
0.0000000007951387
 43
0.0000000001
 40
0.0
 40
0.0
 40
0.0
 40
0.0
 40
0.0
 40
0.0
 40
1.0
 40
1.0
 40
1.0
 40
1.0
 40
1.0
 40
1.0
 10
426.0078275225418
 20
356.7170695677792
 30
0.0
 10
424.3908441648024
 20
354.0509858119197
 30
0.0
 10
424.7374935218604
 20
351.8158741659857
 30
0.0
 10
422.3940398543054
 20
351.9455420795057
 30
0.0
 10
420.6627810675635
 20
351.9304336129617
 30
0.0
 10
417.5447885018333
 20
351.9032233040686
 30
0.0
  0
LINE
  5
76
330
71
100
AcDbEntity
  8
$DDT_AUDIT_GENERATED_(60)
  6
Continuous
 62
     7
100
AcDbLine
 10
431.6607025082
 20
341.5448872527
 30
0.0
 11
431.6607025082
 21
276.4748872527
 31
0.0
  0
LINE
  5
77
330
71
100
AcDbEntity
  8
$DDT_AUDIT_GENERATED_(60)
  6
Continuous
 62
     7
100
AcDbLine
 10
431.6607025082
 20
353.4948872527
 30
0.0
 11
431.6607025082
 21
341.5448872527
 31
0.0
  0
LINE
  5
78
330
71
100
AcDbEntity
  8
$DDT_AUDIT_GENERATED_(60)
  6
Continuous
 62
     7
100
AcDbLine
 10
431.6607025082
 20
276.4748872527
 30
0.0
 11
431.6607025082
 21
264.5248872527
 31
0.0
  0
SPLINE
  5
79
330
71
100
AcDbEntity
  8
$DDT_AUDIT_GENERATED_(60)
  6
Continuous
 62
     7
100
AcDbSpline
210
0.0
220
0.0
230
1.0
 70
     8
 71
     3
 72
    15
 73
    11
 74
     0
 42
0.0000000005450989
 43
0.0000000001
 40
0.0
 40
0.0
 40
0.0
 40
0.0
 40
0.1869587378132676
 40
0.356865473765508
 40
0.5108492777792287
 40
0.650690991062048
 40
0.7509048358379844
 40
0.8419439596402299
 40
0.9242403806916571
 40
1.0
 40
1.0
 40
1.0
 40
1.0
 10
423.7807025082125
 20
276.4748872526586
 30
0.0
 10
423.7799528326549
 20
275.2204668116099
 30
0.0
 10
423.7885071591805
 20
273.2057534346983
 30
0.0
 10
423.8884246127499
 20
270.0314446420572
 30
0.0
 10
424.1394176437616
 20
267.2248476608539
 30
0.0
 10
424.5764494732729
 20
264.8543363274816
 30
0.0
 10
425.180719757637
 20
262.918712179248
 30
0.0
 10
425.8887318193421
 20
261.4138169125506
 30
0.0
 10
426.7880475903619
 20
260.1291940177939
 30
0.0
 10
427.5131023263855
 20
259.5881449469654
 30
0.0
 10
427.9240881245744
 20
259.2890169836318
 30
0.0
  0
SPLINE
  5
7A
330
71
100
AcDbEntity
  8
$DDT_AUDIT_GENERATED_(60)
  6
Continuous
 62
     7
100
AcDbSpline
210
0.0
220
0.0
230
1.0
 70
     8
 71
     3
 72
     8
 73
     4
 74
     0
 42
0.0000000035262258
 43
0.0000000001
 40
0.0
 40
0.0
 40
0.0
 40
0.0
 40
1.0
 40
1.0
 40
1.0
 40
1.0
 10
427.9240881245745
 20
358.7307721981687
 30
0.0
 10
427.1134927191432
 20
358.2106994861288
 30
0.0
 10
426.4784919299399
 20
357.5367220929937
 30
0.0
 10
426.0190857569647
 20
356.7088400187635
 30
0.0
  0
SPLINE
  5
7B
330
71
100
AcDbEntity
  8
$DDT_AUDIT_GENERATED_(60)
  6
Continuous
 62
     7
100
AcDbSpline
210
0.0
220
0.0
230
1.0
 70
     8
 71
     3
 72
     8
 73
     4
 74
     0
 42
0.0000000087572444
 43
0.0000000001
 40
0.0
 40
0.0
 40
0.0
 40
0.0
 40
1.0
 40
1.0
 40
1.0
 40
1.0
 10
428.9920362270994
 20
359.0179046582107
 30
0.0
 10
428.6067534105733
 20
359.0226085311626
 30
0.0
 10
428.2487653029167
 20
358.9256831177829
 30
0.0
 10
427.9180719041295
 20
358.7271284180713
 30
0.0
  0
ARC
  5
7C
330
71
100
AcDbEntity
  8
$DDT_AUDIT_GENERATED_(60)
  6
Continuous
 62
     7
100
AcDbCircle
 10
428.9571314331
 20
261.0015652378
 30
0.0
 40
2.000000000005068
100
AcDbArc
 50
238.9085432467
 51
270.9999986303
  0
LINE
  5
7D
330
71
100
AcDbEntity
  8
$DDT_AUDIT_GENERATED_(60)
  6
Continuous
 62
     7
100
AcDbLine
 10
417.5488765607
 20
351.90325898
 30
0.0
 11
411.3568465361
 21
351.8492219526
 31
0.0
  0
LINE
  5
7E
330
71
100
AcDbEntity
  8
$DDT_AUDIT_GENERATED_(60)
  6
Continuous
 62
     7
100
AcDbLine
 10
411.3569344467
 20
331.2405517855
 30
0.0
 11
413.8679678632
 21
331.2186383288
 31
0.0
  0
LINE
  5
7F
330
71
100
AcDbEntity
  8
$DDT_AUDIT_GENERATED_(60)
  6
Continuous
 62
     7
100
AcDbLine
 10
430.1505924509
 20
358.9976819841
 30
0.0
 11
428.9907803846
 21
359.017926579
 31
0.0
  0
LINE
  5
80
330
71
100
AcDbEntity
  8
$DDT_AUDIT_GENERATED_(60)
  6
Continuous
 62
     7
100
AcDbLine
 10
428.9920361982
 20
259.0018698466
 30
0.0
 11
430.1505924495
 21
259.0220925212
 31
0.0
  0
ARC
  5
81
330
71
100
AcDbEntity
  8
$DDT_AUDIT_GENERATED_(60)
  6
Continuous
 62
     7
100
AcDbCircle
 10
430.1453567145
 20
358.6977276758
 30
0.0
 40
0.3000000000022454
100
AcDbArc
 50
32.4031476853
 51
88.9999972244
  0
ARC
  5
82
330
71
100
AcDbEntity
  8
$DDT_AUDIT_GENERATED_(60)
  6
Continuous
 62
     7
100
AcDbCircle
 10
430.1453567145
 20
259.3220468295
 30
0.0
 40
0.3000000000043778
100
AcDbArc
 50
271.0000024968
 51
327.5728952705
  0
SPLINE
  5
83
330
71
100
AcDbEntity
  8
$DDT_AUDIT_GENERATED_(60)
  6
Continuous
 62
     7
100
AcDbSpline
210
0.0
220
0.0
230
1.0
 70
     8
 71
     3
 72
    11
 73
     7
 74
     0
 42
0.000000001776466
 43
0.0000000001
 40
0.0
 40
0.0
 40
0.0
 40
0.0
 40
0.2870923416403903
 40
0.5568137609858868
 40
0.7738607839280275
 40
1.0
 40
1.0
 40
1.0
 40
1.0
 10
431.6607025082144
 20
353.4948872526572
 30
0.0
 10
431.668046166524
 20
354.0851143815972
 30
0.0
 10
431.658664531904
 20
355.0499336867762
 30
0.0
 10
431.501635918257
 20
356.5184646547688
 30
0.0
 10
431.0260863717818
 20
357.7945587852612
 30
0.0
 10
430.6391677179506
 20
358.4606786506931
 30
0.0
 10
430.3986029275324
 20
358.8585578830773
 30
0.0
  0
SPLINE
  5
84
330
71
100
AcDbEntity
  8
$DDT_AUDIT_GENERATED_(60)
  6
Continuous
 62
     7
100
AcDbSpline
210
0.0
220
0.0
230
1.0
 70
     8
 71
     3
 72
    11
 73
     7
 74
     0
 42
0.000000001775666
 43
0.0000000001
 40
0.0
 40
0.0
 40
0.0
 40
0.0
 40
0.286179197771133
 40
0.5582074734334602
 40
0.7720852717572362
 40
1.0
 40
1.0
 40
1.0
 40
1.0
 10
430.3986032870484
 20
259.1612171883398
 30
0.0
 10
430.7007030434619
 20
259.6659649732345
 30
0.0
 10
431.1851486060709
 20
260.5110274131695
 30
0.0
 10
431.5782059156068
 20
261.9376461508585
 30
0.0
 10
431.6574086163316
 20
263.2907078081178
 30
0.0
 10
431.6638158955928
 20
264.0564143292793
 30
0.0
 10
431.6607025082144
 20
264.5248872526578
 30
0.0
  0
LINE
  5
85
330
71
100
AcDbEntity
  8
$DDT_AUDIT_GENERATED_(65)
  6
Continuous
 62
     7
100
AcDbLine
 10
363.2130863784
 20
249.0290419224
 30
0.0
 11
363.2130863784
 21
434.1956558429
 31
0.0
  0
LINE
  5
86
330
71
100
AcDbEntity
  8
$DDT_AUDIT_GENERATED_(65)
  6
Continuous
 62
     7
100
AcDbLine
 10
363.2130863784
 20
249.0290419224
 30
0.0
 11
363.2076163478
 21
249.1801100773
 31
0.0
  0
LINE
  5
87
330
71
100
AcDbEntity
  8
$DDT_AUDIT_GENERATED_(65)
  6
Continuous
 62
     7
100
AcDbLine
 10
365.2068465361
 20
247.3531371117
 30
0.0
 11
365.2068465361
 21
247.2948872527
 31
0.0
  0
ARC
  5
88
330
71
100
AcDbEntity
  8
$DDT_AUDIT_GENERATED_(65)
  6
Continuous
 62
     7
100
AcDbCircle
 10
365.035729558
 20
249.2353989322
 30
0.0
 40
1.83428770252986
100
AcDbArc
 50
186.4594385617
 51
239.1483289009
  0
ARC
  5
89
330
71
100
AcDbEntity
  8
$DDT_AUDIT_GENERATED_(65)
  6
Continuous
 62
     7
100
AcDbCircle
 10
365.1257628849
 20
249.4057203129
 30
0.0
 40
2.026703795074692
100
AcDbArc
 50
239.4324574257
 51
266.4948758574
  0
SPLINE
  5
8A
330
71
100
AcDbEntity
  8
$DDT_AUDIT_GENERATED_(65)
  6
Continuous
 62
     7
100
AcDbSpline
210
0.0
220
0.0
230
1.0
 70
     8
 71
     3
 72
    10
 73
     6
 74
     0
 42
0.0000000472797916
 43
0.0000000001
 40
0.0
 40
0.0
 40
0.0
 40
0.0
 40
0.5
 40
0.5
 40
1.0
 40
1.0
 40
1.0
 40
1.0
 10
365.001854662213
 20
247.3828078023159
 30
0.0
 10
365.069067282819
 20
247.3778374521061
 30
0.0
 10
365.1197301172875
 20
247.3728084825369
 30
0.0
 10
365.1889203763224
 20
247.3627902664888
 30
0.0
 10
365.206846536073
 20
247.3578224321301
 30
0.0
 10
365.206846536073
 20
247.353137111686
 30
0.0
  0
LINE
  5
8B
330
71
100
AcDbEntity
  8
$DDT_AUDIT_GENERATED_(65)
  6
Continuous
 62
     7
100
AcDbLine
 10
363.2076163478
 20
249.1801100773
 30
0.0
 11
363.2076163478
 21
250.0242417958
 31
0.0
  0
LINE
  5
8C
330
71
100
AcDbEntity
  8
$DDT_AUDIT_GENERATED_(65)
  6
Continuous
 62
     7
100
AcDbLine
 10
363.2068465361
 20
434.0841177372
 30
0.0
 11
363.2068465361
 21
249.9867433101
 31
0.0
  0
ARC
  5
8D
330
71
100
AcDbEntity
  8
$DDT_AUDIT_GENERATED_(65)
  6
Continuous
 62
     7
100
AcDbCircle
 10
364.2068465361
 20
434.0841177372
 30
0.0
 40
1.000000000000005
100
AcDbArc
 50
173.5960117817
 51
180.0
  0
LINE
  5
8E
330
71
100
AcDbEntity
  8
$DDT_AUDIT_GENERATED_(65)
  6
Continuous
 62
     7
100
AcDbLine
 10
363.2068465361
 20
434.0841177372
 30
0.0
 11
363.2068465361
 21
249.9867433101
 31
0.0
  0
ARC
  5
8F
330
71
100
AcDbEntity
  8
$DDT_AUDIT_GENERATED_(65)
  6
Continuous
 62
     7
100
AcDbCircle
 10
365.0018546622
 20
433.9948872527
 30
0.0
 40
1.799999999999996
100
AcDbArc
 50
90.0
 51
173.5960117817
  0
ARC
  5
90
330
71
100
AcDbEntity
  8
$DDT_AUDIT_GENERATED_(65)
  6
Continuous
 62
     7
100
AcDbCircle
 10
365.0018546622
 20
433.9948872527
 30
0.0
 40
1.799999999999996
100
AcDbArc
 50
90.0
 51
173.5960117817
  0
LINE
  5
91
330
71
100
AcDbEntity
  8
$DDT_AUDIT_GENERATED_(65)
  6
Continuous
 62
     7
100
AcDbLine
 10
365.2068465361
 20
247.2948872527
 30
0.0
 11
374.6912778395
 21
247.2948872527
 31
0.0
  0
LINE
  5
92
330
71
100
AcDbEntity
  8
$DDT_AUDIT_GENERATED_(65)
  6
Continuous
 62
     7
100
AcDbLine
 10
374.6912778395
 20
435.7948872527
 30
0.0
 11
365.0018546622
 21
435.7948872527
 31
0.0
  0
LINE
  5
93
330
71
100
AcDbEntity
  8
$DDT_AUDIT_GENERATED_(65)
  6
Continuous
 62
     7
100
AcDbLine
 10
365.2068465361
 20
247.2948872527
 30
0.0
 11
374.6912778395
 21
247.2948872527
 31
0.0
  0
LINE
  5
94
330
71
100
AcDbEntity
  8
$DDT_AUDIT_GENERATED_(65)
  6
Continuous
 62
     7
100
AcDbLine
 10
374.6912778395
 20
435.7948872527
 30
0.0
 11
365.0018546622
 21
435.7948872527
 31
0.0
  0
ARC
  5
95
330
71
100
AcDbEntity
  8
$DDT_AUDIT_GENERATED_(65)
  6
Continuous
 62
     7
100
AcDbCircle
 10
374.6912778395
 20
248.8948872527
 30
0.0
 40
1.600000000000004
100
AcDbArc
 50
270.0
 51
359.1149864849
  0
ARC
  5
96
330
71
100
AcDbEntity
  8
$DDT_AUDIT_GENERATED_(65)
  6
Continuous
 62
     7
100
AcDbCircle
 10
374.6912778395
 20
434.1948872527
 30
0.0
 40
1.600000000000013
100
AcDbArc
 50
0.8850135151
 51
90.0
  0
ARC
  5
97
330
71
100
AcDbEntity
  8
$DDT_AUDIT_GENERATED_(65)
  6
Continuous
 62
     7
100
AcDbCircle
 10
374.6912778395
 20
248.8948872527
 30
0.0
 40
1.600000000000004
100
AcDbArc
 50
270.0
 51
359.1149864849
  0
ARC
  5
98
330
71
100
AcDbEntity
  8
$DDT_AUDIT_GENERATED_(65)
  6
Continuous
 62
     7
100
AcDbCircle
 10
374.6912778395
 20
434.1948872527
 30
0.0
 40
1.600000000000013
100
AcDbArc
 50
0.8850135151
 51
90.0
  0
ARC
  5
99
330
71
100
AcDbEntity
  8
$DDT_AUDIT_GENERATED_(65)
  6
Continuous
 62
     7
100
AcDbCircle
 10
-5622.9931534639
 20
341.5448872527
 30
0.0
 40
6000.0
100
AcDbArc
 50
0.2772979768
 51
0.8850135152
  0
ARC
  5
9A
330
71
100
AcDbEntity
  8
$DDT_AUDIT_GENERATED_(65)
  6
Continuous
 62
     7
100
AcDbCircle
 10
-5622.9931534639
 20
341.5448872527
 30
0.0
 40
6000.0
100
AcDbArc
 50
359.1149864848
 51
359.7227469958
  0
ARC
  5
9B
330
71
100
AcDbEntity
  8
$DDT_AUDIT_GENERATED_(65)
  6
Continuous
 62
     7
100
AcDbCircle
 10
-5622.9931534639
 20
341.5448872527
 30
0.0
 40
6000.0
100
AcDbArc
 50
0.2772979768
 51
0.8850135152
  0
ARC
  5
9C
330
71
100
AcDbEntity
  8
$DDT_AUDIT_GENERATED_(65)
  6
Continuous
 62
     7
100
AcDbCircle
 10
-5622.9931534639
 20
341.5448872527
 30
0.0
 40
6000.0
100
AcDbArc
 50
359.1149864848
 51
359.7227469958
  0
LINE
  5
9E
330
71
100
AcDbEntity
  8
15620031__MODULA
  6
Continuous
 62
     7
100
AcDbLine
 10
406.9568465361
 20
315.2478842808
 30
0.0
 11
406.9568465361
 21
367.848927946
 31
0.0
  0
LINE
  5
9F
330
71
100
AcDbEntity
  8
15620031__MODULA
  6
Continuous
 62
     7
100
AcDbLine
 10
406.9568465361
 20
315.2478842808
 30
0.0
 11
406.9568465361
 21
313.7966422524
 31
0.0
  0
LINE
  5
A0
330
71
100
AcDbEntity
  8
15620031__MODULA
  6
Continuous
 62
     7
100
AcDbLine
 10
407.2068465361
 20
313.7966422524
 30
0.0
 11
406.9568465361
 21
313.7966422524
 31
0.0
  0
LINE
  5
A1
330
71
100
AcDbEntity
  8
15620031__MODULA
  6
Continuous
 62
     7
100
AcDbLine
 10
375.5068465361
 20
312.4736944544
 30
0.0
 11
405.0092004327
 21
313.2462407797
 31
0.0
  0
LINE
  5
A2
330
71
100
AcDbEntity
  8
15620031__MODULA
  6
Continuous
 62
     7
100
AcDbLine
 10
405.0092004327
 20
369.8482425959
 30
0.0
 11
375.5068465361
 21
370.6207889211
 31
0.0
  0
ARC
  5
A3
330
71
100
AcDbEntity
  8
15620031__MODULA
  6
Continuous
 62
     7
100
AcDbCircle
 10
404.9568465361
 20
315.2455554296
 30
0.0
 40
2.000000000000005
100
AcDbArc
 50
271.5
 51
0.0
  0
ARC
  5
A4
330
71
100
AcDbEntity
  8
15620031__MODULA
  6
Continuous
 62
     7
100
AcDbCircle
 10
404.9568465361
 20
367.848927946
 30
0.0
 40
2.000000000000002
100
AcDbArc
 50
0.0
 51
88.5
  0
SPLINE
  5
A6
330
71
100
AcDbEntity
  8
12030697_LEVELIN
  6
Continuous
 62
     7
100
AcDbSpline
210
0.0
220
0.0
230
1.0
 70
     8
 71
     3
 72
    24
 73
    20
 74
     0
 42
0.0000000003480154
 43
0.0000000001
 40
0.365868620448203
 40
0.365868620448203
 40
0.365868620448203
 40
0.365868620448203
 40
0.494494240263271
 40
0.5023433551880848
 40
0.5180415850377125
 40
0.5337398148873401
 40
0.5494380447369678
 40
0.5651362745865954
 40
0.5965327342858507
 40
0.627929193985106
 40
0.6593256536843614
 40
0.675023883533989
 40
0.6907221133836167
 40
0.722118573082872
 40
0.7378168029324996
 40
0.7535150327821273
 40
0.761364147706941
 40
0.8791008715791484
 40
1.0
 40
1.0
 40
1.0
 40
1.0
 10
411.3566874288437
 20
331.2405517824629
 30
0.0
 10
411.3567025422974
 20
330.0088495023048
 30
0.0
 10
411.3567507181743
 20
328.7020269377742
 30
0.0
 10
411.3568668504149
 20
327.244966187842
 30
0.0
 10
411.3568996446299
 20
326.8691923212016
 30
0.0
 10
411.3569378762002
 20
326.4182622218478
 30
0.0
 10
411.3569693150627
 20
325.9673232831826
 30
0.0
 10
411.3569946149757
 20
325.3660497393129
 30
0.0
 10
411.3569809019977
 20
324.6143988115683
 30
0.0
 10
411.356846536073
 20
323.7122642622164
 30
0.0
 10
411.3565984977099
 20
322.9603084082026
 30
0.0
 10
411.3547296173605
 20
322.35966991004
 30
0.0
 10
411.3212863615357
 20
321.7606259471421
 30
0.0
 10
411.1947904289432
 20
321.1654394049901
 30
0.0
 10
410.9857174703259
 20
320.6027874802533
 30
0.0
 10
410.8413986504501
 20
320.2560832723193
 30
0.0
 10
410.3326461625375
 20
319.002407366578
 30
0.0
 10
409.4445098830569
 20
316.8155268649985
 30
0.0
 10
408.5846555868761
 20
314.6982858086862
 30
0.0
 10
408.1490310401944
 20
313.6256364313803
 30
0.0
  0
LINE
  5
A7
330
71
100
AcDbEntity
  8
12030697_LEVELIN
  6
Continuous
 62
     7
100
AcDbLine
 10
411.3568465361
 20
362.5008911905
 30
0.0
 11
411.3568465361
 21
359.5008911905
 31
0.0
  0
LINE
  5
A8
330
71
100
AcDbEntity
  8
12030697_LEVELIN
  6
Continuous
 62
     7
100
AcDbLine
 10
407.8324286206
 20
313.5008911905
 30
0.0
 11
407.6164587404
 21
313.5008911905
 31
0.0
  0
LINE
  5
A9
330
71
100
AcDbEntity
  8
12030697_LEVELIN
  6
Continuous
 62
     7
100
AcDbLine
 10
407.9637293369
 20
313.5008911905
 30
0.0
 11
407.8324286206
 21
313.5008911905
 31
0.0
  0
LINE
  5
AA
330
71
100
AcDbEntity
  8
12030697_LEVELIN
  6
Continuous
 62
     7
100
AcDbLine
 10
407.6164587404
 20
313.5008911905
 30
0.0
 11
407.5568465361
 21
313.5008911905
 31
0.0
  0
ARC
  5
AB
330
71
100
AcDbEntity
  8
12030697_LEVELIN
  6
Continuous
 62
     7
100
AcDbCircle
 10
407.9637293369
 20
313.7008911905
 30
0.0
 40
0.2000000000000032
100
AcDbArc
 50
270.0
 51
337.8969369267
  0
ARC
  5
AC
330
71
100
AcDbEntity
  8
12030697_LEVELIN
  6
Continuous
 62
     7
100
AcDbCircle
 10
407.5568465361
 20
313.7008911905
 30
0.0
 40
0.1999999999999953
100
AcDbArc
 50
180.0
 51
270.0
  0
LINE
  5
AD
330
71
100
AcDbEntity
  8
12030697_LEVELIN
  6
Continuous
 62
     7
100
AcDbLine
 10
411.3568465361
 20
348.2026374546
 30
0.0
 11
411.3568465361
 21
359.5008911905
 31
0.0
  0
ARC
  5
AE
330
71
100
AcDbEntity
  8
12030697_LEVELIN
  6
Continuous
 62
     7
100
AcDbCircle
 10
410.5568465361
 20
362.5008911905
 30
0.0
 40
0.7999999999999952
100
AcDbArc
 50
0.0
 51
90.0
  0
LINE
  5
B0
330
71
100
AcDbEntity
  8
DV2_Standard
  6
CENTER2
 62
     7
100
AcDbLine
 10
383.2130859314
 20
341.6123488826
 30
0.0
 11
343.2130868254
 21
341.6123488826
 31
0.0
  0
LINE
  5
B1
330
71
100
AcDbEntity
  8
DV2_Standard
  6
CENTER2
 62
     7
100
AcDbLine
 10
363.2130863784
 20
361.6123484356
 30
0.0
 11
363.2130863784
 21
321.6123493297
 31
0.0
  0
LINE
  5
B2
330
71
100
AcDbEntity
  8
DV2_Standard
  6
Continuous
 62
     7
100
AcDbLine
 10
406.5456037522
 20
369.0637738244
 30
0.0
 11
411.1923494225
 21
362.9868295418
 31
0.0
  0
ENDBLK
  5
B4
330
71
100
AcDbEntity
  8
0
100
AcDbBlockEnd
  0
BLOCK
  5
E6
330
B5
100
AcDbEntity
  8
0
100
AcDbBlockBegin
  2
SE2
 70
     0
 10
0.0
 20
0.0
 30
0.0
  3
SE2
  1

  0
ARC
  5
B7
330
B5
100
AcDbEntity
  8
$DDT_AUDIT_GENERATED_(60)
  6
Continuous
 62
     7
100
AcDbCircle
 10
88.7945639441
 20
106.9623264245
 30
0.0
 40
5.804319832881788
100
AcDbArc
 50
119.7252947743
 51
147.4340916192
  0
ARC
  5
B8
330
B5
100
AcDbEntity
  8
$DDT_AUDIT_GENERATED_(60)
  6
Continuous
 62
     7
100
AcDbCircle
 10
85.6153892231
 20
109.0535710797
 30
0.0
 40
1.999999983101374
100
AcDbArc
 50
148.900783793
 51
180.9999994583
  0
ARC
  5
B9
330
B5
100
AcDbEntity
  8
$DDT_AUDIT_GENERATED_(60)
  6
Continuous
 62
     7
100
AcDbCircle
 10
113.3828595183
 20
106.9623272622
 30
0.0
 40
5.804318576432736
100
AcDbArc
 50
32.5659053586
 51
60.2746880537
  0
SPLINE
  5
BA
330
B5
100
AcDbEntity
  8
$DDT_AUDIT_GENERATED_(60)
  6
Continuous
 62
     7
100
AcDbSpline
210
0.0
220
0.0
230
1.0
 70
     8
 71
     5
 72
    12
 73
     6
 74
     0
 42
0.0000000008279927
 43
0.0000000001
 40
0.0586581753906386
 40
0.0586581753906386
 40
0.0586581753906386
 40
0.0586581753906386
 40
0.0586581753906386
 40
0.0586581753906386
 40
1.0
 40
1.0
 40
1.0
 40
1.0
 40
1.0
 40
1.0
 10
90.72374891679777
 20
119.5968949955801
 30
0.0
 10
90.70060226864389
 20
116.93341492371
 30
0.0
 10
90.68692071470382
 20
115.2327736603314
 30
0.0
 10
90.55402615737115
 20
113.3068611755079
 30
0.0
 10
88.42638521414766
 20
113.5251000633674
 30
0.0
 10
85.91653780296551
 20
112.0028714598299
 30
0.0
  0
SPLINE
  5
BB
330
B5
100
AcDbEntity
  8
$DDT_AUDIT_GENERATED_(60)
  6
Continuous
 62
     7
100
AcDbSpline
210
0.0
220
0.0
230
1.0
 70
     8
 71
     5
 72
    12
 73
     6
 74
     0
 42
0.000000000827511
 43
0.0000000001
 40
0.0
 40
0.0
 40
0.0
 40
0.0
 40
0.0
 40
0.0
 40
0.9422342043041119
 40
0.9422342043041119
 40
0.9422342043041119
 40
0.9422342043041119
 40
0.9422342043041119
 40
0.9422342043041119
 10
116.2608865470942
 20
112.0028703438244
 30
0.0
 10
113.7486606457706
 20
113.5265423484218
 30
0.0
 10
111.6193655575343
 20
113.3064452078044
 30
0.0
 10
111.4901330450123
 20
115.2382559923284
 30
0.0
 10
111.4767728673203
 20
116.9398614405932
 30
0.0
 10
111.4535674166662
 20
119.6095269157587
 30
0.0
  0
ARC
  5
BC
330
B5
100
AcDbEntity
  8
$DDT_AUDIT_GENERATED_(60)
  6
Continuous
 62
     7
100
AcDbCircle
 10
116.5620332801
 20
109.0535710778
 30
0.0
 40
1.999999989869452
100
AcDbArc
 50
359.0000005417
 51
31.0992129175
  0
LINE
  5
BD
330
B5
100
AcDbEntity
  8
$DDT_AUDIT_GENERATED_(60)
  6
Continuous
 62
     7
100
AcDbLine
 10
83.6156938494
 20
109.0186662811
 30
0.0
 11
83.6359165235
 21
107.8601100573
 31
0.0
  0
LINE
  5
BE
330
B5
100
AcDbEntity
  8
$DDT_AUDIT_GENERATED_(60)
  6
Continuous
 62
     7
100
AcDbLine
 10
118.5415059864
 20
107.8601100573
 30
0.0
 11
118.5617286605
 21
109.0186662811
 31
0.0
  0
ARC
  5
BF
330
B5
100
AcDbEntity
  8
$DDT_AUDIT_GENERATED_(60)
  6
Continuous
 62
     7
100
AcDbCircle
 10
83.9358708318
 20
107.8653457937
 30
0.0
 40
0.3000000000016279
100
AcDbArc
 50
181.0000027756
 51
237.5814828392
  0
ARC
  5
C0
330
B5
100
AcDbEntity
  8
$DDT_AUDIT_GENERATED_(60)
  6
Continuous
 62
     7
100
AcDbCircle
 10
118.2415516781
 20
107.8653457937
 30
0.0
 40
0.2999999999940895
100
AcDbArc
 50
302.4185171607
 51
358.9999972257
  0
SPLINE
  5
C1
330
B5
100
AcDbEntity
  8
$DDT_AUDIT_GENERATED_(60)
  6
Continuous
 62
     7
100
AcDbSpline
210
0.0
220
0.0
230
1.0
 70
    12
 71
     3
 72
    11
 73
     7
 74
     0
 42
0.0000000017769806
 43
0.0000000001
 40
0.0
 40
0.0
 40
0.0
 40
0.0
 40
0.397667446787296
 40
0.488788153462131
 40
0.677782709861624
 40
1.0
 40
1.0
 40
1.0
 40
1.0
 10
83.7750408853358
 20
107.612099415071
 30
0.0
 41
1.0
 10
84.43157263127316
 20
107.195152857394
 30
0.0
 41
1.0
 10
85.26939124243815
 20
106.776915859506
 30
0.0
 41
1.0
 10
86.46023073458115
 20
106.480585130332
 30
0.0
 41
1.0
 10
87.52747465450216
 20
106.351842547352
 30
0.0
 41
1.0
 10
88.48658531734915
 20
106.35
 30
0.0
 41
1.0
 10
89.13871125498049
 20
106.3500000000007
 30
0.0
 41
1.0
  0
LINE
  5
C2
330
B5
100
AcDbEntity
  8
$DDT_AUDIT_GENERATED_(60)
  6
Continuous
 62
     7
100
AcDbLine
 10
113.038711255
 20
106.35
 30
0.0
 11
89.138711255
 21
106.35
 31
0.0
  0
SPLINE
  5
C3
330
B5
100
AcDbEntity
  8
$DDT_AUDIT_GENERATED_(60)
  6
Continuous
 62
     7
100
AcDbSpline
210
0.0
220
0.0
230
1.0
 70
    12
 71
     3
 72
    11
 73
     7
 74
     0
 42
0.0000000017769806
 43
0.0000000001
 40
0.0
 40
0.0
 40
0.0
 40
0.0
 40
0.322217290138376
 40
0.511211846537869
 40
0.602332553212704
 40
1.0
 40
1.0
 40
1.0
 40
1.0
 10
113.0387112549818
 20
106.3500000000007
 30
0.0
 41
1.0
 10
113.6908371926142
 20
106.35
 30
0.0
 41
1.0
 10
114.6499478554611
 20
106.351842547352
 30
0.0
 41
1.0
 10
115.7171917753811
 20
106.480585130332
 30
0.0
 41
1.0
 10
116.9080312675242
 20
106.776915859506
 30
0.0
 41
1.0
 10
117.7458498786902
 20
107.195152857394
 30
0.0
 41
1.0
 10
118.402381755014
 20
107.6120994978771
 30
0.0
 41
1.0
  0
LINE
  5
C4
330
B5
100
AcDbEntity
  8
$DDT_AUDIT_GENERATED_(60)
  6
Continuous
 62
     7
100
AcDbLine
 10
111.4470850354
 20
120.4618259475
 30
0.0
 11
111.3549403753
 21
131.0205581595
 31
0.0
  0
LINE
  5
C5
330
B5
100
AcDbEntity
  8
$DDT_AUDIT_GENERATED_(60)
  6
Continuous
 62
     7
100
AcDbLine
 10
90.8224334337
 20
131.0145070756
 30
0.0
 11
90.7303415807
 21
120.4618259475
 31
0.0
  0
LINE
  5
C6
330
B5
100
AcDbEntity
  8
$DDT_AUDIT_GENERATED_(60)
  6
Continuous
 62
     7
100
AcDbLine
 10
90.7304644296
 20
120.4655321491
 30
0.0
 11
90.7228082576
 21
119.5999988242
 31
0.0
  0
LINE
  5
C7
330
B5
100
AcDbEntity
  8
$DDT_AUDIT_GENERATED_(60)
  6
Continuous
 62
     7
100
AcDbLine
 10
111.4545060805
 20
119.612630839
 30
0.0
 11
111.4469620955
 21
120.4655293882
 31
0.0
  0
ARC
  5
C8
330
B5
100
AcDbEntity
  8
$DDT_AUDIT_GENERATED_(65)
  6
Continuous
 62
     7
100
AcDbCircle
 10
8.5494828235
 20
173.8038559721
 30
0.0
 40
1.000000000000001
100
AcDbArc
 50
90.0
 51
96.4039882183
  0
ARC
  5
C9
330
B5
100
AcDbEntity
  8
$DDT_AUDIT_GENERATED_(65)
  6
Continuous
 62
     7
100
AcDbCircle
 10
193.6279437926
 20
173.8038559721
 30
0.0
 40
1.000000000000005
100
AcDbArc
 50
83.5960117817
 51
90.0
  0
LINE
  5
CA
330
B5
100
AcDbEntity
  8
$DDT_AUDIT_GENERATED_(65)
  6
Continuous
 62
     7
100
AcDbLine
 10
193.6279437926
 20
174.8038559721
 30
0.0
 11
8.5494828235
 21
174.8038559721
 31
0.0
  0
ARC
  5
CB
330
B5
100
AcDbEntity
  8
$DDT_AUDIT_GENERATED_(65)
  6
Continuous
 62
     7
100
AcDbCircle
 10
8.5494828235
 20
173.8038559721
 30
0.0
 40
1.000000000000001
100
AcDbArc
 50
90.0
 51
96.4039882183
  0
ARC
  5
CC
330
B5
100
AcDbEntity
  8
$DDT_AUDIT_GENERATED_(65)
  6
Continuous
 62
     7
100
AcDbCircle
 10
193.6279437926
 20
173.8038559721
 30
0.0
 40
1.000000000000005
100
AcDbArc
 50
83.5960117817
 51
90.0
  0
LINE
  5
CD
330
B5
100
AcDbEntity
  8
$DDT_AUDIT_GENERATED_(65)
  6
Continuous
 62
     7
100
AcDbLine
 10
193.6279437926
 20
174.8038559721
 30
0.0
 11
8.5494828235
 21
174.8038559721
 31
0.0
  0
ARC
  5
CE
330
B5
100
AcDbEntity
  8
$DDT_AUDIT_GENERATED_(65)
  6
Continuous
 62
     7
100
AcDbCircle
 10
8.638713308
 20
173.008847846
 30
0.0
 40
1.800000000000008
100
AcDbArc
 50
96.4039882183
 51
180.0
  0
ARC
  5
CF
330
B5
100
AcDbEntity
  8
$DDT_AUDIT_GENERATED_(65)
  6
Continuous
 62
     7
100
AcDbCircle
 10
193.538713308
 20
173.008847846
 30
0.0
 40
1.799999999999996
100
AcDbArc
 50
0.0
 51
83.5960117817
  0
ARC
  5
D0
330
B5
100
AcDbEntity
  8
$DDT_AUDIT_GENERATED_(65)
  6
Continuous
 62
     7
100
AcDbCircle
 10
8.638713308
 20
173.008847846
 30
0.0
 40
1.800000000000008
100
AcDbArc
 50
96.4039882183
 51
180.0
  0
ARC
  5
D1
330
B5
100
AcDbEntity
  8
$DDT_AUDIT_GENERATED_(65)
  6
Continuous
 62
     7
100
AcDbCircle
 10
193.538713308
 20
173.008847846
 30
0.0
 40
1.799999999999996
100
AcDbArc
 50
0.0
 51
83.5960117817
  0
LINE
  5
D2
330
B5
100
AcDbEntity
  8
$DDT_AUDIT_GENERATED_(65)
  6
Continuous
 62
     7
100
AcDbLine
 10
6.838713308
 20
173.008847846
 30
0.0
 11
6.838713308
 21
163.3194246687
 31
0.0
  0
LINE
  5
D3
330
B5
100
AcDbEntity
  8
$DDT_AUDIT_GENERATED_(65)
  6
Continuous
 62
     7
100
AcDbLine
 10
195.338713308
 20
163.3194246687
 30
0.0
 11
195.338713308
 21
173.008847846
 31
0.0
  0
LINE
  5
D4
330
B5
100
AcDbEntity
  8
$DDT_AUDIT_GENERATED_(65)
  6
Continuous
 62
     7
100
AcDbLine
 10
6.838713308
 20
173.008847846
 30
0.0
 11
6.838713308
 21
163.3194246687
 31
0.0
  0
LINE
  5
D5
330
B5
100
AcDbEntity
  8
$DDT_AUDIT_GENERATED_(65)
  6
Continuous
 62
     7
100
AcDbLine
 10
195.338713308
 20
163.3194246687
 30
0.0
 11
195.338713308
 21
173.008847846
 31
0.0
  0
ARC
  5
D6
330
B5
100
AcDbEntity
  8
$DDT_AUDIT_GENERATED_(65)
  6
Continuous
 62
     7
100
AcDbCircle
 10
8.438713308
 20
163.3194246687
 30
0.0
 40
1.600000000000004
100
AcDbArc
 50
180.0
 51
269.1149864849
  0
ARC
  5
D7
330
B5
100
AcDbEntity
  8
$DDT_AUDIT_GENERATED_(65)
  6
Continuous
 62
     7
100
AcDbCircle
 10
193.738713308
 20
163.3194246687
 30
0.0
 40
1.600000000000013
100
AcDbArc
 50
270.8850135151
 51
0.0
  0
ARC
  5
D8
330
B5
100
AcDbEntity
  8
$DDT_AUDIT_GENERATED_(65)
  6
Continuous
 62
     7
100
AcDbCircle
 10
8.438713308
 20
163.3194246687
 30
0.0
 40
1.600000000000004
100
AcDbArc
 50
180.0
 51
269.1149864849
  0
ARC
  5
D9
330
B5
100
AcDbEntity
  8
$DDT_AUDIT_GENERATED_(65)
  6
Continuous
 62
     7
100
AcDbCircle
 10
193.738713308
 20
163.3194246687
 30
0.0
 40
1.600000000000013
100
AcDbArc
 50
270.8850135151
 51
0.0
  0
ARC
  5
DA
330
B5
100
AcDbEntity
  8
$DDT_AUDIT_GENERATED_(65)
  6
Continuous
 62
     7
100
AcDbCircle
 10
101.088713308
 20
6161.0038559721
 30
0.0
 40
6000.0
100
AcDbArc
 50
270.2772277381
 51
270.8850135152
  0
ARC
  5
DB
330
B5
100
AcDbEntity
  8
$DDT_AUDIT_GENERATED_(65)
  6
Continuous
 62
     7
100
AcDbCircle
 10
101.088713308
 20
6161.0038559721
 30
0.0
 40
6000.000000000001
100
AcDbArc
 50
269.1149864848
 51
269.7226767571
  0
ARC
  5
DC
330
B5
100
AcDbEntity
  8
$DDT_AUDIT_GENERATED_(65)
  6
Continuous
 62
     7
100
AcDbCircle
 10
101.088713308
 20
6161.0038559721
 30
0.0
 40
6000.0
100
AcDbArc
 50
270.2772277381
 51
270.8850135152
  0
ARC
  5
DD
330
B5
100
AcDbEntity
  8
$DDT_AUDIT_GENERATED_(65)
  6
Continuous
 62
     7
100
AcDbCircle
 10
101.088713308
 20
6161.0038559721
 30
0.0
 40
6000.000000000001
100
AcDbArc
 50
269.1149864848
 51
269.7226767571
  0
LINE
  5
DE
330
B5
100
AcDbEntity
  8
15620031__MODULA
  6
Continuous
 62
     7
100
AcDbLine
 10
127.3853996355
 20
131.0538559721
 30
0.0
 11
74.7820271192
 21
131.0538559721
 31
0.0
  0
LINE
  5
DF
330
B5
100
AcDbEntity
  8
15620031__MODULA
  6
Continuous
 62
     7
100
AcDbLine
 10
72.010166144
 20
162.5038559721
 30
0.0
 11
72.7827124692
 21
133.0015020755
 31
0.0
  0
LINE
  5
E0
330
B5
100
AcDbEntity
  8
15620031__MODULA
  6
Continuous
 62
     7
100
AcDbLine
 10
129.3847142854
 20
133.0015020755
 30
0.0
 11
130.1572606107
 21
162.5038559721
 31
0.0
  0
ARC
  5
E1
330
B5
100
AcDbEntity
  8
15620031__MODULA
  6
Continuous
 62
     7
100
AcDbCircle
 10
74.7820271192
 20
133.0538559721
 30
0.0
 40
2.000000000000005
100
AcDbArc
 50
181.5
 51
270.0
  0
ARC
  5
E2
330
B5
100
AcDbEntity
  8
15620031__MODULA
  6
Continuous
 62
     7
100
AcDbCircle
 10
127.3853996355
 20
133.0538559721
 30
0.0
 40
2.000000000000002
100
AcDbArc
 50
270.0
 51
358.5
  0
LINE
  5
E4
330
B5
100
AcDbEntity
  8
DV3_Standard
  6
CENTER2
 62
     7
100
AcDbLine
 10
121.088712861
 20
174.8038559721
 30
0.0
 11
81.0887137551
 21
174.8038559721
 31
0.0
  0
LINE
  5
E5
330
B5
100
AcDbEntity
  8
DV3_Standard
  6
CENTER2
 62
     7
100
AcDbLine
 10
101.088713308
 20
194.8038555251
 30
0.0
 11
101.088713308
 21
154.8038564192
 31
0.0
  0
ENDBLK
  5
E7
330
B5
100
AcDbEntity
  8
0
100
AcDbBlockEnd
  0
ENDSEC
  0
SECTION
  2
ENTITIES
  0
INSERT
  5
5F
330
1F
100
AcDbEntity
  8
Default
100
AcDbBlockReference
  2
SE
 10
0.0
 20
0.0
 30
0.0
  0
INSERT
  5
72
330
1F
100
AcDbEntity
  8
Default
100
AcDbBlockReference
  2
SE1
 10
0.0
 20
0.0
 30
0.0
  0
INSERT
  5
B6
330
1F
100
AcDbEntity
  8
Default
100
AcDbBlockReference
  2
SE2
 10
0.0
 20
0.0
 30
0.0
  0
TEXT
  5
E9
330
1F
100
AcDbEntity
  8
Default
  6
Continuous
 62
     7
100
AcDbText
 10
5.9362635081
 20
53.4225120485
 30
0.0
 40
10.0
  1
Grohe AG^J
  7
SEACAD_seiso_ttf
 11
5.9362635081
 21
63.4225120485
 31
0.0
100
AcDbText
 73
     3
  0
TEXT
  5
EA
330
1F
100
AcDbEntity
  8
Default
  6
Continuous
 62
     7
100
AcDbText
 10
5.9362635081
 20
37.0588756849
 30
0.0
 40
10.0
  1
 
  7
SEACAD_seiso_ttf
 11
5.9362635081
 21
47.0588756849
 31
0.0
100
AcDbText
 73
     3
  0
TEXT
  5
EB
330
1F
100
AcDbEntity
  8
Default
  6
Continuous
 62
     7
100
AcDbText
 10
5.9362635081
 20
20.6952393213
 30
0.0
 40
10.0
  1
ecn: 
  7
SEACAD_seiso_ttf
 11
5.9362635081
 21
30.6952393213
 31
0.0
100
AcDbText
 73
     3
  0
TEXT
  5
EC
330
1F
100
AcDbEntity
  8
Default
  6
Continuous
 62
     7
100
AcDbText
 10
5.9362635081
 20
4.3316029576
 30
0.0
 40
10.0
  1
unit: mm
  7
SEACAD_seiso_ttf
 11
5.9362635081
 21
14.3316029576
 31
0.0
100
AcDbText
 73
     3
  0
LINE
  5
ED
330
1F
100
AcDbEntity
  8
Default
  6
Continuous
 62
     7
100
AcDbLine
 10
0.0
 20
0.0
 30
0.0
 11
100.0
 21
0.0
 31
0.0
  0
LINE
  5
EE
330
1F
100
AcDbEntity
  8
Default
  6
Continuous
 62
     7
100
AcDbLine
 10
0.0
 20
0.0
 30
0.0
 11
0.0
 21
100.0
 31
0.0
  0
TEXT
  5
EF
330
1F
100
AcDbEntity
  8
Default
  6
Continuous
 62
     7
100
AcDbText
 10
24.3923665681
 20
-18.2375342018
 30
0.0
 40
10.0
  1
100 mm
  7
SEACAD_seiso_ttf
 11
24.3923665681
 21
-8.2375342018
 31
0.0
100
AcDbText
 73
     3
  0
TEXT
  5
F0
330
1F
100
AcDbEntity
  8
Default
  6
Continuous
 62
     7
100
AcDbText
 10
-7.6150308803
 20
24.6231930421
 30
0.0
 40
10.0
  1
100 mm
 50
90.0
  7
SEACAD_seiso_ttf
 11
-17.6150308803
 21
24.6231930421
 31
0.0
100
AcDbText
 73
     3
  0
TEXT
  5
F1
330
1F
100
AcDbEntity
  8
Default
  6
Continuous
 62
     7
100
AcDbText
 10
28.4878128572
 20
20.0907663715
 30
0.0
 40
10.0
  1
215392
  7
SEACAD_seiso_ttf
 11
28.4878128572
 21
30.0907663715
 31
0.0
100
AcDbText
 73
     3
  0
TEXT
  5
F2
330
1F
100
AcDbEntity
  8
Default
  6
Continuous
 62
     7
100
AcDbText
 10
5.9012241913
 20
36.7242780188
 30
0.0
 40
10.0
  1
19368000
  7
SEACAD_seiso_ttf
 11
5.9012241913
 21
46.7242780188
 31
0.0
100
AcDbText
 73
     3
  0
ENDSEC
  0
SECTION
  2
OBJECTS
  0
DICTIONARY
  5
C
330
0
100
AcDbDictionary
281
     1
  3
ACAD_GROUP
350
D
  3
ACAD_LAYOUT
350
1A
  3
ACAD_MLEADERSTYLE
350
F6
  3
ACAD_MLINESTYLE
350
17
  3
ACAD_PLOTSETTINGS
350
19
  3
ACAD_PLOTSTYLENAME
350
E
  3
ACAD_SCALELIST
350
3B
  3
ACAD_TABLESTYLE
350
F5
  3
ACAD_VISUALSTYLE
350
2A
  3
AcDbVariableDictionary
350
F3
  0
DICTIONARY
  5
D
102
{ACAD_REACTORS
330
C
102
}
330
C
100
AcDbDictionary
281
     1
  0
DICTIONARY
  5
1A
102
{ACAD_REACTORS
330
C
102
}
330
C
100
AcDbDictionary
281
     1
  3
Layout1
350
1E
  3
Model
350
22
  0
DICTIONARY
  5
F6
102
{ACAD_REACTORS
330
C
102
}
330
C
100
AcDbDictionary
281
     1
  0
DICTIONARY
  5
17
102
{ACAD_REACTORS
330
C
102
}
330
C
100
AcDbDictionary
281
     1
  3
Standard
350
18
  0
DICTIONARY
  5
19
102
{ACAD_REACTORS
330
C
102
}
330
C
100
AcDbDictionary
281
     1
  0
ACDBDICTIONARYWDFLT
  5
E
102
{ACAD_REACTORS
330
C
102
}
330
C
100
AcDbDictionary
281
     1
  3
Normal
350
F
100
AcDbDictionaryWithDefault
340
F
  0
DICTIONARY
  5
3B
102
{ACAD_REACTORS
330
C
102
}
330
C
100
AcDbDictionary
281
     1
  3
A0
350
3C
  3
A1
350
3D
  3
A2
350
3E
  3
A3
350
3F
  3
A4
350
40
  3
A5
350
41
  3
A6
350
42
  3
A7
350
43
  3
A8
350
44
  3
A9
350
45
  3
B0
350
46
  3
B1
350
47
  3
B2
350
48
  3
B3
350
49
  3
B4
350
4A
  3
B5
350
4B
  3
B6
350
4C
  3
B7
350
4D
  3
B8
350
4E
  3
B9
350
4F
  3
C0
350
50
  3
C1
350
51
  3
C2
350
52
  3
C3
350
53
  3
C4
350
54
  3
C5
350
55
  3
C6
350
56
  3
C7
350
57
  3
C8
350
58
  3
C9
350
59
  3
D0
350
5A
  3
D1
350
5B
  3
D2
350
5C
  0
DICTIONARY
  5
F5
102
{ACAD_REACTORS
330
C
102
}
330
C
100
AcDbDictionary
281
     1
  0
DICTIONARY
  5
2A
102
{ACAD_REACTORS
330
C
102
}
330
C
100
AcDbDictionary
281
     1
  3
2dWireframe
350
2F
  3
3D Hidden
350
31
  3
3dWireframe
350
30
  3
Basic
350
32
  3
Brighten
350
36
  3
ColorChange
350
3A
  3
Conceptual
350
34
  3
Dim
350
35
  3
Facepattern
350
39
  3
Flat
350
2B
  3
FlatWithEdges
350
2C
  3
Gouraud
350
2D
  3
GouraudWithEdges
350
2E
  3
Linepattern
350
38
  3
Realistic
350
33
  3
Thicken
350
37
  0
DICTIONARY
  5
F3
102
{ACAD_REACTORS
330
C
102
}
330
C
100
AcDbDictionary
281
     1
  3
CANNOSCALE
350
F4
  3
PSOLHEIGHT
350
F8
  3
PSOLWIDTH
350
F7
  0
LAYOUT
  5
1E
102
{ACAD_REACTORS
330
1A
102
}
330
1A
100
AcDbPlotSettings
  1

  2
none_device
  4

  6

 40
0.0
 41
0.0
 42
0.0
 43
0.0
 44
0.0
 45
0.0
 46
0.0
 47
0.0
 48
0.0
 49
0.0
140
0.0
141
0.0
142
1.0
143
1.0
 70
   688
 72
     0
 73
     0
 74
     5
  7

 75
    16
147
1.0
148
0.0
149
0.0
100
AcDbLayout
  1
Layout1
 70
     1
 71
     1
 10
0.0
 20
0.0
 11
1682.0
 21
2378.0
 12
0.0
 22
0.0
 32
0.0
 14
0.0
 24
0.0
 34
0.0
 15
1682.0
 25
2378.0
 35
0.0
146
0.0
 13
0.0
 23
0.0
 33
0.0
 16
1.0
 26
0.0
 36
0.0
 17
0.0
 27
1.0
 37
0.0
 76
     0
330
1B
  0
LAYOUT
  5
22
102
{ACAD_REACTORS
330
1A
102
}
330
1A
100
AcDbPlotSettings
  1

  2
none_device
  4

  6

 40
0.0
 41
0.0
 42
0.0
 43
0.0
 44
0.0
 45
0.0
 46
0.0
 47
0.0
 48
0.0
 49
0.0
140
0.0
141
0.0
142
1.0
143
1.0
 70
  1712
 72
     0
 73
     0
 74
     0
  7

 75
     0
147
1.0
148
0.0
149
0.0
100
AcDbLayout
  1
Model
 70
     1
 71
     0
 10
0.0
 20
0.0
 11
1682.0
 21
2378.0
 12
0.0
 22
0.0
 32
0.0
 14
0.0
 24
0.0
 34
0.0
 15
1682.0
 25
2378.0
 35
0.0
146
0.0
 13
0.0
 23
0.0
 33
0.0
 16
1.0
 26
0.0
 36
0.0
 17
0.0
 27
1.0
 37
0.0
 76
     0
330
1F
331
29
  0
MLINESTYLE
  5
18
102
{ACAD_REACTORS
330
17
102
}
330
17
100
AcDbMlineStyle
  2
Standard
 70
     0
  3

 62
   256
 51
90.0
 52
90.0
 71
     2
 49
0.5
 62
   256
  6
BYLAYER
 49
-0.5
 62
   256
  6
BYLAYER
  0
ACDBPLACEHOLDER
  5
F
102
{ACAD_REACTORS
330
E
102
}
330
E
  0
SCALE
  5
3C
102
{ACAD_REACTORS
330
3B
102
}
330
3B
100
AcDbScale
 70
     0
300
1:1
140
1.0
141
1.0
290
     1
  0
SCALE
  5
3D
102
{ACAD_REACTORS
330
3B
102
}
330
3B
100
AcDbScale
 70
     0
300
1:2
140
1.0
141
2.0
290
     0
  0
SCALE
  5
3E
102
{ACAD_REACTORS
330
3B
102
}
330
3B
100
AcDbScale
 70
     0
300
1:4
140
1.0
141
4.0
290
     0
  0
SCALE
  5
3F
102
{ACAD_REACTORS
330
3B
102
}
330
3B
100
AcDbScale
 70
     0
300
1:5
140
1.0
141
5.0
290
     0
  0
SCALE
  5
40
102
{ACAD_REACTORS
330
3B
102
}
330
3B
100
AcDbScale
 70
     0
300
1:8
140
1.0
141
8.0
290
     0
  0
SCALE
  5
41
102
{ACAD_REACTORS
330
3B
102
}
330
3B
100
AcDbScale
 70
     0
300
1:10
140
1.0
141
10.0
290
     0
  0
SCALE
  5
42
102
{ACAD_REACTORS
330
3B
102
}
330
3B
100
AcDbScale
 70
     0
300
1:16
140
1.0
141
16.0
290
     0
  0
SCALE
  5
43
102
{ACAD_REACTORS
330
3B
102
}
330
3B
100
AcDbScale
 70
     0
300
1:20
140
1.0
141
20.0
290
     0
  0
SCALE
  5
44
102
{ACAD_REACTORS
330
3B
102
}
330
3B
100
AcDbScale
 70
     0
300
1:30
140
1.0
141
30.0
290
     0
  0
SCALE
  5
45
102
{ACAD_REACTORS
330
3B
102
}
330
3B
100
AcDbScale
 70
     0
300
1:40
140
1.0
141
40.0
290
     0
  0
SCALE
  5
46
102
{ACAD_REACTORS
330
3B
102
}
330
3B
100
AcDbScale
 70
     0
300
1:50
140
1.0
141
50.0
290
     0
  0
SCALE
  5
47
102
{ACAD_REACTORS
330
3B
102
}
330
3B
100
AcDbScale
 70
     0
300
1:100
140
1.0
141
100.0
290
     0
  0
SCALE
  5
48
102
{ACAD_REACTORS
330
3B
102
}
330
3B
100
AcDbScale
 70
     0
300
2:1
140
2.0
141
1.0
290
     0
  0
SCALE
  5
49
102
{ACAD_REACTORS
330
3B
102
}
330
3B
100
AcDbScale
 70
     0
300
4:1
140
4.0
141
1.0
290
     0
  0
SCALE
  5
4A
102
{ACAD_REACTORS
330
3B
102
}
330
3B
100
AcDbScale
 70
     0
300
8:1
140
8.0
141
1.0
290
     0
  0
SCALE
  5
4B
102
{ACAD_REACTORS
330
3B
102
}
330
3B
100
AcDbScale
 70
     0
300
10:1
140
10.0
141
1.0
290
     0
  0
SCALE
  5
4C
102
{ACAD_REACTORS
330
3B
102
}
330
3B
100
AcDbScale
 70
     0
300
100:1
140
100.0
141
1.0
290
     0
  0
SCALE
  5
4D
102
{ACAD_REACTORS
330
3B
102
}
330
3B
100
AcDbScale
 70
     0
300
1/128" = 1'-0"
140
0.0078125
141
12.0
290
     0
  0
SCALE
  5
4E
102
{ACAD_REACTORS
330
3B
102
}
330
3B
100
AcDbScale
 70
     0
300
1/64" = 1'-0"
140
0.015625
141
12.0
290
     0
  0
SCALE
  5
4F
102
{ACAD_REACTORS
330
3B
102
}
330
3B
100
AcDbScale
 70
     0
300
1/32" = 1'-0"
140
0.03125
141
12.0
290
     0
  0
SCALE
  5
50
102
{ACAD_REACTORS
330
3B
102
}
330
3B
100
AcDbScale
 70
     0
300
1/16" = 1'-0"
140
0.0625
141
12.0
290
     0
  0
SCALE
  5
51
102
{ACAD_REACTORS
330
3B
102
}
330
3B
100
AcDbScale
 70
     0
300
3/32" = 1'-0"
140
0.09375
141
12.0
290
     0
  0
SCALE
  5
52
102
{ACAD_REACTORS
330
3B
102
}
330
3B
100
AcDbScale
 70
     0
300
1/8" = 1'-0"
140
0.125
141
12.0
290
     0
  0
SCALE
  5
53
102
{ACAD_REACTORS
330
3B
102
}
330
3B
100
AcDbScale
 70
     0
300
3/16" = 1'-0"
140
0.1875
141
12.0
290
     0
  0
SCALE
  5
54
102
{ACAD_REACTORS
330
3B
102
}
330
3B
100
AcDbScale
 70
     0
300
1/4" = 1'-0"
140
0.25
141
12.0
290
     0
  0
SCALE
  5
55
102
{ACAD_REACTORS
330
3B
102
}
330
3B
100
AcDbScale
 70
     0
300
3/8" = 1'-0"
140
0.375
141
12.0
290
     0
  0
SCALE
  5
56
102
{ACAD_REACTORS
330
3B
102
}
330
3B
100
AcDbScale
 70
     0
300
1/2" = 1'-0"
140
0.5
141
12.0
290
     0
  0
SCALE
  5
57
102
{ACAD_REACTORS
330
3B
102
}
330
3B
100
AcDbScale
 70
     0
300
3/4" = 1'-0"
140
0.75
141
12.0
290
     0
  0
SCALE
  5
58
102
{ACAD_REACTORS
330
3B
102
}
330
3B
100
AcDbScale
 70
     0
300
1" = 1'-0"
140
1.0
141
12.0
290
     0
  0
SCALE
  5
59
102
{ACAD_REACTORS
330
3B
102
}
330
3B
100
AcDbScale
 70
     0
300
1-1/2" = 1'-0"
140
1.5
141
12.0
290
     0
  0
SCALE
  5
5A
102
{ACAD_REACTORS
330
3B
102
}
330
3B
100
AcDbScale
 70
     0
300
3" = 1'-0"
140
3.0
141
12.0
290
     0
  0
SCALE
  5
5B
102
{ACAD_REACTORS
330
3B
102
}
330
3B
100
AcDbScale
 70
     0
300
6" = 1'-0"
140
6.0
141
12.0
290
     0
  0
SCALE
  5
5C
102
{ACAD_REACTORS
330
3B
102
}
330
3B
100
AcDbScale
 70
     0
300
1'-0" = 1'-0"
140
12.0
141
12.0
290
     0
  0
VISUALSTYLE
  5
2F
102
{ACAD_REACTORS
330
2A
102
}
330
2A
100
AcDbVisualStyle
  2
2dWireframe
 70
     4
 71
     0
 72
     2
 73
     0
 90
        0
 40
-0.6
 41
-30.0
 62
     5
 63
     7
 74
     1
 91
        4
 64
     7
 65
   257
 75
     1
175
     1
 42
1.0
 92
        0
 66
   257
 43
1.0
 76
     1
 77
     6
 78
     2
 67
     7
 79
     5
170
     0
171
     0
290
     0
174
     0
 93
        1
 44
0.0
173
     0
291
     0
 45
0.0
1001
ACAD
1000
AcDbSavedByObjectVersion
1070
     0
  0
VISUALSTYLE
  5
31
102
{ACAD_REACTORS
330
2A
102
}
330
2A
100
AcDbVisualStyle
  2
3D Hidden
 70
     6
 71
     1
 72
     2
 73
     2
 90
        0
 40
-0.6
 41
-30.0
 62
     5
 63
     7
 74
     2
 91
        2
 64
     7
 65
   257
 75
     2
175
     1
 42
40.0
 92
        0
 66
   257
 43
1.0
 76
     1
 77
     6
 78
     2
 67
     7
 79
     3
170
     0
171
     0
290
     0
174
     0
 93
        1
 44
0.0
173
     0
291
     0
 45
0.0
1001
ACAD
1000
AcDbSavedByObjectVersion
1070
     0
  0
VISUALSTYLE
  5
30
102
{ACAD_REACTORS
330
2A
102
}
330
2A
100
AcDbVisualStyle
  2
3dWireframe
 70
     5
 71
     0
 72
     2
 73
     0
 90
        0
 40
-0.6
 41
-30.0
 62
     5
 63
     7
 74
     1
 91
        4
 64
     7
 65
   257
 75
     1
175
     1
 42
1.0
 92
        0
 66
   257
 43
1.0
 76
     1
 77
     6
 78
     2
 67
     7
 79
     5
170
     0
171
     0
290
     0
174
     0
 93
        1
 44
0.0
173
     0
291
     0
 45
0.0
1001
ACAD
1000
AcDbSavedByObjectVersion
1070
     0
  0
VISUALSTYLE
  5
32
102
{ACAD_REACTORS
330
2A
102
}
330
2A
100
AcDbVisualStyle
  2
Basic
 70
     7
 71
     1
 72
     0
 73
     1
 90
        0
 40
-0.6
 41
-30.0
 62
     5
 63
     7
 74
     0
 91
        4
 64
     7
 65
   257
 75
     1
175
     1
 42
1.0
 92
        8
 66
     7
 43
1.0
 76
     1
 77
     6
 78
     2
 67
     7
 79
     5
170
     0
171
     0
290
     0
174
     0
 93
        1
 44
0.0
173
     0
291
     1
 45
0.0
1001
ACAD
1000
AcDbSavedByObjectVersion
1070
     0
  0
VISUALSTYLE
  5
36
102
{ACAD_REACTORS
330
2A
102
}
330
2A
100
AcDbVisualStyle
  2
Brighten
 70
    12
 71
     2
 72
     2
 73
     0
 90
        0
 40
-0.6
 41
-30.0
 62
     5
 63
     7
 74
     1
 91
        4
 64
     7
 65
   257
 75
     1
175
     1
 42
1.0
 92
        8
 66
     7
 43
1.0
 76
     1
 77
     6
 78
     2
 67
     7
 79
     5
170
     0
171
     0
290
     0
174
     0
 93
        1
 44
50.0
173
     0
291
     1
 45
0.0
1001
ACAD
1000
AcDbSavedByObjectVersion
1070
     0
  0
VISUALSTYLE
  5
3A
102
{ACAD_REACTORS
330
2A
102
}
330
2A
100
AcDbVisualStyle
  2
ColorChange
 70
    16
 71
     2
 72
     2
 73
     3
 90
        0
 40
-0.6
 41
-30.0
 62
     5
 63
     8
 74
     1
 91
        4
 64
     7
 65
   257
 75
     1
175
     1
 42
1.0
 92
        8
 66
     8
 43
1.0
 76
     1
 77
     6
 78
     2
 67
     7
 79
     5
170
     0
171
     0
290
     0
174
     0
 93
        1
 44
0.0
173
     0
291
     1
 45
0.0
1001
ACAD
1000
AcDbSavedByObjectVersion
1070
     0
  0
VISUALSTYLE
  5
34
102
{ACAD_REACTORS
330
2A
102
}
330
2A
100
AcDbVisualStyle
  2
Conceptual
 70
     9
 71
     3
 72
     2
 73
     0
 90
        0
 40
-0.6
 41
-30.0
 62
     5
 63
     7
 74
     2
 91
        2
 64
     7
 65
   257
 75
     1
175
     1
 42
40.0
 92
        8
 66
     7
 43
1.0
 76
     1
 77
     6
 78
     2
 67
     7
 79
     3
170
     0
171
     0
290
     0
174
     0
 93
        1
 44
0.0
173
     0
291
     0
 45
0.0
1001
ACAD
1000
AcDbSavedByObjectVersion
1070
     0
  0
VISUALSTYLE
  5
35
102
{ACAD_REACTORS
330
2A
102
}
330
2A
100
AcDbVisualStyle
  2
Dim
 70
    11
 71
     2
 72
     2
 73
     0
 90
        0
 40
-0.6
 41
-30.0
 62
     5
 63
     7
 74
     1
 91
        4
 64
     7
 65
   257
 75
     1
175
     1
 42
1.0
 92
        8
 66
     7
 43
1.0
 76
     1
 77
     6
 78
     2
 67
     7
 79
     5
170
     0
171
     0
290
     0
174
     0
 93
        1
 44
-50.0
173
     0
291
     1
 45
0.0
1001
ACAD
1000
AcDbSavedByObjectVersion
1070
     0
  0
VISUALSTYLE
  5
39
102
{ACAD_REACTORS
330
2A
102
}
330
2A
100
AcDbVisualStyle
  2
Facepattern
 70
    15
 71
     2
 72
     2
 73
     0
 90
        0
 40
-0.6
 41
-30.0
 62
     5
 63
     7
 74
     1
 91
        4
 64
     7
 65
   257
 75
     1
175
     1
 42
1.0
 92
        8
 66
     7
 43
1.0
 76
     1
 77
     6
 78
     2
 67
     7
 79
     5
170
     0
171
     0
290
     0
174
     0
 93
        1
 44
0.0
173
     0
291
     1
 45
0.0
1001
ACAD
1000
AcDbSavedByObjectVersion
1070
     0
  0
VISUALSTYLE
  5
2B
102
{ACAD_REACTORS
330
2A
102
}
330
2A
100
AcDbVisualStyle
  2
Flat
 70
     0
 71
     2
 72
     1
 73
     1
 90
        2
 40
-0.6
 41
30.0
 62
     5
 63
     7
 74
     0
 91
        4
 64
     7
 65
   257
 75
     1
175
     1
 42
1.0
 92
        8
 66
     7
 43
1.0
 76
     1
 77
     6
 78
     2
 67
     7
 79
     5
170
     0
171
     0
290
     0
174
     0
 93
       13
 44
0.0
173
     0
291
     1
 45
0.0
1001
ACAD
1000
AcDbSavedByObjectVersion
1070
     0
  0
VISUALSTYLE
  5
2C
102
{ACAD_REACTORS
330
2A
102
}
330
2A
100
AcDbVisualStyle
  2
FlatWithEdges
 70
     1
 71
     2
 72
     1
 73
     1
 90
        2
 40
-0.6
 41
30.0
 62
     5
 63
     7
 74
     1
 91
        4
 64
     7
 65
   257
 75
     1
175
     1
 42
1.0
 92
        0
 66
   257
 43
1.0
 76
     1
 77
     6
 78
     2
 67
     7
 79
     5
170
     0
171
     0
290
     0
174
     0
 93
       13
 44
0.0
173
     0
291
     1
 45
0.0
1001
ACAD
1000
AcDbSavedByObjectVersion
1070
     0
  0
VISUALSTYLE
  5
2D
102
{ACAD_REACTORS
330
2A
102
}
330
2A
100
AcDbVisualStyle
  2
Gouraud
 70
     2
 71
     2
 72
     2
 73
     1
 90
        2
 40
-0.6
 41
30.0
 62
     5
 63
     7
 74
     0
 91
        4
 64
     7
 65
   257
 75
     1
175
     1
 42
1.0
 92
        0
 66
     7
 43
1.0
 76
     1
 77
     6
 78
     2
 67
     7
 79
     5
170
     0
171
     0
290
     0
174
     0
 93
       13
 44
0.0
173
     0
291
     1
 45
0.0
1001
ACAD
1000
AcDbSavedByObjectVersion
1070
     0
  0
VISUALSTYLE
  5
2E
102
{ACAD_REACTORS
330
2A
102
}
330
2A
100
AcDbVisualStyle
  2
GouraudWithEdges
 70
     3
 71
     2
 72
     2
 73
     1
 90
        2
 40
-0.6
 41
30.0
 62
     5
 63
     7
 74
     1
 91
        4
 64
     7
 65
   257
 75
     1
175
     1
 42
1.0
 92
        0
 66
   257
 43
1.0
 76
     1
 77
     6
 78
     2
 67
     7
 79
     5
170
     0
171
     0
290
     0
174
     0
 93
       13
 44
0.0
173
     0
291
     1
 45
0.0
1001
ACAD
1000
AcDbSavedByObjectVersion
1070
     0
  0
VISUALSTYLE
  5
38
102
{ACAD_REACTORS
330
2A
102
}
330
2A
100
AcDbVisualStyle
  2
Linepattern
 70
    14
 71
     2
 72
     2
 73
     0
 90
        0
 40
-0.6
 41
-30.0
 62
     5
 63
     7
 74
     1
 91
        4
 64
     7
 65
   257
 75
     7
175
     7
 42
1.0
 92
        8
 66
     7
 43
1.0
 76
     1
 77
     6
 78
     2
 67
     7
 79
     5
170
     0
171
     0
290
     0
174
     0
 93
        1
 44
0.0
173
     0
291
     1
 45
0.0
1001
ACAD
1000
AcDbSavedByObjectVersion
1070
     0
  0
VISUALSTYLE
  5
33
102
{ACAD_REACTORS
330
2A
102
}
330
2A
100
AcDbVisualStyle
  2
Realistic
 70
     8
 71
     2
 72
     2
 73
     0
 90
        0
 40
-0.6
 41
-30.0
 62
     5
 63
     7
 74
     1
 91
        0
 64
     7
 65
   257
 75
     1
175
     1
 42
1.0
 92
        8
 66
     8
 43
1.0
 76
     1
 77
     6
 78
     2
 67
     7
 79
     5
170
     0
171
     0
290
     0
174
     0
 93
       13
 44
0.0
173
     0
291
     0
 45
0.0
1001
ACAD
1000
AcDbSavedByObjectVersion
1070
     0
  0
VISUALSTYLE
  5
37
102
{ACAD_REACTORS
330
2A
102
}
330
2A
100
AcDbVisualStyle
  2
Thicken
 70
    13
 71
     2
 72
     2
 73
     0
 90
        0
 40
-0.6
 41
-30.0
 62
     5
 63
     7
 74
     1
 91
        4
 64
     7
 65
   257
 75
     1
175
     1
 42
1.0
 92
       12
 66
     7
 43
1.0
 76
     1
 77
     6
 78
     2
 67
     7
 79
     5
170
     0
171
     0
290
     0
174
     0
 93
        1
 44
0.0
173
     0
291
     1
 45
0.0
1001
ACAD
1000
AcDbSavedByObjectVersion
1070
     0
  0
DICTIONARYVAR
  5
F4
102
{ACAD_REACTORS
330
F3
102
}
330
F3
100
DictionaryVariables
280
     0
  1
1:1
  0
DICTIONARYVAR
  5
F8
102
{ACAD_REACTORS
330
F3
102
}
330
F3
100
DictionaryVariables
280
     0
  1
80.000000
  0
DICTIONARYVAR
  5
F7
102
{ACAD_REACTORS
330
F3
102
}
330
F3
100
DictionaryVariables
280
     0
  1
5.000000
  0
ENDSEC
  0
EOF
