  0
SECTION
  2
HEADER
  9
$ACADVER
  1
AC1015
  9
$ACADMAINTVER
 70
     6
  9
$DWGCODEPAGE
  3
ANSI_1252
  9
$INSBASE
 10
0.0
 20
0.0
 30
0.0
  9
$EXTMIN
 10
0.0
 20
0.0
 30
0.0
  9
$EXTMAX
 10
1682.0
 20
2378.0
 30
0.0
  9
$LIMMIN
 10
0.0
 20
0.0
  9
$LIMMAX
 10
1682.0
 20
2378.0
  9
$ORTHOMODE
 70
     0
  9
$REGENMODE
 70
     1
  9
$FILLMODE
 70
     1
  9
$QTEXTMODE
 70
     0
  9
$MIRRTEXT
 70
     1
  9
$LTSCALE
 40
1.0
  9
$ATTMODE
 70
     1
  9
$TEXTSIZE
 40
2.5
  9
$TRACEWID
 40
1.0
  9
$TEXTSTYLE
  7
Standard
  9
$CLAYER
  8
0
  9
$CELTYPE
  6
ByLayer
  9
$CECOLOR
 62
   256
  9
$CELTSCALE
 40
1.0
  9
$DISPSILH
 70
     0
  9
$DIMSCALE
 40
1.0
  9
$DIMASZ
 40
2.5
  9
$DIMEXO
 40
0.625
  9
$DIMDLI
 40
3.75
  9
$DIMRND
 40
0.0
  9
$DIMDLE
 40
0.0
  9
$DIMEXE
 40
1.25
  9
$DIMTP
 40
0.0
  9
$DIMTM
 40
0.0
  9
$DIMTXT
 40
2.5
  9
$DIMCEN
 40
2.5
  9
$DIMTSZ
 40
0.0
  9
$DIMTOL
 70
     0
  9
$DIMLIM
 70
     0
  9
$DIMTIH
 70
     0
  9
$DIMTOH
 70
     0
  9
$DIMSE1
 70
     0
  9
$DIMSE2
 70
     0
  9
$DIMTAD
 70
     1
  9
$DIMZIN
 70
     8
  9
$DIMBLK
  1

  9
$DIMASO
 70
     1
  9
$DIMSHO
 70
     1
  9
$DIMPOST
  1

  9
$DIMAPOST
  1

  9
$DIMALT
 70
     0
  9
$DIMALTD
 70
     3
  9
$DIMALTF
 40
0.0393700787
  9
$DIMLFAC
 40
1.0
  9
$DIMTOFL
 70
     1
  9
$DIMTVP
 40
0.0
  9
$DIMTIX
 70
     0
  9
$DIMSOXD
 70
     0
  9
$DIMSAH
 70
     0
  9
$DIMBLK1
  1

  9
$DIMBLK2
  1

  9
$DIMSTYLE
  2
ISO-25
  9
$DIMCLRD
 70
     0
  9
$DIMCLRE
 70
     0
  9
$DIMCLRT
 70
     0
  9
$DIMTFAC
 40
1.0
  9
$DIMGAP
 40
0.625
  9
$DIMJUST
 70
     0
  9
$DIMSD1
 70
     0
  9
$DIMSD2
 70
     0
  9
$DIMTOLJ
 70
     0
  9
$DIMTZIN
 70
     8
  9
$DIMALTZ
 70
     0
  9
$DIMALTTZ
 70
     0
  9
$DIMUPT
 70
     0
  9
$DIMDEC
 70
     2
  9
$DIMTDEC
 70
     2
  9
$DIMALTU
 70
     2
  9
$DIMALTTD
 70
     3
  9
$DIMTXSTY
  7
Standard
  9
$DIMAUNIT
 70
     0
  9
$DIMADEC
 70
     0
  9
$DIMALTRND
 40
0.0
  9
$DIMAZIN
 70
     0
  9
$DIMDSEP
 70
    44
  9
$DIMATFIT
 70
     3
  9
$DIMFRAC
 70
     0
  9
$DIMLDRBLK
  1

  9
$DIMLUNIT
 70
     2
  9
$DIMLWD
 70
    -2
  9
$DIMLWE
 70
    -2
  9
$DIMTMOVE
 70
     0
  9
$LUNITS
 70
     2
  9
$LUPREC
 70
     4
  9
$SKETCHINC
 40
1.0
  9
$FILLETRAD
 40
10.0
  9
$AUNITS
 70
     0
  9
$AUPREC
 70
     0
  9
$MENU
  1
.
  9
$ELEVATION
 40
0.0
  9
$PELEVATION
 40
0.0
  9
$THICKNESS
 40
0.0
  9
$LIMCHECK
 70
     0
  9
$CHAMFERA
 40
10.0
  9
$CHAMFERB
 40
10.0
  9
$CHAMFERC
 40
20.0
  9
$CHAMFERD
 40
0.0
  9
$SKPOLY
 70
     0
  9
$TDCREATE
 40
2455335.522594039
  9
$TDUCREATE
 40
2455335.439260706
  9
$TDUPDATE
 40
2455335.522594051
  9
$TDUUPDATE
 40
2455335.439260717
  9
$TDINDWG
 40
0.0000000116
  9
$TDUSRTIMER
 40
0.0000000116
  9
$USRTIMER
 70
     1
  9
$ANGBASE
 50
0.0
  9
$ANGDIR
 70
     0
  9
$PDMODE
 70
     0
  9
$PDSIZE
 40
0.0
  9
$PLINEWID
 40
0.0
  9
$SPLFRAME
 70
     0
  9
$SPLINETYPE
 70
     6
  9
$SPLINESEGS
 70
     8
  9
$HANDSEED
  5
161
  9
$SURFTAB1
 70
     6
  9
$SURFTAB2
 70
     6
  9
$SURFTYPE
 70
     6
  9
$SURFU
 70
     6
  9
$SURFV
 70
     6
  9
$UCSBASE
  2

  9
$UCSNAME
  2

  9
$UCSORG
 10
0.0
 20
0.0
 30
0.0
  9
$UCSXDIR
 10
1.0
 20
0.0
 30
0.0
  9
$UCSYDIR
 10
0.0
 20
1.0
 30
0.0
  9
$UCSORTHOREF
  2

  9
$UCSORTHOVIEW
 70
     0
  9
$UCSORGTOP
 10
0.0
 20
0.0
 30
0.0
  9
$UCSORGBOTTOM
 10
0.0
 20
0.0
 30
0.0
  9
$UCSORGLEFT
 10
0.0
 20
0.0
 30
0.0
  9
$UCSORGRIGHT
 10
0.0
 20
0.0
 30
0.0
  9
$UCSORGFRONT
 10
0.0
 20
0.0
 30
0.0
  9
$UCSORGBACK
 10
0.0
 20
0.0
 30
0.0
  9
$PUCSBASE
  2

  9
$PUCSNAME
  2

  9
$PUCSORG
 10
0.0
 20
0.0
 30
0.0
  9
$PUCSXDIR
 10
1.0
 20
0.0
 30
0.0
  9
$PUCSYDIR
 10
0.0
 20
1.0
 30
0.0
  9
$PUCSORTHOREF
  2

  9
$PUCSORTHOVIEW
 70
     0
  9
$PUCSORGTOP
 10
0.0
 20
0.0
 30
0.0
  9
$PUCSORGBOTTOM
 10
0.0
 20
0.0
 30
0.0
  9
$PUCSORGLEFT
 10
0.0
 20
0.0
 30
0.0
  9
$PUCSORGRIGHT
 10
0.0
 20
0.0
 30
0.0
  9
$PUCSORGFRONT
 10
0.0
 20
0.0
 30
0.0
  9
$PUCSORGBACK
 10
0.0
 20
0.0
 30
0.0
  9
$USERI1
 70
     0
  9
$USERI2
 70
     0
  9
$USERI3
 70
     0
  9
$USERI4
 70
     0
  9
$USERI5
 70
     0
  9
$USERR1
 40
0.0
  9
$USERR2
 40
0.0
  9
$USERR3
 40
0.0
  9
$USERR4
 40
0.0
  9
$USERR5
 40
0.0
  9
$WORLDVIEW
 70
     1
  9
$SHADEDGE
 70
     3
  9
$SHADEDIF
 70
    70
  9
$TILEMODE
 70
     1
  9
$MAXACTVP
 70
    64
  9
$PINSBASE
 10
0.0
 20
0.0
 30
0.0
  9
$PLIMCHECK
 70
     0
  9
$PEXTMIN
 10
0.0
 20
0.0
 30
0.0
  9
$PEXTMAX
 10
1682.0
 20
2378.0
 30
0.0
  9
$PLIMMIN
 10
0.0
 20
0.0
  9
$PLIMMAX
 10
1682.0
 20
2378.0
  9
$UNITMODE
 70
     0
  9
$VISRETAIN
 70
     1
  9
$PLINEGEN
 70
     0
  9
$PSLTSCALE
 70
     1
  9
$TREEDEPTH
 70
  3020
  9
$CMLSTYLE
  2
Standard
  9
$CMLJUST
 70
     0
  9
$CMLSCALE
 40
20.0
  9
$PROXYGRAPHICS
 70
     1
  9
$MEASUREMENT
 70
     1
  9
$CELWEIGHT
370
    -1
  9
$ENDCAPS
280
     0
  9
$JOINSTYLE
280
     0
  9
$LWDISPLAY
290
     0
  9
$INSUNITS
 70
     4
  9
$HYPERLINKBASE
  1

  9
$STYLESHEET
  1

  9
$XEDIT
290
     1
  9
$CEPSNTYPE
380
     0
  9
$PSTYLEMODE
290
     1
  9
$FINGERPRINTGUID
  2
{B8631DD1-C8F7-43A9-ACE4-B55A18C3999C}
  9
$VERSIONGUID
  2
{FAEB1C32-E019-11D5-929B-00C0DF256EC4}
  9
$EXTNAMES
290
     1
  9
$PSVPSCALE
 40
0.0
  9
$OLESTARTUP
290
     0
  0
ENDSEC
  0
SECTION
  2
CLASSES
  0
CLASS
  1
ACDBDICTIONARYWDFLT
  2
AcDbDictionaryWithDefault
  3
ObjectDBX Classes
 90
        0
280
     0
281
     0
  0
CLASS
  1
VISUALSTYLE
  2
AcDbVisualStyle
  3
ObjectDBX Classes
 90
     4095
280
     0
281
     0
  0
CLASS
  1
SCALE
  2
AcDbScale
  3
ObjectDBX Classes
 90
     1153
280
     0
281
     0
  0
CLASS
  1
DICTIONARYVAR
  2
AcDbDictionaryVar
  3
ObjectDBX Classes
 90
        0
280
     0
281
     0
  0
CLASS
  1
ACDBPLACEHOLDER
  2
AcDbPlaceHolder
  3
ObjectDBX Classes
 90
        0
280
     0
281
     0
  0
CLASS
  1
LAYOUT
  2
AcDbLayout
  3
ObjectDBX Classes
 90
        0
280
     0
281
     0
  0
ENDSEC
  0
SECTION
  2
TABLES
  0
TABLE
  2
VPORT
  5
8
330
0
100
AcDbSymbolTable
 70
     1
  0
VPORT
  5
29
330
8
100
AcDbSymbolTableRecord
100
AcDbViewportTableRecord
  2
*Active
 70
     0
 10
0.0
 20
0.0
 11
1.0
 21
1.0
 12
344.1869158879
 22
148.5
 13
0.0
 23
0.0
 14
10.0
 24
10.0
 15
10.0
 25
10.0
 16
0.0
 26
0.0
 36
1.0
 17
0.0
 27
0.0
 37
0.0
 40
297.0
 41
1.9729729729
 42
50.0
 43
0.0
 44
0.0
 50
0.0
 51
0.0
 71
     0
 72
   100
 73
     1
 74
     3
 75
     0
 76
     0
 77
     0
 78
     0
281
     0
 65
     1
110
0.0
120
0.0
130
0.0
111
1.0
121
0.0
131
0.0
112
0.0
122
1.0
132
0.0
 79
     0
146
0.0
  0
ENDTAB
  0
TABLE
  2
LTYPE
  5
5
330
0
100
AcDbSymbolTable
 70
     2
  0
LTYPE
  5
14
330
5
100
AcDbSymbolTableRecord
100
AcDbLinetypeTableRecord
  2
ByBlock
 70
     0
  3

 72
    65
 73
     0
 40
0.0
  0
LTYPE
  5
15
330
5
100
AcDbSymbolTableRecord
100
AcDbLinetypeTableRecord
  2
ByLayer
 70
     0
  3

 72
    65
 73
     0
 40
0.0
  0
LTYPE
  5
16
330
5
100
AcDbSymbolTableRecord
100
AcDbLinetypeTableRecord
  2
Continuous
 70
     0
  3
Solid line
 72
    65
 73
     0
 40
0.0
  0
LTYPE
  5
B1
330
5
100
AcDbSymbolTableRecord
100
AcDbLinetypeTableRecord
  2
CENTER2
 70
     0
  3
Center (.5x) ___ _ ___ _ ___ _ ___ _ ___ _ ___
 72
    65
 73
     4
 40
28.575
 49
19.05
 74
     4
 75
     0
340
0
 46
0.0
 50
0.0
 44
0.0
 45
0.0
 49
-3.175
 74
     4
 75
     0
340
0
 46
0.0
 50
0.0
 44
0.0
 45
0.0
 49
3.175
 74
     4
 75
     0
340
0
 46
0.0
 50
0.0
 44
0.0
 45
0.0
 49
-3.175
 74
     4
 75
     0
340
0
 46
0.0
 50
0.0
 44
0.0
 45
0.0
  0
ENDTAB
  0
TABLE
  2
LAYER
  5
2
330
0
100
AcDbSymbolTable
 70
    12
  0
LAYER
  5
10
330
2
100
AcDbSymbolTableRecord
100
AcDbLayerTableRecord
  2
0
 70
     0
 62
     7
  6
Continuous
370
    -3
390
F
  0
LAYER
  5
5D
330
2
100
AcDbSymbolTableRecord
100
AcDbLayerTableRecord
  2
Default
 70
     0
 62
     7
  6
Continuous
370
    -3
390
F
  0
LAYER
  5
60
330
2
100
AcDbSymbolTableRecord
100
AcDbLayerTableRecord
  2
02636038_GEHÄUSE
 70
     0
 62
     7
  6
Continuous
370
    -3
390
F
  0
LAYER
  5
72
330
2
100
AcDbSymbolTableRecord
100
AcDbLayerTableRecord
  2
$DDT_AUDIT_GENERATED_(72)
 70
     0
 62
     7
  6
Continuous
370
    -3
390
F
  0
LAYER
  5
76
330
2
100
AcDbSymbolTableRecord
100
AcDbLayerTableRecord
  2
400019038_214400
 70
     0
 62
     7
  6
Continuous
370
    -3
390
F
  0
LAYER
  5
8B
330
2
100
AcDbSymbolTableRecord
100
AcDbLayerTableRecord
  2
64455038_214335_
 70
     0
 62
     7
  6
Continuous
370
    -3
390
F
  0
LAYER
  5
AF
330
2
100
AcDbSymbolTableRecord
100
AcDbLayerTableRecord
  2
DV1_Standard
 70
     0
 62
     7
  6
Continuous
370
    -3
390
F
  0
LAYER
  5
C7
330
2
100
AcDbSymbolTableRecord
100
AcDbLayerTableRecord
  2
64487038_215540_
 70
     0
 62
     7
  6
Continuous
370
    -3
390
F
  0
LAYER
  5
C9
330
2
100
AcDbSymbolTableRecord
100
AcDbLayerTableRecord
  2
64500038_214400_
 70
     0
 62
     7
  6
Continuous
370
    -3
390
F
  0
LAYER
  5
FD
330
2
100
AcDbSymbolTableRecord
100
AcDbLayerTableRecord
  2
64459038_214908_
 70
     0
 62
     7
  6
Continuous
370
    -3
390
F
  0
LAYER
  5
109
330
2
100
AcDbSymbolTableRecord
100
AcDbLayerTableRecord
  2
DV2_Standard
 70
     0
 62
     7
  6
Continuous
370
    -3
390
F
  0
LAYER
  5
147
330
2
100
AcDbSymbolTableRecord
100
AcDbLayerTableRecord
  2
DV3_Standard
 70
     0
 62
     7
  6
Continuous
370
    -3
390
F
  0
ENDTAB
  0
TABLE
  2
STYLE
  5
3
330
0
100
AcDbSymbolTable
 70
     2
  0
STYLE
  5
11
330
3
100
AcDbSymbolTableRecord
100
AcDbTextStyleTableRecord
  2
Standard
 70
     0
 40
0.0
 41
1.0
 50
0.0
 71
     0
 42
2.5
  3
txt
  4

  0
STYLE
  5
150
330
3
100
AcDbSymbolTableRecord
100
AcDbTextStyleTableRecord
  2
SEACAD_seiso_ttf
 70
     0
 40
0.0
 41
1.0
 50
0.0
 71
     0
 42
0.2
  3
seiso.ttf
  4

  0
ENDTAB
  0
TABLE
  2
VIEW
  5
6
330
0
100
AcDbSymbolTable
 70
     0
  0
ENDTAB
  0
TABLE
  2
UCS
  5
7
330
0
100
AcDbSymbolTable
 70
     0
  0
ENDTAB
  0
TABLE
  2
APPID
  5
9
330
0
100
AcDbSymbolTable
 70
     1
  0
APPID
  5
12
330
9
100
AcDbSymbolTableRecord
100
AcDbRegAppTableRecord
  2
ACAD
 70
     0
  0
ENDTAB
  0
TABLE
  2
DIMSTYLE
  5
A
330
0
100
AcDbSymbolTable
 70
     1
100
AcDbDimStyleTable
  0
DIMSTYLE
105
27
330
A
100
AcDbSymbolTableRecord
100
AcDbDimStyleTableRecord
  2
ISO-25
 70
     0
 41
2.5
 42
0.625
 43
3.75
 44
1.25
 73
     0
 74
     0
 77
     1
 78
     8
140
2.5
141
2.5
143
0.0393700787
147
0.625
171
     3
172
     1
271
     2
272
     2
274
     3
278
    44
283
     0
284
     8
340
11
  0
ENDTAB
  0
TABLE
  2
BLOCK_RECORD
  5
1
330
0
100
AcDbSymbolTable
 70
     4
  0
BLOCK_RECORD
  5
1F
330
1
100
AcDbSymbolTableRecord
100
AcDbBlockTableRecord
  2
*Model_Space
340
22
  0
BLOCK_RECORD
  5
1B
330
1
100
AcDbSymbolTableRecord
100
AcDbBlockTableRecord
  2
*Paper_Space
340
1E
  0
BLOCK_RECORD
  5
5E
330
1
100
AcDbSymbolTableRecord
100
AcDbBlockTableRecord
  2
SE
340
0
102
{BLKREFS
331
5F
102
}
  0
BLOCK_RECORD
  5
B8
330
1
100
AcDbSymbolTableRecord
100
AcDbBlockTableRecord
  2
SE1
340
0
102
{BLKREFS
331
B9
102
}
  0
BLOCK_RECORD
  5
111
330
1
100
AcDbSymbolTableRecord
100
AcDbBlockTableRecord
  2
SE2
340
0
102
{BLKREFS
331
112
102
}
  0
ENDTAB
  0
ENDSEC
  0
SECTION
  2
BLOCKS
  0
BLOCK
  5
20
330
1F
100
AcDbEntity
  8
0
100
AcDbBlockBegin
  2
*Model_Space
 70
     0
 10
0.0
 20
0.0
 30
0.0
  3
*Model_Space
  1

  0
ENDBLK
  5
21
330
1F
100
AcDbEntity
  8
0
100
AcDbBlockEnd
  0
BLOCK
  5
1C
330
1B
100
AcDbEntity
 67
     1
  8
0
100
AcDbBlockBegin
  2
*Paper_Space
 70
     0
 10
0.0
 20
0.0
 30
0.0
  3
*Paper_Space
  1

  0
ENDBLK
  5
1D
330
1B
100
AcDbEntity
 67
     1
  8
0
100
AcDbBlockEnd
  0
BLOCK
  5
B6
330
5E
100
AcDbEntity
  8
0
100
AcDbBlockBegin
  2
SE
 70
     0
 10
0.0
 20
0.0
 30
0.0
  3
SE
  1

  0
ELLIPSE
  5
61
330
5E
100
AcDbEntity
  8
02636038_GEHÄUSE
  6
Continuous
 62
     7
100
AcDbEllipse
 10
42.5380298151
 20
443.3051875378
 30
0.0
 11
10.75000000000001
 21
0.0
 31
0.0
210
0.0
220
0.0
230
1.0
 40
0.3090169944
 41
0.0
 42
6.283185307179586
  0
LINE
  5
62
330
5E
100
AcDbEntity
  8
02636038_GEHÄUSE
  6
Continuous
 62
     7
100
AcDbLine
 10
31.5380298151
 20
444.4064620588
 30
0.0
 11
31.5380298151
 21
442.8079150262
 31
0.0
  0
ELLIPSE
  5
63
330
5E
100
AcDbEntity
  8
02636038_GEHÄUSE
  6
Continuous
 62
     7
100
AcDbEllipse
 10
42.5380298151
 20
446.1583570867
 30
0.0
 11
11.80000000000018
 21
5.551115123125783E-14
 31
0.0
210
0.0
220
0.0
230
1.0
 40
0.3090169944
 41
2.771250021498079
 42
3.511935285681501
  0
LINE
  5
64
330
5E
100
AcDbEntity
  8
02636038_GEHÄUSE
  6
Continuous
 62
     7
100
AcDbLine
 10
31.5380298151
 20
447.4781165388
 30
0.0
 11
31.5380298151
 21
445.7505870981
 31
0.0
  0
LINE
  5
65
330
5E
100
AcDbEntity
  8
02636038_GEHÄUSE
  6
Continuous
 62
     7
100
AcDbLine
 10
31.5380298151
 20
445.7505870981
 30
0.0
 11
31.5380298151
 21
444.4064620588
 31
0.0
  0
LINE
  5
66
330
5E
100
AcDbEntity
  8
02636038_GEHÄUSE
  6
Continuous
 62
     7
100
AcDbLine
 10
31.5380298151
 20
442.7129348897
 30
0.0
 11
31.5380298151
 21
442.8079150262
 31
0.0
  0
LINE
  5
67
330
5E
100
AcDbEntity
  8
02636038_GEHÄUSE
  6
Continuous
 62
     7
100
AcDbLine
 10
53.5380298151
 20
442.8079150262
 30
0.0
 11
53.5380298151
 21
444.4064620588
 31
0.0
  0
ELLIPSE
  5
68
330
5E
100
AcDbEntity
  8
02636038_GEHÄUSE
  6
Continuous
 62
     7
100
AcDbEllipse
 10
42.5380298151
 20
446.1583570867
 30
0.0
 11
-11.79999999999996
 21
0.0
 31
0.0
210
0.0
220
0.0
230
1.0
 40
0.3090169944
 41
2.771250021498077
 42
3.511935285681509
  0
LINE
  5
69
330
5E
100
AcDbEntity
  8
02636038_GEHÄUSE
  6
Continuous
 62
     7
100
AcDbLine
 10
53.5380298151
 20
442.8079150262
 30
0.0
 11
53.5380298151
 21
442.7128295368
 31
0.0
  0
LINE
  5
6A
330
5E
100
AcDbEntity
  8
02636038_GEHÄUSE
  6
Continuous
 62
     7
100
AcDbLine
 10
53.5380298151
 20
444.4064620588
 30
0.0
 11
53.5380298151
 21
445.7505870981
 31
0.0
  0
LINE
  5
6B
330
5E
100
AcDbEntity
  8
02636038_GEHÄUSE
  6
Continuous
 62
     7
100
AcDbLine
 10
53.5380298151
 20
445.7505870981
 30
0.0
 11
53.5380298151
 21
447.4781165388
 31
0.0
  0
LINE
  5
6C
330
5E
100
AcDbEntity
  8
02636038_GEHÄUSE
  6
Continuous
 62
     7
100
AcDbLine
 10
33.1973540335
 20
441.6420305434
 30
0.0
 11
33.6519886955
 21
441.4356788219
 31
0.0
  0
LINE
  5
6D
330
5E
100
AcDbEntity
  8
02636038_GEHÄUSE
  6
Continuous
 62
     7
100
AcDbLine
 10
51.4240709347
 20
441.4356788219
 30
0.0
 11
51.8787055967
 21
441.6420305434
 31
0.0
  0
ARC
  5
6E
330
5E
100
AcDbEntity
  8
02636038_GEHÄUSE
  6
Continuous
 62
     7
100
AcDbCircle
 10
49.5741190856
 20
447.0195912125
 30
0.0
 40
5.852348122264995
100
AcDbArc
 50
293.7819676439
 51
312.6471279846
  0
ARC
  5
6F
330
5E
100
AcDbEntity
  8
02636038_GEHÄUSE
  6
Continuous
 62
     7
100
AcDbCircle
 10
35.4678086577
 20
446.957833538
 30
0.0
 40
5.782337662721336
100
AcDbArc
 50
227.184273326
 51
248.446176481
  0
LINE
  5
70
330
5E
100
AcDbEntity
  8
02636038_GEHÄUSE
  6
Continuous
 62
     7
100
AcDbLine
 10
30.7380298151
 20
448.9865316767
 30
0.0
 11
30.7380298151
 21
446.1583570867
 31
0.0
  0
LINE
  5
71
330
5E
100
AcDbEntity
  8
02636038_GEHÄUSE
  6
Continuous
 62
     7
100
AcDbLine
 10
54.3380298151
 20
446.1583570867
 30
0.0
 11
54.3380298151
 21
448.9910587666
 31
0.0
  0
ELLIPSE
  5
73
330
5E
100
AcDbEntity
  8
$DDT_AUDIT_GENERATED_(72)
  6
Continuous
 62
     7
100
AcDbEllipse
 10
42.5380298151
 20
442.9247649313
 30
0.0
 11
-9.000000000000002
 21
0.0
 31
0.0
210
0.0
220
0.0
230
1.0
 40
0.3090169944
 41
0.0
 42
6.283185307179586
  0
LINE
  5
74
330
5E
100
AcDbEntity
  8
$DDT_AUDIT_GENERATED_(72)
  6
Continuous
 62
     7
100
AcDbLine
 10
33.5380298151
 20
444.6872399193
 30
0.0
 11
33.5380298151
 21
442.9247649313
 31
0.0
  0
LINE
  5
75
330
5E
100
AcDbEntity
  8
$DDT_AUDIT_GENERATED_(72)
  6
Continuous
 62
     7
100
AcDbLine
 10
51.5380298151
 20
442.9247649313
 30
0.0
 11
51.5380298151
 21
444.6872399193
 31
0.0
  0
SPLINE
  5
77
330
5E
100
AcDbEntity
  8
400019038_214400
  6
Continuous
 62
     7
100
AcDbSpline
210
0.0
220
0.0
230
1.0
 70
     8
 71
     5
 72
    12
 73
     6
 74
     0
 42
0.0000000006777054
 43
0.0000000001
 40
0.0
 40
0.0
 40
0.0
 40
0.0
 40
0.0
 40
0.0
 40
1.0
 40
1.0
 40
1.0
 40
1.0
 40
1.0
 40
1.0
 10
30.30762473701892
 20
448.4651352998733
 30
0.0
 10
26.89750747007757
 20
448.9321461903946
 30
0.0
 10
23.60356717361232
 20
449.6907999906756
 30
0.0
 10
20.85155696857325
 20
450.9146670080167
 30
0.0
 10
19.53802981319264
 20
452.8459703791816
 30
0.0
 10
19.53803029017236
 20
455.4319860018973
 30
0.0
  0
LINE
  5
78
330
5E
100
AcDbEntity
  8
400019038_214400
  6
Continuous
 62
     7
100
AcDbLine
 10
19.5380822897
 20
368.7425643915
 30
0.0
 11
19.5380302902
 21
455.4319860019
 31
0.0
  0
SPLINE
  5
79
330
5E
100
AcDbEntity
  8
400019038_214400
  6
Continuous
 62
     7
100
AcDbSpline
210
0.0
220
0.0
230
1.0
 70
     8
 71
     3
 72
    36
 73
    32
 74
     0
 42
0.0000000004251071
 43
0.0000000001
 40
0.0
 40
0.0
 40
0.0
 40
0.0
 40
0.0433684779401247
 40
0.0858216962554833
 40
0.1275612818862597
 40
0.1687655587371273
 40
0.2096029322439942
 40
0.2498925325532671
 40
0.2892801949934479
 40
0.3279243254225699
 40
0.3659708474419732
 40
0.4035506947251363
 40
0.4407511179781147
 40
0.4771751567655018
 40
0.5127835390867662
 40
0.5476979952638467
 40
0.5820260598974303
 40
0.6158633404105497
 40
0.6492879779625407
 40
0.6820219932160607
 40
0.7139507943147937
 40
0.7451656497130016
 40
0.7757460599810871
 40
0.805762532207385
 40
0.8352770930256627
 40
0.8643359579816086
 40
0.8927592063810514
 40
0.9204840499331467
 40
0.947567750330316
 40
0.9740586939875328
 40
1.0
 40
1.0
 40
1.0
 40
1.0
 10
19.53803029017236
 20
455.4319860018973
 30
0.0
 10
19.54842743561563
 20
455.4956358194817
 30
0.0
 10
19.56900222982288
 20
455.6215925560525
 30
0.0
 10
19.73152724894116
 20
455.8079326181486
 30
0.0
 10
19.98240519886977
 20
455.9894729069254
 30
0.0
 10
20.32640737056727
 20
456.1663334656078
 30
0.0
 10
20.75721334000232
 20
456.3381021820594
 30
0.0
 10
21.26952748706043
 20
456.5036701741601
 30
0.0
 10
21.85579517297183
 20
456.6620221159674
 30
0.0
 10
22.50824321498635
 20
456.8127627682965
 30
0.0
 10
23.222365739809
 20
456.9561925590754
 30
0.0
 10
23.99469330910479
 20
457.0925003235059
 30
0.0
 10
24.81892433469821
 20
457.2212062375443
 30
0.0
 10
25.68706569538904
 20
457.3417253684901
 30
0.0
 10
26.59084919979554
 20
457.4536251744033
 30
0.0
 10
27.52582021822406
 20
457.5571252783367
 30
0.0
 10
28.48904079965184
 20
457.6526309837061
 30
0.0
 10
29.47815260364805
 20
457.7404538115958
 30
0.0
 10
30.48756611633299
 20
457.8205613811575
 30
0.0
 10
31.50963612267894
 20
457.8928120863825
 30
0.0
 10
32.53671364736527
 20
457.9571829226508
 30
0.0
 10
33.56519476192481
 20
458.0139310294209
 30
0.0
 10
34.59380098632456
 20
458.0634418112637
 30
0.0
 10
35.62128718620961
 20
458.1060820161134
 30
0.0
 10
36.64636147993949
 20
458.1422076782746
 30
0.0
 10
37.66526349577103
 20
458.1720269006392
 30
0.0
 10
38.67290800555686
 20
458.1957532782283
 30
0.0
 10
39.66456993585125
 20
458.213674957135
 30
0.0
 10
40.63845204283222
 20
458.2260072064429
 30
0.0
 10
41.59430179165142
 20
458.2335280017672
 30
0.0
 10
42.22565994446907
 20
458.2344440991837
 30
0.0
 10
42.53802981509432
 20
458.2348971360455
 30
0.0
  0
SPLINE
  5
7A
330
5E
100
AcDbEntity
  8
400019038_214400
  6
Continuous
 62
     7
100
AcDbSpline
210
0.0
220
0.0
230
1.0
 70
     8
 71
     3
 72
    25
 73
    21
 74
     0
 42
0.0000000004248771
 43
0.0000000001
 40
0.0
 40
0.0
 40
0.0
 40
0.0
 40
0.0420655794558337
 40
0.0856264160488378
 40
0.1308850115853877
 40
0.1777948649629102
 40
0.2259526916541033
 40
0.2755864947351331
 40
0.3270049685362535
 40
0.3804242911119573
 40
0.435092804661703
 40
0.4911589858004133
 40
0.5490638680288242
 40
0.6089530785755264
 40
0.6699676300486593
 40
0.7325178187979725
 40
0.7972006904772865
 40
0.8632524651355002
 40
0.930598704290962
 40
1.0
 40
1.0
 40
1.0
 40
1.0
 10
42.53802981509436
 20
466.8213228606224
 30
0.0
 10
42.03143904542353
 20
466.8201268994985
 30
0.0
 10
41.00046204675115
 20
466.8176926798862
 30
0.0
 10
39.43162076524543
 20
466.797601049947
 30
0.0
 10
37.81996009536552
 20
466.7640328719414
 30
0.0
 10
36.17846016841514
 20
466.7145669050219
 30
0.0
 10
34.52142181202103
 20
466.6484377230855
 30
0.0
 10
32.86100594248254
 20
466.5643235409959
 30
0.0
 10
31.2045444441524
 20
466.4607818245827
 30
0.0
 10
29.57151860106065
 20
466.3371595339661
 30
0.0
 10
27.98461468150498
 20
466.193148456722
 30
0.0
 10
26.46553612985093
 20
466.0285295921977
 30
0.0
 10
25.03152831761159
 20
465.8422508690113
 30
0.0
 10
23.70851046605557
 20
465.634849863701
 30
0.0
 10
22.52123438657234
 20
465.4074378959181
 30
0.0
 10
21.49344642087468
 20
465.1608282076111
 30
0.0
 10
20.65153550459686
 20
464.8959142233207
 30
0.0
 10
20.02712328706165
 20
464.6150616498589
 30
0.0
 10
19.61703329266392
 20
464.3209151966396
 30
0.0
 10
19.56462710649464
 20
464.1201959529807
 30
0.0
 10
19.53803030795091
 20
464.0183274497087
 30
0.0
  0
LINE
  5
7B
330
5E
100
AcDbEntity
  8
400019038_214400
  6
Continuous
 62
     7
100
AcDbLine
 10
19.5380302919
 20
464.0183401313
 30
0.0
 11
19.5380302919
 21
455.4320695256
 31
0.0
  0
LINE
  5
7C
330
5E
100
AcDbEntity
  8
400019038_214400
  6
Continuous
 62
     7
100
AcDbLine
 10
19.5381352283
 20
368.742564506
 30
0.0
 11
19.5378461878
 21
368.7425643715
 31
0.0
  0
LINE
  5
7D
330
5E
100
AcDbEntity
  8
400019038_214400
  6
Continuous
 62
     7
100
AcDbLine
 10
19.5381352411
 20
368.7425643938
 30
0.0
 11
19.5382880424
 21
364.944379245
 31
0.0
  0
LINE
  5
7E
330
5E
100
AcDbEntity
  8
400019038_214400
  6
Continuous
 62
     7
100
AcDbLine
 10
19.5379988055
 20
364.9443792277
 30
0.0
 11
19.5378461875
 21
368.7425642232
 31
0.0
  0
SPLINE
  5
7F
330
5E
100
AcDbEntity
  8
400019038_214400
  6
Continuous
 62
     7
100
AcDbSpline
210
0.0
220
0.0
230
1.0
 70
     8
 71
     3
 72
    11
 73
     7
 74
     0
 42
0.0000000004222036
 43
0.0000000001
 40
0.0
 40
0.0
 40
0.0
 40
0.0
 40
0.2500007188940135
 40
0.5000014377880271
 40
0.7500021566820406
 40
1.0
 40
1.0
 40
1.0
 40
1.0
 10
42.53802981509436
 20
466.8213228606224
 30
0.0
 10
45.54842159897732
 20
466.8213213068622
 30
0.0
 10
51.56899170456636
 20
466.6753712936294
 30
0.0
 10
59.22496478412336
 20
466.0519355371844
 30
0.0
 10
64.34048367180641
 20
465.1189050640033
 30
0.0
 10
65.53802921639378
 20
464.385185680552
 30
0.0
 10
65.53802932223782
 20
464.0183274497087
 30
0.0
  0
LINE
  5
80
330
5E
100
AcDbEntity
  8
400019038_214400
  6
Continuous
 62
     7
100
AcDbLine
 10
65.5379773405
 20
368.7425643915
 30
0.0
 11
65.53802934
 21
455.4319860019
 31
0.0
  0
SPLINE
  5
81
330
5E
100
AcDbEntity
  8
400019038_214400
  6
Continuous
 62
     7
100
AcDbSpline
210
0.0
220
0.0
230
1.0
 70
     8
 71
     5
 72
    12
 73
     6
 74
     0
 42
0.0000000006777054
 43
0.0000000001
 40
0.0
 40
0.0
 40
0.0
 40
0.0
 40
0.0
 40
0.0
 40
1.0
 40
1.0
 40
1.0
 40
1.0
 40
1.0
 40
1.0
 10
54.7684348924415
 20
448.4651352329726
 30
0.0
 10
58.17855197920522
 20
448.932146254966
 30
0.0
 10
61.4724921171512
 20
449.690800042458
 30
0.0
 10
64.22450222290183
 20
450.9146670392722
 30
0.0
 10
65.53802934015995
 20
452.8459704092351
 30
0.0
 10
65.53802934001637
 20
455.4319860018973
 30
0.0
  0
SPLINE
  5
82
330
5E
100
AcDbEntity
  8
400019038_214400
  6
Continuous
 62
     7
100
AcDbSpline
210
0.0
220
0.0
230
1.0
 70
     8
 71
     3
 72
    11
 73
     7
 74
     0
 42
0.0000000004222061
 43
0.0000000001
 40
0.0
 40
0.0
 40
0.0
 40
0.0
 40
0.2499857722360789
 40
0.4999905148240526
 40
0.7499952574120263
 40
1.0
 40
1.0
 40
1.0
 40
1.0
 10
65.53802934001637
 20
455.4319860018973
 30
0.0
 10
65.53793846548878
 20
455.7988197629139
 30
0.0
 10
64.34033302129572
 20
456.5325112726695
 30
0.0
 10
59.22488929461836
 20
457.4655189038884
 30
0.0
 10
51.56889308910146
 20
458.0889504407394
 30
0.0
 10
45.54831757309895
 20
458.2348971360454
 30
0.0
 10
42.53802981509432
 20
458.2348971360455
 30
0.0
  0
LINE
  5
83
330
5E
100
AcDbEntity
  8
400019038_214400
  6
Continuous
 62
     7
100
AcDbLine
 10
65.5380608246
 20
364.9443792284
 30
0.0
 11
65.5382134426
 21
368.7425642232
 31
0.0
  0
LINE
  5
84
330
5E
100
AcDbEntity
  8
400019038_214400
  6
Continuous
 62
     7
100
AcDbLine
 10
65.5379243891
 20
368.7425643938
 30
0.0
 11
65.5377715878
 21
364.9443792373
 31
0.0
  0
LINE
  5
85
330
5E
100
AcDbEntity
  8
400019038_214400
  6
Continuous
 62
     7
100
AcDbLine
 10
65.5380293383
 20
464.0183401313
 30
0.0
 11
65.5380293383
 21
455.4320695256
 31
0.0
  0
SPLINE
  5
86
330
5E
100
AcDbEntity
  8
400019038_214400
  6
Continuous
 62
     7
100
AcDbSpline
210
0.0
220
0.0
230
1.0
 70
     8
 71
     3
 72
     8
 73
     4
 74
     0
 42
0.000000002433294
 43
0.0000000001
 40
0.0
 40
0.0
 40
0.0
 40
0.0
 40
0.1411700834549531
 40
0.1411700834549531
 40
0.1411700834549531
 40
0.1411700834549531
 10
54.7684348924415
 20
448.4651352329726
 30
0.0
 10
54.7192452002981
 20
448.3493558689992
 30
0.0
 10
54.57900224334896
 20
448.2225368596609
 30
0.0
 10
54.34959960850865
 20
448.0893051176445
 30
0.0
  0
SPLINE
  5
87
330
5E
100
AcDbEntity
  8
400019038_214400
  6
Continuous
 62
     7
100
AcDbSpline
210
0.0
220
0.0
230
1.0
 70
     8
 71
     3
 72
     8
 73
     4
 74
     0
 42
0.0000000024187499
 43
0.0000000001
 40
0.8593398417792407
 40
0.8593398417792407
 40
0.8593398417792407
 40
0.8593398417792407
 40
1.0
 40
1.0
 40
1.0
 40
1.0
 10
30.72810990249432
 20
448.0889954423803
 30
0.0
 10
30.49862991456425
 20
448.2223379349716
 30
0.0
 10
30.35663142406917
 20
448.3497866442101
 30
0.0
 10
30.30762473701892
 20
448.4651352998733
 30
0.0
  0
SPLINE
  5
88
330
5E
100
AcDbEntity
  8
400019038_214400
  6
Continuous
 62
     7
100
AcDbSpline
210
0.0
220
0.0
230
1.0
 70
     8
 71
     3
 72
    26
 73
    22
 74
     0
 42
0.0000000003913247
 43
0.0000000001
 40
0.0
 40
0.0
 40
0.0
 40
0.0
 40
0.1250000000000002
 40
0.1250000000000002
 40
0.2500000000000004
 40
0.2500000000000004
 40
0.3125000000000006
 40
0.3125000000000006
 40
0.3750000000000007
 40
0.3750000000000007
 40
0.5000000000000006
 40
0.5000000000000006
 40
0.5625000000000004
 40
0.5625000000000004
 40
0.6250000000000003
 40
0.6250000000000003
 40
0.7500000000000002
 40
0.7500000000000002
 40
0.8750000000000001
 40
0.8750000000000001
 40
1.0
 40
1.0
 40
1.0
 40
1.0
 10
30.30762473701892
 20
448.4651352998733
 30
0.0
 10
30.21366359874625
 20
448.6836906837939
 30
0.0
 10
30.45995367952608
 20
448.904164337701
 30
0.0
 10
31.58484584532624
 20
449.3189578497114
 30
0.0
 10
32.47101235706764
 20
449.5137442484195
 30
0.0
 10
34.16797105810936
 20
449.7591142022574
 30
0.0
 10
34.80640366335818
 20
449.8347605028919
 30
0.0
 10
36.16632201669102
 20
449.9652070694349
 30
0.0
 10
36.88973153994196
 20
450.0206707433935
 30
0.0
 10
39.1929419250862
 20
450.1576046187259
 30
0.0
 10
40.85899653164171
 20
450.205424810785
 30
0.0
 10
43.3861756420931
 20
450.20526405621
 30
0.0
 10
44.21577648580546
 20
450.1935237125086
 30
0.0
 10
45.85010325902929
 20
450.1468972617034
 30
0.0
 10
46.66157246777195
 20
450.1113998478398
 30
0.0
 10
48.95397255052645
 20
449.9748763771456
 30
0.0
 10
50.34874767006376
 20
449.8401840094451
 30
0.0
 10
52.60881881260484
 20
449.5130055467744
 30
0.0
 10
53.49404737581986
 20
449.3181928577933
 30
0.0
 10
54.61694966806258
 20
448.9035724388971
 30
0.0
 10
54.86239537070841
 20
448.6836891469139
 30
0.0
 10
54.7684348924415
 20
448.4651352329726
 30
0.0
  0
SPLINE
  5
89
330
5E
100
AcDbEntity
  8
400019038_214400
  6
Continuous
 62
     7
100
AcDbSpline
210
0.0
220
0.0
230
1.0
 70
     8
 71
     3
 72
    60
 73
    56
 74
     0
 42
0.0000000004174159
 43
0.0000000001
 40
0.0
 40
0.0
 40
0.0
 40
0.0
 40
0.0349252112304906
 40
0.0730024129649123
 40
0.108181892610267
 40
0.14046044485231
 40
0.1698350585850992
 40
0.1963034860257923
 40
0.2242266684767432
 40
0.2485913591949072
 40
0.2707932583511173
 40
0.2908819869216919
 40
0.3088558094653714
 40
0.3280968128888111
 40
0.3494058105807114
 40
0.3729261219682992
 40
0.3994168014397558
 40
0.4291065201575803
 40
0.4502855910142154
 40
0.4727855597507663
 40
0.493696958500761
 40
0.5113968972463836
 40
0.5258794190733136
 40
0.5371391643693443
 40
0.5461409027777772
 40
0.5581182182465224
 40
0.5731425131599477
 40
0.5900279832695684
 40
0.6056337731835487
 40
0.6238763708566656
 40
0.641244533508304
 40
0.6616631670285806
 40
0.6823570087026031
 40
0.7014465922864753
 40
0.7176489260271363
 40
0.7314041588701384
 40
0.7466150636435178
 40
0.7641981675172416
 40
0.7905156242756475
 40
0.8141691487570611
 40
0.8348508498185188
 40
0.8541183521864028
 40
0.8735799647953207
 40
0.888085042097715
 40
0.9045741715417892
 40
0.9205222971947489
 40
0.9341831061413962
 40
0.9455631037877362
 40
0.9566100821271124
 40
0.9627364424952356
 40
0.9661041113139592
 40
0.9703740125503163
 40
0.977833184791717
 40
0.9875911539667138
 40
1.0
 40
1.0
 40
1.0
 40
1.0
 10
42.5380271074922
 20
468.2598188911962
 30
0.0
 10
42.12382508846554
 20
468.2594193295429
 30
0.0
 10
41.39317339956949
 20
468.2583669988342
 30
0.0
 10
40.20587945767802
 20
468.245655667712
 30
0.0
 10
39.08408900720951
 20
468.2262322842038
 30
0.0
 10
38.05661292491074
 20
468.2016497454755
 30
0.0
 10
37.13258423666421
 20
468.1739123657848
 30
0.0
 10
36.26354958408356
 20
468.1429102108611
 30
0.0
 10
35.45671472338059
 20
468.1095516792016
 30
0.0
 10
34.70396067725143
 20
468.0741858699801
 30
0.0
 10
34.03989077429781
 20
468.0395284623257
 30
0.0
 10
33.44779148766113
 20
468.0057573779484
 30
0.0
 10
32.89227936189592
 20
467.9715921184288
 30
0.0
 10
32.33257839611692
 20
467.9346616077638
 30
0.0
 10
31.72943676083392
 20
467.8918311082243
 30
0.0
 10
31.07087973302423
 20
467.8412703836233
 30
0.0
 10
30.35142195165739
 20
467.7811980964811
 30
0.0
 10
29.67256963677016
 20
467.7190938989051
 30
0.0
 10
29.04685146504046
 20
467.6570306472826
 30
0.0
 10
28.51037525121606
 20
467.6000505462799
 30
0.0
 10
28.01687443664994
 20
467.5439725304814
 30
0.0
 10
27.59919742081967
 20
467.4935740810222
 30
0.0
 10
27.26493089140853
 20
467.4511701362499
 30
0.0
 10
27.00209194720966
 20
467.4164723486491
 30
0.0
 10
26.76054408530231
 20
467.3835674600678
 30
0.0
 10
26.49463249939871
 20
467.3461375136476
 30
0.0
 10
26.17723965874186
 20
467.2995308029191
 30
0.0
 10
25.84273330608273
 20
467.2478825056983
 30
0.0
 10
25.49551580864672
 20
467.1914398244008
 30
0.0
 10
25.15552783347913
 20
467.1330960552684
 30
0.0
 10
24.79513279950669
 20
467.0675651712257
 30
0.0
 10
24.43167033208727
 20
466.9971889618288
 30
0.0
 10
24.07370753453858
 20
466.922841556409
 30
0.0
 10
23.75415355893019
 20
466.8516609652872
 30
0.0
 10
23.48384510055159
 20
466.7874473685201
 30
0.0
 10
23.24025594108611
 20
466.7261837270952
 30
0.0
 10
22.99586513438383
 20
466.6610630965883
 30
0.0
 10
22.69773818664896
 20
466.5760020451158
 30
0.0
 10
22.37761922249794
 20
466.475527864834
 30
0.0
 10
22.06151287469172
 20
466.3641656451736
 30
0.0
 10
21.78847506732389
 20
466.2565361419872
 30
0.0
 10
21.54497013133444
 20
466.1493365884639
 30
0.0
 10
21.33248292356048
 20
466.0444720243767
 30
0.0
 10
21.12653146386722
 20
465.930049180462
 30
0.0
 10
20.94186951488439
 20
465.8142624187976
 30
0.0
 10
20.7712859802284
 20
465.6926817580201
 30
0.0
 10
20.6217043341433
 20
465.5709162382742
 30
0.0
 10
20.50298994367972
 20
465.4638700337547
 30
0.0
 10
20.37185313773062
 20
465.3323547425305
 30
0.0
 10
20.26309828665702
 20
465.2085632610042
 30
0.0
 10
20.18820599774622
 20
465.1174769858051
 30
0.0
 10
20.09733627223694
 20
465.0006926860561
 30
0.0
 10
19.96995059496457
 20
464.8227649054046
 30
0.0
 10
19.79673212886255
 20
464.5574670633823
 30
0.0
 10
19.68648990562351
 20
464.3697099510879
 30
0.0
 10
19.61340759476278
 20
464.2441250195179
 30
0.0
  0
SPLINE
  5
8A
330
5E
100
AcDbEntity
  8
400019038_214400
  6
Continuous
 62
     7
100
AcDbSpline
210
0.0
220
0.0
230
1.0
 70
     8
 71
     3
 72
    65
 73
    61
 74
     0
 42
0.0000000004174159
 43
0.0000000001
 40
0.0
 40
0.0
 40
0.0
 40
0.0
 40
0.0104177009989112
 40
0.018846240725783
 40
0.0255239542408057
 40
0.0333088533607931
 40
0.0410936412418693
 40
0.0583605283384893
 40
0.0722670452703426
 40
0.0829255462495208
 40
0.0933003156428886
 40
0.1053237920485003
 40
0.1185258370420341
 40
0.1335534310781374
 40
0.1490773649832003
 40
0.1664960687938636
 40
0.1827618489359495
 40
0.1963631491440335
 40
0.2075212513885764
 40
0.2198593974651171
 40
0.2343384743937677
 40
0.2511987316312155
 40
0.2689226588713181
 40
0.2842215421487034
 40
0.2969929884728183
 40
0.3072318828480518
 40
0.3183874693517935
 40
0.3317643825765268
 40
0.3473555715886482
 40
0.3698891518596162
 40
0.3896576375493023
 40
0.4074379250998909
 40
0.4272490154168189
 40
0.4494472248452507
 40
0.4683871055332909
 40
0.4849166982497415
 40
0.4991118921612546
 40
0.5139825910431557
 40
0.5311451760991512
 40
0.5505959957372604
 40
0.5723309265424676
 40
0.5941480665419276
 40
0.6145158382118318
 40
0.6319222774001252
 40
0.6463725288004174
 40
0.6578709490640962
 40
0.6672188347746983
 40
0.6790473023913424
 40
0.6925395556048582
 40
0.7076941497317472
 40
0.7250858280340594
 40
0.746346327589106
 40
0.7715726413594478
 40
0.796350647710726
 40
0.824039594096816
 40
0.8546374836914078
 40
0.8881413216651597
 40
0.9245470234784642
 40
0.9638500425569488
 40
1.0
 40
1.0
 40
1.0
 40
1.0
 10
65.46265203542556
 20
464.2441250195185
 30
0.0
 10
65.4010647409358
 20
464.3503730771139
 30
0.0
 10
65.30703509108187
 20
464.511484109696
 30
0.0
 10
65.15845092571419
 20
464.7440677998548
 30
0.0
 10
65.02393640083473
 20
464.9399650613428
 30
0.0
 10
64.88968144527735
 20
465.1175269262649
 30
0.0
 10
64.72732732011879
 20
465.3091860241089
 30
0.0
 10
64.58097839222329
 20
465.4588568905662
 30
0.0
 10
64.39645399330583
 20
465.620396069615
 30
0.0
 10
64.26057316808198
 20
465.7242889957671
 30
0.0
 10
64.13939229375175
 20
465.8095033523952
 30
0.0
 10
64.00528316113605
 20
465.8957251313735
 30
0.0
 10
63.84989107279286
 20
465.9865346648164
 30
0.0
 10
63.67869047247623
 20
466.0771113685336
 30
0.0
 10
63.48839882588897
 20
466.1684280427739
 30
0.0
 10
63.28708735774721
 20
466.2561550558136
 30
0.0
 10
63.08308931046136
 20
466.3372263645427
 30
0.0
 10
62.89835581157281
 20
466.4051022640571
 30
0.0
 10
62.72821205181763
 20
466.4638728276645
 30
0.0
 10
62.55200499573866
 20
466.5214613184642
 30
0.0
 10
62.34299352716023
 20
466.5857788705785
 30
0.0
 10
62.09890180710251
 20
466.6559619716824
 30
0.0
 10
61.83923292404782
 20
466.7254626895735
 30
0.0
 10
61.5914735556362
 20
466.7875654964422
 30
0.0
 10
61.37826812838306
 20
466.8382066752488
 30
0.0
 10
61.18628459096849
 20
466.8819177542559
 30
0.0
 10
60.98691568625247
 20
466.9256123790319
 30
0.0
 10
60.74998016909973
 20
466.9753547064673
 30
0.0
 10
60.43578678835505
 20
467.0381086884347
 30
0.0
 10
60.06822223912526
 20
467.1069507007018
 30
0.0
 10
59.67168687702521
 20
467.176219508741
 30
0.0
 10
59.28160945318793
 20
467.2403635209129
 30
0.0
 10
58.86193311407018
 20
467.3053857364842
 30
0.0
 10
58.41886393235477
 20
467.3696494439537
 30
0.0
 10
57.98640056758543
 20
467.4284721817291
 30
0.0
 10
57.60474599188966
 20
467.4775936746127
 30
0.0
 10
57.24816075251312
 20
467.5213477781144
 30
0.0
 10
56.88011412038723
 20
467.5645133923805
 30
0.0
 10
56.46138957406151
 20
467.6112395617456
 30
0.0
 10
55.97577087368713
 20
467.6624280297989
 30
0.0
 10
55.43824054797521
 20
467.7155476899075
 30
0.0
 10
54.87930754552747
 20
467.7670954717966
 30
0.0
 10
54.34641973829717
 20
467.8130040049815
 30
0.0
 10
53.87062809289989
 20
467.8515142495468
 30
0.0
 10
53.46982944582236
 20
467.8822533065958
 30
0.0
 10
53.13988992783667
 20
467.9064473233286
 30
0.0
 10
52.83208983888767
 20
467.9282032119187
 30
0.0
 10
52.50282207111117
 20
467.950607224982
 30
0.0
 10
52.11464215499554
 20
467.9758166771341
 30
0.0
 10
51.66832933451597
 20
468.0032671752097
 30
0.0
 10
51.14068234479581
 20
468.0337007359897
 30
0.0
 10
50.50651815629153
 20
468.0674585250478
 30
0.0
 10
49.78877679702313
 20
468.1019129839491
 30
0.0
 10
48.99546355880788
 20
468.1356903723238
 30
0.0
 10
48.13624590234504
 20
468.1675397230749
 30
0.0
 10
47.17555583614547
 20
468.1974461036015
 30
0.0
 10
46.11016331189786
 20
468.2238385220667
 30
0.0
 10
44.94972416172033
 20
468.2446235112498
 30
0.0
 10
43.72208466390292
 20
468.25821124792
 30
0.0
 10
42.96681000592641
 20
468.2593566455292
 30
0.0
 10
42.53803262033151
 20
468.2597957115786
 30
0.0
  0
ARC
  5
8C
330
5E
100
AcDbEntity
  8
64455038_214335_
  6
Continuous
 62
     7
100
AcDbCircle
 10
25.3249791578
 20
492.7004258029
 30
0.0
 40
1.90920839654689
100
AcDbArc
 50
179.1155874525
 51
180.1063440616
  0
ELLIPSE
  5
8D
330
5E
100
AcDbEntity
  8
64455038_214335_
  6
Continuous
 62
     7
100
AcDbEllipse
 10
42.5380298151
 20
491.526020755
 30
0.0
 11
-18.71832885700001
 21
0.0
 31
0.0
210
0.0
220
0.0
230
1.0
 40
0.2407663593
 41
3.141592653589906
 42
6.283185307179586
  0
ARC
  5
8E
330
5E
100
AcDbEntity
  8
64455038_214335_
  6
Continuous
 62
     7
100
AcDbCircle
 10
59.7630752315
 20
492.6964092062
 30
0.0
 40
1.89728109955352
100
AcDbArc
 50
0.0155468927
 51
1.0406410357
  0
SPLINE
  5
8F
330
5E
100
AcDbEntity
  8
64455038_214335_
  6
Continuous
 62
     7
100
AcDbSpline
210
0.0
220
0.0
230
1.0
 70
     8
 71
     2
 72
     8
 73
     5
 74
     0
 42
0.0000000003989132
 43
0.0000000001
 40
0.0859374999999999
 40
0.0859374999999999
 40
0.0859374999999999
 40
0.09375
 40
0.09375
 40
0.0957031250032257
 40
0.0957031250032257
 40
0.0957031250032257
 10
61.66068206151043
 20
489.9907916014064
 30
0.0
 10
61.66068551800831
 20
489.8726246029204
 30
0.0
 10
61.66069174586929
 20
489.7543127998231
 30
0.0
 10
61.6606918811183
 20
489.7517434498579
 30
0.0
 10
61.66069200034932
 20
489.7459858435691
 30
0.0
  0
SPLINE
  5
90
330
5E
100
AcDbEntity
  8
64455038_214335_
  6
Continuous
 62
     7
100
AcDbSpline
210
0.0
220
0.0
230
1.0
 70
     8
 71
     3
 72
    23
 73
    19
 74
     0
 42
0.0000000007281819
 43
0.0000000001
 40
0.0
 40
0.0
 40
0.0
 40
0.0
 40
0.0582372059402064
 40
0.1134201983583077
 40
0.2172252666886129
 40
0.3121888063049991
 40
0.3991300589235859
 40
0.4786134034775366
 40
0.5511766734171701
 40
0.6773646758740178
 40
0.781265162141541
 40
0.8258912019955438
 40
0.8660558384482555
 40
0.9023710321120539
 40
0.9362707035087768
 40
0.9687278424459103
 40
0.9844736606899978
 40
1.0
 40
1.0
 40
1.0
 40
1.0
 10
30.94739076773436
 20
471.4937706753159
 30
0.0
 10
30.97133156996085
 20
471.6266691472948
 30
0.0
 10
31.01795491748979
 20
471.8854822244221
 30
0.0
 10
31.15929070863404
 20
472.3717010088486
 30
0.0
 10
31.40699706633374
 20
472.9255612592141
 30
0.0
 10
31.82406529875428
 20
473.5265240713568
 30
0.0
 10
32.33680020376214
 20
474.0585405344398
 30
0.0
 10
32.94002648989606
 20
474.5290425675629
 30
0.0
 10
33.81042037320247
 20
475.0591972504634
 30
0.0
 10
35.0381268897608
 20
475.6097619319413
 30
0.0
 10
36.57548308594966
 20
476.0670223603113
 30
0.0
 10
37.87424651469691
 20
476.3434419089684
 30
0.0
 10
38.80777675609639
 20
476.5004132194089
 30
0.0
 10
39.74025144692176
 20
476.6207319478734
 30
0.0
 10
40.67464479767754
 20
476.705502756902
 30
0.0
 10
41.45937001296794
 20
476.7487771472793
 30
0.0
 10
42.07955669207484
 20
476.7670028752914
 30
0.0
 10
42.38592216742377
 20
476.7685537779766
 30
0.0
 10
42.53802981509438
 20
476.7693237869308
 30
0.0
  0
SPLINE
  5
91
330
5E
100
AcDbEntity
  8
64455038_214335_
  6
Continuous
 62
     7
100
AcDbSpline
210
0.0
220
0.0
230
1.0
 70
     8
 71
     3
 72
    23
 73
    19
 74
     0
 42
0.0000000007281819
 43
0.0000000001
 40
0.0
 40
0.0
 40
0.0
 40
0.0
 40
0.0155014151191531
 40
0.0312322415848348
 40
0.0636914625442467
 40
0.0976190593928717
 40
0.13395108846931
 40
0.1741086566987336
 40
0.2187300699185272
 40
0.3226220962226535
 40
0.4488038946455287
 40
0.5213654022252568
 40
0.6008486251110008
 40
0.6877915455309526
 40
0.7827587562320328
 40
0.8865701461889439
 40
0.9417545146819348
 40
1.0
 40
1.0
 40
1.0
 40
1.0
 10
42.53802981509438
 20
476.7693237869308
 30
0.0
 10
42.68989524282554
 20
476.7685702968831
 30
0.0
 10
42.99587361259537
 20
476.7670521656019
 30
0.0
 10
43.61570529907078
 20
476.7488507675175
 30
0.0
 10
44.40057285247481
 20
476.7055633708912
 30
0.0
 10
45.33540924387729
 20
476.6207615924314
 30
0.0
 10
46.26826763631756
 20
476.500426693484
 30
0.0
 10
47.20180711268574
 20
476.3434381898726
 30
0.0
 10
48.50044854537704
 20
476.0670527090581
 30
0.0
 10
50.03774342082536
 20
475.6098293057688
 30
0.0
 10
51.26540283064532
 20
475.059292152089
 30
0.0
 10
52.13586943223748
 20
474.5291662526819
 30
0.0
 10
52.7391286697837
 20
474.0586679444033
 30
0.0
 10
53.25189441624051
 20
473.5266424068581
 30
0.0
 10
53.66900838690489
 20
472.9256590480485
 30
0.0
 10
53.91674505170699
 20
472.37177710084
 30
0.0
 10
54.05809929692106
 20
471.8855237468989
 30
0.0
 10
54.10472520267562
 20
471.6266882204132
 30
0.0
 10
54.12866868113436
 20
471.4937706559592
 30
0.0
  0
SPLINE
  5
92
330
5E
100
AcDbEntity
  8
64455038_214335_
  6
Continuous
 62
     7
100
AcDbSpline
210
0.0
220
0.0
230
1.0
 70
     8
 71
     3
 72
    12
 73
     8
 74
     0
 42
0.0000000012549591
 43
0.0000000001
 40
0.0
 40
0.0
 40
0.0
 40
0.0
 40
0.2499999999999998
 40
0.2499999999999998
 40
0.4999999999999998
 40
0.4999999999999998
 40
1.0
 40
1.0
 40
1.0
 40
1.0
 10
54.17716878952436
 20
471.0246390723945
 30
0.0
 10
54.98267241067906
 20
471.1668195011456
 30
0.0
 10
55.74633170995503
 20
471.3392602250049
 30
0.0
 10
57.17402842315166
 20
471.746545343606
 30
0.0
 10
57.8379852352867
 20
471.9813935570206
 30
0.0
 10
59.65026929856545
 20
472.782685819186
 30
0.0
 10
60.62068863329979
 20
473.4456334358466
 30
0.0
 10
61.25308649473436
 20
474.2482827478576
 30
0.0
  0
ARC
  5
93
330
5E
100
AcDbEntity
  8
64455038_214335_
  6
Continuous
 62
     7
100
AcDbCircle
 10
25.3082615927
 20
475.4006794939
 30
0.0
 40
1.892376606489493
100
AcDbArc
 50
178.1986562706
 51
182.1920943452
  0
SPLINE
  5
94
330
5E
100
AcDbEntity
  8
64455038_214335_
  6
Continuous
 62
     7
100
AcDbSpline
210
0.0
220
0.0
230
1.0
 70
     8
 71
     3
 72
    18
 73
    14
 74
     0
 42
0.0000000012601531
 43
0.0000000001
 40
0.0
 40
0.0
 40
0.0
 40
0.0
 40
0.1170283922426849
 40
0.2553262046877482
 40
0.3936240171328114
 40
0.5319218295778746
 40
0.6010707358003492
 40
0.6702196420229379
 40
0.7393685482454123
 40
0.808517454468001
 40
0.8776663606904755
 40
0.9468152669130644
 40
1.0
 40
1.0
 40
1.0
 40
1.0
 10
30.89889137528436
 20
471.0246433712914
 30
0.0
 10
30.52180629679073
 20
471.0911899839786
 30
0.0
 10
29.7192033018098
 20
471.2508912269757
 30
0.0
 10
28.55473876838296
 20
471.5464429724341
 30
0.0
 10
27.41954824277581
 20
471.9153178969219
 30
0.0
 10
26.55860464965121
 20
472.2713955017279
 30
0.0
 10
25.92612644130586
 20
472.586004582823
 30
0.0
 10
25.48137764389937
 20
472.8369908124018
 30
0.0
 10
25.06779593293977
 20
473.1031760349626
 30
0.0
 10
24.68692499386137
 20
473.3847275581624
 30
0.0
 10
24.34028655840795
 20
473.6818095133731
 30
0.0
 10
24.05344556649303
 20
473.9705337781267
 30
0.0
 10
23.88984540529751
 20
474.163295751623
 30
0.0
 10
23.82262155990435
 20
474.2487291457479
 30
0.0
  0
SPLINE
  5
95
330
5E
100
AcDbEntity
  8
64455038_214335_
  6
Continuous
 62
     7
100
AcDbSpline
210
0.0
220
0.0
230
1.0
 70
     8
 71
     3
 72
    15
 73
    11
 74
     0
 42
0.0000000022578193
 43
0.0000000001
 40
0.0266361970459426
 40
0.0266361970459426
 40
0.0266361970459426
 40
0.0266361970459426
 40
0.125000068696857
 40
0.250000057590095
 40
0.375000046483333
 40
0.500000035376571
 40
0.6250000242698089
 40
0.7500000131630469
 40
0.8750000020562849
 40
1.0
 40
1.0
 40
1.0
 40
1.0
 10
33.32338623526754
 20
467.9976527276394
 30
0.0
 10
33.32115890110241
 20
468.1404673689056
 30
0.0
 10
33.31414183290852
 20
468.4646481452727
 30
0.0
 10
33.25148279254353
 20
468.9695527017906
 30
0.0
 10
33.06064679259742
 20
469.4834198832569
 30
0.0
 10
32.77443440031498
 20
469.9495731483536
 30
0.0
 10
32.42143031866068
 20
470.3704298706336
 30
0.0
 10
31.98433632766639
 20
470.7161483171726
 30
0.0
 10
31.45628246941058
 20
470.9215992714034
 30
0.0
 10
31.08422652769358
 20
470.9891178053525
 30
0.0
 10
30.89889137528436
 20
471.0246433712914
 30
0.0
  0
SPLINE
  5
96
330
5E
100
AcDbEntity
  8
64455038_214335_
  6
Continuous
 62
     7
100
AcDbSpline
210
0.0
220
0.0
230
1.0
 70
     8
 71
     3
 72
    14
 73
    10
 74
     0
 42
0.0000000022545795
 43
0.0000000001
 40
0.0266230242138923
 40
0.0266230242138923
 40
0.0266230242138923
 40
0.0266230242138923
 40
0.25
 40
0.25
 40
0.5
 40
0.5
 40
0.75
 40
0.75
 40
1.0
 40
1.0
 40
1.0
 40
1.0
 10
51.75271823763841
 20
467.9977334142739
 30
0.0
 10
51.75798241984338
 20
468.3227634610449
 30
0.0
 10
51.76821433237965
 20
468.6496872072996
 30
0.0
 10
51.93123665403304
 20
469.3170710956067
 30
0.0
 10
52.09968535339795
 20
469.6463534027093
 30
0.0
 10
52.52583001571681
 20
470.237692808006
 30
0.0
 10
52.78516820902443
 20
470.5090458903982
 30
0.0
 10
53.42860013258196
 20
470.8764911496105
 30
0.0
 10
53.80649822040356
 20
470.9535917222395
 30
0.0
 10
54.17716878952436
 20
471.0246390723945
 30
0.0
  0
ARC
  5
97
330
5E
100
AcDbEntity
  8
64455038_214335_
  6
Continuous
 62
     7
100
AcDbCircle
 10
30.6414907606
 20
468.1024725489
 30
0.0
 40
2.674373521573566
100
AcDbArc
 50
356.8396681537
 51
0.0
  0
ARC
  5
98
330
5E
100
AcDbEntity
  8
64455038_214335_
  6
Continuous
 62
     7
100
AcDbCircle
 10
54.4312398799
 20
468.1053606874
 30
0.0
 40
2.671210424585839
100
AcDbArc
 50
179.3495917031
 51
182.3273448768
  0
LINE
  5
99
330
5E
100
AcDbEntity
  8
64455038_214335_
  6
Continuous
 62
     7
100
AcDbLine
 10
61.6592154479
 20
492.748843381
 30
0.0
 11
61.6406440341
 21
493.7814910162
 31
0.0
  0
LINE
  5
9A
330
5E
100
AcDbEntity
  8
64455038_214335_
  6
Continuous
 62
     7
100
AcDbLine
 10
23.4354155961
 20
493.7814910162
 30
0.0
 11
23.4168441822
 21
492.748843381
 31
0.0
  0
LINE
  5
9B
330
5E
100
AcDbEntity
  8
64455038_214335_
  6
Continuous
 62
     7
100
AcDbLine
 10
23.4193205193
 20
492.7487183031
 30
0.0
 11
23.4188124136
 21
492.6950110148
 31
0.0
  0
LINE
  5
9C
330
5E
100
AcDbEntity
  8
64455038_214335_
  6
Continuous
 62
     7
100
AcDbLine
 10
61.6576893536
 20
492.6949247089
 30
0.0
 11
61.6555274981
 21
492.74898816
 31
0.0
  0
LINE
  5
9D
330
5E
100
AcDbEntity
  8
64455038_214335_
  6
Continuous
 62
     7
100
AcDbLine
 10
61.6610362543
 20
489.9552458645
 30
0.0
 11
61.6610362543
 21
492.6967528216
 31
0.0
  0
LINE
  5
9E
330
5E
100
AcDbEntity
  8
64455038_214335_
  6
Continuous
 62
     7
100
AcDbLine
 10
61.6610362543
 20
475.5742307627
 30
0.0
 11
61.6610362543
 21
489.7089822184
 31
0.0
  0
ARC
  5
9F
330
5E
100
AcDbEntity
  8
64455038_214335_
  6
Continuous
 62
     7
100
AcDbCircle
 10
40.3360667813
 20
462.1611361445
 30
0.0
 40
36.92273038220107
100
AcDbArc
 50
86.5810195507
 51
114.4140147484
  0
ARC
  5
A0
330
5E
100
AcDbEntity
  8
64455038_214335_
  6
Continuous
 62
     7
100
AcDbCircle
 10
44.7095789916
 20
461.9969979598
 30
0.0
 40
37.08478436124961
100
AcDbArc
 50
65.6480143784
 51
93.3569513226
  0
SPLINE
  5
A1
330
5E
100
AcDbEntity
  8
64455038_214335_
  6
Continuous
 62
     7
100
AcDbSpline
210
0.0
220
0.0
230
1.0
 70
     8
 71
     3
 72
    16
 73
    12
 74
     0
 42
0.0000000047240281
 43
0.0000000001
 40
0.0
 40
0.0
 40
0.0
 40
0.0
 40
0.0711504919730821
 40
0.2062500197082983
 40
0.3412187757516074
 40
0.4752496142777961
 40
0.6071629471731735
 40
0.7356783440458451
 40
0.8601005423464645
 40
0.9808582431628092
 40
1.0
 40
1.0
 40
1.0
 40
1.0
 10
24.57232085352931
 20
495.4618436984665
 30
0.0
 10
24.51646204526352
 20
495.4232204732853
 30
0.0
 10
24.37955129758044
 20
495.3279536205358
 30
0.0
 10
24.16647903474209
 20
495.1487782889888
 30
0.0
 10
23.95101948499537
 20
494.9372228808487
 30
0.0
 10
23.77037769243789
 20
494.7176712635487
 30
0.0
 10
23.62751757640125
 20
494.4939396720454
 30
0.0
 10
23.52287045964179
 20
494.2662831367708
 30
0.0
 10
23.45856784314732
 20
494.0405492012426
 30
0.0
 10
23.43575918020659
 20
493.8708257881002
 30
0.0
 10
23.43613515710389
 20
493.7884680768976
 30
0.0
 10
23.4362284252127
 20
493.7753330652745
 30
0.0
  0
SPLINE
  5
A2
330
5E
100
AcDbEntity
  8
64455038_214335_
  6
Continuous
 62
     7
100
AcDbSpline
210
0.0
220
0.0
230
1.0
 70
     8
 71
     3
 72
    16
 73
    12
 74
     0
 42
0.0000000049340066
 43
0.0000000001
 40
0.0
 40
0.0
 40
0.0
 40
0.0
 40
0.082136253237398
 40
0.2046093182624394
 40
0.3282952973151708
 40
0.4549055971147044
 40
0.5853782944086319
 40
0.7196743441154696
 40
0.856926789749318
 40
0.9959371912510087
 40
1.0
 40
1.0
 40
1.0
 40
1.0
 10
61.63669617987695
 20
493.7833700491742
 30
0.0
 10
61.63589495381072
 20
493.8377846300366
 30
0.0
 10
61.63332390126902
 20
493.952473448664
 30
0.0
 10
61.58952833866572
 20
494.1522939889913
 30
0.0
 10
61.51114141210082
 20
494.3669684053225
 30
0.0
 10
61.39719773407845
 20
494.5807772911766
 30
0.0
 10
61.24843585962876
 20
494.7919649849583
 30
0.0
 10
61.06351980713769
 20
495.0021442101843
 30
0.0
 10
60.84194263570643
 20
495.2066814462467
 30
0.0
 10
60.66937962580138
 20
495.3497505352706
 30
0.0
 10
60.57475758193081
 20
495.4142086406982
 30
0.0
 10
60.57164163095882
 20
495.4163306083431
 30
0.0
  0
LINE
  5
A3
330
5E
100
AcDbEntity
  8
64455038_214335_
  6
Continuous
 62
     7
100
AcDbLine
 10
23.4150132487
 20
475.5766658129
 30
0.0
 11
23.415011071
 21
475.4690970128
 31
0.0
  0
LINE
  5
A4
330
5E
100
AcDbEntity
  8
64455038_214335_
  6
Continuous
 62
     7
100
AcDbLine
 10
23.4150526498
 20
492.6966449559
 30
0.0
 11
23.4150167832
 21
475.5742269425
 31
0.0
  0
LINE
  5
A5
330
5E
100
AcDbEntity
  8
64455038_214335_
  6
Continuous
 62
     7
100
AcDbLine
 10
61.6611252582
 20
475.4710073355
 30
0.0
 11
61.6610526671
 21
475.5782277923
 31
0.0
  0
LINE
  5
A6
330
5E
100
AcDbEntity
  8
64455038_214335_
  6
Continuous
 62
     7
100
AcDbLine
 10
61.6578359337
 20
475.3311247739
 30
0.0
 11
61.6610414406
 21
475.4715520931
 31
0.0
  0
LINE
  5
A7
330
5E
100
AcDbEntity
  8
64455038_214335_
  6
Continuous
 62
     7
100
AcDbLine
 10
23.415014057
 20
475.4714116168
 30
0.0
 11
23.4181670927
 21
475.3319391746
 31
0.0
  0
ARC
  5
A8
330
5E
100
AcDbEntity
  8
64455038_214335_
  6
Continuous
 62
     7
100
AcDbCircle
 10
47.763157574
 20
488.8840681668
 30
0.0
 40
20.3471914532688
100
AcDbArc
 50
282.2512436961
 51
309.7839328935
  0
ARC
  5
A9
330
5E
100
AcDbEntity
  8
64455038_214335_
  6
Continuous
 62
     7
100
AcDbCircle
 10
37.4074719484
 20
489.135736191
 30
0.0
 40
20.59920450231703
100
AcDbArc
 50
230.4469245286
 51
257.6347021463
  0
ARC
  5
AA
330
5E
100
AcDbEntity
  8
64455038_214335_
  6
Continuous
 62
     7
100
AcDbCircle
 10
26.7696966144
 20
475.5051429403
 30
0.0
 40
3.350968451708445
100
AcDbArc
 50
183.0241165254
 51
222.4639099851
  0
ARC
  5
AB
330
5E
100
AcDbEntity
  8
64455038_214335_
  6
Continuous
 62
     7
100
AcDbCircle
 10
58.2637268336
 20
475.5309623683
 30
0.0
 40
3.399969840185858
100
AcDbArc
 50
317.6170607433
 51
356.651671625
  0
SPLINE
  5
AC
330
5E
100
AcDbEntity
  8
64455038_214335_
  6
Continuous
 62
     7
100
AcDbSpline
210
0.0
220
0.0
230
1.0
 70
     8
 71
     3
 72
     8
 73
     4
 74
     0
 42
0.0000000637715707
 43
0.0000000001
 40
0.3023874679151338
 40
0.3023874679151338
 40
0.3023874679151338
 40
0.3023874679151338
 40
0.3087646249891809
 40
0.3087646249891809
 40
0.3087646249891809
 40
0.3087646249891809
 10
52.34646977312703
 20
469.5008226714294
 30
0.0
 10
52.3468610549121
 20
469.5011966897785
 30
0.0
 10
52.34704656544317
 20
469.5014109110015
 30
0.0
 10
52.34703533130437
 20
469.5014775808053
 30
0.0
  0
SPLINE
  5
AD
330
5E
100
AcDbEntity
  8
64455038_214335_
  6
Continuous
 62
     7
100
AcDbSpline
210
0.0
220
0.0
230
1.0
 70
     8
 71
     3
 72
     8
 73
     4
 74
     0
 42
0.0000000485086709
 43
0.0000000001
 40
0.6928429209216289
 40
0.6928429209216289
 40
0.6928429209216289
 40
0.6928429209216289
 40
0.6976937880094191
 40
0.6976937880094191
 40
0.6976937880094191
 40
0.6976937880094191
 10
32.73158389711097
 20
469.4996148376511
 30
0.0
 10
32.73153286574397
 20
469.4995837128351
 30
0.0
 10
32.7315699853167
 20
469.4994852735309
 30
0.0
 10
32.7316973351922
 20
469.49931574705
 30
0.0
  0
SPLINE
  5
AE
330
5E
100
AcDbEntity
  8
64455038_214335_
  6
Continuous
 62
     7
100
AcDbSpline
210
0.0
220
0.0
230
1.0
 70
     8
 71
     3
 72
     8
 73
     4
 74
     0
 42
0.0000000009925144
 43
0.0000000001
 40
0.9732473636524235
 40
0.9732473636524235
 40
0.9732473636524235
 40
0.9732473636524235
 40
0.9836048449584083
 40
0.9836048449584083
 40
0.9836048449584083
 40
0.9836048449584083
 10
33.32020499354267
 20
468.1032874361873
 30
0.0
 10
33.3210121145128
 20
468.0690301049109
 30
0.0
 10
33.32138241224104
 20
468.0344396841114
 30
0.0
 10
33.32143241696809
 20
467.9989429756901
 30
0.0
  0
LINE
  5
B0
330
5E
100
AcDbEntity
  8
DV1_Standard
  6
Continuous
 62
     7
100
AcDbLine
 10
19.5382880424
 20
364.944379245
 30
0.0
 11
65.5380608246
 21
364.9443792284
 31
0.0
  0
LINE
  5
B2
330
5E
100
AcDbEntity
  8
DV1_Standard
  6
CENTER2
 62
     7
100
AcDbLine
 10
62.5381739865
 20
364.9443792367
 30
0.0
 11
22.5381748805
 21
364.9443792367
 31
0.0
  0
LINE
  5
B3
330
5E
100
AcDbEntity
  8
DV1_Standard
  6
CENTER2
 62
     7
100
AcDbLine
 10
42.5381744335
 20
384.9443787896
 30
0.0
 11
42.5381744335
 21
344.9443796837
 31
0.0
  0
LINE
  5
B4
330
5E
100
AcDbEntity
  8
DV1_Standard
  6
Continuous
 62
     7
100
AcDbLine
 10
25.0748989805
 20
495.7823314866
 30
0.0
 11
24.3896597563
 21
495.3271780957
 31
0.0
  0
LINE
  5
B5
330
5E
100
AcDbEntity
  8
DV1_Standard
  6
Continuous
 62
     7
100
AcDbLine
 10
60.0011606497
 20
495.7823314866
 30
0.0
 11
60.8929655368
 21
495.1516998305
 31
0.0
  0
ENDBLK
  5
B7
330
5E
100
AcDbEntity
  8
0
100
AcDbBlockEnd
  0
BLOCK
  5
10F
330
B8
100
AcDbEntity
  8
0
100
AcDbBlockBegin
  2
SE1
 70
     0
 10
0.0
 20
0.0
 30
0.0
  3
SE1
  1

  0
LINE
  5
BA
330
B8
100
AcDbEntity
  8
02636038_GEHÄUSE
  6
Continuous
 62
     7
100
AcDbLine
 10
318.6202834965
 20
439.9832548483
 30
0.0
 11
339.0679985969
 21
446.6271202274
 31
0.0
  0
SPLINE
  5
BB
330
B8
100
AcDbEntity
  8
02636038_GEHÄUSE
  6
Continuous
 62
     7
100
AcDbSpline
210
0.0
220
0.0
230
1.0
 70
     8
 71
     3
 72
    10
 73
     6
 74
     0
 42
0.0000000019260148
 43
0.0000000001
 40
0.0
 40
0.0
 40
0.0
 40
0.0
 40
0.5
 40
0.5
 40
1.0
 40
1.0
 40
1.0
 40
1.0
 10
331.2059259147273
 20
444.4064620587545
 30
0.0
 10
330.4212979436635
 20
444.0317406706136
 30
0.0
 10
329.6197180105991
 20
443.7089639040052
 30
0.0
 10
327.9797836572661
 20
443.1760956646662
 30
0.0
 10
327.1414287416299
 20
442.9660057098534
 30
0.0
 10
326.2861040292585
 20
442.807915026208
 30
0.0
  0
LINE
  5
BC
330
B8
100
AcDbEntity
  8
02636038_GEHÄUSE
  6
Continuous
 62
     7
100
AcDbLine
 10
331.9788920022
 20
447.4781165388
 30
0.0
 11
323.8552881249
 21
444.8385976347
 31
0.0
  0
LINE
  5
BD
330
B8
100
AcDbEntity
  8
02636038_GEHÄUSE
  6
Continuous
 62
     7
100
AcDbLine
 10
331.9788920022
 20
447.4781165388
 30
0.0
 11
332.5402003433
 21
445.7505870981
 31
0.0
  0
SPLINE
  5
BE
330
B8
100
AcDbEntity
  8
02636038_GEHÄUSE
  6
Continuous
 62
     7
100
AcDbSpline
210
0.0
220
0.0
230
1.0
 70
     8
 71
     3
 72
    14
 73
    10
 74
     0
 42
0.0000000049321089
 43
0.0000000001
 40
0.0
 40
0.0
 40
0.0
 40
0.0
 40
0.1250000000000004
 40
0.1250000000000004
 40
0.2500000000000009
 40
0.2500000000000009
 40
0.5000000000000008
 40
0.5000000000000008
 40
1.0
 40
1.0
 40
1.0
 40
1.0
 10
332.5402003432981
 20
445.7505870980871
 30
0.0
 10
332.5662323362943
 20
445.6704688618028
 30
0.0
 10
332.5616733135728
 20
445.5805204009782
 30
0.0
 10
332.513578899647
 20
445.4185322437552
 30
0.0
 10
332.4717784464471
 20
445.3428979863565
 30
0.0
 10
332.3260691784561
 20
445.1366562484151
 30
0.0
 10
332.1997795153958
 20
445.0205428827724
 30
0.0
 10
331.8050112592408
 20
444.712083595009
 30
0.0
 10
331.5079302920293
 20
444.5506928326508
 30
0.0
 10
331.2059259147273
 20
444.4064620587545
 30
0.0
  0
SPLINE
  5
BF
330
B8
100
AcDbEntity
  8
02636038_GEHÄUSE
  6
Continuous
 62
     7
100
AcDbSpline
210
0.0
220
0.0
230
1.0
 70
     8
 71
     3
 72
    18
 73
    14
 74
     0
 42
0.0000000049401632
 43
0.0000000001
 40
0.0
 40
0.0
 40
0.0
 40
0.0
 40
0.2499999999999998
 40
0.2499999999999998
 40
0.4999999999999997
 40
0.4999999999999997
 40
0.6249999999999992
 40
0.6249999999999992
 40
0.7499999999999989
 40
0.7499999999999989
 40
0.8749999999999994
 40
0.8749999999999994
 40
1.0
 40
1.0
 40
1.0
 40
1.0
 10
326.2861040292585
 20
442.807915026208
 30
0.0
 10
326.1210600699962
 20
442.7774097549652
 30
0.0
 10
325.9552438269076
 20
442.7520003507485
 30
0.0
 10
325.6210953169839
 20
442.7177833692761
 30
0.0
 10
325.4528641884779
 20
442.7088107667996
 30
0.0
 10
325.2023633252009
 20
442.7177698876196
 30
0.0
 10
325.1190306421209
 20
442.7245175725545
 30
0.0
 10
324.9528740325852
 20
442.7494302373668
 30
0.0
 10
324.8695744904151
 20
442.7677204270309
 30
0.0
 10
324.7111215752998
 20
442.82169640553
 30
0.0
 10
324.6338394868679
 20
442.8576855262698
 30
0.0
 10
324.498766687305
 20
442.9611691333305
 30
0.0
 10
324.4430949771289
 20
443.0295141625932
 30
0.0
 10
324.416596466028
 20
443.111068193968
 30
0.0
  0
LINE
  5
C0
330
B8
100
AcDbEntity
  8
02636038_GEHÄUSE
  6
Continuous
 62
     7
100
AcDbLine
 10
324.416596466
 20
443.111068194
 30
0.0
 11
323.8552881249
 21
444.8385976347
 31
0.0
  0
LINE
  5
C1
330
B8
100
AcDbEntity
  8
02636038_GEHÄUSE
  6
Continuous
 62
     7
100
AcDbLine
 10
317.9990763379
 20
440.115296506
 30
0.0
 11
318.6202834965
 21
439.9832548483
 31
0.0
  0
LINE
  5
C2
330
B8
100
AcDbEntity
  8
02636038_GEHÄUSE
  6
Continuous
 62
     7
100
AcDbLine
 10
339.0679985969
 20
446.6271202274
 30
0.0
 11
339.4929536061
 21
447.0990805789
 31
0.0
  0
ARC
  5
C3
330
B8
100
AcDbEntity
  8
02636038_GEHÄUSE
  6
Continuous
 62
     7
100
AcDbCircle
 10
318.2069880287
 20
441.0934441068
 30
0.0
 40
0.999999999999995
100
AcDbArc
 50
198.0
 51
258.0
  0
ARC
  5
C4
330
B8
100
AcDbEntity
  8
02636038_GEHÄUSE
  6
Continuous
 62
     7
100
AcDbCircle
 10
338.7498087807
 20
447.7682111853
 30
0.0
 40
1.000000000000009
100
AcDbArc
 50
318.0
 51
18.0
  0
LINE
  5
C5
330
B8
100
AcDbEntity
  8
02636038_GEHÄUSE
  6
Continuous
 62
     7
100
AcDbLine
 10
315.4120527036
 20
446.4593025667
 30
0.0
 11
317.2559315124
 21
440.7844271124
 31
0.0
  0
LINE
  5
C6
330
B8
100
AcDbEntity
  8
02636038_GEHÄUSE
  6
Continuous
 62
     7
100
AcDbLine
 10
339.7008652969
 20
448.0772281797
 30
0.0
 11
339.0294311777
 21
450.1436899149
 31
0.0
  0
SPLINE
  5
C8
330
B8
100
AcDbEntity
  8
64487038_215540_
  6
Continuous
 62
     7
100
AcDbSpline
210
0.0
220
0.0
230
1.0
 70
     8
 71
     3
 72
     8
 73
     4
 74
     0
 42
0.0000000032163859
 43
0.0000000001
 40
0.5315328499652449
 40
0.5315328499652449
 40
0.5315328499652449
 40
0.5315328499652449
 40
0.5322419504117527
 40
0.5322419504117527
 40
0.5322419504117527
 40
0.5322419504117527
 10
246.1878585372694
 20
456.2485445101789
 30
0.0
 10
246.1871236664086
 20
456.2485411507524
 30
0.0
 10
246.1863887909609
 20
456.2485377514178
 30
0.0
 10
246.1856539110772
 20
456.2485343121249
 30
0.0
  0
ARC
  5
CA
330
B8
100
AcDbEntity
  8
64500038_214400_
  6
Continuous
 62
     7
100
AcDbCircle
 10
230.1493935329
 20
438.0029817168
 30
0.0
 40
18.99999999995406
100
AcDbArc
 50
107.7599469371
 51
128.1902419414
  0
SPLINE
  5
CB
330
B8
100
AcDbEntity
  8
400019038_214400
  6
Continuous
 62
     7
100
AcDbSpline
210
0.0
220
0.0
230
1.0
 70
     8
 71
     3
 72
    25
 73
    21
 74
     0
 42
0.0000000004231362
 43
0.0000000001
 40
0.0278725610757748
 40
0.0278725610757748
 40
0.0278725610757748
 40
0.0278725610757748
 40
0.0420655794558337
 40
0.0856264160488378
 40
0.1308850115853877
 40
0.1777948649629102
 40
0.2259526916541033
 40
0.2755864947351331
 40
0.3270049685362535
 40
0.3804242911119573
 40
0.435092804661703
 40
0.4911589858004133
 40
0.5490638680288242
 40
0.6089530785755264
 40
0.6699676300486593
 40
0.7325178187979725
 40
0.7972006904772865
 40
0.8632524651355002
 40
0.930598704290962
 40
1.0
 40
1.0
 40
1.0
 40
1.0
 10
347.3342163039383
 20
466.8181937181878
 30
0.0
 10
347.3278153330694
 20
466.8174073403021
 30
0.0
 10
347.2953104379059
 20
466.8134140755159
 30
0.0
 10
347.1665895074474
 20
466.797601049947
 30
0.0
 10
346.8933098386248
 20
466.7640328719414
 30
0.0
 10
346.4905688529663
 20
466.7145669050219
 30
0.0
 10
345.9521292878912
 20
466.6484377230855
 30
0.0
 10
345.2672066999689
 20
466.5643235409959
 30
0.0
 10
344.4240368572087
 20
466.4607818245827
 30
0.0
 10
343.4172734419428
 20
466.3371595339661
 30
0.0
 10
342.2444379875962
 20
466.193148456722
 30
0.0
 10
340.9037315396525
 20
466.0285295921977
 30
0.0
 10
339.3865674268889
 20
465.8422508690113
 30
0.0
 10
337.6973058323449
 20
465.634849863701
 30
0.0
 10
335.84506830375
 20
465.4074378959181
 30
0.0
 10
333.8364621757981
 20
465.1608282076111
 30
0.0
 10
331.6787296446475
 20
464.8959142233207
 30
0.0
 10
329.3912245637384
 20
464.6150616498589
 30
0.0
 10
326.9955133040401
 20
464.3209151966396
 30
0.0
 10
325.3607773278823
 20
464.1201959529807
 30
0.0
 10
324.531125857803
 20
464.0183274497087
 30
0.0
  0
LINE
  5
CC
330
B8
100
AcDbEntity
  8
400019038_214400
  6
Continuous
 62
     7
100
AcDbLine
 10
348.4124816193
 20
458.234897136
 30
0.0
 11
347.3596860809
 21
466.8213228606
 31
0.0
  0
LINE
  5
CD
330
B8
100
AcDbEntity
  8
400019038_214400
  6
Continuous
 62
     7
100
AcDbLine
 10
228.2543581847
 20
452.1970229873
 30
0.0
 11
324.5311259244
 21
464.0183269073
 31
0.0
  0
LINE
  5
CE
330
B8
100
AcDbEntity
  8
400019038_214400
  6
Continuous
 62
     7
100
AcDbLine
 10
205.4257971001
 20
449.3940293391
 30
0.0
 11
205.4257390622
 21
401.2718702515
 31
0.0
  0
LINE
  5
CF
330
B8
100
AcDbEntity
  8
400019038_214400
  6
Continuous
 62
     7
100
AcDbLine
 10
228.2543580896
 20
452.1970237618
 30
0.0
 11
205.4257971001
 21
449.3940293391
 31
0.0
  0
LINE
  5
D0
330
B8
100
AcDbEntity
  8
400019038_214400
  6
Continuous
 62
     7
100
AcDbLine
 10
324.3056682777
 20
465.8545331356
 30
0.0
 11
248.6736360006
 21
456.5680846811
 31
0.0
  0
LINE
  5
D1
330
B8
100
AcDbEntity
  8
400019038_214400
  6
Continuous
 62
     7
100
AcDbLine
 10
248.6736360006
 20
456.5680846811
 30
0.0
 11
248.6160259287
 21
456.5610110518
 31
0.0
  0
SPLINE
  5
D2
330
B8
100
AcDbEntity
  8
400019038_214400
  6
Continuous
 62
     7
100
AcDbSpline
210
0.0
220
0.0
230
1.0
 70
     8
 71
     3
 72
    11
 73
     7
 74
     0
 42
0.0000000026437603
 43
0.0000000001
 40
0.0
 40
0.0
 40
0.0
 40
0.0
 40
0.2376983376574374
 40
0.2376983376574374
 40
0.2376983376574374
 40
1.0
 40
1.0
 40
1.0
 40
1.0
 10
251.4142911029572
 20
364.9443792296154
 30
0.0
 10
251.4150284377665
 20
365.2440755162647
 30
0.0
 10
251.4158456562045
 20
365.5437716028254
 30
0.0
 10
251.4166628275121
 20
365.8434676824211
 30
0.0
 10
251.4192835054773
 20
366.8045965237056
 30
0.0
 10
251.4219037064083
 20
367.7657277782739
 30
0.0
 10
251.421995584328
 20
368.7268601100527
 30
0.0
  0
SPLINE
  5
D3
330
B8
100
AcDbEntity
  8
400019038_214400
  6
Continuous
 62
     7
100
AcDbSpline
210
0.0
220
0.0
230
1.0
 70
     8
 71
     3
 72
     8
 73
     4
 74
     0
 42
0.0000000023700152
 43
0.0000000001
 40
0.7819766190667136
 40
0.7819766190667136
 40
0.7819766190667136
 40
0.7819766190667136
 40
0.9999266046725901
 40
0.9999266046725901
 40
0.9999266046725901
 40
0.9999266046725901
 10
344.5844417215911
 20
468.2507563933617
 30
0.0
 10
344.2789962277372
 20
468.2341282566661
 30
0.0
 10
343.9742837217823
 20
468.1989368708119
 30
0.0
 10
343.669339997117
 20
468.1636496527639
 30
0.0
  0
SPLINE
  5
D4
330
B8
100
AcDbEntity
  8
400019038_214400
  6
Continuous
 62
     7
100
AcDbSpline
210
0.0
220
0.0
230
1.0
 70
     8
 71
     5
 72
    16
 73
    10
 74
     0
 42
0.0000000000800503
 43
0.0000000001
 40
0.0
 40
0.0
 40
0.0
 40
0.0
 40
0.0
 40
0.0
 40
0.1678640341523613
 40
0.375898025614271
 40
0.5839320170761807
 40
0.7919660085380904
 40
1.0
 40
1.0
 40
1.0
 40
1.0
 40
1.0
 40
1.0
 10
314.9692255944715
 20
446.3659536804373
 30
0.0
 10
305.6774327492948
 20
445.2117161351044
 30
0.0
 10
286.5927334202187
 20
442.7642738713832
 30
0.0
 10
263.4968113310491
 20
438.9907039516377
 30
0.0
 10
258.3055311088754
 20
430.416982574926
 30
0.0
 10
253.0534933860517
 20
418.9248670159496
 30
0.0
 10
251.7813327762391
 20
404.4364034514185
 30
0.0
 10
251.4713116405525
 20
388.1194726250404
 30
0.0
 10
251.4221041613909
 20
379.6481594523178
 30
0.0
 10
251.421995584328
 20
368.7268601100527
 30
0.0
  0
ARC
  5
D5
330
B8
100
AcDbEntity
  8
400019038_214400
  6
Continuous
 62
     7
100
AcDbCircle
 10
346.3337528586
 20
307.3739242381
 30
0.0
 40
142.4869040262933
100
AcDbArc
 50
98.0260200363
 51
102.7162090355
  0
SPLINE
  5
D6
330
B8
100
AcDbEntity
  8
400019038_214400
  6
Continuous
 62
     7
100
AcDbSpline
210
0.0
220
0.0
230
1.0
 70
     8
 71
     3
 72
    16
 73
    12
 74
     0
 42
0.0000000003798663
 43
0.0000000001
 40
0.0
 40
0.0
 40
0.0
 40
0.0
 40
0.1250000000000002
 40
0.1250000000000002
 40
0.2500000000000004
 40
0.2500000000000004
 40
0.3125000000000006
 40
0.3125000000000006
 40
0.3750000000000007
 40
0.3750000000000007
 40
0.4998603933637597
 40
0.4998603933637597
 40
0.4998603933637597
 40
0.4998603933637597
 10
326.4393320295424
 20
448.4651352998733
 30
0.0
 10
328.1129425742183
 20
448.6836906837939
 30
0.0
 10
329.7874052590907
 20
448.904164337701
 30
0.0
 10
332.9129501427585
 20
449.3189578497114
 30
0.0
 10
334.3690699299232
 20
449.5137442484195
 30
0.0
 10
336.192075515558
 20
449.7591142022574
 30
0.0
 10
336.7515382321667
 20
449.8347605028919
 30
0.0
 10
337.7157811993299
 20
449.9652070694349
 30
0.0
 10
338.1254911374294
 20
450.0206707433935
 30
0.0
 10
339.1321960233614
 20
450.1575026620448
 30
0.0
 10
339.4825776693638
 20
450.2053179403048
 30
0.0
 10
339.4825650526784
 20
450.2053178208049
 30
0.0
  0
ARC
  5
D7
330
B8
100
AcDbEntity
  8
400019038_214400
  6
Continuous
 62
     7
100
AcDbCircle
 10
215.5090293039
 20
577.4605680916
 30
0.0
 40
124.1536484633589
100
AcDbArc
 50
275.7929127699
 51
278.6679013865
  0
SPLINE
  5
D8
330
B8
100
AcDbEntity
  8
400019038_214400
  6
Continuous
 62
     7
100
AcDbSpline
210
0.0
220
0.0
230
1.0
 70
     8
 71
     3
 72
    16
 73
    12
 74
     0
 42
0.0000000028075128
 43
0.0000000001
 40
0.0
 40
0.0
 40
0.0
 40
0.0
 40
0.2499999999999971
 40
0.2499999999999971
 40
0.4999999999999942
 40
0.4999999999999942
 40
0.6249999999999928
 40
0.6249999999999928
 40
0.7499999999999913
 40
0.7499999999999913
 40
1.0
 40
1.0
 40
1.0
 40
1.0
 10
208.0072826056386
 20
451.493893290832
 30
0.0
 10
207.7150832578463
 20
451.4460059792086
 30
0.0
 10
207.4254039736099
 20
451.3871064695682
 30
0.0
 10
206.8616226000399
 20
451.2012380738543
 30
0.0
 10
206.5917388335986
 20
451.0729800406611
 30
0.0
 10
206.2450508390758
 20
450.7895388431181
 30
0.0
 10
206.1429840324029
 20
450.6832993095685
 30
0.0
 10
205.9605856104295
 20
450.4518820591622
 30
0.0
 10
205.8797161519355
 20
450.3261847911485
 30
0.0
 10
205.6597897815611
 20
449.9391858127232
 30
0.0
 10
205.537972824626
 20
449.6689801764069
 30
0.0
 10
205.4257971000614
 20
449.3940293390895
 30
0.0
  0
SPLINE
  5
D9
330
B8
100
AcDbEntity
  8
400019038_214400
  6
Continuous
 62
     7
100
AcDbSpline
210
0.0
220
0.0
230
1.0
 70
     8
 71
     3
 72
    20
 73
    16
 74
     0
 42
0.0000000004682971
 43
0.0000000001
 40
0.0
 40
0.0
 40
0.0
 40
0.0
 40
0.2499999999999997
 40
0.2499999999999997
 40
0.3749999999999997
 40
0.3749999999999997
 40
0.4999999999999998
 40
0.4999999999999998
 40
0.6249999999999998
 40
0.6249999999999998
 40
0.7499999999999999
 40
0.7499999999999999
 40
0.8749999999999999
 40
0.8749999999999999
 40
0.9410719447387542
 40
0.9410719447387542
 40
0.9410719447387542
 40
0.9410719447387542
 10
228.040258574059
 20
453.9409473030689
 30
0.0
 10
225.3958895514466
 20
453.6183850683916
 30
0.0
 10
222.7511267546773
 20
453.2955646868606
 30
0.0
 10
219.134406513386
 20
452.8539024473604
 30
0.0
 10
217.9634915184686
 20
452.7108033252473
 30
0.0
 10
215.783251846722
 20
452.4444375080582
 30
0.0
 10
214.7771259594849
 20
452.3215538585648
 30
0.0
 10
212.930943493374
 20
452.0959157089814
 30
0.0
 10
212.0874708058366
 20
451.9927442582757
 30
0.0
 10
210.6407332302891
 20
451.8158717164778
 30
0.0
 10
210.027187630499
 20
451.7409086209959
 30
0.0
 10
209.0239533535579
 20
451.618231892835
 30
0.0
 10
208.6424262279222
 20
451.5715163396466
 30
0.0
 10
208.2558379706748
 20
451.5242374110463
 30
0.0
 10
208.1566842196186
 20
451.512126113483
 30
0.0
 10
208.0929065567525
 20
451.5043403796824
 30
0.0
  0
SPLINE
  5
DA
330
B8
100
AcDbEntity
  8
400019038_214400
  6
Continuous
 62
     7
100
AcDbSpline
210
0.0
220
0.0
230
1.0
 70
     8
 71
     3
 72
     8
 73
     4
 74
     0
 42
0.0000000070538505
 43
0.0000000001
 40
0.9429419168283707
 40
0.9429419168283707
 40
0.9429419168283707
 40
0.9429419168283707
 40
1.0
 40
1.0
 40
1.0
 40
1.0
 10
208.0875764678723
 20
451.5036897191958
 30
0.0
 10
208.0342295072047
 20
451.4971776563769
 30
0.0
 10
208.0072826059936
 20
451.4938932912434
 30
0.0
 10
208.0072826056386
 20
451.493893290832
 30
0.0
  0
SPLINE
  5
DB
330
B8
100
AcDbEntity
  8
400019038_214400
  6
Continuous
 62
     7
100
AcDbSpline
210
0.0
220
0.0
230
1.0
 70
     8
 71
     3
 72
    14
 73
    10
 74
     0
 42
0.0000000006943816
 43
0.0000000001
 40
0.0
 40
0.0
 40
0.0
 40
0.0
 40
0.25
 40
0.25
 40
0.5
 40
0.5
 40
0.75
 40
0.75
 40
1.0
 40
1.0
 40
1.0
 40
1.0
 10
248.5053561424542
 20
456.5474225068963
 30
0.0
 10
248.5053558814715
 20
456.5474244148019
 30
0.0
 10
248.1561737677588
 20
456.5019047229946
 30
0.0
 10
246.8103961305094
 20
456.3272016779491
 30
0.0
 10
245.8153044708991
 20
456.1982325905968
 30
0.0
 10
243.258637642284
 20
455.8690932554524
 30
0.0
 10
241.7202849788063
 20
455.6719355136714
 30
0.0
 10
238.2026915606043
 20
455.2249810770082
 30
0.0
 10
236.2733005062711
 20
454.981545704729
 30
0.0
 10
234.2198551990197
 20
454.7249440002775
 30
0.0
  0
LINE
  5
DC
330
B8
100
AcDbEntity
  8
400019038_214400
  6
Continuous
 62
     7
100
AcDbLine
 10
205.4257187674
 20
384.4443792296
 30
0.0
 11
205.4256952494
 21
364.9443792296
 31
0.0
  0
LINE
  5
DD
330
B8
100
AcDbEntity
  8
400019038_214400
  6
Continuous
 62
     7
100
AcDbLine
 10
205.4257390622
 20
401.2718702515
 30
0.0
 11
205.4257187674
 21
384.4443792296
 31
0.0
  0
LINE
  5
DE
330
B8
100
AcDbEntity
  8
400019038_214400
  6
Continuous
 62
     7
100
AcDbLine
 10
248.6160259285
 20
456.5610110529
 30
0.0
 11
248.5053561386
 21
456.5474225076
 31
0.0
  0
SPLINE
  5
DF
330
B8
100
AcDbEntity
  8
400019038_214400
  6
Continuous
 62
     7
100
AcDbSpline
210
0.0
220
0.0
230
1.0
 70
     8
 71
     3
 72
    20
 73
    16
 74
     0
 42
0.000000000758727
 43
0.0000000001
 40
0.0
 40
0.0
 40
0.0
 40
0.0
 40
0.0934047500520051
 40
0.2433970689866643
 40
0.3712247727434043
 40
0.4775102441084554
 40
0.5641335259078526
 40
0.633533994877586
 40
0.6880615309062013
 40
0.7295461774429081
 40
0.768616240038724
 40
0.8092275830664155
 40
0.8601862164069084
 40
0.9228079739484387
 40
1.0
 40
1.0
 40
1.0
 40
1.0
 10
339.458969786864
 20
450.2142956113845
 30
0.0
 10
339.8930370308851
 20
450.3349901663586
 30
0.0
 10
340.8509539017718
 20
450.6055399368933
 30
0.0
 10
342.421631740996
 20
451.170614570641
 30
0.0
 10
343.9557317527059
 20
451.8449933339306
 30
0.0
 10
345.1903472869386
 20
452.5276527940957
 30
0.0
 10
346.1353891285279
 20
453.1866153236552
 30
0.0
 10
346.8298395570103
 20
453.798246682698
 30
0.0
 10
347.3168139240953
 20
454.3378146131722
 30
0.0
 10
347.6656324086885
 20
454.8177290554839
 30
0.0
 10
347.9343319677037
 20
455.2769593854086
 30
0.0
 10
348.1701444306067
 20
455.8009606471322
 30
0.0
 10
348.3663885067226
 20
456.4471685619062
 30
0.0
 10
348.4841182743562
 20
457.2957020080955
 30
0.0
 10
348.4440782204327
 20
457.8639070241568
 30
0.0
 10
348.4124816192678
 20
458.2348971360455
 30
0.0
  0
SPLINE
  5
E0
330
B8
100
AcDbEntity
  8
400019038_214400
  6
Continuous
 62
     7
100
AcDbSpline
210
0.0
220
0.0
230
1.0
 70
     8
 71
     3
 72
    12
 73
     8
 74
     0
 42
0.0000000023246854
 43
0.0000000001
 40
0.0
 40
0.0
 40
0.0
 40
0.0
 40
0.2691959687937487
 40
0.4590448185890494
 40
0.6385439045476714
 40
0.7710637436510299
 40
1.0
 40
1.0
 40
1.0
 40
1.0
 10
347.3375671799726
 20
466.8186070009384
 30
0.0
 10
347.0931196346539
 20
467.1605646028603
 30
0.0
 10
346.7207329348145
 20
467.6406701811921
 30
0.0
 10
345.9308919866454
 20
468.1597588915597
 30
0.0
 10
345.2180749230978
 20
468.2653369593658
 30
0.0
 10
344.4403350833482
 20
468.2530913094374
 30
0.0
 10
343.970244263373
 20
468.2013926857275
 30
0.0
 10
343.615758579394
 20
468.157317070988
 30
0.0
  0
LINE
  5
E1
330
B8
100
AcDbEntity
  8
400019038_214400
  6
Continuous
 62
     7
100
AcDbLine
 10
343.668723895
 20
468.1635783591
 30
0.0
 11
324.3056682777
 21
465.8545331356
 31
0.0
  0
LINE
  5
E2
330
B8
100
AcDbEntity
  8
64455038_214335_
  6
Continuous
 62
     7
100
AcDbLine
 10
301.7301542071
 20
494.0021609941
 30
0.0
 11
301.4262706624
 21
495.2271836037
 31
0.0
  0
LINE
  5
E3
330
B8
100
AcDbEntity
  8
64455038_214335_
  6
Continuous
 62
     7
100
AcDbLine
 10
320.1361755104
 20
498.5680252915
 30
0.0
 11
301.7301542071
 21
494.0021609941
 31
0.0
  0
LINE
  5
E4
330
B8
100
AcDbEntity
  8
64455038_214335_
  6
Continuous
 62
     7
100
AcDbLine
 10
301.4262706624
 20
495.2271836037
 30
0.0
 11
232.4178120246
 21
478.1086954567
 31
0.0
  0
LINE
  5
E5
330
B8
100
AcDbEntity
  8
64455038_214335_
  6
Continuous
 62
     7
100
AcDbLine
 10
303.3235095738
 20
487.5789887505
 30
0.0
 11
259.7473297663
 21
476.7693237869
 31
0.0
  0
SPLINE
  5
E6
330
B8
100
AcDbEntity
  8
64455038_214335_
  6
Continuous
 62
     7
100
AcDbSpline
210
0.0
220
0.0
230
1.0
 70
     8
 71
     3
 72
    20
 73
    16
 74
     0
 42
0.000000000402927
 43
0.0000000001
 40
0.0
 40
0.0
 40
0.0
 40
0.0
 40
0.0389818907635452
 40
0.1048369482894279
 40
0.1706920058153506
 40
0.2365470633412733
 40
0.302402120867196
 40
0.3682571783931187
 40
0.4999672934449641
 40
0.6316774084968095
 40
0.7633875235486549
 40
0.8292425810745777
 40
0.8950976386005004
 40
0.9609526961264231
 40
1.0
 40
1.0
 40
1.0
 40
1.0
 10
241.9467791084766
 20
462.4528487033887
 30
0.0
 10
241.9843652202734
 20
462.7552615021177
 30
0.0
 10
242.0842469452089
 20
463.5609556841628
 30
0.0
 10
242.2875718381865
 20
464.835395664397
 30
0.0
 10
242.6665703162227
 20
466.2472424699885
 30
0.0
 10
243.23098280595
 20
467.5903978444853
 30
0.0
 10
244.0100317583269
 20
468.8609286909777
 30
0.0
 10
245.3313794503013
 20
470.4516732794079
 30
0.0
 10
247.4878352682032
 20
472.235539911112
 30
0.0
 10
250.6642841439663
 20
473.9791699673394
 30
0.0
 10
253.529854267327
 20
475.0566987068374
 30
0.0
 10
255.76568469843
 20
475.7363347334456
 30
0.0
 10
257.3797256366419
 20
476.1749189824631
 30
0.0
 10
258.696584475468
 20
476.5086767727257
 30
0.0
 10
259.4659578896366
 20
476.6995312907106
 30
0.0
 10
259.747329766302
 20
476.7693237869308
 30
0.0
  0
SPLINE
  5
E7
330
B8
100
AcDbEntity
  8
64455038_214335_
  6
Continuous
 62
     7
100
AcDbSpline
210
0.0
220
0.0
230
1.0
 70
    12
 71
     3
 72
     8
 73
     4
 74
     0
 42
0.0000000151876574
 43
0.0000000001
 40
0.0
 40
0.0
 40
0.0
 40
0.0
 40
0.7454558667930586
 40
0.7454558667930586
 40
0.7454558667930586
 40
0.7454558667930586
 10
223.0143875796336
 20
456.4597668613433
 30
0.0
 41
1.249040884531065
 10
223.0142040754163
 20
456.3009839533169
 30
0.0
 41
0.9880633665085747
 10
223.1197534006538
 20
456.1757912240845
 30
0.0
 41
0.9322005579886796
 10
223.2873667593988
 20
456.1606306541738
 30
0.0
 41
1.08145245897138
  0
ARC
  5
E8
330
B8
100
AcDbEntity
  8
64455038_214335_
  6
Continuous
 62
     7
100
AcDbCircle
 10
43.5142994806
 20
-1315.2198928117
 30
0.0
 40
1780.511439434925
100
AcDbArc
 50
83.9385417398
 51
84.1471370197
  0
LINE
  5
E9
330
B8
100
AcDbEntity
  8
64455038_214335_
  6
Continuous
 62
     7
100
AcDbLine
 10
320.6048753333
 20
497.3326905692
 30
0.0
 11
320.3306829492
 21
498.3608861519
 31
0.0
  0
ARC
  5
EA
330
B8
100
AcDbEntity
  8
64455038_214335_
  6
Continuous
 62
     7
100
AcDbCircle
 10
318.6724086801
 20
496.8173531707
 30
0.0
 40
2.00000000000007
100
AcDbArc
 50
336.9026693788
 51
14.931775853
  0
SPLINE
  5
EB
330
B8
100
AcDbEntity
  8
64455038_214335_
  6
Continuous
 62
     7
100
AcDbSpline
210
0.0
220
0.0
230
1.0
 70
     8
 71
     3
 72
    11
 73
     7
 74
     0
 42
0.0000000017659398
 43
0.0000000001
 40
0.0
 40
0.0
 40
0.0
 40
0.0
 40
0.2830525734212387
 40
0.5528765571880625
 40
0.7696017857259824
 40
1.0
 40
1.0
 40
1.0
 40
1.0
 10
320.1361755104509
 20
498.5680252914925
 30
0.0
 10
319.5770821205456
 20
498.7402264590431
 30
0.0
 10
318.6444810059776
 20
499.0089963602335
 30
0.0
 10
317.161927666279
 20
499.043422895209
 30
0.0
 10
315.8158580607303
 20
498.7958431898761
 30
0.0
 10
315.0582690110074
 20
498.6129614360299
 30
0.0
 10
314.5970833728605
 20
498.4943830995729
 30
0.0
  0
ARC
  5
EC
330
B8
100
AcDbEntity
  8
64455038_214335_
  6
Continuous
 62
     7
100
AcDbCircle
 10
320.040812957
 20
498.2835855203
 30
0.0
 40
0.2999999999994643
100
AcDbArc
 50
14.9317801504
 51
71.4655267751
  0
SPLINE
  5
ED
330
B8
100
AcDbEntity
  8
64455038_214335_
  6
Continuous
 62
     7
100
AcDbSpline
210
0.0
220
0.0
230
1.0
 70
     8
 71
     3
 72
    11
 73
     7
 74
     0
 42
0.0000000017357564
 43
0.0000000001
 40
0.0
 40
0.0
 40
0.0
 40
0.0
 40
0.2900957110109559
 40
0.5612001370052734
 40
0.7753917652245046
 40
1.0
 40
1.0
 40
1.0
 40
1.0
 10
219.2469993141814
 20
474.841495960882
 30
0.0
 10
218.6525279521602
 20
474.7032014736504
 30
0.0
 10
217.6885822940159
 20
474.4558056370507
 30
0.0
 10
216.2688434338821
 20
473.9272743885876
 30
0.0
 10
215.1311142341634
 20
473.1328041609497
 30
0.0
 10
214.576664291933
 20
472.5834849911321
 30
0.0
 10
214.2468968075933
 20
472.2450037257262
 30
0.0
  0
ARC
  5
EE
330
B8
100
AcDbEntity
  8
64455038_214335_
  6
Continuous
 62
     7
100
AcDbCircle
 10
214.4656342487
 20
472.0820911535
 30
0.0
 40
0.2710428318086144
100
AcDbArc
 50
135.1941147801
 51
174.4567729746
  0
SPLINE
  5
EF
330
B8
100
AcDbEntity
  8
64455038_214335_
  6
Continuous
 62
     7
100
AcDbSpline
210
0.0
220
0.0
230
1.0
 70
     8
 71
     3
 72
    17
 73
    13
 74
     0
 42
0.0000000005073428
 43
0.0000000001
 40
0.0
 40
0.0
 40
0.0
 40
0.0
 40
0.1112315338799749
 40
0.2335859301291008
 40
0.3636007849183932
 40
0.4941100344615283
 40
0.6183515851225277
 40
0.7089742954057057
 40
0.7925819753640633
 40
0.8687498186880314
 40
0.9375718194199429
 40
1.0
 40
1.0
 40
1.0
 40
1.0
 10
303.323509573772
 20
487.578988750486
 30
0.0
 10
304.1027444411367
 20
487.7716905110658
 30
0.0
 10
305.4826695763251
 20
488.1157136367734
 30
0.0
 10
307.8368146017044
 20
488.7339552984251
 30
0.0
 10
310.2348289753911
 20
489.4343224347663
 30
0.0
 10
312.6297405216064
 20
490.2475233766073
 30
0.0
 10
314.7207823251551
 20
491.1262724754964
 30
0.0
 10
316.4544043963109
 20
492.0395038479103
 30
0.0
 10
317.8376579921204
 20
492.9366238196411
 30
0.0
 10
318.9880021281637
 20
493.8892829732454
 30
0.0
 10
319.9322361050031
 20
494.9214845803556
 30
0.0
 10
320.3068889355639
 20
495.6338794843967
 30
0.0
 10
320.5128529342798
 20
496.0345587443263
 30
0.0
  0
LINE
  5
F0
330
B8
100
AcDbEntity
  8
64455038_214335_
  6
Continuous
 62
     7
100
AcDbLine
 10
214.1937620618
 20
472.1112915625
 30
0.0
 11
214.026850941
 21
470.7651627764
 31
0.0
  0
ARC
  5
F1
330
B8
100
AcDbEntity
  8
64455038_214335_
  6
Continuous
 62
     7
100
AcDbCircle
 10
219.863284267
 20
478.3092384303
 30
0.0
 40
10.04721592232162
100
AcDbArc
 50
236.6499110253
 51
271.6219444311
  0
ARC
  5
F2
330
B8
100
AcDbEntity
  8
64455038_214335_
  6
Continuous
 62
     7
100
AcDbCircle
 10
215.0204023986
 20
470.6510069235
 30
0.0
 40
1.000047564602145
100
AcDbArc
 50
172.4274814383
 51
230.8944877119
  0
LINE
  5
F3
330
B8
100
AcDbEntity
  8
64455038_214335_
  6
Continuous
 62
     7
100
AcDbLine
 10
241.1125385285
 20
455.7247453259
 30
0.0
 11
241.9467791087
 21
462.4528487054
 31
0.0
  0
LINE
  5
F4
330
B8
100
AcDbEntity
  8
64455038_214335_
  6
Continuous
 62
     7
100
AcDbLine
 10
231.9818575413
 20
455.2563240723
 30
0.0
 11
234.8308571547
 21
454.9534518367
 31
0.0
  0
ARC
  5
F5
330
B8
100
AcDbEntity
  8
64455038_214335_
  6
Continuous
 62
     7
100
AcDbCircle
 10
223.3165466353
 20
456.4629844391
 30
0.0
 40
0.3038165624903265
100
AcDbArc
 50
217.570301941
 51
265.2206403855
  0
LINE
  5
F6
330
B8
100
AcDbEntity
  8
64455038_214335_
  6
Continuous
 62
     7
100
AcDbLine
 10
223.3192522817
 20
456.1574011898
 30
0.0
 11
223.3553788439
 21
456.1537446647
 31
0.0
  0
LINE
  5
F7
330
B8
100
AcDbEntity
  8
64455038_214335_
  6
Continuous
 62
     7
100
AcDbLine
 10
223.0248574435
 20
465.2614414659
 30
0.0
 11
223.0143449091
 21
456.4328359049
 31
0.0
  0
SPLINE
  5
F8
330
B8
100
AcDbEntity
  8
64455038_214335_
  6
Continuous
 62
     7
100
AcDbSpline
210
0.0
220
0.0
230
1.0
 70
     8
 71
     3
 72
    13
 73
     9
 74
     0
 42
0.0000000019914011
 43
0.0000000001
 40
0.0
 40
0.0
 40
0.0
 40
0.0
 40
0.2457554551527825
 40
0.3612871934916494
 40
0.4757600088749384
 40
0.593068686960822
 40
0.7161180718355856
 40
1.0
 40
1.0
 40
1.0
 40
1.0
 10
220.1092848933545
 20
468.2627243746642
 30
0.0
 10
220.5567160024314
 20
468.2433242311761
 30
0.0
 10
221.1084085336647
 20
468.2033012921361
 30
0.0
 10
221.8823299669962
 20
467.9952563480925
 30
0.0
 10
222.3904153473927
 20
467.7036360232198
 30
0.0
 10
222.7509594439564
 20
467.2199065227686
 30
0.0
 10
223.0053805557291
 20
466.3698893282368
 30
0.0
 10
223.0277064421468
 20
465.74483580781
 30
0.0
 10
223.0247820605521
 20
465.2275129472619
 30
0.0
  0
ARC
  5
F9
330
B8
100
AcDbEntity
  8
64455038_214335_
  6
Continuous
 62
     7
100
AcDbCircle
 10
223.3163881872
 20
456.4624021951
 30
0.0
 40
0.3032283112974924
100
AcDbArc
 50
217.7021382773
 51
265.303048423
  0
LINE
  5
FA
330
B8
100
AcDbEntity
  8
64455038_214335_
  6
Continuous
 62
     7
100
AcDbLine
 10
231.5205845191
 20
455.305173114
 30
0.0
 11
231.9835475177
 21
455.2561443954
 31
0.0
  0
ARC
  5
FB
330
B8
100
AcDbEntity
  8
64455038_214335_
  6
Continuous
 62
     7
100
AcDbCircle
 10
122.7289246876
 20
-537.9493383519
 30
0.0
 40
999.1830033652935
100
AcDbArc
 50
84.1258103891
 51
84.215218312
  0
LINE
  5
FC
330
B8
100
AcDbEntity
  8
64455038_214335_
  6
Continuous
 62
     7
100
AcDbLine
 10
223.2919583835
 20
456.1601484753
 30
0.0
 11
223.2846560658
 21
456.160885744
 31
0.0
  0
LINE
  5
FE
330
B8
100
AcDbEntity
  8
64459038_214908_
  6
Continuous
 62
     7
100
AcDbLine
 10
233.431868885
 20
479.8830432888
 30
0.0
 11
232.4251078306
 21
479.6507613664
 31
0.0
  0
LINE
  5
FF
330
B8
100
AcDbEntity
  8
64459038_214908_
  6
Continuous
 62
     7
100
AcDbLine
 10
234.3068302356
 20
480.0609701937
 30
0.0
 11
233.6781043751
 21
479.9353500081
 31
0.0
  0
LINE
  5
100
330
B8
100
AcDbEntity
  8
64459038_214908_
  6
Continuous
 62
     7
100
AcDbLine
 10
235.1882155128
 20
480.2180554888
 30
0.0
 11
234.5549225332
 21
480.1074209343
 31
0.0
  0
LINE
  5
101
330
B8
100
AcDbEntity
  8
64459038_214908_
  6
Continuous
 62
     7
100
AcDbLine
 10
232.4251078306
 20
479.6507613664
 30
0.0
 11
232.3393234317
 21
479.6295877577
 31
0.0
  0
LINE
  5
102
330
B8
100
AcDbEntity
  8
64459038_214908_
  6
Continuous
 62
     7
100
AcDbLine
 10
233.6781043751
 20
479.9353500081
 30
0.0
 11
233.431868885
 21
479.8830432888
 31
0.0
  0
LINE
  5
103
330
B8
100
AcDbEntity
  8
64459038_214908_
  6
Continuous
 62
     7
100
AcDbLine
 10
234.5549225332
 20
480.1074209343
 30
0.0
 11
234.3068302356
 21
480.0609701937
 31
0.0
  0
LINE
  5
104
330
B8
100
AcDbEntity
  8
64459038_214908_
  6
Continuous
 62
     7
100
AcDbLine
 10
235.4374048424
 20
480.2584778549
 30
0.0
 11
235.1882155128
 21
480.2180554888
 31
0.0
  0
SPLINE
  5
105
330
B8
100
AcDbEntity
  8
64459038_214908_
  6
Continuous
 62
     7
100
AcDbSpline
210
0.0
220
0.0
230
1.0
 70
     8
 71
     3
 72
     8
 73
     4
 74
     0
 42
0.0000000014055845
 43
0.0000000001
 40
0.0
 40
0.0
 40
0.0
 40
0.0
 40
1.0
 40
1.0
 40
1.0
 40
1.0
 10
242.5165449638014
 20
480.6887570388045
 30
0.0
 10
240.1500661232702
 20
480.7755356705312
 30
0.0
 10
237.7758795517011
 20
480.629605493355
 30
0.0
 10
235.4374048424082
 20
480.2584778548691
 30
0.0
  0
ARC
  5
106
330
B8
100
AcDbEntity
  8
64459038_214908_
  6
Continuous
 62
     7
100
AcDbCircle
 10
242.5055513716
 20
480.3889585384
 30
0.0
 40
0.299999999852381
100
AcDbArc
 50
60.6615532429
 51
87.8999083447
  0
SPLINE
  5
107
330
B8
100
AcDbEntity
  8
64459038_214908_
  6
Continuous
 62
     7
100
AcDbSpline
210
0.0
220
0.0
230
1.0
 70
     8
 71
     3
 72
     8
 73
     4
 74
     0
 42
0.0000000013027423
 43
0.0000000001
 40
0.0
 40
0.0
 40
0.0
 40
0.0
 40
1.0
 40
1.0
 40
1.0
 40
1.0
 10
223.0479334358394
 20
475.9244429784294
 30
0.0
 10
225.2689789130518
 20
477.1860029874248
 30
0.0
 10
227.6229117847565
 20
478.2118620776183
 30
0.0
 10
230.0571487131397
 20
478.9848853174465
 30
0.0
  0
SPLINE
  5
108
330
B8
100
AcDbEntity
  8
64459038_214908_
  6
Continuous
 62
     7
100
AcDbSpline
210
0.0
220
0.0
230
1.0
 70
     8
 71
     3
 72
     8
 73
     4
 74
     0
 42
0.000000004216321
 43
0.0000000001
 40
0.0
 40
0.0
 40
0.0
 40
0.0
 40
1.0
 40
1.0
 40
1.0
 40
1.0
 10
230.0571487131397
 20
478.9848853174465
 30
0.0
 10
230.8105163351493
 20
479.2241268937932
 30
0.0
 10
231.5715757166189
 20
479.439151106481
 30
0.0
 10
232.3387680942704
 20
479.6294500085322
 30
0.0
  0
LINE
  5
10A
330
B8
100
AcDbEntity
  8
DV2_Standard
  6
Continuous
 62
     7
100
AcDbLine
 10
205.4256952494
 20
364.9443792296
 30
0.0
 11
251.414291103
 21
364.9443792296
 31
0.0
  0
LINE
  5
10B
330
B8
100
AcDbEntity
  8
DV2_Standard
  6
CENTER2
 62
     7
100
AcDbLine
 10
248.4199927291
 20
364.9443792296
 30
0.0
 11
208.4199936232
 21
364.9443792296
 31
0.0
  0
LINE
  5
10C
330
B8
100
AcDbEntity
  8
DV2_Standard
  6
CENTER2
 62
     7
100
AcDbLine
 10
228.4199931762
 20
384.9443787826
 30
0.0
 11
228.4199931762
 21
344.9443796767
 31
0.0
  0
LINE
  5
10D
330
B8
100
AcDbEntity
  8
DV2_Standard
  6
Continuous
 62
     7
100
AcDbLine
 10
219.2469993142
 20
474.8414959609
 30
0.0
 11
223.0479334358
 21
475.9244429784
 31
0.0
  0
LINE
  5
10E
330
B8
100
AcDbEntity
  8
DV2_Standard
  6
Continuous
 62
     7
100
AcDbLine
 10
301.4262706624
 20
495.2271836037
 30
0.0
 11
314.5970833729
 21
498.4943830996
 31
0.0
  0
ENDBLK
  5
110
330
B8
100
AcDbEntity
  8
0
100
AcDbBlockEnd
  0
BLOCK
  5
14E
330
111
100
AcDbEntity
  8
0
100
AcDbBlockBegin
  2
SE2
 70
     0
 10
0.0
 20
0.0
 30
0.0
  3
SE2
  1

  0
LINE
  5
113
330
111
100
AcDbEntity
  8
64487038_215540_
  6
Continuous
 62
     7
100
AcDbLine
 10
22.538157799
 20
226.4591441839
 30
0.0
 11
22.538157799
 21
226.3894891949
 31
0.0
  0
SPLINE
  5
114
330
111
100
AcDbEntity
  8
400019038_214400
  6
Continuous
 62
     7
100
AcDbSpline
210
0.0
220
0.0
230
1.0
 70
     8
 71
     5
 72
    12
 73
     6
 74
     0
 42
0.0000000046198826
 43
0.0000000001
 40
0.9371152138822422
 40
0.9371152138822422
 40
0.9371152138822422
 40
0.9371152138822422
 40
0.9371152138822422
 40
0.9371152138822422
 40
0.9440090872361855
 40
0.9440090872361855
 40
0.9440090872361855
 40
0.9440090872361855
 40
0.9440090872361855
 40
0.9440090872361855
 10
19.59020587392937
 20
129.1045931333837
 30
0.0
 10
19.58791452149193
 20
129.1066382106416
 30
0.0
 10
19.58568615712717
 20
129.1086871195644
 30
0.0
 10
19.58352078005467
 20
129.1107398592668
 30
0.0
 10
19.58141838739866
 20
129.1127964287869
 30
0.0
 10
19.57937897416489
 20
129.114856827085
 30
0.0
  0
SPLINE
  5
115
330
111
100
AcDbEntity
  8
400019038_214400
  6
Continuous
 62
     7
100
AcDbSpline
210
0.0
220
0.0
230
1.0
 70
     8
 71
     5
 72
    12
 73
     6
 74
     0
 42
0.0000000061661476
 43
0.0000000001
 40
0.9729677251594577
 40
0.9729677251594577
 40
0.9729677251594577
 40
0.9729677251594577
 40
0.9729677251594577
 40
0.9729677251594577
 40
1.0
 40
1.0
 40
1.0
 40
1.0
 40
1.0
 40
1.0
 10
19.54765072599121
 20
129.1588064294203
 30
0.0
 10
19.54379868013265
 20
129.1671374095098
 30
0.0
 10
19.54091227666655
 20
129.1755269948047
 30
0.0
 10
19.53899011666724
 20
129.1839750825521
 30
0.0
 10
19.53803027727852
 20
129.1924815509469
 30
0.0
 10
19.53803029017236
 20
129.2010462584768
 30
0.0
  0
ARC
  5
116
330
111
100
AcDbEntity
  8
400019038_214400
  6
Continuous
 62
     7
100
AcDbCircle
 10
42.4513028722
 20
129.2864326449
 30
0.0
 40
22.91343167779662
100
AcDbArc
 50
180.2135119244
 51
270.216864053
  0
LINE
  5
117
330
111
100
AcDbEntity
  8
400019038_214400
  6
Continuous
 62
     7
100
AcDbLine
 10
19.5380302919
 20
130.2544175556
 30
0.0
 11
19.5380302919
 21
129.2003658773
 31
0.0
  0
LINE
  5
118
330
111
100
AcDbEntity
  8
400019038_214400
  6
Continuous
 62
     7
100
AcDbLine
 10
19.5380302919
 20
226.5312885323
 30
0.0
 11
19.5380302919
 21
130.2545207925
 31
0.0
  0
LINE
  5
119
330
111
100
AcDbEntity
  8
400019038_214400
  6
Continuous
 62
     7
100
AcDbLine
 10
19.5379988055
 20
226.5313918318
 30
0.0
 11
19.5378461875
 21
226.5313915745
 31
0.0
  0
ARC
  5
11A
330
111
100
AcDbEntity
  8
400019038_214400
  6
Continuous
 62
     7
100
AcDbCircle
 10
42.4551769609
 20
226.4426814054
 30
0.0
 40
22.91731798472198
100
AcDbArc
 50
89.7928556219
 51
179.778471787
  0
ARC
  5
11B
330
111
100
AcDbEntity
  8
400019038_214400
  6
Continuous
 62
     7
100
AcDbCircle
 10
42.6234299871
 20
226.4452478449
 30
0.0
 40
22.91476090572014
100
AcDbArc
 50
0.2151357942
 51
90.2135311995
  0
SPLINE
  5
11C
330
111
100
AcDbEntity
  8
400019038_214400
  6
Continuous
 62
     7
100
AcDbSpline
210
0.0
220
0.0
230
1.0
 70
     8
 71
     5
 72
    12
 73
     6
 74
     0
 42
0.0000000046198791
 43
0.0000000001
 40
0.9371151837238448
 40
0.9371151837238448
 40
0.9371151837238448
 40
0.9371151837238448
 40
0.9371151837238448
 40
0.9371151837238448
 40
0.9440090854529402
 40
0.9440090854529402
 40
0.9440090854529402
 40
0.9440090854529402
 40
0.9440090854529402
 40
0.9440090854529402
 10
65.48585357548147
 20
129.1045930896853
 30
0.0
 10
65.48814494091779
 20
129.1066381752735
 30
0.0
 10
65.49037331778352
 20
129.108687092558
 30
0.0
 10
65.49253870685928
 20
129.1107398406535
 30
0.0
 10
65.49464111102094
 20
129.1127964185982
 30
0.0
 10
65.49668053526295
 20
129.1148568253521
 30
0.0
  0
SPLINE
  5
11D
330
111
100
AcDbEntity
  8
400019038_214400
  6
Continuous
 62
     7
100
AcDbSpline
210
0.0
220
0.0
230
1.0
 70
     8
 71
     5
 72
    12
 73
     6
 74
     0
 42
0.0000000061661459
 43
0.0000000001
 40
0.9729677253797313
 40
0.9729677253797313
 40
0.9729677253797313
 40
0.9729677253797313
 40
0.9729677253797313
 40
0.9729677253797313
 40
1.0
 40
1.0
 40
1.0
 40
1.0
 40
1.0
 40
1.0
 10
65.52840884357921
 20
129.1588064302338
 30
0.0
 10
65.5322609008125
 20
129.1671374101673
 30
0.0
 10
65.5351473160192
 20
129.1755269953029
 30
0.0
 10
65.5370694881335
 20
129.1839750828877
 30
0.0
 10
65.53802934002024
 20
129.1924815511164
 30
0.0
 10
65.53802934001637
 20
129.2010462584768
 30
0.0
  0
LINE
  5
11E
330
111
100
AcDbEntity
  8
400019038_214400
  6
Continuous
 62
     7
100
AcDbLine
 10
65.5380608246
 20
226.5313918318
 30
0.0
 11
65.5382134426
 21
226.5313915745
 31
0.0
  0
LINE
  5
11F
330
111
100
AcDbEntity
  8
400019038_214400
  6
Continuous
 62
     7
100
AcDbLine
 10
65.5380293383
 20
226.5312885323
 30
0.0
 11
65.5380293383
 21
130.2545207925
 31
0.0
  0
LINE
  5
120
330
111
100
AcDbEntity
  8
400019038_214400
  6
Continuous
 62
     7
100
AcDbLine
 10
65.5380293383
 20
130.2544175556
 30
0.0
 11
65.5380293383
 21
129.2003658773
 31
0.0
  0
ELLIPSE
  5
121
330
111
100
AcDbEntity
  8
400019038_214400
  6
Continuous
 62
     7
100
AcDbEllipse
 10
42.5380298151
 20
226.3241394966
 30
0.0
 11
20.1000000000003
 21
-6.804635793635633E-12
 31
0.0
210
0.0
220
0.0
230
1.0
 40
0.9925461516
 41
0.0
 42
3.136171213826856
  0
ARC
  5
122
330
111
100
AcDbEntity
  8
400019038_214400
  6
Continuous
 62
     7
100
AcDbCircle
 10
42.2303468533
 20
226.4809869475
 30
0.0
 40
19.79231122197387
100
AcDbArc
 50
179.3499094332
 51
197.2346967658
  0
ARC
  5
123
330
111
100
AcDbEntity
  8
400019038_214400
  6
Continuous
 62
     7
100
AcDbCircle
 10
42.8457224112
 20
226.4809855442
 30
0.0
 40
19.79230160441223
100
AcDbArc
 50
342.7652988506
 51
0.650095027
  0
ARC
  5
124
330
111
100
AcDbEntity
  8
400019038_214400
  6
Continuous
 62
     7
100
AcDbCircle
 10
42.5808379696
 20
226.6314171378
 30
0.0
 40
20.08996913862334
100
AcDbArc
 50
341.8108073106
 51
342.5793639413
  0
ARC
  5
125
330
111
100
AcDbEntity
  8
400019038_214400
  6
Continuous
 62
     7
100
AcDbCircle
 10
42.4782362662
 20
226.60823386
 30
0.0
 40
20.06682933812076
100
AcDbArc
 50
197.371997592
 51
198.1220586917
  0
ARC
  5
126
330
111
100
AcDbEntity
  8
400019038_214400
  6
Continuous
 62
     7
100
AcDbCircle
 10
42.5380298151
 20
129.2985532761
 30
0.0
 40
22.94865548450677
100
AcDbArc
 50
180.4830018906
 51
359.5169981094
  0
ELLIPSE
  5
127
330
111
100
AcDbEntity
  8
64455038_214335_
  6
Continuous
 62
     7
100
AcDbEllipse
 10
42.5380298151
 20
152.9958121641
 30
0.0
 11
-19.10279329525005
 21
-9.714451465470120E-14
 31
0.0
210
0.0
220
0.0
230
1.0
 40
0.9705831032
 41
0.0000000000000009
 42
0.640599799876387
  0
ELLIPSE
  5
128
330
111
100
AcDbEntity
  8
64455038_214335_
  6
Continuous
 62
     7
100
AcDbEllipse
 10
42.5380298151
 20
152.9958121641
 30
0.0
 11
-19.10279329525005
 21
-9.714451465470120E-14
 31
0.0
210
0.0
220
0.0
230
1.0
 40
0.9705831032
 41
2.52589135184808
 42
3.141592653589793
  0
SPLINE
  5
129
330
111
100
AcDbEntity
  8
64455038_214335_
  6
Continuous
 62
     7
100
AcDbSpline
210
0.0
220
0.0
230
1.0
 70
     8
 71
     3
 72
     8
 73
     4
 74
     0
 42
0.0000000312889248
 43
0.0000000001
 40
0.0
 40
0.0
 40
0.0
 40
0.0
 40
0.0256445249572327
 40
0.0256445249572327
 40
0.0256445249572327
 40
0.0256445249572327
 10
23.41599820771362
 20
152.7398859794199
 30
0.0
 10
23.41582973133585
 20
152.7371563173585
 30
0.0
 10
23.4157567499629
 20
152.7344262615495
 30
0.0
 10
23.41577911496092
 20
152.7316962015916
 30
0.0
  0
SPLINE
  5
12A
330
111
100
AcDbEntity
  8
64455038_214335_
  6
Continuous
 62
     7
100
AcDbSpline
210
0.0
220
0.0
230
1.0
 70
     8
 71
     3
 72
     8
 73
     4
 74
     0
 42
0.000000031229296
 43
0.0000000001
 40
0.0
 40
0.0
 40
0.0
 40
0.0
 40
0.0263370196537628
 40
0.0263370196537628
 40
0.0263370196537628
 40
0.0263370196537628
 10
61.66004340163442
 20
152.7401282777347
 30
0.0
 10
61.66028436854369
 20
152.7373220149543
 30
0.0
 10
61.66042058641007
 20
152.734515332626
 30
0.0
 10
61.66045241805518
 20
152.7317086548075
 30
0.0
  0
SPLINE
  5
12B
330
111
100
AcDbEntity
  8
64455038_214335_
  6
Continuous
 62
     7
100
AcDbSpline
210
0.0
220
0.0
230
1.0
 70
     8
 71
     2
 72
     6
 73
     3
 74
     0
 42
0.0000000000821404
 43
0.0000000001
 40
0.08984375
 40
0.08984375
 40
0.08984375
 40
0.09375
 40
0.09375
 40
0.09375
 10
61.66068621084909
 20
164.2719205122599
 30
0.0
 10
61.6606886319388
 20
164.5097039101593
 30
0.0
 10
61.66069174586929
 20
164.7474783249763
 30
0.0
  0
LINE
  5
12C
330
111
100
AcDbEntity
  8
64455038_214335_
  6
Continuous
 62
     7
100
AcDbLine
 10
61.6410281684
 20
222.0046883391
 30
0.0
 11
61.6409868175
 21
222.0608036055
 31
0.0
  0
LINE
  5
12D
330
111
100
AcDbEntity
  8
64455038_214335_
  6
Continuous
 62
     7
100
AcDbLine
 10
23.4350613497
 20
222.0039598317
 30
0.0
 11
23.4350588536
 21
152.9958325186
 31
0.0
  0
LINE
  5
12E
330
111
100
AcDbEntity
  8
64455038_214335_
  6
Continuous
 62
     7
100
AcDbLine
 10
23.4350301148
 20
222.0608037988
 30
0.0
 11
23.4350738909
 21
222.0043238629
 31
0.0
  0
ARC
  5
12F
330
111
100
AcDbEntity
  8
64455038_214335_
  6
Continuous
 62
     7
100
AcDbCircle
 10
41.7567894803
 20
222.1512007747
 30
0.0
 40
19.90397417379154
100
AcDbArc
 50
0.0835472427
 51
0.711206247
  0
ARC
  5
130
330
111
100
AcDbEntity
  8
64455038_214335_
  6
Continuous
 62
     7
100
AcDbCircle
 10
42.5380295636
 20
221.563516672
 30
0.0
 40
19.13941256865717
100
AcDbArc
 50
2.4996828634
 51
177.500914345
  0
ELLIPSE
  5
131
330
111
100
AcDbEntity
  8
64455038_214335_
  6
Continuous
 62
     7
100
AcDbEllipse
 10
42.5380298151
 20
221.6941169107
 30
0.0
 11
10.42500000000002
 21
2.289834988289385E-13
 31
0.0
210
0.0
220
0.0
230
1.0
 40
0.9705831032
 41
2.942999795111088
 42
3.125778178778047
  0
ELLIPSE
  5
132
330
111
100
AcDbEntity
  8
64455038_214335_
  6
Continuous
 62
     7
100
AcDbEllipse
 10
42.5380298151
 20
222.0141356846
 30
0.0
 11
10.42500000000003
 21
1.752070710736575E-13
 31
0.0
210
0.0
220
0.0
230
1.0
 40
0.9705831032
 41
0.0
 42
0.6926724221006891
  0
ELLIPSE
  5
133
330
111
100
AcDbEntity
  8
64455038_214335_
  6
Continuous
 62
     7
100
AcDbEllipse
 10
42.5380298151
 20
222.0141356846
 30
0.0
 11
10.42500000000003
 21
1.752070710736575E-13
 31
0.0
210
0.0
220
0.0
230
1.0
 40
0.9705831032
 41
2.438102898532981
 42
3.87298339876096
  0
ELLIPSE
  5
134
330
111
100
AcDbEntity
  8
64455038_214335_
  6
Continuous
 62
     7
100
AcDbEllipse
 10
42.5380298151
 20
222.0141356846
 30
0.0
 11
10.42500000000003
 21
1.752070710736575E-13
 31
0.0
210
0.0
220
0.0
230
1.0
 40
0.9705831032
 41
5.538607282722284
 42
6.283185307179586
  0
ARC
  5
135
330
111
100
AcDbEntity
  8
64455038_214335_
  6
Continuous
 62
     7
100
AcDbCircle
 10
42.5359605228
 20
153.2782976891
 30
0.0
 40
19.13015617165602
100
AcDbArc
 50
182.107352465
 51
187.1009196629
  0
ARC
  5
136
330
111
100
AcDbEntity
  8
64455038_214335_
  6
Continuous
 62
     7
100
AcDbCircle
 10
42.5359605228
 20
153.2782976891
 30
0.0
 40
19.13015617165602
100
AcDbArc
 50
187.4577890386
 51
358.5032982713
  0
LINE
  5
137
330
111
100
AcDbEntity
  8
64455038_214335_
  6
Continuous
 62
     7
100
AcDbLine
 10
61.6610362543
 20
164.7425262885
 30
0.0
 11
61.6610362543
 21
221.7563884721
 31
0.0
  0
LINE
  5
138
330
111
100
AcDbEntity
  8
64455038_214335_
  6
Continuous
 62
     7
100
AcDbLine
 10
61.6610362543
 20
152.7316682324
 30
0.0
 11
61.6610362543
 21
164.258926175
 31
0.0
  0
LINE
  5
139
330
111
100
AcDbEntity
  8
64455038_214335_
  6
Continuous
 62
     7
100
AcDbLine
 10
23.4150110705
 20
222.1786579925
 30
0.0
 11
23.4150132483
 21
221.7397459478
 31
0.0
  0
LINE
  5
13A
330
111
100
AcDbEntity
  8
64455038_214335_
  6
Continuous
 62
     7
100
AcDbLine
 10
23.4150167832
 20
221.7564428721
 30
0.0
 11
23.4150526498
 21
152.7316404331
 31
0.0
  0
LINE
  5
13B
330
111
100
AcDbEntity
  8
64455038_214335_
  6
Continuous
 62
     7
100
AcDbLine
 10
61.6610530976
 20
221.739811283
 30
0.0
 11
61.6611257162
 21
222.1786922597
 31
0.0
  0
LINE
  5
13C
330
111
100
AcDbEntity
  8
64455038_214335_
  6
Continuous
 62
     7
100
AcDbLine
 10
61.6610414541
 20
222.1700592962
 30
0.0
 11
61.659725901
 21
222.3902323025
 31
0.0
  0
LINE
  5
13D
330
111
100
AcDbEntity
  8
64455038_214335_
  6
Continuous
 62
     7
100
AcDbLine
 10
23.4163100938
 20
222.3887914532
 30
0.0
 11
23.4150140321
 21
222.1700479495
 31
0.0
  0
ARC
  5
13E
330
111
100
AcDbEntity
  8
64455038_214335_
  6
Continuous
 62
     7
100
AcDbCircle
 10
42.5691408269
 20
222.4734096608
 30
0.0
 40
10.56882354833259
100
AcDbArc
 50
269.8313405236
 51
316.2684690262
  0
ARC
  5
13F
330
111
100
AcDbEntity
  8
64455038_214335_
  6
Continuous
 62
     7
100
AcDbCircle
 10
42.506815476
 20
222.4651859012
 30
0.0
 40
10.56060012926303
100
AcDbArc
 50
222.9664655807
 51
270.1693514074
  0
ELLIPSE
  5
140
330
111
100
AcDbEntity
  8
64459038_214908_
  6
Continuous
 62
     7
100
AcDbEllipse
 10
42.5380298151
 20
221.8342067103
 30
0.0
 11
0.0
 21
10.30259190348147
 31
0.0
210
0.0
220
0.0
230
1.0
 40
1.0
 41
4.314826568841201
 42
4.71238898038469
  0
LINE
  5
141
330
111
100
AcDbEntity
  8
64459038_214908_
  6
Continuous
 62
     7
100
AcDbLine
 10
52.8880298151
 20
221.8342067103
 30
0.0
 11
52.8880298151
 21
222.0344555292
 31
0.0
  0
LINE
  5
142
330
111
100
AcDbEntity
  8
64459038_214908_
  6
Continuous
 62
     7
100
AcDbLine
 10
32.1880298151
 20
222.0344555252
 30
0.0
 11
32.1880298151
 21
221.8342067103
 31
0.0
  0
SPLINE
  5
143
330
111
100
AcDbEntity
  8
64459038_214908_
  6
Continuous
 62
     7
100
AcDbSpline
210
0.0
220
0.0
230
1.0
 70
     8
 71
     3
 72
    11
 73
     7
 74
     0
 42
0.0000000402855741
 43
0.0000000001
 40
0.0
 40
0.0
 40
0.0
 40
0.0
 40
0.1381872799269221
 40
0.4558129043239447
 40
0.8613656271343855
 40
1.0
 40
1.0
 40
1.0
 40
1.0
 10
45.03440861404533
 20
231.7907583363283
 30
0.0
 10
45.02230182728842
 20
231.7940428102816
 30
0.0
 10
44.98805404662483
 20
231.8031576649204
 30
0.0
 10
44.91675122577161
 20
231.8021377626314
 30
0.0
 10
44.84558648289689
 20
231.7926470980148
 30
0.0
 10
44.80159412354327
 20
231.790377870413
 30
0.0
 10
44.78852705086504
 20
231.7896436267658
 30
0.0
  0
ARC
  5
144
330
111
100
AcDbEntity
  8
64459038_214908_
  6
Continuous
 62
     7
100
AcDbCircle
 10
44.7472643856
 20
232.0279117726
 30
0.0
 40
0.2398510006072746
100
AcDbArc
 50
270.0530789784
 51
279.7989983139
  0
ARC
  5
145
330
111
100
AcDbEntity
  8
64459038_214908_
  6
Continuous
 62
     7
100
AcDbCircle
 10
40.2953803451
 20
231.9732781558
 30
0.0
 40
0.1851294510425815
100
AcDbArc
 50
258.4697230752
 51
280.3141815329
  0
SPLINE
  5
146
330
111
100
AcDbEntity
  8
64459038_214908_
  6
Continuous
 62
     7
100
AcDbSpline
210
0.0
220
0.0
230
1.0
 70
     8
 71
     3
 72
    10
 73
     6
 74
     0
 42
0.0000000403894879
 43
0.0000000001
 40
0.0
 40
0.0
 40
0.0
 40
0.0
 40
0.1544231224593992
 40
0.6346440135799571
 40
1.0
 40
1.0
 40
1.0
 40
1.0
 10
40.28745104229156
 20
231.7888757030741
 30
0.0
 10
40.2730389957841
 20
231.7900661475016
 30
0.0
 10
40.22251581955641
 20
231.7936864837216
 30
0.0
 10
40.1375707085547
 20
231.8067312269821
 30
0.0
 10
40.07433461060241
 20
231.7970279920018
 30
0.0
 10
40.04210944418221
 20
231.7923830219706
 30
0.0
  0
LINE
  5
148
330
111
100
AcDbEntity
  8
DV3_Standard
  6
CENTER2
 62
     7
100
AcDbLine
 10
62.4551765138
 20
226.4426814054
 30
0.0
 11
22.4551774079
 21
226.4426814054
 31
0.0
  0
LINE
  5
149
330
111
100
AcDbEntity
  8
DV3_Standard
  6
CENTER2
 62
     7
100
AcDbLine
 10
42.4551769609
 20
246.4426809584
 30
0.0
 11
42.4551769609
 21
206.4426818525
 31
0.0
  0
LINE
  5
14A
330
111
100
AcDbEntity
  8
DV3_Standard
  6
CENTER2
 62
     7
100
AcDbLine
 10
67.4551764021
 20
226.4426814054
 30
0.0
 11
68.8724949456
 21
226.4426814054
 31
0.0
  0
LINE
  5
14B
330
111
100
AcDbEntity
  8
DV3_Standard
  6
CENTER2
 62
     7
100
AcDbLine
 10
42.4551769609
 20
251.4426808466
 30
0.0
 11
42.4551769609
 21
252.8599993902
 31
0.0
  0
LINE
  5
14C
330
111
100
AcDbEntity
  8
DV3_Standard
  6
CENTER2
 62
     7
100
AcDbLine
 10
17.4551775197
 20
226.4426814054
 30
0.0
 11
16.0378589761
 21
226.4426814054
 31
0.0
  0
LINE
  5
14D
330
111
100
AcDbEntity
  8
DV3_Standard
  6
CENTER2
 62
     7
100
AcDbLine
 10
42.4551769609
 20
201.4426819642
 30
0.0
 11
42.4551769609
 21
200.0253634207
 31
0.0
  0
ENDBLK
  5
14F
330
111
100
AcDbEntity
  8
0
100
AcDbBlockEnd
  0
ENDSEC
  0
SECTION
  2
ENTITIES
  0
INSERT
  5
5F
330
1F
100
AcDbEntity
  8
Default
100
AcDbBlockReference
  2
SE
 10
0.0
 20
0.0
 30
0.0
  0
INSERT
  5
B9
330
1F
100
AcDbEntity
  8
Default
100
AcDbBlockReference
  2
SE1
 10
0.0
 20
0.0
 30
0.0
  0
INSERT
  5
112
330
1F
100
AcDbEntity
  8
Default
100
AcDbBlockReference
  2
SE2
 10
0.0
 20
0.0
 30
0.0
  0
TEXT
  5
151
330
1F
100
AcDbEntity
  8
Default
  6
Continuous
 62
     7
100
AcDbText
 10
5.9362635081
 20
53.4225120485
 30
0.0
 40
10.0
  1
Grohe AG^J
  7
SEACAD_seiso_ttf
 11
5.9362635081
 21
63.4225120485
 31
0.0
100
AcDbText
 73
     3
  0
TEXT
  5
152
330
1F
100
AcDbEntity
  8
Default
  6
Continuous
 62
     7
100
AcDbText
 10
5.9362635081
 20
37.0588756849
 30
0.0
 40
10.0
  1
 
  7
SEACAD_seiso_ttf
 11
5.9362635081
 21
47.0588756849
 31
0.0
100
AcDbText
 73
     3
  0
TEXT
  5
153
330
1F
100
AcDbEntity
  8
Default
  6
Continuous
 62
     7
100
AcDbText
 10
5.9362635081
 20
20.6952393213
 30
0.0
 40
10.0
  1
ecn: 
  7
SEACAD_seiso_ttf
 11
5.9362635081
 21
30.6952393213
 31
0.0
100
AcDbText
 73
     3
  0
TEXT
  5
154
330
1F
100
AcDbEntity
  8
Default
  6
Continuous
 62
     7
100
AcDbText
 10
5.9362635081
 20
4.3316029576
 30
0.0
 40
10.0
  1
unit: mm
  7
SEACAD_seiso_ttf
 11
5.9362635081
 21
14.3316029576
 31
0.0
100
AcDbText
 73
     3
  0
LINE
  5
155
330
1F
100
AcDbEntity
  8
Default
  6
Continuous
 62
     7
100
AcDbLine
 10
0.0
 20
0.0
 30
0.0
 11
100.0
 21
0.0
 31
0.0
  0
LINE
  5
156
330
1F
100
AcDbEntity
  8
Default
  6
Continuous
 62
     7
100
AcDbLine
 10
0.0
 20
0.0
 30
0.0
 11
0.0
 21
100.0
 31
0.0
  0
TEXT
  5
157
330
1F
100
AcDbEntity
  8
Default
  6
Continuous
 62
     7
100
AcDbText
 10
24.3923665681
 20
-18.2375342018
 30
0.0
 40
10.0
  1
100 mm
  7
SEACAD_seiso_ttf
 11
24.3923665681
 21
-8.2375342018
 31
0.0
100
AcDbText
 73
     3
  0
TEXT
  5
158
330
1F
100
AcDbEntity
  8
Default
  6
Continuous
 62
     7
100
AcDbText
 10
-7.6150308803
 20
24.6231930421
 30
0.0
 40
10.0
  1
100 mm
 50
90.0
  7
SEACAD_seiso_ttf
 11
-17.6150308803
 21
24.6231930421
 31
0.0
100
AcDbText
 73
     3
  0
TEXT
  5
159
330
1F
100
AcDbEntity
  8
Default
  6
Continuous
 62
     7
100
AcDbText
 10
28.4878128572
 20
20.0907663715
 30
0.0
 40
10.0
  1
214670
  7
SEACAD_seiso_ttf
 11
28.4878128572
 21
30.0907663715
 31
0.0
100
AcDbText
 73
     3
  0
TEXT
  5
15A
330
1F
100
AcDbEntity
  8
Default
  6
Continuous
 62
     7
100
AcDbText
 10
5.9012241913
 20
36.7242780188
 30
0.0
 40
10.0
  1
32186000
  7
SEACAD_seiso_ttf
 11
5.9012241913
 21
46.7242780188
 31
0.0
100
AcDbText
 73
     3
  0
ENDSEC
  0
SECTION
  2
OBJECTS
  0
DICTIONARY
  5
C
330
0
100
AcDbDictionary
281
     1
  3
ACAD_GROUP
350
D
  3
ACAD_LAYOUT
350
1A
  3
ACAD_MLEADERSTYLE
350
15E
  3
ACAD_MLINESTYLE
350
17
  3
ACAD_PLOTSETTINGS
350
19
  3
ACAD_PLOTSTYLENAME
350
E
  3
ACAD_SCALELIST
350
3B
  3
ACAD_TABLESTYLE
350
15D
  3
ACAD_VISUALSTYLE
350
2A
  3
AcDbVariableDictionary
350
15B
  0
DICTIONARY
  5
D
102
{ACAD_REACTORS
330
C
102
}
330
C
100
AcDbDictionary
281
     1
  0
DICTIONARY
  5
1A
102
{ACAD_REACTORS
330
C
102
}
330
C
100
AcDbDictionary
281
     1
  3
Layout1
350
1E
  3
Model
350
22
  0
DICTIONARY
  5
15E
102
{ACAD_REACTORS
330
C
102
}
330
C
100
AcDbDictionary
281
     1
  0
DICTIONARY
  5
17
102
{ACAD_REACTORS
330
C
102
}
330
C
100
AcDbDictionary
281
     1
  3
Standard
350
18
  0
DICTIONARY
  5
19
102
{ACAD_REACTORS
330
C
102
}
330
C
100
AcDbDictionary
281
     1
  0
ACDBDICTIONARYWDFLT
  5
E
102
{ACAD_REACTORS
330
C
102
}
330
C
100
AcDbDictionary
281
     1
  3
Normal
350
F
100
AcDbDictionaryWithDefault
340
F
  0
DICTIONARY
  5
3B
102
{ACAD_REACTORS
330
C
102
}
330
C
100
AcDbDictionary
281
     1
  3
A0
350
3C
  3
A1
350
3D
  3
A2
350
3E
  3
A3
350
3F
  3
A4
350
40
  3
A5
350
41
  3
A6
350
42
  3
A7
350
43
  3
A8
350
44
  3
A9
350
45
  3
B0
350
46
  3
B1
350
47
  3
B2
350
48
  3
B3
350
49
  3
B4
350
4A
  3
B5
350
4B
  3
B6
350
4C
  3
B7
350
4D
  3
B8
350
4E
  3
B9
350
4F
  3
C0
350
50
  3
C1
350
51
  3
C2
350
52
  3
C3
350
53
  3
C4
350
54
  3
C5
350
55
  3
C6
350
56
  3
C7
350
57
  3
C8
350
58
  3
C9
350
59
  3
D0
350
5A
  3
D1
350
5B
  3
D2
350
5C
  0
DICTIONARY
  5
15D
102
{ACAD_REACTORS
330
C
102
}
330
C
100
AcDbDictionary
281
     1
  0
DICTIONARY
  5
2A
102
{ACAD_REACTORS
330
C
102
}
330
C
100
AcDbDictionary
281
     1
  3
2dWireframe
350
2F
  3
3D Hidden
350
31
  3
3dWireframe
350
30
  3
Basic
350
32
  3
Brighten
350
36
  3
ColorChange
350
3A
  3
Conceptual
350
34
  3
Dim
350
35
  3
Facepattern
350
39
  3
Flat
350
2B
  3
FlatWithEdges
350
2C
  3
Gouraud
350
2D
  3
GouraudWithEdges
350
2E
  3
Linepattern
350
38
  3
Realistic
350
33
  3
Thicken
350
37
  0
DICTIONARY
  5
15B
102
{ACAD_REACTORS
330
C
102
}
330
C
100
AcDbDictionary
281
     1
  3
CANNOSCALE
350
15C
  3
PSOLHEIGHT
350
160
  3
PSOLWIDTH
350
15F
  0
LAYOUT
  5
1E
102
{ACAD_REACTORS
330
1A
102
}
330
1A
100
AcDbPlotSettings
  1

  2
none_device
  4

  6

 40
0.0
 41
0.0
 42
0.0
 43
0.0
 44
0.0
 45
0.0
 46
0.0
 47
0.0
 48
0.0
 49
0.0
140
0.0
141
0.0
142
1.0
143
1.0
 70
   688
 72
     0
 73
     0
 74
     5
  7

 75
    16
147
1.0
148
0.0
149
0.0
100
AcDbLayout
  1
Layout1
 70
     1
 71
     1
 10
0.0
 20
0.0
 11
1682.0
 21
2378.0
 12
0.0
 22
0.0
 32
0.0
 14
0.0
 24
0.0
 34
0.0
 15
1682.0
 25
2378.0
 35
0.0
146
0.0
 13
0.0
 23
0.0
 33
0.0
 16
1.0
 26
0.0
 36
0.0
 17
0.0
 27
1.0
 37
0.0
 76
     0
330
1B
  0
LAYOUT
  5
22
102
{ACAD_REACTORS
330
1A
102
}
330
1A
100
AcDbPlotSettings
  1

  2
none_device
  4

  6

 40
0.0
 41
0.0
 42
0.0
 43
0.0
 44
0.0
 45
0.0
 46
0.0
 47
0.0
 48
0.0
 49
0.0
140
0.0
141
0.0
142
1.0
143
1.0
 70
  1712
 72
     0
 73
     0
 74
     0
  7

 75
     0
147
1.0
148
0.0
149
0.0
100
AcDbLayout
  1
Model
 70
     1
 71
     0
 10
0.0
 20
0.0
 11
1682.0
 21
2378.0
 12
0.0
 22
0.0
 32
0.0
 14
0.0
 24
0.0
 34
0.0
 15
1682.0
 25
2378.0
 35
0.0
146
0.0
 13
0.0
 23
0.0
 33
0.0
 16
1.0
 26
0.0
 36
0.0
 17
0.0
 27
1.0
 37
0.0
 76
     0
330
1F
331
29
  0
MLINESTYLE
  5
18
102
{ACAD_REACTORS
330
17
102
}
330
17
100
AcDbMlineStyle
  2
Standard
 70
     0
  3

 62
   256
 51
90.0
 52
90.0
 71
     2
 49
0.5
 62
   256
  6
BYLAYER
 49
-0.5
 62
   256
  6
BYLAYER
  0
ACDBPLACEHOLDER
  5
F
102
{ACAD_REACTORS
330
E
102
}
330
E
  0
SCALE
  5
3C
102
{ACAD_REACTORS
330
3B
102
}
330
3B
100
AcDbScale
 70
     0
300
1:1
140
1.0
141
1.0
290
     1
  0
SCALE
  5
3D
102
{ACAD_REACTORS
330
3B
102
}
330
3B
100
AcDbScale
 70
     0
300
1:2
140
1.0
141
2.0
290
     0
  0
SCALE
  5
3E
102
{ACAD_REACTORS
330
3B
102
}
330
3B
100
AcDbScale
 70
     0
300
1:4
140
1.0
141
4.0
290
     0
  0
SCALE
  5
3F
102
{ACAD_REACTORS
330
3B
102
}
330
3B
100
AcDbScale
 70
     0
300
1:5
140
1.0
141
5.0
290
     0
  0
SCALE
  5
40
102
{ACAD_REACTORS
330
3B
102
}
330
3B
100
AcDbScale
 70
     0
300
1:8
140
1.0
141
8.0
290
     0
  0
SCALE
  5
41
102
{ACAD_REACTORS
330
3B
102
}
330
3B
100
AcDbScale
 70
     0
300
1:10
140
1.0
141
10.0
290
     0
  0
SCALE
  5
42
102
{ACAD_REACTORS
330
3B
102
}
330
3B
100
AcDbScale
 70
     0
300
1:16
140
1.0
141
16.0
290
     0
  0
SCALE
  5
43
102
{ACAD_REACTORS
330
3B
102
}
330
3B
100
AcDbScale
 70
     0
300
1:20
140
1.0
141
20.0
290
     0
  0
SCALE
  5
44
102
{ACAD_REACTORS
330
3B
102
}
330
3B
100
AcDbScale
 70
     0
300
1:30
140
1.0
141
30.0
290
     0
  0
SCALE
  5
45
102
{ACAD_REACTORS
330
3B
102
}
330
3B
100
AcDbScale
 70
     0
300
1:40
140
1.0
141
40.0
290
     0
  0
SCALE
  5
46
102
{ACAD_REACTORS
330
3B
102
}
330
3B
100
AcDbScale
 70
     0
300
1:50
140
1.0
141
50.0
290
     0
  0
SCALE
  5
47
102
{ACAD_REACTORS
330
3B
102
}
330
3B
100
AcDbScale
 70
     0
300
1:100
140
1.0
141
100.0
290
     0
  0
SCALE
  5
48
102
{ACAD_REACTORS
330
3B
102
}
330
3B
100
AcDbScale
 70
     0
300
2:1
140
2.0
141
1.0
290
     0
  0
SCALE
  5
49
102
{ACAD_REACTORS
330
3B
102
}
330
3B
100
AcDbScale
 70
     0
300
4:1
140
4.0
141
1.0
290
     0
  0
SCALE
  5
4A
102
{ACAD_REACTORS
330
3B
102
}
330
3B
100
AcDbScale
 70
     0
300
8:1
140
8.0
141
1.0
290
     0
  0
SCALE
  5
4B
102
{ACAD_REACTORS
330
3B
102
}
330
3B
100
AcDbScale
 70
     0
300
10:1
140
10.0
141
1.0
290
     0
  0
SCALE
  5
4C
102
{ACAD_REACTORS
330
3B
102
}
330
3B
100
AcDbScale
 70
     0
300
100:1
140
100.0
141
1.0
290
     0
  0
SCALE
  5
4D
102
{ACAD_REACTORS
330
3B
102
}
330
3B
100
AcDbScale
 70
     0
300
1/128" = 1'-0"
140
0.0078125
141
12.0
290
     0
  0
SCALE
  5
4E
102
{ACAD_REACTORS
330
3B
102
}
330
3B
100
AcDbScale
 70
     0
300
1/64" = 1'-0"
140
0.015625
141
12.0
290
     0
  0
SCALE
  5
4F
102
{ACAD_REACTORS
330
3B
102
}
330
3B
100
AcDbScale
 70
     0
300
1/32" = 1'-0"
140
0.03125
141
12.0
290
     0
  0
SCALE
  5
50
102
{ACAD_REACTORS
330
3B
102
}
330
3B
100
AcDbScale
 70
     0
300
1/16" = 1'-0"
140
0.0625
141
12.0
290
     0
  0
SCALE
  5
51
102
{ACAD_REACTORS
330
3B
102
}
330
3B
100
AcDbScale
 70
     0
300
3/32" = 1'-0"
140
0.09375
141
12.0
290
     0
  0
SCALE
  5
52
102
{ACAD_REACTORS
330
3B
102
}
330
3B
100
AcDbScale
 70
     0
300
1/8" = 1'-0"
140
0.125
141
12.0
290
     0
  0
SCALE
  5
53
102
{ACAD_REACTORS
330
3B
102
}
330
3B
100
AcDbScale
 70
     0
300
3/16" = 1'-0"
140
0.1875
141
12.0
290
     0
  0
SCALE
  5
54
102
{ACAD_REACTORS
330
3B
102
}
330
3B
100
AcDbScale
 70
     0
300
1/4" = 1'-0"
140
0.25
141
12.0
290
     0
  0
SCALE
  5
55
102
{ACAD_REACTORS
330
3B
102
}
330
3B
100
AcDbScale
 70
     0
300
3/8" = 1'-0"
140
0.375
141
12.0
290
     0
  0
SCALE
  5
56
102
{ACAD_REACTORS
330
3B
102
}
330
3B
100
AcDbScale
 70
     0
300
1/2" = 1'-0"
140
0.5
141
12.0
290
     0
  0
SCALE
  5
57
102
{ACAD_REACTORS
330
3B
102
}
330
3B
100
AcDbScale
 70
     0
300
3/4" = 1'-0"
140
0.75
141
12.0
290
     0
  0
SCALE
  5
58
102
{ACAD_REACTORS
330
3B
102
}
330
3B
100
AcDbScale
 70
     0
300
1" = 1'-0"
140
1.0
141
12.0
290
     0
  0
SCALE
  5
59
102
{ACAD_REACTORS
330
3B
102
}
330
3B
100
AcDbScale
 70
     0
300
1-1/2" = 1'-0"
140
1.5
141
12.0
290
     0
  0
SCALE
  5
5A
102
{ACAD_REACTORS
330
3B
102
}
330
3B
100
AcDbScale
 70
     0
300
3" = 1'-0"
140
3.0
141
12.0
290
     0
  0
SCALE
  5
5B
102
{ACAD_REACTORS
330
3B
102
}
330
3B
100
AcDbScale
 70
     0
300
6" = 1'-0"
140
6.0
141
12.0
290
     0
  0
SCALE
  5
5C
102
{ACAD_REACTORS
330
3B
102
}
330
3B
100
AcDbScale
 70
     0
300
1'-0" = 1'-0"
140
12.0
141
12.0
290
     0
  0
VISUALSTYLE
  5
2F
102
{ACAD_REACTORS
330
2A
102
}
330
2A
100
AcDbVisualStyle
  2
2dWireframe
 70
     4
 71
     0
 72
     2
 73
     0
 90
        0
 40
-0.6
 41
-30.0
 62
     5
 63
     7
 74
     1
 91
        4
 64
     7
 65
   257
 75
     1
175
     1
 42
1.0
 92
        0
 66
   257
 43
1.0
 76
     1
 77
     6
 78
     2
 67
     7
 79
     5
170
     0
171
     0
290
     0
174
     0
 93
        1
 44
0.0
173
     0
291
     0
 45
0.0
1001
ACAD
1000
AcDbSavedByObjectVersion
1070
     0
  0
VISUALSTYLE
  5
31
102
{ACAD_REACTORS
330
2A
102
}
330
2A
100
AcDbVisualStyle
  2
3D Hidden
 70
     6
 71
     1
 72
     2
 73
     2
 90
        0
 40
-0.6
 41
-30.0
 62
     5
 63
     7
 74
     2
 91
        2
 64
     7
 65
   257
 75
     2
175
     1
 42
40.0
 92
        0
 66
   257
 43
1.0
 76
     1
 77
     6
 78
     2
 67
     7
 79
     3
170
     0
171
     0
290
     0
174
     0
 93
        1
 44
0.0
173
     0
291
     0
 45
0.0
1001
ACAD
1000
AcDbSavedByObjectVersion
1070
     0
  0
VISUALSTYLE
  5
30
102
{ACAD_REACTORS
330
2A
102
}
330
2A
100
AcDbVisualStyle
  2
3dWireframe
 70
     5
 71
     0
 72
     2
 73
     0
 90
        0
 40
-0.6
 41
-30.0
 62
     5
 63
     7
 74
     1
 91
        4
 64
     7
 65
   257
 75
     1
175
     1
 42
1.0
 92
        0
 66
   257
 43
1.0
 76
     1
 77
     6
 78
     2
 67
     7
 79
     5
170
     0
171
     0
290
     0
174
     0
 93
        1
 44
0.0
173
     0
291
     0
 45
0.0
1001
ACAD
1000
AcDbSavedByObjectVersion
1070
     0
  0
VISUALSTYLE
  5
32
102
{ACAD_REACTORS
330
2A
102
}
330
2A
100
AcDbVisualStyle
  2
Basic
 70
     7
 71
     1
 72
     0
 73
     1
 90
        0
 40
-0.6
 41
-30.0
 62
     5
 63
     7
 74
     0
 91
        4
 64
     7
 65
   257
 75
     1
175
     1
 42
1.0
 92
        8
 66
     7
 43
1.0
 76
     1
 77
     6
 78
     2
 67
     7
 79
     5
170
     0
171
     0
290
     0
174
     0
 93
        1
 44
0.0
173
     0
291
     1
 45
0.0
1001
ACAD
1000
AcDbSavedByObjectVersion
1070
     0
  0
VISUALSTYLE
  5
36
102
{ACAD_REACTORS
330
2A
102
}
330
2A
100
AcDbVisualStyle
  2
Brighten
 70
    12
 71
     2
 72
     2
 73
     0
 90
        0
 40
-0.6
 41
-30.0
 62
     5
 63
     7
 74
     1
 91
        4
 64
     7
 65
   257
 75
     1
175
     1
 42
1.0
 92
        8
 66
     7
 43
1.0
 76
     1
 77
     6
 78
     2
 67
     7
 79
     5
170
     0
171
     0
290
     0
174
     0
 93
        1
 44
50.0
173
     0
291
     1
 45
0.0
1001
ACAD
1000
AcDbSavedByObjectVersion
1070
     0
  0
VISUALSTYLE
  5
3A
102
{ACAD_REACTORS
330
2A
102
}
330
2A
100
AcDbVisualStyle
  2
ColorChange
 70
    16
 71
     2
 72
     2
 73
     3
 90
        0
 40
-0.6
 41
-30.0
 62
     5
 63
     8
 74
     1
 91
        4
 64
     7
 65
   257
 75
     1
175
     1
 42
1.0
 92
        8
 66
     8
 43
1.0
 76
     1
 77
     6
 78
     2
 67
     7
 79
     5
170
     0
171
     0
290
     0
174
     0
 93
        1
 44
0.0
173
     0
291
     1
 45
0.0
1001
ACAD
1000
AcDbSavedByObjectVersion
1070
     0
  0
VISUALSTYLE
  5
34
102
{ACAD_REACTORS
330
2A
102
}
330
2A
100
AcDbVisualStyle
  2
Conceptual
 70
     9
 71
     3
 72
     2
 73
     0
 90
        0
 40
-0.6
 41
-30.0
 62
     5
 63
     7
 74
     2
 91
        2
 64
     7
 65
   257
 75
     1
175
     1
 42
40.0
 92
        8
 66
     7
 43
1.0
 76
     1
 77
     6
 78
     2
 67
     7
 79
     3
170
     0
171
     0
290
     0
174
     0
 93
        1
 44
0.0
173
     0
291
     0
 45
0.0
1001
ACAD
1000
AcDbSavedByObjectVersion
1070
     0
  0
VISUALSTYLE
  5
35
102
{ACAD_REACTORS
330
2A
102
}
330
2A
100
AcDbVisualStyle
  2
Dim
 70
    11
 71
     2
 72
     2
 73
     0
 90
        0
 40
-0.6
 41
-30.0
 62
     5
 63
     7
 74
     1
 91
        4
 64
     7
 65
   257
 75
     1
175
     1
 42
1.0
 92
        8
 66
     7
 43
1.0
 76
     1
 77
     6
 78
     2
 67
     7
 79
     5
170
     0
171
     0
290
     0
174
     0
 93
        1
 44
-50.0
173
     0
291
     1
 45
0.0
1001
ACAD
1000
AcDbSavedByObjectVersion
1070
     0
  0
VISUALSTYLE
  5
39
102
{ACAD_REACTORS
330
2A
102
}
330
2A
100
AcDbVisualStyle
  2
Facepattern
 70
    15
 71
     2
 72
     2
 73
     0
 90
        0
 40
-0.6
 41
-30.0
 62
     5
 63
     7
 74
     1
 91
        4
 64
     7
 65
   257
 75
     1
175
     1
 42
1.0
 92
        8
 66
     7
 43
1.0
 76
     1
 77
     6
 78
     2
 67
     7
 79
     5
170
     0
171
     0
290
     0
174
     0
 93
        1
 44
0.0
173
     0
291
     1
 45
0.0
1001
ACAD
1000
AcDbSavedByObjectVersion
1070
     0
  0
VISUALSTYLE
  5
2B
102
{ACAD_REACTORS
330
2A
102
}
330
2A
100
AcDbVisualStyle
  2
Flat
 70
     0
 71
     2
 72
     1
 73
     1
 90
        2
 40
-0.6
 41
30.0
 62
     5
 63
     7
 74
     0
 91
        4
 64
     7
 65
   257
 75
     1
175
     1
 42
1.0
 92
        8
 66
     7
 43
1.0
 76
     1
 77
     6
 78
     2
 67
     7
 79
     5
170
     0
171
     0
290
     0
174
     0
 93
       13
 44
0.0
173
     0
291
     1
 45
0.0
1001
ACAD
1000
AcDbSavedByObjectVersion
1070
     0
  0
VISUALSTYLE
  5
2C
102
{ACAD_REACTORS
330
2A
102
}
330
2A
100
AcDbVisualStyle
  2
FlatWithEdges
 70
     1
 71
     2
 72
     1
 73
     1
 90
        2
 40
-0.6
 41
30.0
 62
     5
 63
     7
 74
     1
 91
        4
 64
     7
 65
   257
 75
     1
175
     1
 42
1.0
 92
        0
 66
   257
 43
1.0
 76
     1
 77
     6
 78
     2
 67
     7
 79
     5
170
     0
171
     0
290
     0
174
     0
 93
       13
 44
0.0
173
     0
291
     1
 45
0.0
1001
ACAD
1000
AcDbSavedByObjectVersion
1070
     0
  0
VISUALSTYLE
  5
2D
102
{ACAD_REACTORS
330
2A
102
}
330
2A
100
AcDbVisualStyle
  2
Gouraud
 70
     2
 71
     2
 72
     2
 73
     1
 90
        2
 40
-0.6
 41
30.0
 62
     5
 63
     7
 74
     0
 91
        4
 64
     7
 65
   257
 75
     1
175
     1
 42
1.0
 92
        0
 66
     7
 43
1.0
 76
     1
 77
     6
 78
     2
 67
     7
 79
     5
170
     0
171
     0
290
     0
174
     0
 93
       13
 44
0.0
173
     0
291
     1
 45
0.0
1001
ACAD
1000
AcDbSavedByObjectVersion
1070
     0
  0
VISUALSTYLE
  5
2E
102
{ACAD_REACTORS
330
2A
102
}
330
2A
100
AcDbVisualStyle
  2
GouraudWithEdges
 70
     3
 71
     2
 72
     2
 73
     1
 90
        2
 40
-0.6
 41
30.0
 62
     5
 63
     7
 74
     1
 91
        4
 64
     7
 65
   257
 75
     1
175
     1
 42
1.0
 92
        0
 66
   257
 43
1.0
 76
     1
 77
     6
 78
     2
 67
     7
 79
     5
170
     0
171
     0
290
     0
174
     0
 93
       13
 44
0.0
173
     0
291
     1
 45
0.0
1001
ACAD
1000
AcDbSavedByObjectVersion
1070
     0
  0
VISUALSTYLE
  5
38
102
{ACAD_REACTORS
330
2A
102
}
330
2A
100
AcDbVisualStyle
  2
Linepattern
 70
    14
 71
     2
 72
     2
 73
     0
 90
        0
 40
-0.6
 41
-30.0
 62
     5
 63
     7
 74
     1
 91
        4
 64
     7
 65
   257
 75
     7
175
     7
 42
1.0
 92
        8
 66
     7
 43
1.0
 76
     1
 77
     6
 78
     2
 67
     7
 79
     5
170
     0
171
     0
290
     0
174
     0
 93
        1
 44
0.0
173
     0
291
     1
 45
0.0
1001
ACAD
1000
AcDbSavedByObjectVersion
1070
     0
  0
VISUALSTYLE
  5
33
102
{ACAD_REACTORS
330
2A
102
}
330
2A
100
AcDbVisualStyle
  2
Realistic
 70
     8
 71
     2
 72
     2
 73
     0
 90
        0
 40
-0.6
 41
-30.0
 62
     5
 63
     7
 74
     1
 91
        0
 64
     7
 65
   257
 75
     1
175
     1
 42
1.0
 92
        8
 66
     8
 43
1.0
 76
     1
 77
     6
 78
     2
 67
     7
 79
     5
170
     0
171
     0
290
     0
174
     0
 93
       13
 44
0.0
173
     0
291
     0
 45
0.0
1001
ACAD
1000
AcDbSavedByObjectVersion
1070
     0
  0
VISUALSTYLE
  5
37
102
{ACAD_REACTORS
330
2A
102
}
330
2A
100
AcDbVisualStyle
  2
Thicken
 70
    13
 71
     2
 72
     2
 73
     0
 90
        0
 40
-0.6
 41
-30.0
 62
     5
 63
     7
 74
     1
 91
        4
 64
     7
 65
   257
 75
     1
175
     1
 42
1.0
 92
       12
 66
     7
 43
1.0
 76
     1
 77
     6
 78
     2
 67
     7
 79
     5
170
     0
171
     0
290
     0
174
     0
 93
        1
 44
0.0
173
     0
291
     1
 45
0.0
1001
ACAD
1000
AcDbSavedByObjectVersion
1070
     0
  0
DICTIONARYVAR
  5
15C
102
{ACAD_REACTORS
330
15B
102
}
330
15B
100
DictionaryVariables
280
     0
  1
1:1
  0
DICTIONARYVAR
  5
160
102
{ACAD_REACTORS
330
15B
102
}
330
15B
100
DictionaryVariables
280
     0
  1
80.000000
  0
DICTIONARYVAR
  5
15F
102
{ACAD_REACTORS
330
15B
102
}
330
15B
100
DictionaryVariables
280
     0
  1
5.000000
  0
ENDSEC
  0
EOF
