  0
SECTION
  2
HEADER
  9
$ACADVER
  1
AC1015
  9
$ACADMAINTVER
 70
     6
  9
$DWGCODEPAGE
  3
ANSI_1252
  9
$INSBASE
 10
0.0
 20
0.0
 30
0.0
  9
$EXTMIN
 10
0.0
 20
0.0
 30
0.0
  9
$EXTMAX
 10
1682.0
 20
2378.0
 30
0.0
  9
$LIMMIN
 10
0.0
 20
0.0
  9
$LIMMAX
 10
1682.0
 20
2378.0
  9
$ORTHOMODE
 70
     0
  9
$REGENMODE
 70
     1
  9
$FILLMODE
 70
     1
  9
$QTEXTMODE
 70
     0
  9
$MIRRTEXT
 70
     1
  9
$LTSCALE
 40
1.0
  9
$ATTMODE
 70
     1
  9
$TEXTSIZE
 40
2.5
  9
$TRACEWID
 40
1.0
  9
$TEXTSTYLE
  7
Standard
  9
$CLAYER
  8
0
  9
$CELTYPE
  6
ByLayer
  9
$CECOLOR
 62
   256
  9
$CELTSCALE
 40
1.0
  9
$DISPSILH
 70
     0
  9
$DIMSCALE
 40
1.0
  9
$DIMASZ
 40
2.5
  9
$DIMEXO
 40
0.625
  9
$DIMDLI
 40
3.75
  9
$DIMRND
 40
0.0
  9
$DIMDLE
 40
0.0
  9
$DIMEXE
 40
1.25
  9
$DIMTP
 40
0.0
  9
$DIMTM
 40
0.0
  9
$DIMTXT
 40
2.5
  9
$DIMCEN
 40
2.5
  9
$DIMTSZ
 40
0.0
  9
$DIMTOL
 70
     0
  9
$DIMLIM
 70
     0
  9
$DIMTIH
 70
     0
  9
$DIMTOH
 70
     0
  9
$DIMSE1
 70
     0
  9
$DIMSE2
 70
     0
  9
$DIMTAD
 70
     1
  9
$DIMZIN
 70
     8
  9
$DIMBLK
  1

  9
$DIMASO
 70
     1
  9
$DIMSHO
 70
     1
  9
$DIMPOST
  1

  9
$DIMAPOST
  1

  9
$DIMALT
 70
     0
  9
$DIMALTD
 70
     3
  9
$DIMALTF
 40
0.0393700787
  9
$DIMLFAC
 40
1.0
  9
$DIMTOFL
 70
     1
  9
$DIMTVP
 40
0.0
  9
$DIMTIX
 70
     0
  9
$DIMSOXD
 70
     0
  9
$DIMSAH
 70
     0
  9
$DIMBLK1
  1

  9
$DIMBLK2
  1

  9
$DIMSTYLE
  2
ISO-25
  9
$DIMCLRD
 70
     0
  9
$DIMCLRE
 70
     0
  9
$DIMCLRT
 70
     0
  9
$DIMTFAC
 40
1.0
  9
$DIMGAP
 40
0.625
  9
$DIMJUST
 70
     0
  9
$DIMSD1
 70
     0
  9
$DIMSD2
 70
     0
  9
$DIMTOLJ
 70
     0
  9
$DIMTZIN
 70
     8
  9
$DIMALTZ
 70
     0
  9
$DIMALTTZ
 70
     0
  9
$DIMUPT
 70
     0
  9
$DIMDEC
 70
     2
  9
$DIMTDEC
 70
     2
  9
$DIMALTU
 70
     2
  9
$DIMALTTD
 70
     3
  9
$DIMTXSTY
  7
Standard
  9
$DIMAUNIT
 70
     0
  9
$DIMADEC
 70
     0
  9
$DIMALTRND
 40
0.0
  9
$DIMAZIN
 70
     0
  9
$DIMDSEP
 70
    44
  9
$DIMATFIT
 70
     3
  9
$DIMFRAC
 70
     0
  9
$DIMLDRBLK
  1

  9
$DIMLUNIT
 70
     2
  9
$DIMLWD
 70
    -2
  9
$DIMLWE
 70
    -2
  9
$DIMTMOVE
 70
     0
  9
$LUNITS
 70
     2
  9
$LUPREC
 70
     4
  9
$SKETCHINC
 40
1.0
  9
$FILLETRAD
 40
10.0
  9
$AUNITS
 70
     0
  9
$AUPREC
 70
     0
  9
$MENU
  1
.
  9
$ELEVATION
 40
0.0
  9
$PELEVATION
 40
0.0
  9
$THICKNESS
 40
0.0
  9
$LIMCHECK
 70
     0
  9
$CHAMFERA
 40
10.0
  9
$CHAMFERB
 40
10.0
  9
$CHAMFERC
 40
20.0
  9
$CHAMFERD
 40
0.0
  9
$SKPOLY
 70
     0
  9
$TDCREATE
 40
2455335.43725441
  9
$TDUCREATE
 40
2455335.353921076
  9
$TDUPDATE
 40
2455335.437254421
  9
$TDUUPDATE
 40
2455335.353921088
  9
$TDINDWG
 40
0.0000000116
  9
$TDUSRTIMER
 40
0.0000000116
  9
$USRTIMER
 70
     1
  9
$ANGBASE
 50
0.0
  9
$ANGDIR
 70
     0
  9
$PDMODE
 70
     0
  9
$PDSIZE
 40
0.0
  9
$PLINEWID
 40
0.0
  9
$SPLFRAME
 70
     0
  9
$SPLINETYPE
 70
     6
  9
$SPLINESEGS
 70
     8
  9
$HANDSEED
  5
1D9
  9
$SURFTAB1
 70
     6
  9
$SURFTAB2
 70
     6
  9
$SURFTYPE
 70
     6
  9
$SURFU
 70
     6
  9
$SURFV
 70
     6
  9
$UCSBASE
  2

  9
$UCSNAME
  2

  9
$UCSORG
 10
0.0
 20
0.0
 30
0.0
  9
$UCSXDIR
 10
1.0
 20
0.0
 30
0.0
  9
$UCSYDIR
 10
0.0
 20
1.0
 30
0.0
  9
$UCSORTHOREF
  2

  9
$UCSORTHOVIEW
 70
     0
  9
$UCSORGTOP
 10
0.0
 20
0.0
 30
0.0
  9
$UCSORGBOTTOM
 10
0.0
 20
0.0
 30
0.0
  9
$UCSORGLEFT
 10
0.0
 20
0.0
 30
0.0
  9
$UCSORGRIGHT
 10
0.0
 20
0.0
 30
0.0
  9
$UCSORGFRONT
 10
0.0
 20
0.0
 30
0.0
  9
$UCSORGBACK
 10
0.0
 20
0.0
 30
0.0
  9
$PUCSBASE
  2

  9
$PUCSNAME
  2

  9
$PUCSORG
 10
0.0
 20
0.0
 30
0.0
  9
$PUCSXDIR
 10
1.0
 20
0.0
 30
0.0
  9
$PUCSYDIR
 10
0.0
 20
1.0
 30
0.0
  9
$PUCSORTHOREF
  2

  9
$PUCSORTHOVIEW
 70
     0
  9
$PUCSORGTOP
 10
0.0
 20
0.0
 30
0.0
  9
$PUCSORGBOTTOM
 10
0.0
 20
0.0
 30
0.0
  9
$PUCSORGLEFT
 10
0.0
 20
0.0
 30
0.0
  9
$PUCSORGRIGHT
 10
0.0
 20
0.0
 30
0.0
  9
$PUCSORGFRONT
 10
0.0
 20
0.0
 30
0.0
  9
$PUCSORGBACK
 10
0.0
 20
0.0
 30
0.0
  9
$USERI1
 70
     0
  9
$USERI2
 70
     0
  9
$USERI3
 70
     0
  9
$USERI4
 70
     0
  9
$USERI5
 70
     0
  9
$USERR1
 40
0.0
  9
$USERR2
 40
0.0
  9
$USERR3
 40
0.0
  9
$USERR4
 40
0.0
  9
$USERR5
 40
0.0
  9
$WORLDVIEW
 70
     1
  9
$SHADEDGE
 70
     3
  9
$SHADEDIF
 70
    70
  9
$TILEMODE
 70
     1
  9
$MAXACTVP
 70
    64
  9
$PINSBASE
 10
0.0
 20
0.0
 30
0.0
  9
$PLIMCHECK
 70
     0
  9
$PEXTMIN
 10
0.0
 20
0.0
 30
0.0
  9
$PEXTMAX
 10
1682.0
 20
2378.0
 30
0.0
  9
$PLIMMIN
 10
0.0
 20
0.0
  9
$PLIMMAX
 10
1682.0
 20
2378.0
  9
$UNITMODE
 70
     0
  9
$VISRETAIN
 70
     1
  9
$PLINEGEN
 70
     0
  9
$PSLTSCALE
 70
     1
  9
$TREEDEPTH
 70
  3020
  9
$CMLSTYLE
  2
Standard
  9
$CMLJUST
 70
     0
  9
$CMLSCALE
 40
20.0
  9
$PROXYGRAPHICS
 70
     1
  9
$MEASUREMENT
 70
     1
  9
$CELWEIGHT
370
    -1
  9
$ENDCAPS
280
     0
  9
$JOINSTYLE
280
     0
  9
$LWDISPLAY
290
     0
  9
$INSUNITS
 70
     4
  9
$HYPERLINKBASE
  1

  9
$STYLESHEET
  1

  9
$XEDIT
290
     1
  9
$CEPSNTYPE
380
     0
  9
$PSTYLEMODE
290
     1
  9
$FINGERPRINTGUID
  2
{322988E0-3C7F-4738-8247-0510F676BCCA}
  9
$VERSIONGUID
  2
{FAEB1C32-E019-11D5-929B-00C0DF256EC4}
  9
$EXTNAMES
290
     1
  9
$PSVPSCALE
 40
0.0
  9
$OLESTARTUP
290
     0
  0
ENDSEC
  0
SECTION
  2
CLASSES
  0
CLASS
  1
ACDBDICTIONARYWDFLT
  2
AcDbDictionaryWithDefault
  3
ObjectDBX Classes
 90
        0
280
     0
281
     0
  0
CLASS
  1
VISUALSTYLE
  2
AcDbVisualStyle
  3
ObjectDBX Classes
 90
     4095
280
     0
281
     0
  0
CLASS
  1
SCALE
  2
AcDbScale
  3
ObjectDBX Classes
 90
     1153
280
     0
281
     0
  0
CLASS
  1
DICTIONARYVAR
  2
AcDbDictionaryVar
  3
ObjectDBX Classes
 90
        0
280
     0
281
     0
  0
CLASS
  1
ACDBPLACEHOLDER
  2
AcDbPlaceHolder
  3
ObjectDBX Classes
 90
        0
280
     0
281
     0
  0
CLASS
  1
LAYOUT
  2
AcDbLayout
  3
ObjectDBX Classes
 90
        0
280
     0
281
     0
  0
ENDSEC
  0
SECTION
  2
TABLES
  0
TABLE
  2
VPORT
  5
8
330
0
100
AcDbSymbolTable
 70
     1
  0
VPORT
  5
29
330
8
100
AcDbSymbolTableRecord
100
AcDbViewportTableRecord
  2
*Active
 70
     0
 10
0.0
 20
0.0
 11
1.0
 21
1.0
 12
344.1869158879
 22
148.5
 13
0.0
 23
0.0
 14
10.0
 24
10.0
 15
10.0
 25
10.0
 16
0.0
 26
0.0
 36
1.0
 17
0.0
 27
0.0
 37
0.0
 40
297.0
 41
1.9729729729
 42
50.0
 43
0.0
 44
0.0
 50
0.0
 51
0.0
 71
     0
 72
   100
 73
     1
 74
     3
 75
     0
 76
     0
 77
     0
 78
     0
281
     0
 65
     1
110
0.0
120
0.0
130
0.0
111
1.0
121
0.0
131
0.0
112
0.0
122
1.0
132
0.0
 79
     0
146
0.0
  0
ENDTAB
  0
TABLE
  2
LTYPE
  5
5
330
0
100
AcDbSymbolTable
 70
     2
  0
LTYPE
  5
14
330
5
100
AcDbSymbolTableRecord
100
AcDbLinetypeTableRecord
  2
ByBlock
 70
     0
  3

 72
    65
 73
     0
 40
0.0
  0
LTYPE
  5
15
330
5
100
AcDbSymbolTableRecord
100
AcDbLinetypeTableRecord
  2
ByLayer
 70
     0
  3

 72
    65
 73
     0
 40
0.0
  0
LTYPE
  5
16
330
5
100
AcDbSymbolTableRecord
100
AcDbLinetypeTableRecord
  2
Continuous
 70
     0
  3
Solid line
 72
    65
 73
     0
 40
0.0
  0
LTYPE
  5
EF
330
5
100
AcDbSymbolTableRecord
100
AcDbLinetypeTableRecord
  2
CENTER2
 70
     0
  3
Center (.5x) ___ _ ___ _ ___ _ ___ _ ___ _ ___
 72
    65
 73
     4
 40
28.575
 49
19.05
 74
     4
 75
     0
340
0
 46
0.0
 50
0.0
 44
0.0
 45
0.0
 49
-3.175
 74
     4
 75
     0
340
0
 46
0.0
 50
0.0
 44
0.0
 45
0.0
 49
3.175
 74
     4
 75
     0
340
0
 46
0.0
 50
0.0
 44
0.0
 45
0.0
 49
-3.175
 74
     4
 75
     0
340
0
 46
0.0
 50
0.0
 44
0.0
 45
0.0
  0
ENDTAB
  0
TABLE
  2
LAYER
  5
2
330
0
100
AcDbSymbolTable
 70
    17
  0
LAYER
  5
10
330
2
100
AcDbSymbolTableRecord
100
AcDbLayerTableRecord
  2
0
 70
     0
 62
     7
  6
Continuous
370
    -3
390
F
  0
LAYER
  5
5D
330
2
100
AcDbSymbolTableRecord
100
AcDbLayerTableRecord
  2
Default
 70
     0
 62
     7
  6
Continuous
370
    -3
390
F
  0
LAYER
  5
60
330
2
100
AcDbSymbolTableRecord
100
AcDbLayerTableRecord
  2
$DDT_AUDIT_GENERATED_(60)
 70
     0
 62
     7
  6
Continuous
370
    -3
390
F
  0
LAYER
  5
63
330
2
100
AcDbSymbolTableRecord
100
AcDbLayerTableRecord
  2
$DDT_AUDIT_GENERATED_(63)
 70
     0
 62
     7
  6
Continuous
370
    -3
390
F
  0
LAYER
  5
70
330
2
100
AcDbSymbolTableRecord
100
AcDbLayerTableRecord
  2
$DDT_AUDIT_GENERATED_(70)
 70
     0
 62
     7
  6
Continuous
370
    -3
390
F
  0
LAYER
  5
7D
330
2
100
AcDbSymbolTableRecord
100
AcDbLayerTableRecord
  2
$DDT_AUDIT_GENERATED_(7D)
 70
     0
 62
     7
  6
Continuous
370
    -3
390
F
  0
LAYER
  5
8F
330
2
100
AcDbSymbolTableRecord
100
AcDbLayerTableRecord
  2
02636038_GEHÄUSE
 70
     0
 62
     7
  6
Continuous
370
    -3
390
F
  0
LAYER
  5
9E
330
2
100
AcDbSymbolTableRecord
100
AcDbLayerTableRecord
  2
$DDT_AUDIT_GENERATED_(9E)
 70
     0
 62
     7
  6
Continuous
370
    -3
390
F
  0
LAYER
  5
A1
330
2
100
AcDbSymbolTableRecord
100
AcDbLayerTableRecord
  2
$DDT_AUDIT_GENERATED_(A1)
 70
     0
 62
     7
  6
Continuous
370
    -3
390
F
  0
LAYER
  5
C3
330
2
100
AcDbSymbolTableRecord
100
AcDbLayerTableRecord
  2
$DDT_AUDIT_GENERATED_(C3)
 70
     0
 62
     7
  6
Continuous
370
    -3
390
F
  0
LAYER
  5
CA
330
2
100
AcDbSymbolTableRecord
100
AcDbLayerTableRecord
  2
$DDT_AUDIT_GENERATED_(CA)
 70
     0
 62
     7
  6
Continuous
370
    -3
390
F
  0
LAYER
  5
E0
330
2
100
AcDbSymbolTableRecord
100
AcDbLayerTableRecord
  2
$DDT_AUDIT_GENERATED_(E0)
 70
     0
 62
     7
  6
Continuous
370
    -3
390
F
  0
LAYER
  5
E3
330
2
100
AcDbSymbolTableRecord
100
AcDbLayerTableRecord
  2
$DDT_AUDIT_GENERATED_(E3)
 70
     0
 62
     7
  6
Continuous
370
    -3
390
F
  0
LAYER
  5
EE
330
2
100
AcDbSymbolTableRecord
100
AcDbLayerTableRecord
  2
DV1_Standard
 70
     0
 62
     7
  6
Continuous
370
    -3
390
F
  0
LAYER
  5
12E
330
2
100
AcDbSymbolTableRecord
100
AcDbLayerTableRecord
  2
$DDT_AUDIT_GENERATED_(12E)
 70
     0
 62
     7
  6
Continuous
370
    -3
390
F
  0
LAYER
  5
15F
330
2
100
AcDbSymbolTableRecord
100
AcDbLayerTableRecord
  2
DV2_Standard
 70
     0
 62
     7
  6
Continuous
370
    -3
390
F
  0
LAYER
  5
1B3
330
2
100
AcDbSymbolTableRecord
100
AcDbLayerTableRecord
  2
DV3_Standard
 70
     0
 62
     7
  6
Continuous
370
    -3
390
F
  0
ENDTAB
  0
TABLE
  2
STYLE
  5
3
330
0
100
AcDbSymbolTable
 70
     2
  0
STYLE
  5
11
330
3
100
AcDbSymbolTableRecord
100
AcDbTextStyleTableRecord
  2
Standard
 70
     0
 40
0.0
 41
1.0
 50
0.0
 71
     0
 42
2.5
  3
txt
  4

  0
STYLE
  5
1C8
330
3
100
AcDbSymbolTableRecord
100
AcDbTextStyleTableRecord
  2
SEACAD_seiso_ttf
 70
     0
 40
0.0
 41
1.0
 50
0.0
 71
     0
 42
0.2
  3
seiso.ttf
  4

  0
ENDTAB
  0
TABLE
  2
VIEW
  5
6
330
0
100
AcDbSymbolTable
 70
     0
  0
ENDTAB
  0
TABLE
  2
UCS
  5
7
330
0
100
AcDbSymbolTable
 70
     0
  0
ENDTAB
  0
TABLE
  2
APPID
  5
9
330
0
100
AcDbSymbolTable
 70
     1
  0
APPID
  5
12
330
9
100
AcDbSymbolTableRecord
100
AcDbRegAppTableRecord
  2
ACAD
 70
     0
  0
ENDTAB
  0
TABLE
  2
DIMSTYLE
  5
A
330
0
100
AcDbSymbolTable
 70
     1
100
AcDbDimStyleTable
  0
DIMSTYLE
105
27
330
A
100
AcDbSymbolTableRecord
100
AcDbDimStyleTableRecord
  2
ISO-25
 70
     0
 41
2.5
 42
0.625
 43
3.75
 44
1.25
 73
     0
 74
     0
 77
     1
 78
     8
140
2.5
141
2.5
143
0.0393700787
147
0.625
171
     3
172
     1
271
     2
272
     2
274
     3
278
    44
283
     0
284
     8
340
11
  0
ENDTAB
  0
TABLE
  2
BLOCK_RECORD
  5
1
330
0
100
AcDbSymbolTable
 70
     4
  0
BLOCK_RECORD
  5
1F
330
1
100
AcDbSymbolTableRecord
100
AcDbBlockTableRecord
  2
*Model_Space
340
22
  0
BLOCK_RECORD
  5
1B
330
1
100
AcDbSymbolTableRecord
100
AcDbBlockTableRecord
  2
*Paper_Space
340
1E
  0
BLOCK_RECORD
  5
5E
330
1
100
AcDbSymbolTableRecord
100
AcDbBlockTableRecord
  2
SE
340
0
102
{BLKREFS
331
5F
102
}
  0
BLOCK_RECORD
  5
F8
330
1
100
AcDbSymbolTableRecord
100
AcDbBlockTableRecord
  2
SE1
340
0
102
{BLKREFS
331
F9
102
}
  0
BLOCK_RECORD
  5
164
330
1
100
AcDbSymbolTableRecord
100
AcDbBlockTableRecord
  2
SE2
340
0
102
{BLKREFS
331
165
102
}
  0
ENDTAB
  0
ENDSEC
  0
SECTION
  2
BLOCKS
  0
BLOCK
  5
20
330
1F
100
AcDbEntity
  8
0
100
AcDbBlockBegin
  2
*Model_Space
 70
     0
 10
0.0
 20
0.0
 30
0.0
  3
*Model_Space
  1

  0
ENDBLK
  5
21
330
1F
100
AcDbEntity
  8
0
100
AcDbBlockEnd
  0
BLOCK
  5
1C
330
1B
100
AcDbEntity
 67
     1
  8
0
100
AcDbBlockBegin
  2
*Paper_Space
 70
     0
 10
0.0
 20
0.0
 30
0.0
  3
*Paper_Space
  1

  0
ENDBLK
  5
1D
330
1B
100
AcDbEntity
 67
     1
  8
0
100
AcDbBlockEnd
  0
BLOCK
  5
F6
330
5E
100
AcDbEntity
  8
0
100
AcDbBlockBegin
  2
SE
 70
     0
 10
0.0
 20
0.0
 30
0.0
  3
SE
  1

  0
LINE
  5
61
330
5E
100
AcDbEntity
  8
$DDT_AUDIT_GENERATED_(60)
  6
Continuous
 62
     7
100
AcDbLine
 10
151.6720704204
 20
385.9393876977
 30
0.0
 11
147.8505249562
 21
385.0834182445
 31
0.0
  0
LINE
  5
62
330
5E
100
AcDbEntity
  8
$DDT_AUDIT_GENERATED_(60)
  6
Continuous
 62
     7
100
AcDbLine
 10
197.1471704286
 20
385.0857440748
 30
0.0
 11
193.3786510417
 21
385.9613461229
 31
0.0
  0
LINE
  5
64
330
5E
100
AcDbEntity
  8
$DDT_AUDIT_GENERATED_(63)
  6
Continuous
 62
     7
100
AcDbLine
 10
301.4985877331
 20
384.2155692928
 30
0.0
 11
243.4985864698
 21
384.2155692928
 31
0.0
  0
LINE
  5
65
330
5E
100
AcDbEntity
  8
$DDT_AUDIT_GENERATED_(63)
  6
Continuous
 62
     7
100
AcDbLine
 10
242.4985371611
 20
378.5155692928
 30
0.0
 11
302.4985936147
 21
378.5155692928
 31
0.0
  0
SPLINE
  5
66
330
5E
100
AcDbEntity
  8
$DDT_AUDIT_GENERATED_(63)
  6
Continuous
 62
     7
100
AcDbSpline
210
0.0
220
0.0
230
1.0
 70
     8
 71
     3
 72
    13
 73
     9
 74
     0
 42
0.0000000063014676
 43
0.0000000001
 40
0.0
 40
0.0
 40
0.0
 40
0.0
 40
0.1294353618362325
 40
0.2550301133060676
 40
0.4999999999999964
 40
0.7449698866939349
 40
0.870564638163762
 40
1.0
 40
1.0
 40
1.0
 40
1.0
 10
302.498587748051
 20
383.2155692779148
 30
0.0
 10
302.4949067385197
 20
383.2897486568482
 30
0.0
 10
302.4868334101264
 20
383.4136601232257
 30
0.0
 10
302.4067623115351
 20
383.6686056348643
 30
0.0
 10
302.223213806754
 20
383.940195351519
 30
0.0
 10
301.9516240900993
 20
384.1237438563
 30
0.0
 10
301.6966785784607
 20
384.2038149548913
 30
0.0
 10
301.5727671120833
 20
384.2118882832846
 30
0.0
 10
301.4985877331499
 20
384.2155692928159
 30
0.0
  0
SPLINE
  5
67
330
5E
100
AcDbEntity
  8
$DDT_AUDIT_GENERATED_(63)
  6
Continuous
 62
     7
100
AcDbSpline
210
0.0
220
0.0
230
1.0
 70
     8
 71
     3
 72
    13
 73
     9
 74
     0
 42
0.0000000063014675
 43
0.0000000001
 40
0.0
 40
0.0
 40
0.0
 40
0.0
 40
0.1294353651929584
 40
0.2550301194024463
 40
0.5000000085273743
 40
0.7449698927901937
 40
0.8705646415203876
 40
1.0
 40
1.0
 40
1.0
 40
1.0
 10
243.4985864698426
 20
384.2155692928158
 30
0.0
 10
243.4244070870116
 20
384.2118882833086
 30
0.0
 10
243.3004956144509
 20
384.2038149549417
 30
0.0
 10
243.0455500906708
 20
384.1237438569517
 30
0.0
 10
242.7739603607428
 20
383.9401953543782
 30
0.0
 10
242.5904118440391
 20
383.6686056366215
 30
0.0
 10
242.5103407406082
 20
383.41366012363
 30
0.0
 10
242.5022674117613
 20
383.289748656877
 30
0.0
 10
242.4985864020113
 20
383.2155692779148
 30
0.0
  0
LINE
  5
68
330
5E
100
AcDbEntity
  8
$DDT_AUDIT_GENERATED_(63)
  6
Continuous
 62
     7
100
AcDbLine
 10
242.4985371611
 20
383.2205692779
 30
0.0
 11
242.4985371611
 21
378.5155692928
 31
0.0
  0
LINE
  5
69
330
5E
100
AcDbEntity
  8
$DDT_AUDIT_GENERATED_(63)
  6
Continuous
 62
     7
100
AcDbLine
 10
302.4985936147
 20
378.5155692928
 30
0.0
 11
302.4985936147
 21
383.2205692779
 31
0.0
  0
LINE
  5
6A
330
5E
100
AcDbEntity
  8
$DDT_AUDIT_GENERATED_(63)
  6
Continuous
 62
     7
100
AcDbLine
 10
101.4985845715
 20
384.2155692928
 30
0.0
 11
43.4985820148
 21
384.2155692928
 31
0.0
  0
LINE
  5
6B
330
5E
100
AcDbEntity
  8
$DDT_AUDIT_GENERATED_(63)
  6
Continuous
 62
     7
100
AcDbLine
 10
42.4985779204
 20
378.5155692928
 30
0.0
 11
102.498634374
 21
378.5155692928
 31
0.0
  0
SPLINE
  5
6C
330
5E
100
AcDbEntity
  8
$DDT_AUDIT_GENERATED_(63)
  6
Continuous
 62
     7
100
AcDbSpline
210
0.0
220
0.0
230
1.0
 70
     8
 71
     3
 72
    13
 73
     9
 74
     0
 42
0.0000000063014675
 43
0.0000000001
 40
0.0
 40
0.0
 40
0.0
 40
0.0
 40
0.1294353584734628
 40
0.2550301071986517
 40
0.4999999914570863
 40
0.7449698805865091
 40
0.8705646348009926
 40
1.0
 40
1.0
 40
1.0
 40
1.0
 10
102.498584639383
 20
383.2155692779148
 30
0.0
 10
102.4949036296326
 20
383.2897486568771
 30
0.0
 10
102.4868303007848
 20
383.4136601236307
 30
0.0
 10
102.4067591973449
 20
383.6686056366248
 30
0.0
 10
102.2232106806193
 20
383.9401953543834
 30
0.0
 10
101.9516209506669
 20
384.1237438569529
 30
0.0
 10
101.6966754268645
 20
384.2038149549417
 30
0.0
 10
101.5727639542926
 20
384.2118882833086
 30
0.0
 10
101.4985845714545
 20
384.2155692928159
 30
0.0
  0
SPLINE
  5
6D
330
5E
100
AcDbEntity
  8
$DDT_AUDIT_GENERATED_(63)
  6
Continuous
 62
     7
100
AcDbSpline
210
0.0
220
0.0
230
1.0
 70
     8
 71
     3
 72
    13
 73
     9
 74
     0
 42
0.0000000063014675
 43
0.0000000001
 40
0.0
 40
0.0
 40
0.0
 40
0.0
 40
0.1294353651991197
 40
0.2550301194136515
 40
0.500000008543031
 40
0.7449698928013845
 40
0.8705646415265493
 40
1.0
 40
1.0
 40
1.0
 40
1.0
 10
43.49858201480217
 20
384.2155692928159
 30
0.0
 10
43.42440263196396
 20
384.2118882833086
 30
0.0
 10
43.30049115939208
 20
384.2038149549418
 30
0.0
 10
43.04554563558949
 20
384.1237438569529
 30
0.0
 10
42.7739559056371
 20
383.9401953543834
 30
0.0
 10
42.59040738891157
 20
383.6686056366248
 30
0.0
 10
42.51033628547185
 20
383.4136601236307
 30
0.0
 10
42.50226295662407
 20
383.2897486568771
 30
0.0
 10
42.49858194687367
 20
383.2155692779148
 30
0.0
  0
LINE
  5
6E
330
5E
100
AcDbEntity
  8
$DDT_AUDIT_GENERATED_(63)
  6
Continuous
 62
     7
100
AcDbLine
 10
42.4985779204
 20
383.2205692779
 30
0.0
 11
42.4985779204
 21
378.5155692928
 31
0.0
  0
LINE
  5
6F
330
5E
100
AcDbEntity
  8
$DDT_AUDIT_GENERATED_(63)
  6
Continuous
 62
     7
100
AcDbLine
 10
102.498634374
 20
378.5155692928
 30
0.0
 11
102.498634374
 21
383.2205692779
 31
0.0
  0
LINE
  5
71
330
5E
100
AcDbEntity
  8
$DDT_AUDIT_GENERATED_(70)
  6
Continuous
 62
     7
100
AcDbLine
 10
87.5646059703
 20
385.2037338346
 30
0.0
 11
93.3485877481
 21
385.2037338346
 31
0.0
  0
LINE
  5
72
330
5E
100
AcDbEntity
  8
$DDT_AUDIT_GENERATED_(70)
  6
Continuous
 62
     7
100
AcDbLine
 10
51.6485883342
 20
385.2037310852
 30
0.0
 11
57.4325695259
 21
385.2037338346
 31
0.0
  0
SPLINE
  5
73
330
5E
100
AcDbEntity
  8
$DDT_AUDIT_GENERATED_(70)
  6
Continuous
 62
     7
100
AcDbSpline
210
0.0
220
0.0
230
1.0
 70
     8
 71
     3
 72
    27
 73
    23
 74
     0
 42
0.0000000006637454
 43
0.0000000001
 40
0.0
 40
0.0
 40
0.0
 40
0.0
 40
0.0279530695020142
 40
0.0558450036302405
 40
0.0836896288717326
 40
0.1115008384271974
 40
0.1392925735400562
 40
0.1670788044981771
 40
0.1948735114460744
 40
0.2226906651486493
 40
0.250544207848497
 40
0.3752095101236222
 40
0.4997187054368763
 40
0.5625341802502434
 40
0.6253264056231984
 40
0.6878420609568642
 40
0.7503432641264872
 40
0.8125798013312905
 40
0.8748086405111836
 40
0.9165487930537283
 40
0.9582620108615038
 40
1.0
 40
1.0
 40
1.0
 40
1.0
 10
87.56460597025281
 20
385.2037338345568
 30
0.0
 10
87.45543835954926
 20
385.2037156507189
 30
0.0
 10
87.2373418955597
 20
385.2036793228126
 30
0.0
 10
86.90101145686643
 20
385.2036115234137
 30
0.0
 10
86.55850238354897
 20
385.2035477722906
 30
0.0
 10
86.20913900241933
 20
385.203493041628
 30
0.0
 10
85.85311836618195
 20
385.2034514560581
 30
0.0
 10
85.49040188030186
 20
385.2034232690871
 30
0.0
 10
85.12101582731474
 20
385.2034055114074
 30
0.0
 10
84.74495557091944
 20
385.2033924000258
 30
0.0
 10
83.9191989247147
 20
385.2033505991386
 30
0.0
 10
82.59571941899762
 20
385.2031647663425
 30
0.0
 10
81.01943513669487
 20
385.203297094406
 30
0.0
 10
79.71486412222853
 20
385.2033164469405
 30
0.0
 10
78.71497396412651
 20
385.2033831442712
 30
0.0
 10
77.70092382662426
 20
385.2034380101668
 30
0.0
 10
76.67660468648549
 20
385.2035243732627
 30
0.0
 10
75.64330513556526
 20
385.2035884509954
 30
0.0
 10
74.71763069384399
 20
385.2036594544596
 30
0.0
 10
73.90288680659533
 20
385.2036933987363
 30
0.0
 10
73.20112794913653
 20
385.2037192443838
 30
0.0
 10
72.7328141525614
 20
385.2037252063545
 30
0.0
 10
72.49858774805092
 20
385.2037338345568
 30
0.0
  0
SPLINE
  5
74
330
5E
100
AcDbEntity
  8
$DDT_AUDIT_GENERATED_(70)
  6
Continuous
 62
     7
100
AcDbSpline
210
0.0
220
0.0
230
1.0
 70
     8
 71
     3
 72
    17
 73
    13
 74
     0
 42
0.0000000006637454
 43
0.0000000001
 40
0.0
 40
0.0
 40
0.0
 40
0.0
 40
0.0627289163599583
 40
0.1254602832760826
 40
0.2499137825791045
 40
0.3746483269236378
 40
0.500297641949969
 40
0.6249459110890658
 40
0.7494413562942406
 40
0.8749659811880093
 40
0.9374489124370873
 40
1.0
 40
1.0
 40
1.0
 40
1.0
 10
72.49858774805092
 20
385.2037338345568
 30
0.0
 10
72.14660460916596
 20
385.2037220772969
 30
0.0
 10
71.44262458088292
 20
385.2037098552024
 30
0.0
 10
70.04403942266919
 20
385.2036496222948
 30
0.0
 10
68.31089095055384
 20
385.2035186109417
 30
0.0
 10
66.27103021381267
 20
385.2033717086281
 30
0.0
 10
64.29340714877482
 20
385.2032803872045
 30
0.0
 10
62.40087595804274
 20
385.2032746990123
 30
0.0
 10
60.61090088989401
 20
385.2033570480135
 30
0.0
 10
59.22015388145697
 20
385.2034960838007
 30
0.0
 10
58.1713002281092
 20
385.2036207061608
 30
0.0
 10
57.67890256228235
 20
385.2036961113902
 30
0.0
 10
57.4325695258531
 20
385.2037338345568
 30
0.0
  0
LINE
  5
75
330
5E
100
AcDbEntity
  8
$DDT_AUDIT_GENERATED_(70)
  6
Continuous
 62
     7
100
AcDbLine
 10
51.6585095491
 20
385.1598481504
 30
0.0
 11
47.8505819023
 21
384.3067535755
 31
0.0
  0
LINE
  5
76
330
5E
100
AcDbEntity
  8
$DDT_AUDIT_GENERATED_(70)
  6
Continuous
 62
     7
100
AcDbLine
 10
97.1470675376
 20
384.3090915886
 30
0.0
 11
93.3459706184
 21
385.1925760984
 31
0.0
  0
LINE
  5
77
330
5E
100
AcDbEntity
  8
$DDT_AUDIT_GENERATED_(70)
  6
Continuous
 62
     7
100
AcDbLine
 10
287.5646059703
 20
385.2037338346
 30
0.0
 11
293.3485871619
 21
385.2037310852
 31
0.0
  0
LINE
  5
78
330
5E
100
AcDbEntity
  8
$DDT_AUDIT_GENERATED_(70)
  6
Continuous
 62
     7
100
AcDbLine
 10
251.6485877481
 20
385.2037338346
 30
0.0
 11
257.4325695258
 21
385.2037338346
 31
0.0
  0
SPLINE
  5
79
330
5E
100
AcDbEntity
  8
$DDT_AUDIT_GENERATED_(70)
  6
Continuous
 62
     7
100
AcDbSpline
210
0.0
220
0.0
230
1.0
 70
     8
 71
     3
 72
    28
 73
    24
 74
     0
 42
0.0000000006637454
 43
0.0000000001
 40
0.0
 40
0.0
 40
0.0
 40
0.0
 40
0.0278331661590846
 40
0.0556059131493589
 40
0.0833318920010397
 40
0.1110248190839319
 40
0.1386984578287043
 40
0.1663666001303332
 40
0.1940430475674113
 40
0.2217415925742657
 40
0.2494759997036886
 40
0.3123939859845138
 40
0.375266224434901
 40
0.4376822721171559
 40
0.5000649990530859
 40
0.6246510496552509
 40
0.6874836054155709
 40
0.7503015383449915
 40
0.812879781308213
 40
0.8754502546412304
 40
0.9169763879810597
 40
0.958475996834543
 40
1.0
 40
1.0
 40
1.0
 40
1.0
 10
287.5646059702805
 20
385.2037338345568
 30
0.0
 10
287.4559056111349
 20
385.2037157539226
 30
0.0
 10
287.2387408554114
 20
385.203679631903
 30
0.0
 10
286.9038837128982
 20
385.2036123731715
 30
0.0
 10
286.5628969360438
 20
385.203549101946
 30
0.0
 10
286.2151104843471
 20
385.2034947122812
 30
0.0
 10
285.860719650203
 20
385.2034532479656
 30
0.0
 10
285.4996864118606
 20
385.203425009458
 30
0.0
 10
285.1320357744845
 20
385.2034068960666
 30
0.0
 10
284.7577670162934
 20
385.203393910453
 30
0.0
 10
284.2161170555232
 20
385.2033638419477
 30
0.0
 10
283.495486923002
 20
385.2033079548852
 30
0.0
 10
282.5837615682755
 20
385.2032893044363
 30
0.0
 10
281.6488715959504
 20
385.2032708848394
 30
0.0
 10
280.375744329295
 20
385.2032989571919
 30
0.0
 10
279.057896146943
 20
385.203359721253
 30
0.0
 10
277.7070079030408
 20
385.2034383487096
 30
0.0
 10
276.6773259979751
 20
385.203524147735
 30
0.0
 10
275.638444491362
 20
385.2035887180911
 30
0.0
 10
274.7100704097531
 20
385.2036599015965
 30
0.0
 10
273.8957496545718
 20
385.2036937725911
 30
0.0
 10
273.1975533408698
 20
385.20371937173
 30
0.0
 10
272.7316219128988
 20
385.2037252488176
 30
0.0
 10
272.4985877480452
 20
385.2037338345568
 30
0.0
  0
SPLINE
  5
7A
330
5E
100
AcDbEntity
  8
$DDT_AUDIT_GENERATED_(70)
  6
Continuous
 62
     7
100
AcDbSpline
210
0.0
220
0.0
230
1.0
 70
     8
 71
     3
 72
    16
 73
    12
 74
     0
 42
0.0000000006637454
 43
0.0000000001
 40
0.0
 40
0.0
 40
0.0
 40
0.0
 40
0.0625509658289192
 40
0.1251043610270316
 40
0.2505663713252279
 40
0.3750305871579224
 40
0.4997224528208468
 40
0.6253703718972006
 40
0.7500479492199676
 40
0.8748984370948331
 40
1.0
 40
1.0
 40
1.0
 40
1.0
 10
272.4985877480452
 20
385.2037338345568
 30
0.0
 10
272.1476168794142
 20
385.2037221256043
 30
0.0
 10
271.4456615110623
 20
385.203710000128
 30
0.0
 10
270.0434592611257
 20
385.2036496535627
 30
0.0
 10
268.307248996225
 20
385.203518424578
 30
0.0
 10
266.2688397357412
 20
385.2033711762941
 30
0.0
 10
264.292691495882
 20
385.203282153394
 30
0.0
 10
262.3982182526451
 20
385.2032679272422
 30
0.0
 10
260.6090926400574
 20
385.203382097891
 30
0.0
 10
258.9318551122618
 20
385.2034317560953
 30
0.0
 10
257.9326659474108
 20
385.2036330743287
 30
0.0
 10
257.4325695258344
 20
385.2037338345568
 30
0.0
  0
LINE
  5
7B
330
5E
100
AcDbEntity
  8
$DDT_AUDIT_GENERATED_(70)
  6
Continuous
 62
     7
100
AcDbLine
 10
251.6585095447
 20
385.1598481747
 30
0.0
 11
247.8505819176
 21
384.3067535088
 31
0.0
  0
LINE
  5
7C
330
5E
100
AcDbEntity
  8
$DDT_AUDIT_GENERATED_(70)
  6
Continuous
 62
     7
100
AcDbLine
 10
297.1470675491
 20
384.3090916366
 30
0.0
 11
293.3459706087
 21
385.1925760558
 31
0.0
  0
SPLINE
  5
7E
330
5E
100
AcDbEntity
  8
$DDT_AUDIT_GENERATED_(7D)
  6
Continuous
 62
     7
100
AcDbSpline
210
0.0
220
0.0
230
1.0
 70
     8
 71
     5
 72
    12
 73
     6
 74
     0
 42
0.000000002536328
 43
0.0000000001
 40
0.0
 40
0.0
 40
0.0
 40
0.0
 40
0.0
 40
0.0
 40
1.0
 40
1.0
 40
1.0
 40
1.0
 40
1.0
 40
1.0
 10
82.89679041725846
 20
407.8756346434308
 30
0.0
 10
83.38127106506501
 20
407.8756346434308
 30
0.0
 10
84.132714450585
 20
407.8756346434308
 30
0.0
 10
84.833379893079
 20
407.8756346434308
 30
0.0
 10
85.577819457906
 20
407.3716368959109
 30
0.0
 10
86.49389409651101
 20
406.7499340670868
 30
0.0
  0
LINE
  5
7F
330
5E
100
AcDbEntity
  8
$DDT_AUDIT_GENERATED_(7D)
  6
Continuous
 62
     7
100
AcDbLine
 10
72.4986178922
 20
406.7499340671
 30
0.0
 11
86.4938940965
 21
406.7499340671
 31
0.0
  0
LINE
  5
80
330
5E
100
AcDbEntity
  8
$DDT_AUDIT_GENERATED_(7D)
  6
Continuous
 62
     7
100
AcDbLine
 10
72.4986178922
 20
406.7499340671
 30
0.0
 11
20.3452762043
 21
406.7499340671
 31
0.0
  0
SPLINE
  5
81
330
5E
100
AcDbEntity
  8
$DDT_AUDIT_GENERATED_(7D)
  6
Continuous
 62
     7
100
AcDbSpline
210
0.0
220
0.0
230
1.0
 70
     8
 71
     7
 72
    16
 73
     8
 74
     0
 42
0.0000000005620664
 43
0.0000000001
 40
0.0
 40
0.0
 40
0.0
 40
0.0
 40
0.0
 40
0.0
 40
0.0
 40
0.0
 40
1.0
 40
1.0
 40
1.0
 40
1.0
 40
1.0
 40
1.0
 40
1.0
 40
1.0
 10
6.349999999999994
 20
406.7499340670868
 30
0.0
 10
6.349999999999994
 20
405.6049661912148
 30
0.0
 10
6.349999999999994
 20
403.1741692183649
 30
0.0
 10
10.13961893548401
 20
402.0144369236428
 30
0.0
 10
11.05168130696901
 20
401.7353196284699
 30
0.0
 10
15.68018413622299
 20
401.5155651907458
 30
0.0
 10
18.345951032287
 20
401.5155651907458
 30
0.0
 10
20.34527620433499
 20
401.5155651907458
 30
0.0
  0
LINE
  5
82
330
5E
100
AcDbEntity
  8
$DDT_AUDIT_GENERATED_(7D)
  6
Continuous
 62
     7
100
AcDbLine
 10
82.8967904173
 20
407.8756346434
 30
0.0
 11
72.4986178183
 21
407.8756346434
 31
0.0
  0
LINE
  5
83
330
5E
100
AcDbEntity
  8
$DDT_AUDIT_GENERATED_(7D)
  6
Continuous
 62
     7
100
AcDbLine
 10
6.35
 20
406.7499340671
 30
0.0
 11
20.3452762043
 21
406.7499340671
 31
0.0
  0
LINE
  5
84
330
5E
100
AcDbEntity
  8
$DDT_AUDIT_GENERATED_(7D)
  6
Continuous
 62
     7
100
AcDbLine
 10
72.4986178183
 20
407.8756346434
 30
0.0
 11
20.3452762745
 21
407.8756346434
 31
0.0
  0
SPLINE
  5
85
330
5E
100
AcDbEntity
  8
$DDT_AUDIT_GENERATED_(7D)
  6
Continuous
 62
     7
100
AcDbSpline
210
0.0
220
0.0
230
1.0
 70
     8
 71
     5
 72
    12
 73
     6
 74
     0
 42
0.000000002536328
 43
0.0000000001
 40
0.0
 40
0.0
 40
0.0
 40
0.0
 40
0.0
 40
0.0
 40
1.0
 40
1.0
 40
1.0
 40
1.0
 40
1.0
 40
1.0
 10
6.349999999999994
 20
406.7499340670868
 30
0.0
 10
7.266074638605014
 20
407.3716368959109
 30
0.0
 10
8.01051420343199
 20
407.8756346434308
 30
0.0
 10
8.71117964592702
 20
407.8756346434308
 30
0.0
 10
9.462623031446988
 20
407.8756346434308
 30
0.0
 10
9.9471036792525
 20
407.8756346434308
 30
0.0
  0
LINE
  5
86
330
5E
100
AcDbEntity
  8
$DDT_AUDIT_GENERATED_(7D)
  6
Continuous
 62
     7
100
AcDbLine
 10
20.3452762756
 20
407.8756346434
 30
0.0
 11
9.9471036793
 21
407.8756346434
 31
0.0
  0
SPLINE
  5
87
330
5E
100
AcDbEntity
  8
$DDT_AUDIT_GENERATED_(7D)
  6
Continuous
 62
     7
100
AcDbSpline
210
0.0
220
0.0
230
1.0
 70
     8
 71
     7
 72
    16
 73
     8
 74
     0
 42
0.0000000010390712
 43
0.0000000001
 40
0.0
 40
0.0
 40
0.0
 40
0.0
 40
0.0
 40
0.0
 40
0.0
 40
0.0
 40
1.0
 40
1.0
 40
1.0
 40
1.0
 40
1.0
 40
1.0
 40
1.0
 40
1.0
 10
79.68818751318832
 20
401.8410418307039
 30
0.0
 10
81.43561101527338
 20
402.0667989287514
 30
0.0
 10
83.06345679251156
 20
402.4234052343753
 30
0.0
 10
84.45835519799178
 20
402.9689204244253
 30
0.0
 10
85.60926433703256
 20
403.7693846779927
 30
0.0
 10
86.49389409651101
 20
404.8524730258696
 30
0.0
 10
86.49389409651101
 20
406.0449456692621
 30
0.0
 10
86.49389409651101
 20
406.7499340670868
 30
0.0
  0
LINE
  5
88
330
5E
100
AcDbEntity
  8
$DDT_AUDIT_GENERATED_(7D)
  6
Continuous
 62
     7
100
AcDbLine
 10
72.4986178922
 20
401.8410462109
 30
0.0
 11
79.6881875132
 21
401.8410418307
 31
0.0
  0
LINE
  5
89
330
5E
100
AcDbEntity
  8
$DDT_AUDIT_GENERATED_(7D)
  6
Continuous
 62
     7
100
AcDbLine
 10
65.1838097932
 20
401.5155651907
 30
0.0
 11
20.3452762043
 21
401.5155651907
 31
0.0
  0
ARC
  5
8A
330
5E
100
AcDbEntity
  8
$DDT_AUDIT_GENERATED_(7D)
  6
Continuous
 62
     7
100
AcDbCircle
 10
73.2456365341
 20
302.6940185045
 30
0.0
 40
99.14984185498339
100
AcDbArc
 50
90.4316842018
 51
94.6638413507
  0
ARC
  5
8B
330
5E
100
AcDbEntity
  8
$DDT_AUDIT_GENERATED_(7D)
  6
Continuous
 62
     7
100
AcDbCircle
 10
79.81630886
 20
400.8492893896
 30
0.0
 40
0.9999939919912717
100
AcDbArc
 50
97.3610900611
 51
179.5001289426
  0
SPLINE
  5
8C
330
5E
100
AcDbEntity
  8
$DDT_AUDIT_GENERATED_(7D)
  6
Continuous
 62
     7
100
AcDbSpline
210
0.0
220
0.0
230
1.0
 70
     8
 71
     3
 72
    10
 73
     6
 74
     0
 42
0.0000000062458196
 43
0.0000000001
 40
0.0
 40
0.0
 40
0.0
 40
0.0
 40
0.5
 40
0.5
 40
1.0
 40
1.0
 40
1.0
 40
1.0
 10
66.18377171625319
 20
400.5242917262442
 30
0.0
 10
66.1814998068335
 20
400.7846267598622
 30
0.0
 10
66.07271769144839
 20
401.0424638904153
 30
0.0
 10
65.70293134384157
 20
401.4090372423229
 30
0.0
 10
65.44415473994484
 20
401.5155651907458
 30
0.0
 10
65.18380979318901
 20
401.5155651907458
 30
0.0
  0
LINE
  5
8D
330
5E
100
AcDbEntity
  8
$DDT_AUDIT_GENERATED_(7D)
  6
Continuous
 62
     7
100
AcDbLine
 10
66.1837717163
 20
400.5242917259
 30
0.0
 11
66.2128513019
 21
397.1921012558
 31
0.0
  0
LINE
  5
8E
330
5E
100
AcDbEntity
  8
$DDT_AUDIT_GENERATED_(7D)
  6
Continuous
 62
     7
100
AcDbLine
 10
78.7843623232
 20
397.1922537343
 30
0.0
 11
78.8163529251
 21
400.8580136224
 31
0.0
  0
ELLIPSE
  5
90
330
5E
100
AcDbEntity
  8
02636038_GEHÄUSE
  6
Continuous
 62
     7
100
AcDbEllipse
 10
172.4985877481
 20
624.6400608866
 30
0.0
 11
10.75000000000001
 21
-5.551115123125783E-14
 31
0.0
210
0.0
220
0.0
230
1.0
 40
0.1460162127
 41
5.480490692521552
 42
6.283185307179586
  0
ELLIPSE
  5
91
330
5E
100
AcDbEntity
  8
02636038_GEHÄUSE
  6
Continuous
 62
     7
100
AcDbEllipse
 10
172.4985877481
 20
624.6400608866
 30
0.0
 11
10.75000000000001
 21
-5.551115123125783E-14
 31
0.0
210
0.0
220
0.0
230
1.0
 40
0.1460162127
 41
0.0
 42
3.944287268247828
  0
LINE
  5
92
330
5E
100
AcDbEntity
  8
02636038_GEHÄUSE
  6
Continuous
 62
     7
100
AcDbLine
 10
183.4985877481
 20
624.57652874
 30
0.0
 11
183.4985877481
 21
625.3318716103
 31
0.0
  0
ELLIPSE
  5
93
330
5E
100
AcDbEntity
  8
02636038_GEHÄUSE
  6
Continuous
 62
     7
100
AcDbEllipse
 10
172.4985877481
 20
627.6079074781
 30
0.0
 11
-11.80000000000008
 21
1.942890293094024E-13
 31
0.0
210
0.0
220
0.0
230
1.0
 40
0.1460162127
 41
2.771250021498064
 42
3.5119352856815
  0
LINE
  5
94
330
5E
100
AcDbEntity
  8
02636038_GEHÄUSE
  6
Continuous
 62
     7
100
AcDbLine
 10
183.4985877481
 20
625.3318716103
 30
0.0
 11
183.4985877481
 21
626.434554301
 31
0.0
  0
LINE
  5
95
330
5E
100
AcDbEntity
  8
02636038_GEHÄUSE
  6
Continuous
 62
     7
100
AcDbLine
 10
183.4985877481
 20
626.434554301
 30
0.0
 11
183.4985877481
 21
628.2315180897
 31
0.0
  0
LINE
  5
96
330
5E
100
AcDbEntity
  8
02636038_GEHÄUSE
  6
Continuous
 62
     7
100
AcDbLine
 10
161.4985877481
 20
625.3318716103
 30
0.0
 11
161.4985877481
 21
624.57652874
 31
0.0
  0
ELLIPSE
  5
97
330
5E
100
AcDbEntity
  8
02636038_GEHÄUSE
  6
Continuous
 62
     7
100
AcDbEllipse
 10
172.4985877481
 20
627.6079074781
 30
0.0
 11
11.80000000000002
 21
0.0
 31
0.0
210
0.0
220
0.0
230
1.0
 40
0.1460162127
 41
2.771250021498055
 42
3.511935285681532
  0
LINE
  5
98
330
5E
100
AcDbEntity
  8
02636038_GEHÄUSE
  6
Continuous
 62
     7
100
AcDbLine
 10
161.4985877481
 20
628.2315180897
 30
0.0
 11
161.4985877481
 21
626.434554301
 31
0.0
  0
LINE
  5
99
330
5E
100
AcDbEntity
  8
02636038_GEHÄUSE
  6
Continuous
 62
     7
100
AcDbLine
 10
161.4985877481
 20
626.434554301
 30
0.0
 11
161.4985877481
 21
625.3318716103
 31
0.0
  0
LINE
  5
9A
330
5E
100
AcDbEntity
  8
02636038_GEHÄUSE
  6
Continuous
 62
     7
100
AcDbLine
 10
161.5740859655
 20
624.5323861298
 30
0.0
 11
162.1058095036
 21
624.2387776134
 31
0.0
  0
LINE
  5
9B
330
5E
100
AcDbEntity
  8
02636038_GEHÄUSE
  6
Continuous
 62
     7
100
AcDbLine
 10
182.8913659925
 20
624.2387776134
 30
0.0
 11
183.4230895306
 21
624.5323861298
 31
0.0
  0
LINE
  5
9C
330
5E
100
AcDbEntity
  8
02636038_GEHÄUSE
  6
Continuous
 62
     7
100
AcDbLine
 10
160.6985877481
 20
632.1406304069
 30
0.0
 11
160.6985877481
 21
627.6079074781
 31
0.0
  0
LINE
  5
9D
330
5E
100
AcDbEntity
  8
02636038_GEHÄUSE
  6
Continuous
 62
     7
100
AcDbLine
 10
184.2985877481
 20
627.6079074781
 30
0.0
 11
184.2985877481
 21
632.1207656128
 31
0.0
  0
ELLIPSE
  5
9F
330
5E
100
AcDbEntity
  8
$DDT_AUDIT_GENERATED_(9E)
  6
Continuous
 62
     7
100
AcDbEllipse
 10
172.4985877481
 20
624.2443480077
 30
0.0
 11
9.0
 21
-5.551115123125783E-14
 31
0.0
210
0.0
220
0.0
230
1.0
 40
0.1460162127
 41
0.0
 42
6.283185307179586
  0
LINE
  5
A0
330
5E
100
AcDbEntity
  8
$DDT_AUDIT_GENERATED_(9E)
  6
Continuous
 62
     7
100
AcDbLine
 10
181.4985877481
 20
624.2443480077
 30
0.0
 11
181.4985877481
 21
625.2931060529
 31
0.0
  0
SPLINE
  5
A2
330
5E
100
AcDbEntity
  8
$DDT_AUDIT_GENERATED_(A1)
  6
Continuous
 62
     7
100
AcDbSpline
210
0.0
220
0.0
230
1.0
 70
     8
 71
     3
 72
    20
 73
    16
 74
     0
 42
0.0000000003794647
 43
0.0000000001
 40
0.2500855464342808
 40
0.2500855464342808
 40
0.2500855464342808
 40
0.2500855464342808
 40
0.3125
 40
0.3125
 40
0.375
 40
0.375
 40
0.5
 40
0.5
 40
0.625
 40
0.625
 40
0.6875
 40
0.6875
 40
0.75
 40
0.75
 40
0.750160307916235
 40
0.750160307916235
 40
0.750160307916235
 40
0.750160307916235
 10
79.08779894519128
 20
397.192548241914
 30
0.0
 10
79.08778648622867
 20
397.1925486084192
 30
0.0
 10
78.91733337797083
 20
397.1920056790609
 30
0.0
 10
78.25818736850265
 20
397.1920030872247
 30
0.0
 10
77.77496015278862
 20
397.1925464178816
 30
0.0
 10
75.93082879251958
 20
397.1925518770116
 30
0.0
 10
74.22096863367918
 20
397.1925457545739
 30
0.0
 10
70.78086550616412
 20
397.1925507243085
 30
0.0
 10
69.0601040171163
 20
397.1925414342583
 30
0.0
 10
67.23569517130755
 20
397.1925516255918
 30
0.0
 10
66.74488862838543
 20
397.1920065621685
 30
0.0
 10
66.08276531821032
 20
397.1920022181902
 30
0.0
 10
65.91026590292384
 20
397.1925446140679
 30
0.0
 10
65.90937768818598
 20
397.1925482364051
 30
0.0
 10
65.90937659012233
 20
397.1925482456394
 30
0.0
 10
65.90937666592829
 20
397.1925482548407
 30
0.0
  0
SPLINE
  5
A3
330
5E
100
AcDbEntity
  8
$DDT_AUDIT_GENERATED_(A1)
  6
Continuous
 62
     7
100
AcDbSpline
210
0.0
220
0.0
230
1.0
 70
     8
 71
     3
 72
     8
 73
     4
 74
     0
 42
0.0000000007055492
 43
0.0000000001
 40
0.0
 40
0.0
 40
0.0
 40
0.0
 40
1.0
 40
1.0
 40
1.0
 40
1.0
 10
65.99448802398044
 20
397.1985718854033
 30
0.0
 10
61.27713681550684
 20
396.8663634891104
 30
0.0
 10
56.61240676071418
 20
396.1777135207109
 30
0.0
 10
52.00029785960248
 20
395.1326219802049
 30
0.0
  0
SPLINE
  5
A4
330
5E
100
AcDbEntity
  8
$DDT_AUDIT_GENERATED_(A1)
  6
Continuous
 62
     7
100
AcDbSpline
210
0.0
220
0.0
230
1.0
 70
     8
 71
     3
 72
     8
 73
     4
 74
     0
 42
0.0000000007055492
 43
0.0000000001
 40
0.0
 40
0.0
 40
0.0
 40
0.0
 40
1.0
 40
1.0
 40
1.0
 40
1.0
 10
92.99687763650067
 20
395.1326219802046
 30
0.0
 10
88.38476873538886
 20
396.1777135207108
 30
0.0
 10
83.72003868059623
 20
396.8663634891103
 30
0.0
 10
79.00268747212276
 20
397.1985718854033
 30
0.0
  0
ARC
  5
A5
330
5E
100
AcDbEntity
  8
$DDT_AUDIT_GENERATED_(A1)
  6
Continuous
 62
     7
100
AcDbCircle
 10
92.8486803316
 20
394.8586566211
 30
0.0
 40
0.2999292390459455
100
AcDbArc
 50
359.9880839378
 51
77.2839985118
  0
ARC
  5
A6
330
5E
100
AcDbEntity
  8
$DDT_AUDIT_GENERATED_(A1)
  6
Continuous
 62
     7
100
AcDbCircle
 10
52.1484951919
 20
394.8586566212
 30
0.0
 40
0.2999292389334082
100
AcDbArc
 50
102.7160015404
 51
180.0119160955
  0
LINE
  5
A7
330
5E
100
AcDbEntity
  8
$DDT_AUDIT_GENERATED_(A1)
  6
Continuous
 62
     7
100
AcDbLine
 10
51.8486101081
 20
394.8585939651
 30
0.0
 11
51.8486101081
 21
385.2037338346
 31
0.0
  0
LINE
  5
A8
330
5E
100
AcDbEntity
  8
$DDT_AUDIT_GENERATED_(A1)
  6
Continuous
 62
     7
100
AcDbLine
 10
93.148565388
 20
385.2037338346
 30
0.0
 11
93.148565388
 21
394.8585939651
 31
0.0
  0
ARC
  5
A9
330
5E
100
AcDbEntity
  8
$DDT_AUDIT_GENERATED_(A1)
  6
Continuous
 62
     7
100
AcDbCircle
 10
65.9235879894
 20
396.9930537756
 30
0.0
 40
0.1999999926503748
100
AcDbArc
 50
89.766341008
 51
89.7965830068
  0
SPLINE
  5
AA
330
5E
100
AcDbEntity
  8
$DDT_AUDIT_GENERATED_(A1)
  6
Continuous
 62
     7
100
AcDbSpline
210
0.0
220
0.0
230
1.0
 70
     8
 71
     3
 72
    14
 73
    10
 74
     0
 42
0.0000000003795379
 43
0.0000000001
 40
0.0
 40
0.0
 40
0.0
 40
0.0
 40
0.0625
 40
0.0625
 40
0.125
 40
0.125
 40
0.25
 40
0.25
 40
0.250085546434281
 40
0.250085546434281
 40
0.250085546434281
 40
0.250085546434281
 10
272.4985877480508
 20
397.1925482411244
 30
0.0
 10
271.6279568254832
 20
397.1925482411244
 30
0.0
 10
270.7736288913489
 20
397.1920039664707
 30
0.0
 10
269.1776862167193
 20
397.1920047954841
 30
0.0
 10
268.4467537752888
 20
397.1925485565037
 30
0.0
 10
266.6231739400031
 20
397.1925476100407
 30
0.0
 10
265.91028826915
 20
397.1925445165564
 30
0.0
 10
265.9093768369469
 20
397.1925482398887
 30
0.0
 10
265.9093765338343
 20
397.1925482414117
 30
0.0
 10
265.9093765509107
 20
397.192548241914
 30
0.0
  0
SPLINE
  5
AB
330
5E
100
AcDbEntity
  8
$DDT_AUDIT_GENERATED_(A1)
  6
Continuous
 62
     7
100
AcDbSpline
210
0.0
220
0.0
230
1.0
 70
     8
 71
     3
 72
    10
 73
     6
 74
     0
 42
0.0000000003791648
 43
0.0000000001
 40
0.7501603079162349
 40
0.7501603079162349
 40
0.7501603079162349
 40
0.7501603079162349
 40
0.875
 40
0.875
 40
1.0
 40
1.0
 40
1.0
 40
1.0
 10
279.0877988301738
 20
397.1925482548407
 30
0.0
 10
279.0877397963346
 20
397.192555420398
 30
0.0
 10
278.3757868157613
 20
397.1925426296546
 30
0.0
 10
275.9458241845389
 20
397.1925538426078
 30
0.0
 10
274.239849593186
 20
397.1925482411244
 30
0.0
 10
272.4985877480508
 20
397.1925482411244
 30
0.0
  0
SPLINE
  5
AC
330
5E
100
AcDbEntity
  8
$DDT_AUDIT_GENERATED_(A1)
  6
Continuous
 62
     7
100
AcDbSpline
210
0.0
220
0.0
230
1.0
 70
     8
 71
     3
 72
     8
 73
     4
 74
     0
 42
0.0000000007055492
 43
0.0000000001
 40
0.0
 40
0.0
 40
0.0
 40
0.0
 40
1.0
 40
1.0
 40
1.0
 40
1.0
 10
265.9944880239792
 20
397.1985718854033
 30
0.0
 10
261.2771368155058
 20
396.8663634891104
 30
0.0
 10
256.6124067607132
 20
396.1777135207108
 30
0.0
 10
252.0002978596014
 20
395.1326219802048
 30
0.0
  0
SPLINE
  5
AD
330
5E
100
AcDbEntity
  8
$DDT_AUDIT_GENERATED_(A1)
  6
Continuous
 62
     7
100
AcDbSpline
210
0.0
220
0.0
230
1.0
 70
     8
 71
     3
 72
     8
 73
     4
 74
     0
 42
0.0000000007055492
 43
0.0000000001
 40
0.0
 40
0.0
 40
0.0
 40
0.0
 40
1.0
 40
1.0
 40
1.0
 40
1.0
 10
292.9968776364996
 20
395.1326219802048
 30
0.0
 10
288.3847687353879
 20
396.1777135207108
 30
0.0
 10
283.7200386805952
 20
396.8663634891104
 30
0.0
 10
279.0026874721216
 20
397.1985718854033
 30
0.0
  0
ARC
  5
AE
330
5E
100
AcDbEntity
  8
$DDT_AUDIT_GENERATED_(A1)
  6
Continuous
 62
     7
100
AcDbCircle
 10
292.8486803042
 20
394.8586566212
 30
0.0
 40
0.2999292389333832
100
AcDbArc
 50
359.9880839045
 51
77.2839984596
  0
ARC
  5
AF
330
5E
100
AcDbEntity
  8
$DDT_AUDIT_GENERATED_(A1)
  6
Continuous
 62
     7
100
AcDbCircle
 10
252.1484951645
 20
394.8586566211
 30
0.0
 40
0.299929239046059
100
AcDbArc
 50
102.7160014882
 51
180.0119160622
  0
LINE
  5
B0
330
5E
100
AcDbEntity
  8
$DDT_AUDIT_GENERATED_(A1)
  6
Continuous
 62
     7
100
AcDbLine
 10
293.148565388
 20
385.2037338346
 30
0.0
 11
293.148565388
 21
394.8585939651
 31
0.0
  0
LINE
  5
B1
330
5E
100
AcDbEntity
  8
$DDT_AUDIT_GENERATED_(A1)
  6
Continuous
 62
     7
100
AcDbLine
 10
251.8486101081
 20
394.8585939651
 30
0.0
 11
251.8486101081
 21
385.2037338346
 31
0.0
  0
ARC
  5
B2
330
5E
100
AcDbEntity
  8
$DDT_AUDIT_GENERATED_(A1)
  6
Continuous
 62
     7
100
AcDbCircle
 10
279.0735875067
 20
396.9930537755
 30
0.0
 40
0.1999999999767829
100
AcDbArc
 50
90.2034169932
 51
90.2336589921
  0
LINE
  5
B3
330
5E
100
AcDbEntity
  8
$DDT_AUDIT_GENERATED_(7D)
  6
Continuous
 62
     7
100
AcDbLine
 10
258.5032997988
 20
406.7499340671
 30
0.0
 11
272.4985760031
 21
406.7499340671
 31
0.0
  0
LINE
  5
B4
330
5E
100
AcDbEntity
  8
$DDT_AUDIT_GENERATED_(7D)
  6
Continuous
 62
     7
100
AcDbLine
 10
324.6519176909
 20
406.7499340671
 30
0.0
 11
272.4985760031
 21
406.7499340671
 31
0.0
  0
SPLINE
  5
B5
330
5E
100
AcDbEntity
  8
$DDT_AUDIT_GENERATED_(7D)
  6
Continuous
 62
     7
100
AcDbSpline
210
0.0
220
0.0
230
1.0
 70
     8
 71
     5
 72
    12
 73
     6
 74
     0
 42
0.000000002536328
 43
0.0000000001
 40
0.0
 40
0.0
 40
0.0
 40
0.0
 40
0.0
 40
0.0
 40
1.0
 40
1.0
 40
1.0
 40
1.0
 40
1.0
 40
1.0
 10
262.1004034780175
 20
407.8756346434308
 30
0.0
 10
261.6159228302109
 20
407.8756346434308
 30
0.0
 10
260.864479444691
 20
407.8756346434308
 30
0.0
 10
260.163814002197
 20
407.8756346434308
 30
0.0
 10
259.41937443737
 20
407.3716368959109
 30
0.0
 10
258.5032997987649
 20
406.7499340670868
 30
0.0
  0
LINE
  5
B6
330
5E
100
AcDbEntity
  8
$DDT_AUDIT_GENERATED_(7D)
  6
Continuous
 62
     7
100
AcDbLine
 10
272.4985760744
 20
407.8756346434
 30
0.0
 11
262.100403478
 21
407.8756346434
 31
0.0
  0
LINE
  5
B7
330
5E
100
AcDbEntity
  8
$DDT_AUDIT_GENERATED_(7D)
  6
Continuous
 62
     7
100
AcDbLine
 10
324.6519176204
 20
407.8756346434
 30
0.0
 11
272.4985760744
 21
407.8756346434
 31
0.0
  0
SPLINE
  5
B8
330
5E
100
AcDbEntity
  8
$DDT_AUDIT_GENERATED_(7D)
  6
Continuous
 62
     7
100
AcDbSpline
210
0.0
220
0.0
230
1.0
 70
     8
 71
     7
 72
    16
 73
     8
 74
     0
 42
0.0000000005620664
 43
0.0000000001
 40
0.0
 40
0.0
 40
0.0
 40
0.0
 40
0.0
 40
0.0
 40
0.0
 40
0.0
 40
1.0
 40
1.0
 40
1.0
 40
1.0
 40
1.0
 40
1.0
 40
1.0
 40
1.0
 10
338.647193895276
 20
406.7499340670868
 30
0.0
 10
338.647193895276
 20
405.6049661912148
 30
0.0
 10
338.647193895276
 20
403.1741692183649
 30
0.0
 10
334.857574959792
 20
402.0144369236428
 30
0.0
 10
333.9455125883069
 20
401.7353196284699
 30
0.0
 10
329.317009759053
 20
401.5155651907458
 30
0.0
 10
326.651242862989
 20
401.5155651907458
 30
0.0
 10
324.651917690941
 20
401.5155651907458
 30
0.0
  0
LINE
  5
B9
330
5E
100
AcDbEntity
  8
$DDT_AUDIT_GENERATED_(7D)
  6
Continuous
 62
     7
100
AcDbLine
 10
324.6519176909
 20
406.7499340671
 30
0.0
 11
338.6471938953
 21
406.7499340671
 31
0.0
  0
LINE
  5
BA
330
5E
100
AcDbEntity
  8
$DDT_AUDIT_GENERATED_(7D)
  6
Continuous
 62
     7
100
AcDbLine
 10
335.050090216
 20
407.8756346434
 30
0.0
 11
324.6519176204
 21
407.8756346434
 31
0.0
  0
SPLINE
  5
BB
330
5E
100
AcDbEntity
  8
$DDT_AUDIT_GENERATED_(7D)
  6
Continuous
 62
     7
100
AcDbSpline
210
0.0
220
0.0
230
1.0
 70
     8
 71
     5
 72
    12
 73
     6
 74
     0
 42
0.000000002536328
 43
0.0000000001
 40
0.0
 40
0.0
 40
0.0
 40
0.0
 40
0.0
 40
0.0
 40
1.0
 40
1.0
 40
1.0
 40
1.0
 40
1.0
 40
1.0
 10
338.647193895276
 20
406.7499340670868
 30
0.0
 10
337.731119256671
 20
407.3716368959109
 30
0.0
 10
336.986679691844
 20
407.8756346434308
 30
0.0
 10
336.286014249349
 20
407.8756346434308
 30
0.0
 10
335.534570863829
 20
407.8756346434308
 30
0.0
 10
335.0500902160235
 20
407.8756346434308
 30
0.0
  0
SPLINE
  5
BC
330
5E
100
AcDbEntity
  8
$DDT_AUDIT_GENERATED_(7D)
  6
Continuous
 62
     7
100
AcDbSpline
210
0.0
220
0.0
230
1.0
 70
     8
 71
     7
 72
    16
 73
     8
 74
     0
 42
0.0000000010390712
 43
0.0000000001
 40
0.0
 40
0.0
 40
0.0
 40
0.0
 40
0.0
 40
0.0
 40
0.0
 40
0.0
 40
1.0
 40
1.0
 40
1.0
 40
1.0
 40
1.0
 40
1.0
 40
1.0
 40
1.0
 10
265.3090063820877
 20
401.8410418307039
 30
0.0
 10
263.5615828800026
 20
402.0667989287514
 30
0.0
 10
261.9337371027644
 20
402.4234052343753
 30
0.0
 10
260.5388386972842
 20
402.9689204244253
 30
0.0
 10
259.3879295582434
 20
403.7693846779927
 30
0.0
 10
258.5032997987649
 20
404.8524730258696
 30
0.0
 10
258.5032997987649
 20
406.0449456692621
 30
0.0
 10
258.5032997987649
 20
406.7499340670868
 30
0.0
  0
LINE
  5
BD
330
5E
100
AcDbEntity
  8
$DDT_AUDIT_GENERATED_(7D)
  6
Continuous
 62
     7
100
AcDbLine
 10
279.8133841021
 20
401.5155651907
 30
0.0
 11
324.6519176909
 21
401.5155651907
 31
0.0
  0
ARC
  5
BE
330
5E
100
AcDbEntity
  8
$DDT_AUDIT_GENERATED_(7D)
  6
Continuous
 62
     7
100
AcDbCircle
 10
271.8311622684
 20
304.4821634159
 30
0.0
 40
97.36116744065535
100
AcDbArc
 50
85.2972879692
 51
89.6072365119
  0
ARC
  5
BF
330
5E
100
AcDbEntity
  8
$DDT_AUDIT_GENERATED_(7D)
  6
Continuous
 62
     7
100
AcDbCircle
 10
265.1808850353
 20
400.8492893896
 30
0.0
 40
0.9999939919912563
100
AcDbArc
 50
0.4998710574
 51
82.6389099389
  0
SPLINE
  5
C0
330
5E
100
AcDbEntity
  8
$DDT_AUDIT_GENERATED_(7D)
  6
Continuous
 62
     7
100
AcDbSpline
210
0.0
220
0.0
230
1.0
 70
     8
 71
     3
 72
    10
 73
     6
 74
     0
 42
0.0000000062458196
 43
0.0000000001
 40
0.0
 40
0.0
 40
0.0
 40
0.0
 40
0.5
 40
0.5
 40
1.0
 40
1.0
 40
1.0
 40
1.0
 10
278.8134221790228
 20
400.5242917262442
 30
0.0
 10
278.8156940884425
 20
400.7846267598622
 30
0.0
 10
278.9244762038276
 20
401.0424638904153
 30
0.0
 10
279.2942625514344
 20
401.4090372423229
 30
0.0
 10
279.5530391553311
 20
401.5155651907458
 30
0.0
 10
279.813384102087
 20
401.5155651907458
 30
0.0
  0
LINE
  5
C1
330
5E
100
AcDbEntity
  8
$DDT_AUDIT_GENERATED_(7D)
  6
Continuous
 62
     7
100
AcDbLine
 10
266.1808410222
 20
400.8580076651
 30
0.0
 11
266.2128321024
 21
397.1921929683
 31
0.0
  0
LINE
  5
C2
330
5E
100
AcDbEntity
  8
$DDT_AUDIT_GENERATED_(7D)
  6
Continuous
 62
     7
100
AcDbLine
 10
278.7843429431
 20
397.1921413364
 30
0.0
 11
278.813422179
 21
400.5242917269
 31
0.0
  0
LINE
  5
C4
330
5E
100
AcDbEntity
  8
$DDT_AUDIT_GENERATED_(C3)
  6
Continuous
 62
     7
100
AcDbLine
 10
201.4985890264
 20
385.015569263
 30
0.0
 11
143.4985864697
 21
385.015569263
 31
0.0
  0
LINE
  5
C5
330
5E
100
AcDbEntity
  8
$DDT_AUDIT_GENERATED_(C3)
  6
Continuous
 62
     7
100
AcDbLine
 10
142.4985823753
 20
379.315569263
 30
0.0
 11
202.498638829
 21
379.315569263
 31
0.0
  0
SPLINE
  5
C6
330
5E
100
AcDbEntity
  8
$DDT_AUDIT_GENERATED_(C3)
  6
Continuous
 62
     7
100
AcDbSpline
210
0.0
220
0.0
230
1.0
 70
     8
 71
     3
 72
    13
 73
     9
 74
     0
 42
0.0000000063014675
 43
0.0000000001
 40
0.0
 40
0.0
 40
0.0
 40
0.0
 40
0.1294353584734629
 40
0.2550301071986517
 40
0.4999999914570848
 40
0.7449698805865111
 40
0.8705646348009904
 40
1.0
 40
1.0
 40
1.0
 40
1.0
 10
202.4985890943056
 20
384.0155692481129
 30
0.0
 10
202.4949080845552
 20
384.089748627075
 30
0.0
 10
202.4868347557074
 20
384.2136600938287
 30
0.0
 10
202.4067636522676
 20
384.4686056068228
 30
0.0
 10
202.2232151355419
 20
384.7401953245814
 30
0.0
 10
201.9516254055895
 20
384.9237438271509
 30
0.0
 10
201.6966798817871
 20
385.0038149251397
 30
0.0
 10
201.5727684092152
 20
385.0118882535066
 30
0.0
 10
201.4985890263771
 20
385.0155692630138
 30
0.0
  0
SPLINE
  5
C7
330
5E
100
AcDbEntity
  8
$DDT_AUDIT_GENERATED_(C3)
  6
Continuous
 62
     7
100
AcDbSpline
210
0.0
220
0.0
230
1.0
 70
     8
 71
     3
 72
    13
 73
     9
 74
     0
 42
0.0000000063014675
 43
0.0000000001
 40
0.0
 40
0.0
 40
0.0
 40
0.0
 40
0.1294353651991215
 40
0.2550301194136423
 40
0.50000000854303
 40
0.7449698928013855
 40
0.8705646415265506
 40
1.0
 40
1.0
 40
1.0
 40
1.0
 10
143.4985864697248
 20
385.0155692630138
 30
0.0
 10
143.4244070868866
 20
385.0118882535066
 30
0.0
 10
143.3004956143146
 20
385.0038149251397
 30
0.0
 10
143.0455500905121
 20
384.9237438271509
 30
0.0
 10
142.7739603605597
 20
384.7401953245814
 30
0.0
 10
142.5904118438342
 20
384.4686056068227
 30
0.0
 10
142.5103407403944
 20
384.2136600938287
 30
0.0
 10
142.5022674115467
 20
384.089748627075
 30
0.0
 10
142.4985864017963
 20
384.0155692481129
 30
0.0
  0
LINE
  5
C8
330
5E
100
AcDbEntity
  8
$DDT_AUDIT_GENERATED_(C3)
  6
Continuous
 62
     7
100
AcDbLine
 10
142.4985823753
 20
384.0205692481
 30
0.0
 11
142.4985823753
 21
379.315569263
 31
0.0
  0
LINE
  5
C9
330
5E
100
AcDbEntity
  8
$DDT_AUDIT_GENERATED_(C3)
  6
Continuous
 62
     7
100
AcDbLine
 10
202.498638829
 20
379.315569263
 30
0.0
 11
202.498638829
 21
384.0205692481
 31
0.0
  0
SPLINE
  5
CB
330
5E
100
AcDbEntity
  8
$DDT_AUDIT_GENERATED_(CA)
  6
Continuous
 62
     7
100
AcDbSpline
210
0.0
220
0.0
230
1.0
 70
     8
 71
     2
 72
    24
 73
    21
 74
     0
 42
0.0000000002263566
 43
0.0000000001
 40
0.182594213786811
 40
0.182594213786811
 40
0.182594213786811
 40
0.1875014306084376
 40
0.1875014306084376
 40
0.2500019074779168
 40
0.2500019074779168
 40
0.3750028612168751
 40
0.3750028612168751
 40
0.4375033380863543
 40
0.4375033380863543
 40
0.5000038149558336
 40
0.5000038149558336
 40
0.5625042918253127
 40
0.5625042918253127
 40
0.6250047686947919
 40
0.6250047686947919
 40
0.7500057224337503
 40
0.7500057224337503
 40
0.8125061993032294
 40
0.8125061993032294
 40
0.816922611675159
 40
0.816922611675159
 40
0.816922611675159
 10
158.5362458344827
 20
648.3756988469305
 30
0.0
 10
158.6174710339335
 20
648.3903276338276
 30
0.0
 10
158.7008604885866
 20
648.4048120751304
 30
0.0
 10
159.562075167658
 20
648.5544018946099
 30
0.0
 10
160.600486760286
 20
648.6798790793871
 30
0.0
 10
162.9767374930756
 20
648.9670149842552
 30
0.0
 10
166.0302218441012
 20
649.1214862138536
 30
0.0
 10
167.585555895287
 20
649.200168249097
 30
0.0
 10
169.2351854339386
 20
649.2398387893695
 30
0.0
 10
170.8501053506684
 20
649.2786746274122
 30
0.0
 10
172.497255871257
 20
649.2786900786477
 30
0.0
 10
174.2102548812538
 20
649.2787061475806
 30
0.0
 10
175.8893420070512
 20
649.2367072296785
 30
0.0
 10
177.4563886629223
 20
649.1975107741537
 30
0.0
 10
178.9359724612781
 20
649.1230462362248
 30
0.0
 10
182.0152918323029
 20
648.968070158254
 30
0.0
 10
184.3967217871691
 20
648.679875096793
 30
0.0
 10
185.4494847662157
 20
648.5524721929913
 30
0.0
 10
186.3209360055346
 20
648.4007343141669
 30
0.0
 10
186.393956039124
 20
648.3880199998041
 30
0.0
 10
186.4653326191905
 20
648.3751797547404
 30
0.0
  0
SPLINE
  5
CC
330
5E
100
AcDbEntity
  8
$DDT_AUDIT_GENERATED_(CA)
  6
Continuous
 62
     7
100
AcDbSpline
210
0.0
220
0.0
230
1.0
 70
     8
 71
     3
 72
    28
 73
    24
 74
     0
 42
0.0000000002437014
 43
0.0000000001
 40
0.0143446742096596
 40
0.0143446742096596
 40
0.0143446742096596
 40
0.0143446742096596
 40
0.0156098826952138
 40
0.0313223975365748
 40
0.0626355170556527
 40
0.093948638941842
 40
0.1252617616261093
 40
0.1565748835317399
 40
0.1878880030895211
 40
0.2504387979714111
 40
0.3749379379779924
 40
0.4374886202544596
 40
0.5000392477592377
 40
0.5625898151313691
 40
0.6251403193206921
 40
0.7496387907488602
 40
0.8121891113937479
 40
0.874739380705376
 40
0.9060522131752679
 40
0.9373650360658757
 40
0.9686778506875536
 40
0.9843898279035108
 40
0.9856555269147504
 40
0.9856555269147504
 40
0.9856555269147504
 40
0.9856555269147504
 10
192.065038112206
 20
645.990095827042
 30
0.0
 10
192.063997188136
 20
645.9932483015563
 30
0.0
 10
192.0492100873813
 20
646.0355387805118
 30
0.0
 10
191.9737089470053
 20
646.1565306052546
 30
0.0
 10
191.7398436278436
 20
646.3495447618726
 30
0.0
 10
191.2714082440209
 20
646.5772944936887
 30
0.0
 10
190.6229058739071
 20
646.798145433595
 30
0.0
 10
189.7997244238581
 20
647.0102492735698
 30
0.0
 10
188.4806204810085
 20
647.2783597382733
 30
0.0
 10
185.6346763689488
 20
647.7019006384013
 30
0.0
 10
181.2580287695748
 20
648.0581813981158
 30
0.0
 10
176.3450346524057
 20
648.2391864529692
 30
0.0
 10
172.4985900391289
 20
648.2855393549728
 30
0.0
 10
168.6521372848366
 20
648.2391642886711
 30
0.0
 10
163.7392374698722
 20
648.058162272881
 30
0.0
 10
159.3622662424507
 20
647.7017053506042
 30
0.0
 10
156.1101163322027
 20
647.2179354696506
 30
0.0
 10
154.5895372648814
 20
646.8714473745672
 30
0.0
 10
153.7260460656403
 20
646.5772331178687
 30
0.0
 10
153.2574895347408
 20
646.349466931756
 30
0.0
 10
153.0236629181096
 20
646.1564625457822
 30
0.0
 10
152.9481570838942
 20
646.0354645341986
 30
0.0
 10
152.9333697524946
 20
645.9931740766638
 30
0.0
 10
152.9323290076102
 20
645.9900209743231
 30
0.0
  0
ARC
  5
CD
330
5E
100
AcDbEntity
  8
$DDT_AUDIT_GENERATED_(CA)
  6
Continuous
 62
     7
100
AcDbCircle
 10
172.0962540385
 20
638.7934850434
 30
0.0
 40
20.44821543786723
100
AcDbArc
 50
180.0236327622
 51
182.0109745618
  0
ARC
  5
CE
330
5E
100
AcDbEntity
  8
$DDT_AUDIT_GENERATED_(CA)
  6
Continuous
 62
     7
100
AcDbCircle
 10
172.8969477067
 20
638.7947342721
 30
0.0
 40
20.45233988978441
100
AcDbArc
 50
357.9859219343
 51
0.7671306762
  0
SPLINE
  5
CF
330
5E
100
AcDbEntity
  8
$DDT_AUDIT_GENERATED_(CA)
  6
Continuous
 62
     7
100
AcDbSpline
210
0.0
220
0.0
230
1.0
 70
     8
 71
     3
 72
     8
 73
     4
 74
     0
 42
0.000000002409128
 43
0.0000000001
 40
0.8306302041974101
 40
0.8306302041974101
 40
0.8306302041974101
 40
0.8306302041974101
 40
1.0
 40
1.0
 40
1.0
 40
1.0
 10
184.3259413548647
 20
631.2511769477496
 30
0.0
 10
184.6093791159022
 20
631.4474093973141
 30
0.0
 10
184.7545281578434
 20
631.6197589199624
 30
0.0
 10
184.7483983325354
 20
631.752585604372
 30
0.0
  0
SPLINE
  5
D0
330
5E
100
AcDbEntity
  8
$DDT_AUDIT_GENERATED_(CA)
  6
Continuous
 62
     7
100
AcDbSpline
210
0.0
220
0.0
230
1.0
 70
     8
 71
     3
 72
     8
 73
     4
 74
     0
 42
0.000000002409047
 43
0.0000000001
 40
0.830627825339452
 40
0.830627825339452
 40
0.830627825339452
 40
0.830627825339452
 40
1.0
 40
1.0
 40
1.0
 40
1.0
 10
160.6712442218722
 20
631.2511755643858
 30
0.0
 10
160.3877998468046
 20
631.4474151311649
 30
0.0
 10
160.2426479576139
 20
631.6198039105569
 30
0.0
 10
160.2487771330825
 20
631.752622780222
 30
0.0
  0
SPLINE
  5
D1
330
5E
100
AcDbEntity
  8
$DDT_AUDIT_GENERATED_(CA)
  6
Continuous
 62
     7
100
AcDbSpline
210
0.0
220
0.0
230
1.0
 70
     8
 71
     3
 72
    20
 73
    16
 74
     0
 42
0.0000000003955295
 43
0.0000000001
 40
0.0
 40
0.0
 40
0.0
 40
0.0
 40
0.1250000000000002
 40
0.1250000000000002
 40
0.2500000000000005
 40
0.2500000000000005
 40
0.3750000000000007
 40
0.3750000000000007
 40
0.5000000000000009
 40
0.5000000000000009
 40
0.625000000000001
 40
0.625000000000001
 40
0.7500000000000011
 40
0.7500000000000011
 40
1.0
 40
1.0
 40
1.0
 40
1.0
 10
160.2487771330825
 20
631.752622780222
 30
0.0
 10
160.2577179711538
 20
631.9463700453114
 30
0.0
 10
160.5876622991456
 20
632.1390440262722
 30
0.0
 10
161.8188415490631
 20
632.4926793187276
 30
0.0
 10
162.7339244546721
 20
632.6564621696566
 30
0.0
 10
164.988046409858
 20
632.9268118896192
 30
0.0
 10
166.3499440025514
 20
633.0362513590047
 30
0.0
 10
169.2944043664557
 20
633.1829742623779
 30
0.0
 10
170.8907284441527
 20
633.2214464843232
 30
0.0
 10
174.0924288039702
 20
633.2216615049699
 30
0.0
 10
175.6762067593751
 20
633.1841340618353
 30
0.0
 10
178.6557435565258
 20
633.0359901184423
 30
0.0
 10
179.9991274858629
 20
632.927925808197
 30
0.0
 10
183.4019549540494
 20
632.5200618516055
 30
0.0
 10
184.7304712295201
 20
632.1410919749694
 30
0.0
 10
184.7483983325354
 20
631.752585604372
 30
0.0
  0
LINE
  5
D2
330
5E
100
AcDbEntity
  8
$DDT_AUDIT_GENERATED_(CA)
  6
Continuous
 62
     7
100
AcDbLine
 10
172.4985346859
 20
486.3155692928
 30
0.0
 11
151.9504185545
 21
486.3155692928
 31
0.0
  0
LINE
  5
D3
330
5E
100
AcDbEntity
  8
$DDT_AUDIT_GENERATED_(CA)
  6
Continuous
 62
     7
100
AcDbLine
 10
172.4985341746
 20
486.3155692928
 30
0.0
 11
193.0467569224
 21
486.3155692928
 31
0.0
  0
ARC
  5
D4
330
5E
100
AcDbEntity
  8
$DDT_AUDIT_GENERATED_(CA)
  6
Continuous
 62
     7
100
AcDbCircle
 10
160.6920214666
 20
635.1431955455
 30
0.0
 40
13.40779354719919
100
AcDbArc
 50
99.1279208381
 51
122.2944721719
  0
ARC
  5
D5
330
5E
100
AcDbEntity
  8
$DDT_AUDIT_GENERATED_(CA)
  6
Continuous
 62
     7
100
AcDbCircle
 10
184.3051495541
 20
635.1431843805
 30
0.0
 40
13.407805279933
100
AcDbArc
 50
57.7055405577
 51
80.8720676023
  0
LINE
  5
D6
330
5E
100
AcDbEntity
  8
$DDT_AUDIT_GENERATED_(CA)
  6
Continuous
 62
     7
100
AcDbLine
 10
151.6488481433
 20
638.7870023109
 30
0.0
 11
151.6488480036
 21
627.635957406
 31
0.0
  0
ARC
  5
D7
330
5E
100
AcDbEntity
  8
$DDT_AUDIT_GENERATED_(CA)
  6
Continuous
 62
     7
100
AcDbCircle
 10
172.4986971332
 20
638.7856756086
 30
0.0
 40
20.85086751093793
100
AcDbArc
 50
159.7499287017
 51
179.9938231571
  0
ARC
  5
D8
330
5E
100
AcDbEntity
  8
$DDT_AUDIT_GENERATED_(CA)
  6
Continuous
 62
     7
100
AcDbCircle
 10
172.4986971332
 20
638.7856756086
 30
0.0
 40
20.85086751093793
100
AcDbArc
 50
0.7989578828
 51
20.2501999511
  0
ARC
  5
D9
330
5E
100
AcDbEntity
  8
$DDT_AUDIT_GENERATED_(CA)
  6
Continuous
 62
     7
100
AcDbCircle
 10
22257.112445646
 20
609.2724961803
 30
0.0
 40
22105.47123352324
100
AcDbArc
 50
179.9524030699
 51
180.0473624628
  0
LINE
  5
DA
330
5E
100
AcDbEntity
  8
$DDT_AUDIT_GENERATED_(CA)
  6
Continuous
 62
     7
100
AcDbLine
 10
193.3483274366
 20
627.6359568915
 30
0.0
 11
193.3483275763
 21
638.7870028689
 31
0.0
  0
ARC
  5
DB
330
5E
100
AcDbEntity
  8
$DDT_AUDIT_GENERATED_(CA)
  6
Continuous
 62
     7
100
AcDbCircle
 10
-21926.225246505
 20
609.2724736863
 30
0.0
 40
22119.58120503147
100
AcDbArc
 50
359.9526678083
 51
0.0475666265
  0
LINE
  5
DC
330
5E
100
AcDbEntity
  8
$DDT_AUDIT_GENERATED_(CA)
  6
Continuous
 62
     7
100
AcDbLine
 10
193.3467569416
 20
486.6155692928
 30
0.0
 11
193.3467569416
 21
590.9994154566
 31
0.0
  0
LINE
  5
DD
330
5E
100
AcDbEntity
  8
$DDT_AUDIT_GENERATED_(CA)
  6
Continuous
 62
     7
100
AcDbLine
 10
151.6504185545
 20
590.9994154566
 30
0.0
 11
151.6504185545
 21
486.6155692928
 31
0.0
  0
ARC
  5
DE
330
5E
100
AcDbEntity
  8
$DDT_AUDIT_GENERATED_(CA)
  6
Continuous
 62
     7
100
AcDbCircle
 10
151.9504185545
 20
486.6155692928
 30
0.0
 40
0.3000000000000017
100
AcDbArc
 50
180.0
 51
270.0
  0
ARC
  5
DF
330
5E
100
AcDbEntity
  8
$DDT_AUDIT_GENERATED_(CA)
  6
Continuous
 62
     7
100
AcDbCircle
 10
193.0467569416
 20
486.6155692928
 30
0.0
 40
0.2999999999999947
100
AcDbArc
 50
270.0
 51
0.0
  0
LINE
  5
E1
330
5E
100
AcDbEntity
  8
$DDT_AUDIT_GENERATED_(E0)
  6
Continuous
 62
     7
100
AcDbLine
 10
192.8485877481
 20
485.8155692928
 30
0.0
 11
192.8485877481
 21
486.3155692928
 31
0.0
  0
LINE
  5
E2
330
5E
100
AcDbEntity
  8
$DDT_AUDIT_GENERATED_(E0)
  6
Continuous
 62
     7
100
AcDbLine
 10
152.1485877481
 20
486.3155692928
 30
0.0
 11
152.1485877481
 21
485.8155692928
 31
0.0
  0
LINE
  5
E4
330
5E
100
AcDbEntity
  8
$DDT_AUDIT_GENERATED_(E3)
  6
Continuous
 62
     7
100
AcDbLine
 10
151.9485877481
 20
485.8155692928
 30
0.0
 11
193.0485877481
 21
485.8155692928
 31
0.0
  0
LINE
  5
E5
330
5E
100
AcDbEntity
  8
$DDT_AUDIT_GENERATED_(E3)
  6
Continuous
 62
     7
100
AcDbLine
 10
193.3485877481
 20
386.5991333838
 30
0.0
 11
151.6485877481
 21
386.5991333838
 31
0.0
  0
ARC
  5
E6
330
5E
100
AcDbEntity
  8
$DDT_AUDIT_GENERATED_(E3)
  6
Continuous
 62
     7
100
AcDbCircle
 10
151.9485877481
 20
485.5155692928
 30
0.0
 40
0.2999999999999947
100
AcDbArc
 50
90.0
 51
180.0
  0
ARC
  5
E7
330
5E
100
AcDbEntity
  8
$DDT_AUDIT_GENERATED_(E3)
  6
Continuous
 62
     7
100
AcDbCircle
 10
193.0485877481
 20
485.5155692928
 30
0.0
 40
0.3000000000000017
100
AcDbArc
 50
0.0
 51
90.0
  0
LINE
  5
E8
330
5E
100
AcDbEntity
  8
$DDT_AUDIT_GENERATED_(E3)
  6
Continuous
 62
     7
100
AcDbLine
 10
193.3485877481
 20
386.5991333838
 30
0.0
 11
193.3485877481
 21
485.5155692928
 31
0.0
  0
LINE
  5
E9
330
5E
100
AcDbEntity
  8
$DDT_AUDIT_GENERATED_(E3)
  6
Continuous
 62
     7
100
AcDbLine
 10
151.6485877481
 20
485.5155692928
 30
0.0
 11
151.6485877481
 21
386.5991333838
 31
0.0
  0
LINE
  5
EA
330
5E
100
AcDbEntity
  8
$DDT_AUDIT_GENERATED_(E3)
  6
Continuous
 62
     7
100
AcDbLine
 10
193.2985877481
 20
385.8706153919
 30
0.0
 11
193.2985877481
 21
386.3155692928
 31
0.0
  0
LINE
  5
EB
330
5E
100
AcDbEntity
  8
$DDT_AUDIT_GENERATED_(E3)
  6
Continuous
 62
     7
100
AcDbLine
 10
151.6985877481
 20
386.3155692928
 30
0.0
 11
151.6985877481
 21
385.8636284668
 31
0.0
  0
LINE
  5
EC
330
5E
100
AcDbEntity
  8
$DDT_AUDIT_GENERATED_(E3)
  6
Continuous
 62
     7
100
AcDbLine
 10
151.6485877481
 20
386.5991333838
 30
0.0
 11
151.6985877481
 21
386.3155692928
 31
0.0
  0
LINE
  5
ED
330
5E
100
AcDbEntity
  8
$DDT_AUDIT_GENERATED_(E3)
  6
Continuous
 62
     7
100
AcDbLine
 10
193.2985877481
 20
386.3155692928
 30
0.0
 11
193.3485877481
 21
386.5991333838
 31
0.0
  0
LINE
  5
F0
330
5E
100
AcDbEntity
  8
DV1_Standard
  6
CENTER2
 62
     7
100
AcDbLine
 10
92.4986057002
 20
378.5155692928
 30
0.0
 11
52.4986065943
 21
378.5155692928
 31
0.0
  0
LINE
  5
F1
330
5E
100
AcDbEntity
  8
DV1_Standard
  6
CENTER2
 62
     7
100
AcDbLine
 10
72.4986061472
 20
398.5155688458
 30
0.0
 11
72.4986061472
 21
358.5155697399
 31
0.0
  0
LINE
  5
F2
330
5E
100
AcDbEntity
  8
DV1_Standard
  6
CENTER2
 62
     7
100
AcDbLine
 10
192.4986101551
 20
379.315569263
 30
0.0
 11
152.4986110492
 21
379.315569263
 31
0.0
  0
LINE
  5
F3
330
5E
100
AcDbEntity
  8
DV1_Standard
  6
CENTER2
 62
     7
100
AcDbLine
 10
172.4986106021
 20
399.315568816
 30
0.0
 11
172.4986106021
 21
359.31556971
 31
0.0
  0
LINE
  5
F4
330
5E
100
AcDbEntity
  8
DV1_Standard
  6
CENTER2
 62
     7
100
AcDbLine
 10
292.4985649409
 20
378.5155692928
 30
0.0
 11
252.4985658349
 21
378.5155692928
 31
0.0
  0
LINE
  5
F5
330
5E
100
AcDbEntity
  8
DV1_Standard
  6
CENTER2
 62
     7
100
AcDbLine
 10
272.4985653879
 20
398.5155688458
 30
0.0
 11
272.4985653879
 21
358.5155697399
 31
0.0
  0
ENDBLK
  5
F7
330
5E
100
AcDbEntity
  8
0
100
AcDbBlockEnd
  0
BLOCK
  5
162
330
F8
100
AcDbEntity
  8
0
100
AcDbBlockBegin
  2
SE1
 70
     0
 10
0.0
 20
0.0
 30
0.0
  3
SE1
  1

  0
LINE
  5
FA
330
F8
100
AcDbEntity
  8
$DDT_AUDIT_GENERATED_(63)
  6
Continuous
 62
     7
100
AcDbLine
 10
419.5226677655
 20
384.2155692928
 30
0.0
 11
477.5226690288
 21
384.2155692928
 31
0.0
  0
LINE
  5
FB
330
F8
100
AcDbEntity
  8
$DDT_AUDIT_GENERATED_(63)
  6
Continuous
 62
     7
100
AcDbLine
 10
478.5227183376
 20
378.5155692928
 30
0.0
 11
418.5226618839
 21
378.5155692928
 31
0.0
  0
SPLINE
  5
FC
330
F8
100
AcDbEntity
  8
$DDT_AUDIT_GENERATED_(63)
  6
Continuous
 62
     7
100
AcDbSpline
210
0.0
220
0.0
230
1.0
 70
     8
 71
     3
 72
    13
 73
     9
 74
     0
 42
0.0000000063014675
 43
0.0000000001
 40
0.0
 40
0.0
 40
0.0
 40
0.0
 40
0.1294353584796122
 40
0.255030107209807
 40
0.499999991472623
 40
0.7449698805975513
 40
0.870564634807048
 40
1.0
 40
1.0
 40
1.0
 40
1.0
 10
478.5226690966626
 20
383.2155692779148
 30
0.0
 10
478.5189880869125
 20
383.289748656877
 30
0.0
 10
478.5109147580656
 20
383.41366012363
 30
0.0
 10
478.4308436546348
 20
383.6686056366215
 30
0.0
 10
478.2472951379312
 20
383.9401953543782
 30
0.0
 10
477.975705408003
 20
384.1237438569518
 30
0.0
 10
477.7207598842229
 20
384.2038149549417
 30
0.0
 10
477.5968484116623
 20
384.2118882833086
 30
0.0
 10
477.5226690288312
 20
384.2155692928159
 30
0.0
  0
SPLINE
  5
FD
330
F8
100
AcDbEntity
  8
$DDT_AUDIT_GENERATED_(63)
  6
Continuous
 62
     7
100
AcDbSpline
210
0.0
220
0.0
230
1.0
 70
     8
 71
     3
 72
    13
 73
     9
 74
     0
 42
0.0000000063014676
 43
0.0000000001
 40
0.0
 40
0.0
 40
0.0
 40
0.0
 40
0.1294353618362314
 40
0.2550301133060649
 40
0.4999999999999998
 40
0.7449698866939337
 40
0.8705646381637675
 40
1.0
 40
1.0
 40
1.0
 40
1.0
 10
419.5226677655239
 20
384.2155692928159
 30
0.0
 10
419.4484883865906
 20
384.2118882832846
 30
0.0
 10
419.3245769202131
 20
384.2038149548913
 30
0.0
 10
419.0696314085744
 20
384.1237438563
 30
0.0
 10
418.7980416919198
 20
383.940195351519
 30
0.0
 10
418.6144931871388
 20
383.6686056348643
 30
0.0
 10
418.5344220885474
 20
383.4136601232257
 30
0.0
 10
418.5263487601542
 20
383.2897486568482
 30
0.0
 10
418.522667750623
 20
383.2155692779148
 30
0.0
  0
LINE
  5
FE
330
F8
100
AcDbEntity
  8
$DDT_AUDIT_GENERATED_(63)
  6
Continuous
 62
     7
100
AcDbLine
 10
418.5226618839
 20
383.2205692779
 30
0.0
 11
418.5226618839
 21
378.5155692928
 31
0.0
  0
LINE
  5
FF
330
F8
100
AcDbEntity
  8
$DDT_AUDIT_GENERATED_(63)
  6
Continuous
 62
     7
100
AcDbLine
 10
478.5227183376
 20
378.5155692928
 30
0.0
 11
478.5227183376
 21
383.2205692779
 31
0.0
  0
LINE
  5
100
330
F8
100
AcDbEntity
  8
$DDT_AUDIT_GENERATED_(70)
  6
Continuous
 62
     7
100
AcDbLine
 10
448.5226677506
 20
385.2037310852
 30
0.0
 11
462.9357727224
 21
385.2037338346
 31
0.0
  0
LINE
  5
101
330
F8
100
AcDbEntity
  8
$DDT_AUDIT_GENERATED_(70)
  6
Continuous
 62
     7
100
AcDbLine
 10
434.1095627788
 20
385.2037338346
 30
0.0
 11
448.5226677506
 21
385.2037310852
 31
0.0
  0
SPLINE
  5
102
330
F8
100
AcDbEntity
  8
$DDT_AUDIT_GENERATED_(70)
  6
Continuous
 62
     7
100
AcDbSpline
210
0.0
220
0.0
230
1.0
 70
     8
 71
     3
 72
    17
 73
    13
 74
     0
 42
0.000000001553544
 43
0.0000000001
 40
0.0
 40
0.0
 40
0.0
 40
0.0
 40
0.0833354487014831
 40
0.1663736216528879
 40
0.2494866424919604
 40
0.3752626340111653
 40
0.5000479199939184
 40
0.6246601036732432
 40
0.7502964613493427
 40
0.8754314240554908
 40
0.9377169111661814
 40
1.0
 40
1.0
 40
1.0
 40
1.0
 10
434.1095627788451
 20
385.2037338345568
 30
0.0
 10
433.7778689604227
 20
385.2036691638405
 30
0.0
 10
433.1156645478862
 20
385.2035400531026
 30
0.0
 10
432.2096749504058
 20
385.2034105428602
 30
0.0
 10
431.2305116681956
 20
385.2033723839224
 30
0.0
 10
430.2420151602333
 20
385.2032670880056
 30
0.0
 10
429.3169547601857
 20
385.2032824786218
 30
0.0
 10
428.5876228626553
 20
385.2033710823181
 30
0.0
 10
428.0602372405999
 20
385.2035189302144
 30
0.0
 10
427.7971971227481
 20
385.2036501642871
 30
0.0
 10
427.687918566086
 20
385.2037102049615
 30
0.0
 10
427.6777512905275
 20
385.2037221938806
 30
0.0
 10
427.6726677506217
 20
385.2037338345568
 30
0.0
  0
SPLINE
  5
103
330
F8
100
AcDbEntity
  8
$DDT_AUDIT_GENERATED_(70)
  6
Continuous
 62
     7
100
AcDbSpline
210
0.0
220
0.0
230
1.0
 70
     8
 71
     3
 72
    17
 73
    13
 74
     0
 42
0.000000001553544
 43
0.0000000001
 40
0.0
 40
0.0
 40
0.0
 40
0.0
 40
0.0627289163599583
 40
0.1254602832760826
 40
0.2499137825791045
 40
0.3746483269236378
 40
0.500297641949969
 40
0.6249459110890658
 40
0.7494413562942406
 40
0.8749659811880093
 40
0.9374489124370873
 40
1.0
 40
1.0
 40
1.0
 40
1.0
 10
469.3726677506218
 20
385.2037338345568
 30
0.0
 10
469.3675118012345
 20
385.2037220772969
 30
0.0
 10
469.3571997010388
 20
385.2037098552024
 30
0.0
 10
469.2470440894257
 20
385.2036496222948
 30
0.0
 10
468.984209821593
 20
385.2035186109417
 30
0.0
 10
468.4580226151334
 20
385.2033717086281
 30
0.0
 10
467.7289957698043
 20
385.2032803872045
 30
0.0
 10
466.8044180708313
 20
385.2032746990123
 30
0.0
 10
465.6954439030569
 20
385.2033570480135
 30
0.0
 10
464.6228576833323
 20
385.2034960838007
 30
0.0
 10
463.6857218347824
 20
385.2036207061608
 30
0.0
 10
463.1858465875742
 20
385.2036961113902
 30
0.0
 10
462.9357727224314
 20
385.2037338345568
 30
0.0
  0
LINE
  5
104
330
F8
100
AcDbEntity
  8
$DDT_AUDIT_GENERATED_(70)
  6
Continuous
 62
     7
100
AcDbLine
 10
427.6823236996
 20
385.1607648003
 30
0.0
 11
423.8745619415
 21
384.3071559481
 31
0.0
  0
LINE
  5
105
330
F8
100
AcDbEntity
  8
$DDT_AUDIT_GENERATED_(70)
  6
Continuous
 62
     7
100
AcDbLine
 10
473.1707735597
 20
384.3071559481
 30
0.0
 11
469.3630116324
 21
385.1607648382
 31
0.0
  0
LINE
  5
106
330
F8
100
AcDbEntity
  8
$DDT_AUDIT_GENERATED_(70)
  6
Continuous
 62
     7
100
AcDbLine
 10
423.8726677506
 20
384.3205692928
 30
0.0
 11
423.8726677506
 21
384.2155692928
 31
0.0
  0
LINE
  5
107
330
F8
100
AcDbEntity
  8
$DDT_AUDIT_GENERATED_(70)
  6
Continuous
 62
     7
100
AcDbLine
 10
473.1726677506
 20
384.2155692928
 30
0.0
 11
473.1726677506
 21
384.3205692928
 31
0.0
  0
SPLINE
  5
108
330
F8
100
AcDbEntity
  8
$DDT_AUDIT_GENERATED_(7D)
  6
Continuous
 62
     7
100
AcDbSpline
210
0.0
220
0.0
230
1.0
 70
     8
 71
     7
 72
    16
 73
     8
 74
     0
 42
0.0000000005620664
 43
0.0000000001
 40
0.0
 40
0.0
 40
0.0
 40
0.0
 40
0.0
 40
0.0
 40
0.0
 40
0.0
 40
1.0
 40
1.0
 40
1.0
 40
1.0
 40
1.0
 40
1.0
 40
1.0
 40
1.0
 10
448.5226902151898
 20
401.5155651907458
 30
0.0
 10
446.5233650431416
 20
401.5155651907458
 30
0.0
 10
443.8575981470776
 20
401.5155651907458
 30
0.0
 10
439.2290953178236
 20
401.7353196284699
 30
0.0
 10
438.3170329463386
 20
402.0144369236428
 30
0.0
 10
434.5274140108546
 20
403.1741692183649
 30
0.0
 10
434.5274140108546
 20
405.6049661912148
 30
0.0
 10
434.5274140108546
 20
406.7499340670868
 30
0.0
  0
SPLINE
  5
109
330
F8
100
AcDbEntity
  8
$DDT_AUDIT_GENERATED_(7D)
  6
Continuous
 62
     7
100
AcDbSpline
210
0.0
220
0.0
230
1.0
 70
     8
 71
     7
 72
    16
 73
     8
 74
     0
 42
0.0000000005620664
 43
0.0000000001
 40
0.0
 40
0.0
 40
0.0
 40
0.0
 40
0.0
 40
0.0
 40
0.0
 40
0.0
 40
1.0
 40
1.0
 40
1.0
 40
1.0
 40
1.0
 40
1.0
 40
1.0
 40
1.0
 10
462.5179664195256
 20
406.7499340670868
 30
0.0
 10
462.5179664195256
 20
405.6049661912148
 30
0.0
 10
462.5179664195256
 20
403.1741692183649
 30
0.0
 10
458.7283474840406
 20
402.0144369236428
 30
0.0
 10
457.8162851125556
 20
401.7353196284699
 30
0.0
 10
453.1877822833016
 20
401.5155651907458
 30
0.0
 10
450.5220153872376
 20
401.5155651907458
 30
0.0
 10
448.5226902151898
 20
401.5155651907458
 30
0.0
  0
ARC
  5
10A
330
F8
100
AcDbEntity
  8
$DDT_AUDIT_GENERATED_(7D)
  6
Continuous
 62
     7
100
AcDbCircle
 10
437.7285806702
 20
402.830819055
 30
0.0
 40
5.060329086069354
100
AcDbArc
 50
85.5124001445
 51
93.1412822228
  0
LINE
  5
10B
330
F8
100
AcDbEntity
  8
$DDT_AUDIT_GENERATED_(7D)
  6
Continuous
 62
     7
100
AcDbLine
 10
434.5274140109
 20
406.7499340671
 30
0.0
 11
448.5226902152
 21
406.7499340671
 31
0.0
  0
LINE
  5
10C
330
F8
100
AcDbEntity
  8
$DDT_AUDIT_GENERATED_(7D)
  6
Continuous
 62
     7
100
AcDbLine
 10
448.5226902152
 20
406.7499340671
 30
0.0
 11
462.5179664195
 21
406.7499340671
 31
0.0
  0
ARC
  5
10D
330
F8
100
AcDbEntity
  8
$DDT_AUDIT_GENERATED_(7D)
  6
Continuous
 62
     7
100
AcDbCircle
 10
459.3167997601
 20
402.830819055
 30
0.0
 40
5.060329086071961
100
AcDbArc
 50
78.3947051595
 51
94.4875998555
  0
LINE
  5
10E
330
F8
100
AcDbEntity
  8
$DDT_AUDIT_GENERATED_(7D)
  6
Continuous
 62
     7
100
AcDbLine
 10
448.5226902158
 20
407.8756346434
 30
0.0
 11
438.1245177078
 21
407.8756346434
 31
0.0
  0
LINE
  5
10F
330
F8
100
AcDbEntity
  8
$DDT_AUDIT_GENERATED_(7D)
  6
Continuous
 62
     7
100
AcDbLine
 10
458.9208627226
 20
407.8756346434
 30
0.0
 11
448.5226902158
 21
407.8756346434
 31
0.0
  0
ARC
  5
110
330
F8
100
AcDbEntity
  8
$DDT_AUDIT_GENERATED_(7D)
  6
Continuous
 62
     7
100
AcDbCircle
 10
455.8403988248
 20
400.8492885923
 30
0.0
 40
0.9999999999991234
100
AcDbArc
 50
97.3614393481
 51
179.5
  0
ARC
  5
111
330
F8
100
AcDbEntity
  8
$DDT_AUDIT_GENERATED_(7D)
  6
Continuous
 62
     7
100
AcDbCircle
 10
441.2049754603
 20
400.8492803466
 30
0.0
 40
1.000006008191223
100
AcDbArc
 50
0.5004710041
 51
62.9946914597
  0
ARC
  5
112
330
F8
100
AcDbEntity
  8
$DDT_AUDIT_GENERATED_(7D)
  6
Continuous
 62
     7
100
AcDbCircle
 10
437.469874667
 20
404.1167892003
 30
0.0
 40
3.752505378808261
100
AcDbArc
 50
90.2693906003
 51
135.4361913476
  0
ARC
  5
113
330
F8
100
AcDbEntity
  8
$DDT_AUDIT_GENERATED_(7D)
  6
Continuous
 62
     7
100
AcDbCircle
 10
459.6524669704
 20
404.2824330965
 30
0.0
 40
3.582012038218207
100
AcDbArc
 50
43.5398508237
 51
79.0271792386
  0
LINE
  5
114
330
F8
100
AcDbEntity
  8
$DDT_AUDIT_GENERATED_(7D)
  6
Continuous
 62
     7
100
AcDbLine
 10
442.2049433715
 20
400.8580092019
 30
0.0
 11
442.2369351467
 21
397.1921148659
 31
0.0
  0
LINE
  5
115
330
F8
100
AcDbEntity
  8
$DDT_AUDIT_GENERATED_(7D)
  6
Continuous
 62
     7
100
AcDbLine
 10
454.8084450377
 20
397.1921106146
 30
0.0
 11
454.8404369018
 21
400.8580151375
 31
0.0
  0
LINE
  5
116
330
F8
100
AcDbEntity
  8
02636038_GEHÄUSE
  6
Continuous
 62
     7
100
AcDbLine
 10
568.4308128402
 20
623.0703866001
 30
0.0
 11
589.7003800793
 21
626.2097351731
 31
0.0
  0
SPLINE
  5
117
330
F8
100
AcDbEntity
  8
02636038_GEHÄUSE
  6
Continuous
 62
     7
100
AcDbSpline
210
0.0
220
0.0
230
1.0
 70
     8
 71
     3
 72
    10
 73
     6
 74
     0
 42
0.0000000019260148
 43
0.0000000001
 40
0.0
 40
0.0
 40
0.0
 40
0.0
 40
0.5
 40
0.5
 40
1.0
 40
1.0
 40
1.0
 40
1.0
 10
581.5780118823457
 20
625.3318716103175
 30
0.0
 10
580.7415786790366
 20
625.0932243303189
 30
0.0
 10
579.8972284723832
 20
624.9086993124793
 30
0.0
 10
578.1913710131562
 20
624.6569383692452
 30
0.0
 10
577.3298639916893
 20
624.5897008639603
 30
0.0
 10
576.4604482874049
 20
624.5765287400013
 30
0.0
  0
LINE
  5
118
330
F8
100
AcDbEntity
  8
02636038_GEHÄUSE
  6
Continuous
 62
     7
100
AcDbLine
 10
582.8526051946
 20
628.2315180897
 30
0.0
 11
574.4024904486
 21
626.9842968665
 31
0.0
  0
LINE
  5
119
330
F8
100
AcDbEntity
  8
02636038_GEHÄUSE
  6
Continuous
 62
     7
100
AcDbLine
 10
582.8526051946
 20
628.2315180897
 30
0.0
 11
583.1178337083
 21
626.434554301
 31
0.0
  0
SPLINE
  5
11A
330
F8
100
AcDbEntity
  8
02636038_GEHÄUSE
  6
Continuous
 62
     7
100
AcDbSpline
210
0.0
220
0.0
230
1.0
 70
     8
 71
     3
 72
    14
 73
    10
 74
     0
 42
0.0000000049320844
 43
0.0000000001
 40
0.0
 40
0.0
 40
0.0
 40
0.0
 40
0.1249999999999997
 40
0.1249999999999997
 40
0.2499999999999994
 40
0.2499999999999994
 40
0.4999999999999996
 40
0.4999999999999996
 40
1.0
 40
1.0
 40
1.0
 40
1.0
 10
583.1178337083112
 20
626.4345543010221
 30
0.0
 10
583.130161154952
 20
626.3510339626079
 30
0.0
 10
583.1106024459997
 20
626.2631945055491
 30
0.0
 10
583.0361319141678
 20
626.1115154336602
 30
0.0
 10
582.982280342095
 20
626.0439070928671
 30
0.0
 10
582.8041684781136
 20
625.8648686678877
 30
0.0
 10
582.66027655108
 20
625.7714669021944
 30
0.0
 10
582.2195498837356
 20
625.5332048641886
 30
0.0
 10
581.899253268858
 20
625.4235267273201
 30
0.0
 10
581.5780118823457
 20
625.3318716103175
 30
0.0
  0
SPLINE
  5
11B
330
F8
100
AcDbEntity
  8
02636038_GEHÄUSE
  6
Continuous
 62
     7
100
AcDbSpline
210
0.0
220
0.0
230
1.0
 70
     8
 71
     3
 72
    14
 73
    10
 74
     0
 42
0.0000000049319876
 43
0.0000000001
 40
0.0
 40
0.0
 40
0.0
 40
0.0
 40
0.4999999999999996
 40
0.4999999999999996
 40
0.7499999999999993
 40
0.7499999999999993
 40
0.8749999999999997
 40
0.8749999999999997
 40
1.0
 40
1.0
 40
1.0
 40
1.0
 10
576.4604482874049
 20
624.5765287400013
 30
0.0
 10
576.1249924463519
 20
624.5714464003343
 30
0.0
 10
575.7893184520232
 20
624.5836296498272
 30
0.0
 10
575.2960815812795
 20
624.6849946942664
 30
0.0
 10
575.1327667083167
 20
624.7326733932736
 30
0.0
 10
574.9118436024246
 20
624.8515964250428
 30
0.0
 10
574.8402887695893
 20
624.9007788299203
 30
0.0
 10
574.724401568024
 20
625.0248919047743
 30
0.0
 10
574.6801048596003
 20
625.1034167273677
 30
0.0
 10
574.6677189623225
 20
625.1873330778121
 30
0.0
  0
LINE
  5
11C
330
F8
100
AcDbEntity
  8
02636038_GEHÄUSE
  6
Continuous
 62
     7
100
AcDbLine
 10
574.6677189623
 20
625.1873330778
 30
0.0
 11
574.4024904486
 21
626.9842968665
 31
0.0
  0
LINE
  5
11D
330
F8
100
AcDbEntity
  8
02636038_GEHÄUSE
  6
Continuous
 62
     7
100
AcDbLine
 10
567.8403412569
 20
623.3042169717
 30
0.0
 11
568.4308128402
 21
623.0703866001
 31
0.0
  0
LINE
  5
11E
330
F8
100
AcDbEntity
  8
02636038_GEHÄUSE
  6
Continuous
 62
     7
100
AcDbLine
 10
589.7003800793
 20
626.2097351731
 30
0.0
 11
590.1981189129
 21
626.6041833786
 31
0.0
  0
ARC
  5
11F
330
F8
100
AcDbEntity
  8
02636038_GEHÄUSE
  6
Continuous
 62
     7
100
AcDbCircle
 10
589.5770240647
 20
627.3879187865
 30
0.0
 40
1.0
100
AcDbArc
 50
308.3961302384
 51
8.3961302384
  0
ARC
  5
120
330
F8
100
AcDbEntity
  8
02636038_GEHÄUSE
  6
Continuous
 62
     7
100
AcDbCircle
 10
568.2085286059
 20
624.2339685923
 30
0.0
 40
1.000000000000001
100
AcDbArc
 50
188.3961302384
 51
248.3961302384
  0
LINE
  5
121
330
F8
100
AcDbEntity
  8
02636038_GEHÄUSE
  6
Continuous
 62
     7
100
AcDbLine
 10
566.4942078012
 20
629.0001999547
 30
0.0
 11
567.2192464088
 21
624.0879523796
 31
0.0
  0
LINE
  5
122
330
F8
100
AcDbEntity
  8
02636038_GEHÄUSE
  6
Continuous
 62
     7
100
AcDbLine
 10
590.5663062619
 20
627.5339349992
 30
0.0
 11
589.7348207774
 21
633.1673764634
 31
0.0
  0
LINE
  5
123
330
F8
100
AcDbEntity
  8
$DDT_AUDIT_GENERATED_(9E)
  6
Continuous
 62
     7
100
AcDbLine
 10
570.2204631703
 20
622.9302020935
 30
0.0
 11
588.0275427193
 21
625.558493922
 31
0.0
  0
LINE
  5
124
330
F8
100
AcDbEntity
  8
$DDT_AUDIT_GENERATED_(9E)
  6
Continuous
 62
     7
100
AcDbLine
 10
570.1620566852
 20
623.3259149723
 30
0.0
 11
570.2204631703
 21
622.9302020935
 31
0.0
  0
LINE
  5
125
330
F8
100
AcDbEntity
  8
$DDT_AUDIT_GENERATED_(9E)
  6
Continuous
 62
     7
100
AcDbLine
 10
588.0275427193
 20
625.558493922
 30
0.0
 11
587.9691362342
 21
625.9542068009
 31
0.0
  0
SPLINE
  5
126
330
F8
100
AcDbEntity
  8
$DDT_AUDIT_GENERATED_(A1)
  6
Continuous
 62
     7
100
AcDbSpline
210
0.0
220
0.0
230
1.0
 70
     8
 71
     3
 72
    16
 73
    12
 74
     0
 42
0.0000000003793653
 43
0.0000000001
 40
0.5000563846239996
 40
0.5000563846239996
 40
0.5000563846239996
 40
0.5000563846239996
 40
0.6249999999999999
 40
0.6249999999999999
 40
0.6875
 40
0.6875
 40
0.75
 40
0.75
 40
0.875
 40
0.875
 40
1.0
 40
1.0
 40
1.0
 40
1.0
 10
455.1118790440599
 20
397.1925482427966
 30
0.0
 10
455.1118440187906
 20
397.1925507159307
 30
0.0
 10
454.3998284017395
 20
397.1925414373231
 30
0.0
 10
452.57950058042
 20
397.1925516255918
 30
0.0
 10
451.847926778224
 20
397.1920065621685
 30
0.0
 10
450.2546108292056
 20
397.1920022181902
 30
0.0
 10
449.3983386852303
 20
397.1925446140679
 30
0.0
 10
446.7914853024301
 20
397.1925554532779
 30
0.0
 10
445.0848211324545
 20
397.1925426224598
 30
0.0
 10
442.6494114728997
 20
397.1925538426078
 30
0.0
 10
441.9334566420084
 20
397.1925482411244
 30
0.0
 10
441.9334566420084
 20
397.1925482411244
 30
0.0
  0
SPLINE
  5
127
330
F8
100
AcDbEntity
  8
$DDT_AUDIT_GENERATED_(A1)
  6
Continuous
 62
     7
100
AcDbSpline
210
0.0
220
0.0
230
1.0
 70
     8
 71
     3
 72
     8
 73
     4
 74
     0
 42
0.0000000007055492
 43
0.0000000001
 40
0.0
 40
0.0
 40
0.0
 40
0.0
 40
1.0
 40
1.0
 40
1.0
 40
1.0
 10
442.0185681309723
 20
397.1985718854033
 30
0.0
 10
437.3012169224988
 20
396.8663634891104
 30
0.0
 10
432.6364868677063
 20
396.1777135207108
 30
0.0
 10
428.0243779665948
 20
395.1326219802048
 30
0.0
  0
SPLINE
  5
128
330
F8
100
AcDbEntity
  8
$DDT_AUDIT_GENERATED_(A1)
  6
Continuous
 62
     7
100
AcDbSpline
210
0.0
220
0.0
230
1.0
 70
     8
 71
     3
 72
     8
 73
     4
 74
     0
 42
0.0000000007055492
 43
0.0000000001
 40
0.0
 40
0.0
 40
0.0
 40
0.0
 40
1.0
 40
1.0
 40
1.0
 40
1.0
 10
469.0209577434921
 20
395.1326219802048
 30
0.0
 10
464.4088488423807
 20
396.1777135207108
 30
0.0
 10
459.7441187875882
 20
396.8663634891104
 30
0.0
 10
455.0267675791144
 20
397.1985718854033
 30
0.0
  0
SPLINE
  5
129
330
F8
100
AcDbEntity
  8
$DDT_AUDIT_GENERATED_(A1)
  6
Continuous
 62
     7
100
AcDbSpline
210
0.0
220
0.0
230
1.0
 70
     8
 71
     3
 72
    11
 73
     7
 74
     0
 42
0.0000000244193847
 43
0.0000000001
 40
0.0
 40
0.0
 40
0.0
 40
0.0
 40
0.2533056710154847
 40
0.4999737596469236
 40
0.74665618642391
 40
1.0
 40
1.0
 40
1.0
 40
1.0
 10
469.172872481213
 20
394.8585953004505
 30
0.0
 10
469.1696967900897
 20
394.8958684004177
 30
0.0
 10
469.1626370995612
 20
394.9589681759447
 30
0.0
 10
469.1114235397619
 20
395.0493071995759
 30
0.0
 10
469.0345641103432
 20
395.1191459483627
 30
0.0
 10
468.9745608318478
 20
395.1399254418728
 30
0.0
 10
468.938895855396
 20
395.15123030425
 30
0.0
  0
SPLINE
  5
12A
330
F8
100
AcDbEntity
  8
$DDT_AUDIT_GENERATED_(A1)
  6
Continuous
 62
     7
100
AcDbSpline
210
0.0
220
0.0
230
1.0
 70
     8
 71
     3
 72
    11
 73
     7
 74
     0
 42
0.0000000244211846
 43
0.0000000001
 40
0.0
 40
0.0
 40
0.0
 40
0.0
 40
0.2533237735973242
 40
0.4999999999992771
 40
0.7466762264016377
 40
1.0
 40
1.0
 40
1.0
 40
1.0
 10
428.1066254954054
 20
395.151229323237
 30
0.0
 10
428.0709665584163
 20
395.1399242127978
 30
0.0
 10
428.0109716145228
 20
395.1191440560275
 30
0.0
 10
427.9341263483996
 20
395.0493040194123
 30
0.0
 10
427.8829233378713
 20
394.9589653380359
 30
0.0
 10
427.8758651396494
 20
394.8958670809596
 30
0.0
 10
427.8726902150993
 20
394.858593965134
 30
0.0
  0
LINE
  5
12B
330
F8
100
AcDbEntity
  8
$DDT_AUDIT_GENERATED_(A1)
  6
Continuous
 62
     7
100
AcDbLine
 10
427.8726902151
 20
394.8585939651
 30
0.0
 11
427.8726902151
 21
385.2035384336
 31
0.0
  0
LINE
  5
12C
330
F8
100
AcDbEntity
  8
$DDT_AUDIT_GENERATED_(A1)
  6
Continuous
 62
     7
100
AcDbLine
 10
469.172645495
 20
385.2036770896
 30
0.0
 11
469.172645495
 21
394.8585939651
 31
0.0
  0
LINE
  5
12D
330
F8
100
AcDbEntity
  8
$DDT_AUDIT_GENERATED_(C3)
  6
Continuous
 62
     7
100
AcDbLine
 10
478.5227183375
 20
383.2205692779
 30
0.0
 11
478.5227183375
 21
384.0205692481
 31
0.0
  0
LINE
  5
12F
330
F8
100
AcDbEntity
  8
$DDT_AUDIT_GENERATED_(12E)
  6
Continuous
 62
     7
100
AcDbLine
 10
401.0310083026
 20
445.2681494328
 30
0.0
 11
401.0309982869
 21
441.2681494328
 31
0.0
  0
LINE
  5
130
330
F8
100
AcDbEntity
  8
$DDT_AUDIT_GENERATED_(12E)
  6
Continuous
 62
     7
100
AcDbLine
 10
414.4982956625
 20
445.2681157118
 30
0.0
 11
401.0310083026
 21
445.2681494328
 31
0.0
  0
LINE
  5
131
330
F8
100
AcDbEntity
  8
$DDT_AUDIT_GENERATED_(12E)
  6
Continuous
 62
     7
100
AcDbLine
 10
401.0309982869
 20
441.2681494328
 30
0.0
 11
414.4982856468
 21
441.2681157118
 31
0.0
  0
ARC
  5
132
330
F8
100
AcDbEntity
  8
$DDT_AUDIT_GENERATED_(12E)
  6
Continuous
 62
     7
100
AcDbCircle
 10
414.4982831429
 20
440.2681157118
 30
0.0
 40
0.9999999999999714
100
AcDbArc
 50
17.9998565361
 51
89.9998565361
  0
ARC
  5
133
330
F8
100
AcDbEntity
  8
$DDT_AUDIT_GENERATED_(12E)
  6
Continuous
 62
     7
100
AcDbCircle
 10
414.4982831429
 20
440.2681157118
 30
0.0
 40
4.999999999999963
100
AcDbArc
 50
17.9998565361
 51
89.9998565361
  0
LINE
  5
134
330
F8
100
AcDbEntity
  8
$DDT_AUDIT_GENERATED_(12E)
  6
Continuous
 62
     7
100
AcDbLine
 10
427.7263962356
 20
415.7362875352
 30
0.0
 11
419.2535695932
 21
441.8131887769
 31
0.0
  0
LINE
  5
135
330
F8
100
AcDbEntity
  8
$DDT_AUDIT_GENERATED_(12E)
  6
Continuous
 62
     7
100
AcDbLine
 10
415.449340433
 20
440.5771303248
 30
0.0
 11
427.726324376
 21
402.7921370354
 31
0.0
  0
LINE
  5
136
330
F8
100
AcDbEntity
  8
$DDT_AUDIT_GENERATED_(CA)
  6
Continuous
 62
     7
100
AcDbLine
 10
566.0610600417
 20
628.852992789
 30
0.0
 11
487.4388343087
 21
619.1993905669
 31
0.0
  0
LINE
  5
137
330
F8
100
AcDbEntity
  8
$DDT_AUDIT_GENERATED_(CA)
  6
Continuous
 62
     7
100
AcDbLine
 10
485.3670646943
 20
636.0726502671
 30
0.0
 11
576.1853528401
 21
647.2237339368
 31
0.0
  0
SPLINE
  5
138
330
F8
100
AcDbEntity
  8
$DDT_AUDIT_GENERATED_(CA)
  6
Continuous
 62
     7
100
AcDbSpline
210
0.0
220
0.0
230
1.0
 70
    12
 71
     5
 72
    12
 73
     6
 74
     0
 42
0.0000000001959765
 43
0.0000000001
 40
0.407608228770716
 40
0.407608228770716
 40
0.407608228770716
 40
0.407608228770716
 40
0.407608228770716
 40
0.407608228770716
 40
1.0
 40
1.0
 40
1.0
 40
1.0
 40
1.0
 40
1.0
 10
460.823621200042
 20
608.2081175453545
 30
0.0
 41
1.0
 10
463.6862169986029
 20
612.2641992777958
 30
0.0
 41
1.0
 10
468.0241066851148
 20
615.4602059990542
 30
0.0
 41
1.0
 10
473.7984145696001
 20
617.524548626354
 30
0.0
 41
1.0
 10
480.2398179682727
 20
618.3154618877409
 30
0.0
 41
1.0
 10
487.4388343087166
 20
619.1993905668538
 30
0.0
 41
1.0
  0
SPLINE
  5
139
330
F8
100
AcDbEntity
  8
$DDT_AUDIT_GENERATED_(CA)
  6
Continuous
 62
     7
100
AcDbSpline
210
0.0
220
0.0
230
1.0
 70
     8
 71
     2
 72
    22
 73
    19
 74
     0
 42
0.0000000002965428
 43
0.0000000001
 40
0.0
 40
0.0
 40
0.0
 40
0.0312502384347396
 40
0.0312502384347396
 40
0.0625004768694792
 40
0.0625004768694792
 40
0.1250009537389584
 40
0.1250009537389584
 40
0.1875014306084376
 40
0.1875014306084376
 40
0.2500019074779168
 40
0.2500019074779168
 40
0.3750028612168751
 40
0.3750028612168751
 40
0.4375033380863543
 40
0.4375033380863543
 40
0.5000038149558336
 40
0.5000038149558336
 40
0.5000292542307418
 40
0.5000292542307418
 40
0.5000292542307418
 10
576.185350388776
 20
647.2237539013425
 30
0.0
 10
577.1313711540934
 20
647.3398903805058
 30
0.0
 10
578.1338627929048
 20
647.4629808766035
 30
0.0
 10
578.9997450766413
 20
647.5692978529662
 30
0.0
 10
579.8512790137594
 20
647.6738530738837
 30
0.0
 10
581.2759565218237
 20
647.8487814767327
 30
0.0
 10
582.6088182248477
 20
648.0124363162378
 30
0.0
 10
584.3019914260829
 20
648.2203318449889
 30
0.0
 10
585.8044623243734
 20
648.4048120751304
 30
0.0
 10
587.0227736321827
 20
648.5544018946099
 30
0.0
 10
588.0447032903494
 20
648.6798790793871
 30
0.0
 10
590.3832375635776
 20
648.9670149842552
 30
0.0
 10
591.6413047663151
 20
649.1214862138536
 30
0.0
 10
592.282118516823
 20
649.200168249097
 30
0.0
 10
592.6052091386921
 20
649.2398387893695
 30
0.0
 10
592.9215016564604
 20
649.2786746274122
 30
0.0
 10
592.9216274966744
 20
649.2786900786477
 30
0.0
 10
592.9216275499423
 20
649.2786900851881
 30
0.0
 10
592.9216275465204
 20
649.2786900847681
 30
0.0
  0
SPLINE
  5
13A
330
F8
100
AcDbEntity
  8
$DDT_AUDIT_GENERATED_(CA)
  6
Continuous
 62
     7
100
AcDbSpline
210
0.0
220
0.0
230
1.0
 70
    12
 71
     5
 72
    12
 73
     6
 74
     0
 42
0.0000000001257372
 43
0.0000000001
 40
0.0
 40
0.0
 40
0.0
 40
0.0
 40
0.0
 40
0.0
 40
1.0
 40
1.0
 40
1.0
 40
1.0
 40
1.0
 40
1.0
 10
440.0226677506217
 20
590.9994154565989
 30
0.0
 41
1.0
 10
440.0226677506217
 20
608.5463995913088
 30
0.0
 41
1.0
 10
440.0226677506217
 20
620.9991475511879
 30
0.0
 41
1.0
 10
453.9752129301575
 20
632.2182062004579
 30
0.0
 41
1.0
 10
467.9508740388907
 20
633.934201613021
 30
0.0
 41
1.0
 10
485.3669660031316
 20
636.0734540419061
 30
0.0
 41
1.0
  0
SPLINE
  5
13B
330
F8
100
AcDbEntity
  8
$DDT_AUDIT_GENERATED_(CA)
  6
Continuous
 62
     7
100
AcDbSpline
210
0.0
220
0.0
230
1.0
 70
     8
 71
     3
 72
     8
 73
     4
 74
     0
 42
0.000000000104823
 43
0.0000000001
 40
0.0
 40
0.0
 40
0.0
 40
0.0
 40
0.0641191716467013
 40
0.0641191716467013
 40
0.0641191716467013
 40
0.0641191716467013
 10
457.0226677506217
 20
590.9994154565989
 30
0.0
 10
457.0222907354099
 20
588.9604518621114
 30
0.0
 10
457.0219137201981
 20
586.921488267624
 30
0.0
 10
457.0218432808902
 20
584.8825177495494
 30
0.0
  0
SPLINE
  5
13C
330
F8
100
AcDbEntity
  8
$DDT_AUDIT_GENERATED_(CA)
  6
Continuous
 62
     7
100
AcDbSpline
210
0.0
220
0.0
230
1.0
 70
     8
 71
     3
 72
    18
 73
    14
 74
     0
 42
0.0000000001254406
 43
0.0000000001
 40
0.6240167261518925
 40
0.6240167261518925
 40
0.6240167261518925
 40
0.6240167261518925
 40
0.6262928784716169
 40
0.7093503382000983
 40
0.7511334678078024
 40
0.813479491548105
 40
0.8757159607442254
 40
0.907813181709282
 40
0.9379056950071158
 40
0.9541601677881103
 40
0.9700360648566316
 40
0.9850785120504582
 40
1.0
 40
1.0
 40
1.0
 40
1.0
 10
458.194658919221
 20
531.4999155324844
 30
0.0
 10
458.2026552006218
 20
531.4279507398138
 30
0.0
 10
458.5050865072832
 20
528.7302131100924
 30
0.0
 10
459.1052302319458
 20
524.725367557764
 30
0.0
 10
460.522787126592
 20
518.9593057801225
 30
0.0
 10
462.2319604044035
 20
514.0017386227108
 30
0.0
 10
464.2979860522812
 20
509.7268220452078
 30
0.0
 10
465.946602058989
 20
506.8574734293416
 30
0.0
 10
466.8784097792209
 20
505.3700715527419
 30
0.0
 10
467.46969868869
 20
504.4660802685009
 30
0.0
 10
467.8076883561229
 20
503.9613143172632
 30
0.0
 10
468.0238445075679
 20
503.6435125262715
 30
0.0
 10
468.0503708687253
 20
503.6047959255812
 30
0.0
 10
468.063580523321
 20
503.5855157491438
 30
0.0
  0
SPLINE
  5
13D
330
F8
100
AcDbEntity
  8
$DDT_AUDIT_GENERATED_(CA)
  6
Continuous
 62
     7
100
AcDbSpline
210
0.0
220
0.0
230
1.0
 70
    12
 71
     5
 72
    12
 73
     6
 74
     0
 42
0.0000000022847051
 43
0.0000000001
 40
0.0
 40
0.0
 40
0.0
 40
0.0
 40
0.0
 40
0.0
 40
0.8711078068373855
 40
0.8711078068373855
 40
0.8711078068373855
 40
0.8711078068373855
 40
0.8711078068373855
 40
0.8711078068373855
 10
427.6710075814218
 20
498.5747521236088
 30
0.0
 41
1.0
 10
427.6724537677742
 20
499.4781812170845
 30
0.0
 41
1.0
 10
427.6726401699057
 20
500.2197775765589
 30
0.0
 41
1.0
 10
427.4677920983289
 20
500.9726037823745
 30
0.0
 41
1.0
 10
427.6359939489749
 20
501.5614232082829
 30
0.0
 41
1.0
 10
428.0429111664779
 20
502.2212154168373
 30
0.0
 41
1.0
  0
ARC
  5
13E
330
F8
100
AcDbEntity
  8
$DDT_AUDIT_GENERATED_(CA)
  6
Continuous
 62
     7
100
AcDbCircle
 10
464.0651763119
 20
500.0297332319
 30
0.0
 40
5.350778032017715
100
AcDbArc
 50
352.7234007782
 51
41.6467081424
  0
LINE
  5
13F
330
F8
100
AcDbEntity
  8
$DDT_AUDIT_GENERATED_(CA)
  6
Continuous
 62
     7
100
AcDbLine
 10
427.6693474652
 20
498.5747521236
 30
0.0
 11
427.6693474652
 21
496.1155692928
 31
0.0
  0
ARC
  5
140
330
F8
100
AcDbEntity
  8
$DDT_AUDIT_GENERATED_(CA)
  6
Continuous
 62
     7
100
AcDbCircle
 10
585.6166086855
 20
574.1415856518
 30
0.0
 40
58.10126981133627
100
AcDbArc
 50
109.2592914281
 51
109.6684605033
  0
ARC
  5
141
330
F8
100
AcDbEntity
  8
$DDT_AUDIT_GENERATED_(CA)
  6
Continuous
 62
     7
100
AcDbCircle
 10
585.6181178365
 20
574.1360938136
 30
0.0
 40
58.1069491804855
100
AcDbArc
 50
97.4492697393
 51
109.6680391435
  0
SPLINE
  5
142
330
F8
100
AcDbEntity
  8
$DDT_AUDIT_GENERATED_(CA)
  6
Continuous
 62
     7
100
AcDbSpline
210
0.0
220
0.0
230
1.0
 70
     8
 71
     3
 72
    16
 73
    12
 74
     0
 42
0.0000000004104609
 43
0.0000000001
 40
0.0
 40
0.0
 40
0.0
 40
0.0
 40
0.1250000000000002
 40
0.1250000000000002
 40
0.2500000000000004
 40
0.2500000000000004
 40
0.3750000000000006
 40
0.3750000000000006
 40
0.5000000000000008
 40
0.5000000000000008
 40
0.500183941370868
 40
0.500183941370868
 40
0.500183941370868
 40
0.500183941370868
 10
578.0846503143969
 20
631.752622780222
 30
0.0
 10
579.6813524038831
 20
631.9463700453114
 30
0.0
 10
581.2687177553158
 20
632.1390440262722
 30
0.0
 10
584.1815067284256
 20
632.4926793187276
 30
0.0
 10
585.5300782444737
 20
632.6564621696566
 30
0.0
 10
587.7559061319811
 20
632.9268118896192
 30
0.0
 10
588.6566022768105
 20
633.0362513590048
 30
0.0
 10
589.8642668604339
 20
633.1829742623779
 30
0.0
 10
590.18078749176
 20
633.2214464843232
 30
0.0
 10
590.1816988500567
 20
633.2215541528515
 30
0.0
 10
590.1816995184658
 20
633.2215542295613
 30
0.0
 10
590.1816995161913
 20
633.2215542247799
 30
0.0
  0
LINE
  5
143
330
F8
100
AcDbEntity
  8
$DDT_AUDIT_GENERATED_(CA)
  6
Continuous
 62
     7
100
AcDbLine
 10
469.0730521833
 20
486.3155692928
 30
0.0
 11
427.9693474795
 21
486.3155692928
 31
0.0
  0
LINE
  5
144
330
F8
100
AcDbEntity
  8
$DDT_AUDIT_GENERATED_(CA)
  6
Continuous
 62
     7
100
AcDbLine
 10
469.3730521976
 20
486.6155692928
 30
0.0
 11
469.3730521976
 21
499.3520064266
 31
0.0
  0
ARC
  5
145
330
F8
100
AcDbEntity
  8
$DDT_AUDIT_GENERATED_(CA)
  6
Continuous
 62
     7
100
AcDbCircle
 10
427.9693474795
 20
486.6155692928
 30
0.0
 40
0.2999999999999947
100
AcDbArc
 50
180.0
 51
270.0
  0
ARC
  5
146
330
F8
100
AcDbEntity
  8
$DDT_AUDIT_GENERATED_(CA)
  6
Continuous
 62
     7
100
AcDbCircle
 10
469.0730521835
 20
486.6155693115
 30
0.0
 40
0.3000000140426998
100
AcDbArc
 50
269.9999999478
 51
359.999996424
  0
LINE
  5
147
330
F8
100
AcDbEntity
  8
$DDT_AUDIT_GENERATED_(CA)
  6
Continuous
 62
     7
100
AcDbLine
 10
427.6693474652
 20
488.1155692928
 30
0.0
 11
427.6693474652
 21
486.6155692928
 31
0.0
  0
ARC
  5
148
330
F8
100
AcDbEntity
  8
$DDT_AUDIT_GENERATED_(CA)
  6
Continuous
 62
     7
100
AcDbCircle
 10
407.218317181
 20
492.1155692933
 30
0.0
 40
20.83853736901061
100
AcDbArc
 50
348.9332743352
 51
348.9791095679
  0
ARC
  5
149
330
F8
100
AcDbEntity
  8
$DDT_AUDIT_GENERATED_(CA)
  6
Continuous
 62
     7
100
AcDbCircle
 10
407.2182324795
 20
492.1155692933
 30
0.0
 40
20.83862049541239
100
AcDbArc
 50
348.9333190383
 51
11.0666809587
  0
SPLINE
  5
14A
330
F8
100
AcDbEntity
  8
$DDT_AUDIT_GENERATED_(CA)
  6
Continuous
 62
     7
100
AcDbSpline
210
0.0
220
0.0
230
1.0
 70
     8
 71
     3
 72
    15
 73
    11
 74
     0
 42
0.0000000008551195
 43
0.0000000001
 40
0.0
 40
0.0
 40
0.0
 40
0.0
 40
0.2304122557682503
 40
0.423281032294663
 40
0.5796225059295352
 40
0.7031553870560558
 40
0.7999520822982588
 40
0.8775034485725262
 40
0.9427688408873257
 40
1.0
 40
1.0
 40
1.0
 40
1.0
 10
590.0666288699786
 20
633.1770718826654
 30
0.0
 10
590.9796168684124
 20
633.544333674736
 30
0.0
 10
592.3846972449238
 20
634.1270719281839
 30
0.0
 10
594.4018759662483
 20
635.2249131631693
 30
0.0
 10
595.8987435414518
 20
636.2824128278136
 30
0.0
 10
596.959407282833
 20
637.3012508388664
 30
0.0
 10
597.6237856639792
 20
638.2614292985229
 30
0.0
 10
597.955973487685
 20
639.1361647250174
 30
0.0
 10
598.0412304662823
 20
639.9302769062052
 30
0.0
 10
598.0109877868715
 20
640.3718396320717
 30
0.0
 10
597.9903615035122
 20
640.6154013003583
 30
0.0
  0
SPLINE
  5
14B
330
F8
100
AcDbEntity
  8
$DDT_AUDIT_GENERATED_(CA)
  6
Continuous
 62
     7
100
AcDbSpline
210
0.0
220
0.0
230
1.0
 70
     8
 71
     3
 72
    20
 73
    16
 74
     0
 42
0.0000000006278575
 43
0.0000000001
 40
0.0
 40
0.0
 40
0.0
 40
0.0
 40
0.1341098847385695
 40
0.2397321049589304
 40
0.3191093437592017
 40
0.3782094300071178
 40
0.4365138164477065
 40
0.4965430334354003
 40
0.5427321589600075
 40
0.5905134650563705
 40
0.642315755704852
 40
0.6994210841634995
 40
0.7855415533616618
 40
0.8850859094503802
 40
1.0
 40
1.0
 40
1.0
 40
1.0
 10
457.0226677506217
 20
590.9994154565985
 30
0.0
 10
457.0224457917333
 20
591.9057138440132
 30
0.0
 10
457.0264128466602
 20
593.2671806255162
 30
0.0
 10
457.078649795921
 20
595.2662558832014
 30
0.0
 10
457.1656408558787
 20
596.7640836402977
 30
0.0
 10
457.2699884432353
 20
597.950660176222
 30
0.0
 10
457.3941974164051
 20
599.0039640811715
 30
0.0
 10
457.5411380857606
 20
599.9666120567362
 30
0.0
 10
457.7077269376524
 20
600.8533529569497
 30
0.0
 10
457.8913420791454
 20
601.6779305735506
 30
0.0
 10
458.1028332975395
 20
602.4841446808167
 30
0.0
 10
458.3809531590079
 20
603.3942336778111
 30
0.0
 10
458.741449531122
 20
604.386097971191
 30
0.0
 10
459.2170730085753
 20
605.4811570645226
 30
0.0
 10
459.5456787418127
 20
606.1075029762144
 30
0.0
 10
459.7553770579717
 20
606.500042670241
 30
0.0
  0
ARC
  5
14C
330
F8
100
AcDbEntity
  8
$DDT_AUDIT_GENERATED_(CA)
  6
Continuous
 62
     7
100
AcDbCircle
 10
592.267874521
 20
642.8412947441
 30
0.0
 40
6.470362472860542
100
AcDbArc
 50
57.0347932115
 51
84.4019396451
  0
ARC
  5
14D
330
F8
100
AcDbEntity
  8
$DDT_AUDIT_GENERATED_(CA)
  6
Continuous
 62
     7
100
AcDbCircle
 10
577.2199645828
 20
638.7856756086
 30
0.0
 40
20.85086751093793
100
AcDbArc
 50
5.034991434
 51
27.0590902001
  0
SPLINE
  5
14E
330
F8
100
AcDbEntity
  8
$DDT_AUDIT_GENERATED_(CA)
  6
Continuous
 62
     7
100
AcDbSpline
210
0.0
220
0.0
230
1.0
 70
     8
 71
     3
 72
    43
 73
    39
 74
     0
 42
0.0000000001097025
 43
0.0000000001
 40
0.0
 40
0.0
 40
0.0
 40
0.0
 40
0.0639994444188713
 40
0.1228478544756515
 40
0.1761850256048806
 40
0.2240835573319068
 40
0.2665074281862521
 40
0.3035043135219085
 40
0.3351186226114232
 40
0.3561677994640736
 40
0.373867493297825
 40
0.3882154326724102
 40
0.4013462931744198
 40
0.4158974811047835
 40
0.4318746055139849
 40
0.4492699853106915
 40
0.474471709990343
 40
0.5020039199372914
 40
0.5318100990352855
 40
0.5641448284149232
 40
0.6008612662998327
 40
0.6426026315050029
 40
0.6700850257669058
 40
0.6993944837670709
 40
0.7305103233905944
 40
0.7634278112051267
 40
0.7981854456189161
 40
0.8132427330416588
 40
0.8278648688864981
 40
0.8441203132648785
 40
0.8684301142246419
 40
0.8932132771241469
 40
0.9187223948241307
 40
0.9449239948974142
 40
0.9583677019938419
 40
0.9720224941819308
 40
0.9859181103924295
 40
1.0
 40
1.0
 40
1.0
 40
1.0
 10
440.0432205511361
 20
590.9994154565989
 30
0.0
 10
440.0433017007774
 20
588.6761755439509
 30
0.0
 10
440.0433285806986
 20
584.9234978716828
 30
0.0
 10
440.0435330466682
 20
578.9980821614269
 30
0.0
 10
440.0419857857119
 20
573.7409819399392
 30
0.0
 10
440.0373107094999
 20
568.9943147200917
 30
0.0
 10
440.0282350778824
 20
564.7941380727293
 30
0.0
 10
440.0141386934075
 20
561.1298232344981
 30
0.0
 10
439.9965514868421
 20
558.1712843082961
 30
0.0
 10
439.9781774473582
 20
555.8495746068559
 30
0.0
 10
439.9613313380721
 20
554.0976769472045
 30
0.0
 10
439.9458696386142
 20
552.6073270217012
 30
0.0
 10
439.9291121577039
 20
551.2207980615414
 30
0.0
 10
439.9050609446413
 20
549.7801908530772
 30
0.0
 10
439.8718042371541
 20
548.198999353552
 30
0.0
 10
439.8212266462494
 20
546.2667520262913
 30
0.0
 10
439.7446901473525
 20
543.9541556361739
 30
0.0
 10
439.6279096051918
 20
541.2341907671848
 30
0.0
 10
439.4636752919492
 20
538.2823497447208
 30
0.0
 10
439.2285319802115
 20
535.0346428427061
 30
0.0
 10
438.8834882947806
 20
531.4030839226311
 30
0.0
 10
438.4338305093967
 20
527.9471862247907
 30
0.0
 10
437.8843724226265
 20
524.7613059113131
 30
0.0
 10
437.2831316272876
 20
521.949832540105
 30
0.0
 10
436.5040849788564
 20
519.0162949802861
 30
0.0
 10
435.5132619148643
 20
515.9959933949832
 30
0.0
 10
434.543180797482
 20
513.5716077136382
 30
0.0
 10
433.72428652835
 20
511.7674924134121
 30
0.0
 10
433.1210963459238
 20
510.5242860577962
 30
0.0
 10
432.3748427579734
 20
509.0832818150597
 30
0.0
 10
431.4790082343942
 20
507.4834625829019
 30
0.0
 10
430.4808294206724
 20
505.8350238590809
 30
0.0
 10
429.5411985917276
 20
504.3812426073402
 30
0.0
 10
428.8770852833187
 20
503.40567044516
 30
0.0
 10
428.4655829610132
 20
502.8161720590006
 30
0.0
 10
428.2285827680267
 20
502.4809039976224
 30
0.0
 10
428.0735109520078
 20
502.2640308856086
 30
0.0
 10
428.0527469843785
 20
502.2349177762032
 30
0.0
 10
428.0429811836264
 20
502.221328846089
 30
0.0
  0
ARC
  5
14F
330
F8
100
AcDbEntity
  8
$DDT_AUDIT_GENERATED_(CA)
  6
Continuous
 62
     7
100
AcDbCircle
 10
989.2794802405
 20
569.9579523742
 30
0.0
 40
532.4705173863258
100
AcDbArc
 50
178.3765032478
 51
184.1554916345
  0
SPLINE
  5
150
330
F8
100
AcDbEntity
  8
$DDT_AUDIT_GENERATED_(CA)
  6
Continuous
 62
     7
100
AcDbSpline
210
0.0
220
0.0
230
1.0
 70
     8
 71
     3
 72
     9
 73
     5
 74
     0
 42
0.0000000001119521
 43
0.0000000001
 40
0.7339818792602495
 40
0.7339818792602495
 40
0.7339818792602495
 40
0.7339818792602495
 40
0.7476225520320466
 40
0.7784515729936465
 40
0.7784515729936465
 40
0.7784515729936465
 40
0.7784515729936465
 10
436.0104479966776
 20
517.5015861801212
 30
0.0
 10
435.8822939851459
 20
517.1118024070508
 30
0.0
 10
435.4508191791143
 20
515.8491248212408
 30
0.0
 10
434.9748601811344
 20
514.6157542475449
 30
0.0
 10
434.627270201744
 20
513.7796105970083
 30
0.0
  0
SPLINE
  5
151
330
F8
100
AcDbEntity
  8
$DDT_AUDIT_GENERATED_(CA)
  6
Continuous
 62
     7
100
AcDbSpline
210
0.0
220
0.0
230
1.0
 70
     8
 71
     3
 72
     8
 73
     4
 74
     0
 42
0.0000000001697874
 43
0.0000000001
 40
0.0
 40
0.0
 40
0.0
 40
0.0
 40
0.0747541465972745
 40
0.0747541465972745
 40
0.0747541465972745
 40
0.0747541465972745
 10
458.210201325214
 20
531.3606978702095
 30
0.0
 10
458.0500895325186
 20
532.962476777168
 30
0.0
 10
457.9154759307203
 20
534.3248338478985
 30
0.0
 10
457.801789204855
 20
535.7443450644256
 30
0.0
  0
LINE
  5
152
330
F8
100
AcDbEntity
  8
$DDT_AUDIT_GENERATED_(E0)
  6
Continuous
 62
     7
100
AcDbLine
 10
468.8726677506
 20
485.8155692928
 30
0.0
 11
468.8726677506
 21
486.3155692928
 31
0.0
  0
LINE
  5
153
330
F8
100
AcDbEntity
  8
$DDT_AUDIT_GENERATED_(E0)
  6
Continuous
 62
     7
100
AcDbLine
 10
428.1726677506
 20
486.3155692928
 30
0.0
 11
428.1726677506
 21
485.8155692928
 31
0.0
  0
ARC
  5
154
330
F8
100
AcDbEntity
  8
$DDT_AUDIT_GENERATED_(E3)
  6
Continuous
 62
     7
100
AcDbCircle
 10
210.7308827058
 20
409.4294614077
 30
0.0
 40
217.0925838003152
100
AcDbArc
 50
357.8643053595
 51
2.1356847987
  0
LINE
  5
155
330
F8
100
AcDbEntity
  8
$DDT_AUDIT_GENERATED_(E3)
  6
Continuous
 62
     7
100
AcDbLine
 10
427.9726677506
 20
485.8155692928
 30
0.0
 11
469.0726677506
 21
485.8155692928
 31
0.0
  0
LINE
  5
156
330
F8
100
AcDbEntity
  8
$DDT_AUDIT_GENERATED_(E3)
  6
Continuous
 62
     7
100
AcDbLine
 10
469.3226677506
 20
386.3155692928
 30
0.0
 11
469.172645495
 21
386.3155692928
 31
0.0
  0
LINE
  5
157
330
F8
100
AcDbEntity
  8
$DDT_AUDIT_GENERATED_(E3)
  6
Continuous
 62
     7
100
AcDbLine
 10
427.8726902151
 20
386.3155692928
 30
0.0
 11
427.7226677506
 21
386.3155692928
 31
0.0
  0
ARC
  5
158
330
F8
100
AcDbEntity
  8
$DDT_AUDIT_GENERATED_(E3)
  6
Continuous
 62
     7
100
AcDbCircle
 10
427.9726677506
 20
485.5155692928
 30
0.0
 40
0.2999999999999947
100
AcDbArc
 50
90.0
 51
180.0
  0
ARC
  5
159
330
F8
100
AcDbEntity
  8
$DDT_AUDIT_GENERATED_(E3)
  6
Continuous
 62
     7
100
AcDbCircle
 10
469.0726677506
 20
485.5155692928
 30
0.0
 40
0.3000000000000017
100
AcDbArc
 50
0.0
 51
90.0
  0
LINE
  5
15A
330
F8
100
AcDbEntity
  8
$DDT_AUDIT_GENERATED_(E3)
  6
Continuous
 62
     7
100
AcDbLine
 10
469.3726677506
 20
386.5991333838
 30
0.0
 11
469.3726677506
 21
485.5155692928
 31
0.0
  0
LINE
  5
15B
330
F8
100
AcDbEntity
  8
$DDT_AUDIT_GENERATED_(E3)
  6
Continuous
 62
     7
100
AcDbLine
 10
427.6726677506
 20
401.3392300971
 30
0.0
 11
427.6726677506
 21
386.5991333838
 31
0.0
  0
LINE
  5
15C
330
F8
100
AcDbEntity
  8
$DDT_AUDIT_GENERATED_(E3)
  6
Continuous
 62
     7
100
AcDbLine
 10
427.6726677506
 20
485.5155692928
 30
0.0
 11
427.6726677506
 21
417.5190205188
 31
0.0
  0
LINE
  5
15D
330
F8
100
AcDbEntity
  8
$DDT_AUDIT_GENERATED_(E3)
  6
Continuous
 62
     7
100
AcDbLine
 10
427.6726677506
 20
386.5991333838
 30
0.0
 11
427.7226677506
 21
386.3155692928
 31
0.0
  0
LINE
  5
15E
330
F8
100
AcDbEntity
  8
$DDT_AUDIT_GENERATED_(E3)
  6
Continuous
 62
     7
100
AcDbLine
 10
469.3226677506
 20
386.3155692928
 30
0.0
 11
469.3726677506
 21
386.5991333838
 31
0.0
  0
LINE
  5
160
330
F8
100
AcDbEntity
  8
DV2_Standard
  6
CENTER2
 62
     7
100
AcDbLine
 10
468.5226896637
 20
378.5155692928
 30
0.0
 11
428.5226905578
 21
378.5155692928
 31
0.0
  0
LINE
  5
161
330
F8
100
AcDbEntity
  8
DV2_Standard
  6
CENTER2
 62
     7
100
AcDbLine
 10
448.5226901108
 20
398.5155688458
 30
0.0
 11
448.5226901108
 21
358.5155697399
 31
0.0
  0
ENDBLK
  5
163
330
F8
100
AcDbEntity
  8
0
100
AcDbBlockEnd
  0
BLOCK
  5
1C6
330
164
100
AcDbEntity
  8
0
100
AcDbBlockBegin
  2
SE2
 70
     0
 10
0.0
 20
0.0
 30
0.0
  3
SE2
  1

  0
SPLINE
  5
166
330
164
100
AcDbEntity
  8
$DDT_AUDIT_GENERATED_(63)
  6
Continuous
 62
     7
100
AcDbSpline
210
0.0
220
0.0
230
1.0
 70
     8
 71
     3
 72
    34
 73
    30
 74
     0
 42
0.0000000000527304
 43
0.0000000001
 40
0.077391666396941
 40
0.077391666396941
 40
0.077391666396941
 40
0.077391666396941
 40
0.125
 40
0.125
 40
0.1875
 40
0.1875
 40
0.25
 40
0.25
 40
0.3125
 40
0.3125
 40
0.375
 40
0.375
 40
0.4375
 40
0.4375
 40
0.5
 40
0.5
 40
0.5625
 40
0.5625
 40
0.625
 40
0.625
 40
0.6875
 40
0.6875
 40
0.75
 40
0.75
 40
0.8125
 40
0.8125
 40
0.875
 40
0.875
 40
0.9226083533401843
 40
0.9226083533401843
 40
0.9226083533401843
 40
0.9226083533401843
 10
299.0202961190395
 20
241.8131283350885
 30
0.0
 10
297.621173764355
 20
239.1693335685688
 30
0.0
 10
295.8269878527645
 20
236.7344188083211
 30
0.0
 10
290.9350026095163
 20
231.8424261116126
 30
0.0
 10
287.607168984195
 20
229.618835105618
 30
0.0
 10
280.3510315662638
 20
226.6132381005102
 30
0.0
 10
276.4255827538764
 20
225.8324146754736
 30
0.0
 10
268.5715937301397
 20
225.8324086922839
 30
0.0
 10
264.6461437280901
 20
226.6132261364851
 30
0.0
 10
257.3900017308239
 20
229.6188120861
 30
0.0
 10
254.0621647176313
 20
231.842398021787
 30
0.0
 10
248.5085515888284
 20
237.396002689082
 30
0.0
 10
246.2849605828338
 20
240.7238363144034
 30
0.0
 10
243.2793635777261
 20
247.9799737323345
 30
0.0
 10
242.4985401526894
 20
251.9054225447219
 30
0.0
 10
242.4985341694997
 20
259.7594115684587
 30
0.0
 10
243.2793516137009
 20
263.6848615705082
 30
0.0
 10
246.2849375633157
 20
270.9410035677744
 30
0.0
 10
248.5085234990028
 20
274.268840580967
 30
0.0
 10
254.0621281662978
 20
279.8224537097699
 30
0.0
 10
257.3899617916192
 20
282.0460447157645
 30
0.0
 10
264.6460992095504
 20
285.0516417208723
 30
0.0
 10
268.5715480219378
 20
285.832465145909
 30
0.0
 10
276.4255370456745
 20
285.8324711290987
 30
0.0
 10
280.3509870477241
 20
285.0516536848975
 30
0.0
 10
287.6071290449903
 20
282.0460677352826
 30
0.0
 10
290.9349660581828
 20
279.8224817995956
 30
0.0
 10
295.8269596317902
 20
274.9304956794498
 30
0.0
 10
297.6211498639735
 20
272.4955825108365
 30
0.0
 10
299.0202764992308
 20
269.8517886067926
 30
0.0
  0
SPLINE
  5
167
330
164
100
AcDbEntity
  8
$DDT_AUDIT_GENERATED_(63)
  6
Continuous
 62
     7
100
AcDbSpline
210
0.0
220
0.0
230
1.0
 70
     8
 71
     3
 72
    28
 73
    24
 74
     0
 42
0.0000000000527244
 43
0.0000000001
 40
0.0
 40
0.0
 40
0.0
 40
0.0
 40
0.0625
 40
0.0625
 40
0.125
 40
0.125
 40
0.1875
 40
0.1875
 40
0.25
 40
0.25
 40
0.3125
 40
0.3125
 40
0.375
 40
0.375
 40
0.4375
 40
0.4375
 40
0.5
 40
0.5
 40
0.5625
 40
0.5625
 40
0.625
 40
0.625
 40
0.6726084623216628
 40
0.6726084623216628
 40
0.6726084623216628
 40
0.6726084623216628
 10
72.49858329312394
 20
285.832464176532
 30
0.0
 10
76.42557780499232
 20
285.8324671681268
 30
0.0
 10
80.3510278070419
 20
285.0516497239256
 30
0.0
 10
87.6071698043081
 20
282.0460637743108
 30
0.0
 10
90.93500681750069
 20
279.8224778386237
 30
0.0
 10
96.48861994630359
 20
274.2688731713287
 30
0.0
 10
98.71221095229822
 20
270.9410395460073
 30
0.0
 10
101.717807957406
 20
263.6849021280761
 30
0.0
 10
102.4986313824426
 20
259.7594533156887
 30
0.0
 10
102.4986373656323
 20
251.905464291952
 30
0.0
 10
101.7178199214311
 20
247.9800142899024
 30
0.0
 10
98.71223397181626
 20
240.7238722926362
 30
0.0
 10
96.48864803612916
 20
237.3960352794437
 30
0.0
 10
90.93504336883417
 20
231.8424221506407
 30
0.0
 10
87.6072097435128
 20
229.6188311446461
 30
0.0
 10
80.35107232558168
 20
226.6132341395383
 30
0.0
 10
76.42562351319425
 20
225.8324107145017
 30
0.0
 10
68.57163448945752
 20
225.8324047313121
 30
0.0
 10
64.64618448740794
 20
226.6132221755132
 30
0.0
 10
57.39004249014174
 20
229.6188081251281
 30
0.0
 10
54.06220547694915
 20
231.8423940608152
 30
0.0
 10
49.17020706141405
 20
236.7343850228812
 30
0.0
 10
47.37601345690828
 20
239.1693044972178
 30
0.0
 10
45.97688542757955
 20
241.8131054095466
 30
0.0
  0
SPLINE
  5
168
330
164
100
AcDbEntity
  8
$DDT_AUDIT_GENERATED_(63)
  6
Continuous
 62
     7
100
AcDbSpline
210
0.0
220
0.0
230
1.0
 70
     8
 71
     3
 72
    12
 73
     8
 74
     0
 42
0.0000000000527536
 43
0.0000000001
 40
0.8273917753783326
 40
0.8273917753783326
 40
0.8273917753783326
 40
0.8273917753783326
 40
0.875
 40
0.875
 40
0.9375
 40
0.9375
 40
1.0
 40
1.0
 40
1.0
 40
1.0
 10
45.97688502439351
 20
269.8517656812431
 30
0.0
 10
47.37600598500772
 20
272.4955534394851
 30
0.0
 10
49.17018852428398
 20
274.9304618940135
 30
0.0
 10
54.06216892561563
 20
279.8224497487981
 30
0.0
 10
57.39000255093703
 20
282.0460407547927
 30
0.0
 10
64.64613996886814
 20
285.0516377599005
 30
0.0
 10
68.57158878125556
 20
285.8324611849371
 30
0.0
 10
72.49858329312394
 20
285.832464176532
 30
0.0
  0
SPLINE
  5
169
330
164
100
AcDbEntity
  8
$DDT_AUDIT_GENERATED_(70)
  6
Continuous
 62
     7
100
AcDbSpline
210
0.0
220
0.0
230
1.0
 70
     8
 71
     3
 72
    14
 73
    10
 74
     0
 42
0.0000000006274332
 43
0.0000000001
 40
0.0
 40
0.0
 40
0.0
 40
0.0
 40
0.25
 40
0.25
 40
0.5
 40
0.5
 40
0.75
 40
0.75
 40
1.0
 40
1.0
 40
1.0
 40
1.0
 10
87.56460597025281
 20
241.419353338059
 30
0.0
 10
88.4813436535657
 20
242.3776192126772
 30
0.0
 10
89.30635976168955
 20
243.4235912623048
 30
0.0
 10
90.743073364524
 20
245.6530709974191
 30
0.0
 10
91.3547391707808
 20
246.8365295090376
 30
0.0
 10
92.34253916582732
 20
249.2980284498541
 30
0.0
 10
92.71865156749506
 20
250.5760145877201
 30
0.0
 10
93.22168140607214
 20
253.1801817957457
 30
0.0
 10
93.34858774805082
 20
254.5063054278523
 30
0.0
 10
93.34858774805093
 20
255.8324583098625
 30
0.0
  0
ARC
  5
16A
330
164
100
AcDbEntity
  8
$DDT_AUDIT_GENERATED_(70)
  6
Continuous
 62
     7
100
AcDbCircle
 10
72.4985837169
 20
255.8324558443
 30
0.0
 40
20.84999538275326
100
AcDbArc
 50
222.2101205629
 51
223.7312045622
  0
ARC
  5
16B
330
164
100
AcDbEntity
  8
$DDT_AUDIT_GENERATED_(70)
  6
Continuous
 62
     7
100
AcDbCircle
 10
72.4985837169
 20
255.8324607755
 30
0.0
 40
20.84999538275326
100
AcDbArc
 50
136.2687954379
 51
137.7900431385
  0
SPLINE
  5
16C
330
164
100
AcDbEntity
  8
$DDT_AUDIT_GENERATED_(70)
  6
Continuous
 62
     7
100
AcDbSpline
210
0.0
220
0.0
230
1.0
 70
     8
 71
     3
 72
    14
 73
    10
 74
     0
 42
0.0000000006274332
 43
0.0000000001
 40
0.0
 40
0.0
 40
0.0
 40
0.0
 40
0.2500000000000001
 40
0.2500000000000001
 40
0.5000000000000002
 40
0.5000000000000002
 40
0.7500000000000001
 40
0.7500000000000001
 40
1.0
 40
1.0
 40
1.0
 40
1.0
 10
93.34858774805093
 20
255.8324583098625
 30
0.0
 10
93.34858774805106
 20
257.1586111918711
 30
0.0
 10
93.2216814060729
 20
258.4847348239763
 30
0.0
 10
92.71865156749742
 20
261.0889020319992
 30
0.0
 10
92.34253916583074
 20
262.366888169864
 30
0.0
 10
91.35473917078679
 20
264.8283871106785
 30
0.0
 10
90.74307336453147
 20
266.0118456222961
 30
0.0
 10
89.30635976170042
 20
268.2413253574091
 30
0.0
 10
88.48134365357846
 20
269.2872974070362
 30
0.0
 10
87.56460597026752
 20
270.2455632816544
 30
0.0
  0
ARC
  5
16D
330
164
100
AcDbEntity
  8
$DDT_AUDIT_GENERATED_(70)
  6
Continuous
 62
     7
100
AcDbCircle
 10
72.4987633384
 20
255.832047328
 30
0.0
 40
20.85041098265026
100
AcDbArc
 50
90.0004825126
 51
136.268315687
  0
ARC
  5
16E
330
164
100
AcDbEntity
  8
$DDT_AUDIT_GENERATED_(70)
  6
Continuous
 62
     7
100
AcDbCircle
 10
72.4984590388
 20
255.8321570565
 30
0.0
 40
20.85030125375982
100
AcDbArc
 50
43.7315554883
 51
89.9996463121
  0
ARC
  5
16F
330
164
100
AcDbEntity
  8
$DDT_AUDIT_GENERATED_(70)
  6
Continuous
 62
     7
100
AcDbCircle
 10
72.4987919785
 20
255.8319802938
 30
0.0
 40
20.84952198492866
100
AcDbArc
 50
269.9994387621
 51
316.2693594374
  0
ARC
  5
170
330
164
100
AcDbEntity
  8
$DDT_AUDIT_GENERATED_(70)
  6
Continuous
 62
     7
100
AcDbCircle
 10
72.4986219829
 20
255.832538439
 30
0.0
 40
20.85008012917104
100
AcDbArc
 50
223.7312958775
 51
269.999905923
  0
SPLINE
  5
171
330
164
100
AcDbEntity
  8
$DDT_AUDIT_GENERATED_(70)
  6
Continuous
 62
     7
100
AcDbSpline
210
0.0
220
0.0
230
1.0
 70
     8
 71
     3
 72
    14
 73
    10
 74
     0
 42
0.0000000006274332
 43
0.0000000001
 40
0.0
 40
0.0
 40
0.0
 40
0.0
 40
0.25
 40
0.25
 40
0.5
 40
0.5
 40
0.75
 40
0.75
 40
1.0
 40
1.0
 40
1.0
 40
1.0
 10
257.4325695258491
 20
270.2455632816699
 30
0.0
 10
256.5158318425362
 20
269.2872974070517
 30
0.0
 10
255.6908157344124
 20
268.241325357424
 30
0.0
 10
254.254102131578
 20
266.0118456223097
 30
0.0
 10
253.6424363253211
 20
264.8283871106913
 30
0.0
 10
252.6546363302746
 20
262.3668881698748
 30
0.0
 10
252.2785239286069
 20
261.0889020320088
 30
0.0
 10
251.7754940900298
 20
258.4847348239832
 30
0.0
 10
251.6485877480511
 20
257.1586111918766
 30
0.0
 10
251.648587748051
 20
255.8324583098664
 30
0.0
  0
ARC
  5
172
330
164
100
AcDbEntity
  8
$DDT_AUDIT_GENERATED_(70)
  6
Continuous
 62
     7
100
AcDbCircle
 10
272.4985917792
 20
255.8324607755
 30
0.0
 40
20.84999538275327
100
AcDbArc
 50
42.2100390927
 51
43.7312045622
  0
ARC
  5
173
330
164
100
AcDbEntity
  8
$DDT_AUDIT_GENERATED_(70)
  6
Continuous
 62
     7
100
AcDbCircle
 10
272.4985917792
 20
255.8324558443
 30
0.0
 40
20.84999538275328
100
AcDbArc
 50
316.2687954379
 51
317.7899616683
  0
SPLINE
  5
174
330
164
100
AcDbEntity
  8
$DDT_AUDIT_GENERATED_(70)
  6
Continuous
 62
     7
100
AcDbSpline
210
0.0
220
0.0
230
1.0
 70
     8
 71
     3
 72
    14
 73
    10
 74
     0
 42
0.0000000006274332
 43
0.0000000001
 40
0.0
 40
0.0
 40
0.0
 40
0.0
 40
0.2500000000000001
 40
0.2500000000000001
 40
0.5000000000000002
 40
0.5000000000000002
 40
0.7500000000000001
 40
0.7500000000000001
 40
1.0
 40
1.0
 40
1.0
 40
1.0
 10
251.648587748051
 20
255.8324583098664
 30
0.0
 10
251.6485877480509
 20
254.5063054278578
 30
0.0
 10
251.775494090029
 20
253.1801817957526
 30
0.0
 10
252.2785239286045
 20
250.5760145877296
 30
0.0
 10
252.6546363302712
 20
249.2980284498649
 30
0.0
 10
253.6424363253151
 20
246.8365295090504
 30
0.0
 10
254.2541021315704
 20
245.6530709974328
 30
0.0
 10
255.6908157344015
 20
243.4235912623198
 30
0.0
 10
256.5158318425235
 20
242.3776192126926
 30
0.0
 10
257.4325695258344
 20
241.4193533380745
 30
0.0
  0
ARC
  5
175
330
164
100
AcDbEntity
  8
$DDT_AUDIT_GENERATED_(70)
  6
Continuous
 62
     7
100
AcDbCircle
 10
272.4984121577
 20
255.8328692918
 30
0.0
 40
20.8504109826503
100
AcDbArc
 50
270.0004825126
 51
316.268315687
  0
ARC
  5
176
330
164
100
AcDbEntity
  8
$DDT_AUDIT_GENERATED_(70)
  6
Continuous
 62
     7
100
AcDbCircle
 10
272.4987164573
 20
255.8327595632
 30
0.0
 40
20.85030125375985
100
AcDbArc
 50
223.7315554883
 51
269.9996463121
  0
ARC
  5
177
330
164
100
AcDbEntity
  8
$DDT_AUDIT_GENERATED_(70)
  6
Continuous
 62
     7
100
AcDbCircle
 10
272.4983835176
 20
255.8329363259
 30
0.0
 40
20.84952198492855
100
AcDbArc
 50
89.9994387621
 51
136.2693594374
  0
ARC
  5
178
330
164
100
AcDbEntity
  8
$DDT_AUDIT_GENERATED_(70)
  6
Continuous
 62
     7
100
AcDbCircle
 10
272.4985535132
 20
255.8323781807
 30
0.0
 40
20.850080129171
100
AcDbArc
 50
43.7312958775
 51
89.999905923
  0
SPLINE
  5
179
330
164
100
AcDbEntity
  8
$DDT_AUDIT_GENERATED_(7D)
  6
Continuous
 62
     7
100
AcDbSpline
210
0.0
220
0.0
230
1.0
 70
     8
 71
     5
 72
    33
 73
    27
 74
     0
 42
0.0000000004543255
 43
0.0000000001
 40
0.0
 40
0.0
 40
0.0
 40
0.0
 40
0.0
 40
0.0
 40
0.125
 40
0.125
 40
0.125
 40
0.25
 40
0.25
 40
0.25
 40
0.375
 40
0.375
 40
0.375
 40
0.5
 40
0.5
 40
0.5
 40
0.625
 40
0.625
 40
0.625
 40
0.75
 40
0.75
 40
0.75
 40
0.875
 40
0.875
 40
0.875
 40
1.0
 40
1.0
 40
1.0
 40
1.0
 40
1.0
 40
1.0
 10
86.49389409651101
 20
255.8324358452964
 30
0.0
 10
86.49389409651101
 20
256.3820244975146
 30
0.0
 10
86.466829217693
 20
256.9316131497396
 30
0.0
 10
86.412872808079
 20
257.4794417699946
 30
0.0
 10
86.25152362329901
 20
258.5680588826116
 30
0.0
 10
85.98399509950299
 20
259.6355556115356
 30
0.0
 10
85.824199385241
 20
260.1623314851416
 30
0.0
 10
85.45357181676701
 20
261.1985534607776
 30
0.0
 10
84.982925497955
 20
262.1933463135326
 30
0.0
 10
84.72343133872701
 20
262.6788257390866
 30
0.0
 10
84.157768396153
 20
263.6228311483405
 30
0.0
 10
83.502090956398
 20
264.5066907934756
 30
0.0
 10
83.15287056721
 20
264.9322170689086
 30
0.0
 10
82.413910360181
 20
265.7477283133016
 30
0.0
 10
81.59839911578901
 20
266.4866885203306
 30
0.0
 10
81.172872840355
 20
266.8359089095186
 30
0.0
 10
80.289013195222
 20
267.4915863492766
 30
0.0
 10
79.345007785971
 20
268.0572492918576
 30
0.0
 10
78.85952836042
 20
268.3167434510896
 30
0.0
 10
77.86473550767
 20
268.7873897699096
 30
0.0
 10
76.828513532036
 20
269.1580173383876
 30
0.0
 10
76.30173765843
 20
269.3178130526496
 30
0.0
 10
75.234240929508
 20
269.5853415764426
 30
0.0
 10
74.145623816893
 20
269.7466907612096
 30
0.0
 10
73.59779519663701
 20
269.8006471708186
 30
0.0
 10
73.04820654440701
 20
269.8277120496316
 30
0.0
 10
72.49861789217606
 20
269.8277120496316
 30
0.0
  0
LINE
  5
17A
330
164
100
AcDbEntity
  8
$DDT_AUDIT_GENERATED_(7D)
  6
Continuous
 62
     7
100
AcDbLine
 10
20.3452762043
 20
269.8277120496
 30
0.0
 11
72.4986178922
 21
269.8277120496
 31
0.0
  0
SPLINE
  5
17B
330
164
100
AcDbEntity
  8
$DDT_AUDIT_GENERATED_(7D)
  6
Continuous
 62
     7
100
AcDbSpline
210
0.0
220
0.0
230
1.0
 70
     8
 71
     5
 72
    33
 73
    27
 74
     0
 42
0.0000000006114931
 43
0.0000000001
 40
0.0
 40
0.0
 40
0.0
 40
0.0
 40
0.0
 40
0.0
 40
0.125
 40
0.125
 40
0.125
 40
0.25
 40
0.25
 40
0.25
 40
0.375
 40
0.375
 40
0.375
 40
0.5
 40
0.5
 40
0.5
 40
0.625
 40
0.625
 40
0.625
 40
0.75
 40
0.75
 40
0.75
 40
0.875
 40
0.875
 40
0.875
 40
1.0
 40
1.0
 40
1.0
 40
1.0
 40
1.0
 40
1.0
 10
72.49861782090294
 20
266.2306083526779
 30
0.0
 10
72.906949789941
 20
266.2306084950886
 30
0.0
 10
73.315281687706
 20
266.2104999042656
 30
0.0
 10
73.72230592165101
 20
266.1704115162646
 30
0.0
 10
74.531123734262
 20
266.0505327331936
 30
0.0
 10
75.324249581038
 20
265.8517651105666
 30
0.0
 10
75.715632101935
 20
265.7330405208306
 30
0.0
 10
76.48552151668001
 20
265.4576726474476
 30
0.0
 10
77.2246300332
 20
265.1079931121076
 30
0.0
 10
77.58533023026
 20
264.9151948400395
 30
0.0
 10
78.28670482868901
 20
264.4949201092896
 30
0.0
 10
78.943392489161
 20
264.0077666496776
 30
0.0
 10
79.259548856093
 20
263.7483038247506
 30
0.0
 10
79.865455205724
 20
263.1992731588446
 30
0.0
 10
80.41448587162999
 20
262.5933668092136
 30
0.0
 10
80.673948696557
 20
262.2772104422806
 30
0.0
 10
81.16110215616801
 20
261.6205227818076
 30
0.0
 10
81.581376886912
 20
260.9191481833756
 30
0.0
 10
81.774175158977
 20
260.5584479863145
 30
0.0
 10
82.123854694311
 20
259.8193394697916
 30
0.0
 10
82.399222567691
 20
259.0494500550446
 30
0.0
 10
82.517947157427
 20
258.6580675341476
 30
0.0
 10
82.71671478005601
 20
257.8649416873706
 30
0.0
 10
82.836593563136
 20
257.0561238747576
 30
0.0
 10
82.876681951142
 20
256.6490996408136
 30
0.0
 10
82.89679054196901
 20
256.2407677430526
 30
0.0
 10
82.89679041725846
 20
255.8324358459192
 30
0.0
  0
SPLINE
  5
17C
330
164
100
AcDbEntity
  8
$DDT_AUDIT_GENERATED_(7D)
  6
Continuous
 62
     7
100
AcDbSpline
210
0.0
220
0.0
230
1.0
 70
     8
 71
     5
 72
    33
 73
    27
 74
     0
 42
0.0000000004543255
 43
0.0000000001
 40
0.0
 40
0.0
 40
0.0
 40
0.0
 40
0.0
 40
0.0
 40
0.125
 40
0.125
 40
0.125
 40
0.25
 40
0.25
 40
0.25
 40
0.375
 40
0.375
 40
0.375
 40
0.5
 40
0.5
 40
0.5
 40
0.625
 40
0.625
 40
0.625
 40
0.75
 40
0.75
 40
0.75
 40
0.875
 40
0.875
 40
0.875
 40
1.0
 40
1.0
 40
1.0
 40
1.0
 40
1.0
 40
1.0
 10
72.49861789217606
 20
241.8371596409606
 30
0.0
 10
73.04820654440701
 20
241.8371596409606
 30
0.0
 10
73.59779519663701
 20
241.8642245197746
 30
0.0
 10
74.145623816893
 20
241.9181809293826
 30
0.0
 10
75.234240929508
 20
242.0795301141506
 30
0.0
 10
76.30173765843
 20
242.3470586379436
 30
0.0
 10
76.828513532036
 20
242.5068543522056
 30
0.0
 10
77.86473550767
 20
242.8774819206826
 30
0.0
 10
78.85952836042
 20
243.3481282395036
 30
0.0
 10
79.345007785971
 20
243.6076223987356
 30
0.0
 10
80.289013195222
 20
244.1732853413166
 30
0.0
 10
81.172872840355
 20
244.8289627810736
 30
0.0
 10
81.59839911578901
 20
245.1781831702626
 30
0.0
 10
82.413910360181
 20
245.9171433772906
 30
0.0
 10
83.15287056721
 20
246.7326546216836
 30
0.0
 10
83.502090956398
 20
247.1581808971176
 30
0.0
 10
84.157768396153
 20
248.0420405422526
 30
0.0
 10
84.72343133872701
 20
248.9860459515066
 30
0.0
 10
84.982925497955
 20
249.4715253770606
 30
0.0
 10
85.45357181676701
 20
250.4663182298146
 30
0.0
 10
85.824199385241
 20
251.5025402054516
 30
0.0
 10
85.98399509950299
 20
252.0293160790576
 30
0.0
 10
86.25152362329901
 20
253.0968128079816
 30
0.0
 10
86.412872808079
 20
254.1854299205976
 30
0.0
 10
86.466829217693
 20
254.7332585408526
 30
0.0
 10
86.49389409651101
 20
255.2828471930776
 30
0.0
 10
86.49389409651101
 20
255.8324358452964
 30
0.0
  0
LINE
  5
17D
330
164
100
AcDbEntity
  8
$DDT_AUDIT_GENERATED_(7D)
  6
Continuous
 62
     7
100
AcDbLine
 10
72.4986178922
 20
241.837159641
 30
0.0
 11
20.3452762043
 21
241.837159641
 31
0.0
  0
LINE
  5
17E
330
164
100
AcDbEntity
  8
$DDT_AUDIT_GENERATED_(7D)
  6
Continuous
 62
     7
100
AcDbLine
 10
20.3452762749
 20
266.2306084951
 30
0.0
 11
72.4986178209
 21
266.2306084951
 31
0.0
  0
SPLINE
  5
17F
330
164
100
AcDbEntity
  8
$DDT_AUDIT_GENERATED_(7D)
  6
Continuous
 62
     7
100
AcDbSpline
210
0.0
220
0.0
230
1.0
 70
     8
 71
     5
 72
    33
 73
    27
 74
     0
 42
0.0000000004543255
 43
0.0000000001
 40
0.0
 40
0.0
 40
0.0
 40
0.0
 40
0.0
 40
0.0
 40
0.125
 40
0.125
 40
0.125
 40
0.25
 40
0.25
 40
0.25
 40
0.375
 40
0.375
 40
0.375
 40
0.5
 40
0.5
 40
0.5
 40
0.625
 40
0.625
 40
0.625
 40
0.75
 40
0.75
 40
0.75
 40
0.875
 40
0.875
 40
0.875
 40
1.0
 40
1.0
 40
1.0
 40
1.0
 40
1.0
 40
1.0
 10
20.34527620433499
 20
269.8277120496316
 30
0.0
 10
19.79568755210501
 20
269.8277120496316
 30
0.0
 10
19.246098899874
 20
269.8006471708186
 30
0.0
 10
18.69827027961798
 20
269.7466907612096
 30
0.0
 10
17.609653167003
 20
269.5853415764426
 30
0.0
 10
16.54215643808102
 20
269.3178130526496
 30
0.0
 10
16.01538056447602
 20
269.1580173383876
 30
0.0
 10
14.979158588841
 20
268.7873897699096
 30
0.0
 10
13.98436573609099
 20
268.3167434510896
 30
0.0
 10
13.49888631054
 20
268.0572492918576
 30
0.0
 10
12.55488090128901
 20
267.4915863492766
 30
0.0
 10
11.67102125615602
 20
266.8359089095186
 30
0.0
 10
11.245494980722
 20
266.4866885203306
 30
0.0
 10
10.42998373633
 20
265.7477283133016
 30
0.0
 10
9.691023529301013
 20
264.9322170689086
 30
0.0
 10
9.341803140112987
 20
264.5066907934756
 30
0.0
 10
8.68612570035801
 20
263.6228311483405
 30
0.0
 10
8.120462757785024
 20
262.6788257390866
 30
0.0
 10
7.860968598556006
 20
262.1933463135326
 30
0.0
 10
7.390322279743983
 20
261.1985534607776
 30
0.0
 10
7.01969471126998
 20
260.1623314851416
 30
0.0
 10
6.859898997008007
 20
259.6355556115356
 30
0.0
 10
6.592370473212012
 20
258.5680588826116
 30
0.0
 10
6.431021288432009
 20
257.4794417699946
 30
0.0
 10
6.377064878818006
 20
256.9316131497396
 30
0.0
 10
6.349999999999994
 20
256.3820244975146
 30
0.0
 10
6.349999999999994
 20
255.8324358452964
 30
0.0
  0
SPLINE
  5
180
330
164
100
AcDbEntity
  8
$DDT_AUDIT_GENERATED_(7D)
  6
Continuous
 62
     7
100
AcDbSpline
210
0.0
220
0.0
230
1.0
 70
     8
 71
     5
 72
    33
 73
    27
 74
     0
 42
0.0000000006114931
 43
0.0000000001
 40
0.0
 40
0.0
 40
0.0
 40
0.0
 40
0.0
 40
0.0
 40
0.125
 40
0.125
 40
0.125
 40
0.25
 40
0.25
 40
0.25
 40
0.375
 40
0.375
 40
0.375
 40
0.5
 40
0.5
 40
0.5
 40
0.625
 40
0.625
 40
0.625
 40
0.75
 40
0.75
 40
0.75
 40
0.875
 40
0.875
 40
0.875
 40
1.0
 40
1.0
 40
1.0
 40
1.0
 40
1.0
 40
1.0
 10
82.89679041725846
 20
255.8324358459192
 30
0.0
 10
82.89679054196901
 20
255.4241039475406
 30
0.0
 10
82.876681951142
 20
255.0157720497796
 30
0.0
 10
82.836593563136
 20
254.6087478158356
 30
0.0
 10
82.71671478005601
 20
253.7999300032226
 30
0.0
 10
82.517947157427
 20
253.0068041564456
 30
0.0
 10
82.399222567691
 20
252.6154216355486
 30
0.0
 10
82.123854694311
 20
251.8455322208016
 30
0.0
 10
81.774175158977
 20
251.1064237042786
 30
0.0
 10
81.581376886912
 20
250.7457235072166
 30
0.0
 10
81.16110215616801
 20
250.0443489087846
 30
0.0
 10
80.673948696557
 20
249.3876612483116
 30
0.0
 10
80.41448587162999
 20
249.0715048813796
 30
0.0
 10
79.865455205724
 20
248.4655985317486
 30
0.0
 10
79.259548856093
 20
247.9165678658426
 30
0.0
 10
78.943392489161
 20
247.6571050409156
 30
0.0
 10
78.28670482868901
 20
247.1699515813026
 30
0.0
 10
77.58533023026
 20
246.7496768505536
 30
0.0
 10
77.2246300332
 20
246.5568785784856
 30
0.0
 10
76.48552151668001
 20
246.2071990431456
 30
0.0
 10
75.715632101935
 20
245.9318311697616
 30
0.0
 10
75.324249581038
 20
245.8131065800266
 30
0.0
 10
74.531123734262
 20
245.6143389573996
 30
0.0
 10
73.72230592165101
 20
245.4944601743286
 30
0.0
 10
73.315281687706
 20
245.4543717863266
 30
0.0
 10
72.906949789941
 20
245.4342631955036
 30
0.0
 10
72.49861781832787
 20
245.4342633515353
 30
0.0
  0
SPLINE
  5
181
330
164
100
AcDbEntity
  8
$DDT_AUDIT_GENERATED_(7D)
  6
Continuous
 62
     7
100
AcDbSpline
210
0.0
220
0.0
230
1.0
 70
     8
 71
     5
 72
    33
 73
    27
 74
     0
 42
0.0000000004543255
 43
0.0000000001
 40
0.0
 40
0.0
 40
0.0
 40
0.0
 40
0.0
 40
0.0
 40
0.125
 40
0.125
 40
0.125
 40
0.25
 40
0.25
 40
0.25
 40
0.375
 40
0.375
 40
0.375
 40
0.5
 40
0.5
 40
0.5
 40
0.625
 40
0.625
 40
0.625
 40
0.75
 40
0.75
 40
0.75
 40
0.875
 40
0.875
 40
0.875
 40
1.0
 40
1.0
 40
1.0
 40
1.0
 40
1.0
 40
1.0
 10
6.349999999999994
 20
255.8324358452964
 30
0.0
 10
6.349999999999994
 20
255.2828471930776
 30
0.0
 10
6.377064878818006
 20
254.7332585408526
 30
0.0
 10
6.431021288432009
 20
254.1854299205976
 30
0.0
 10
6.592370473212012
 20
253.0968128079816
 30
0.0
 10
6.859898997008007
 20
252.0293160790576
 30
0.0
 10
7.01969471126998
 20
251.5025402054516
 30
0.0
 10
7.390322279743983
 20
250.4663182298146
 30
0.0
 10
7.860968598556006
 20
249.4715253770606
 30
0.0
 10
8.120462757785024
 20
248.9860459515066
 30
0.0
 10
8.68612570035801
 20
248.0420405422526
 30
0.0
 10
9.341803140112987
 20
247.1581808971176
 30
0.0
 10
9.691023529301013
 20
246.7326546216836
 30
0.0
 10
10.42998373633
 20
245.9171433772906
 30
0.0
 10
11.245494980722
 20
245.1781831702626
 30
0.0
 10
11.67102125615602
 20
244.8289627810736
 30
0.0
 10
12.55488090128901
 20
244.1732853413166
 30
0.0
 10
13.49888631054
 20
243.6076223987356
 30
0.0
 10
13.98436573609099
 20
243.3481282395036
 30
0.0
 10
14.979158588841
 20
242.8774819206826
 30
0.0
 10
16.01538056447602
 20
242.5068543522056
 30
0.0
 10
16.54215643808102
 20
242.3470586379436
 30
0.0
 10
17.609653167003
 20
242.0795301141506
 30
0.0
 10
18.69827027961798
 20
241.9181809293826
 30
0.0
 10
19.246098899874
 20
241.8642245197746
 30
0.0
 10
19.79568755210501
 20
241.8371596409606
 30
0.0
 10
20.34527620433499
 20
241.8371596409606
 30
0.0
  0
LINE
  5
182
330
164
100
AcDbEntity
  8
$DDT_AUDIT_GENERATED_(7D)
  6
Continuous
 62
     7
100
AcDbLine
 10
72.4986178183
 20
245.4342631955
 30
0.0
 11
20.3452762745
 21
245.4342631955
 31
0.0
  0
SPLINE
  5
183
330
164
100
AcDbEntity
  8
$DDT_AUDIT_GENERATED_(7D)
  6
Continuous
 62
     7
100
AcDbSpline
210
0.0
220
0.0
230
1.0
 70
     8
 71
     5
 72
    33
 73
    27
 74
     0
 42
0.0000000006114931
 43
0.0000000001
 40
0.0
 40
0.0
 40
0.0
 40
0.0
 40
0.0
 40
0.0
 40
0.125
 40
0.125
 40
0.125
 40
0.25
 40
0.25
 40
0.25
 40
0.375
 40
0.375
 40
0.375
 40
0.5
 40
0.5
 40
0.5
 40
0.625
 40
0.625
 40
0.625
 40
0.75
 40
0.75
 40
0.75
 40
0.875
 40
0.875
 40
0.875
 40
1.0
 40
1.0
 40
1.0
 40
1.0
 40
1.0
 40
1.0
 10
9.9471036792525
 20
255.8324358446736
 30
0.0
 10
9.947103554542009
 20
256.2407677430526
 30
0.0
 10
9.967212145368997
 20
256.6490996408136
 30
0.0
 10
10.00730053337501
 20
257.0561238747576
 30
0.0
 10
10.12717931645502
 20
257.8649416873706
 30
0.0
 10
10.32594693908401
 20
258.6580675341476
 30
0.0
 10
10.44467152882
 20
259.0494500550446
 30
0.0
 10
10.72003940220001
 20
259.8193394697916
 30
0.0
 10
11.069718937534
 20
260.5584479863145
 30
0.0
 10
11.262517209599
 20
260.9191481833756
 30
0.0
 10
11.682791940343
 20
261.6205227818076
 30
0.0
 10
12.169945399954
 20
262.2772104422806
 30
0.0
 10
12.429408224881
 20
262.5933668092136
 30
0.0
 10
12.97843889078701
 20
263.1992731588446
 30
0.0
 10
13.58434524041799
 20
263.7483038247506
 30
0.0
 10
13.90050160735101
 20
264.0077666496776
 30
0.0
 10
14.55718926782201
 20
264.4949201092896
 30
0.0
 10
15.25856386625099
 20
264.9151948400395
 30
0.0
 10
15.61926406331102
 20
265.1079931121076
 30
0.0
 10
16.358372579831
 20
265.4576726474476
 30
0.0
 10
17.12826199457598
 20
265.7330405208306
 30
0.0
 10
17.519644515473
 20
265.8517651105666
 30
0.0
 10
18.31277036224902
 20
266.0505327331936
 30
0.0
 10
19.12158817486001
 20
266.1704115162646
 30
0.0
 10
19.52861240880499
 20
266.2104999042656
 30
0.0
 10
19.93694430657001
 20
266.2306084950886
 30
0.0
 10
20.34527627489771
 20
266.2306083526778
 30
0.0
  0
SPLINE
  5
184
330
164
100
AcDbEntity
  8
$DDT_AUDIT_GENERATED_(7D)
  6
Continuous
 62
     7
100
AcDbSpline
210
0.0
220
0.0
230
1.0
 70
     8
 71
     5
 72
    33
 73
    27
 74
     0
 42
0.0000000006114931
 43
0.0000000001
 40
0.0
 40
0.0
 40
0.0
 40
0.0
 40
0.0
 40
0.0
 40
0.125
 40
0.125
 40
0.125
 40
0.25
 40
0.25
 40
0.25
 40
0.375
 40
0.375
 40
0.375
 40
0.5
 40
0.5
 40
0.5
 40
0.625
 40
0.625
 40
0.625
 40
0.75
 40
0.75
 40
0.75
 40
0.875
 40
0.875
 40
0.875
 40
1.0
 40
1.0
 40
1.0
 40
1.0
 40
1.0
 40
1.0
 10
20.34527627560809
 20
245.4342633379142
 30
0.0
 10
19.93694430657001
 20
245.4342631955036
 30
0.0
 10
19.52861240880499
 20
245.4543717863266
 30
0.0
 10
19.12158817486001
 20
245.4944601743286
 30
0.0
 10
18.31277036224902
 20
245.6143389573996
 30
0.0
 10
17.519644515473
 20
245.8131065800266
 30
0.0
 10
17.12826199457598
 20
245.9318311697616
 30
0.0
 10
16.358372579831
 20
246.2071990431456
 30
0.0
 10
15.61926406331102
 20
246.5568785784856
 30
0.0
 10
15.25856386625099
 20
246.7496768505536
 30
0.0
 10
14.55718926782201
 20
247.1699515813026
 30
0.0
 10
13.90050160735101
 20
247.6571050409156
 30
0.0
 10
13.58434524041799
 20
247.9165678658426
 30
0.0
 10
12.97843889078701
 20
248.4655985317486
 30
0.0
 10
12.429408224881
 20
249.0715048813796
 30
0.0
 10
12.169945399954
 20
249.3876612483116
 30
0.0
 10
11.682791940343
 20
250.0443489087846
 30
0.0
 10
11.262517209599
 20
250.7457235072166
 30
0.0
 10
11.069718937534
 20
251.1064237042786
 30
0.0
 10
10.72003940220001
 20
251.8455322208016
 30
0.0
 10
10.44467152882
 20
252.6154216355486
 30
0.0
 10
10.32594693908401
 20
253.0068041564456
 30
0.0
 10
10.12717931645502
 20
253.7999300032226
 30
0.0
 10
10.00730053337501
 20
254.6087478158356
 30
0.0
 10
9.967212145368997
 20
255.0157720497796
 30
0.0
 10
9.947103554542009
 20
255.4241039475406
 30
0.0
 10
9.9471036792525
 20
255.8324358446736
 30
0.0
  0
SPLINE
  5
185
330
164
100
AcDbEntity
  8
$DDT_AUDIT_GENERATED_(7D)
  6
Continuous
 62
     7
100
AcDbSpline
210
0.0
220
0.0
230
1.0
 70
     8
 71
     5
 72
    33
 73
    27
 74
     0
 42
0.0000000004543255
 43
0.0000000001
 40
0.0
 40
0.0
 40
0.0
 40
0.0
 40
0.0
 40
0.0
 40
0.125
 40
0.125
 40
0.125
 40
0.25
 40
0.25
 40
0.25
 40
0.375
 40
0.375
 40
0.375
 40
0.5
 40
0.5
 40
0.5
 40
0.625
 40
0.625
 40
0.625
 40
0.75
 40
0.75
 40
0.75
 40
0.875
 40
0.875
 40
0.875
 40
1.0
 40
1.0
 40
1.0
 40
1.0
 40
1.0
 40
1.0
 10
258.5032997987649
 20
255.8324584142877
 30
0.0
 10
258.5032997987649
 20
255.2828697620695
 30
0.0
 10
258.530364677583
 20
254.7332811098445
 30
0.0
 10
258.584321087197
 20
254.1854524895895
 30
0.0
 10
258.745670271977
 20
253.0968353769725
 30
0.0
 10
259.013198795773
 20
252.0293386480485
 30
0.0
 10
259.1729945100349
 20
251.5025627744425
 30
0.0
 10
259.543622078509
 20
250.4663407988065
 30
0.0
 10
260.014268397321
 20
249.4715479460515
 30
0.0
 10
260.273762556549
 20
248.9860685204975
 30
0.0
 10
260.839425499123
 20
248.0420631112435
 30
0.0
 10
261.495102938878
 20
247.1582034661085
 30
0.0
 10
261.844323328066
 20
246.7326771906755
 30
0.0
 10
262.5832835350949
 20
245.9171659462825
 30
0.0
 10
263.398794779487
 20
245.1782057392535
 30
0.0
 10
263.824321054921
 20
244.8289853500655
 30
0.0
 10
264.708180700054
 20
244.1733079103075
 30
0.0
 10
265.652186109305
 20
243.6076449677265
 30
0.0
 10
266.137665534856
 20
243.3481508084945
 30
0.0
 10
267.1324583876059
 20
242.8775044896745
 30
0.0
 10
268.16868036324
 20
242.5068769211965
 30
0.0
 10
268.695456236846
 20
242.3470812069345
 30
0.0
 10
269.762952965768
 20
242.0795526831415
 30
0.0
 10
270.851570078383
 20
241.9182034983745
 30
0.0
 10
271.399398698639
 20
241.8642470887655
 30
0.0
 10
271.948987350869
 20
241.8371822099525
 30
0.0
 10
272.4985760030999
 20
241.8371822099525
 30
0.0
  0
LINE
  5
186
330
164
100
AcDbEntity
  8
$DDT_AUDIT_GENERATED_(7D)
  6
Continuous
 62
     7
100
AcDbLine
 10
324.6519176909
 20
241.83718221
 30
0.0
 11
272.4985760031
 21
241.83718221
 31
0.0
  0
SPLINE
  5
187
330
164
100
AcDbEntity
  8
$DDT_AUDIT_GENERATED_(7D)
  6
Continuous
 62
     7
100
AcDbSpline
210
0.0
220
0.0
230
1.0
 70
     8
 71
     5
 72
    33
 73
    27
 74
     0
 42
0.0000000006114931
 43
0.0000000001
 40
0.0
 40
0.0
 40
0.0
 40
0.0
 40
0.0
 40
0.0
 40
0.125
 40
0.125
 40
0.125
 40
0.25
 40
0.25
 40
0.25
 40
0.375
 40
0.375
 40
0.375
 40
0.5
 40
0.5
 40
0.5
 40
0.625
 40
0.625
 40
0.625
 40
0.75
 40
0.75
 40
0.75
 40
0.875
 40
0.875
 40
0.875
 40
1.0
 40
1.0
 40
1.0
 40
1.0
 40
1.0
 40
1.0
 10
272.498576074373
 20
245.4342859069061
 30
0.0
 10
272.090244105335
 20
245.4342857644955
 30
0.0
 10
271.68191220757
 20
245.4543943553185
 30
0.0
 10
271.274887973625
 20
245.4944827433195
 30
0.0
 10
270.466070161014
 20
245.6143615263905
 30
0.0
 10
269.672944314238
 20
245.8131291490175
 30
0.0
 10
269.2815617933409
 20
245.9318537387535
 30
0.0
 10
268.511672378596
 20
246.2072216121365
 30
0.0
 10
267.772563862076
 20
246.5569011474765
 30
0.0
 10
267.411863665016
 20
246.7496994195445
 30
0.0
 10
266.710489066587
 20
247.1699741502945
 30
0.0
 10
266.053801406115
 20
247.6571276099065
 30
0.0
 10
265.737645039183
 20
247.9165904348335
 30
0.0
 10
265.131738689552
 20
248.4656211007395
 30
0.0
 10
264.582708023646
 20
249.0715274503705
 30
0.0
 10
264.323245198719
 20
249.3876838173035
 30
0.0
 10
263.836091739108
 20
250.0443714777765
 30
0.0
 10
263.4158170083639
 20
250.7457460762085
 30
0.0
 10
263.223018736299
 20
251.1064462732695
 30
0.0
 10
262.873339200965
 20
251.8455547897925
 30
0.0
 10
262.597971327585
 20
252.6154442045395
 30
0.0
 10
262.4792467378489
 20
253.0068267254365
 30
0.0
 10
262.28047911522
 20
253.7999525722135
 30
0.0
 10
262.1606003321399
 20
254.6087703848265
 30
0.0
 10
262.120511944134
 20
255.0157946187705
 30
0.0
 10
262.100403353307
 20
255.4241265165315
 30
0.0
 10
262.1004034780175
 20
255.8324584136649
 30
0.0
  0
SPLINE
  5
188
330
164
100
AcDbEntity
  8
$DDT_AUDIT_GENERATED_(7D)
  6
Continuous
 62
     7
100
AcDbSpline
210
0.0
220
0.0
230
1.0
 70
     8
 71
     5
 72
    33
 73
    27
 74
     0
 42
0.0000000004543255
 43
0.0000000001
 40
0.0
 40
0.0
 40
0.0
 40
0.0
 40
0.0
 40
0.0
 40
0.125
 40
0.125
 40
0.125
 40
0.25
 40
0.25
 40
0.25
 40
0.375
 40
0.375
 40
0.375
 40
0.5
 40
0.5
 40
0.5
 40
0.625
 40
0.625
 40
0.625
 40
0.75
 40
0.75
 40
0.75
 40
0.875
 40
0.875
 40
0.875
 40
1.0
 40
1.0
 40
1.0
 40
1.0
 40
1.0
 40
1.0
 10
272.4985760031
 20
269.8277346186235
 30
0.0
 10
271.948987350869
 20
269.8277346186235
 30
0.0
 10
271.399398698639
 20
269.8006697398095
 30
0.0
 10
270.851570078383
 20
269.7467133302015
 30
0.0
 10
269.762952965768
 20
269.5853641454335
 30
0.0
 10
268.695456236846
 20
269.3178356216405
 30
0.0
 10
268.16868036324
 20
269.1580399073785
 30
0.0
 10
267.132458387606
 20
268.7874123389014
 30
0.0
 10
266.137665534856
 20
268.3167660200805
 30
0.0
 10
265.652186109305
 20
268.0572718608485
 30
0.0
 10
264.708180700054
 20
267.4916089182675
 30
0.0
 10
263.824321054921
 20
266.8359314785105
 30
0.0
 10
263.398794779487
 20
266.4867110893215
 30
0.0
 10
262.5832835350949
 20
265.7477508822935
 30
0.0
 10
261.844323328066
 20
264.9322396379005
 30
0.0
 10
261.495102938878
 20
264.5067133624665
 30
0.0
 10
260.839425499123
 20
263.6228537173315
 30
0.0
 10
260.273762556549
 20
262.6788483080775
 30
0.0
 10
260.014268397321
 20
262.1933688825235
 30
0.0
 10
259.543622078509
 20
261.1985760297695
 30
0.0
 10
259.172994510035
 20
260.1623540541325
 30
0.0
 10
259.013198795773
 20
259.6355781805265
 30
0.0
 10
258.745670271977
 20
258.5680814516025
 30
0.0
 10
258.584321087197
 20
257.4794643389865
 30
0.0
 10
258.530364677583
 20
256.9316357187315
 30
0.0
 10
258.5032997987649
 20
256.3820470665065
 30
0.0
 10
258.5032997987649
 20
255.8324584142877
 30
0.0
  0
LINE
  5
189
330
164
100
AcDbEntity
  8
$DDT_AUDIT_GENERATED_(7D)
  6
Continuous
 62
     7
100
AcDbLine
 10
272.4985760031
 20
269.8277346186
 30
0.0
 11
324.6519176909
 21
269.8277346186
 31
0.0
  0
LINE
  5
18A
330
164
100
AcDbEntity
  8
$DDT_AUDIT_GENERATED_(7D)
  6
Continuous
 62
     7
100
AcDbLine
 10
324.6519176204
 20
245.4342857645
 30
0.0
 11
272.4985760744
 21
245.4342857645
 31
0.0
  0
SPLINE
  5
18B
330
164
100
AcDbEntity
  8
$DDT_AUDIT_GENERATED_(7D)
  6
Continuous
 62
     7
100
AcDbSpline
210
0.0
220
0.0
230
1.0
 70
     8
 71
     5
 72
    33
 73
    27
 74
     0
 42
0.0000000004543255
 43
0.0000000001
 40
0.0
 40
0.0
 40
0.0
 40
0.0
 40
0.0
 40
0.0
 40
0.125
 40
0.125
 40
0.125
 40
0.25
 40
0.25
 40
0.25
 40
0.375
 40
0.375
 40
0.375
 40
0.5
 40
0.5
 40
0.5
 40
0.625
 40
0.625
 40
0.625
 40
0.75
 40
0.75
 40
0.75
 40
0.875
 40
0.875
 40
0.875
 40
1.0
 40
1.0
 40
1.0
 40
1.0
 40
1.0
 40
1.0
 10
324.651917690941
 20
241.8371822099525
 30
0.0
 10
325.201506343171
 20
241.8371822099525
 30
0.0
 10
325.751094995402
 20
241.8642470887655
 30
0.0
 10
326.298923615658
 20
241.9182034983745
 30
0.0
 10
327.387540728273
 20
242.0795526831415
 30
0.0
 10
328.455037457195
 20
242.3470812069345
 30
0.0
 10
328.9818133308
 20
242.5068769211965
 30
0.0
 10
330.018035306435
 20
242.8775044896745
 30
0.0
 10
331.012828159185
 20
243.3481508084945
 30
0.0
 10
331.498307584736
 20
243.6076449677265
 30
0.0
 10
332.4423129939869
 20
244.1733079103075
 30
0.0
 10
333.32617263912
 20
244.8289853500655
 30
0.0
 10
333.751698914554
 20
245.1782057392535
 30
0.0
 10
334.567210158946
 20
245.9171659462825
 30
0.0
 10
335.306170365975
 20
246.7326771906754
 30
0.0
 10
335.655390755163
 20
247.1582034661085
 30
0.0
 10
336.3110681949179
 20
248.0420631112435
 30
0.0
 10
336.8767311374909
 20
248.9860685204975
 30
0.0
 10
337.1362252967199
 20
249.4715479460515
 30
0.0
 10
337.606871615532
 20
250.4663407988065
 30
0.0
 10
337.977499184006
 20
251.5025627744425
 30
0.0
 10
338.137294898268
 20
252.0293386480485
 30
0.0
 10
338.404823422064
 20
253.0968353769725
 30
0.0
 10
338.566172606844
 20
254.1854524895895
 30
0.0
 10
338.620129016458
 20
254.7332811098445
 30
0.0
 10
338.647193895276
 20
255.2828697620695
 30
0.0
 10
338.647193895276
 20
255.8324584142877
 30
0.0
  0
SPLINE
  5
18C
330
164
100
AcDbEntity
  8
$DDT_AUDIT_GENERATED_(7D)
  6
Continuous
 62
     7
100
AcDbSpline
210
0.0
220
0.0
230
1.0
 70
     8
 71
     5
 72
    33
 73
    27
 74
     0
 42
0.0000000006114931
 43
0.0000000001
 40
0.0
 40
0.0
 40
0.0
 40
0.0
 40
0.0
 40
0.0
 40
0.125
 40
0.125
 40
0.125
 40
0.25
 40
0.25
 40
0.25
 40
0.375
 40
0.375
 40
0.375
 40
0.5
 40
0.5
 40
0.5
 40
0.625
 40
0.625
 40
0.625
 40
0.75
 40
0.75
 40
0.75
 40
0.875
 40
0.875
 40
0.875
 40
1.0
 40
1.0
 40
1.0
 40
1.0
 40
1.0
 40
1.0
 10
262.1004034780175
 20
255.8324584136649
 30
0.0
 10
262.100403353307
 20
256.2407903120435
 30
0.0
 10
262.120511944134
 20
256.6491222098045
 30
0.0
 10
262.1606003321399
 20
257.0561464437485
 30
0.0
 10
262.28047911522
 20
257.8649642563615
 30
0.0
 10
262.479246737849
 20
258.6580901031385
 30
0.0
 10
262.597971327585
 20
259.0494726240355
 30
0.0
 10
262.873339200965
 20
259.8193620387825
 30
0.0
 10
263.223018736299
 20
260.5584705553055
 30
0.0
 10
263.4158170083639
 20
260.9191707523675
 30
0.0
 10
263.836091739108
 20
261.6205453507995
 30
0.0
 10
264.323245198719
 20
262.2772330112725
 30
0.0
 10
264.582708023646
 20
262.5933893782045
 30
0.0
 10
265.131738689552
 20
263.1992957278355
 30
0.0
 10
265.737645039183
 20
263.7483263937415
 30
0.0
 10
266.053801406115
 20
264.0077892186685
 30
0.0
 10
266.710489066587
 20
264.4949426782815
 30
0.0
 10
267.411863665016
 20
264.9152174090305
 30
0.0
 10
267.772563862076
 20
265.1080156810985
 30
0.0
 10
268.511672378596
 20
265.4576952164385
 30
0.0
 10
269.281561793341
 20
265.7330630898225
 30
0.0
 10
269.672944314238
 20
265.8517876795574
 30
0.0
 10
270.466070161014
 20
266.0505553021845
 30
0.0
 10
271.274887973625
 20
266.1704340852555
 30
0.0
 10
271.68191220757
 20
266.2105224732575
 30
0.0
 10
272.090244105335
 20
266.2306310640805
 30
0.0
 10
272.4985760769481
 20
266.2306309080489
 30
0.0
  0
SPLINE
  5
18D
330
164
100
AcDbEntity
  8
$DDT_AUDIT_GENERATED_(7D)
  6
Continuous
 62
     7
100
AcDbSpline
210
0.0
220
0.0
230
1.0
 70
     8
 71
     5
 72
    33
 73
    27
 74
     0
 42
0.0000000004543255
 43
0.0000000001
 40
0.0
 40
0.0
 40
0.0
 40
0.0
 40
0.0
 40
0.0
 40
0.125
 40
0.125
 40
0.125
 40
0.25
 40
0.25
 40
0.25
 40
0.375
 40
0.375
 40
0.375
 40
0.5
 40
0.5
 40
0.5
 40
0.625
 40
0.625
 40
0.625
 40
0.75
 40
0.75
 40
0.75
 40
0.875
 40
0.875
 40
0.875
 40
1.0
 40
1.0
 40
1.0
 40
1.0
 40
1.0
 40
1.0
 10
338.647193895276
 20
255.8324584142877
 30
0.0
 10
338.647193895276
 20
256.3820470665065
 30
0.0
 10
338.620129016458
 20
256.9316357187315
 30
0.0
 10
338.566172606844
 20
257.4794643389865
 30
0.0
 10
338.404823422064
 20
258.5680814516025
 30
0.0
 10
338.137294898268
 20
259.6355781805265
 30
0.0
 10
337.977499184006
 20
260.1623540541324
 30
0.0
 10
337.606871615532
 20
261.1985760297695
 30
0.0
 10
337.1362252967199
 20
262.1933688825235
 30
0.0
 10
336.8767311374909
 20
262.6788483080775
 30
0.0
 10
336.3110681949179
 20
263.6228537173315
 30
0.0
 10
335.655390755163
 20
264.5067133624664
 30
0.0
 10
335.306170365975
 20
264.9322396379005
 30
0.0
 10
334.567210158946
 20
265.7477508822935
 30
0.0
 10
333.751698914554
 20
266.4867110893215
 30
0.0
 10
333.32617263912
 20
266.8359314785105
 30
0.0
 10
332.4423129939869
 20
267.4916089182674
 30
0.0
 10
331.498307584736
 20
268.0572718608485
 30
0.0
 10
331.012828159185
 20
268.3167660200805
 30
0.0
 10
330.018035306435
 20
268.7874123389014
 30
0.0
 10
328.9818133308
 20
269.1580399073785
 30
0.0
 10
328.455037457195
 20
269.3178356216405
 30
0.0
 10
327.3875407282731
 20
269.5853641454335
 30
0.0
 10
326.298923615658
 20
269.7467133302015
 30
0.0
 10
325.751094995402
 20
269.8006697398095
 30
0.0
 10
325.201506343171
 20
269.8277346186235
 30
0.0
 10
324.651917690941
 20
269.8277346186235
 30
0.0
  0
LINE
  5
18E
330
164
100
AcDbEntity
  8
$DDT_AUDIT_GENERATED_(7D)
  6
Continuous
 62
     7
100
AcDbLine
 10
272.4985760769
 20
266.2306310641
 30
0.0
 11
324.6519176208
 21
266.2306310641
 31
0.0
  0
SPLINE
  5
18F
330
164
100
AcDbEntity
  8
$DDT_AUDIT_GENERATED_(7D)
  6
Continuous
 62
     7
100
AcDbSpline
210
0.0
220
0.0
230
1.0
 70
     8
 71
     5
 72
    33
 73
    27
 74
     0
 42
0.0000000006114931
 43
0.0000000001
 40
0.0
 40
0.0
 40
0.0
 40
0.0
 40
0.0
 40
0.0
 40
0.125
 40
0.125
 40
0.125
 40
0.25
 40
0.25
 40
0.25
 40
0.375
 40
0.375
 40
0.375
 40
0.5
 40
0.5
 40
0.5
 40
0.625
 40
0.625
 40
0.625
 40
0.75
 40
0.75
 40
0.75
 40
0.875
 40
0.875
 40
0.875
 40
1.0
 40
1.0
 40
1.0
 40
1.0
 40
1.0
 40
1.0
 10
335.0500902160235
 20
255.8324584149104
 30
0.0
 10
335.050090340734
 20
255.4241265165315
 30
0.0
 10
335.0299817499069
 20
255.0157946187704
 30
0.0
 10
334.989893361901
 20
254.6087703848265
 30
0.0
 10
334.870014578821
 20
253.7999525722134
 30
0.0
 10
334.671246956192
 20
253.0068267254364
 30
0.0
 10
334.5525223664559
 20
252.6154442045395
 30
0.0
 10
334.277154493076
 20
251.8455547897925
 30
0.0
 10
333.927474957742
 20
251.1064462732695
 30
0.0
 10
333.734676685677
 20
250.7457460762085
 30
0.0
 10
333.314401954933
 20
250.0443714777765
 30
0.0
 10
332.827248495322
 20
249.3876838173035
 30
0.0
 10
332.567785670395
 20
249.0715274503705
 30
0.0
 10
332.018755004489
 20
248.4656211007395
 30
0.0
 10
331.412848654858
 20
247.9165904348335
 30
0.0
 10
331.096692287925
 20
247.6571276099065
 30
0.0
 10
330.440004627454
 20
247.1699741502945
 30
0.0
 10
329.738630029025
 20
246.7496994195445
 30
0.0
 10
329.377929831965
 20
246.5569011474765
 30
0.0
 10
328.638821315445
 20
246.2072216121365
 30
0.0
 10
327.8689319007
 20
245.9318537387535
 30
0.0
 10
327.477549379803
 20
245.8131291490175
 30
0.0
 10
326.684423533027
 20
245.6143615263905
 30
0.0
 10
325.8756057204159
 20
245.4944827433195
 30
0.0
 10
325.468581486471
 20
245.4543943553185
 30
0.0
 10
325.0602495887059
 20
245.4342857644955
 30
0.0
 10
324.6519176203782
 20
245.4342859069062
 30
0.0
  0
SPLINE
  5
190
330
164
100
AcDbEntity
  8
$DDT_AUDIT_GENERATED_(7D)
  6
Continuous
 62
     7
100
AcDbSpline
210
0.0
220
0.0
230
1.0
 70
     8
 71
     5
 72
    33
 73
    27
 74
     0
 42
0.0000000006114931
 43
0.0000000001
 40
0.0
 40
0.0
 40
0.0
 40
0.0
 40
0.0
 40
0.0
 40
0.125
 40
0.125
 40
0.125
 40
0.25
 40
0.25
 40
0.25
 40
0.375
 40
0.375
 40
0.375
 40
0.5
 40
0.5
 40
0.5
 40
0.625
 40
0.625
 40
0.625
 40
0.75
 40
0.75
 40
0.75
 40
0.875
 40
0.875
 40
0.875
 40
1.0
 40
1.0
 40
1.0
 40
1.0
 40
1.0
 40
1.0
 10
324.6519176196679
 20
266.2306309216698
 30
0.0
 10
325.060249588706
 20
266.2306310640805
 30
0.0
 10
325.468581486471
 20
266.2105224732575
 30
0.0
 10
325.8756057204159
 20
266.1704340852555
 30
0.0
 10
326.684423533027
 20
266.0505553021845
 30
0.0
 10
327.477549379803
 20
265.8517876795574
 30
0.0
 10
327.8689319007
 20
265.7330630898225
 30
0.0
 10
328.638821315445
 20
265.4576952164385
 30
0.0
 10
329.377929831965
 20
265.1080156810985
 30
0.0
 10
329.738630029025
 20
264.9152174090304
 30
0.0
 10
330.440004627454
 20
264.4949426782815
 30
0.0
 10
331.096692287925
 20
264.0077892186684
 30
0.0
 10
331.412848654858
 20
263.7483263937415
 30
0.0
 10
332.018755004489
 20
263.1992957278355
 30
0.0
 10
332.567785670395
 20
262.5933893782045
 30
0.0
 10
332.827248495322
 20
262.2772330112725
 30
0.0
 10
333.314401954933
 20
261.6205453507995
 30
0.0
 10
333.734676685677
 20
260.9191707523675
 30
0.0
 10
333.927474957742
 20
260.5584705553055
 30
0.0
 10
334.277154493076
 20
259.8193620387825
 30
0.0
 10
334.5525223664559
 20
259.0494726240354
 30
0.0
 10
334.671246956192
 20
258.6580901031385
 30
0.0
 10
334.870014578821
 20
257.8649642563615
 30
0.0
 10
334.989893361901
 20
257.0561464437484
 30
0.0
 10
335.0299817499069
 20
256.6491222098044
 30
0.0
 10
335.050090340734
 20
256.2407903120435
 30
0.0
 10
335.0500902160235
 20
255.8324584149104
 30
0.0
  0
SPLINE
  5
191
330
164
100
AcDbEntity
  8
$DDT_AUDIT_GENERATED_(C3)
  6
Continuous
 62
     7
100
AcDbSpline
210
0.0
220
0.0
230
1.0
 70
     8
 71
     3
 72
    20
 73
    16
 74
     0
 42
0.0000000000527317
 43
0.0000000001
 40
0.0106414836225951
 40
0.0106414836225951
 40
0.0106414836225951
 40
0.0106414836225951
 40
0.0625
 40
0.0625
 40
0.125
 40
0.125
 40
0.1875
 40
0.1875
 40
0.25
 40
0.25
 40
0.3125
 40
0.3125
 40
0.375
 40
0.375
 40
0.3775502305673257
 40
0.3775502305673257
 40
0.3775502305673257
 40
0.3775502305673257
 10
174.5028675069229
 20
285.7648488120321
 30
0.0
 10
177.7536849008463
 20
285.5456474915515
 30
0.0
 10
180.9687611917816
 20
284.7957785747619
 30
0.0
 10
187.6071742592307
 20
282.04606377442
 30
0.0
 10
190.9350112724233
 20
279.8224778387329
 30
0.0
 10
196.4886244012262
 20
274.268873171438
 30
0.0
 10
198.7122154072208
 20
270.9410395461166
 30
0.0
 10
201.7178124123286
 20
263.6849021281855
 30
0.0
 10
202.4986358373652
 20
259.7594533157981
 30
0.0
 10
202.4986418205549
 20
251.9054642920613
 30
0.0
 10
201.7178243763537
 20
247.9800142900117
 30
0.0
 10
198.7122384267388
 20
240.7238722927455
 30
0.0
 10
196.4886524910518
 20
237.3960352795529
 30
0.0
 10
193.5985463783532
 20
234.5059247634701
 30
0.0
 10
193.4843251646891
 20
234.3935418830771
 30
0.0
 10
193.369203554437
 20
234.2820914584358
 30
0.0
  0
SPLINE
  5
192
330
164
100
AcDbEntity
  8
$DDT_AUDIT_GENERATED_(C3)
  6
Continuous
 62
     7
100
AcDbSpline
210
0.0
220
0.0
230
1.0
 70
     8
 71
     3
 72
    20
 73
    16
 74
     0
 42
0.0000000000527317
 43
0.0000000001
 40
0.6224503063144752
 40
0.6224503063144752
 40
0.6224503063144752
 40
0.6224503063144752
 40
0.625
 40
0.625
 40
0.6875
 40
0.6875
 40
0.75
 40
0.75
 40
0.8125
 40
0.8125
 40
0.875
 40
0.875
 40
0.9375
 40
0.9375
 40
0.9893585153132921
 40
0.9893585153132921
 40
0.9893585153132921
 40
0.9893585153132921
 10
151.6279777769261
 20
234.2821300485103
 30
0.0
 10
151.5128806116611
 20
234.3935572274517
 30
0.0
 10
151.3986834660811
 20
234.5059164685551
 30
0.0
 10
148.5085968030688
 20
237.3959987282195
 30
0.0
 10
146.2850057970742
 20
240.7238323535408
 30
0.0
 10
143.2794087919665
 20
247.9799697714719
 30
0.0
 10
142.4985853669298
 20
251.9054185838594
 30
0.0
 10
142.4985793837402
 20
259.7594076075961
 30
0.0
 10
143.2793968279413
 20
263.6848576096457
 30
0.0
 10
146.2849827775562
 20
270.9409996069119
 30
0.0
 10
148.5085687132432
 20
274.2688366201045
 30
0.0
 10
154.0621733805382
 20
279.8224497489073
 30
0.0
 10
157.3900070058596
 20
282.046040754902
 30
0.0
 10
164.0284158220502
 20
284.7957656439756
 30
0.0
 10
167.2434909003046
 20
285.5456394540839
 30
0.0
 10
170.4943078920759
 20
285.7648457448069
 30
0.0
  0
LINE
  5
193
330
164
100
AcDbEntity
  8
$DDT_AUDIT_GENERATED_(12E)
  6
Continuous
 62
     7
100
AcDbLine
 10
170.4985877481
 20
303.3241227657
 30
0.0
 11
174.4985877481
 21
303.3241227657
 31
0.0
  0
LINE
  5
194
330
164
100
AcDbEntity
  8
$DDT_AUDIT_GENERATED_(12E)
  6
Continuous
 62
     7
100
AcDbLine
 10
174.4985877481
 20
289.8568354058
 30
0.0
 11
174.4985877481
 21
303.3241227657
 31
0.0
  0
LINE
  5
195
330
164
100
AcDbEntity
  8
$DDT_AUDIT_GENERATED_(12E)
  6
Continuous
 62
     7
100
AcDbLine
 10
170.4985877481
 20
303.3241227657
 30
0.0
 11
170.4985877481
 21
289.8568354058
 31
0.0
  0
LINE
  5
196
330
164
100
AcDbEntity
  8
$DDT_AUDIT_GENERATED_(12E)
  6
Continuous
 62
     7
100
AcDbLine
 10
170.4985877481
 20
289.8568354058
 30
0.0
 11
170.4985877481
 21
287.0036710474
 31
0.0
  0
LINE
  5
197
330
164
100
AcDbEntity
  8
$DDT_AUDIT_GENERATED_(12E)
  6
Continuous
 62
     7
100
AcDbLine
 10
174.4985877481
 20
287.0036710474
 30
0.0
 11
174.4985877481
 21
289.8568354058
 31
0.0
  0
LINE
  5
198
330
164
100
AcDbEntity
  8
$DDT_AUDIT_GENERATED_(12E)
  6
Continuous
 62
     7
100
AcDbLine
 10
174.4985877481
 20
276.6178345033
 30
0.0
 11
174.4985877481
 21
287.0036710474
 31
0.0
  0
LINE
  5
199
330
164
100
AcDbEntity
  8
$DDT_AUDIT_GENERATED_(12E)
  6
Continuous
 62
     7
100
AcDbLine
 10
170.4985877481
 20
287.0036710474
 30
0.0
 11
170.4985877481
 21
276.6297812727
 31
0.0
  0
LINE
  5
19A
330
164
100
AcDbEntity
  8
$DDT_AUDIT_GENERATED_(CA)
  6
Continuous
 62
     7
100
AcDbLine
 10
155.6286974268
 20
218.9880613662
 30
0.0
 11
155.6286975665
 21
128.1697732204
 31
0.0
  0
ARC
  5
19B
330
164
100
AcDbEntity
  8
$DDT_AUDIT_GENERATED_(CA)
  6
Continuous
 62
     7
100
AcDbCircle
 10
172.4986424085
 20
127.1932598404
 30
0.0
 40
20.83852433580085
100
AcDbArc
 50
196.6513710606
 51
343.3220969126
  0
ARC
  5
19C
330
164
100
AcDbEntity
  8
$DDT_AUDIT_GENERATED_(CA)
  6
Continuous
 62
     7
100
AcDbCircle
 10
172.4986946849
 20
128.3002701127
 30
0.0
 40
16.86289026776418
100
AcDbArc
 50
180.4433910931
 51
359.5531307362
  0
LINE
  5
19D
330
164
100
AcDbEntity
  8
$DDT_AUDIT_GENERATED_(CA)
  6
Continuous
 62
     7
100
AcDbLine
 10
189.3684778457
 20
218.9880622724
 30
0.0
 11
189.3684779854
 21
128.1686523895
 31
0.0
  0
SPLINE
  5
19E
330
164
100
AcDbEntity
  8
$DDT_AUDIT_GENERATED_(CA)
  6
Continuous
 62
     7
100
AcDbSpline
210
0.0
220
0.0
230
1.0
 70
    12
 71
     5
 72
    12
 73
     6
 74
     0
 42
0.0000000002205349
 43
0.0000000001
 40
0.0
 40
0.0
 40
0.0
 40
0.0
 40
0.0
 40
0.0
 40
1.0
 40
1.0
 40
1.0
 40
1.0
 40
1.0
 40
1.0
 10
155.6363134860884
 20
264.3324583098645
 30
0.0
 41
1.0
 10
155.6363136812504
 20
264.3324583098645
 30
0.0
 41
1.0
 10
155.6363136812498
 20
264.3324583098645
 30
0.0
 41
1.0
 10
155.6363136812501
 20
250.3799131303286
 30
0.0
 41
1.0
 10
155.6363136812501
 20
236.4042520215955
 30
0.0
 41
1.0
 10
155.6361155461459
 20
218.9881600573545
 30
0.0
 41
1.0
  0
SPLINE
  5
19F
330
164
100
AcDbEntity
  8
$DDT_AUDIT_GENERATED_(CA)
  6
Continuous
 62
     7
100
AcDbSpline
210
0.0
220
0.0
230
1.0
 70
    12
 71
     5
 72
    12
 73
     6
 74
     0
 42
0.0000000028294995
 43
0.0000000001
 40
0.4779319920400591
 40
0.4779319920400591
 40
0.4779319920400591
 40
0.4779319920400591
 40
0.4779319920400591
 40
0.4779319920400591
 40
1.0
 40
1.0
 40
1.0
 40
1.0
 40
1.0
 40
1.0
 10
153.8207730927924
 20
264.1352303550983
 30
0.0
 41
1.0
 10
154.1111985049645
 20
264.2556300753901
 30
0.0
 41
1.0
 10
154.4529976271167
 20
264.3154916452709
 30
0.0
 41
1.0
 10
154.8324486599549
 20
264.3324583098645
 30
0.0
 41
1.0
 10
155.2176815287266
 20
264.3324583098645
 30
0.0
 41
1.0
 10
155.6363134860884
 20
264.3324583098645
 30
0.0
 41
1.0
  0
SPLINE
  5
1A0
330
164
100
AcDbEntity
  8
$DDT_AUDIT_GENERATED_(CA)
  6
Continuous
 62
     7
100
AcDbSpline
210
0.0
220
0.0
230
1.0
 70
    12
 71
     5
 72
    12
 73
     6
 74
     0
 42
0.0000000002205349
 43
0.0000000001
 40
0.0
 40
0.0
 40
0.0
 40
0.0
 40
0.0
 40
0.0
 40
1.0
 40
1.0
 40
1.0
 40
1.0
 40
1.0
 40
1.0
 10
189.361092411839
 20
218.9881600786012
 30
0.0
 41
1.0
 10
189.3608618148615
 20
236.4042520215955
 30
0.0
 41
1.0
 10
189.3608618148615
 20
250.3799131303286
 30
0.0
 41
1.0
 10
189.3608618148612
 20
264.3324583098645
 30
0.0
 41
1.0
 10
189.3608618148619
 20
264.3324583098645
 30
0.0
 41
1.0
 10
189.3608620100173
 20
264.3324583098645
 30
0.0
 41
1.0
  0
LINE
  5
1A1
330
164
100
AcDbEntity
  8
$DDT_AUDIT_GENERATED_(CA)
  6
Continuous
 62
     7
100
AcDbLine
 10
155.6363134861
 20
264.3324583099
 30
0.0
 11
189.36086201
 21
264.3324583099
 31
0.0
  0
SPLINE
  5
1A2
330
164
100
AcDbEntity
  8
$DDT_AUDIT_GENERATED_(CA)
  6
Continuous
 62
     7
100
AcDbSpline
210
0.0
220
0.0
230
1.0
 70
     8
 71
     5
 72
    13
 73
     7
 74
     0
 42
0.0000000683142187
 43
0.0000000001
 40
0.7921436212773075
 40
0.7921436212773075
 40
0.7921436212773075
 40
0.7921436212773075
 40
0.7921436212773075
 40
0.7921436212773075
 40
0.875000032604233
 40
1.0
 40
1.0
 40
1.0
 40
1.0
 40
1.0
 40
1.0
 10
189.3898447738243
 20
264.339896548779
 30
0.0
 10
189.3847588194868
 20
264.3373524633972
 30
0.0
 10
189.3735099979492
 20
264.3330697520619
 30
0.0
 10
189.3666136193486
 20
264.3322977129136
 30
0.0
 10
189.3623579080881
 20
264.3325649077798
 30
0.0
 10
189.3608621563994
 20
264.3324583098645
 30
0.0
 10
189.3608620100173
 20
264.3324583098645
 30
0.0
  0
SPLINE
  5
1A3
330
164
100
AcDbEntity
  8
$DDT_AUDIT_GENERATED_(CA)
  6
Continuous
 62
     7
100
AcDbSpline
210
0.0
220
0.0
230
1.0
 70
     8
 71
     5
 72
    13
 73
     7
 74
     0
 42
0.0000001276491962
 43
0.0000000001
 40
0.0
 40
0.0
 40
0.0
 40
0.0
 40
0.0
 40
0.0
 40
0.12499996739575
 40
0.1250120041603868
 40
0.1250120041603868
 40
0.1250120041603868
 40
0.1250120041603868
 40
0.1250120041603868
 40
0.1250120041603868
 10
155.6363134860884
 20
264.3324583098645
 30
0.0
 10
155.6363133396884
 20
264.3324583098645
 30
0.0
 10
155.635413744348
 20
264.3325224203313
 30
0.0
 10
155.633515806901
 20
264.3324513234938
 30
0.0
 10
155.6306454811165
 20
264.3325524243693
 30
0.0
 10
155.6265891355885
 20
264.3332716168191
 30
0.0
 10
155.6265887450128
 20
264.3332716860722
 30
0.0
  0
ARC
  5
1A4
330
164
100
AcDbEntity
  8
$DDT_AUDIT_GENERATED_(CA)
  6
Continuous
 62
     7
100
AcDbCircle
 10
172.4978007343
 20
255.8375614791
 30
0.0
 40
20.84655701417166
100
AcDbArc
 50
157.6736111636
 51
159.7041845742
  0
ARC
  5
1A5
330
164
100
AcDbEntity
  8
$DDT_AUDIT_GENERATED_(CA)
  6
Continuous
 62
     7
100
AcDbCircle
 10
172.5242929068
 20
255.8291816932
 30
0.0
 40
20.87431674270154
100
AcDbArc
 50
159.96208222
 51
177.0525114555
  0
SPLINE
  5
1A6
330
164
100
AcDbEntity
  8
$DDT_AUDIT_GENERATED_(CA)
  6
Continuous
 62
     7
100
AcDbSpline
210
0.0
220
0.0
230
1.0
 70
    12
 71
     5
 72
    12
 73
     6
 74
     0
 42
0.0000000029087759
 43
0.0000000001
 40
0.1469379358591861
 40
0.1469379358591861
 40
0.1469379358591861
 40
0.1469379358591861
 40
0.1469379358591861
 40
0.1469379358591861
 40
1.0
 40
1.0
 40
1.0
 40
1.0
 40
1.0
 40
1.0
 10
189.9279600556528
 20
264.3284247602085
 30
0.0
 41
1.0
 10
190.5641423556111
 20
264.3141187232026
 30
0.0
 41
1.0
 10
191.1402868288245
 20
264.2569030773191
 30
0.0
 41
1.0
 10
191.6576211428375
 20
264.066708809383
 30
0.0
 41
1.0
 10
191.8490712288314
 20
263.6241857540998
 30
0.0
 41
1.0
 10
192.0835948925921
 20
262.9815982380578
 30
0.0
 41
1.0
  0
ARC
  5
1A7
330
164
100
AcDbEntity
  8
$DDT_AUDIT_GENERATED_(CA)
  6
Continuous
 62
     7
100
AcDbCircle
 10
172.4908274167
 20
255.8251283814
 30
0.0
 40
20.85899153486836
100
AcDbArc
 50
20.317728167
 51
22.3677086623
  0
ARC
  5
1A8
330
164
100
AcDbEntity
  8
$DDT_AUDIT_GENERATED_(CA)
  6
Continuous
 62
     7
100
AcDbCircle
 10
172.4728825893
 20
255.8291816932
 30
0.0
 40
20.87431674270062
100
AcDbArc
 50
14.9053362372
 51
20.03791778
  0
ARC
  5
1A9
330
164
100
AcDbEntity
  8
$DDT_AUDIT_GENERATED_(CA)
  6
Continuous
 62
     7
100
AcDbCircle
 10
172.4985877457
 20
127.2246287937
 30
0.0
 40
20.87462879372399
100
AcDbArc
 50
196.6502036511
 51
343.3497966154
  0
LINE
  5
1AA
330
164
100
AcDbEntity
  8
$DDT_AUDIT_GENERATED_(CA)
  6
Continuous
 62
     7
100
AcDbLine
 10
151.6488480036
 20
217.9521645646
 30
0.0
 11
151.6488481433
 21
127.1341921326
 31
0.0
  0
SPLINE
  5
1AB
330
164
100
AcDbEntity
  8
$DDT_AUDIT_GENERATED_(CA)
  6
Continuous
 62
     7
100
AcDbSpline
210
0.0
220
0.0
230
1.0
 70
     8
 71
     3
 72
    10
 73
     6
 74
     0
 42
0.0000000065224799
 43
0.0000000001
 40
0.0
 40
0.0
 40
0.0
 40
0.0
 40
0.1931029861495319
 40
0.4329225744379782
 40
1.0
 40
1.0
 40
1.0
 40
1.0
 10
153.8186969956323
 20
264.1266441380778
 30
0.0
 10
153.7189811158835
 20
264.0830632748512
 30
0.0
 10
153.5294336660428
 20
263.9971232109543
 30
0.0
 10
153.1542997036614
 20
263.6279800068469
 30
0.0
 10
153.0158309681658
 20
263.2763769227872
 30
0.0
 10
152.9134324442821
 20
262.9816289110775
 30
0.0
  0
ARC
  5
1AC
330
164
100
AcDbEntity
  8
$DDT_AUDIT_GENERATED_(CA)
  6
Continuous
 62
     7
100
AcDbCircle
 10
172.4986971332
 20
127.1351614777
 30
0.0
 40
20.85086751093793
100
AcDbArc
 50
343.4735544309
 51
0.0
  0
ARC
  5
1AD
330
164
100
AcDbEntity
  8
$DDT_AUDIT_GENERATED_(CA)
  6
Continuous
 62
     7
100
AcDbCircle
 10
172.4986971332
 20
127.1351614777
 30
0.0
 40
20.85086751093793
100
AcDbArc
 50
180.0104191167
 51
196.5004672354
  0
ARC
  5
1AE
330
164
100
AcDbEntity
  8
$DDT_AUDIT_GENERATED_(CA)
  6
Continuous
 62
     7
100
AcDbCircle
 10
172.6537328971
 20
255.6975949157
 30
0.0
 40
21.04394245079362
100
AcDbArc
 50
90.4224856648
 51
157.4904056964
  0
ARC
  5
1AF
330
164
100
AcDbEntity
  8
$DDT_AUDIT_GENERATED_(CA)
  6
Continuous
 62
     7
100
AcDbCircle
 10
879.9166550347
 20
236.9109467078
 30
0.0
 40
728.5145476145549
100
AcDbArc
 50
178.427459626
 51
181.4912267797
  0
LINE
  5
1B0
330
164
100
AcDbEntity
  8
$DDT_AUDIT_GENERATED_(CA)
  6
Continuous
 62
     7
100
AcDbLine
 10
193.3483275763
 20
127.1341833992
 30
0.0
 11
193.3483274366
 21
217.9521645659
 31
0.0
  0
ARC
  5
1B1
330
164
100
AcDbEntity
  8
$DDT_AUDIT_GENERATED_(CA)
  6
Continuous
 62
     7
100
AcDbCircle
 10
172.3121482748
 20
255.651495515
 30
0.0
 40
21.09052393290511
100
AcDbArc
 50
22.5930398505
 51
89.4935728538
  0
SPLINE
  5
1B2
330
164
100
AcDbEntity
  8
$DDT_AUDIT_GENERATED_(CA)
  6
Continuous
 62
     7
100
AcDbSpline
210
0.0
220
0.0
230
1.0
 70
     8
 71
     3
 72
    28
 73
    24
 74
     0
 42
0.0000000002308984
 43
0.0000000001
 40
0.0
 40
0.0
 40
0.0
 40
0.0
 40
0.0850205552655783
 40
0.1660109220638917
 40
0.2434362173850184
 40
0.3174441095707503
 40
0.3880761600496662
 40
0.4445842316789309
 40
0.4998546837667715
 40
0.55507153971604
 40
0.5971264813323516
 40
0.6393073194796283
 40
0.6809039990594735
 40
0.7210993030600693
 40
0.7799033069097691
 40
0.8302204349445331
 40
0.8724709563276123
 40
0.907337907083792
 40
0.935802774921486
 40
0.9509376442371171
 40
0.9644818724574067
 40
0.9883787460468422
 40
1.0
 40
1.0
 40
1.0
 40
1.0
 10
193.3483358705687
 20
217.9521723492529
 30
0.0
 10
193.348328206726
 20
219.8902813940483
 30
0.0
 10
193.3483423358335
 20
223.0746683699671
 30
0.0
 10
193.3487098879341
 20
228.1939993448576
 30
0.0
 10
193.3495592129329
 20
232.9114572546959
 30
0.0
 10
193.3508055276358
 20
237.3494975517916
 30
0.0
 10
193.3521741623607
 20
241.2107317278286
 30
0.0
 10
193.3533986795385
 20
244.5156746364953
 30
0.0
 10
193.3543319967554
 20
247.3068477871057
 30
0.0
 10
193.3548710134898
 20
249.5601667668121
 30
0.0
 10
193.3549541351986
 20
251.3057000093268
 30
0.0
 10
193.3546322987921
 20
252.6217724530633
 30
0.0
 10
193.3540202044863
 20
253.6692287646235
 30
0.0
 10
193.3531221290166
 20
254.611034344536
 30
0.0
 10
193.3520913130093
 20
255.3729374496314
 30
0.0
 10
193.3473230668982
 20
256.057368762901
 30
0.0
 10
193.3312037258345
 20
256.6953258314108
 30
0.0
 10
193.2937650389995
 20
257.3816010661354
 30
0.0
 10
193.2301945916922
 20
258.0823045468177
 30
0.0
 10
193.1459348709586
 20
258.7485453018621
 30
0.0
 10
193.0331156880515
 20
259.468958795481
 30
0.0
 10
192.8770560539537
 20
260.3144677251773
 30
0.0
 10
192.7028558020096
 20
260.9516276842412
 30
0.0
 10
192.6358289929248
 20
261.1963730215124
 30
0.0
  0
LINE
  5
1B4
330
164
100
AcDbEntity
  8
DV3_Standard
  6
CENTER2
 62
     7
100
AcDbLine
 10
92.4986215359
 20
255.832538439
 30
0.0
 11
52.4986224299
 21
255.832538439
 31
0.0
  0
LINE
  5
1B5
330
164
100
AcDbEntity
  8
DV3_Standard
  6
CENTER2
 62
     7
100
AcDbLine
 10
72.4986219829
 20
275.832537992
 30
0.0
 11
72.4986219829
 21
235.832538886
 31
0.0
  0
LINE
  5
1B6
330
164
100
AcDbEntity
  8
DV3_Standard
  6
CENTER2
 62
     7
100
AcDbLine
 10
97.4986214241
 20
255.832538439
 30
0.0
 11
96.8487021121
 21
255.832538439
 31
0.0
  0
LINE
  5
1B7
330
164
100
AcDbEntity
  8
DV3_Standard
  6
CENTER2
 62
     7
100
AcDbLine
 10
72.4986219829
 20
280.8325378802
 30
0.0
 11
72.4986219829
 21
280.1826185682
 31
0.0
  0
LINE
  5
1B8
330
164
100
AcDbEntity
  8
DV3_Standard
  6
CENTER2
 62
     7
100
AcDbLine
 10
47.4986225417
 20
255.832538439
 30
0.0
 11
48.1485418537
 21
255.832538439
 31
0.0
  0
LINE
  5
1B9
330
164
100
AcDbEntity
  8
DV3_Standard
  6
CENTER2
 62
     7
100
AcDbLine
 10
72.4986219829
 20
230.8325389978
 30
0.0
 11
72.4986219829
 21
231.4824583098
 31
0.0
  0
LINE
  5
1BA
330
164
100
AcDbEntity
  8
DV3_Standard
  6
CENTER2
 62
     7
100
AcDbLine
 10
192.65373245
 20
255.6975949157
 30
0.0
 11
152.6537333441
 21
255.6975949157
 31
0.0
  0
LINE
  5
1BB
330
164
100
AcDbEntity
  8
DV3_Standard
  6
CENTER2
 62
     7
100
AcDbLine
 10
172.6537328971
 20
275.6975944686
 30
0.0
 11
172.6537328971
 21
235.6975953627
 31
0.0
  0
LINE
  5
1BC
330
164
100
AcDbEntity
  8
DV3_Standard
  6
CENTER2
 62
     7
100
AcDbLine
 10
197.6537323383
 20
255.6975949157
 30
0.0
 11
197.1976753479
 21
255.6975949157
 31
0.0
  0
LINE
  5
1BD
330
164
100
AcDbEntity
  8
DV3_Standard
  6
CENTER2
 62
     7
100
AcDbLine
 10
172.6537328971
 20
280.6975943569
 30
0.0
 11
172.6537328971
 21
280.2415373664
 31
0.0
  0
LINE
  5
1BE
330
164
100
AcDbEntity
  8
DV3_Standard
  6
CENTER2
 62
     7
100
AcDbLine
 10
147.6537334559
 20
255.6975949157
 30
0.0
 11
148.1097904463
 21
255.6975949157
 31
0.0
  0
LINE
  5
1BF
330
164
100
AcDbEntity
  8
DV3_Standard
  6
CENTER2
 62
     7
100
AcDbLine
 10
172.6537328971
 20
230.6975954744
 30
0.0
 11
172.6537328971
 21
231.1536524649
 31
0.0
  0
LINE
  5
1C0
330
164
100
AcDbEntity
  8
DV3_Standard
  6
CENTER2
 62
     7
100
AcDbLine
 10
292.4985872779
 20
255.8318604224
 30
0.0
 11
252.498588172
 21
255.8318604224
 31
0.0
  0
LINE
  5
1C1
330
164
100
AcDbEntity
  8
DV3_Standard
  6
CENTER2
 62
     7
100
AcDbLine
 10
272.498587725
 20
275.8318599754
 30
0.0
 11
272.498587725
 21
235.8318608695
 31
0.0
  0
LINE
  5
1C2
330
164
100
AcDbEntity
  8
DV3_Standard
  6
CENTER2
 62
     7
100
AcDbLine
 10
297.4985871662
 20
255.8318604224
 30
0.0
 11
296.6364652413
 21
255.8318604224
 31
0.0
  0
LINE
  5
1C3
330
164
100
AcDbEntity
  8
DV3_Standard
  6
CENTER2
 62
     7
100
AcDbLine
 10
272.498587725
 20
280.8318598636
 30
0.0
 11
272.498587725
 21
279.9697379387
 31
0.0
  0
LINE
  5
1C4
330
164
100
AcDbEntity
  8
DV3_Standard
  6
CENTER2
 62
     7
100
AcDbLine
 10
247.4985882838
 20
255.8318604224
 30
0.0
 11
248.3607102087
 21
255.8318604224
 31
0.0
  0
LINE
  5
1C5
330
164
100
AcDbEntity
  8
DV3_Standard
  6
CENTER2
 62
     7
100
AcDbLine
 10
272.498587725
 20
230.8318609812
 30
0.0
 11
272.498587725
 21
231.6939829061
 31
0.0
  0
ENDBLK
  5
1C7
330
164
100
AcDbEntity
  8
0
100
AcDbBlockEnd
  0
ENDSEC
  0
SECTION
  2
ENTITIES
  0
INSERT
  5
5F
330
1F
100
AcDbEntity
  8
Default
100
AcDbBlockReference
  2
SE
 10
0.0
 20
0.0
 30
0.0
  0
INSERT
  5
F9
330
1F
100
AcDbEntity
  8
Default
100
AcDbBlockReference
  2
SE1
 10
0.0
 20
0.0
 30
0.0
  0
INSERT
  5
165
330
1F
100
AcDbEntity
  8
Default
100
AcDbBlockReference
  2
SE2
 10
0.0
 20
0.0
 30
0.0
  0
TEXT
  5
1C9
330
1F
100
AcDbEntity
  8
Default
  6
Continuous
 62
     7
100
AcDbText
 10
5.9362635081
 20
53.4225120485
 30
0.0
 40
10.0
  1
Grohe AG^J
  7
SEACAD_seiso_ttf
 11
5.9362635081
 21
63.4225120485
 31
0.0
100
AcDbText
 73
     3
  0
TEXT
  5
1CA
330
1F
100
AcDbEntity
  8
Default
  6
Continuous
 62
     7
100
AcDbText
 10
5.9362635081
 20
37.0588756849
 30
0.0
 40
10.0
  1
 
  7
SEACAD_seiso_ttf
 11
5.9362635081
 21
47.0588756849
 31
0.0
100
AcDbText
 73
     3
  0
TEXT
  5
1CB
330
1F
100
AcDbEntity
  8
Default
  6
Continuous
 62
     7
100
AcDbText
 10
5.9362635081
 20
20.6952393213
 30
0.0
 40
10.0
  1
ecn: 
  7
SEACAD_seiso_ttf
 11
5.9362635081
 21
30.6952393213
 31
0.0
100
AcDbText
 73
     3
  0
TEXT
  5
1CC
330
1F
100
AcDbEntity
  8
Default
  6
Continuous
 62
     7
100
AcDbText
 10
5.9362635081
 20
4.3316029576
 30
0.0
 40
10.0
  1
unit: mm
  7
SEACAD_seiso_ttf
 11
5.9362635081
 21
14.3316029576
 31
0.0
100
AcDbText
 73
     3
  0
LINE
  5
1CD
330
1F
100
AcDbEntity
  8
Default
  6
Continuous
 62
     7
100
AcDbLine
 10
0.0
 20
0.0
 30
0.0
 11
100.0
 21
0.0
 31
0.0
  0
LINE
  5
1CE
330
1F
100
AcDbEntity
  8
Default
  6
Continuous
 62
     7
100
AcDbLine
 10
0.0
 20
0.0
 30
0.0
 11
0.0
 21
100.0
 31
0.0
  0
TEXT
  5
1CF
330
1F
100
AcDbEntity
  8
Default
  6
Continuous
 62
     7
100
AcDbText
 10
24.3923665681
 20
-18.2375342018
 30
0.0
 40
10.0
  1
100 mm
  7
SEACAD_seiso_ttf
 11
24.3923665681
 21
-8.2375342018
 31
0.0
100
AcDbText
 73
     3
  0
TEXT
  5
1D0
330
1F
100
AcDbEntity
  8
Default
  6
Continuous
 62
     7
100
AcDbText
 10
-7.6150308803
 20
24.6231930421
 30
0.0
 40
10.0
  1
100 mm
 50
90.0
  7
SEACAD_seiso_ttf
 11
-17.6150308803
 21
24.6231930421
 31
0.0
100
AcDbText
 73
     3
  0
TEXT
  5
1D1
330
1F
100
AcDbEntity
  8
Default
  6
Continuous
 62
     7
100
AcDbText
 10
28.4878128572
 20
20.0907663715
 30
0.0
 40
10.0
  1
215311
  7
SEACAD_seiso_ttf
 11
28.4878128572
 21
30.0907663715
 31
0.0
100
AcDbText
 73
     3
  0
TEXT
  5
1D2
330
1F
100
AcDbEntity
  8
Default
  6
Continuous
 62
     7
100
AcDbText
 10
5.9012241913
 20
36.7242780188
 30
0.0
 40
10.0
  1
20182000
  7
SEACAD_seiso_ttf
 11
5.9012241913
 21
46.7242780188
 31
0.0
100
AcDbText
 73
     3
  0
ENDSEC
  0
SECTION
  2
OBJECTS
  0
DICTIONARY
  5
C
330
0
100
AcDbDictionary
281
     1
  3
ACAD_GROUP
350
D
  3
ACAD_LAYOUT
350
1A
  3
ACAD_MLEADERSTYLE
350
1D6
  3
ACAD_MLINESTYLE
350
17
  3
ACAD_PLOTSETTINGS
350
19
  3
ACAD_PLOTSTYLENAME
350
E
  3
ACAD_SCALELIST
350
3B
  3
ACAD_TABLESTYLE
350
1D5
  3
ACAD_VISUALSTYLE
350
2A
  3
AcDbVariableDictionary
350
1D3
  0
DICTIONARY
  5
D
102
{ACAD_REACTORS
330
C
102
}
330
C
100
AcDbDictionary
281
     1
  0
DICTIONARY
  5
1A
102
{ACAD_REACTORS
330
C
102
}
330
C
100
AcDbDictionary
281
     1
  3
Layout1
350
1E
  3
Model
350
22
  0
DICTIONARY
  5
1D6
102
{ACAD_REACTORS
330
C
102
}
330
C
100
AcDbDictionary
281
     1
  0
DICTIONARY
  5
17
102
{ACAD_REACTORS
330
C
102
}
330
C
100
AcDbDictionary
281
     1
  3
Standard
350
18
  0
DICTIONARY
  5
19
102
{ACAD_REACTORS
330
C
102
}
330
C
100
AcDbDictionary
281
     1
  0
ACDBDICTIONARYWDFLT
  5
E
102
{ACAD_REACTORS
330
C
102
}
330
C
100
AcDbDictionary
281
     1
  3
Normal
350
F
100
AcDbDictionaryWithDefault
340
F
  0
DICTIONARY
  5
3B
102
{ACAD_REACTORS
330
C
102
}
330
C
100
AcDbDictionary
281
     1
  3
A0
350
3C
  3
A1
350
3D
  3
A2
350
3E
  3
A3
350
3F
  3
A4
350
40
  3
A5
350
41
  3
A6
350
42
  3
A7
350
43
  3
A8
350
44
  3
A9
350
45
  3
B0
350
46
  3
B1
350
47
  3
B2
350
48
  3
B3
350
49
  3
B4
350
4A
  3
B5
350
4B
  3
B6
350
4C
  3
B7
350
4D
  3
B8
350
4E
  3
B9
350
4F
  3
C0
350
50
  3
C1
350
51
  3
C2
350
52
  3
C3
350
53
  3
C4
350
54
  3
C5
350
55
  3
C6
350
56
  3
C7
350
57
  3
C8
350
58
  3
C9
350
59
  3
D0
350
5A
  3
D1
350
5B
  3
D2
350
5C
  0
DICTIONARY
  5
1D5
102
{ACAD_REACTORS
330
C
102
}
330
C
100
AcDbDictionary
281
     1
  0
DICTIONARY
  5
2A
102
{ACAD_REACTORS
330
C
102
}
330
C
100
AcDbDictionary
281
     1
  3
2dWireframe
350
2F
  3
3D Hidden
350
31
  3
3dWireframe
350
30
  3
Basic
350
32
  3
Brighten
350
36
  3
ColorChange
350
3A
  3
Conceptual
350
34
  3
Dim
350
35
  3
Facepattern
350
39
  3
Flat
350
2B
  3
FlatWithEdges
350
2C
  3
Gouraud
350
2D
  3
GouraudWithEdges
350
2E
  3
Linepattern
350
38
  3
Realistic
350
33
  3
Thicken
350
37
  0
DICTIONARY
  5
1D3
102
{ACAD_REACTORS
330
C
102
}
330
C
100
AcDbDictionary
281
     1
  3
CANNOSCALE
350
1D4
  3
PSOLHEIGHT
350
1D8
  3
PSOLWIDTH
350
1D7
  0
LAYOUT
  5
1E
102
{ACAD_REACTORS
330
1A
102
}
330
1A
100
AcDbPlotSettings
  1

  2
none_device
  4

  6

 40
0.0
 41
0.0
 42
0.0
 43
0.0
 44
0.0
 45
0.0
 46
0.0
 47
0.0
 48
0.0
 49
0.0
140
0.0
141
0.0
142
1.0
143
1.0
 70
   688
 72
     0
 73
     0
 74
     5
  7

 75
    16
147
1.0
148
0.0
149
0.0
100
AcDbLayout
  1
Layout1
 70
     1
 71
     1
 10
0.0
 20
0.0
 11
1682.0
 21
2378.0
 12
0.0
 22
0.0
 32
0.0
 14
0.0
 24
0.0
 34
0.0
 15
1682.0
 25
2378.0
 35
0.0
146
0.0
 13
0.0
 23
0.0
 33
0.0
 16
1.0
 26
0.0
 36
0.0
 17
0.0
 27
1.0
 37
0.0
 76
     0
330
1B
  0
LAYOUT
  5
22
102
{ACAD_REACTORS
330
1A
102
}
330
1A
100
AcDbPlotSettings
  1

  2
none_device
  4

  6

 40
0.0
 41
0.0
 42
0.0
 43
0.0
 44
0.0
 45
0.0
 46
0.0
 47
0.0
 48
0.0
 49
0.0
140
0.0
141
0.0
142
1.0
143
1.0
 70
  1712
 72
     0
 73
     0
 74
     0
  7

 75
     0
147
1.0
148
0.0
149
0.0
100
AcDbLayout
  1
Model
 70
     1
 71
     0
 10
0.0
 20
0.0
 11
1682.0
 21
2378.0
 12
0.0
 22
0.0
 32
0.0
 14
0.0
 24
0.0
 34
0.0
 15
1682.0
 25
2378.0
 35
0.0
146
0.0
 13
0.0
 23
0.0
 33
0.0
 16
1.0
 26
0.0
 36
0.0
 17
0.0
 27
1.0
 37
0.0
 76
     0
330
1F
331
29
  0
MLINESTYLE
  5
18
102
{ACAD_REACTORS
330
17
102
}
330
17
100
AcDbMlineStyle
  2
Standard
 70
     0
  3

 62
   256
 51
90.0
 52
90.0
 71
     2
 49
0.5
 62
   256
  6
BYLAYER
 49
-0.5
 62
   256
  6
BYLAYER
  0
ACDBPLACEHOLDER
  5
F
102
{ACAD_REACTORS
330
E
102
}
330
E
  0
SCALE
  5
3C
102
{ACAD_REACTORS
330
3B
102
}
330
3B
100
AcDbScale
 70
     0
300
1:1
140
1.0
141
1.0
290
     1
  0
SCALE
  5
3D
102
{ACAD_REACTORS
330
3B
102
}
330
3B
100
AcDbScale
 70
     0
300
1:2
140
1.0
141
2.0
290
     0
  0
SCALE
  5
3E
102
{ACAD_REACTORS
330
3B
102
}
330
3B
100
AcDbScale
 70
     0
300
1:4
140
1.0
141
4.0
290
     0
  0
SCALE
  5
3F
102
{ACAD_REACTORS
330
3B
102
}
330
3B
100
AcDbScale
 70
     0
300
1:5
140
1.0
141
5.0
290
     0
  0
SCALE
  5
40
102
{ACAD_REACTORS
330
3B
102
}
330
3B
100
AcDbScale
 70
     0
300
1:8
140
1.0
141
8.0
290
     0
  0
SCALE
  5
41
102
{ACAD_REACTORS
330
3B
102
}
330
3B
100
AcDbScale
 70
     0
300
1:10
140
1.0
141
10.0
290
     0
  0
SCALE
  5
42
102
{ACAD_REACTORS
330
3B
102
}
330
3B
100
AcDbScale
 70
     0
300
1:16
140
1.0
141
16.0
290
     0
  0
SCALE
  5
43
102
{ACAD_REACTORS
330
3B
102
}
330
3B
100
AcDbScale
 70
     0
300
1:20
140
1.0
141
20.0
290
     0
  0
SCALE
  5
44
102
{ACAD_REACTORS
330
3B
102
}
330
3B
100
AcDbScale
 70
     0
300
1:30
140
1.0
141
30.0
290
     0
  0
SCALE
  5
45
102
{ACAD_REACTORS
330
3B
102
}
330
3B
100
AcDbScale
 70
     0
300
1:40
140
1.0
141
40.0
290
     0
  0
SCALE
  5
46
102
{ACAD_REACTORS
330
3B
102
}
330
3B
100
AcDbScale
 70
     0
300
1:50
140
1.0
141
50.0
290
     0
  0
SCALE
  5
47
102
{ACAD_REACTORS
330
3B
102
}
330
3B
100
AcDbScale
 70
     0
300
1:100
140
1.0
141
100.0
290
     0
  0
SCALE
  5
48
102
{ACAD_REACTORS
330
3B
102
}
330
3B
100
AcDbScale
 70
     0
300
2:1
140
2.0
141
1.0
290
     0
  0
SCALE
  5
49
102
{ACAD_REACTORS
330
3B
102
}
330
3B
100
AcDbScale
 70
     0
300
4:1
140
4.0
141
1.0
290
     0
  0
SCALE
  5
4A
102
{ACAD_REACTORS
330
3B
102
}
330
3B
100
AcDbScale
 70
     0
300
8:1
140
8.0
141
1.0
290
     0
  0
SCALE
  5
4B
102
{ACAD_REACTORS
330
3B
102
}
330
3B
100
AcDbScale
 70
     0
300
10:1
140
10.0
141
1.0
290
     0
  0
SCALE
  5
4C
102
{ACAD_REACTORS
330
3B
102
}
330
3B
100
AcDbScale
 70
     0
300
100:1
140
100.0
141
1.0
290
     0
  0
SCALE
  5
4D
102
{ACAD_REACTORS
330
3B
102
}
330
3B
100
AcDbScale
 70
     0
300
1/128" = 1'-0"
140
0.0078125
141
12.0
290
     0
  0
SCALE
  5
4E
102
{ACAD_REACTORS
330
3B
102
}
330
3B
100
AcDbScale
 70
     0
300
1/64" = 1'-0"
140
0.015625
141
12.0
290
     0
  0
SCALE
  5
4F
102
{ACAD_REACTORS
330
3B
102
}
330
3B
100
AcDbScale
 70
     0
300
1/32" = 1'-0"
140
0.03125
141
12.0
290
     0
  0
SCALE
  5
50
102
{ACAD_REACTORS
330
3B
102
}
330
3B
100
AcDbScale
 70
     0
300
1/16" = 1'-0"
140
0.0625
141
12.0
290
     0
  0
SCALE
  5
51
102
{ACAD_REACTORS
330
3B
102
}
330
3B
100
AcDbScale
 70
     0
300
3/32" = 1'-0"
140
0.09375
141
12.0
290
     0
  0
SCALE
  5
52
102
{ACAD_REACTORS
330
3B
102
}
330
3B
100
AcDbScale
 70
     0
300
1/8" = 1'-0"
140
0.125
141
12.0
290
     0
  0
SCALE
  5
53
102
{ACAD_REACTORS
330
3B
102
}
330
3B
100
AcDbScale
 70
     0
300
3/16" = 1'-0"
140
0.1875
141
12.0
290
     0
  0
SCALE
  5
54
102
{ACAD_REACTORS
330
3B
102
}
330
3B
100
AcDbScale
 70
     0
300
1/4" = 1'-0"
140
0.25
141
12.0
290
     0
  0
SCALE
  5
55
102
{ACAD_REACTORS
330
3B
102
}
330
3B
100
AcDbScale
 70
     0
300
3/8" = 1'-0"
140
0.375
141
12.0
290
     0
  0
SCALE
  5
56
102
{ACAD_REACTORS
330
3B
102
}
330
3B
100
AcDbScale
 70
     0
300
1/2" = 1'-0"
140
0.5
141
12.0
290
     0
  0
SCALE
  5
57
102
{ACAD_REACTORS
330
3B
102
}
330
3B
100
AcDbScale
 70
     0
300
3/4" = 1'-0"
140
0.75
141
12.0
290
     0
  0
SCALE
  5
58
102
{ACAD_REACTORS
330
3B
102
}
330
3B
100
AcDbScale
 70
     0
300
1" = 1'-0"
140
1.0
141
12.0
290
     0
  0
SCALE
  5
59
102
{ACAD_REACTORS
330
3B
102
}
330
3B
100
AcDbScale
 70
     0
300
1-1/2" = 1'-0"
140
1.5
141
12.0
290
     0
  0
SCALE
  5
5A
102
{ACAD_REACTORS
330
3B
102
}
330
3B
100
AcDbScale
 70
     0
300
3" = 1'-0"
140
3.0
141
12.0
290
     0
  0
SCALE
  5
5B
102
{ACAD_REACTORS
330
3B
102
}
330
3B
100
AcDbScale
 70
     0
300
6" = 1'-0"
140
6.0
141
12.0
290
     0
  0
SCALE
  5
5C
102
{ACAD_REACTORS
330
3B
102
}
330
3B
100
AcDbScale
 70
     0
300
1'-0" = 1'-0"
140
12.0
141
12.0
290
     0
  0
VISUALSTYLE
  5
2F
102
{ACAD_REACTORS
330
2A
102
}
330
2A
100
AcDbVisualStyle
  2
2dWireframe
 70
     4
 71
     0
 72
     2
 73
     0
 90
        0
 40
-0.6
 41
-30.0
 62
     5
 63
     7
 74
     1
 91
        4
 64
     7
 65
   257
 75
     1
175
     1
 42
1.0
 92
        0
 66
   257
 43
1.0
 76
     1
 77
     6
 78
     2
 67
     7
 79
     5
170
     0
171
     0
290
     0
174
     0
 93
        1
 44
0.0
173
     0
291
     0
 45
0.0
1001
ACAD
1000
AcDbSavedByObjectVersion
1070
     0
  0
VISUALSTYLE
  5
31
102
{ACAD_REACTORS
330
2A
102
}
330
2A
100
AcDbVisualStyle
  2
3D Hidden
 70
     6
 71
     1
 72
     2
 73
     2
 90
        0
 40
-0.6
 41
-30.0
 62
     5
 63
     7
 74
     2
 91
        2
 64
     7
 65
   257
 75
     2
175
     1
 42
40.0
 92
        0
 66
   257
 43
1.0
 76
     1
 77
     6
 78
     2
 67
     7
 79
     3
170
     0
171
     0
290
     0
174
     0
 93
        1
 44
0.0
173
     0
291
     0
 45
0.0
1001
ACAD
1000
AcDbSavedByObjectVersion
1070
     0
  0
VISUALSTYLE
  5
30
102
{ACAD_REACTORS
330
2A
102
}
330
2A
100
AcDbVisualStyle
  2
3dWireframe
 70
     5
 71
     0
 72
     2
 73
     0
 90
        0
 40
-0.6
 41
-30.0
 62
     5
 63
     7
 74
     1
 91
        4
 64
     7
 65
   257
 75
     1
175
     1
 42
1.0
 92
        0
 66
   257
 43
1.0
 76
     1
 77
     6
 78
     2
 67
     7
 79
     5
170
     0
171
     0
290
     0
174
     0
 93
        1
 44
0.0
173
     0
291
     0
 45
0.0
1001
ACAD
1000
AcDbSavedByObjectVersion
1070
     0
  0
VISUALSTYLE
  5
32
102
{ACAD_REACTORS
330
2A
102
}
330
2A
100
AcDbVisualStyle
  2
Basic
 70
     7
 71
     1
 72
     0
 73
     1
 90
        0
 40
-0.6
 41
-30.0
 62
     5
 63
     7
 74
     0
 91
        4
 64
     7
 65
   257
 75
     1
175
     1
 42
1.0
 92
        8
 66
     7
 43
1.0
 76
     1
 77
     6
 78
     2
 67
     7
 79
     5
170
     0
171
     0
290
     0
174
     0
 93
        1
 44
0.0
173
     0
291
     1
 45
0.0
1001
ACAD
1000
AcDbSavedByObjectVersion
1070
     0
  0
VISUALSTYLE
  5
36
102
{ACAD_REACTORS
330
2A
102
}
330
2A
100
AcDbVisualStyle
  2
Brighten
 70
    12
 71
     2
 72
     2
 73
     0
 90
        0
 40
-0.6
 41
-30.0
 62
     5
 63
     7
 74
     1
 91
        4
 64
     7
 65
   257
 75
     1
175
     1
 42
1.0
 92
        8
 66
     7
 43
1.0
 76
     1
 77
     6
 78
     2
 67
     7
 79
     5
170
     0
171
     0
290
     0
174
     0
 93
        1
 44
50.0
173
     0
291
     1
 45
0.0
1001
ACAD
1000
AcDbSavedByObjectVersion
1070
     0
  0
VISUALSTYLE
  5
3A
102
{ACAD_REACTORS
330
2A
102
}
330
2A
100
AcDbVisualStyle
  2
ColorChange
 70
    16
 71
     2
 72
     2
 73
     3
 90
        0
 40
-0.6
 41
-30.0
 62
     5
 63
     8
 74
     1
 91
        4
 64
     7
 65
   257
 75
     1
175
     1
 42
1.0
 92
        8
 66
     8
 43
1.0
 76
     1
 77
     6
 78
     2
 67
     7
 79
     5
170
     0
171
     0
290
     0
174
     0
 93
        1
 44
0.0
173
     0
291
     1
 45
0.0
1001
ACAD
1000
AcDbSavedByObjectVersion
1070
     0
  0
VISUALSTYLE
  5
34
102
{ACAD_REACTORS
330
2A
102
}
330
2A
100
AcDbVisualStyle
  2
Conceptual
 70
     9
 71
     3
 72
     2
 73
     0
 90
        0
 40
-0.6
 41
-30.0
 62
     5
 63
     7
 74
     2
 91
        2
 64
     7
 65
   257
 75
     1
175
     1
 42
40.0
 92
        8
 66
     7
 43
1.0
 76
     1
 77
     6
 78
     2
 67
     7
 79
     3
170
     0
171
     0
290
     0
174
     0
 93
        1
 44
0.0
173
     0
291
     0
 45
0.0
1001
ACAD
1000
AcDbSavedByObjectVersion
1070
     0
  0
VISUALSTYLE
  5
35
102
{ACAD_REACTORS
330
2A
102
}
330
2A
100
AcDbVisualStyle
  2
Dim
 70
    11
 71
     2
 72
     2
 73
     0
 90
        0
 40
-0.6
 41
-30.0
 62
     5
 63
     7
 74
     1
 91
        4
 64
     7
 65
   257
 75
     1
175
     1
 42
1.0
 92
        8
 66
     7
 43
1.0
 76
     1
 77
     6
 78
     2
 67
     7
 79
     5
170
     0
171
     0
290
     0
174
     0
 93
        1
 44
-50.0
173
     0
291
     1
 45
0.0
1001
ACAD
1000
AcDbSavedByObjectVersion
1070
     0
  0
VISUALSTYLE
  5
39
102
{ACAD_REACTORS
330
2A
102
}
330
2A
100
AcDbVisualStyle
  2
Facepattern
 70
    15
 71
     2
 72
     2
 73
     0
 90
        0
 40
-0.6
 41
-30.0
 62
     5
 63
     7
 74
     1
 91
        4
 64
     7
 65
   257
 75
     1
175
     1
 42
1.0
 92
        8
 66
     7
 43
1.0
 76
     1
 77
     6
 78
     2
 67
     7
 79
     5
170
     0
171
     0
290
     0
174
     0
 93
        1
 44
0.0
173
     0
291
     1
 45
0.0
1001
ACAD
1000
AcDbSavedByObjectVersion
1070
     0
  0
VISUALSTYLE
  5
2B
102
{ACAD_REACTORS
330
2A
102
}
330
2A
100
AcDbVisualStyle
  2
Flat
 70
     0
 71
     2
 72
     1
 73
     1
 90
        2
 40
-0.6
 41
30.0
 62
     5
 63
     7
 74
     0
 91
        4
 64
     7
 65
   257
 75
     1
175
     1
 42
1.0
 92
        8
 66
     7
 43
1.0
 76
     1
 77
     6
 78
     2
 67
     7
 79
     5
170
     0
171
     0
290
     0
174
     0
 93
       13
 44
0.0
173
     0
291
     1
 45
0.0
1001
ACAD
1000
AcDbSavedByObjectVersion
1070
     0
  0
VISUALSTYLE
  5
2C
102
{ACAD_REACTORS
330
2A
102
}
330
2A
100
AcDbVisualStyle
  2
FlatWithEdges
 70
     1
 71
     2
 72
     1
 73
     1
 90
        2
 40
-0.6
 41
30.0
 62
     5
 63
     7
 74
     1
 91
        4
 64
     7
 65
   257
 75
     1
175
     1
 42
1.0
 92
        0
 66
   257
 43
1.0
 76
     1
 77
     6
 78
     2
 67
     7
 79
     5
170
     0
171
     0
290
     0
174
     0
 93
       13
 44
0.0
173
     0
291
     1
 45
0.0
1001
ACAD
1000
AcDbSavedByObjectVersion
1070
     0
  0
VISUALSTYLE
  5
2D
102
{ACAD_REACTORS
330
2A
102
}
330
2A
100
AcDbVisualStyle
  2
Gouraud
 70
     2
 71
     2
 72
     2
 73
     1
 90
        2
 40
-0.6
 41
30.0
 62
     5
 63
     7
 74
     0
 91
        4
 64
     7
 65
   257
 75
     1
175
     1
 42
1.0
 92
        0
 66
     7
 43
1.0
 76
     1
 77
     6
 78
     2
 67
     7
 79
     5
170
     0
171
     0
290
     0
174
     0
 93
       13
 44
0.0
173
     0
291
     1
 45
0.0
1001
ACAD
1000
AcDbSavedByObjectVersion
1070
     0
  0
VISUALSTYLE
  5
2E
102
{ACAD_REACTORS
330
2A
102
}
330
2A
100
AcDbVisualStyle
  2
GouraudWithEdges
 70
     3
 71
     2
 72
     2
 73
     1
 90
        2
 40
-0.6
 41
30.0
 62
     5
 63
     7
 74
     1
 91
        4
 64
     7
 65
   257
 75
     1
175
     1
 42
1.0
 92
        0
 66
   257
 43
1.0
 76
     1
 77
     6
 78
     2
 67
     7
 79
     5
170
     0
171
     0
290
     0
174
     0
 93
       13
 44
0.0
173
     0
291
     1
 45
0.0
1001
ACAD
1000
AcDbSavedByObjectVersion
1070
     0
  0
VISUALSTYLE
  5
38
102
{ACAD_REACTORS
330
2A
102
}
330
2A
100
AcDbVisualStyle
  2
Linepattern
 70
    14
 71
     2
 72
     2
 73
     0
 90
        0
 40
-0.6
 41
-30.0
 62
     5
 63
     7
 74
     1
 91
        4
 64
     7
 65
   257
 75
     7
175
     7
 42
1.0
 92
        8
 66
     7
 43
1.0
 76
     1
 77
     6
 78
     2
 67
     7
 79
     5
170
     0
171
     0
290
     0
174
     0
 93
        1
 44
0.0
173
     0
291
     1
 45
0.0
1001
ACAD
1000
AcDbSavedByObjectVersion
1070
     0
  0
VISUALSTYLE
  5
33
102
{ACAD_REACTORS
330
2A
102
}
330
2A
100
AcDbVisualStyle
  2
Realistic
 70
     8
 71
     2
 72
     2
 73
     0
 90
        0
 40
-0.6
 41
-30.0
 62
     5
 63
     7
 74
     1
 91
        0
 64
     7
 65
   257
 75
     1
175
     1
 42
1.0
 92
        8
 66
     8
 43
1.0
 76
     1
 77
     6
 78
     2
 67
     7
 79
     5
170
     0
171
     0
290
     0
174
     0
 93
       13
 44
0.0
173
     0
291
     0
 45
0.0
1001
ACAD
1000
AcDbSavedByObjectVersion
1070
     0
  0
VISUALSTYLE
  5
37
102
{ACAD_REACTORS
330
2A
102
}
330
2A
100
AcDbVisualStyle
  2
Thicken
 70
    13
 71
     2
 72
     2
 73
     0
 90
        0
 40
-0.6
 41
-30.0
 62
     5
 63
     7
 74
     1
 91
        4
 64
     7
 65
   257
 75
     1
175
     1
 42
1.0
 92
       12
 66
     7
 43
1.0
 76
     1
 77
     6
 78
     2
 67
     7
 79
     5
170
     0
171
     0
290
     0
174
     0
 93
        1
 44
0.0
173
     0
291
     1
 45
0.0
1001
ACAD
1000
AcDbSavedByObjectVersion
1070
     0
  0
DICTIONARYVAR
  5
1D4
102
{ACAD_REACTORS
330
1D3
102
}
330
1D3
100
DictionaryVariables
280
     0
  1
1:1
  0
DICTIONARYVAR
  5
1D8
102
{ACAD_REACTORS
330
1D3
102
}
330
1D3
100
DictionaryVariables
280
     0
  1
80.000000
  0
DICTIONARYVAR
  5
1D7
102
{ACAD_REACTORS
330
1D3
102
}
330
1D3
100
DictionaryVariables
280
     0
  1
5.000000
  0
ENDSEC
  0
EOF
