  0
SECTION
  2
HEADER
  9
$ACADVER
  1
AC1015
  9
$ACADMAINTVER
 70
     6
  9
$DWGCODEPAGE
  3
ANSI_1252
  9
$INSBASE
 10
0.0
 20
0.0
 30
0.0
  9
$EXTMIN
 10
0.0
 20
0.0
 30
0.0
  9
$EXTMAX
 10
1682.0
 20
2378.0
 30
0.0
  9
$LIMMIN
 10
0.0
 20
0.0
  9
$LIMMAX
 10
1682.0
 20
2378.0
  9
$ORTHOMODE
 70
     0
  9
$REGENMODE
 70
     1
  9
$FILLMODE
 70
     1
  9
$QTEXTMODE
 70
     0
  9
$MIRRTEXT
 70
     1
  9
$LTSCALE
 40
1.0
  9
$ATTMODE
 70
     1
  9
$TEXTSIZE
 40
2.5
  9
$TRACEWID
 40
1.0
  9
$TEXTSTYLE
  7
Standard
  9
$CLAYER
  8
0
  9
$CELTYPE
  6
ByLayer
  9
$CECOLOR
 62
   256
  9
$CELTSCALE
 40
1.0
  9
$DISPSILH
 70
     0
  9
$DIMSCALE
 40
1.0
  9
$DIMASZ
 40
2.5
  9
$DIMEXO
 40
0.625
  9
$DIMDLI
 40
3.75
  9
$DIMRND
 40
0.0
  9
$DIMDLE
 40
0.0
  9
$DIMEXE
 40
1.25
  9
$DIMTP
 40
0.0
  9
$DIMTM
 40
0.0
  9
$DIMTXT
 40
2.5
  9
$DIMCEN
 40
2.5
  9
$DIMTSZ
 40
0.0
  9
$DIMTOL
 70
     0
  9
$DIMLIM
 70
     0
  9
$DIMTIH
 70
     0
  9
$DIMTOH
 70
     0
  9
$DIMSE1
 70
     0
  9
$DIMSE2
 70
     0
  9
$DIMTAD
 70
     1
  9
$DIMZIN
 70
     8
  9
$DIMBLK
  1

  9
$DIMASO
 70
     1
  9
$DIMSHO
 70
     1
  9
$DIMPOST
  1

  9
$DIMAPOST
  1

  9
$DIMALT
 70
     0
  9
$DIMALTD
 70
     3
  9
$DIMALTF
 40
0.0393700787
  9
$DIMLFAC
 40
1.0
  9
$DIMTOFL
 70
     1
  9
$DIMTVP
 40
0.0
  9
$DIMTIX
 70
     0
  9
$DIMSOXD
 70
     0
  9
$DIMSAH
 70
     0
  9
$DIMBLK1
  1

  9
$DIMBLK2
  1

  9
$DIMSTYLE
  2
ISO-25
  9
$DIMCLRD
 70
     0
  9
$DIMCLRE
 70
     0
  9
$DIMCLRT
 70
     0
  9
$DIMTFAC
 40
1.0
  9
$DIMGAP
 40
0.625
  9
$DIMJUST
 70
     0
  9
$DIMSD1
 70
     0
  9
$DIMSD2
 70
     0
  9
$DIMTOLJ
 70
     0
  9
$DIMTZIN
 70
     8
  9
$DIMALTZ
 70
     0
  9
$DIMALTTZ
 70
     0
  9
$DIMUPT
 70
     0
  9
$DIMDEC
 70
     2
  9
$DIMTDEC
 70
     2
  9
$DIMALTU
 70
     2
  9
$DIMALTTD
 70
     3
  9
$DIMTXSTY
  7
Standard
  9
$DIMAUNIT
 70
     0
  9
$DIMADEC
 70
     0
  9
$DIMALTRND
 40
0.0
  9
$DIMAZIN
 70
     0
  9
$DIMDSEP
 70
    44
  9
$DIMATFIT
 70
     3
  9
$DIMFRAC
 70
     0
  9
$DIMLDRBLK
  1

  9
$DIMLUNIT
 70
     2
  9
$DIMLWD
 70
    -2
  9
$DIMLWE
 70
    -2
  9
$DIMTMOVE
 70
     0
  9
$LUNITS
 70
     2
  9
$LUPREC
 70
     4
  9
$SKETCHINC
 40
1.0
  9
$FILLETRAD
 40
10.0
  9
$AUNITS
 70
     0
  9
$AUPREC
 70
     0
  9
$MENU
  1
.
  9
$ELEVATION
 40
0.0
  9
$PELEVATION
 40
0.0
  9
$THICKNESS
 40
0.0
  9
$LIMCHECK
 70
     0
  9
$CHAMFERA
 40
10.0
  9
$CHAMFERB
 40
10.0
  9
$CHAMFERC
 40
20.0
  9
$CHAMFERD
 40
0.0
  9
$SKPOLY
 70
     0
  9
$TDCREATE
 40
2455315.482010393
  9
$TDUCREATE
 40
2455315.39867706
  9
$TDUPDATE
 40
2455315.482010405
  9
$TDUUPDATE
 40
2455315.398677072
  9
$TDINDWG
 40
0.0000000116
  9
$TDUSRTIMER
 40
0.0000000116
  9
$USRTIMER
 70
     1
  9
$ANGBASE
 50
0.0
  9
$ANGDIR
 70
     0
  9
$PDMODE
 70
     0
  9
$PDSIZE
 40
0.0
  9
$PLINEWID
 40
0.0
  9
$SPLFRAME
 70
     0
  9
$SPLINETYPE
 70
     6
  9
$SPLINESEGS
 70
     8
  9
$HANDSEED
  5
15B
  9
$SURFTAB1
 70
     6
  9
$SURFTAB2
 70
     6
  9
$SURFTYPE
 70
     6
  9
$SURFU
 70
     6
  9
$SURFV
 70
     6
  9
$UCSBASE
  2

  9
$UCSNAME
  2

  9
$UCSORG
 10
0.0
 20
0.0
 30
0.0
  9
$UCSXDIR
 10
1.0
 20
0.0
 30
0.0
  9
$UCSYDIR
 10
0.0
 20
1.0
 30
0.0
  9
$UCSORTHOREF
  2

  9
$UCSORTHOVIEW
 70
     0
  9
$UCSORGTOP
 10
0.0
 20
0.0
 30
0.0
  9
$UCSORGBOTTOM
 10
0.0
 20
0.0
 30
0.0
  9
$UCSORGLEFT
 10
0.0
 20
0.0
 30
0.0
  9
$UCSORGRIGHT
 10
0.0
 20
0.0
 30
0.0
  9
$UCSORGFRONT
 10
0.0
 20
0.0
 30
0.0
  9
$UCSORGBACK
 10
0.0
 20
0.0
 30
0.0
  9
$PUCSBASE
  2

  9
$PUCSNAME
  2

  9
$PUCSORG
 10
0.0
 20
0.0
 30
0.0
  9
$PUCSXDIR
 10
1.0
 20
0.0
 30
0.0
  9
$PUCSYDIR
 10
0.0
 20
1.0
 30
0.0
  9
$PUCSORTHOREF
  2

  9
$PUCSORTHOVIEW
 70
     0
  9
$PUCSORGTOP
 10
0.0
 20
0.0
 30
0.0
  9
$PUCSORGBOTTOM
 10
0.0
 20
0.0
 30
0.0
  9
$PUCSORGLEFT
 10
0.0
 20
0.0
 30
0.0
  9
$PUCSORGRIGHT
 10
0.0
 20
0.0
 30
0.0
  9
$PUCSORGFRONT
 10
0.0
 20
0.0
 30
0.0
  9
$PUCSORGBACK
 10
0.0
 20
0.0
 30
0.0
  9
$USERI1
 70
     0
  9
$USERI2
 70
     0
  9
$USERI3
 70
     0
  9
$USERI4
 70
     0
  9
$USERI5
 70
     0
  9
$USERR1
 40
0.0
  9
$USERR2
 40
0.0
  9
$USERR3
 40
0.0
  9
$USERR4
 40
0.0
  9
$USERR5
 40
0.0
  9
$WORLDVIEW
 70
     1
  9
$SHADEDGE
 70
     3
  9
$SHADEDIF
 70
    70
  9
$TILEMODE
 70
     1
  9
$MAXACTVP
 70
    64
  9
$PINSBASE
 10
0.0
 20
0.0
 30
0.0
  9
$PLIMCHECK
 70
     0
  9
$PEXTMIN
 10
0.0
 20
0.0
 30
0.0
  9
$PEXTMAX
 10
1682.0
 20
2378.0
 30
0.0
  9
$PLIMMIN
 10
0.0
 20
0.0
  9
$PLIMMAX
 10
1682.0
 20
2378.0
  9
$UNITMODE
 70
     0
  9
$VISRETAIN
 70
     1
  9
$PLINEGEN
 70
     0
  9
$PSLTSCALE
 70
     1
  9
$TREEDEPTH
 70
  3020
  9
$CMLSTYLE
  2
Standard
  9
$CMLJUST
 70
     0
  9
$CMLSCALE
 40
20.0
  9
$PROXYGRAPHICS
 70
     1
  9
$MEASUREMENT
 70
     1
  9
$CELWEIGHT
370
    -1
  9
$ENDCAPS
280
     0
  9
$JOINSTYLE
280
     0
  9
$LWDISPLAY
290
     0
  9
$INSUNITS
 70
     4
  9
$HYPERLINKBASE
  1

  9
$STYLESHEET
  1

  9
$XEDIT
290
     1
  9
$CEPSNTYPE
380
     0
  9
$PSTYLEMODE
290
     1
  9
$FINGERPRINTGUID
  2
{6E3F4847-1757-43FE-8A02-C964B04292A8}
  9
$VERSIONGUID
  2
{FAEB1C32-E019-11D5-929B-00C0DF256EC4}
  9
$EXTNAMES
290
     1
  9
$PSVPSCALE
 40
0.0
  9
$OLESTARTUP
290
     0
  0
ENDSEC
  0
SECTION
  2
CLASSES
  0
CLASS
  1
ACDBDICTIONARYWDFLT
  2
AcDbDictionaryWithDefault
  3
ObjectDBX Classes
 90
        0
280
     0
281
     0
  0
CLASS
  1
VISUALSTYLE
  2
AcDbVisualStyle
  3
ObjectDBX Classes
 90
     4095
280
     0
281
     0
  0
CLASS
  1
SCALE
  2
AcDbScale
  3
ObjectDBX Classes
 90
     1153
280
     0
281
     0
  0
CLASS
  1
DICTIONARYVAR
  2
AcDbDictionaryVar
  3
ObjectDBX Classes
 90
        0
280
     0
281
     0
  0
CLASS
  1
ACDBPLACEHOLDER
  2
AcDbPlaceHolder
  3
ObjectDBX Classes
 90
        0
280
     0
281
     0
  0
CLASS
  1
LAYOUT
  2
AcDbLayout
  3
ObjectDBX Classes
 90
        0
280
     0
281
     0
  0
ENDSEC
  0
SECTION
  2
TABLES
  0
TABLE
  2
VPORT
  5
8
330
0
100
AcDbSymbolTable
 70
     1
  0
VPORT
  5
29
330
8
100
AcDbSymbolTableRecord
100
AcDbViewportTableRecord
  2
*Active
 70
     0
 10
0.0
 20
0.0
 11
1.0
 21
1.0
 12
344.1869158879
 22
148.5
 13
0.0
 23
0.0
 14
10.0
 24
10.0
 15
10.0
 25
10.0
 16
0.0
 26
0.0
 36
1.0
 17
0.0
 27
0.0
 37
0.0
 40
297.0
 41
1.9729729729
 42
50.0
 43
0.0
 44
0.0
 50
0.0
 51
0.0
 71
     0
 72
   100
 73
     1
 74
     3
 75
     0
 76
     0
 77
     0
 78
     0
281
     0
 65
     1
110
0.0
120
0.0
130
0.0
111
1.0
121
0.0
131
0.0
112
0.0
122
1.0
132
0.0
 79
     0
146
0.0
  0
ENDTAB
  0
TABLE
  2
LTYPE
  5
5
330
0
100
AcDbSymbolTable
 70
     1
  0
LTYPE
  5
14
330
5
100
AcDbSymbolTableRecord
100
AcDbLinetypeTableRecord
  2
ByBlock
 70
     0
  3

 72
    65
 73
     0
 40
0.0
  0
LTYPE
  5
15
330
5
100
AcDbSymbolTableRecord
100
AcDbLinetypeTableRecord
  2
ByLayer
 70
     0
  3

 72
    65
 73
     0
 40
0.0
  0
LTYPE
  5
16
330
5
100
AcDbSymbolTableRecord
100
AcDbLinetypeTableRecord
  2
Continuous
 70
     0
  3
Solid line
 72
    65
 73
     0
 40
0.0
  0
ENDTAB
  0
TABLE
  2
LAYER
  5
2
330
0
100
AcDbSymbolTable
 70
    14
  0
LAYER
  5
10
330
2
100
AcDbSymbolTableRecord
100
AcDbLayerTableRecord
  2
0
 70
     0
 62
     7
  6
Continuous
370
    -3
390
F
  0
LAYER
  5
5D
330
2
100
AcDbSymbolTableRecord
100
AcDbLayerTableRecord
  2
Default
 70
     0
 62
     7
  6
Continuous
370
    -3
390
F
  0
LAYER
  5
60
330
2
100
AcDbSymbolTableRecord
100
AcDbLayerTableRecord
  2
$DDT_AUDIT_GENERATED_(60)
 70
     0
 62
     7
  6
Continuous
370
    -3
390
F
  0
LAYER
  5
74
330
2
100
AcDbSymbolTableRecord
100
AcDbLayerTableRecord
  2
A4225305_AUSL_RO
 70
     0
 62
     7
  6
Continuous
370
    -3
390
F
  0
LAYER
  5
84
330
2
100
AcDbSymbolTableRecord
100
AcDbLayerTableRecord
  2
64997031_ANSCHLU
 70
     0
 62
     7
  6
Continuous
370
    -3
390
F
  0
LAYER
  5
8F
330
2
100
AcDbSymbolTableRecord
100
AcDbLayerTableRecord
  2
$DDT_AUDIT_GENERATED_(8F)
 70
     0
 62
     7
  6
Continuous
370
    -3
390
F
  0
LAYER
  5
92
330
2
100
AcDbSymbolTableRecord
100
AcDbLayerTableRecord
  2
$DDT_AUDIT_GENERATED_(92)
 70
     0
 62
     7
  6
Continuous
370
    -3
390
F
  0
LAYER
  5
94
330
2
100
AcDbSymbolTableRecord
100
AcDbLayerTableRecord
  2
$DDT_AUDIT_GENERATED_(94)
 70
     0
 62
     7
  6
Continuous
370
    -3
390
F
  0
LAYER
  5
9F
330
2
100
AcDbSymbolTableRecord
100
AcDbLayerTableRecord
  2
$DDT_AUDIT_GENERATED_(9F)
 70
     0
 62
     7
  6
Continuous
370
    -3
390
F
  0
LAYER
  5
E3
330
2
100
AcDbSymbolTableRecord
100
AcDbLayerTableRecord
  2
$DDT_AUDIT_GENERATED_(E3)
 70
     0
 62
     7
  6
Continuous
370
    -3
390
F
  0
LAYER
  5
E8
330
2
100
AcDbSymbolTableRecord
100
AcDbLayerTableRecord
  2
$DDT_AUDIT_GENERATED_(E8)
 70
     0
 62
     7
  6
Continuous
370
    -3
390
F
  0
LAYER
  5
EA
330
2
100
AcDbSymbolTableRecord
100
AcDbLayerTableRecord
  2
$DDT_AUDIT_GENERATED_(EA)
 70
     0
 62
     7
  6
Continuous
370
    -3
390
F
  0
LAYER
  5
FA
330
2
100
AcDbSymbolTableRecord
100
AcDbLayerTableRecord
  2
$DDT_AUDIT_GENERATED_(FA)
 70
     0
 62
     7
  6
Continuous
370
    -3
390
F
  0
LAYER
  5
141
330
2
100
AcDbSymbolTableRecord
100
AcDbLayerTableRecord
  2
A4226042_DICHTUN
 70
     0
 62
     7
  6
Continuous
370
    -3
390
F
  0
ENDTAB
  0
TABLE
  2
STYLE
  5
3
330
0
100
AcDbSymbolTable
 70
     2
  0
STYLE
  5
11
330
3
100
AcDbSymbolTableRecord
100
AcDbTextStyleTableRecord
  2
Standard
 70
     0
 40
0.0
 41
1.0
 50
0.0
 71
     0
 42
2.5
  3
txt
  4

  0
STYLE
  5
14A
330
3
100
AcDbSymbolTableRecord
100
AcDbTextStyleTableRecord
  2
SEACAD_seiso_ttf
 70
     0
 40
0.0
 41
1.0
 50
0.0
 71
     0
 42
0.2
  3
seiso.ttf
  4

  0
ENDTAB
  0
TABLE
  2
VIEW
  5
6
330
0
100
AcDbSymbolTable
 70
     0
  0
ENDTAB
  0
TABLE
  2
UCS
  5
7
330
0
100
AcDbSymbolTable
 70
     0
  0
ENDTAB
  0
TABLE
  2
APPID
  5
9
330
0
100
AcDbSymbolTable
 70
     1
  0
APPID
  5
12
330
9
100
AcDbSymbolTableRecord
100
AcDbRegAppTableRecord
  2
ACAD
 70
     0
  0
ENDTAB
  0
TABLE
  2
DIMSTYLE
  5
A
330
0
100
AcDbSymbolTable
 70
     1
100
AcDbDimStyleTable
  0
DIMSTYLE
105
27
330
A
100
AcDbSymbolTableRecord
100
AcDbDimStyleTableRecord
  2
ISO-25
 70
     0
 41
2.5
 42
0.625
 43
3.75
 44
1.25
 73
     0
 74
     0
 77
     1
 78
     8
140
2.5
141
2.5
143
0.0393700787
147
0.625
171
     3
172
     1
271
     2
272
     2
274
     3
278
    44
283
     0
284
     8
340
11
  0
ENDTAB
  0
TABLE
  2
BLOCK_RECORD
  5
1
330
0
100
AcDbSymbolTable
 70
     4
  0
BLOCK_RECORD
  5
1F
330
1
100
AcDbSymbolTableRecord
100
AcDbBlockTableRecord
  2
*Model_Space
340
22
  0
BLOCK_RECORD
  5
1B
330
1
100
AcDbSymbolTableRecord
100
AcDbBlockTableRecord
  2
*Paper_Space
340
1E
  0
BLOCK_RECORD
  5
5E
330
1
100
AcDbSymbolTableRecord
100
AcDbBlockTableRecord
  2
SE
340
0
102
{BLKREFS
331
5F
102
}
  0
BLOCK_RECORD
  5
BC
330
1
100
AcDbSymbolTableRecord
100
AcDbBlockTableRecord
  2
SE1
340
0
102
{BLKREFS
331
BD
102
}
  0
BLOCK_RECORD
  5
109
330
1
100
AcDbSymbolTableRecord
100
AcDbBlockTableRecord
  2
SE2
340
0
102
{BLKREFS
331
10A
102
}
  0
ENDTAB
  0
ENDSEC
  0
SECTION
  2
BLOCKS
  0
BLOCK
  5
20
330
1F
100
AcDbEntity
  8
0
100
AcDbBlockBegin
  2
*Model_Space
 70
     0
 10
0.0
 20
0.0
 30
0.0
  3
*Model_Space
  1

  0
ENDBLK
  5
21
330
1F
100
AcDbEntity
  8
0
100
AcDbBlockEnd
  0
BLOCK
  5
1C
330
1B
100
AcDbEntity
 67
     1
  8
0
100
AcDbBlockBegin
  2
*Paper_Space
 70
     0
 10
0.0
 20
0.0
 30
0.0
  3
*Paper_Space
  1

  0
ENDBLK
  5
1D
330
1B
100
AcDbEntity
 67
     1
  8
0
100
AcDbBlockEnd
  0
BLOCK
  5
BA
330
5E
100
AcDbEntity
  8
0
100
AcDbBlockBegin
  2
SE
 70
     0
 10
0.0
 20
0.0
 30
0.0
  3
SE
  1

  0
LINE
  5
61
330
5E
100
AcDbEntity
  8
$DDT_AUDIT_GENERATED_(60)
  6
Continuous
 62
     7
100
AcDbLine
 10
6.8544040684
 20
389.4492817069
 30
0.0
 11
54.8544040684
 21
389.4492817069
 31
0.0
  0
SPLINE
  5
62
330
5E
100
AcDbEntity
  8
$DDT_AUDIT_GENERATED_(60)
  6
Continuous
 62
     7
100
AcDbSpline
210
0.0
220
0.0
230
1.0
 70
     8
 71
     3
 72
    10
 73
     6
 74
     0
 42
0.0000000031436306
 43
0.0000000001
 40
0.057373014452431
 40
0.057373014452431
 40
0.057373014452431
 40
0.057373014452431
 40
0.0750277563521395
 40
0.100039676336688
 40
0.1118020970909797
 40
0.1118020970909797
 40
0.1118020970909797
 40
0.1118020970909797
 10
58.85422867706966
 20
463.1990969196445
 30
0.0
 10
58.85419064022252
 20
463.1990528504091
 30
0.0
 10
58.84498871474248
 20
463.188197217659
 30
0.0
 10
58.80332330673035
 20
463.1390610241773
 30
0.0
 10
58.75832000287703
 20
463.0860559768753
 30
0.0
 10
58.74220343008552
 20
463.0670814357174
 30
0.0
  0
SPLINE
  5
63
330
5E
100
AcDbEntity
  8
$DDT_AUDIT_GENERATED_(60)
  6
Continuous
 62
     7
100
AcDbSpline
210
0.0
220
0.0
230
1.0
 70
     8
 71
     3
 72
    22
 73
    18
 74
     0
 42
0.000000000284206
 43
0.0000000001
 40
0.1118020970909797
 40
0.1118020970909797
 40
0.1118020970909797
 40
0.1118020970909797
 40
0.1251231706412375
 40
0.1868776388524193
 40
0.2501495541841205
 40
0.3749365503822507
 40
0.4998307274899996
 40
0.624791357148397
 40
0.7497938511978806
 40
0.8123443567917806
 40
0.8373690301502866
 40
0.8749044820387298
 40
0.9374514237329783
 40
0.9687271192527366
 40
0.9843655782938927
 40
0.9932450233259285
 40
1.0
 40
1.0
 40
1.0
 40
1.0
 10
58.74220343008552
 20
463.0670814357174
 30
0.0
 10
58.72395123047298
 20
463.0455925548461
 30
0.0
 10
58.60863663304061
 20
462.9098782591407
 30
0.0
 10
58.26703162082512
 20
462.5085771489867
 30
0.0
 10
57.29281475005303
 20
461.3695453357894
 30
0.0
 10
55.46038984310623
 20
459.2520783713126
 30
0.0
 10
52.57322833266522
 20
455.9829841184642
 30
0.0
 10
49.21838934949012
 20
452.2536804064741
 30
0.0
 10
46.17634676649658
 20
448.9132966825574
 30
0.0
 10
44.04769707364093
 20
446.5659529282481
 30
0.0
 10
42.78952610889208
 20
445.1626479943819
 30
0.0
 10
41.53214758671659
 20
443.7422426094748
 30
0.0
 10
40.2243478706543
 20
442.2179131186767
 30
0.0
 10
39.19360591997081
 20
440.889475551385
 30
0.0
 10
38.71647937328955
 20
440.1772349152267
 30
0.0
 10
38.4680512980342
 20
439.764604915204
 30
0.0
 10
38.37126857741065
 20
439.5443838604016
 30
0.0
 10
38.32945283055702
 20
439.4492355961235
 30
0.0
  0
ARC
  5
64
330
5E
100
AcDbEntity
  8
$DDT_AUDIT_GENERATED_(60)
  6
Continuous
 62
     7
100
AcDbCircle
 10
205.8295670082
 20
563.4596322652
 30
0.0
 40
208.4102073495628
100
AcDbArc
 50
216.5147695518
 51
225.1514100524
  0
ARC
  5
65
330
5E
100
AcDbEntity
  8
$DDT_AUDIT_GENERATED_(60)
  6
Continuous
 62
     7
100
AcDbCircle
 10
205.8295670082
 20
563.4596322652
 30
0.0
 40
208.4102073495628
100
AcDbArc
 50
225.1514100524
 51
225.152641411
  0
SPLINE
  5
66
330
5E
100
AcDbEntity
  8
$DDT_AUDIT_GENERATED_(60)
  6
Continuous
 62
     7
100
AcDbSpline
210
0.0
220
0.0
230
1.0
 70
     8
 71
     3
 72
     8
 73
     4
 74
     0
 42
0.0000000092262474
 43
0.0000000001
 40
0.499614659018688
 40
0.499614659018688
 40
0.499614659018688
 40
0.499614659018688
 40
0.5037101436701235
 40
0.5037101436701235
 40
0.5037101436701235
 40
0.5037101436701235
 10
54.85440406835608
 20
411.6992639548365
 30
0.0
 10
54.85440358589862
 20
411.6992623363628
 30
0.0
 10
54.85328241067023
 20
411.7002304792725
 30
0.0
 10
54.85104653600888
 20
411.7021639731636
 30
0.0
  0
SPLINE
  5
67
330
5E
100
AcDbEntity
  8
$DDT_AUDIT_GENERATED_(60)
  6
Continuous
 62
     7
100
AcDbSpline
210
0.0
220
0.0
230
1.0
 70
     8
 71
     3
 72
     8
 73
     4
 74
     0
 42
0.0000000027366614
 43
0.0000000001
 40
0.8984414883648404
 40
0.8984414883648404
 40
0.8984414883648404
 40
0.8984414883648404
 40
0.9484294314395814
 40
0.9484294314395814
 40
0.9484294314395814
 40
0.9484294314395814
 10
54.71639784574273
 20
467.0796042509199
 30
0.0
 10
54.80697463625055
 20
467.1581472851998
 30
0.0
 10
54.85291240502018
 20
467.1979462513781
 30
0.0
 10
54.85440406835607
 20
467.1992664115948
 30
0.0
  0
LINE
  5
68
330
5E
100
AcDbEntity
  8
$DDT_AUDIT_GENERATED_(60)
  6
Continuous
 62
     7
100
AcDbLine
 10
7.9194735384
 20
489.4492817069
 30
0.0
 11
53.8978500132
 21
489.4492817069
 31
0.0
  0
ARC
  5
69
330
5E
100
AcDbEntity
  8
$DDT_AUDIT_GENERATED_(60)
  6
Continuous
 62
     7
100
AcDbCircle
 10
75.5154102655
 20
453.1992817073
 30
0.0
 40
10.00000000000001
100
AcDbArc
 50
67.4750413155
 51
90.0
  0
ARC
  5
6A
330
5E
100
AcDbEntity
  8
$DDT_AUDIT_GENERATED_(60)
  6
Continuous
 62
     7
100
AcDbCircle
 10
75.5154102655
 20
425.6992817073
 30
0.0
 40
10.0
100
AcDbArc
 50
270.0
 51
292.5407956465
  0
LINE
  5
6B
330
5E
100
AcDbEntity
  8
$DDT_AUDIT_GENERATED_(60)
  6
Continuous
 62
     7
100
AcDbLine
 10
75.5154102655
 20
463.1992817073
 30
0.0
 11
58.8389429218
 21
463.1992817073
 31
0.0
  0
LINE
  5
6C
330
5E
100
AcDbEntity
  8
$DDT_AUDIT_GENERATED_(60)
  6
Continuous
 62
     7
100
AcDbLine
 10
58.8544031349
 20
415.6992817073
 30
0.0
 11
75.5154102655
 21
415.6992817073
 31
0.0
  0
ARC
  5
6D
330
5E
100
AcDbEntity
  8
$DDT_AUDIT_GENERATED_(60)
  6
Continuous
 62
     7
100
AcDbCircle
 10
58.7875140614
 20
467.1377546516
 30
0.0
 40
4.070882537412749
100
AcDbArc
 50
180.8077983429
 51
269.3627276811
  0
ARC
  5
6E
330
5E
100
AcDbEntity
  8
$DDT_AUDIT_GENERATED_(60)
  6
Continuous
 62
     7
100
AcDbCircle
 10
58.853462539
 20
411.7002495136
 30
0.0
 40
4.002401881341429
100
AcDbArc
 50
90.0272195432
 51
179.9726741914
  0
SPLINE
  5
6F
330
5E
100
AcDbEntity
  8
$DDT_AUDIT_GENERATED_(60)
  6
Continuous
 62
     7
100
AcDbSpline
210
0.0
220
0.0
230
1.0
 70
     8
 71
     3
 72
    13
 73
     9
 74
     0
 42
0.0000000061456538
 43
0.0000000001
 40
0.0
 40
0.0
 40
0.0
 40
0.0
 40
0.2457791378541412
 40
0.3727196614050151
 40
0.5016275241722339
 40
0.6301193174962073
 40
0.7560531159067915
 40
1.0
 40
1.0
 40
1.0
 40
1.0
 10
54.88408693372504
 20
488.4494736959832
 30
0.0
 10
54.88272745609953
 20
488.5941099268089
 30
0.0
 10
54.87565933311869
 20
488.7816755651134
 30
0.0
 10
54.76719643014881
 20
489.0346916569107
 30
0.0
 10
54.6411073928005
 20
489.1995233812646
 30
0.0
 10
54.47932797814599
 20
489.3288244896781
 30
0.0
 10
54.22919333743477
 20
489.4406110391857
 30
0.0
 10
54.04228730589124
 20
489.4478751126706
 30
0.0
 10
53.8984084126822
 20
489.4492817069137
 30
0.0
  0
SPLINE
  5
70
330
5E
100
AcDbEntity
  8
$DDT_AUDIT_GENERATED_(60)
  6
Continuous
 62
     7
100
AcDbSpline
210
0.0
220
0.0
230
1.0
 70
     8
 71
     3
 72
    13
 73
     9
 74
     0
 42
0.0000000059567373
 43
0.0000000001
 40
0.0
 40
0.0
 40
0.0
 40
0.0
 40
0.2472478914775891
 40
0.3751384692579095
 40
0.504486266422008
 40
0.6326117814879635
 40
0.7575914960556825
 40
1.0
 40
1.0
 40
1.0
 40
1.0
 10
7.919621447272755
 20
489.4492817069137
 30
0.0
 10
7.769198255214251
 20
489.4479137589786
 30
0.0
 10
7.574366296204234
 20
489.4408281130238
 30
0.0
 10
7.309819869723379
 20
489.3325308166368
 30
0.0
 10
7.136209863814115
 20
489.2060476436827
 30
0.0
 10
6.999096841467295
 20
489.0427460503906
 30
0.0
 10
6.879867517075159
 20
488.7883138473821
 30
0.0
 10
6.872149711261849
 20
488.5969605764161
 30
0.0
 10
6.870667057711506
 20
488.4499630768309
 30
0.0
  0
LINE
  5
71
330
5E
100
AcDbEntity
  8
$DDT_AUDIT_GENERATED_(60)
  6
Continuous
 62
     7
100
AcDbLine
 10
6.8544040684
 20
488.4480562129
 30
0.0
 11
6.8544040684
 21
389.4492817069
 31
0.0
  0
LINE
  5
72
330
5E
100
AcDbEntity
  8
$DDT_AUDIT_GENERATED_(60)
  6
Continuous
 62
     7
100
AcDbLine
 10
54.8544040684
 20
467.1836287429
 30
0.0
 11
54.8544040684
 21
488.4480562129
 31
0.0
  0
LINE
  5
73
330
5E
100
AcDbEntity
  8
$DDT_AUDIT_GENERATED_(60)
  6
Continuous
 62
     7
100
AcDbLine
 10
54.8544040684
 20
389.4492817069
 30
0.0
 11
54.8544040684
 21
411.7001879593
 31
0.0
  0
LINE
  5
75
330
5E
100
AcDbEntity
  8
A4225305_AUSL_RO
  6
Continuous
 62
     7
100
AcDbLine
 10
19.3544040684
 20
507.9492817069
 30
0.0
 11
42.3544040684
 21
507.9492817069
 31
0.0
  0
ELLIPSE
  5
76
330
5E
100
AcDbEntity
  8
A4225305_AUSL_RO
  6
Continuous
 62
     7
100
AcDbEllipse
 10
30.8544040684
 20
612.0488562669
 30
0.0
 11
11.00000000000078
 21
0.0
 31
0.0
210
0.0
220
0.0
230
1.0
 40
0.1736481777
 41
0.0
 42
3.141592653589793
  0
LINE
  5
77
330
5E
100
AcDbEntity
  8
A4225305_AUSL_RO
  6
Continuous
 62
     7
100
AcDbLine
 10
19.3544040684
 20
595.1157991634
 30
0.0
 11
19.3544040684
 21
507.9492817069
 31
0.0
  0
LINE
  5
78
330
5E
100
AcDbEntity
  8
A4225305_AUSL_RO
  6
Continuous
 62
     7
100
AcDbLine
 10
42.3544040684
 20
507.9492817069
 30
0.0
 11
42.3544040684
 21
595.1226887807
 31
0.0
  0
ARC
  5
79
330
5E
100
AcDbEntity
  8
A4225305_AUSL_RO
  6
Continuous
 62
     7
100
AcDbCircle
 10
30.8544040684
 20
678.9492817069
 30
0.0
 40
11.5
100
AcDbArc
 50
0.0
 51
180.0
  0
LINE
  5
7A
330
5E
100
AcDbEntity
  8
A4225305_AUSL_RO
  6
Continuous
 62
     7
100
AcDbLine
 10
19.3544040684
 20
612.9017247988
 30
0.0
 11
19.3544040684
 21
611.4200087362
 31
0.0
  0
LINE
  5
7B
330
5E
100
AcDbEntity
  8
A4225305_AUSL_RO
  6
Continuous
 62
     7
100
AcDbLine
 10
19.3544040684
 20
678.9492817069
 30
0.0
 11
19.3544040684
 21
616.9728950319
 31
0.0
  0
LINE
  5
7C
330
5E
100
AcDbEntity
  8
A4225305_AUSL_RO
  6
Continuous
 62
     7
100
AcDbLine
 10
42.3544040684
 20
616.9728950319
 30
0.0
 11
42.3544040684
 21
678.9492817069
 31
0.0
  0
LINE
  5
7D
330
5E
100
AcDbEntity
  8
A4225305_AUSL_RO
  6
Continuous
 62
     7
100
AcDbLine
 10
42.3544040684
 20
611.4321139132
 30
0.0
 11
42.3544040684
 21
612.9017247988
 31
0.0
  0
LINE
  5
7E
330
5E
100
AcDbEntity
  8
A4225305_AUSL_RO
  6
Continuous
 62
     7
100
AcDbLine
 10
42.3544040684
 20
612.9017247988
 30
0.0
 11
42.3544040684
 21
616.9728950319
 31
0.0
  0
LINE
  5
7F
330
5E
100
AcDbEntity
  8
A4225305_AUSL_RO
  6
Continuous
 62
     7
100
AcDbLine
 10
19.3544040684
 20
616.9728950319
 30
0.0
 11
19.3544040684
 21
612.9017247988
 31
0.0
  0
LINE
  5
80
330
5E
100
AcDbEntity
  8
A4225305_AUSL_RO
  6
Continuous
 62
     7
100
AcDbLine
 10
19.8544040684
 20
612.0488562669
 30
0.0
 11
19.8544040684
 21
611.8699211175
 31
0.0
  0
LINE
  5
81
330
5E
100
AcDbEntity
  8
A4225305_AUSL_RO
  6
Continuous
 62
     7
100
AcDbLine
 10
41.8544040684
 20
611.8663742964
 30
0.0
 11
41.8544040684
 21
612.0488562669
 31
0.0
  0
SPLINE
  5
82
330
5E
100
AcDbEntity
  8
A4225305_AUSL_RO
  6
Continuous
 62
     7
100
AcDbSpline
210
0.0
220
0.0
230
1.0
 70
     8
 71
     3
 72
    12
 73
     8
 74
     0
 42
0.0000000046875981
 43
0.0000000001
 40
0.4402947935605723
 40
0.4402947935605723
 40
0.4402947935605723
 40
0.4402947935605723
 40
0.5124128677032288
 40
0.6628965603411537
 40
0.8010789173485467
 40
0.9335424533401535
 40
1.0
 40
1.0
 40
1.0
 40
1.0
 10
41.87361268971798
 20
611.8506051637853
 30
0.0
 10
41.90586578329307
 20
611.8812521926094
 30
0.0
 10
42.00340884868513
 20
611.9804686739355
 30
0.0
 10
42.15057669208341
 20
612.1707257940418
 30
0.0
 10
42.28184203455048
 20
612.4411246805001
 30
0.0
 10
42.35241539300382
 20
612.6997711455033
 30
0.0
 10
42.34673639140543
 20
612.8439396781616
 30
0.0
 10
42.34414308870203
 20
612.9007751005776
 30
0.0
  0
SPLINE
  5
83
330
5E
100
AcDbEntity
  8
A4225305_AUSL_RO
  6
Continuous
 62
     7
100
AcDbSpline
210
0.0
220
0.0
230
1.0
 70
     8
 71
     3
 72
    12
 73
     8
 74
     0
 42
0.0000000049632769
 43
0.0000000001
 40
0.0
 40
0.0
 40
0.0
 40
0.0
 40
0.0812192869130075
 40
0.2260182611306354
 40
0.3706066244186106
 40
0.5233410065266254
 40
0.591048853906973
 40
0.591048853906973
 40
0.591048853906973
 40
0.591048853906973
 10
19.36461495746177
 20
612.9004058930411
 30
0.0
 10
19.36263056063683
 20
612.8346973054752
 30
0.0
 10
19.35903752759145
 20
612.6800338338813
 30
0.0
 10
19.43678059352019
 20
612.4142735895535
 30
0.0
 10
19.5717388617831
 20
612.1511051948756
 30
0.0
 10
19.71344007405019
 20
611.9720011305242
 30
0.0
 10
19.80476089317833
 20
611.879590816839
 30
0.0
 10
19.83332401182147
 20
611.8523842954404
 30
0.0
  0
LINE
  5
85
330
5E
100
AcDbEntity
  8
64997031_ANSCHLU
  6
Continuous
 62
     7
100
AcDbLine
 10
45.8544040684
 20
489.9492817069
 30
0.0
 11
15.8544040684
 21
489.9492817069
 31
0.0
  0
LINE
  5
86
330
5E
100
AcDbEntity
  8
64997031_ANSCHLU
  6
Continuous
 62
     7
100
AcDbLine
 10
16.8544040684
 20
506.9492817069
 30
0.0
 11
44.8544040684
 21
506.9492817069
 31
0.0
  0
LINE
  5
87
330
5E
100
AcDbEntity
  8
64997031_ANSCHLU
  6
Continuous
 62
     7
100
AcDbLine
 10
45.8544040684
 20
489.9492817069
 30
0.0
 11
45.8544040684
 21
505.9492817069
 31
0.0
  0
LINE
  5
88
330
5E
100
AcDbEntity
  8
64997031_ANSCHLU
  6
Continuous
 62
     7
100
AcDbLine
 10
15.8544040684
 20
505.9492817069
 30
0.0
 11
15.8544040684
 21
489.9492817069
 31
0.0
  0
LINE
  5
89
330
5E
100
AcDbEntity
  8
64997031_ANSCHLU
  6
Continuous
 62
     7
100
AcDbLine
 10
42.3544040684
 20
506.9492817069
 30
0.0
 11
42.3544040684
 21
507.2992817069
 31
0.0
  0
LINE
  5
8A
330
5E
100
AcDbEntity
  8
64997031_ANSCHLU
  6
Continuous
 62
     7
100
AcDbLine
 10
19.3544040684
 20
507.2992817069
 30
0.0
 11
19.3544040684
 21
506.9492817069
 31
0.0
  0
LINE
  5
8B
330
5E
100
AcDbEntity
  8
64997031_ANSCHLU
  6
Continuous
 62
     7
100
AcDbLine
 10
42.3544040684
 20
507.2992817069
 30
0.0
 11
41.7044040684
 21
507.9492817069
 31
0.0
  0
LINE
  5
8C
330
5E
100
AcDbEntity
  8
64997031_ANSCHLU
  6
Continuous
 62
     7
100
AcDbLine
 10
20.0044040684
 20
507.9492817069
 30
0.0
 11
19.3544040684
 21
507.2992817069
 31
0.0
  0
ARC
  5
8D
330
5E
100
AcDbEntity
  8
64997031_ANSCHLU
  6
Continuous
 62
     7
100
AcDbCircle
 10
44.8544040684
 20
505.9492817069
 30
0.0
 40
0.9999999999999991
100
AcDbArc
 50
0.0
 51
90.0
  0
ARC
  5
8E
330
5E
100
AcDbEntity
  8
64997031_ANSCHLU
  6
Continuous
 62
     7
100
AcDbCircle
 10
16.8544040684
 20
505.9492817069
 30
0.0
 40
1.000000000000001
100
AcDbArc
 50
90.0
 51
180.0
  0
LINE
  5
90
330
5E
100
AcDbEntity
  8
$DDT_AUDIT_GENERATED_(8F)
  6
Continuous
 62
     7
100
AcDbLine
 10
45.3544040684
 20
489.4492817069
 30
0.0
 11
45.3544040684
 21
489.9492817069
 31
0.0
  0
LINE
  5
91
330
5E
100
AcDbEntity
  8
$DDT_AUDIT_GENERATED_(8F)
  6
Continuous
 62
     7
100
AcDbLine
 10
16.3544040684
 20
489.9492817069
 30
0.0
 11
16.3544040684
 21
489.4492817069
 31
0.0
  0
ELLIPSE
  5
93
330
5E
100
AcDbEntity
  8
$DDT_AUDIT_GENERATED_(92)
  6
Continuous
 62
     7
100
AcDbEllipse
 10
100.4260017344
 20
414.9374750691
 30
0.0
 11
-3.346712555185788
 21
-0.1483747719859298
 31
0.0
210
0.0
220
0.0
230
1.0
 40
0.1734829031
 41
0.79843039218392
 42
1.84276155918276
  0
ELLIPSE
  5
95
330
5E
100
AcDbEntity
  8
$DDT_AUDIT_GENERATED_(94)
  6
Continuous
 62
     7
100
AcDbEllipse
 10
30.8544040684
 20
594.5685186509
 30
0.0
 11
10.07500000000001
 21
0.0
 31
0.0
210
0.0
220
0.0
230
1.0
 40
0.1736481777
 41
0.0
 42
4.049339897400461
  0
ELLIPSE
  5
96
330
5E
100
AcDbEntity
  8
$DDT_AUDIT_GENERATED_(94)
  6
Continuous
 62
     7
100
AcDbEllipse
 10
30.8544040684
 20
594.5685186509
 30
0.0
 11
10.07500000000001
 21
0.0
 31
0.0
210
0.0
220
0.0
230
1.0
 40
0.1736481777
 41
5.37543806336892
 42
6.283185307179586
  0
ELLIPSE
  5
97
330
5E
100
AcDbEntity
  8
$DDT_AUDIT_GENERATED_(94)
  6
Continuous
 62
     7
100
AcDbEllipse
 10
30.8544040684
 20
611.1625292892
 30
0.0
 11
-11.575
 21
0.0
 31
0.0
210
0.0
220
0.0
230
1.0
 40
0.1736481777
 41
6.267404304743013
 42
6.283185307179586
  0
ELLIPSE
  5
98
330
5E
100
AcDbEntity
  8
$DDT_AUDIT_GENERATED_(94)
  6
Continuous
 62
     7
100
AcDbEllipse
 10
30.8544040684
 20
611.3102504521
 30
0.0
 11
11.425
 21
0.0
 31
0.0
210
0.0
220
0.0
230
1.0
 40
0.1736481777
 41
0.3336627646757644
 42
2.815478745535058
  0
LINE
  5
99
330
5E
100
AcDbEntity
  8
$DDT_AUDIT_GENERATED_(94)
  6
Continuous
 62
     7
100
AcDbLine
 10
42.4294040684
 20
595.5533264039
 30
0.0
 11
42.4294040684
 21
611.1625292892
 31
0.0
  0
LINE
  5
9A
330
5E
100
AcDbEntity
  8
$DDT_AUDIT_GENERATED_(94)
  6
Continuous
 62
     7
100
AcDbLine
 10
19.2794040684
 20
611.1625292892
 30
0.0
 11
19.2794040684
 21
595.5533264039
 31
0.0
  0
SPLINE
  5
9B
330
5E
100
AcDbEntity
  8
$DDT_AUDIT_GENERATED_(94)
  6
Continuous
 62
     7
100
AcDbSpline
210
0.0
220
0.0
230
1.0
 70
     8
 71
     3
 72
    28
 73
    24
 74
     0
 42
0.0000000007948896
 43
0.0000000001
 40
0.0
 40
0.0
 40
0.0
 40
0.0
 40
0.0122137739374692
 40
0.0435161354521541
 40
0.0745438965510248
 40
0.107000952187577
 40
0.1430250889324498
 40
0.1855305222161285
 40
0.2380589770868291
 40
0.300093435816313
 40
0.3611777556233389
 40
0.4192969284676735
 40
0.4756342583080441
 40
0.5309283386471895
 40
0.5855739403449988
 40
0.639795251897368
 40
0.6937283925991841
 40
0.7474609102661067
 40
0.8010520571871734
 40
0.8545439199191429
 40
0.9079679100157448
 40
0.9613487799241862
 40
1.0
 40
1.0
 40
1.0
 40
1.0
 10
19.28922941353779
 20
595.5533596693201
 30
0.0
 10
19.28624650629853
 20
595.5076496094766
 30
0.0
 10
19.27790860408137
 20
595.3692067323311
 30
0.0
 10
19.34392407729258
 20
595.1152119807855
 30
0.0
 10
19.46957445980162
 20
594.8447736613253
 30
0.0
 10
19.64471044350261
 20
594.6092019199016
 30
0.0
 10
19.862142050483
 20
594.400165627011
 30
0.0
 10
20.1397792177723
 20
594.2017453250348
 30
0.0
 10
20.5035539794558
 20
594.0055594666592
 30
0.0
 10
20.96400541962675
 20
593.8166057015926
 30
0.0
 10
21.50862451596169
 20
593.642035644014
 30
0.0
 10
22.10477805879254
 20
593.4876724125434
 30
0.0
 10
22.74473287315691
 20
593.3507703663946
 30
0.0
 10
23.42996188444792
 20
593.2283240020445
 30
0.0
 10
24.15973427099904
 20
593.1190458848705
 30
0.0
 10
24.93144789740909
 20
593.0225268797255
 30
0.0
 10
25.74124410020236
 20
592.9387617619931
 30
0.0
 10
26.58468217582347
 20
592.8679163460173
 30
0.0
 10
27.45592617409638
 20
592.8102449394022
 30
0.0
 10
28.3517842601659
 20
592.765912851984
 30
0.0
 10
29.25735817778071
 20
592.7353915523454
 30
0.0
 10
30.11345518256688
 20
592.7194455878034
 30
0.0
 10
30.60869683838989
 20
592.717662086764
 30
0.0
 10
30.85440406835606
 20
592.7169969250903
 30
0.0
  0
SPLINE
  5
9C
330
5E
100
AcDbEntity
  8
$DDT_AUDIT_GENERATED_(94)
  6
Continuous
 62
     7
100
AcDbSpline
210
0.0
220
0.0
230
1.0
 70
     8
 71
     3
 72
    28
 73
    24
 74
     0
 42
0.0000000007947492
 43
0.0000000001
 40
0.0
 40
0.0
 40
0.0
 40
0.0
 40
0.0280508943305024
 40
0.0813853760395914
 40
0.1347446082717177
 40
0.1881356849699397
 40
0.2415798153217445
 40
0.2951024148266881
 40
0.3487357249070546
 40
0.402522731945743
 40
0.4565233868809371
 40
0.5108250102515666
 40
0.5655606139780169
 40
0.6209429127187326
 40
0.6773307754167269
 40
0.7353621573471883
 40
0.7961753753082771
 40
0.847235191530754
 40
0.8869785763077299
 40
0.9214609575795196
 40
0.9530543314571372
 40
0.9832865570256075
 40
1.0
 40
1.0
 40
1.0
 40
1.0
 10
30.85440406835606
 20
592.7169969250903
 30
0.0
 10
31.03276866200908
 20
592.717347392029
 30
0.0
 10
31.47241856048716
 20
592.7185285049085
 30
0.0
 10
32.26899582860307
 20
592.7308954271682
 30
0.0
 10
33.17567403807115
 20
592.7586887349628
 30
0.0
 10
34.0742574821702
 20
592.8002380382675
 30
0.0
 10
34.94857297277188
 20
592.8550970113422
 30
0.0
 10
35.79550697959186
 20
592.9230424688091
 30
0.0
 10
36.60883945252083
 20
593.0037436657112
 30
0.0
 10
37.38368100172078
 20
593.0968888501374
 30
0.0
 10
38.11542702822275
 20
593.2022153741359
 30
0.0
 10
38.80023548616671
 20
593.319614079325
 30
0.0
 10
39.43518863391657
 20
593.4493073901821
 30
0.0
 10
40.01872461202825
 20
593.5922195803792
 30
0.0
 10
40.55133647420858
 20
593.7507493863044
 30
0.0
 10
41.03681966203327
 20
593.9307223400878
 30
0.0
 10
41.44900801240818
 20
594.1290694973849
 30
0.0
 10
41.7782150350027
 20
594.3435875960392
 30
0.0
 10
42.02814973187373
 20
594.5682793202876
 30
0.0
 10
42.2186377594449
 20
594.8107040846654
 30
0.0
 10
42.35256978367826
 20
595.0803508287534
 30
0.0
 10
42.42625278364485
 20
595.3435489429021
 30
0.0
 10
42.42149462231482
 20
595.492867372612
 30
0.0
 10
42.4190657267976
 20
595.5556838266187
 30
0.0
  0
SPLINE
  5
9D
330
5E
100
AcDbEntity
  8
$DDT_AUDIT_GENERATED_(94)
  6
Continuous
 62
     7
100
AcDbSpline
210
0.0
220
0.0
230
1.0
 70
     8
 71
     3
 72
    12
 73
     8
 74
     0
 42
0.0000000095546861
 43
0.0000000001
 40
0.0
 40
0.0
 40
0.0
 40
0.0
 40
0.0615399368149953
 40
0.3340257565112073
 40
0.6097829495954611
 40
0.8398164219997528
 40
1.0
 40
1.0
 40
1.0
 40
1.0
 10
19.96786249480696
 20
611.9300133440237
 30
0.0
 10
19.93875281142052
 20
611.9164395618292
 30
0.0
 10
19.80393749280027
 20
611.8532276550878
 30
0.0
 10
19.60562591556379
 20
611.7178251415806
 30
0.0
 10
19.41733056848932
 20
611.5416651234707
 30
0.0
 10
19.30705926466455
 20
611.3638151570926
 30
0.0
 10
19.29368442862215
 20
611.2581108855214
 30
0.0
 10
19.28798215837579
 20
611.2066246723897
 30
0.0
  0
SPLINE
  5
9E
330
5E
100
AcDbEntity
  8
$DDT_AUDIT_GENERATED_(94)
  6
Continuous
 62
     7
100
AcDbSpline
210
0.0
220
0.0
230
1.0
 70
     8
 71
     3
 72
    12
 73
     8
 74
     0
 42
0.0000000089093978
 43
0.0000000001
 40
0.0
 40
0.0
 40
0.0
 40
0.0
 40
0.0958830203511175
 40
0.3056203621332452
 40
0.5227998603518239
 40
0.7636445086844315
 40
1.0
 40
1.0
 40
1.0
 40
1.0
 10
42.41870561980365
 20
611.1627222812724
 30
0.0
 10
42.42162167631176
 20
611.1959360305923
 30
0.0
 10
42.42867233977195
 20
611.285646429959
 30
0.0
 10
42.35597359123146
 20
611.4466047531685
 30
0.0
 10
42.21808078160593
 20
611.6198520118487
 30
0.0
 10
42.00637576106614
 20
611.7896752431188
 30
0.0
 10
41.82437077185777
 20
611.8879463192935
 30
0.0
 10
41.71572484259256
 20
611.9451814508718
 30
0.0
  0
SPLINE
  5
A0
330
5E
100
AcDbEntity
  8
$DDT_AUDIT_GENERATED_(9F)
  6
Continuous
 62
     7
100
AcDbSpline
210
0.0
220
0.0
230
1.0
 70
     8
 71
     3
 72
    20
 73
    16
 74
     0
 42
0.0000000003452872
 43
0.0000000001
 40
0.0
 40
0.0
 40
0.0
 40
0.0
 40
0.0263744553350328
 40
0.0888526789423272
 40
0.136676266692709
 40
0.2085202125606527
 40
0.3487372696314004
 40
0.4995786530154426
 40
0.5602420395594198
 40
0.6204544837622646
 40
0.7364546224906955
 40
0.8164186348221071
 40
0.8888750068358704
 40
0.9444375975883994
 40
1.0
 40
1.0
 40
1.0
 40
1.0
 10
109.2165422645585
 20
435.0768551426403
 30
0.0
 10
109.2165127312787
 20
435.4172571816771
 30
0.0
 10
109.2164126753822
 20
436.5640347232385
 30
0.0
 10
109.2161160047609
 20
438.3493130193085
 30
0.0
 10
109.2160764269184
 20
440.7327692686644
 30
0.0
 10
109.216713329688
 20
444.1220496967138
 30
0.0
 10
109.2156753500064
 20
448.7431270259698
 30
0.0
 10
109.216772486651
 20
452.838647748672
 30
0.0
 10
109.216328490031
 20
455.6524269528687
 30
0.0
 10
109.2158108725306
 20
457.9158601886195
 30
0.0
 10
109.2167825311365
 20
460.0335540798005
 30
0.0
 10
109.2162671256137
 20
461.7993198917091
 30
0.0
 10
109.2159779806763
 20
462.8717424904008
 30
0.0
 10
109.2162437783205
 20
463.6053073602939
 30
0.0
 10
109.2164428803693
 20
463.8939382231807
 30
0.0
 10
109.216542431324
 20
464.0382534100455
 30
0.0
  0
LINE
  5
A1
330
5E
100
AcDbEntity
  8
$DDT_AUDIT_GENERATED_(9F)
  6
Continuous
 62
     7
100
AcDbLine
 10
109.2165424312
 20
414.4180747726
 30
0.0
 11
109.2165422646
 21
435.0768551426
 31
0.0
  0
ARC
  5
A2
330
5E
100
AcDbEntity
  8
$DDT_AUDIT_GENERATED_(9F)
  6
Continuous
 62
     7
100
AcDbCircle
 10
94.5361481232
 20
1970.471035264
 30
0.0
 40
1506.408755990382
100
AcDbArc
 50
269.6763036602
 51
270.3236963397
  0
ARC
  5
A3
330
5E
100
AcDbEntity
  8
$DDT_AUDIT_GENERATED_(9F)
  6
Continuous
 62
     7
100
AcDbCircle
 10
-12872.2777238891
 20
439.3574773107
 30
0.0
 40
12981.99492741509
100
AcDbArc
 50
359.8914875774
 51
359.8919961273
  0
ARC
  5
A4
330
5E
100
AcDbEntity
  8
$DDT_AUDIT_GENERATED_(9F)
  6
Continuous
 62
     7
100
AcDbCircle
 10
15776.3266743065
 20
439.7581161046
 30
0.0
 40
15666.65160949785
100
AcDbArc
 50
179.9111045055
 51
179.912473931
  0
LINE
  5
A5
330
5E
100
AcDbEntity
  8
$DDT_AUDIT_GENERATED_(9F)
  6
Continuous
 62
     7
100
AcDbLine
 10
79.3327317676
 20
435.1289430727
 30
0.0
 11
79.3327317676
 21
432.5983252757
 31
0.0
  0
LINE
  5
A6
330
5E
100
AcDbEntity
  8
$DDT_AUDIT_GENERATED_(9F)
  6
Continuous
 62
     7
100
AcDbLine
 10
79.3327317741
 20
414.7209231553
 30
0.0
 11
79.3327317718
 21
432.5981686149
 31
0.0
  0
LINE
  5
A7
330
5E
100
AcDbEntity
  8
$DDT_AUDIT_GENERATED_(9F)
  6
Continuous
 62
     7
100
AcDbLine
 10
79.3327317715
 20
435.1289432192
 30
0.0
 11
79.3327317677
 21
464.1158554134
 31
0.0
  0
LINE
  5
A8
330
5E
100
AcDbEntity
  8
$DDT_AUDIT_GENERATED_(9F)
  6
Continuous
 62
     7
100
AcDbLine
 10
85.5361481232
 20
464.2471535893
 30
0.0
 11
85.5361481232
 21
515.0032775862
 31
0.0
  0
LINE
  5
A9
330
5E
100
AcDbEntity
  8
$DDT_AUDIT_GENERATED_(9F)
  6
Continuous
 62
     7
100
AcDbLine
 10
85.5361481232
 20
515.0032778656
 30
0.0
 11
85.5361481232
 21
515.4932088652
 31
0.0
  0
LINE
  5
AA
330
5E
100
AcDbEntity
  8
$DDT_AUDIT_GENERATED_(9F)
  6
Continuous
 62
     7
100
AcDbLine
 10
103.5361481232
 20
464.2471535893
 30
0.0
 11
103.5361481232
 21
515.0032775856
 31
0.0
  0
LINE
  5
AB
330
5E
100
AcDbEntity
  8
$DDT_AUDIT_GENERATED_(9F)
  6
Continuous
 62
     7
100
AcDbLine
 10
103.5361481232
 20
515.4932088652
 30
0.0
 11
103.5361481232
 21
515.0032778656
 31
0.0
  0
ARC
  5
AC
330
5E
100
AcDbEntity
  8
$DDT_AUDIT_GENERATED_(9F)
  6
Continuous
 62
     7
100
AcDbCircle
 10
94.5361481219
 20
515.3476406034
 30
0.0
 40
9.001177146054335
100
AcDbArc
 50
0.9266327645
 51
179.0733662441
  0
LINE
  5
AD
330
5E
100
AcDbEntity
  8
$DDT_AUDIT_GENERATED_(9F)
  6
Continuous
 62
     7
100
AcDbLine
 10
79.6327317676
 20
414.4180747726
 30
0.0
 11
109.2165424312
 21
414.4180747726
 31
0.0
  0
LINE
  5
AE
330
5E
100
AcDbEntity
  8
$DDT_AUDIT_GENERATED_(9F)
  6
Continuous
 62
     7
100
AcDbLine
 10
109.2165424312
 20
464.4180443968
 30
0.0
 11
103.6287696172
 21
464.4180443968
 31
0.0
  0
LINE
  5
AF
330
5E
100
AcDbEntity
  8
$DDT_AUDIT_GENERATED_(9F)
  6
Continuous
 62
     7
100
AcDbLine
 10
85.4433208602
 20
464.4180443968
 30
0.0
 11
79.6327317676
 21
464.4180443968
 31
0.0
  0
SPLINE
  5
B0
330
5E
100
AcDbEntity
  8
$DDT_AUDIT_GENERATED_(9F)
  6
Continuous
 62
     7
100
AcDbSpline
210
0.0
220
0.0
230
1.0
 70
     8
 71
     3
 72
    11
 73
     7
 74
     0
 42
0.0000000130861666
 43
0.0000000001
 40
0.6092885202344279
 40
0.6092885202344279
 40
0.6092885202344279
 40
0.6092885202344279
 40
0.6671568853672408
 40
0.777521185689986
 40
0.888110291422967
 40
1.0
 40
1.0
 40
1.0
 40
1.0
 10
103.6373919249488
 20
464.3688605708003
 30
0.0
 10
103.6402786875765
 20
464.3740521423621
 30
0.0
 10
103.6430396228051
 20
464.3920910763874
 30
0.0
 10
103.6218474306172
 20
464.4396900406958
 30
0.0
 10
103.5756067595934
 20
464.5301958411706
 30
0.0
 10
103.5563698497701
 20
464.6029858839657
 30
0.0
 10
103.5444954400414
 20
464.6467562094491
 30
0.0
  0
SPLINE
  5
B1
330
5E
100
AcDbEntity
  8
$DDT_AUDIT_GENERATED_(9F)
  6
Continuous
 62
     7
100
AcDbSpline
210
0.0
220
0.0
230
1.0
 70
     8
 71
     3
 72
    12
 73
     8
 74
     0
 42
0.0000000131576738
 43
0.0000000001
 40
0.0
 40
0.0
 40
0.0
 40
0.0
 40
0.07835020734517
 40
0.1618236104163162
 40
0.253708775357751
 40
0.3582710358608166
 40
0.3721707221520625
 40
0.3721707221520625
 40
0.3721707221520625
 40
0.3721707221520625
 10
85.52780080647511
 20
464.6467562105785
 30
0.0
 10
85.51947353123568
 20
464.6141020329457
 30
0.0
 10
85.50511718479895
 20
464.557342986649
 30
0.0
 10
85.46843106568636
 20
464.4804955594387
 30
0.0
 10
85.43919521917509
 20
464.422568187417
 30
0.0
 10
85.43577515511413
 20
464.3961797054665
 30
0.0
 10
85.44183340809684
 20
464.385268129254
 30
0.0
 10
85.44265219642786
 20
464.3840389850092
 30
0.0
  0
ARC
  5
B2
330
5E
100
AcDbEntity
  8
$DDT_AUDIT_GENERATED_(9F)
  6
Continuous
 62
     7
100
AcDbCircle
 10
109.2160705277
 20
414.9180736647
 30
0.0
 40
0.5000003504775425
100
AcDbArc
 50
270.0000193363
 51
342.8821390325
  0
ARC
  5
B3
330
5E
100
AcDbEntity
  8
$DDT_AUDIT_GENERATED_(9F)
  6
Continuous
 62
     7
100
AcDbCircle
 10
109.2160705279
 20
463.9180455102
 30
0.0
 40
0.5000003502730891
100
AcDbArc
 50
17.1178610084
 51
89.9999806343
  0
ARC
  5
B4
330
5E
100
AcDbEntity
  8
$DDT_AUDIT_GENERATED_(9F)
  6
Continuous
 62
     7
100
AcDbCircle
 10
79.6338600423
 20
464.1168934436
 30
0.0
 40
0.3011540973442225
100
AcDbArc
 50
90.2146593038
 51
180.7503205059
  0
ARC
  5
B5
330
5E
100
AcDbEntity
  8
$DDT_AUDIT_GENERATED_(9F)
  6
Continuous
 62
     7
100
AcDbCircle
 10
79.6340180545
 20
414.7193855594
 30
0.0
 40
0.3013147043983632
100
AcDbArc
 50
179.2130921585
 51
269.7554084387
  0
ARC
  5
B6
330
5E
100
AcDbEntity
  8
$DDT_AUDIT_GENERATED_(9F)
  6
Continuous
 62
     7
100
AcDbCircle
 10
29.9077316848
 20
439.4951499587
 30
0.0
 40
83.49528232404067
100
AcDbArc
 50
342.8591116348
 51
359.9470993621
  0
ARC
  5
B7
330
5E
100
AcDbEntity
  8
$DDT_AUDIT_GENERATED_(9F)
  6
Continuous
 62
     7
100
AcDbCircle
 10
29.8388961819
 20
439.3305626362
 30
0.0
 40
83.56412804593778
100
AcDbArc
 50
0.0599923305
 51
17.1337966725
  0
ARC
  5
B8
330
5E
100
AcDbEntity
  8
$DDT_AUDIT_GENERATED_(9F)
  6
Continuous
 62
     7
100
AcDbCircle
 10
94.5254873269
 20
515.3442945692
 30
0.0
 40
9.011129725964757
100
AcDbArc
 50
8.6059828194
 51
153.0239106027
  0
LINE
  5
B9
330
5E
100
AcDbEntity
  8
$DDT_AUDIT_GENERATED_(9F)
  6
Continuous
 62
     7
100
AcDbLine
 10
103.5252585081
 20
515.9285343867
 30
0.0
 11
103.4839903197
 21
516.2785461616
 31
0.0
  0
ENDBLK
  5
BB
330
5E
100
AcDbEntity
  8
0
100
AcDbBlockEnd
  0
BLOCK
  5
107
330
BC
100
AcDbEntity
  8
0
100
AcDbBlockBegin
  2
SE1
 70
     0
 10
0.0
 20
0.0
 30
0.0
  3
SE1
  1

  0
LINE
  5
BE
330
BC
100
AcDbEntity
  8
$DDT_AUDIT_GENERATED_(60)
  6
Continuous
 62
     7
100
AcDbLine
 10
245.9492825334
 20
389.4492817069
 30
0.0
 11
197.9492825334
 21
389.4492817069
 31
0.0
  0
LINE
  5
BF
330
BC
100
AcDbEntity
  8
$DDT_AUDIT_GENERATED_(60)
  6
Continuous
 62
     7
100
AcDbLine
 10
245.0069878502
 20
489.4492817069
 30
0.0
 11
198.8711525321
 21
489.4492817069
 31
0.0
  0
ARC
  5
C0
330
BC
100
AcDbEntity
  8
$DDT_AUDIT_GENERATED_(60)
  6
Continuous
 62
     7
100
AcDbCircle
 10
-51.9732644277
 20
424.3184757134
 30
0.0
 40
250.063785498744
100
AcDbArc
 50
358.0742084402
 51
1.9257581759
  0
SPLINE
  5
C1
330
BC
100
AcDbEntity
  8
$DDT_AUDIT_GENERATED_(60)
  6
Continuous
 62
     7
100
AcDbSpline
210
0.0
220
0.0
230
1.0
 70
     8
 71
     3
 72
    11
 73
     7
 74
     0
 42
0.0000000058441308
 43
0.0000000001
 40
0.0
 40
0.0
 40
0.0
 40
0.0
 40
0.2463185606870344
 40
0.4994487738811981
 40
0.7532887479091352
 40
1.0
 40
1.0
 40
1.0
 40
1.0
 10
246.0191267199976
 20
488.4494709709626
 30
0.0
 10
246.0177709898632
 20
488.5966240794818
 30
0.0
 10
246.0060576196202
 20
488.8487789402091
 30
0.0
 10
245.7751166531714
 20
489.2234040112917
 30
0.0
 10
245.3810246467251
 20
489.4378305980559
 30
0.0
 10
245.114301746518
 20
489.4483813136277
 30
0.0
 10
244.958442278757
 20
489.4492817069137
 30
0.0
  0
SPLINE
  5
C2
330
BC
100
AcDbEntity
  8
$DDT_AUDIT_GENERATED_(60)
  6
Continuous
 62
     7
100
AcDbSpline
210
0.0
220
0.0
230
1.0
 70
     8
 71
     3
 72
    11
 73
     7
 74
     0
 42
0.0000000058245019
 43
0.0000000001
 40
0.0
 40
0.0
 40
0.0
 40
0.0
 40
0.2477686839593932
 40
0.5000033766597334
 40
0.7518613086581547
 40
1.0
 40
1.0
 40
1.0
 40
1.0
 10
198.9348050033435
 20
489.4492817069137
 30
0.0
 10
198.7774230017592
 20
489.4487298474061
 30
0.0
 10
198.509530044116
 20
489.4385136514429
 30
0.0
 10
198.110807978681
 20
489.2237922432518
 30
0.0
 10
197.8819402118203
 20
488.8455548259683
 30
0.0
 10
197.870753458409
 20
488.5959411233159
 30
0.0
 10
197.8699712355822
 20
488.4493462398016
 30
0.0
  0
LINE
  5
C3
330
BC
100
AcDbEntity
  8
$DDT_AUDIT_GENERATED_(60)
  6
Continuous
 62
     7
100
AcDbLine
 10
197.9492825334
 20
415.9150634052
 30
0.0
 11
197.9492825334
 21
389.4492817069
 31
0.0
  0
LINE
  5
C4
330
BC
100
AcDbEntity
  8
$DDT_AUDIT_GENERATED_(60)
  6
Continuous
 62
     7
100
AcDbLine
 10
197.9492825334
 20
488.4480562129
 30
0.0
 11
197.9492825334
 21
432.717105877
 31
0.0
  0
LINE
  5
C5
330
BC
100
AcDbEntity
  8
$DDT_AUDIT_GENERATED_(60)
  6
Continuous
 62
     7
100
AcDbLine
 10
245.9492825334
 20
389.4492817069
 30
0.0
 11
245.9492825334
 21
488.4480562129
 31
0.0
  0
LINE
  5
C6
330
BC
100
AcDbEntity
  8
A4225305_AUSL_RO
  6
Continuous
 62
     7
100
AcDbLine
 10
233.4492825334
 20
507.9492817069
 30
0.0
 11
210.4492825334
 21
507.9492817069
 31
0.0
  0
LINE
  5
C7
330
BC
100
AcDbEntity
  8
A4225305_AUSL_RO
  6
Continuous
 62
     7
100
AcDbLine
 10
382.5109901808
 20
613.9589862212
 30
0.0
 11
360.8452196145
 21
610.1387263125
 31
0.0
  0
LINE
  5
C8
330
BC
100
AcDbEntity
  8
A4225305_AUSL_RO
  6
Continuous
 62
     7
100
AcDbLine
 10
210.4492825334
 20
603.9492817069
 30
0.0
 11
210.4492825334
 21
507.9492817069
 31
0.0
  0
LINE
  5
C9
330
BC
100
AcDbEntity
  8
A4225305_AUSL_RO
  6
Continuous
 62
     7
100
AcDbLine
 10
233.4492825334
 20
507.9492817069
 30
0.0
 11
233.4492825334
 21
603.9492817069
 31
0.0
  0
ARC
  5
CA
330
BC
100
AcDbEntity
  8
A4225305_AUSL_RO
  6
Continuous
 62
     7
100
AcDbCircle
 10
296.9492825334
 20
603.9492817069
 30
0.0
 40
63.49999999999999
100
AcDbArc
 50
90.0
 51
180.0
  0
ARC
  5
CB
330
BC
100
AcDbEntity
  8
A4225305_AUSL_RO
  6
Continuous
 62
     7
100
AcDbCircle
 10
296.9492825334
 20
603.9492817069
 30
0.0
 40
63.5
100
AcDbArc
 50
10.0
 51
90.0
  0
ARC
  5
CC
330
BC
100
AcDbEntity
  8
A4225305_AUSL_RO
  6
Continuous
 62
     7
100
AcDbCircle
 10
296.9492825334
 20
603.9492817069
 30
0.0
 40
86.49999999999999
100
AcDbArc
 50
10.0
 51
180.0
  0
LINE
  5
CD
330
BC
100
AcDbEntity
  8
A4225305_AUSL_RO
  6
Continuous
 62
     7
100
AcDbLine
 10
382.8530103241
 20
614.898678842
 30
0.0
 11
382.135153169
 21
618.9698490751
 31
0.0
  0
LINE
  5
CE
330
BC
100
AcDbEntity
  8
A4225305_AUSL_RO
  6
Continuous
 62
     7
100
AcDbLine
 10
359.4845748497
 20
614.9759409888
 30
0.0
 11
360.2024320048
 21
610.9047707557
 31
0.0
  0
LINE
  5
CF
330
BC
100
AcDbEntity
  8
A4225305_AUSL_RO
  6
Continuous
 62
     7
100
AcDbLine
 10
360.8452196145
 20
610.1387263125
 30
0.0
 11
360.9754557478
 21
609.4001204978
 31
0.0
  0
LINE
  5
D0
330
BC
100
AcDbEntity
  8
A4225305_AUSL_RO
  6
Continuous
 62
     7
100
AcDbLine
 10
382.641226314
 20
613.2203804064
 30
0.0
 11
382.5109901808
 21
613.9589862212
 31
0.0
  0
ARC
  5
D1
330
BC
100
AcDbEntity
  8
A4225305_AUSL_RO
  6
Continuous
 62
     7
100
AcDbCircle
 10
381.8682025711
 20
614.7250306643
 30
0.0
 40
0.9999999999991844
100
AcDbArc
 50
310.0000000002
 51
10.0
  0
ARC
  5
D2
330
BC
100
AcDbEntity
  8
A4225305_AUSL_RO
  6
Continuous
 62
     7
100
AcDbCircle
 10
361.1872397578
 20
611.0784189333
 30
0.0
 40
1.000000000000032
100
AcDbArc
 50
190.0
 51
249.9999999998
  0
LINE
  5
D3
330
BC
100
AcDbEntity
  8
A4225305_AUSL_RO
  6
Continuous
 62
     7
100
AcDbLine
 10
361.5796353042
 20
609.5066536548
 30
0.0
 11
361.449399171
 21
610.2452594695
 31
0.0
  0
LINE
  5
D4
330
BC
100
AcDbEntity
  8
A4225305_AUSL_RO
  6
Continuous
 62
     7
100
AcDbLine
 10
382.0370467576
 20
613.1138472495
 30
0.0
 11
381.9068106243
 21
613.8524530642
 31
0.0
  0
LINE
  5
D5
330
BC
100
AcDbEntity
  8
64997031_ANSCHLU
  6
Continuous
 62
     7
100
AcDbLine
 10
206.9492825334
 20
489.9492817069
 30
0.0
 11
236.9492825334
 21
489.9492817069
 31
0.0
  0
LINE
  5
D6
330
BC
100
AcDbEntity
  8
64997031_ANSCHLU
  6
Continuous
 62
     7
100
AcDbLine
 10
219.0492825334
 20
493.5492817069
 30
0.0
 11
206.9492825334
 21
493.5492817069
 31
0.0
  0
LINE
  5
D7
330
BC
100
AcDbEntity
  8
64997031_ANSCHLU
  6
Continuous
 62
     7
100
AcDbLine
 10
219.0492825334
 20
493.5492817069
 30
0.0
 11
219.0492825334
 21
495.0992817069
 31
0.0
  0
LINE
  5
D8
330
BC
100
AcDbEntity
  8
64997031_ANSCHLU
  6
Continuous
 62
     7
100
AcDbLine
 10
219.0492825334
 20
495.0992817069
 30
0.0
 11
206.9492825334
 21
495.0992817069
 31
0.0
  0
LINE
  5
D9
330
BC
100
AcDbEntity
  8
64997031_ANSCHLU
  6
Continuous
 62
     7
100
AcDbLine
 10
235.9492825334
 20
506.9492817069
 30
0.0
 11
207.9492825334
 21
506.9492817069
 31
0.0
  0
LINE
  5
DA
330
BC
100
AcDbEntity
  8
64997031_ANSCHLU
  6
Continuous
 62
     7
100
AcDbLine
 10
236.9492825334
 20
489.9492817069
 30
0.0
 11
236.9492825334
 21
505.9492817069
 31
0.0
  0
LINE
  5
DB
330
BC
100
AcDbEntity
  8
64997031_ANSCHLU
  6
Continuous
 62
     7
100
AcDbLine
 10
206.9492825334
 20
493.5492817069
 30
0.0
 11
206.9492825334
 21
489.9492817069
 31
0.0
  0
LINE
  5
DC
330
BC
100
AcDbEntity
  8
64997031_ANSCHLU
  6
Continuous
 62
     7
100
AcDbLine
 10
206.9492825334
 20
505.9492817069
 30
0.0
 11
206.9492825334
 21
495.0992817069
 31
0.0
  0
LINE
  5
DD
330
BC
100
AcDbEntity
  8
64997031_ANSCHLU
  6
Continuous
 62
     7
100
AcDbLine
 10
233.4492825334
 20
506.9492817069
 30
0.0
 11
233.4492825334
 21
507.2992817069
 31
0.0
  0
LINE
  5
DE
330
BC
100
AcDbEntity
  8
64997031_ANSCHLU
  6
Continuous
 62
     7
100
AcDbLine
 10
210.4492825334
 20
507.2992817069
 30
0.0
 11
210.4492825334
 21
506.9492817069
 31
0.0
  0
LINE
  5
DF
330
BC
100
AcDbEntity
  8
64997031_ANSCHLU
  6
Continuous
 62
     7
100
AcDbLine
 10
233.4492825334
 20
507.2992817069
 30
0.0
 11
232.7992825334
 21
507.9492817069
 31
0.0
  0
LINE
  5
E0
330
BC
100
AcDbEntity
  8
64997031_ANSCHLU
  6
Continuous
 62
     7
100
AcDbLine
 10
211.0992825334
 20
507.9492817069
 30
0.0
 11
210.4492825334
 21
507.2992817069
 31
0.0
  0
ARC
  5
E1
330
BC
100
AcDbEntity
  8
64997031_ANSCHLU
  6
Continuous
 62
     7
100
AcDbCircle
 10
235.9492825334
 20
505.9492817069
 30
0.0
 40
0.9999999999999991
100
AcDbArc
 50
0.0
 51
90.0
  0
ARC
  5
E2
330
BC
100
AcDbEntity
  8
64997031_ANSCHLU
  6
Continuous
 62
     7
100
AcDbCircle
 10
207.9492825334
 20
505.9492817069
 30
0.0
 40
1.000000000000001
100
AcDbArc
 50
90.0
 51
180.0
  0
LINE
  5
E4
330
BC
100
AcDbEntity
  8
$DDT_AUDIT_GENERATED_(E3)
  6
Continuous
 62
     7
100
AcDbLine
 10
219.0492825334
 20
495.0492817069
 30
0.0
 11
207.5492825334
 21
495.0492817069
 31
0.0
  0
LINE
  5
E5
330
BC
100
AcDbEntity
  8
$DDT_AUDIT_GENERATED_(E3)
  6
Continuous
 62
     7
100
AcDbLine
 10
207.5492825334
 20
495.0492817069
 30
0.0
 11
207.5492825334
 21
493.5492817069
 31
0.0
  0
LINE
  5
E6
330
BC
100
AcDbEntity
  8
$DDT_AUDIT_GENERATED_(8F)
  6
Continuous
 62
     7
100
AcDbLine
 10
236.4492825334
 20
489.4492817069
 30
0.0
 11
236.4492825334
 21
489.9492817069
 31
0.0
  0
LINE
  5
E7
330
BC
100
AcDbEntity
  8
$DDT_AUDIT_GENERATED_(8F)
  6
Continuous
 62
     7
100
AcDbLine
 10
207.4492825334
 20
489.9492817069
 30
0.0
 11
207.4492825334
 21
489.4492817069
 31
0.0
  0
LINE
  5
E9
330
BC
100
AcDbEntity
  8
$DDT_AUDIT_GENERATED_(E8)
  6
Continuous
 62
     7
100
AcDbLine
 10
214.5992825334
 20
495.0992817069
 30
0.0
 11
214.5992825334
 21
495.0492817069
 31
0.0
  0
LINE
  5
EB
330
BC
100
AcDbEntity
  8
$DDT_AUDIT_GENERATED_(EA)
  6
Continuous
 62
     7
100
AcDbLine
 10
175.2783595641
 20
444.2008260294
 30
0.0
 11
175.2767570866
 21
448.2008257084
 31
0.0
  0
LINE
  5
EC
330
BC
100
AcDbEntity
  8
$DDT_AUDIT_GENERATED_(EA)
  6
Continuous
 62
     7
100
AcDbLine
 10
188.6471284296
 20
448.2061821386
 30
0.0
 11
175.2767570866
 21
448.2008257084
 31
0.0
  0
LINE
  5
ED
330
BC
100
AcDbEntity
  8
$DDT_AUDIT_GENERATED_(EA)
  6
Continuous
 62
     7
100
AcDbLine
 10
175.2783595641
 20
444.2008260294
 30
0.0
 11
188.6487309071
 21
444.2061824596
 31
0.0
  0
ARC
  5
EE
330
BC
100
AcDbEntity
  8
$DDT_AUDIT_GENERATED_(EA)
  6
Continuous
 62
     7
100
AcDbCircle
 10
188.6491315265
 20
443.2061825398
 30
0.0
 40
0.9999999999999959
100
AcDbArc
 50
18.0229537996
 51
90.0229537996
  0
ARC
  5
EF
330
BC
100
AcDbEntity
  8
$DDT_AUDIT_GENERATED_(EA)
  6
Continuous
 62
     7
100
AcDbCircle
 10
188.6491315265
 20
443.2061825398
 30
0.0
 40
4.999999999999998
100
AcDbArc
 50
18.0229537996
 51
90.0229537996
  0
LINE
  5
F0
330
BC
100
AcDbEntity
  8
$DDT_AUDIT_GENERATED_(EA)
  6
Continuous
 62
     7
100
AcDbLine
 10
198.0065130796
 20
430.6067481645
 30
0.0
 11
193.4037947354
 21
444.753172446
 31
0.0
  0
LINE
  5
F1
330
BC
100
AcDbEntity
  8
$DDT_AUDIT_GENERATED_(EA)
  6
Continuous
 62
     7
100
AcDbLine
 10
189.6000641683
 20
443.5155805211
 30
0.0
 11
198.0068363375
 21
417.6774220568
 31
0.0
  0
LINE
  5
F2
330
BC
100
AcDbEntity
  8
$DDT_AUDIT_GENERATED_(94)
  6
Continuous
 62
     7
100
AcDbLine
 10
364.3460180631
 20
592.7321891721
 30
0.0
 11
385.1747020393
 21
596.4048481297
 31
0.0
  0
LINE
  5
F3
330
BC
100
AcDbEntity
  8
$DDT_AUDIT_GENERATED_(94)
  6
Continuous
 62
     7
100
AcDbLine
 10
383.0597696091
 20
613.294180882
 30
0.0
 11
360.5569124527
 21
609.3263200223
 31
0.0
  0
LINE
  5
F4
330
BC
100
AcDbEntity
  8
$DDT_AUDIT_GENERATED_(94)
  6
Continuous
 62
     7
100
AcDbLine
 10
385.9858616147
 20
597.5633040604
 30
0.0
 11
383.2335379987
 21
613.1725069457
 31
0.0
  0
LINE
  5
F5
330
BC
100
AcDbEntity
  8
$DDT_AUDIT_GENERATED_(94)
  6
Continuous
 62
     7
100
AcDbLine
 10
360.4352385164
 20
609.1525516327
 30
0.0
 11
363.1875621325
 21
593.5433487474
 31
0.0
  0
ARC
  5
F6
330
BC
100
AcDbEntity
  8
$DDT_AUDIT_GENERATED_(94)
  6
Continuous
 62
     7
100
AcDbCircle
 10
385.0010538617
 20
597.3896558827
 30
0.0
 40
1.0
100
AcDbArc
 50
280.0
 51
10.0
  0
ARC
  5
F7
330
BC
100
AcDbEntity
  8
$DDT_AUDIT_GENERATED_(94)
  6
Continuous
 62
     7
100
AcDbCircle
 10
364.1723698855
 20
593.7169969251
 30
0.0
 40
1.000000000000005
100
AcDbArc
 50
190.0
 51
280.0
  0
ARC
  5
F8
330
BC
100
AcDbEntity
  8
$DDT_AUDIT_GENERATED_(94)
  6
Continuous
 62
     7
100
AcDbCircle
 10
383.0858168357
 20
613.146459719
 30
0.0
 40
0.1500000000000085
100
AcDbArc
 50
10.0
 51
100.0
  0
ARC
  5
F9
330
BC
100
AcDbEntity
  8
$DDT_AUDIT_GENERATED_(94)
  6
Continuous
 62
     7
100
AcDbCircle
 10
360.5829596794
 20
609.1785988593
 30
0.0
 40
0.1500000000000037
100
AcDbArc
 50
100.0
 51
190.0
  0
LINE
  5
FB
330
BC
100
AcDbEntity
  8
$DDT_AUDIT_GENERATED_(FA)
  6
Continuous
 62
     7
100
AcDbLine
 10
383.6670418728
 20
595.8851503117
 30
0.0
 11
365.9405023185
 21
592.7594831137
 31
0.0
  0
LINE
  5
FC
330
BC
100
AcDbEntity
  8
$DDT_AUDIT_GENERATED_(FA)
  6
Continuous
 62
     7
100
AcDbLine
 10
365.8970902741
 20
593.0056850519
 30
0.0
 11
365.9405023185
 21
592.7594831137
 31
0.0
  0
LINE
  5
FD
330
BC
100
AcDbEntity
  8
$DDT_AUDIT_GENERATED_(FA)
  6
Continuous
 62
     7
100
AcDbLine
 10
383.6670418728
 20
595.8851503117
 30
0.0
 11
383.6236298284
 21
596.1313522499
 31
0.0
  0
LINE
  5
FE
330
BC
100
AcDbEntity
  8
$DDT_AUDIT_GENERATED_(9F)
  6
Continuous
 62
     7
100
AcDbLine
 10
246.5639706683
 20
435.0768529438
 30
0.0
 11
245.9718816425
 21
432.5154974862
 31
0.0
  0
SPLINE
  5
FF
330
BC
100
AcDbEntity
  8
$DDT_AUDIT_GENERATED_(9F)
  6
Continuous
 62
     7
100
AcDbSpline
210
0.0
220
0.0
230
1.0
 70
     8
 71
     3
 72
    11
 73
     7
 74
     0
 42
0.0000000000645484
 43
0.0000000001
 40
0.4170112163504234
 40
0.4170112163504234
 40
0.4170112163504234
 40
0.4170112163504234
 40
0.4279211951908819
 40
0.4597033510136143
 40
0.4914855068363466
 40
0.5085089309111791
 40
0.5085089309111791
 40
0.5085089309111791
 40
0.5085089309111791
 10
197.9563053022335
 20
432.3755302503886
 30
0.0
 10
197.7980543156242
 20
432.9144571349303
 30
0.0
 10
197.2497912174537
 20
435.0441826661028
 30
0.0
 10
196.7886100769927
 20
438.8691731086937
 30
0.0
 10
197.1066344044255
 20
443.0259767180592
 30
0.0
 10
197.6734907488893
 20
445.4774308126656
 30
0.0
 10
197.9154356448759
 20
446.3197959813364
 30
0.0
  0
SPLINE
  5
100
330
BC
100
AcDbEntity
  8
$DDT_AUDIT_GENERATED_(9F)
  6
Continuous
 62
     7
100
AcDbSpline
210
0.0
220
0.0
230
1.0
 70
     8
 71
     3
 72
    10
 73
     6
 74
     0
 42
0.0000000000645466
 43
0.0000000001
 40
0.9271102918137981
 40
0.9271102918137981
 40
0.9271102918137981
 40
0.9271102918137981
 40
0.9364356883545353
 40
0.9682178441772678
 40
1.0
 40
1.0
 40
1.0
 40
1.0
 10
245.999053658228
 20
446.2254319295026
 30
0.0
 10
246.129808252351
 20
445.7634794462054
 30
0.0
 10
246.6475757508203
 20
443.7105525504099
 30
0.0
 10
247.0989443846113
 20
439.9669460607561
 30
0.0
 10
246.8480997954307
 20
436.6882292968091
 30
0.0
 10
246.5639706722878
 20
435.0768529431516
 30
0.0
  0
LINE
  5
101
330
BC
100
AcDbEntity
  8
$DDT_AUDIT_GENERATED_(9F)
  6
Continuous
 62
     7
100
AcDbLine
 10
235.8822841508
 20
506.9492817069
 30
0.0
 11
237.2843772853
 21
514.9009470101
 31
0.0
  0
LINE
  5
102
330
BC
100
AcDbEntity
  8
$DDT_AUDIT_GENERATED_(9F)
  6
Continuous
 62
     7
100
AcDbLine
 10
238.28355429
 20
523.8636937291
 30
0.0
 11
235.4716669325
 21
524.3595053369
 31
0.0
  0
ARC
  5
103
330
BC
100
AcDbEntity
  8
$DDT_AUDIT_GENERATED_(9F)
  6
Continuous
 62
     7
100
AcDbCircle
 10
238.180059955
 20
523.3742292542
 30
0.0
 40
0.5000000006549985
100
AcDbArc
 50
351.2024798205
 51
80.0000001729
  0
SPLINE
  5
104
330
BC
100
AcDbEntity
  8
$DDT_AUDIT_GENERATED_(9F)
  6
Continuous
 62
     7
100
AcDbSpline
210
0.0
220
0.0
230
1.0
 70
     8
 71
     3
 72
     8
 73
     4
 74
     0
 42
0.0000000011678862
 43
0.0000000001
 40
0.0
 40
0.0
 40
0.0
 40
0.0
 40
1.0
 40
1.0
 40
1.0
 40
1.0
 10
237.2843772852912
 20
514.9009470100633
 30
0.0
 10
237.7355370813516
 20
517.4441768403968
 30
0.0
 10
238.2014080629989
 20
520.2599512117698
 30
0.0
 10
238.6819902302332
 20
523.3482701241825
 30
0.0
  0
ARC
  5
105
330
BC
100
AcDbEntity
  8
$DDT_AUDIT_GENERATED_(9F)
  6
Continuous
 62
     7
100
AcDbCircle
 10
235.4015130875
 20
523.8641620316
 30
0.0
 40
0.5000000031486168
100
AcDbArc
 50
80.0000003349
 51
168.7975476314
  0
SPLINE
  5
106
330
BC
100
AcDbEntity
  8
$DDT_AUDIT_GENERATED_(9F)
  6
Continuous
 62
     7
100
AcDbSpline
210
0.0
220
0.0
230
1.0
 70
     8
 71
     3
 72
     8
 73
     4
 74
     0
 42
0.000000001174841
 43
0.0000000001
 40
0.0
 40
0.0
 40
0.0
 40
0.0
 40
0.9377337263123089
 40
0.9377337263123089
 40
0.9377337263123089
 40
0.9377337263123089
 10
234.9209743456221
 20
524.011438601606
 30
0.0
 10
234.4475766086017
 20
521.6359385383645
 30
0.0
 10
233.9562012909678
 20
519.0212000871456
 30
0.0
 10
233.4468483927203
 20
516.16722324795
 30
0.0
  0
ENDBLK
  5
108
330
BC
100
AcDbEntity
  8
0
100
AcDbBlockEnd
  0
BLOCK
  5
148
330
109
100
AcDbEntity
  8
0
100
AcDbBlockBegin
  2
SE2
 70
     0
 10
0.0
 20
0.0
 30
0.0
  3
SE2
  1

  0
ARC
  5
10B
330
109
100
AcDbEntity
  8
$DDT_AUDIT_GENERATED_(60)
  6
Continuous
 62
     7
100
AcDbCircle
 10
38.3293041025
 20
382.0211718687
 30
0.0
 40
87.87325982207453
100
AcDbArc
 50
266.1688831429
 51
270.0000002019
  0
SPLINE
  5
10C
330
109
100
AcDbEntity
  8
$DDT_AUDIT_GENERATED_(60)
  6
Continuous
 62
     7
100
AcDbSpline
210
0.0
220
0.0
230
1.0
 70
     8
 71
     3
 72
    16
 73
    12
 74
     0
 42
0.0000000000659238
 43
0.0000000001
 40
0.0
 40
0.0
 40
0.0
 40
0.0
 40
0.0625
 40
0.0625
 40
0.1249999999999999
 40
0.1249999999999999
 40
0.1874999999999999
 40
0.1874999999999999
 40
0.2499999999999998
 40
0.2499999999999998
 40
0.2952881751246759
 40
0.2952881751246759
 40
0.2952881751246759
 40
0.2952881751246759
 10
47.79979950390013
 20
287.3936048428789
 30
0.0
 10
50.02453048818828
 20
285.1754577673589
 30
0.0
 10
51.80734284985041
 20
282.5158310464099
 30
0.0
 10
54.22041342060421
 20
276.7144943017519
 30
0.0
 10
54.84972218946928
 20
273.5750668563231
 30
0.0
 10
54.85903324254262
 20
267.2918884481727
 30
0.0
 10
54.2390318632491
 20
264.1506096478502
 30
0.0
 10
51.84316587521644
 20
258.3421465316941
 30
0.0
 10
50.06824393743529
 20
255.6772475980636
 30
0.0
 10
46.24280353058033
 20
251.8404525110278
 30
0.0
 10
44.40370653708966
 20
250.4604225601603
 30
0.0
 10
42.40906547029333
 20
249.363545415015
 30
0.0
  0
SPLINE
  5
10D
330
109
100
AcDbEntity
  8
$DDT_AUDIT_GENERATED_(60)
  6
Continuous
 62
     7
100
AcDbSpline
210
0.0
220
0.0
230
1.0
 70
     8
 71
     3
 72
    24
 73
    20
 74
     0
 42
0.0000000000659099
 43
0.0000000001
 40
0.4551805744027567
 40
0.4551805744027567
 40
0.4551805744027567
 40
0.4551805744027567
 40
0.4999999999999999
 40
0.4999999999999999
 40
0.5624999999999999
 40
0.5624999999999999
 40
0.6249999999999998
 40
0.6249999999999998
 40
0.6874999999999999
 40
0.6874999999999999
 40
0.7499999999999999
 40
0.7499999999999999
 40
0.8125
 40
0.8125
 40
0.875
 40
0.875
 40
0.9374999999999999
 40
0.9374999999999999
 40
1.0
 40
1.0
 40
1.0
 40
1.0
 10
19.30014830005447
 20
249.3633587720002
 30
0.0
 10
17.32612135658471
 20
250.448832367832
 30
0.0
 10
15.50438726999893
 20
251.8115620107203
 30
0.0
 10
11.68427764852389
 20
255.6203663312804
 30
0.0
 10
9.901465286861761
 20
258.2799930522294
 30
0.0
 10
7.48839471610794
 20
264.0813297968874
 30
0.0
 10
6.859085947242861
 20
267.2207572423161
 30
0.0
 10
6.849774894169519
 20
273.5039356504665
 30
0.0
 10
7.469776273463021
 20
276.6452144507891
 30
0.0
 10
9.86564226149566
 20
282.4536775669451
 30
0.0
 10
11.64056419927682
 20
285.1185765005756
 30
0.0
 10
16.07685835031675
 20
289.5680384691518
 30
0.0
 10
18.73648507126576
 20
291.3508508308139
 30
0.0
 10
24.53782181592377
 20
293.7639214015678
 30
0.0
 10
27.67724926135249
 20
294.3932301704328
 30
0.0
 10
33.96042766950294
 20
294.4025412235061
 30
0.0
 10
37.10170646982543
 20
293.7825398442127
 30
0.0
 10
42.91016958598152
 20
291.3866738561801
 30
0.0
 10
45.57506851961197
 20
289.611751918399
 30
0.0
 10
47.79979950390013
 20
287.3936048428789
 30
0.0
  0
ARC
  5
10E
330
109
100
AcDbEntity
  8
$DDT_AUDIT_GENERATED_(60)
  6
Continuous
 62
     7
100
AcDbCircle
 10
75.5154102655
 20
284.1479120493
 30
0.0
 40
10.00000000000001
100
AcDbArc
 50
67.4750413155
 51
90.0
  0
ARC
  5
10F
330
109
100
AcDbEntity
  8
$DDT_AUDIT_GENERATED_(60)
  6
Continuous
 62
     7
100
AcDbCircle
 10
75.5154102655
 20
256.6479120493
 30
0.0
 40
9.999999999957254
100
AcDbArc
 50
270.0
 51
292.5407956465
  0
LINE
  5
110
330
109
100
AcDbEntity
  8
$DDT_AUDIT_GENERATED_(60)
  6
Continuous
 62
     7
100
AcDbLine
 10
75.5154102655
 20
294.1479120494
 30
0.0
 11
38.3193044121
 21
294.1479120494
 31
0.0
  0
LINE
  5
111
330
109
100
AcDbEntity
  8
$DDT_AUDIT_GENERATED_(60)
  6
Continuous
 62
     7
100
AcDbLine
 10
42.3544040684
 20
246.6479120494
 30
0.0
 11
75.5154102655
 21
246.6479120494
 31
0.0
  0
ARC
  5
112
330
109
100
AcDbEntity
  8
$DDT_AUDIT_GENERATED_(60)
  6
Continuous
 62
     7
100
AcDbCircle
 10
37.3173325229
 20
351.7745445419
 30
0.0
 40
57.62944015812168
100
AcDbArc
 50
265.528530712
 51
270.63897057
  0
ARC
  5
113
330
109
100
AcDbEntity
  8
A4225305_AUSL_RO
  6
Continuous
 62
     7
100
AcDbCircle
 10
30.8544040684
 20
270.3979120493
 30
0.0
 40
11.5
100
AcDbArc
 50
0.0
 51
180.0
  0
ELLIPSE
  5
114
330
109
100
AcDbEntity
  8
A4225305_AUSL_RO
  6
Continuous
 62
     7
100
AcDbEllipse
 10
30.8544040684
 20
120.8194734182
 30
0.0
 11
11.50000000000001
 21
2.775557561562891E-14
 31
0.0
210
0.0
220
0.0
230
1.0
 40
0.984807753
 41
3.141592653589793
 42
3.658961527616685
  0
ELLIPSE
  5
115
330
109
100
AcDbEntity
  8
A4225305_AUSL_RO
  6
Continuous
 62
     7
100
AcDbEllipse
 10
30.8544040684
 20
120.8194734182
 30
0.0
 11
11.50000000000001
 21
2.775557561562891E-14
 31
0.0
210
0.0
220
0.0
230
1.0
 40
0.984807753
 41
5.765743967647544
 42
6.283185307179586
  0
LINE
  5
116
330
109
100
AcDbEntity
  8
A4225305_AUSL_RO
  6
Continuous
 62
     7
100
AcDbLine
 10
19.3544040684
 20
270.3979120493
 30
0.0
 11
19.3544040684
 21
121.5373305734
 31
0.0
  0
LINE
  5
117
330
109
100
AcDbEntity
  8
A4225305_AUSL_RO
  6
Continuous
 62
     7
100
AcDbLine
 10
42.3544040684
 20
121.5373305734
 30
0.0
 11
42.3544040684
 21
270.3979120493
 31
0.0
  0
LINE
  5
118
330
109
100
AcDbEntity
  8
A4225305_AUSL_RO
  6
Continuous
 62
     7
100
AcDbLine
 10
42.3544040684
 20
120.8194734182
 30
0.0
 11
42.3544040684
 21
121.5373305734
 31
0.0
  0
LINE
  5
119
330
109
100
AcDbEntity
  8
A4225305_AUSL_RO
  6
Continuous
 62
     7
100
AcDbLine
 10
19.3544040684
 20
121.5373305734
 30
0.0
 11
19.3544040684
 21
120.8194734182
 31
0.0
  0
ARC
  5
11A
330
109
100
AcDbEntity
  8
A4225305_AUSL_RO
  6
Continuous
 62
     7
100
AcDbCircle
 10
30.8244614654
 20
120.9935334858
 30
0.0
 40
11.51458040574014
100
AcDbArc
 50
210.1590742069
 51
270.1489925513
  0
ARC
  5
11B
330
109
100
AcDbEntity
  8
A4225305_AUSL_RO
  6
Continuous
 62
     7
100
AcDbCircle
 10
30.8840471217
 20
120.9957518069
 30
0.0
 40
11.51679794439258
100
AcDbArc
 50
269.852526394
 51
329.823284379
  0
ARC
  5
11C
330
109
100
AcDbEntity
  8
64997031_ANSCHLU
  6
Continuous
 62
     7
100
AcDbCircle
 10
30.8544040684
 20
270.3979120493
 30
0.0
 40
15.0
100
AcDbArc
 50
320.0554948102
 51
360.0
  0
ARC
  5
11D
330
109
100
AcDbEntity
  8
64997031_ANSCHLU
  6
Continuous
 62
     7
100
AcDbCircle
 10
30.8544040684
 20
270.3979120493
 30
0.0
 40
15.0
100
AcDbArc
 50
0.0
 51
219.9445051898
  0
ELLIPSE
  5
11E
330
109
100
AcDbEntity
  8
$DDT_AUDIT_GENERATED_(EA)
  6
Continuous
 62
     7
100
AcDbEllipse
 10
30.8544040684
 20
317.0696362574
 30
0.0
 11
-2.0
 21
0.0
 31
0.0
210
0.0
220
0.0
230
1.0
 40
0.0004006194
 41
3.141592653589793
 42
6.283185307179586
  0
LINE
  5
11F
330
109
100
AcDbEntity
  8
$DDT_AUDIT_GENERATED_(EA)
  6
Continuous
 62
     7
100
AcDbLine
 10
32.8544040684
 20
303.6992649143
 30
0.0
 11
32.8544040684
 21
317.0696362574
 31
0.0
  0
LINE
  5
120
330
109
100
AcDbEntity
  8
$DDT_AUDIT_GENERATED_(EA)
  6
Continuous
 62
     7
100
AcDbLine
 10
28.8544040684
 20
317.0696362574
 30
0.0
 11
28.8544040684
 21
303.6992649143
 31
0.0
  0
LINE
  5
121
330
109
100
AcDbEntity
  8
$DDT_AUDIT_GENERATED_(EA)
  6
Continuous
 62
     7
100
AcDbLine
 10
28.8544040684
 20
303.6992649143
 30
0.0
 11
28.8544040684
 21
300.8452651309
 31
0.0
  0
LINE
  5
122
330
109
100
AcDbEntity
  8
$DDT_AUDIT_GENERATED_(EA)
  6
Continuous
 62
     7
100
AcDbLine
 10
32.8544040684
 20
300.8452651309
 30
0.0
 11
32.8544040684
 21
303.6992649143
 31
0.0
  0
LINE
  5
123
330
109
100
AcDbEntity
  8
$DDT_AUDIT_GENERATED_(EA)
  6
Continuous
 62
     7
100
AcDbLine
 10
32.8544040684
 20
294.2004453097
 30
0.0
 11
32.8544040684
 21
300.8452651309
 31
0.0
  0
LINE
  5
124
330
109
100
AcDbEntity
  8
$DDT_AUDIT_GENERATED_(EA)
  6
Continuous
 62
     7
100
AcDbLine
 10
28.8544040684
 20
300.8452651309
 30
0.0
 11
28.8544040684
 21
294.2014660293
 31
0.0
  0
ELLIPSE
  5
125
330
109
100
AcDbEntity
  8
$DDT_AUDIT_GENERATED_(94)
  6
Continuous
 62
     7
100
AcDbEllipse
 10
30.8544040684
 20
117.7604827091
 30
0.0
 11
11.575
 21
8.326672684688675E-14
 31
0.0
210
0.0
220
0.0
230
1.0
 40
0.984807753
 41
3.141592653589793
 42
3.659054478521236
  0
ELLIPSE
  5
126
330
109
100
AcDbEntity
  8
$DDT_AUDIT_GENERATED_(94)
  6
Continuous
 62
     7
100
AcDbEllipse
 10
30.8544040684
 20
117.7604827091
 30
0.0
 11
11.575
 21
8.326672684688675E-14
 31
0.0
210
0.0
220
0.0
230
1.0
 40
0.984807753
 41
5.821565883300336
 42
6.283185307179586
  0
ELLIPSE
  5
127
330
109
100
AcDbEntity
  8
$DDT_AUDIT_GENERATED_(94)
  6
Continuous
 62
     7
100
AcDbEllipse
 10
30.8544040684
 20
120.5128063252
 30
0.0
 11
11.575
 21
-1.110223024625157E-13
 31
0.0
210
0.0
220
0.0
230
1.0
 40
0.984807753
 41
3.027693654143531
 42
3.141592653589793
  0
ELLIPSE
  5
128
330
109
100
AcDbEntity
  8
$DDT_AUDIT_GENERATED_(94)
  6
Continuous
 62
     7
100
AcDbEllipse
 10
30.8544040684
 20
120.5128063252
 30
0.0
 11
11.575
 21
-1.110223024625157E-13
 31
0.0
210
0.0
220
0.0
230
1.0
 40
0.984807753
 41
0.0
 42
0.1138989994462691
  0
LINE
  5
129
330
109
100
AcDbEntity
  8
$DDT_AUDIT_GENERATED_(94)
  6
Continuous
 62
     7
100
AcDbLine
 10
42.4294040684
 20
117.7604827091
 30
0.0
 11
42.4294040684
 21
120.5128063252
 31
0.0
  0
LINE
  5
12A
330
109
100
AcDbEntity
  8
$DDT_AUDIT_GENERATED_(94)
  6
Continuous
 62
     7
100
AcDbLine
 10
19.2794040684
 20
120.5128063252
 30
0.0
 11
19.2794040684
 21
117.7604827091
 31
0.0
  0
ARC
  5
12B
330
109
100
AcDbEntity
  8
$DDT_AUDIT_GENERATED_(94)
  6
Continuous
 62
     7
100
AcDbCircle
 10
30.8538864077
 20
117.9976839714
 30
0.0
 40
11.64768397138739
100
AcDbArc
 50
210.3540346203
 51
332.7922805973
  0
SPLINE
  5
12C
330
109
100
AcDbEntity
  8
$DDT_AUDIT_GENERATED_(9F)
  6
Continuous
 62
     7
100
AcDbSpline
210
0.0
220
0.0
230
1.0
 70
     8
 71
     3
 72
    18
 73
    14
 74
     0
 42
0.0000000004302232
 43
0.0000000001
 40
0.1112235645918024
 40
0.1112235645918024
 40
0.1112235645918024
 40
0.1112235645918024
 40
0.136676266692709
 40
0.2085202125606527
 40
0.3487372696314004
 40
0.4995786530154426
 40
0.5602420395594198
 40
0.6204544837622646
 40
0.7364546224906955
 40
0.8164186348221071
 40
0.8888750068358704
 40
0.9444375975883994
 40
1.0
 40
1.0
 40
1.0
 40
1.0
 10
109.2161095630888
 20
245.4037996132959
 30
0.0
 10
109.2161038650188
 20
245.4037593089421
 30
0.0
 10
109.2161312515581
 20
245.4284932475284
 30
0.0
 10
109.216713329688
 20
245.7285269138918
 30
0.0
 10
109.2156753500064
 20
246.97071862509
 30
0.0
 10
109.216772486651
 20
249.166398686758
 30
0.0
 10
109.216328490031
 20
251.3427523800402
 30
0.0
 10
109.2158108725306
 20
253.4630944674777
 30
0.0
 10
109.2167825311365
 20
256.085752950523
 30
0.0
 10
109.2162671256137
 20
259.1291946865338
 30
0.0
 10
109.2159779806763
 20
261.6342329558616
 30
0.0
 10
109.2162437783205
 20
263.9245603059979
 30
0.0
 10
109.2164428803693
 20
265.3496628472803
 30
0.0
 10
109.216542431324
 20
266.0622129103343
 30
0.0
  0
LINE
  5
12D
330
109
100
AcDbEntity
  8
$DDT_AUDIT_GENERATED_(9F)
  6
Continuous
 62
     7
100
AcDbLine
 10
109.2165424313
 20
266.0622129103
 30
0.0
 11
109.2165424312
 21
295.403402164
 31
0.0
  0
ARC
  5
12E
330
109
100
AcDbEntity
  8
$DDT_AUDIT_GENERATED_(9F)
  6
Continuous
 62
     7
100
AcDbCircle
 10
103.032010068
 20
267.3727940281
 30
0.0
 40
0.5041400554638351
100
AcDbArc
 50
359.8385963856
 51
88.3348040701
  0
ARC
  5
12F
330
109
100
AcDbEntity
  8
$DDT_AUDIT_GENERATED_(9F)
  6
Continuous
 62
     7
100
AcDbCircle
 10
94.5361481232
 20
-136.4319811338
 30
0.0
 40
404.3982635721412
100
AcDbArc
 50
88.7941283363
 51
91.2058716636
  0
ARC
  5
130
330
109
100
AcDbEntity
  8
$DDT_AUDIT_GENERATED_(9F)
  6
Continuous
 62
     7
100
AcDbCircle
 10
86.0403185543
 20
267.3727626681
 30
0.0
 40
0.504172344024811
100
AcDbArc
 50
91.6687701085
 51
180.1578293986
  0
LINE
  5
131
330
109
100
AcDbEntity
  8
$DDT_AUDIT_GENERATED_(9F)
  6
Continuous
 62
     7
100
AcDbLine
 10
79.3327317721
 20
295.1010399403
 30
0.0
 11
79.3327317676
 21
245.7024389755
 31
0.0
  0
LINE
  5
132
330
109
100
AcDbEntity
  8
$DDT_AUDIT_GENERATED_(9F)
  6
Continuous
 62
     7
100
AcDbLine
 10
85.5361481232
 20
258.4217012382
 30
0.0
 11
85.5361481232
 21
267.3713738706
 31
0.0
  0
LINE
  5
133
330
109
100
AcDbEntity
  8
$DDT_AUDIT_GENERATED_(9F)
  6
Continuous
 62
     7
100
AcDbLine
 10
85.5361481232
 20
255.6431644181
 30
0.0
 11
85.5361481232
 21
258.4217011888
 31
0.0
  0
LINE
  5
134
330
109
100
AcDbEntity
  8
$DDT_AUDIT_GENERATED_(9F)
  6
Continuous
 62
     7
100
AcDbLine
 10
103.5361481232
 20
258.4217011888
 30
0.0
 11
103.5361481232
 21
255.6431644181
 31
0.0
  0
LINE
  5
135
330
109
100
AcDbEntity
  8
$DDT_AUDIT_GENERATED_(9F)
  6
Continuous
 62
     7
100
AcDbLine
 10
103.5361481232
 20
267.3713738706
 30
0.0
 11
103.5361481232
 21
258.4217012656
 31
0.0
  0
SPLINE
  5
136
330
109
100
AcDbEntity
  8
$DDT_AUDIT_GENERATED_(9F)
  6
Continuous
 62
     7
100
AcDbSpline
210
0.0
220
0.0
230
1.0
 70
     8
 71
     3
 72
     8
 73
     4
 74
     0
 42
0.0000000019394618
 43
0.0000000001
 40
0.0
 40
0.0
 40
0.0
 40
0.0
 40
0.0318507820669072
 40
0.0318507820669072
 40
0.0318507820669072
 40
0.0318507820669072
 10
85.53614812315212
 20
255.6431644673637
 30
0.0
 10
85.54523903320093
 20
255.5910822168151
 30
0.0
 10
85.55432994324937
 20
255.53900001129
 30
0.0
 10
85.5814354813852
 20
255.4871749022442
 30
0.0
  0
SPLINE
  5
137
330
109
100
AcDbEntity
  8
$DDT_AUDIT_GENERATED_(9F)
  6
Continuous
 62
     7
100
AcDbSpline
210
0.0
220
0.0
230
1.0
 70
     8
 71
     3
 72
     8
 73
     4
 74
     0
 42
0.0000000018720873
 43
0.0000000001
 40
0.9686005477644585
 40
0.9686005477644585
 40
0.9686005477644585
 40
0.9686005477644585
 40
1.0
 40
1.0
 40
1.0
 40
1.0
 10
103.4706500847799
 20
255.489117523571
 30
0.0
 10
103.4978547671199
 20
255.5402997411616
 30
0.0
 10
103.5170014451361
 20
255.5917320995416
 30
0.0
 10
103.5361481231522
 20
255.6431644674662
 30
0.0
  0
LINE
  5
138
330
109
100
AcDbEntity
  8
$DDT_AUDIT_GENERATED_(9F)
  6
Continuous
 62
     7
100
AcDbLine
 10
109.2165424312
 20
295.403402164
 30
0.0
 11
79.6327317676
 21
295.403402164
 31
0.0
  0
LINE
  5
139
330
109
100
AcDbEntity
  8
$DDT_AUDIT_GENERATED_(9F)
  6
Continuous
 62
     7
100
AcDbLine
 10
79.6327317676
 20
245.4034325398
 30
0.0
 11
109.2161121102
 21
245.4034325398
 31
0.0
  0
ARC
  5
13A
330
109
100
AcDbEntity
  8
$DDT_AUDIT_GENERATED_(9F)
  6
Continuous
 62
     7
100
AcDbCircle
 10
109.2160705277
 20
245.903431432
 30
0.0
 40
0.5000003504873675
100
AcDbArc
 50
270.0000193328
 51
342.8821390355
  0
ARC
  5
13B
330
109
100
AcDbEntity
  8
$DDT_AUDIT_GENERATED_(9F)
  6
Continuous
 62
     7
100
AcDbCircle
 10
109.216070569
 20
294.9034034165
 30
0.0
 40
0.5000002923904527
100
AcDbArc
 50
17.1178637283
 51
89.9999876265
  0
ARC
  5
13C
330
109
100
AcDbEntity
  8
$DDT_AUDIT_GENERATED_(9F)
  6
Continuous
 62
     7
100
AcDbCircle
 10
79.6340006125
 20
295.1021089231
 30
0.0
 40
0.3012970147953876
100
AcDbArc
 50
90.2412890582
 51
180.7834948865
  0
ARC
  5
13D
330
109
100
AcDbEntity
  8
$DDT_AUDIT_GENERATED_(9F)
  6
Continuous
 62
     7
100
AcDbCircle
 10
79.6338659818
 20
245.7045896466
 30
0.0
 40
0.3011603269032465
100
AcDbArc
 50
179.2454845306
 51
269.7842151434
  0
ARC
  5
13E
330
109
100
AcDbEntity
  8
$DDT_AUDIT_GENERATED_(9F)
  6
Continuous
 62
     7
100
AcDbCircle
 10
29.6743397925
 20
270.4007777041
 30
0.0
 40
83.72863866951838
100
AcDbArc
 50
342.8832767549
 51
0.0018063196
  0
ARC
  5
13F
330
109
100
AcDbEntity
  8
$DDT_AUDIT_GENERATED_(9F)
  6
Continuous
 62
     7
100
AcDbCircle
 10
29.6743286365
 20
270.4060553212
 30
0.0
 40
83.72864982545185
100
AcDbArc
 50
359.9981948294
 51
17.1167220961
  0
SPLINE
  5
140
330
109
100
AcDbEntity
  8
$DDT_AUDIT_GENERATED_(9F)
  6
Continuous
 62
     7
100
AcDbSpline
210
0.0
220
0.0
230
1.0
 70
     8
 71
     3
 72
    31
 73
    27
 74
     0
 42
0.0000000005282919
 43
0.0000000001
 40
0.0
 40
0.0
 40
0.0
 40
0.0
 40
0.0258030171921876
 40
0.048205617084273
 40
0.0752026579973261
 40
0.0959167427651799
 40
0.1164599744505063
 40
0.137546137236425
 40
0.1968900213503985
 40
0.2572516074657469
 40
0.3163279203194114
 40
0.3736984380508457
 40
0.4313590781678023
 40
0.4887652044025056
 40
0.5464766093762577
 40
0.6041339600935376
 40
0.6613946545110225
 40
0.7190923954837041
 40
0.7578894825873476
 40
0.7992431980679426
 40
0.8429725846392702
 40
0.8772748741650298
 40
0.9143772572838164
 40
0.9412629267745282
 40
0.9697979416683145
 40
1.0
 40
1.0
 40
1.0
 40
1.0
 10
85.57942138867878
 20
255.4900685183976
 30
0.0
 10
85.61471848012998
 20
255.3759204805417
 30
0.0
 10
85.67326260643222
 20
255.1983893568761
 30
0.0
 10
85.90509548677187
 20
254.9361858778029
 30
0.0
 10
86.16784877134813
 20
254.7662282285784
 30
0.0
 10
86.383830685021
 20
254.6611690087976
 30
0.0
 10
86.61219616990454
 20
254.5659078602519
 30
0.0
 10
87.02247161122304
 20
254.4215777014257
 30
0.0
 10
87.70443738035283
 20
254.2395475585972
 30
0.0
 10
88.77125279215085
 20
254.0424763967104
 30
0.0
 10
90.0058639826623
 20
253.8841719271354
 30
0.0
 10
91.35098027063054
 20
253.7676169667288
 30
0.0
 10
92.77631027007838
 20
253.6932810121245
 30
0.0
 10
94.25589161575182
 20
253.6629072685869
 30
0.0
 10
95.74356007854087
 20
253.676635296253
 30
0.0
 10
97.19486164992855
 20
253.7346419392904
 30
0.0
 10
98.56786301708826
 20
253.835276230707
 30
0.0
 10
99.6890544220024
 20
253.9597795741938
 30
0.0
 10
100.5912821245923
 20
254.0955603169717
 30
0.0
 10
101.3191011079952
 20
254.235477931848
 30
0.0
 10
101.9298933136298
 20
254.388694280828
 30
0.0
 10
102.416458436231
 20
254.5455008303848
 30
0.0
 10
102.7947298728874
 20
254.7047545768393
 30
0.0
 10
103.1257226423519
 20
254.9137765019532
 30
0.0
 10
103.3830483226517
 20
255.1766449686201
 30
0.0
 10
103.4534745695749
 20
255.3721911492186
 30
0.0
 10
103.4943742386733
 20
255.4927429178908
 30
0.0
  0
LINE
  5
142
330
109
100
AcDbEntity
  8
A4226042_DICHTUN
  6
Continuous
 62
     7
100
AcDbLine
 10
16.6915999821
 20
250.4324104971
 30
0.0
 11
6.35
 21
259.1100432279
 31
0.0
  0
LINE
  5
143
330
109
100
AcDbEntity
  8
A4226042_DICHTUN
  6
Continuous
 62
     7
100
AcDbLine
 10
6.35
 20
259.1100432279
 30
0.0
 11
8.5329995293
 21
261.7116407596
 31
0.0
  0
LINE
  5
144
330
109
100
AcDbEntity
  8
A4226042_DICHTUN
  6
Continuous
 62
     7
100
AcDbLine
 10
38.4893804843
 20
297.4122653838
 30
0.0
 11
42.3796852981
 21
294.1479120494
 31
0.0
  0
ARC
  5
145
330
109
100
AcDbEntity
  8
A4226042_DICHTUN
  6
Continuous
 62
     7
100
AcDbCircle
 10
32.7612902243
 20
269.5835215751
 30
0.0
 40
25.0
100
AcDbArc
 50
292.5645818001
 51
293.4475980933
  0
ARC
  5
146
330
109
100
AcDbEntity
  8
A4226042_DICHTUN
  6
Continuous
 62
     7
100
AcDbCircle
 10
32.7612902243
 20
269.5835215751
 30
0.0
 40
25.0
100
AcDbArc
 50
230.0
 51
237.5695495557
  0
LINE
  5
147
330
109
100
AcDbEntity
  8
A4226042_DICHTUN
  6
Continuous
 62
     7
100
AcDbLine
 10
35.7859411793
 20
294.1904318797
 30
0.0
 11
38.4893804843
 21
297.4122653838
 31
0.0
  0
ENDBLK
  5
149
330
109
100
AcDbEntity
  8
0
100
AcDbBlockEnd
  0
ENDSEC
  0
SECTION
  2
ENTITIES
  0
INSERT
  5
5F
330
1F
100
AcDbEntity
  8
Default
100
AcDbBlockReference
  2
SE
 10
0.0
 20
0.0
 30
0.0
  0
INSERT
  5
BD
330
1F
100
AcDbEntity
  8
Default
100
AcDbBlockReference
  2
SE1
 10
0.0
 20
0.0
 30
0.0
  0
INSERT
  5
10A
330
1F
100
AcDbEntity
  8
Default
100
AcDbBlockReference
  2
SE2
 10
0.0
 20
0.0
 30
0.0
  0
TEXT
  5
14B
330
1F
100
AcDbEntity
  8
Default
  6
Continuous
 62
     7
100
AcDbText
 10
5.9362635081
 20
53.4225120485
 30
0.0
 40
10.0
  1
Grohe AG^J
  7
SEACAD_seiso_ttf
 11
5.9362635081
 21
63.4225120485
 31
0.0
100
AcDbText
 73
     3
  0
TEXT
  5
14C
330
1F
100
AcDbEntity
  8
Default
  6
Continuous
 62
     7
100
AcDbText
 10
5.9362635081
 20
37.0588756849
 30
0.0
 40
10.0
  1
 
  7
SEACAD_seiso_ttf
 11
5.9362635081
 21
47.0588756849
 31
0.0
100
AcDbText
 73
     3
  0
TEXT
  5
14D
330
1F
100
AcDbEntity
  8
Default
  6
Continuous
 62
     7
100
AcDbText
 10
5.9362635081
 20
20.6952393213
 30
0.0
 40
10.0
  1
ecn: 
  7
SEACAD_seiso_ttf
 11
5.9362635081
 21
30.6952393213
 31
0.0
100
AcDbText
 73
     3
  0
TEXT
  5
14E
330
1F
100
AcDbEntity
  8
Default
  6
Continuous
 62
     7
100
AcDbText
 10
5.9362635081
 20
4.3316029576
 30
0.0
 40
10.0
  1
unit: mm
  7
SEACAD_seiso_ttf
 11
5.9362635081
 21
14.3316029576
 31
0.0
100
AcDbText
 73
     3
  0
LINE
  5
14F
330
1F
100
AcDbEntity
  8
Default
  6
Continuous
 62
     7
100
AcDbLine
 10
0.0
 20
0.0
 30
0.0
 11
100.0
 21
0.0
 31
0.0
  0
LINE
  5
150
330
1F
100
AcDbEntity
  8
Default
  6
Continuous
 62
     7
100
AcDbLine
 10
0.0
 20
0.0
 30
0.0
 11
0.0
 21
100.0
 31
0.0
  0
TEXT
  5
151
330
1F
100
AcDbEntity
  8
Default
  6
Continuous
 62
     7
100
AcDbText
 10
24.3923665681
 20
-18.2375342018
 30
0.0
 40
10.0
  1
100 mm
  7
SEACAD_seiso_ttf
 11
24.3923665681
 21
-8.2375342018
 31
0.0
100
AcDbText
 73
     3
  0
TEXT
  5
152
330
1F
100
AcDbEntity
  8
Default
  6
Continuous
 62
     7
100
AcDbText
 10
-7.6150308803
 20
24.6231930421
 30
0.0
 40
10.0
  1
100 mm
 50
90.0
  7
SEACAD_seiso_ttf
 11
-17.6150308803
 21
24.6231930421
 31
0.0
100
AcDbText
 73
     3
  0
TEXT
  5
153
330
1F
100
AcDbEntity
  8
Default
  6
Continuous
 62
     7
100
AcDbText
 10
28.4878128572
 20
20.0907663715
 30
0.0
 40
10.0
  1
216815
  7
SEACAD_seiso_ttf
 11
28.4878128572
 21
30.0907663715
 31
0.0
100
AcDbText
 73
     3
  0
TEXT
  5
154
330
1F
100
AcDbEntity
  8
Default
  6
Continuous
 62
     7
100
AcDbText
 10
5.9012241913
 20
36.7242780188
 30
0.0
 40
10.0
  1
32830000
  7
SEACAD_seiso_ttf
 11
5.9012241913
 21
46.7242780188
 31
0.0
100
AcDbText
 73
     3
  0
ENDSEC
  0
SECTION
  2
OBJECTS
  0
DICTIONARY
  5
C
330
0
100
AcDbDictionary
281
     1
  3
ACAD_GROUP
350
D
  3
ACAD_LAYOUT
350
1A
  3
ACAD_MLEADERSTYLE
350
158
  3
ACAD_MLINESTYLE
350
17
  3
ACAD_PLOTSETTINGS
350
19
  3
ACAD_PLOTSTYLENAME
350
E
  3
ACAD_SCALELIST
350
3B
  3
ACAD_TABLESTYLE
350
157
  3
ACAD_VISUALSTYLE
350
2A
  3
AcDbVariableDictionary
350
155
  0
DICTIONARY
  5
D
102
{ACAD_REACTORS
330
C
102
}
330
C
100
AcDbDictionary
281
     1
  0
DICTIONARY
  5
1A
102
{ACAD_REACTORS
330
C
102
}
330
C
100
AcDbDictionary
281
     1
  3
Layout1
350
1E
  3
Model
350
22
  0
DICTIONARY
  5
158
102
{ACAD_REACTORS
330
C
102
}
330
C
100
AcDbDictionary
281
     1
  0
DICTIONARY
  5
17
102
{ACAD_REACTORS
330
C
102
}
330
C
100
AcDbDictionary
281
     1
  3
Standard
350
18
  0
DICTIONARY
  5
19
102
{ACAD_REACTORS
330
C
102
}
330
C
100
AcDbDictionary
281
     1
  0
ACDBDICTIONARYWDFLT
  5
E
102
{ACAD_REACTORS
330
C
102
}
330
C
100
AcDbDictionary
281
     1
  3
Normal
350
F
100
AcDbDictionaryWithDefault
340
F
  0
DICTIONARY
  5
3B
102
{ACAD_REACTORS
330
C
102
}
330
C
100
AcDbDictionary
281
     1
  3
A0
350
3C
  3
A1
350
3D
  3
A2
350
3E
  3
A3
350
3F
  3
A4
350
40
  3
A5
350
41
  3
A6
350
42
  3
A7
350
43
  3
A8
350
44
  3
A9
350
45
  3
B0
350
46
  3
B1
350
47
  3
B2
350
48
  3
B3
350
49
  3
B4
350
4A
  3
B5
350
4B
  3
B6
350
4C
  3
B7
350
4D
  3
B8
350
4E
  3
B9
350
4F
  3
C0
350
50
  3
C1
350
51
  3
C2
350
52
  3
C3
350
53
  3
C4
350
54
  3
C5
350
55
  3
C6
350
56
  3
C7
350
57
  3
C8
350
58
  3
C9
350
59
  3
D0
350
5A
  3
D1
350
5B
  3
D2
350
5C
  0
DICTIONARY
  5
157
102
{ACAD_REACTORS
330
C
102
}
330
C
100
AcDbDictionary
281
     1
  0
DICTIONARY
  5
2A
102
{ACAD_REACTORS
330
C
102
}
330
C
100
AcDbDictionary
281
     1
  3
2dWireframe
350
2F
  3
3D Hidden
350
31
  3
3dWireframe
350
30
  3
Basic
350
32
  3
Brighten
350
36
  3
ColorChange
350
3A
  3
Conceptual
350
34
  3
Dim
350
35
  3
Facepattern
350
39
  3
Flat
350
2B
  3
FlatWithEdges
350
2C
  3
Gouraud
350
2D
  3
GouraudWithEdges
350
2E
  3
Linepattern
350
38
  3
Realistic
350
33
  3
Thicken
350
37
  0
DICTIONARY
  5
155
102
{ACAD_REACTORS
330
C
102
}
330
C
100
AcDbDictionary
281
     1
  3
CANNOSCALE
350
156
  3
PSOLHEIGHT
350
15A
  3
PSOLWIDTH
350
159
  0
LAYOUT
  5
1E
102
{ACAD_REACTORS
330
1A
102
}
330
1A
100
AcDbPlotSettings
  1

  2
none_device
  4

  6

 40
0.0
 41
0.0
 42
0.0
 43
0.0
 44
0.0
 45
0.0
 46
0.0
 47
0.0
 48
0.0
 49
0.0
140
0.0
141
0.0
142
1.0
143
1.0
 70
   688
 72
     0
 73
     0
 74
     5
  7

 75
    16
147
1.0
148
0.0
149
0.0
100
AcDbLayout
  1
Layout1
 70
     1
 71
     1
 10
0.0
 20
0.0
 11
1682.0
 21
2378.0
 12
0.0
 22
0.0
 32
0.0
 14
0.0
 24
0.0
 34
0.0
 15
1682.0
 25
2378.0
 35
0.0
146
0.0
 13
0.0
 23
0.0
 33
0.0
 16
1.0
 26
0.0
 36
0.0
 17
0.0
 27
1.0
 37
0.0
 76
     0
330
1B
  0
LAYOUT
  5
22
102
{ACAD_REACTORS
330
1A
102
}
330
1A
100
AcDbPlotSettings
  1

  2
none_device
  4

  6

 40
0.0
 41
0.0
 42
0.0
 43
0.0
 44
0.0
 45
0.0
 46
0.0
 47
0.0
 48
0.0
 49
0.0
140
0.0
141
0.0
142
1.0
143
1.0
 70
  1712
 72
     0
 73
     0
 74
     0
  7

 75
     0
147
1.0
148
0.0
149
0.0
100
AcDbLayout
  1
Model
 70
     1
 71
     0
 10
0.0
 20
0.0
 11
1682.0
 21
2378.0
 12
0.0
 22
0.0
 32
0.0
 14
0.0
 24
0.0
 34
0.0
 15
1682.0
 25
2378.0
 35
0.0
146
0.0
 13
0.0
 23
0.0
 33
0.0
 16
1.0
 26
0.0
 36
0.0
 17
0.0
 27
1.0
 37
0.0
 76
     0
330
1F
331
29
  0
MLINESTYLE
  5
18
102
{ACAD_REACTORS
330
17
102
}
330
17
100
AcDbMlineStyle
  2
Standard
 70
     0
  3

 62
   256
 51
90.0
 52
90.0
 71
     2
 49
0.5
 62
   256
  6
BYLAYER
 49
-0.5
 62
   256
  6
BYLAYER
  0
ACDBPLACEHOLDER
  5
F
102
{ACAD_REACTORS
330
E
102
}
330
E
  0
SCALE
  5
3C
102
{ACAD_REACTORS
330
3B
102
}
330
3B
100
AcDbScale
 70
     0
300
1:1
140
1.0
141
1.0
290
     1
  0
SCALE
  5
3D
102
{ACAD_REACTORS
330
3B
102
}
330
3B
100
AcDbScale
 70
     0
300
1:2
140
1.0
141
2.0
290
     0
  0
SCALE
  5
3E
102
{ACAD_REACTORS
330
3B
102
}
330
3B
100
AcDbScale
 70
     0
300
1:4
140
1.0
141
4.0
290
     0
  0
SCALE
  5
3F
102
{ACAD_REACTORS
330
3B
102
}
330
3B
100
AcDbScale
 70
     0
300
1:5
140
1.0
141
5.0
290
     0
  0
SCALE
  5
40
102
{ACAD_REACTORS
330
3B
102
}
330
3B
100
AcDbScale
 70
     0
300
1:8
140
1.0
141
8.0
290
     0
  0
SCALE
  5
41
102
{ACAD_REACTORS
330
3B
102
}
330
3B
100
AcDbScale
 70
     0
300
1:10
140
1.0
141
10.0
290
     0
  0
SCALE
  5
42
102
{ACAD_REACTORS
330
3B
102
}
330
3B
100
AcDbScale
 70
     0
300
1:16
140
1.0
141
16.0
290
     0
  0
SCALE
  5
43
102
{ACAD_REACTORS
330
3B
102
}
330
3B
100
AcDbScale
 70
     0
300
1:20
140
1.0
141
20.0
290
     0
  0
SCALE
  5
44
102
{ACAD_REACTORS
330
3B
102
}
330
3B
100
AcDbScale
 70
     0
300
1:30
140
1.0
141
30.0
290
     0
  0
SCALE
  5
45
102
{ACAD_REACTORS
330
3B
102
}
330
3B
100
AcDbScale
 70
     0
300
1:40
140
1.0
141
40.0
290
     0
  0
SCALE
  5
46
102
{ACAD_REACTORS
330
3B
102
}
330
3B
100
AcDbScale
 70
     0
300
1:50
140
1.0
141
50.0
290
     0
  0
SCALE
  5
47
102
{ACAD_REACTORS
330
3B
102
}
330
3B
100
AcDbScale
 70
     0
300
1:100
140
1.0
141
100.0
290
     0
  0
SCALE
  5
48
102
{ACAD_REACTORS
330
3B
102
}
330
3B
100
AcDbScale
 70
     0
300
2:1
140
2.0
141
1.0
290
     0
  0
SCALE
  5
49
102
{ACAD_REACTORS
330
3B
102
}
330
3B
100
AcDbScale
 70
     0
300
4:1
140
4.0
141
1.0
290
     0
  0
SCALE
  5
4A
102
{ACAD_REACTORS
330
3B
102
}
330
3B
100
AcDbScale
 70
     0
300
8:1
140
8.0
141
1.0
290
     0
  0
SCALE
  5
4B
102
{ACAD_REACTORS
330
3B
102
}
330
3B
100
AcDbScale
 70
     0
300
10:1
140
10.0
141
1.0
290
     0
  0
SCALE
  5
4C
102
{ACAD_REACTORS
330
3B
102
}
330
3B
100
AcDbScale
 70
     0
300
100:1
140
100.0
141
1.0
290
     0
  0
SCALE
  5
4D
102
{ACAD_REACTORS
330
3B
102
}
330
3B
100
AcDbScale
 70
     0
300
1/128" = 1'-0"
140
0.0078125
141
12.0
290
     0
  0
SCALE
  5
4E
102
{ACAD_REACTORS
330
3B
102
}
330
3B
100
AcDbScale
 70
     0
300
1/64" = 1'-0"
140
0.015625
141
12.0
290
     0
  0
SCALE
  5
4F
102
{ACAD_REACTORS
330
3B
102
}
330
3B
100
AcDbScale
 70
     0
300
1/32" = 1'-0"
140
0.03125
141
12.0
290
     0
  0
SCALE
  5
50
102
{ACAD_REACTORS
330
3B
102
}
330
3B
100
AcDbScale
 70
     0
300
1/16" = 1'-0"
140
0.0625
141
12.0
290
     0
  0
SCALE
  5
51
102
{ACAD_REACTORS
330
3B
102
}
330
3B
100
AcDbScale
 70
     0
300
3/32" = 1'-0"
140
0.09375
141
12.0
290
     0
  0
SCALE
  5
52
102
{ACAD_REACTORS
330
3B
102
}
330
3B
100
AcDbScale
 70
     0
300
1/8" = 1'-0"
140
0.125
141
12.0
290
     0
  0
SCALE
  5
53
102
{ACAD_REACTORS
330
3B
102
}
330
3B
100
AcDbScale
 70
     0
300
3/16" = 1'-0"
140
0.1875
141
12.0
290
     0
  0
SCALE
  5
54
102
{ACAD_REACTORS
330
3B
102
}
330
3B
100
AcDbScale
 70
     0
300
1/4" = 1'-0"
140
0.25
141
12.0
290
     0
  0
SCALE
  5
55
102
{ACAD_REACTORS
330
3B
102
}
330
3B
100
AcDbScale
 70
     0
300
3/8" = 1'-0"
140
0.375
141
12.0
290
     0
  0
SCALE
  5
56
102
{ACAD_REACTORS
330
3B
102
}
330
3B
100
AcDbScale
 70
     0
300
1/2" = 1'-0"
140
0.5
141
12.0
290
     0
  0
SCALE
  5
57
102
{ACAD_REACTORS
330
3B
102
}
330
3B
100
AcDbScale
 70
     0
300
3/4" = 1'-0"
140
0.75
141
12.0
290
     0
  0
SCALE
  5
58
102
{ACAD_REACTORS
330
3B
102
}
330
3B
100
AcDbScale
 70
     0
300
1" = 1'-0"
140
1.0
141
12.0
290
     0
  0
SCALE
  5
59
102
{ACAD_REACTORS
330
3B
102
}
330
3B
100
AcDbScale
 70
     0
300
1-1/2" = 1'-0"
140
1.5
141
12.0
290
     0
  0
SCALE
  5
5A
102
{ACAD_REACTORS
330
3B
102
}
330
3B
100
AcDbScale
 70
     0
300
3" = 1'-0"
140
3.0
141
12.0
290
     0
  0
SCALE
  5
5B
102
{ACAD_REACTORS
330
3B
102
}
330
3B
100
AcDbScale
 70
     0
300
6" = 1'-0"
140
6.0
141
12.0
290
     0
  0
SCALE
  5
5C
102
{ACAD_REACTORS
330
3B
102
}
330
3B
100
AcDbScale
 70
     0
300
1'-0" = 1'-0"
140
12.0
141
12.0
290
     0
  0
VISUALSTYLE
  5
2F
102
{ACAD_REACTORS
330
2A
102
}
330
2A
100
AcDbVisualStyle
  2
2dWireframe
 70
     4
 71
     0
 72
     2
 73
     0
 90
        0
 40
-0.6
 41
-30.0
 62
     5
 63
     7
 74
     1
 91
        4
 64
     7
 65
   257
 75
     1
175
     1
 42
1.0
 92
        0
 66
   257
 43
1.0
 76
     1
 77
     6
 78
     2
 67
     7
 79
     5
170
     0
171
     0
290
     0
174
     0
 93
        1
 44
0.0
173
     0
291
     0
 45
0.0
1001
ACAD
1000
AcDbSavedByObjectVersion
1070
     0
  0
VISUALSTYLE
  5
31
102
{ACAD_REACTORS
330
2A
102
}
330
2A
100
AcDbVisualStyle
  2
3D Hidden
 70
     6
 71
     1
 72
     2
 73
     2
 90
        0
 40
-0.6
 41
-30.0
 62
     5
 63
     7
 74
     2
 91
        2
 64
     7
 65
   257
 75
     2
175
     1
 42
40.0
 92
        0
 66
   257
 43
1.0
 76
     1
 77
     6
 78
     2
 67
     7
 79
     3
170
     0
171
     0
290
     0
174
     0
 93
        1
 44
0.0
173
     0
291
     0
 45
0.0
1001
ACAD
1000
AcDbSavedByObjectVersion
1070
     0
  0
VISUALSTYLE
  5
30
102
{ACAD_REACTORS
330
2A
102
}
330
2A
100
AcDbVisualStyle
  2
3dWireframe
 70
     5
 71
     0
 72
     2
 73
     0
 90
        0
 40
-0.6
 41
-30.0
 62
     5
 63
     7
 74
     1
 91
        4
 64
     7
 65
   257
 75
     1
175
     1
 42
1.0
 92
        0
 66
   257
 43
1.0
 76
     1
 77
     6
 78
     2
 67
     7
 79
     5
170
     0
171
     0
290
     0
174
     0
 93
        1
 44
0.0
173
     0
291
     0
 45
0.0
1001
ACAD
1000
AcDbSavedByObjectVersion
1070
     0
  0
VISUALSTYLE
  5
32
102
{ACAD_REACTORS
330
2A
102
}
330
2A
100
AcDbVisualStyle
  2
Basic
 70
     7
 71
     1
 72
     0
 73
     1
 90
        0
 40
-0.6
 41
-30.0
 62
     5
 63
     7
 74
     0
 91
        4
 64
     7
 65
   257
 75
     1
175
     1
 42
1.0
 92
        8
 66
     7
 43
1.0
 76
     1
 77
     6
 78
     2
 67
     7
 79
     5
170
     0
171
     0
290
     0
174
     0
 93
        1
 44
0.0
173
     0
291
     1
 45
0.0
1001
ACAD
1000
AcDbSavedByObjectVersion
1070
     0
  0
VISUALSTYLE
  5
36
102
{ACAD_REACTORS
330
2A
102
}
330
2A
100
AcDbVisualStyle
  2
Brighten
 70
    12
 71
     2
 72
     2
 73
     0
 90
        0
 40
-0.6
 41
-30.0
 62
     5
 63
     7
 74
     1
 91
        4
 64
     7
 65
   257
 75
     1
175
     1
 42
1.0
 92
        8
 66
     7
 43
1.0
 76
     1
 77
     6
 78
     2
 67
     7
 79
     5
170
     0
171
     0
290
     0
174
     0
 93
        1
 44
50.0
173
     0
291
     1
 45
0.0
1001
ACAD
1000
AcDbSavedByObjectVersion
1070
     0
  0
VISUALSTYLE
  5
3A
102
{ACAD_REACTORS
330
2A
102
}
330
2A
100
AcDbVisualStyle
  2
ColorChange
 70
    16
 71
     2
 72
     2
 73
     3
 90
        0
 40
-0.6
 41
-30.0
 62
     5
 63
     8
 74
     1
 91
        4
 64
     7
 65
   257
 75
     1
175
     1
 42
1.0
 92
        8
 66
     8
 43
1.0
 76
     1
 77
     6
 78
     2
 67
     7
 79
     5
170
     0
171
     0
290
     0
174
     0
 93
        1
 44
0.0
173
     0
291
     1
 45
0.0
1001
ACAD
1000
AcDbSavedByObjectVersion
1070
     0
  0
VISUALSTYLE
  5
34
102
{ACAD_REACTORS
330
2A
102
}
330
2A
100
AcDbVisualStyle
  2
Conceptual
 70
     9
 71
     3
 72
     2
 73
     0
 90
        0
 40
-0.6
 41
-30.0
 62
     5
 63
     7
 74
     2
 91
        2
 64
     7
 65
   257
 75
     1
175
     1
 42
40.0
 92
        8
 66
     7
 43
1.0
 76
     1
 77
     6
 78
     2
 67
     7
 79
     3
170
     0
171
     0
290
     0
174
     0
 93
        1
 44
0.0
173
     0
291
     0
 45
0.0
1001
ACAD
1000
AcDbSavedByObjectVersion
1070
     0
  0
VISUALSTYLE
  5
35
102
{ACAD_REACTORS
330
2A
102
}
330
2A
100
AcDbVisualStyle
  2
Dim
 70
    11
 71
     2
 72
     2
 73
     0
 90
        0
 40
-0.6
 41
-30.0
 62
     5
 63
     7
 74
     1
 91
        4
 64
     7
 65
   257
 75
     1
175
     1
 42
1.0
 92
        8
 66
     7
 43
1.0
 76
     1
 77
     6
 78
     2
 67
     7
 79
     5
170
     0
171
     0
290
     0
174
     0
 93
        1
 44
-50.0
173
     0
291
     1
 45
0.0
1001
ACAD
1000
AcDbSavedByObjectVersion
1070
     0
  0
VISUALSTYLE
  5
39
102
{ACAD_REACTORS
330
2A
102
}
330
2A
100
AcDbVisualStyle
  2
Facepattern
 70
    15
 71
     2
 72
     2
 73
     0
 90
        0
 40
-0.6
 41
-30.0
 62
     5
 63
     7
 74
     1
 91
        4
 64
     7
 65
   257
 75
     1
175
     1
 42
1.0
 92
        8
 66
     7
 43
1.0
 76
     1
 77
     6
 78
     2
 67
     7
 79
     5
170
     0
171
     0
290
     0
174
     0
 93
        1
 44
0.0
173
     0
291
     1
 45
0.0
1001
ACAD
1000
AcDbSavedByObjectVersion
1070
     0
  0
VISUALSTYLE
  5
2B
102
{ACAD_REACTORS
330
2A
102
}
330
2A
100
AcDbVisualStyle
  2
Flat
 70
     0
 71
     2
 72
     1
 73
     1
 90
        2
 40
-0.6
 41
30.0
 62
     5
 63
     7
 74
     0
 91
        4
 64
     7
 65
   257
 75
     1
175
     1
 42
1.0
 92
        8
 66
     7
 43
1.0
 76
     1
 77
     6
 78
     2
 67
     7
 79
     5
170
     0
171
     0
290
     0
174
     0
 93
       13
 44
0.0
173
     0
291
     1
 45
0.0
1001
ACAD
1000
AcDbSavedByObjectVersion
1070
     0
  0
VISUALSTYLE
  5
2C
102
{ACAD_REACTORS
330
2A
102
}
330
2A
100
AcDbVisualStyle
  2
FlatWithEdges
 70
     1
 71
     2
 72
     1
 73
     1
 90
        2
 40
-0.6
 41
30.0
 62
     5
 63
     7
 74
     1
 91
        4
 64
     7
 65
   257
 75
     1
175
     1
 42
1.0
 92
        0
 66
   257
 43
1.0
 76
     1
 77
     6
 78
     2
 67
     7
 79
     5
170
     0
171
     0
290
     0
174
     0
 93
       13
 44
0.0
173
     0
291
     1
 45
0.0
1001
ACAD
1000
AcDbSavedByObjectVersion
1070
     0
  0
VISUALSTYLE
  5
2D
102
{ACAD_REACTORS
330
2A
102
}
330
2A
100
AcDbVisualStyle
  2
Gouraud
 70
     2
 71
     2
 72
     2
 73
     1
 90
        2
 40
-0.6
 41
30.0
 62
     5
 63
     7
 74
     0
 91
        4
 64
     7
 65
   257
 75
     1
175
     1
 42
1.0
 92
        0
 66
     7
 43
1.0
 76
     1
 77
     6
 78
     2
 67
     7
 79
     5
170
     0
171
     0
290
     0
174
     0
 93
       13
 44
0.0
173
     0
291
     1
 45
0.0
1001
ACAD
1000
AcDbSavedByObjectVersion
1070
     0
  0
VISUALSTYLE
  5
2E
102
{ACAD_REACTORS
330
2A
102
}
330
2A
100
AcDbVisualStyle
  2
GouraudWithEdges
 70
     3
 71
     2
 72
     2
 73
     1
 90
        2
 40
-0.6
 41
30.0
 62
     5
 63
     7
 74
     1
 91
        4
 64
     7
 65
   257
 75
     1
175
     1
 42
1.0
 92
        0
 66
   257
 43
1.0
 76
     1
 77
     6
 78
     2
 67
     7
 79
     5
170
     0
171
     0
290
     0
174
     0
 93
       13
 44
0.0
173
     0
291
     1
 45
0.0
1001
ACAD
1000
AcDbSavedByObjectVersion
1070
     0
  0
VISUALSTYLE
  5
38
102
{ACAD_REACTORS
330
2A
102
}
330
2A
100
AcDbVisualStyle
  2
Linepattern
 70
    14
 71
     2
 72
     2
 73
     0
 90
        0
 40
-0.6
 41
-30.0
 62
     5
 63
     7
 74
     1
 91
        4
 64
     7
 65
   257
 75
     7
175
     7
 42
1.0
 92
        8
 66
     7
 43
1.0
 76
     1
 77
     6
 78
     2
 67
     7
 79
     5
170
     0
171
     0
290
     0
174
     0
 93
        1
 44
0.0
173
     0
291
     1
 45
0.0
1001
ACAD
1000
AcDbSavedByObjectVersion
1070
     0
  0
VISUALSTYLE
  5
33
102
{ACAD_REACTORS
330
2A
102
}
330
2A
100
AcDbVisualStyle
  2
Realistic
 70
     8
 71
     2
 72
     2
 73
     0
 90
        0
 40
-0.6
 41
-30.0
 62
     5
 63
     7
 74
     1
 91
        0
 64
     7
 65
   257
 75
     1
175
     1
 42
1.0
 92
        8
 66
     8
 43
1.0
 76
     1
 77
     6
 78
     2
 67
     7
 79
     5
170
     0
171
     0
290
     0
174
     0
 93
       13
 44
0.0
173
     0
291
     0
 45
0.0
1001
ACAD
1000
AcDbSavedByObjectVersion
1070
     0
  0
VISUALSTYLE
  5
37
102
{ACAD_REACTORS
330
2A
102
}
330
2A
100
AcDbVisualStyle
  2
Thicken
 70
    13
 71
     2
 72
     2
 73
     0
 90
        0
 40
-0.6
 41
-30.0
 62
     5
 63
     7
 74
     1
 91
        4
 64
     7
 65
   257
 75
     1
175
     1
 42
1.0
 92
       12
 66
     7
 43
1.0
 76
     1
 77
     6
 78
     2
 67
     7
 79
     5
170
     0
171
     0
290
     0
174
     0
 93
        1
 44
0.0
173
     0
291
     1
 45
0.0
1001
ACAD
1000
AcDbSavedByObjectVersion
1070
     0
  0
DICTIONARYVAR
  5
156
102
{ACAD_REACTORS
330
155
102
}
330
155
100
DictionaryVariables
280
     0
  1
1:1
  0
DICTIONARYVAR
  5
15A
102
{ACAD_REACTORS
330
155
102
}
330
155
100
DictionaryVariables
280
     0
  1
80.000000
  0
DICTIONARYVAR
  5
159
102
{ACAD_REACTORS
330
155
102
}
330
155
100
DictionaryVariables
280
     0
  1
5.000000
  0
ENDSEC
  0
EOF
